0
SECTION
2
HEADER
9
$ACADVER
1
AC1015
9
$DWGCODEPAGE
3
ANSI_1252
9
$HANDSEED
5
24f
9
$ANGBASE
50
0
9
$ANGDIR
70
0
9
$ATTMODE
70
1
9
$AUNITS
70
0
9
$AUPREC
70
0
9
$CECOLOR
62
256
9
$CELTSCALE
40
1
9
$CELTYPE
6
ByLayer
9
$CELWEIGHT
370
18
9
$CLAYER
8
0
9
$CMLJUST
70
0
9
$CMLSCALE
40
1
9
$CMLSTYLE
2
Standard
9
$DIMSTYLE
2
Standard
9
$TEXTSIZE
40
0.2
9
$TEXTSTYLE
7
Standard
9
$LUNITS
70
2
9
$LUPREC
70
4
9
$EXTNAMES
290
1
9
$INSUNITS
70
4
9
$LTSCALE
40
1
9
$LWDISPLAY
290
1
9
$PDMODE
70
0
9
$PDSIZE
40
0
9
$PLINEGEN
70
0
0
ENDSEC
0
SECTION
2
CLASSES
0
CLASS
1
RASTERVARIABLES
2
AcDbRasterVariables
3
ISM
90
0
280
0
281
0
0
ENDSEC
0
SECTION
2
TABLES
0
TABLE
2
VPORT
5
245
100
AcDbSymbolTable
0
VPORT
5
1
100
AcDbSymbolTableRecord
100
AcDbViewportTableRecord
2
*Active
70
0
10
0
20
0
11
1
21
1
12
-1
22
1
13
0
23
0
14
0.5
24
0.5
15
10
25
10
16
0
26
0
36
1
17
0
27
0
37
0
0
ENDTAB
0
TABLE
2
LTYPE
5
246
100
AcDbSymbolTable
0
LTYPE
5
14
100
AcDbSymbolTableRecord
100
AcDbLinetypeTableRecord
70
0
2
ByBlock
3

72
65
73
0
40
0
0
LTYPE
5
15
100
AcDbSymbolTableRecord
100
AcDbLinetypeTableRecord
70
0
2
ByLayer
3

72
65
73
0
40
0
0
LTYPE
5
16
100
AcDbSymbolTableRecord
100
AcDbLinetypeTableRecord
70
0
2
Continuous
3
Solid line
72
65
73
0
40
0
0
LTYPE
5
6E
100
AcDbSymbolTableRecord
100
AcDbLinetypeTableRecord
70
0
2
CENTER
3
____ _ ____ _ ____ _ ____
72
65
73
4
40
47.5
49
22
74
0
49
-8.5
74
0
49
8.5
74
0
49
-8.5
74
0
0
LTYPE
5
6F
100
AcDbSymbolTableRecord
100
AcDbLinetypeTableRecord
70
0
2
DASHED
3
__ __ __ __ __ __ __ __ __
72
65
73
2
40
25.72
49
12.86
74
0
49
-12.86
74
0
0
ENDTAB
0
TABLE
2
LAYER
5
247
100
AcDbSymbolTable
0
LAYER
5
10
100
AcDbSymbolTableRecord
100
AcDbLayerTableRecord
2
0
70
0
62
7
6
Continuous
290
1
370
-3
390
0
0
LAYER
5
71
100
AcDbSymbolTableRecord
100
AcDbLayerTableRecord
2
2
70
0
62
7
6
Continuous
290
1
370
-3
390
0
0
LAYER
5
98
100
AcDbSymbolTableRecord
100
AcDbLayerTableRecord
2
80
70
0
62
-6
6
Continuous
290
1
370
-3
390
0
0
LAYER
5
9A
100
AcDbSymbolTableRecord
100
AcDbLayerTableRecord
2
81
70
0
62
-3
6
Continuous
290
1
370
-3
390
0
0
LAYER
5
9C
100
AcDbSymbolTableRecord
100
AcDbLayerTableRecord
2
1
70
0
62
4
6
Continuous
290
1
370
-3
390
0
0
LAYER
5
A4
100
AcDbSymbolTableRecord
100
AcDbLayerTableRecord
2
4
70
0
62
-2
6
CENTER
290
1
370
-3
390
0
0
LAYER
5
231
100
AcDbSymbolTableRecord
100
AcDbLayerTableRecord
2
SK4
70
0
62
2
6
CENTER
290
1
370
-3
390
0
0
LAYER
5
232
100
AcDbSymbolTableRecord
100
AcDbLayerTableRecord
2
SK1
70
0
62
4
6
Continuous
290
1
370
-3
390
0
0
LAYER
5
233
100
AcDbSymbolTableRecord
100
AcDbLayerTableRecord
2
SK2
70
0
62
7
6
Continuous
290
1
370
-3
390
0
0
LAYER
5
234
100
AcDbSymbolTableRecord
100
AcDbLayerTableRecord
2
SK6
70
0
62
5
6
Continuous
290
1
370
-3
390
0
0
ENDTAB
0
TABLE
2
STYLE
5
248
100
AcDbSymbolTable
0
STYLE
5
11
100
AcDbSymbolTableRecord
100
AcDbTextStyleTableRecord
2
Standard
3
txt
70
0
71
0
40
0
41
1
42
0
50
0
0
STYLE
5
1B5
100
AcDbSymbolTableRecord
100
AcDbTextStyleTableRecord
2
iso_b_vert
3
simplex.shx
70
0
71
0
40
0
41
1
42
0
50
0
0
STYLE
5
1B6
100
AcDbSymbolTableRecord
100
AcDbTextStyleTableRecord
2
DWGDirectTextStyle
3
simplex
70
0
71
0
40
0
41
1
42
0
50
0
0
ENDTAB
0
TABLE
2
DIMSTYLE
5
249
100
AcDbSymbolTable
100
AcDbDimStyleTable
0
DIMSTYLE
105
27
100
AcDbSymbolTableRecord
100
AcDbDimStyleTableRecord
2
Standard
70
0
3
<>
41
0.18
42
0.0625
44
0.18
140
0.18
147
0.09
73
0
74
0
77
1
271
2
275
0
278
52
280
0
340
11
0
ENDTAB
0
TABLE
2
VIEW
5
24a
100
AcDbSymbolTable
0
ENDTAB
0
TABLE
2
UCS
5
24b
100
AcDbSymbolTable
0
ENDTAB
0
TABLE
2
APPID
5
24c
100
AcDbSymbolTable
0
APPID
5
12
100
AcDbSymbolTableRecord
100
AcDbRegAppTableRecord
2
ACAD
70
0
0
APPID
5
22D
100
AcDbSymbolTableRecord
100
AcDbRegAppTableRecord
2
ACAD_MLEADERVER
70
0
0
ENDTAB
0
TABLE
2
BLOCK_RECORD
5
24d
100
AcDbSymbolTable
0
BLOCK_RECORD
5
1F
100
AcDbSymbolTableRecord
100
AcDbBlockTableRecord
2
*Model_Space
340
0
70
0
0
BLOCK_RECORD
5
1B
100
AcDbSymbolTableRecord
100
AcDbBlockTableRecord
2
*Paper_Space
340
0
70
0
0
BLOCK_RECORD
5
23
100
AcDbSymbolTableRecord
100
AcDbBlockTableRecord
2
*Paper_Space0
340
0
70
0
0
ENDTAB
0
ENDSEC
0
SECTION
2
BLOCKS
0
BLOCK
5
20
100
AcDbEntity
8
0
100
AcDbBlockBegin
2
*Model_Space
70
0
10
0
20
0
30
0
3
*Model_Space
0
ENDBLK
5
21
100
AcDbEntity
8
0
100
AcDbBlockEnd
0
BLOCK
5
1C
100
AcDbEntity
8
0
100
AcDbBlockBegin
2
*Paper_Space
70
0
10
0
20
0
30
0
3
*Paper_Space
0
ENDBLK
5
1D
100
AcDbEntity
8
0
100
AcDbBlockEnd
0
BLOCK
5
24
100
AcDbEntity
8
0
100
AcDbBlockBegin
2
*Paper_Space0
70
0
10
0
20
0
30
0
3
*Paper_Space0
0
ENDBLK
5
25
100
AcDbEntity
8
0
100
AcDbBlockEnd
0
ENDSEC
0
SECTION
2
ENTITIES
0
ARC
5
138
100
AcDbEntity
8
1
62
256
6
ByLayer
370
18
48
1
60
0
100
AcDbCircle
39
0
10
157.8
20
-15.8
30
0
40
0.2
210
0
220
0
230
1
100
AcDbArc
50
270
51
360
0
ARC
5
139
100
AcDbEntity
8
1
62
256
6
ByLayer
370
18
48
1
60
0
100
AcDbCircle
39
0
10
157.8
20
15.8
30
0
40
0.2
210
0
220
0
230
1
100
AcDbArc
50
360
51
90
0
ARC
5
13A
100
AcDbEntity
8
SK1
62
256
6
ByLayer
370
18
48
1
60
0
100
AcDbCircle
39
0
10
-0.6
20
11.8
30
0
40
0.999999999999996
210
0
220
0
230
1
100
AcDbArc
50
293.578178
51
306.869898
0
ARC
5
13B
100
AcDbEntity
8
SK1
62
256
6
ByLayer
370
18
48
1
60
0
100
AcDbCircle
39
0
10
-0.6
20
-11.8
30
0
40
0.999999999999996
210
0
220
0
230
1
100
AcDbArc
50
53.130102
51
66.421822
0
ARC
5
13C
100
AcDbEntity
8
1
62
256
6
ByLayer
370
18
48
1
60
0
100
AcDbCircle
39
0
10
164.8
20
5.078175
30
0
40
0.2
210
0
220
0
230
1
100
AcDbArc
50
0
51
90
0
ARC
5
13D
100
AcDbEntity
8
1
62
256
6
ByLayer
370
18
48
1
60
0
100
AcDbCircle
39
0
10
164.8
20
10.478175
30
0
40
0.2
210
0
220
0
230
1
100
AcDbArc
50
270
51
0
0
ARC
5
13E
100
AcDbEntity
8
1
62
256
6
ByLayer
370
18
48
1
60
0
100
AcDbCircle
39
0
10
169.5
20
4.028175
30
0
40
0.5
210
0
220
0
230
1
100
AcDbArc
50
270
51
360
0
ARC
5
13F
100
AcDbEntity
8
1
62
256
6
ByLayer
370
18
48
1
60
0
100
AcDbCircle
39
0
10
169.5
20
11.528175
30
0
40
0.5
210
0
220
0
230
1
100
AcDbArc
50
360
51
90
0
ARC
5
140
100
AcDbEntity
8
1
62
256
6
ByLayer
370
18
48
1
60
0
100
AcDbCircle
39
0
10
158.2
20
-15.675
30
0
40
0.2
210
0
220
0
230
1
100
AcDbArc
50
180
51
270
0
ARC
5
141
100
AcDbEntity
8
1
62
256
6
ByLayer
370
18
48
1
60
0
100
AcDbCircle
39
0
10
158.2
20
15.675
30
0
40
0.2
210
0
220
0
230
1
100
AcDbArc
50
90
51
180
0
ARC
5
142
100
AcDbEntity
8
1
62
256
6
ByLayer
370
18
48
1
60
0
100
AcDbCircle
39
0
10
164.8
20
-10.478175
30
0
40
0.2
210
0
220
0
230
1
100
AcDbArc
50
0
51
90
0
ARC
5
143
100
AcDbEntity
8
1
62
256
6
ByLayer
370
18
48
1
60
0
100
AcDbCircle
39
0
10
164.8
20
-5.078175
30
0
40
0.2
210
0
220
0
230
1
100
AcDbArc
50
270
51
0
0
ARC
5
144
100
AcDbEntity
8
1
62
256
6
ByLayer
370
18
48
1
60
0
100
AcDbCircle
39
0
10
169.5
20
-11.528175
30
0
40
0.5
210
0
220
0
230
1
100
AcDbArc
50
270
51
360
0
ARC
5
145
100
AcDbEntity
8
1
62
256
6
ByLayer
370
18
48
1
60
0
100
AcDbCircle
39
0
10
169.5
20
-4.028175
30
0
40
0.5
210
0
220
0
230
1
100
AcDbArc
50
360
51
90
0
ELLIPSE
5
146
100
AcDbEntity
8
1
62
256
6
ByLayer
370
18
48
1
60
0
100
AcDbEllipse
10
-0.928203
20
0
30
0
11
7.49393430382631
21
15.7933993222007
31
0
210
0
220
0
230
1
40
0.341999
41
-1.08757920120049
42
-0.161466571197707
0
ELLIPSE
5
147
100
AcDbEntity
8
1
62
256
6
ByLayer
370
18
48
1
60
0
100
AcDbEllipse
10
12.928203
20
0
30
0
11
7.49393430382451
21
-15.7933993221991
31
0
210
0
220
0
230
1
40
0.341999
41
-2.98012608239206
42
-2.05401345238921
0
ELLIPSE
5
148
100
AcDbEntity
8
1
62
256
6
ByLayer
370
18
48
1
60
0
100
AcDbEllipse
10
12.928203
20
0
30
0
11
7.49393430382449
21
15.7933993221991
31
0
210
0
220
0
230
1
40
0.341999
41
2.05401345238921
42
2.98012608239206
0
ELLIPSE
5
149
100
AcDbEntity
8
1
62
256
6
ByLayer
370
18
48
1
60
0
100
AcDbEllipse
10
-0.928203
20
0
30
0
11
7.49393430382615
21
-15.7933993222006
31
0
210
0
220
0
230
1
40
0.341999
41
0.161466571197714
42
1.08757920120049
0
POINT
5
70
100
AcDbEntity
8
2
62
256
6
ByLayer
370
18
48
1
60
0
100
AcDbPoint
10
165
20
7.778175
30
0
39
0
210
0
220
0
230
1
50
360
0
POINT
5
72
100
AcDbEntity
8
2
62
256
6
ByLayer
370
18
48
1
60
0
100
AcDbPoint
10
87.75
20
0
30
0
39
0
210
0
220
0
230
1
50
360
0
POINT
5
73
100
AcDbEntity
8
2
62
256
6
ByLayer
370
18
48
1
60
0
100
AcDbPoint
10
165
20
7.778175
30
0
39
0
210
0
220
0
230
1
50
360
0
POINT
5
74
100
AcDbEntity
8
2
62
256
6
ByLayer
370
18
48
1
60
0
100
AcDbPoint
10
144.5
20
0
30
0
39
0
210
0
220
0
230
1
50
360
0
POINT
5
75
100
AcDbEntity
8
2
62
256
6
ByLayer
370
18
48
1
60
0
100
AcDbPoint
10
148
20
0
30
0
39
0
210
0
220
0
230
1
50
360
0
POINT
5
76
100
AcDbEntity
8
2
62
256
6
ByLayer
370
18
48
1
60
0
100
AcDbPoint
10
161
20
-7.778175
30
0
39
0
210
0
220
0
230
1
50
360
0
POINT
5
77
100
AcDbEntity
8
2
62
256
6
ByLayer
370
18
48
1
60
0
100
AcDbPoint
10
161
20
7.778175
30
0
39
0
210
0
220
0
230
1
50
360
0
POINT
5
78
100
AcDbEntity
8
2
62
256
6
ByLayer
370
18
48
1
60
0
100
AcDbPoint
10
130
20
9
30
0
39
0
210
0
220
0
230
1
50
360
0
POINT
5
79
100
AcDbEntity
8
2
62
256
6
ByLayer
370
18
48
1
60
0
100
AcDbPoint
10
141.25
20
0
30
0
39
0
210
0
220
0
230
1
50
360
0
POINT
5
7A
100
AcDbEntity
8
2
62
256
6
ByLayer
370
18
48
1
60
0
100
AcDbPoint
10
157.37476
20
0
30
0
39
0
210
0
220
0
230
1
50
360
0
POINT
5
7B
100
AcDbEntity
8
2
62
256
6
ByLayer
370
18
48
1
60
0
100
AcDbPoint
10
148
20
0
30
0
39
0
210
0
220
0
230
1
50
360
0
POINT
5
7C
100
AcDbEntity
8
2
62
256
6
ByLayer
370
18
48
1
60
0
100
AcDbPoint
10
79
20
0
30
0
39
0
210
0
220
0
230
1
50
360
0
POINT
5
7D
100
AcDbEntity
8
2
62
256
6
ByLayer
370
18
48
1
60
0
100
AcDbPoint
10
113.5
20
0
30
0
39
0
210
0
220
0
230
1
50
360
0
POINT
5
7E
100
AcDbEntity
8
2
62
256
6
ByLayer
370
18
48
1
60
0
100
AcDbPoint
10
161
20
-7.778175
30
0
39
0
210
0
220
0
230
1
50
360
0
POINT
5
7F
100
AcDbEntity
8
2
62
256
6
ByLayer
370
18
48
1
60
0
100
AcDbPoint
10
130
20
9
30
0
39
0
210
0
220
0
230
1
50
360
0
POINT
5
80
100
AcDbEntity
8
2
62
256
6
ByLayer
370
18
48
1
60
0
100
AcDbPoint
10
144.5
20
0
30
0
39
0
210
0
220
0
230
1
50
360
0
POINT
5
81
100
AcDbEntity
8
2
62
256
6
ByLayer
370
18
48
1
60
0
100
AcDbPoint
10
99
20
9
30
0
39
0
210
0
220
0
230
1
50
360
0
POINT
5
82
100
AcDbEntity
8
2
62
256
6
ByLayer
370
18
48
1
60
0
100
AcDbPoint
10
84.5
20
0
30
0
39
0
210
0
220
0
230
1
50
360
0
POINT
5
83
100
AcDbEntity
8
2
62
256
6
ByLayer
370
18
48
1
60
0
100
AcDbPoint
10
144.5
20
0
30
0
39
0
210
0
220
0
230
1
50
360
0
POINT
5
84
100
AcDbEntity
8
2
62
256
6
ByLayer
370
18
48
1
60
0
100
AcDbPoint
10
84.5
20
0
30
0
39
0
210
0
220
0
230
1
50
360
0
POINT
5
85
100
AcDbEntity
8
2
62
256
6
ByLayer
370
18
48
1
60
0
100
AcDbPoint
10
87.75
20
0
30
0
39
0
210
0
220
0
230
1
50
360
0
POINT
5
86
100
AcDbEntity
8
2
62
256
6
ByLayer
370
18
48
1
60
0
100
AcDbPoint
10
141.25
20
0
30
0
39
0
210
0
220
0
230
1
50
360
0
POINT
5
87
100
AcDbEntity
8
2
62
256
6
ByLayer
370
18
48
1
60
0
100
AcDbPoint
10
114.5
20
0
30
0
39
0
210
0
220
0
230
1
50
360
0
POINT
5
88
100
AcDbEntity
8
2
62
256
6
ByLayer
370
18
48
1
60
0
100
AcDbPoint
10
79.8
20
0
30
0
39
0
210
0
220
0
230
1
50
360
0
POINT
5
89
100
AcDbEntity
8
2
62
256
6
ByLayer
370
18
48
1
60
0
100
AcDbPoint
10
80.05
20
0
30
0
39
0
210
0
220
0
230
1
50
360
0
POINT
5
8A
100
AcDbEntity
8
2
62
256
6
ByLayer
370
18
48
1
60
0
100
AcDbPoint
10
75.6
20
0
30
0
39
0
210
0
220
0
230
1
50
360
0
POINT
5
8B
100
AcDbEntity
8
2
62
256
6
ByLayer
370
18
48
1
60
0
100
AcDbPoint
10
84.5
20
0
30
0
39
0
210
0
220
0
230
1
50
360
0
POINT
5
8C
100
AcDbEntity
8
2
62
256
6
ByLayer
370
18
48
1
60
0
100
AcDbPoint
10
84
20
0
30
0
39
0
210
0
220
0
230
1
50
360
0
POINT
5
8D
100
AcDbEntity
8
2
62
256
6
ByLayer
370
18
48
1
60
0
100
AcDbPoint
10
75.6
20
0
30
0
39
0
210
0
220
0
230
1
50
360
0
POINT
5
8E
100
AcDbEntity
8
2
62
256
6
ByLayer
370
50
48
1
60
0
100
AcDbPoint
10
145
20
0
30
0
39
0
210
0
220
0
230
1
50
360
0
POINT
5
8F
100
AcDbEntity
8
2
62
256
6
ByLayer
370
18
48
1
60
0
100
AcDbPoint
10
136
20
0
30
0
39
0
210
0
220
0
230
1
50
360
0
POINT
5
90
100
AcDbEntity
8
2
62
256
6
ByLayer
370
18
48
1
60
0
100
AcDbPoint
10
157.37476
20
0
30
0
39
0
210
0
220
0
230
1
50
360
0
POINT
5
91
100
AcDbEntity
8
2
62
256
6
ByLayer
370
50
48
1
60
0
100
AcDbPoint
10
167
20
0
30
0
39
0
210
0
220
0
230
1
50
360
0
POINT
5
92
100
AcDbEntity
8
2
62
256
6
ByLayer
370
18
48
1
60
0
100
AcDbPoint
10
148
20
0
30
0
39
0
210
0
220
0
230
1
50
360
0
POINT
5
93
100
AcDbEntity
8
2
62
256
6
ByLayer
370
18
48
1
60
0
100
AcDbPoint
10
158
20
0
30
0
39
0
210
0
220
0
230
1
50
360
0
POINT
5
94
100
AcDbEntity
8
2
62
256
6
ByLayer
370
18
48
1
60
0
100
AcDbPoint
10
144.5
20
0
30
0
39
0
210
0
220
0
230
1
50
360
0
POINT
5
95
100
AcDbEntity
8
2
62
256
6
ByLayer
370
18
48
1
60
0
100
AcDbPoint
10
158
20
0
30
0
39
0
210
0
220
0
230
1
50
360
0
POINT
5
96
100
AcDbEntity
8
2
62
256
6
ByLayer
370
18
48
1
60
0
100
AcDbPoint
10
99
20
9
30
0
39
0
210
0
220
0
230
1
50
360
0
POINT
5
97
100
AcDbEntity
8
80
62
256
6
ByLayer
370
18
48
1
60
0
100
AcDbPoint
10
0
20
0
30
0
39
0
210
0
220
0
230
1
50
360
0
POINT
5
99
100
AcDbEntity
8
81
62
256
6
ByLayer
370
18
48
1
60
0
100
AcDbPoint
10
160
20
0
30
0
39
0
210
0
220
0
230
1
50
360
0
POINT
5
9B
100
AcDbEntity
8
1
62
256
6
ByLayer
370
13
48
1
60
1
100
AcDbPoint
10
154.39
20
-7.778175
30
0
39
0
210
0
220
0
230
1
50
360
0
POINT
5
9D
100
AcDbEntity
8
1
62
256
6
ByLayer
370
13
48
1
60
1
100
AcDbPoint
10
171
20
-7.778175
30
0
39
0
210
0
220
0
230
1
50
360
0
POINT
5
9E
100
AcDbEntity
8
1
62
256
6
ByLayer
370
13
48
1
60
1
100
AcDbPoint
10
162.472489
20
0
30
0
39
0
210
0
220
0
230
1
50
360
0
POINT
5
9F
100
AcDbEntity
8
1
62
256
6
ByLayer
370
13
48
1
60
1
100
AcDbPoint
10
156.7
20
0
30
0
39
0
210
0
220
0
230
1
50
360
0
POINT
5
A0
100
AcDbEntity
8
1
62
256
6
ByLayer
370
13
48
1
60
1
100
AcDbPoint
10
154.39
20
7.778175
30
0
39
0
210
0
220
0
230
1
50
360
0
POINT
5
A1
100
AcDbEntity
8
1
62
256
6
ByLayer
370
13
48
1
60
1
100
AcDbPoint
10
171
20
7.778175
30
0
39
0
210
0
220
0
230
1
50
360
0
SPLINE
5
14A
100
AcDbEntity
8
1
62
256
6
ByLayer
370
18
48
1
60
0
100
AcDbSpline
70
4
71
3
72
24
73
20
40
0
40
0
40
0
40
0
40
0.0624999999999988
40
0.0624999999999988
40
0.124999999999998
40
0.124999999999998
40
0.249999999999994
40
0.249999999999994
40
0.374999999999991
40
0.374999999999991
40
0.437499999999988
40
0.437499999999988
40
0.499999999999985
40
0.499999999999985
40
0.624999999999989
40
0.624999999999989
40
0.749999999999994
40
0.749999999999994
40
1
40
1
40
1
40
1
41
1
10
7.0767949192433
20
15.2769622091385
30
0
41
1
10
7.08626323279282
20
15.2769622091385
30
0
41
1
10
7.09555909908863
20
15.2766767665957
30
0
41
1
10
7.11383636157854
20
15.2755844637371
30
0
41
1
10
7.12288968289408
20
15.2747681865974
30
0
41
1
10
7.14908346306856
20
15.2716451329302
30
0
41
1
10
7.16496872151987
20
15.268738812049
30
0
41
1
10
7.19453158276966
20
15.2617474805529
30
0
41
1
10
7.20768429079331
20
15.2577843892055
30
0
41
1
10
7.22573832045626
20
15.2513732657937
30
0
41
1
10
7.23147393078446
20
15.2491554094552
30
0
41
1
10
7.24245955537378
20
15.24457767362
30
0
41
1
10
7.24772142874497
20
15.2422111791404
30
0
41
1
10
7.26269940300651
20
15.2350027269099
30
0
41
1
10
7.27167180250151
20
15.2300336355428
30
0
41
1
10
7.2880997359126
20
15.2198327834235
30
0
41
1
10
7.29554986762543
20
15.214600303678
30
0
41
1
10
7.31604838234091
20
15.198560277361
30
0
41
1
10
7.32728622413831
20
15.1873822623296
30
0
41
1
10
7.33660254037869
20
15.1759383782003
30
0
0
SPLINE
5
14B
100
AcDbEntity
8
1
62
256
6
ByLayer
370
18
48
1
60
0
100
AcDbSpline
70
4
71
3
72
26
73
22
40
0
40
0
40
0
40
0
40
0.250000000000009
40
0.250000000000009
40
0.375000000000011
40
0.375000000000011
40
0.500000000000014
40
0.500000000000014
40
0.625000000000017
40
0.625000000000017
40
0.687500000000014
40
0.687500000000014
40
0.750000000000011
40
0.750000000000011
40
0.812500000000008
40
0.812500000000008
40
0.875000000000006
40
0.875000000000006
40
0.937500000000003
40
0.937500000000003
40
1
40
1
40
1
40
1
41
1
10
7.33660254037861
20
5.06861858311174
30
0
41
1
10
7.32728982767759
20
5.03436773122374
30
0
41
1
10
7.31614231629348
20
5.00076260618599
30
0
41
1
10
7.29568810990139
20
4.95169735098639
30
0
41
1
10
7.28824166023676
20
4.93556834940267
30
0
41
1
10
7.27177247547104
20
4.90388358540409
30
0
41
1
10
7.26270511696598
20
4.88825374454376
30
0
41
1
10
7.24272264769479
20
4.85817905892637
30
0
41
1
10
7.23183787729363
20
4.84374619181
30
0
41
1
10
7.2136568799915
20
4.82335822863095
30
0
41
1
10
7.20728028574973
20
4.81677720791063
30
0
41
1
10
7.19399447938267
20
4.80434108428395
30
0
41
1
10
7.18706371265947
20
4.79845918233448
30
0
41
1
10
7.17251656377681
20
4.78749730730041
30
0
41
1
10
7.16490128977483
20
4.78241603395361
30
0
41
1
10
7.148819916848
20
4.77324997167185
30
0
41
1
10
7.1403600578945
20
4.76918729638876
30
0
41
1
10
7.12304490820171
20
4.7625608299542
30
0
41
1
10
7.1141240724597
20
4.75995494840853
30
0
41
1
10
7.09567030488515
20
4.75638866313562
30
0
41
1
10
7.08624924967634
20
4.75546271781749
30
0
41
1
10
7.07679491924327
20
4.75546271781749
30
0
0
SPLINE
5
14C
100
AcDbEntity
8
1
62
256
6
ByLayer
370
18
48
1
60
0
100
AcDbSpline
70
4
71
3
72
24
73
20
40
0
40
0
40
0
40
0
40
0.0624999999999991
40
0.0624999999999991
40
0.124999999999998
40
0.124999999999998
40
0.250000000000003
40
0.250000000000003
40
0.375000000000008
40
0.375000000000008
40
0.437500000000011
40
0.437500000000011
40
0.500000000000015
40
0.500000000000015
40
0.625000000000012
40
0.625000000000012
40
0.750000000000009
40
0.750000000000009
40
1
40
1
40
1
40
1
41
1
10
4.9232050807569
20
4.75546271781755
30
0
41
1
10
4.91373676720738
20
4.75546271781755
30
0
41
1
10
4.9044409009116
20
4.75637996187979
30
0
41
1
10
4.88616363842166
20
4.759886833114
30
0
41
1
10
4.87711031710612
20
4.76250659424693
30
0
41
1
10
4.85091653693163
20
4.77251545749058
30
0
41
1
10
4.83503127848033
20
4.78181464126985
30
0
41
1
10
4.80546841723054
20
4.8040815994184
30
0
41
1
10
4.79231570920689
20
4.81666025178743
30
0
41
1
10
4.77426167954394
20
4.83690641005072
30
0
41
1
10
4.76852606921574
20
4.84389474378378
30
0
41
1
10
4.75754044462639
20
4.85828246847987
30
0
41
1
10
4.75227857125523
20
4.86570247833646
30
0
41
1
10
4.73730059699366
20
4.88824517182357
30
0
41
1
10
4.72832819749866
20
4.9037078458343
30
0
41
1
10
4.7119002640876
20
4.93527762356771
30
0
41
1
10
4.70445013237477
20
4.95138709271157
30
0
41
1
10
4.68395161765926
20
5.00049514204591
30
0
41
1
10
4.67271377586189
20
5.03435447791105
30
0
41
1
10
4.66339745962151
20
5.06861858311169
30
0
0
SPLINE
5
14D
100
AcDbEntity
8
1
62
256
6
ByLayer
370
18
48
1
60
0
100
AcDbSpline
70
4
71
3
72
26
73
22
40
0
40
0
40
0
40
0
40
0.25000000000001
40
0.25000000000001
40
0.375000000000012
40
0.375000000000012
40
0.500000000000015
40
0.500000000000015
40
0.625000000000017
40
0.625000000000017
40
0.687500000000014
40
0.687500000000014
40
0.750000000000011
40
0.750000000000011
40
0.812500000000009
40
0.812500000000009
40
0.875000000000006
40
0.875000000000006
40
0.937500000000003
40
0.937500000000003
40
1
40
1
40
1
40
1
41
1
10
4.66339745962159
20
15.1759383782003
30
0
41
1
10
4.67271017232261
20
15.1873778358497
30
0
41
1
10
4.68385768370669
20
15.198472208594
30
0
41
1
10
4.70431189009878
20
15.214499313942
30
0
41
1
10
4.71175833976341
20
15.2197385738514
30
0
41
1
10
4.72822752452916
20
15.22997711649
30
0
41
1
10
4.73729488303422
20
15.2349999859553
30
0
41
1
10
4.75727735230538
20
15.2446169343317
30
0
41
1
10
4.76816212270657
20
15.249207392375
30
0
41
1
10
4.7863431200087
20
15.2556634144465
30
0
41
1
10
4.79271971425047
20
15.2577422915747
30
0
41
1
10
4.80600552061753
20
15.2616627289629
30
0
41
1
10
4.81293628734073
20
15.263512783028
30
0
41
1
10
4.82748343622339
20
15.2669545926743
30
0
41
1
10
4.83509871022537
20
15.2685467526768
30
0
41
1
10
4.8511800831522
20
15.271414727144
30
0
41
1
10
4.8596399421057
20
15.2726836076142
30
0
41
1
10
4.87695509179849
20
15.2747512708819
30
0
41
1
10
4.8858759275405
20
15.2755632425517
30
0
41
1
10
4.90432969511508
20
15.276674061237
30
0
41
1
10
4.91375075032386
20
15.2769622091386
30
0
41
1
10
4.9232050807569
20
15.2769622091386
30
0
0
SPLINE
5
14E
100
AcDbEntity
8
1
62
256
6
ByLayer
370
18
48
1
60
0
100
AcDbSpline
70
4
71
3
72
24
73
20
40
0
40
0
40
0
40
0
40
0.0625000000000007
40
0.0625000000000007
40
0.125000000000001
40
0.125000000000001
40
0.250000000000002
40
0.250000000000002
40
0.375000000000003
40
0.375000000000003
40
0.437500000000004
40
0.437500000000004
40
0.500000000000006
40
0.500000000000006
40
0.625000000000004
40
0.625000000000004
40
0.750000000000003
40
0.750000000000003
40
1
40
1
40
1
40
1
41
1
10
4.92320508075682
20
-15.2769622091386
30
0
41
1
10
4.9137367672073
20
-15.2769622091386
30
0
41
1
10
4.90444090091148
20
-15.2766767665958
30
0
41
1
10
4.88616363842158
20
-15.2755844637371
30
0
41
1
10
4.87711031710603
20
-15.2747681865974
30
0
41
1
10
4.85091653693155
20
-15.2716451329302
30
0
41
1
10
4.83503127848024
20
-15.268738812049
30
0
41
1
10
4.80546841723046
20
-15.261747480553
30
0
41
1
10
4.7923157092068
20
-15.2577843892056
30
0
41
1
10
4.77426167954386
20
-15.2513732657938
30
0
41
1
10
4.76852606921565
20
-15.2491554094552
30
0
41
1
10
4.7575404446263
20
-15.2445776736201
30
0
41
1
10
4.75227857125515
20
-15.2422111791405
30
0
41
1
10
4.73730059699361
20
-15.2350027269099
30
0
41
1
10
4.72832819749857
20
-15.2300336355428
30
0
41
1
10
4.71190026408752
20
-15.2198327834236
30
0
41
1
10
4.70445013237469
20
-15.2146003036781
30
0
41
1
10
4.68395161765918
20
-15.1985602773611
30
0
41
1
10
4.67271377586181
20
-15.1873822623297
30
0
41
1
10
4.66339745962142
20
-15.1759383782004
30
0
0
SPLINE
5
14F
100
AcDbEntity
8
1
62
256
6
ByLayer
370
18
48
1
60
0
100
AcDbSpline
70
4
71
3
72
26
73
22
40
0
40
0
40
0
40
0
40
0.250000000000003
40
0.250000000000003
40
0.375000000000005
40
0.375000000000005
40
0.500000000000006
40
0.500000000000006
40
0.625000000000008
40
0.625000000000008
40
0.687500000000007
40
0.687500000000007
40
0.750000000000005
40
0.750000000000005
40
0.812500000000004
40
0.812500000000004
40
0.875000000000003
40
0.875000000000003
40
0.937500000000001
40
0.937500000000001
40
1
40
1
40
1
40
1
41
1
10
4.66339745962151
20
-5.06861858311174
30
0
41
1
10
4.67271017232252
20
-5.03436773122374
30
0
41
1
10
4.68385768370663
20
-5.00076260618602
30
0
41
1
10
4.70431189009872
20
-4.95169735098639
30
0
41
1
10
4.71175833976332
20
-4.9355683494027
30
0
41
1
10
4.72822752452907
20
-4.90388358540409
30
0
41
1
10
4.73729488303414
20
-4.88825374454379
30
0
41
1
10
4.75727735230532
20
-4.85817905892637
30
0
41
1
10
4.76816212270649
20
-4.84374619181003
30
0
41
1
10
4.78634312000861
20
-4.82335822863098
30
0
41
1
10
4.79271971425041
20
-4.81677720791063
30
0
41
1
10
4.80600552061745
20
-4.80434108428398
30
0
41
1
10
4.81293628734065
20
-4.79845918233448
30
0
41
1
10
4.8274834362233
20
-4.78749730730044
30
0
41
1
10
4.83509871022528
20
-4.78241603395361
30
0
41
1
10
4.85118008315212
20
-4.77324997167185
30
0
41
1
10
4.85963994210562
20
-4.76918729638876
30
0
41
1
10
4.87695509179844
20
-4.76256082995423
30
0
41
1
10
4.88587592754041
20
-4.75995494840853
30
0
41
1
10
4.904329695115
20
-4.75638866313562
30
0
41
1
10
4.91375075032377
20
-4.75546271781749
30
0
41
1
10
4.92320508075684
20
-4.75546271781749
30
0
0
SPLINE
5
150
100
AcDbEntity
8
1
62
256
6
ByLayer
370
18
48
1
60
0
100
AcDbSpline
70
4
71
3
72
24
73
20
40
0
40
0
40
0
40
0
40
0.0624999999999963
40
0.0624999999999963
40
0.124999999999993
40
0.124999999999993
40
0.249999999999986
40
0.249999999999986
40
0.37499999999998
40
0.37499999999998
40
0.437499999999979
40
0.437499999999979
40
0.499999999999978
40
0.499999999999978
40
0.624999999999982
40
0.624999999999982
40
0.749999999999986
40
0.749999999999986
40
1
40
1
40
1
40
1
41
1
10
7.07679491924324
20
-4.75546271781761
30
0
41
1
10
7.08626323279276
20
-4.75546271781761
30
0
41
1
10
7.09555909908855
20
-4.75637996187982
30
0
41
1
10
7.11383636157845
20
-4.75988683311405
30
0
41
1
10
7.12288968289403
20
-4.76250659424699
30
0
41
1
10
7.14908346306851
20
-4.77251545749064
30
0
41
1
10
7.16496872151981
20
-4.7818146412699
30
0
41
1
10
7.1945315827696
20
-4.80408159941845
30
0
41
1
10
7.20768429079325
20
-4.81666025178748
30
0
41
1
10
7.2257383204562
20
-4.8369064100508
30
0
41
1
10
7.2314739307844
20
-4.84389474378386
30
0
41
1
10
7.24245955537376
20
-4.85828246847996
30
0
41
1
10
7.24772142874491
20
-4.86570247833654
30
0
41
1
10
7.26269940300645
20
-4.88824517182366
30
0
41
1
10
7.27167180250149
20
-4.90370784583442
30
0
41
1
10
7.28809973591254
20
-4.93527762356783
30
0
41
1
10
7.29554986762537
20
-4.95138709271168
30
0
41
1
10
7.31604838234088
20
-5.00049514204602
30
0
41
1
10
7.32728622413833
20
-5.03435447791148
30
0
41
1
10
7.33660254037872
20
-5.06861858311214
30
0
0
SPLINE
5
151
100
AcDbEntity
8
1
62
256
6
ByLayer
370
18
48
1
60
0
100
AcDbSpline
70
4
71
3
72
26
73
22
40
0
40
0
40
0
40
0
40
0.249999999999994
40
0.249999999999994
40
0.374999999999992
40
0.374999999999992
40
0.49999999999999
40
0.49999999999999
40
0.624999999999987
40
0.624999999999987
40
0.687499999999989
40
0.687499999999989
40
0.749999999999991
40
0.749999999999991
40
0.812499999999994
40
0.812499999999994
40
0.874999999999996
40
0.874999999999996
40
0.937499999999998
40
0.937499999999998
40
1
40
1
40
1
40
1
41
1
10
7.33660254037861
20
-15.1759383782002
30
0
41
1
10
7.32728982767762
20
-15.1873778358496
30
0
41
1
10
7.31614231629345
20
-15.198472208594
30
0
41
1
10
7.29568810990136
20
-15.214499313942
30
0
41
1
10
7.28824166023674
20
-15.2197385738514
30
0
41
1
10
7.27177247547098
20
-15.2299771164901
30
0
41
1
10
7.26270511696595
20
-15.2349999859553
30
0
41
1
10
7.24272264769476
20
-15.2446169343317
30
0
41
1
10
7.23183787729357
20
-15.249207392375
30
0
41
1
10
7.21365687999145
20
-15.2556634144466
30
0
41
1
10
7.20728028574968
20
-15.2577422915748
30
0
41
1
10
7.19399447938261
20
-15.261662728963
30
0
41
1
10
7.18706371265941
20
-15.263512783028
30
0
41
1
10
7.17251656377675
20
-15.2669545926744
30
0
41
1
10
7.16490128977478
20
-15.2685467526768
30
0
41
1
10
7.14881991684794
20
-15.271414727144
30
0
41
1
10
7.14036005789444
20
-15.2726836076142
30
0
41
1
10
7.12304490820162
20
-15.274751270882
30
0
41
1
10
7.11412407245962
20
-15.2755632425518
30
0
41
1
10
7.09567030488506
20
-15.2766740612371
30
0
41
1
10
7.08624924967628
20
-15.2769622091386
30
0
41
1
10
7.07679491924321
20
-15.2769622091386
30
0
0
SPLINE
5
152
100
AcDbEntity
8
SK1
62
256
6
ByLayer
370
18
48
1
60
0
100
AcDbSpline
70
4
71
3
72
8
73
4
40
0
40
0
40
0
40
0
40
1
40
1
40
1
40
1
41
1
10
-0.394913799811263
20
10.7863826978029
30
0
41
1
10
-0.394913799811263
20
10.7772102101423
30
0
41
1
10
-0.394913799811263
20
10.7671317577241
30
0
41
1
10
-0.394913799811263
20
10.7561716978029
30
0
0
SPLINE
5
153
100
AcDbEntity
8
SK1
62
256
6
ByLayer
370
13
48
1
60
0
100
AcDbSpline
70
4
71
3
72
17
73
13
40
0
40
0
40
0
40
0
40
0.0281908533243911
40
0.114664343623863
40
0.201137833923335
40
0.374084814522278
40
0.547031795121221
40
0.633505285420693
40
0.719978775720165
40
0.892925756319108
40
0.97939924661858
40
1
40
1
40
1
40
1
41
1
10
-0.394913799811263
20
10.7561711443759
30
0
41
1
10
-0.394913799811263
20
10.7416120996011
30
0
41
1
10
-0.394913799811263
20
10.6760666838479
30
0
41
1
10
-0.394913799811263
20
10.5176015241825
30
0
41
1
10
-0.394913799811263
20
10.1419122155822
30
0
41
1
10
-0.394913799811263
20
9.49397590704038
30
0
41
1
10
-0.394913799811263
20
8.63424142104822
30
0
41
1
10
-0.394913799811263
20
7.82801077124961
30
0
41
1
10
-0.394913799811263
20
6.94587050581816
30
0
41
1
10
-0.394913799811263
20
5.95443994194233
30
0
41
1
10
-0.394913799811263
20
5.06372374199364
30
0
41
1
10
-0.394913799811263
20
4.70990996410777
30
0
41
1
10
-0.394913799811263
20
4.64134914436013
30
0
0
SPLINE
5
154
100
AcDbEntity
8
SK1
62
256
6
ByLayer
370
13
48
1
60
0
100
AcDbSpline
70
4
71
3
72
17
73
13
40
0
40
0
40
0
40
0
40
0.0206008114850539
40
0.107074291440495
40
0.280021251351376
40
0.366494731306817
40
0.452968211262258
40
0.625915171173139
40
0.798862131084021
40
0.885335611039462
40
0.971809090994902
40
1
40
1
40
1
40
1
41
1
10
-0.39491379981132
20
-4.64134848730563
30
0
41
1
10
-0.39491379981132
20
-4.70990950240184
30
0
41
1
10
-0.39491379981132
20
-5.06372344169986
30
0
41
1
10
-0.39491379981132
20
-5.95443982150175
30
0
41
1
10
-0.39491379981132
20
-6.94587050303235
30
0
41
1
10
-0.39491379981132
20
-7.82801067908787
30
0
41
1
10
-0.39491379981132
20
-8.63424165383259
30
0
41
1
10
-0.39491379981132
20
-9.49397564760932
30
0
41
1
10
-0.39491379981132
20
-10.1419126962119
30
0
41
1
10
-0.39491379981132
20
-10.5176014399701
30
0
41
1
10
-0.39491379981132
20
-10.6760668753016
30
0
41
1
10
-0.39491379981132
20
-10.7416124016253
30
0
41
1
10
-0.39491379981132
20
-10.7561714872761
30
0
0
SPLINE
5
155
100
AcDbEntity
8
SK1
62
256
6
ByLayer
370
18
48
1
60
0
100
AcDbSpline
70
4
71
3
72
8
73
4
40
0
40
0
40
0
40
0
40
1
40
1
40
1
40
1
41
1
10
-0.39491379981132
20
-10.7561718177823
30
0
41
1
10
-0.39491379981132
20
-10.7671318776404
30
0
41
1
10
-0.39491379981132
20
-10.7772103303768
30
0
41
1
10
-0.39491379981132
20
-10.7863828177394
30
0
0
SPLINE
5
156
100
AcDbEntity
8
SK1
62
256
6
ByLayer
370
18
48
1
60
0
100
AcDbSpline
70
4
71
3
72
36
73
32
40
0
40
0
40
0
40
0
40
0.250000000000009
40
0.250000000000009
40
0.375000000000013
40
0.375000000000013
40
0.500000000000016
40
0.500000000000016
40
0.625000000000019
40
0.625000000000019
40
0.687500000000018
40
0.687500000000018
40
0.750000000000018
40
0.750000000000018
40
0.812500000000017
40
0.812500000000017
40
0.843750000000014
40
0.843750000000014
40
0.875000000000011
40
0.875000000000011
40
0.906250000000009
40
0.906250000000009
40
0.921875000000008
40
0.921875000000008
40
0.937500000000006
40
0.937500000000006
40
0.953125000000005
40
0.953125000000005
40
0.968750000000004
40
0.968750000000004
40
1
40
1
40
1
40
1
41
1
10
-0.200000000000017
20
-5.33617165766907
30
0
41
1
10
-0.200315036908989
20
-5.27289521367564
30
0
41
1
10
-0.201789875664218
20
-5.20909745628526
30
0
41
1
10
-0.206624587173906
20
-5.11250115776278
30
0
41
1
10
-0.208678726715391
20
-5.08015186615313
30
0
41
1
10
-0.213963773164949
20
-5.01511877685402
30
0
41
1
10
-0.217192809775838
20
-4.98240206952661
30
0
41
1
10
-0.22531778962076
20
-4.91677347333891
30
0
41
1
10
-0.230191721451291
20
-4.88386769345621
30
0
41
1
10
-0.239523041011864
20
-4.83438451823684
30
0
41
1
10
-0.242981263754103
20
-4.81784570689231
30
0
41
1
10
-0.250820187075703
20
-4.78490372523328
30
0
41
1
10
-0.255194249132074
20
-4.76849148766289
30
0
41
1
10
-0.265341062182415
20
-4.73587605207916
30
0
41
1
10
-0.271083459937046
20
-4.71966709939039
30
0
41
1
10
-0.281609047729489
20
-4.69567298808659
30
0
41
1
10
-0.285461791842181
20
-4.6876968242268
30
0
41
1
10
-0.294043491658442
20
-4.6721963164303
30
0
41
1
10
-0.298764108881443
20
-4.66464732333566
30
0
41
1
10
-0.309721117058871
20
-4.65026872536157
30
0
41
1
10
-0.315847861838733
20
-4.64354733439694
30
0
41
1
10
-0.326745887820323
20
-4.63511696599338
30
0
41
1
10
-0.330584548634363
20
-4.63265939381191
30
0
41
1
10
-0.338813417399337
20
-4.62868790402121
30
0
41
1
10
-0.34317305623847
20
-4.6272155817847
30
0
41
1
10
-0.351980615732856
20
-4.62559605054793
30
0
41
1
10
-0.356492604281158
20
-4.62544479071906
30
0
41
1
10
-0.365142247836957
20
-4.62634244958329
30
0
41
1
10
-0.369383299461447
20
-4.62738999635829
30
0
41
1
10
-0.381287419818477
20
-4.63171844250411
30
0
41
1
10
-0.388425258622931
20
-4.63618835793983
30
0
41
1
10
-0.39491379981132
20
-4.64134848730546
30
0
0
SPLINE
5
157
100
AcDbEntity
8
SK1
62
256
6
ByLayer
370
18
48
1
60
0
100
AcDbSpline
70
4
71
3
72
38
73
34
40
0
40
0
40
0
40
0
40
0.0156250000000001
40
0.0156250000000001
40
0.0312500000000001
40
0.0312500000000001
40
0.0468750000000002
40
0.0468750000000002
40
0.0625000000000003
40
0.0625000000000003
40
0.0781250000000003
40
0.0781250000000003
40
0.0937500000000004
40
0.0937500000000004
40
0.125
40
0.125
40
0.15625
40
0.15625
40
0.1875
40
0.1875
40
0.25
40
0.25
40
0.3125
40
0.3125
40
0.375
40
0.375
40
0.5
40
0.5
40
0.625
40
0.625
40
0.75
40
0.75
40
1
40
1
40
1
40
1
41
1
10
-0.39491379981132
20
-10.7863828177394
30
0
41
1
10
-0.391653760520228
20
-10.7868073974503
30
0
41
1
10
-0.388248787569978
20
-10.7872931954185
30
0
41
1
10
-0.381044741115773
20
-10.7884335693737
30
0
41
1
10
-0.377204200362627
20
-10.7890960220832
30
0
41
1
10
-0.369217304814981
20
-10.7906171798376
30
0
41
1
10
-0.365072240206104
20
-10.7914740808883
30
0
41
1
10
-0.356374930614663
20
-10.7934464855686
30
0
41
1
10
-0.351831659317696
20
-10.7945648569913
30
0
41
1
10
-0.342969526903517
20
-10.7969321132109
30
0
41
1
10
-0.33855179172653
20
-10.7982071558628
30
0
41
1
10
-0.330303438066125
20
-10.8007493496092
30
0
41
1
10
-0.326369654867165
20
-10.8020461167561
30
0
41
1
10
-0.315536517292401
20
-10.8058045642772
30
0
41
1
10
-0.309326332727949
20
-10.8082174869318
30
0
41
1
10
-0.298446200707758
20
-10.8127210422056
30
0
41
1
10
-0.293734896847127
20
-10.8148292922467
30
0
41
1
10
-0.285156710198294
20
-10.8188587541708
30
0
41
1
10
-0.281308084304044
20
-10.8207758502489
30
0
41
1
10
-0.270808032640474
20
-10.8262193711045
30
0
41
1
10
-0.265079336283321
20
-10.8294898497133
30
0
41
1
10
-0.254957395207811
20
-10.8355789099845
30
0
41
1
10
-0.250594351467896
20
-10.8383909645595
30
0
41
1
10
-0.24277585396149
20
-10.8436594160096
30
0
41
1
10
-0.23932253516233
20
-10.8461181112255
30
0
41
1
10
-0.230013012871893
20
-10.8530063957256
30
0
41
1
10
-0.225170221794116
20
-10.856962537247
30
0
41
1
10
-0.217103926423306
20
-10.8639154388083
30
0
41
1
10
-0.213901863970534
20
-10.8669066874342
30
0
41
1
10
-0.208648832379339
20
-10.8720738307053
30
0
41
1
10
-0.206604004109494
20
-10.8742481192771
30
0
41
1
10
-0.201788333226176
20
-10.8796826575044
30
0
41
1
10
-0.200314798330908
20
-10.8818612008295
30
0
41
1
10
-0.200000000000046
20
-10.8828072437538
30
0
0
SPLINE
5
158
100
AcDbEntity
8
SK1
62
256
6
ByLayer
370
18
48
1
60
0
100
AcDbSpline
70
4
71
3
72
30
73
26
40
0
40
0
40
0
40
0
40
0.146364699144548
40
0.146364699144548
40
0.288637249287127
40
0.288637249287127
40
0.430909799429707
40
0.430909799429707
40
0.573182349572286
40
0.573182349572286
40
0.644318624643574
40
0.644318624643574
40
0.715454899714862
40
0.715454899714862
40
0.78659117478615
40
0.78659117478615
40
0.822159312321793
40
0.822159312321793
40
0.857727449857435
40
0.857727449857435
40
0.893295587393076
40
0.893295587393076
40
0.928863724928718
40
0.928863724928718
40
1
40
1
40
1
40
1
41
1
10
-0.227816434487465
20
10.8548826471149
30
0
41
1
10
-0.230376916586351
20
10.8528278745436
30
0
41
1
10
-0.233220851458185
20
10.8506285009902
30
0
41
1
10
-0.239531834141445
20
10.8459675871965
30
0
41
1
10
-0.242990287729157
20
10.8435098262164
30
0
41
1
10
-0.250829509162685
20
10.8382377057441
30
0
41
1
10
-0.255203622748098
20
10.8354242429045
30
0
41
1
10
-0.265350305450397
20
10.8293335169385
30
0
41
1
10
-0.271092516939319
20
10.8260627858261
30
0
41
1
10
-0.281617658957202
20
10.8206200367945
30
0
41
1
10
-0.285470142006744
20
10.8187061746377
30
0
41
1
10
-0.294050968040125
20
10.8146863407048
30
0
41
1
10
-0.298771103309917
20
10.8125793071682
30
0
41
1
10
-0.309727185477613
20
10.8080590642197
30
0
41
1
10
-0.315854674148454
20
10.8056853782479
30
0
41
1
10
-0.326751827399335
20
10.8019180767803
30
0
41
1
10
-0.330590319508502
20
10.8006572352284
30
0
41
1
10
-0.338819356976671
20
10.7981283892307
30
0
41
1
10
-0.343178718210794
20
10.7968736830311
30
0
41
1
10
-0.351986317586665
20
10.7945259507966
30
0
41
1
10
-0.356497925187284
20
10.7934172166753
30
0
41
1
10
-0.365146941171361
20
10.7914582979728
30
0
41
1
10
-0.369387457526756
20
10.7905830468156
30
0
41
1
10
-0.381289694858708
20
10.7883210861532
30
0
41
1
10
-0.388426507712126
20
10.787227586153
30
0
41
1
10
-0.394913799811263
20
10.7863826978029
30
0
0
SPLINE
5
159
100
AcDbEntity
8
SK1
62
256
6
ByLayer
370
18
48
1
60
0
100
AcDbSpline
70
4
71
3
72
38
73
34
40
0
40
0
40
0
40
0
40
0.0156249999999998
40
0.0156249999999998
40
0.0312499999999995
40
0.0312499999999995
40
0.0468749999999993
40
0.0468749999999993
40
0.0624999999999991
40
0.0624999999999991
40
0.0781249999999988
40
0.0781249999999988
40
0.0937499999999986
40
0.0937499999999986
40
0.124999999999998
40
0.124999999999998
40
0.156249999999998
40
0.156249999999998
40
0.187499999999998
40
0.187499999999998
40
0.249999999999998
40
0.249999999999998
40
0.312499999999998
40
0.312499999999998
40
0.374999999999999
40
0.374999999999999
40
0.5
40
0.5
40
0.625
40
0.625
40
0.750000000000001
40
0.750000000000001
40
1
40
1
40
1
40
1
41
1
10
-0.394913799811263
20
4.64134914436011
30
0
41
1
10
-0.391653189194216
20
4.63875608233846
30
0
41
1
10
-0.388247644464371
20
4.63635905357211
30
0
41
1
10
-0.381042481174944
20
4.6320995470027
30
0
41
1
10
-0.377201381196443
20
4.63022186752829
30
0
41
1
10
-0.369213525336704
20
4.62734082823926
30
0
41
1
10
-0.365068062021663
20
4.62632645462108
30
0
41
1
10
-0.356370248565014
20
4.62544187206512
30
0
41
1
10
-0.351826851563402
20
4.62560736428983
30
0
41
1
10
-0.34296474122587
20
4.62727285800153
30
0
41
1
10
-0.338547041295868
20
4.6287905488239
30
0
41
1
10
-0.330298737873136
20
4.6328263706809
30
0
41
1
10
-0.326364934955137
20
4.63537991970733
30
0
41
1
10
-0.315531464191878
20
4.64386259141477
30
0
41
1
10
-0.3093210489032
20
4.65073469454796
30
0
41
1
10
-0.298440053614058
20
4.6651370301698
30
0
41
1
10
-0.293728422559781
20
4.67271763549797
30
0
41
1
10
-0.285149710641122
20
4.68831331247333
30
0
41
1
10
-0.281300680936283
20
4.69633189696827
30
0
41
1
10
-0.270799710556361
20
4.72041012361524
30
0
41
1
10
-0.265070718767504
20
4.73666607870942
30
0
41
1
10
-0.254948515158276
20
4.76936595895617
30
0
41
1
10
-0.250585513465324
20
4.78581541608034
30
0
41
1
10
-0.242767326722742
20
4.81882524209507
30
0
41
1
10
-0.239314267493114
20
4.83541616500196
30
0
41
1
10
-0.230005515013147
20
4.88501617585194
30
0
41
1
10
-0.225163636448798
20
4.91788495786889
30
0
41
1
10
-0.217099280693418
20
4.98329719794708
30
0
41
1
10
-0.213898213829566
20
5.01583953785894
30
0
41
1
10
-0.208646822672336
20
5.08063396121401
30
0
41
1
10
-0.206602645472969
20
5.1128857104508
30
0
41
1
10
-0.201788314269919
20
5.20924017881703
30
0
41
1
10
-0.200314800742888
20
5.27294373858308
30
0
41
1
10
-0.199999999999989
20
5.33617277211951
30
0
0
SPLINE
5
15A
100
AcDbEntity
8
SK1
62
256
6
ByLayer
370
18
48
1
60
0
100
AcDbSpline
70
4
71
3
72
51
73
47
40
0
40
0
40
0
40
0
40
0.124999999999999
40
0.124999999999999
40
0.249999999999997
40
0.249999999999997
40
0.374999999999996
40
0.374999999999996
40
0.437499999999995
40
0.437499999999995
40
0.499999999999994
40
0.499999999999994
40
0.562499999999993
40
0.562499999999993
40
0.624999999999992
40
0.624999999999992
40
0.687499999999991
40
0.687499999999991
40
0.74999999999999
40
0.74999999999999
40
0.76562499999999
40
0.76562499999999
40
0.781249999999991
40
0.781249999999991
40
0.812499999999993
40
0.812499999999993
40
0.843749999999994
40
0.843749999999994
40
0.859374999999995
40
0.859374999999995
40
0.874999999999996
40
0.874999999999996
40
0.890624999999997
40
0.898437499999997
40
0.898437499999997
40
0.906249999999997
40
0.906249999999997
40
0.921874999999998
40
0.921874999999998
40
0.937499999999999
40
0.937499999999999
40
0.96875
40
0.96875
40
0.984375
40
0.984375
40
1
40
1
40
1
40
1
41
1
10
-1.30710678118652
20
3.31451661882926
30
0
41
1
10
-1.29142986997664
20
3.38976307636253
30
0
41
1
10
-1.27470678566337
20
3.46427410813732
30
0
41
1
10
-1.23877915534885
20
3.61180951708161
30
0
41
1
10
-1.21957882703768
20
3.68483461732913
30
0
41
1
10
-1.17811208044554
20
3.82934535289559
30
0
41
1
10
-1.15585567945416
20
3.90083274551361
30
0
41
1
10
-1.11943756194685
20
4.00681611681387
30
0
41
1
10
-1.10678144688853
20
4.04195283320607
30
0
41
1
10
-1.08030614075892
20
4.11162708010295
30
0
41
1
10
-1.06648472871339
20
4.14617704758263
30
0
41
1
10
-1.03740732877085
20
4.21463704338331
30
0
41
1
10
-1.02215411448117
20
4.24854782318411
30
0
41
1
10
-0.989810534632483
20
4.31562720626889
30
0
41
1
10
-0.97270311893638
20
4.3488316390202
30
0
41
1
10
-0.936235844758897
20
4.41390614485465
30
0
41
1
10
-0.916870779376694
20
4.44582238792879
30
0
41
1
10
-0.874845150953718
20
4.50797334116768
30
0
41
1
10
-0.852227053599165
20
4.53822671358753
30
0
41
1
10
-0.820553631186357
20
4.57441330787634
30
0
41
1
10
-0.814043724021872
20
4.58156684750043
30
0
41
1
10
-0.800609998002329
20
4.59567874151736
30
0
41
1
10
-0.79366989187298
20
4.60265230200582
30
0
41
1
10
-0.772270499685646
20
4.62306727311523
30
0
41
1
10
-0.757231647480609
20
4.63603379142552
30
0
41
1
10
-0.724940396994384
20
4.66015250963079
30
0
41
1
10
-0.707546163600369
20
4.67137767327188
30
0
41
1
10
-0.679832616693687
20
4.68564152883172
30
0
41
1
10
-0.670305694635118
20
4.68998135172839
30
0
41
1
10
-0.650546741946158
20
4.6976526058063
30
0
41
1
10
-0.640222164998676
20
4.70100461325833
30
0
41
1
10
-0.619253175912235
20
4.70631884291771
30
0
41
1
10
-0.603294335310636
20
4.70928016936773
30
0
41
1
10
-0.586953973627345
20
4.71055934574198
30
0
41
1
10
-0.575971256180566
20
4.71101914305441
30
0
41
1
10
-0.570446527115422
20
4.71104969942959
30
0
41
1
10
-0.554075802154358
20
4.71055195258873
30
0
41
1
10
-0.543321725827354
20
4.70944141268532
30
0
41
1
10
-0.522108041141593
20
4.70578341121956
30
0
41
1
10
-0.511566178687616
20
4.70320510552418
30
0
41
1
10
-0.481180482697852
20
4.69375600670261
30
0
41
1
10
-0.462414422633344
20
4.68523355319658
30
0
41
1
10
-0.435788278906443
20
4.67016153959392
30
0
41
1
10
-0.427196329503317
20
4.66475992808148
30
0
41
1
10
-0.410646855784052
20
4.65344243596107
30
0
41
1
10
-0.402660711616619
20
4.64751002192168
30
0
41
1
10
-0.394913799811263
20
4.64134914436013
30
0
0
SPLINE
5
15B
100
AcDbEntity
8
SK1
62
256
6
ByLayer
370
18
48
1
60
0
100
AcDbSpline
70
4
71
3
72
49
73
45
40
0
40
0
40
0
40
0
40
0.0312499999999989
40
0.0312499999999989
40
0.0468749999999988
40
0.0468749999999988
40
0.0624999999999987
40
0.0624999999999987
40
0.0781249999999985
40
0.0781249999999985
40
0.0859374999999984
40
0.0859374999999984
40
0.0937499999999982
40
0.109374999999998
40
0.109374999999998
40
0.124999999999998
40
0.124999999999998
40
0.140624999999997
40
0.140624999999997
40
0.156249999999997
40
0.156249999999997
40
0.187499999999996
40
0.187499999999996
40
0.203124999999996
40
0.203124999999996
40
0.218749999999996
40
0.218749999999996
40
0.249999999999997
40
0.249999999999997
40
0.312499999999998
40
0.312499999999998
40
0.374999999999999
40
0.374999999999999
40
0.4375
40
0.4375
40
0.500000000000001
40
0.500000000000001
40
0.625
40
0.625
40
0.75
40
0.75
40
0.875
40
0.875
40
1
40
1
40
1
40
1
41
1
10
-0.39491379981132
20
-4.64134848730561
30
0
41
1
10
-0.410472906339294
20
-4.65372214729592
30
0
41
1
10
-0.426942829143172
20
-4.66516143545468
30
0
41
1
10
-0.453665922887126
20
-4.68027682446791
30
0
41
1
10
-0.462966990665905
20
-4.68499077617696
30
0
41
1
10
-0.482040652820274
20
-4.69338840362659
30
0
41
1
10
-0.49183103531746
20
-4.69708841757182
30
0
41
1
10
-0.512007846856051
20
-4.70331959628982
30
0
41
1
10
-0.522393850510156
20
-4.70585160410928
30
0
41
1
10
-0.538509027232806
20
-4.7086003971155
30
0
41
1
10
-0.543976580029977
20
-4.70933923526332
30
0
41
1
10
-0.554868580612833
20
-4.71041558869646
30
0
41
1
10
-0.571225704249997
20
-4.71144475460159
30
0
41
1
10
-0.5876405073071
20
-4.71070982968027
30
0
41
1
10
-0.609578781712315
20
-4.70814275449186
30
0
41
1
10
-0.620374827492952
20
-4.70608282011185
30
0
41
1
10
-0.641350213090277
20
-4.70066349410453
30
0
41
1
10
-0.651584949943043
20
-4.69729749278468
30
0
41
1
10
-0.671613199750652
20
-4.68941827906221
30
0
41
1
10
-0.681210585475696
20
-4.68498433991073
30
0
41
1
10
-0.708965296078418
20
-4.67052822129415
30
0
41
1
10
-0.726125293179763
20
-4.65935713023322
30
0
41
1
10
-0.75049224342311
20
-4.64101614114148
30
0
41
1
10
-0.75833105080028
20
-4.63466996063099
30
0
41
1
10
-0.773435300259308
20
-4.62169082720084
30
0
41
1
10
-0.780721313355457
20
-4.61504174878664
30
0
41
1
10
-0.801920392594184
20
-4.59469556410733
30
0
41
1
10
-0.815181474568618
20
-4.58060351558976
30
0
41
1
10
-0.853068613917884
20
-4.53715229328864
30
0
41
1
10
-0.875849179816726
20
-4.50661286524704
30
0
41
1
10
-0.918270620990739
20
-4.4436195297605
30
0
41
1
10
-0.937648218653891
20
-4.41151284912416
30
0
41
1
10
-0.973982716029639
20
-4.34641054667097
30
0
41
1
10
-0.990922443825184
20
-4.31341024355515
30
0
41
1
10
-1.0230070147559
20
-4.24668344942171
30
0
41
1
10
-1.03814572296366
20
-4.21295529145058
30
0
41
1
10
-1.08144833641848
20
-4.110828328325
30
0
41
1
10
-1.10752892291302
20
-4.04149516781195
30
0
41
1
10
-1.15587378854894
20
-3.90075641540054
30
0
41
1
10
-1.17812664766191
20
-3.82929955489212
30
0
41
1
10
-1.21961966811577
20
-3.68468606745108
30
0
41
1
10
-1.23882094986985
20
-3.61164482751008
30
0
41
1
10
-1.27473665787787
20
-3.46414251617398
30
0
41
1
10
-1.2914467565532
20
-3.38968077243678
30
0
41
1
10
-1.30710678118655
20
-3.3145152459299
30
0
0
SPLINE
5
15C
100
AcDbEntity
8
SK1
62
256
6
ByLayer
370
18
48
1
60
0
100
AcDbSpline
70
4
71
3
72
39
73
35
40
0
40
0
40
0
40
0
40
0.0234567255869419
40
0.0514886802768095
40
0.0795206349666771
40
0.107552589656545
40
0.16361649903628
40
0.219680408416015
40
0.247712363105882
40
0.27574431779575
40
0.331808227175485
40
0.359840181865353
40
0.38787213655522
40
0.415904091245088
40
0.443936045934956
40
0.471968000624823
40
0.485983977969757
40
0.499999955314691
40
0.514015932659625
40
0.528031910004558
40
0.556063864694426
40
0.584095819384293
40
0.612127774074161
40
0.640159728764029
40
0.668191683453896
40
0.724255592833631
40
0.752287547523499
40
0.780319502213366
40
0.836383411593102
40
0.892447320972837
40
0.920479275662704
40
0.948511230352572
40
0.97654318504244
40
1
40
1
40
1
40
1
41
1
10
-19
20
-10.0331238558663
30
0
41
1
10
-19
20
-10.0359545750026
30
0
41
1
10
-19
20
-10.0171751049365
30
0
41
1
10
-19
20
-9.91123849548634
30
0
41
1
10
-19
20
-9.71891814529585
30
0
41
1
10
-19
20
-9.36252651571954
30
0
41
1
10
-19
20
-8.7496587940804
30
0
41
1
10
-19
20
-7.93503539480014
30
0
41
1
10
-19
20
-7.166696276571
30
0
41
1
10
-19
20
-6.32708816497816
30
0
41
1
10
-19
20
-5.39691150719773
30
0
41
1
10
-19
20
-4.35855334822469
30
0
41
1
10
-19
20
-3.54050720156593
30
0
41
1
10
-19
20
-2.68380947355109
30
0
41
1
10
-19
20
-1.79728161122429
30
0
41
1
10
-19
20
-1.05021119288867
30
0
41
1
10
-19
20
-0.444754022192967
30
0
41
1
10
-19
20
1.751604657E-07
30
0
41
1
10
-19
20
0.444753991208131
30
0
41
1
10
-19
20
1.05021111926766
30
0
41
1
10
-19
20
1.79728192772174
30
0
41
1
10
-19
20
2.68380958588858
30
0
41
1
10
-19
20
3.54050705744928
30
0
41
1
10
-19
20
4.3585535429925
30
0
41
1
10
-19
20
5.3969115971864
30
0
41
1
10
-19
20
6.32708816044828
30
0
41
1
10
-19
20
7.16669631785621
30
0
41
1
10
-19
20
7.93503517871468
30
0
41
1
10
-19
20
8.74965901233364
30
0
41
1
10
-19
20
9.36252604803431
30
0
41
1
10
-19
20
9.7189182317581
30
0
41
1
10
-19
20
9.91123825969154
30
0
41
1
10
-19
20
10.0171748810353
30
0
41
1
10
-18.9999999999999
20
10.0359545212183
30
0
41
1
10
-18.9999999999999
20
10.0331237418317
30
0
0
SPLINE
5
15D
100
AcDbEntity
8
SK1
62
256
6
ByLayer
370
18
48
1
60
0
100
AcDbSpline
70
4
71
3
72
9
73
5
40
0
40
0
40
0
40
0
40
0.518667914401765
40
1
40
1
40
1
40
1
41
1
10
-1.49503997793926
20
10.8252683823246
30
0
41
1
10
-1.49503997793926
20
10.8252040311716
30
0
41
1
10
-1.49503997793926
20
10.8074035794333
30
0
41
1
10
-1.49503997793928
20
10.7587880255016
30
0
41
1
10
-1.49503997793923
20
10.7287503823245
30
0
0
SPLINE
5
15E
100
AcDbEntity
8
SK1
62
256
6
ByLayer
370
13
48
1
60
0
100
AcDbSpline
70
4
71
3
72
19
73
15
40
0
40
0
40
0
40
0
40
0.0232344806987899
40
0.0945100567394082
40
0.165785632780027
40
0.308336784861263
40
0.4508879369425
40
0.522163512983118
40
0.593439089023736
40
0.735990241104973
40
0.807265817145591
40
0.87854139318621
40
0.949816969226828
40
1
40
1
40
1
40
1
41
1
10
-1.49503997793926
20
10.7287503823246
30
0
41
1
10
-1.49503997793926
20
10.7142230482647
30
0
41
1
10
-1.49503997793926
20
10.6488155776747
30
0
41
1
10
-1.49503997793926
20
10.4906675023526
30
0
41
1
10
-1.49503997793926
20
10.1156289513023
30
0
41
1
10
-1.49503997793926
20
9.46887528495321
30
0
41
1
10
-1.49503997793926
20
8.61066206691208
30
0
41
1
10
-1.49503997793926
20
7.80570924310555
30
0
41
1
10
-1.49503997793928
20
6.92500328929282
30
0
41
1
10
-1.49503997793928
20
5.93563839600924
30
0
41
1
10
-1.49503997793928
20
4.83747557076666
30
0
41
1
10
-1.49503997793928
20
3.96252944300574
30
0
41
1
10
-1.49503997793928
20
3.12815554972914
30
0
41
1
10
-1.49503997793928
20
2.57901008145927
30
0
41
1
10
-1.49503997793928
20
2.34849338234218
30
0
0
SPLINE
5
15F
100
AcDbEntity
8
SK1
62
256
6
ByLayer
370
13
48
1
60
0
100
AcDbSpline
70
4
71
3
72
19
73
15
40
0
40
0
40
0
40
0
40
0.0501831328096995
40
0.121458725254298
40
0.192734317698896
40
0.264009910143494
40
0.40656109503269
40
0.477836687477288
40
0.549112279921886
40
0.691663464811083
40
0.834214649700279
40
0.905490242144877
40
0.976765834589475
40
1
40
1
40
1
40
1
41
1
10
-1.49503997793931
20
-2.3484920325788
30
0
41
1
10
-1.49503997793931
20
-2.57900913866001
30
0
41
1
10
-1.49503997793931
20
-3.12815500226569
30
0
41
1
10
-1.49503997793931
20
-3.96252951444393
30
0
41
1
10
-1.49503997793931
20
-4.83747546310528
30
0
41
1
10
-1.49503997793931
20
-5.93563827659562
30
0
41
1
10
-1.49503997793931
20
-6.92500328675368
30
0
41
1
10
-1.49503997793931
20
-7.80570915265952
30
0
41
1
10
-1.49503997793934
20
-8.61066229913334
30
0
41
1
10
-1.49503997793934
20
-9.46887502691081
30
0
41
1
10
-1.49503997793934
20
-10.1156294314954
30
0
41
1
10
-1.49503997793934
20
-10.4906674180643
30
0
41
1
10
-1.49503997793934
20
-10.6488154173595
30
0
41
1
10
-1.49503997793934
20
-10.7142228393087
30
0
41
1
10
-1.49503997793934
20
-10.7287500325537
30
0
0
SPLINE
5
160
100
AcDbEntity
8
SK1
62
256
6
ByLayer
370
18
48
1
60
0
100
AcDbSpline
70
4
71
3
72
9
73
5
40
0
40
0
40
0
40
0
40
0.480965201534386
40
1
40
1
40
1
40
1
41
1
10
-1.49503997793934
20
-10.7287507033119
30
0
41
1
10
-1.49503997793934
20
-10.7587883479317
30
0
41
1
10
-1.49503997793934
20
-10.8074409639316
30
0
41
1
10
-1.49503997793934
20
-10.8252313002227
30
0
41
1
10
-1.49503997793934
20
-10.825268703312
30
0
0
SPLINE
5
161
100
AcDbEntity
8
SK1
62
256
6
ByLayer
370
18
48
1
60
0
100
AcDbSpline
70
4
71
3
72
50
73
46
40
0
40
0
40
0
40
0
40
0.124999999999993
40
0.124999999999993
40
0.249999999999987
40
0.249999999999987
40
0.312499999999983
40
0.312499999999983
40
0.343749999999981
40
0.343749999999981
40
0.374999999999979
40
0.374999999999979
40
0.406249999999978
40
0.406249999999978
40
0.421874999999977
40
0.421874999999977
40
0.437499999999976
40
0.437499999999976
40
0.453124999999976
40
0.453124999999976
40
0.460937499999976
40
0.460937499999976
40
0.468749999999976
40
0.468749999999976
40
0.476562499999977
40
0.476562499999977
40
0.484374999999977
40
0.484374999999977
40
0.499999999999978
40
0.499999999999978
40
0.515624999999979
40
0.515624999999979
40
0.531249999999981
40
0.531249999999981
40
0.562499999999983
40
0.562499999999983
40
0.624999999999986
40
0.624999999999986
40
0.687499999999989
40
0.687499999999989
40
0.749999999999991
40
0.749999999999991
40
0.874999999999996
40
0.874999999999996
40
1
40
1
40
1
40
1
41
1
10
-1.69999999999999
20
2.34765420370229
30
0
41
1
10
-1.69980343680018
20
2.30204296329814
30
0
41
1
10
-1.69915039367987
20
2.25635328938307
30
0
41
1
10
-1.69653309873968
20
2.16478330538484
30
0
41
1
10
-1.69459916908715
20
2.11890560637775
30
0
41
1
10
-1.6899556054976
20
2.04988104532177
30
0
41
1
10
-1.68811440381066
20
2.026837939378
30
0
41
1
10
-1.68462315938689
20
1.99219601544965
30
0
41
1
10
-1.68333613778455
20
1.98063568355292
30
0
41
1
10
-1.68041145611022
20
1.95748001200514
30
0
41
1
10
-1.67877301232556
20
1.94586360536206
30
0
41
1
10
-1.67497483096688
20
1.92276974286997
30
0
41
1
10
-1.67282618887015
20
1.91127637950416
30
0
41
1
10
-1.66887115205898
20
1.89419287581472
30
0
41
1
10
-1.66742423583295
20
1.88851124598514
30
0
41
1
10
-1.66416551260076
20
1.87735964831148
30
0
41
1
10
-1.662359861196
20
1.8718764964907
30
0
41
1
10
-1.65807410816046
20
1.86126309906433
30
0
41
1
10
-1.65558240733867
20
1.8560666599372
30
0
41
1
10
-1.65094843729227
20
1.84951261814737
30
0
41
1
10
-1.64926857345711
20
1.84756086938978
30
0
41
1
10
-1.64547058536633
20
1.84443339232337
30
0
41
1
10
-1.64342437159496
20
1.84335697758962
30
0
41
1
10
-1.63925809788927
20
1.8424625676509
30
0
41
1
10
-1.63716436135067
20
1.84265099543572
30
0
41
1
10
-1.63324922719178
20
1.8439380266808
30
0
41
1
10
-1.63139685760362
20
1.84502279335263
30
0
41
1
10
-1.62620205615826
20
1.84900379634971
30
0
41
1
10
-1.62321157089434
20
1.85255132027478
30
0
41
1
10
-1.61769248369453
20
1.86030187295179
30
0
41
1
10
-1.61521688012277
20
1.86447571968583
30
0
41
1
10
-1.61056317312594
20
1.87313396792089
30
0
41
1
10
-1.60839150238638
20
1.8776251804901
30
0
41
1
10
-1.60217434005762
20
1.89140717435808
30
0
41
1
10
-1.59841255627541
20
1.90102400468518
30
0
41
1
10
-1.58782214937699
20
1.9302989986453
30
0
41
1
10
-1.58166446065891
20
1.95038898447223
30
0
41
1
10
-1.57011438927674
20
1.99102269015194
30
0
41
1
10
-1.564757186142
20
2.01158981154214
30
0
41
1
10
-1.55453695277316
20
2.05299657334314
30
0
41
1
10
-1.54968042595411
20
2.07384054331874
30
0
41
1
10
-1.53563332649338
20
2.13663479390587
30
0
41
1
10
-1.5269533910172
20
2.17884887827935
30
0
41
1
10
-1.51042221129256
20
2.26350502578163
30
0
41
1
10
-1.50258018333608
20
2.30596680519997
30
0
41
1
10
-1.49503997793928
20
2.34849338234218
30
0
0
SPLINE
5
162
100
AcDbEntity
8
SK1
62
256
6
ByLayer
370
18
48
1
60
0
100
AcDbSpline
70
4
71
3
72
50
73
46
40
0
40
0
40
0
40
0
40
0.124999999999993
40
0.124999999999993
40
0.249999999999986
40
0.249999999999986
40
0.312499999999982
40
0.312499999999982
40
0.374999999999977
40
0.374999999999977
40
0.437499999999973
40
0.437499999999973
40
0.46874999999997
40
0.46874999999997
40
0.484374999999968
40
0.484374999999968
40
0.499999999999967
40
0.499999999999967
40
0.507812499999967
40
0.507812499999967
40
0.515624999999967
40
0.515624999999967
40
0.523437499999968
40
0.523437499999968
40
0.531249999999968
40
0.531249999999968
40
0.539062499999969
40
0.539062499999969
40
0.546874999999969
40
0.546874999999969
40
0.562499999999971
40
0.562499999999971
40
0.578124999999972
40
0.578124999999972
40
0.593749999999973
40
0.593749999999973
40
0.624999999999975
40
0.624999999999975
40
0.687499999999979
40
0.687499999999979
40
0.749999999999983
40
0.749999999999983
40
0.874999999999992
40
0.874999999999992
40
1
40
1
40
1
40
1
41
1
10
-1.49503997793991
20
-2.34849203257858
30
0
41
1
10
-1.50264486299136
20
-2.30560072837358
30
0
41
1
10
-1.51055569104386
20
-2.26278077026905
30
0
41
1
10
-1.52723779413651
20
-2.17743187773848
30
0
41
1
10
-1.53599602067254
20
-2.13489523766003
30
0
41
1
10
-1.55020424476854
20
-2.07156115964614
30
0
41
1
10
-1.55512152574804
20
-2.05052989285036
30
0
41
1
10
-1.56549038663996
20
-2.00872925934067
30
0
41
1
10
-1.57093965450312
20
-1.9879376472413
30
0
41
1
10
-1.58270783684463
20
-1.94692992432044
30
0
41
1
10
-1.58898554423647
20
-1.92669096647967
30
0
41
1
10
-1.59982985491632
20
-1.89736086048552
30
0
41
1
10
-1.60367776004784
20
-1.88777253140711
30
0
41
1
10
-1.61012801536765
20
-1.87403352849674
30
0
41
1
10
-1.61238739824751
20
-1.86957502492965
30
0
41
1
10
-1.61725988408108
20
-1.86105354384
30
0
41
1
10
-1.6198801252792
20
-1.85696555156221
30
0
41
1
10
-1.62422190548617
20
-1.85152626087802
30
0
41
1
10
-1.62574025018972
20
-1.84982698790452
30
0
41
1
10
-1.62899704637212
20
-1.84678183261011
30
0
41
1
10
-1.63073797021957
20
-1.84543674111649
30
0
41
1
10
-1.63444006998856
20
-1.84343334345596
30
0
41
1
10
-1.63643104528751
20
-1.84277379291592
30
0
41
1
10
-1.64049371863734
20
-1.84257528778565
30
0
41
1
10
-1.64263141831242
20
-1.84306719353074
30
0
41
1
10
-1.64661670075131
20
-1.84520272843358
30
0
41
1
10
-1.64851494362384
20
-1.84684788948113
30
0
41
1
10
-1.65189818459373
20
-1.85070880506405
30
0
41
1
10
-1.65343748347132
20
-1.85296435164065
30
0
41
1
10
-1.65758301818303
20
-1.86005243113519
30
0
41
1
10
-1.65983641715789
20
-1.86533039904762
30
0
41
1
10
-1.66377295358205
20
-1.87606716402044
30
0
41
1
10
-1.66545095510662
20
-1.88154764100148
30
0
41
1
10
-1.66849020043534
20
-1.89263136704571
30
0
41
1
10
-1.66984560772775
20
-1.89823686093516
30
0
41
1
10
-1.67358927825893
20
-1.91517885650293
30
0
41
1
10
-1.67566088610397
20
-1.92664763316901
30
0
41
1
10
-1.68112003269374
20
-1.96089400109636
30
0
41
1
10
-1.68380553438459
20
-1.9837178331704
30
0
41
1
10
-1.6883263063022
20
-2.02935224085806
30
0
41
1
10
-1.69012636136873
20
-2.05216278261108
30
0
41
1
10
-1.69467464365059
20
-2.12057478489859
30
0
41
1
10
-1.69658414869915
20
-2.16620101192839
30
0
41
1
10
-1.69916210808094
20
-2.25713844148177
30
0
41
1
10
-1.6998052211259
20
-2.3024558176067
30
0
41
1
10
-1.70000000000002
20
-2.34765294685573
30
0
0
SPLINE
5
163
100
AcDbEntity
8
SK1
62
256
6
ByLayer
370
18
48
1
60
0
100
AcDbSpline
70
4
71
3
72
10
73
6
40
0
40
0
40
0
40
0
40
0.5
40
0.5
40
1
40
1
40
1
40
1
41
1
10
-1.30710678118655
20
-3.31451524592987
30
0
41
1
10
-1.33975739597591
20
-3.15779769861589
30
0
41
1
10
-1.37201250439208
20
-2.99910289734024
30
0
41
1
10
-1.43497554121927
20
-2.67729808228725
30
0
41
1
10
-1.46566312449343
20
-2.51417653001474
30
0
41
1
10
-1.49503997793931
20
-2.34849203258926
30
0
0
SPLINE
5
164
100
AcDbEntity
8
SK1
62
256
6
ByLayer
370
18
48
1
60
0
100
AcDbSpline
70
4
71
3
72
10
73
6
40
0
40
0
40
0
40
0
40
0.5
40
0.5
40
1
40
1
40
1
40
1
41
1
10
-1.49503997793928
20
2.34849338234221
30
0
41
1
10
-1.46566316358729
20
2.51417790895556
30
0
41
1
10
-1.4349756098799
20
2.6772994834665
30
0
41
1
10
-1.37201258068183
20
2.99910431043691
30
0
41
1
10
-1.33975744342436
20
3.15779909733413
30
0
41
1
10
-1.30710678118652
20
3.31451661882926
30
0
0
SPLINE
5
165
100
AcDbEntity
8
SK1
62
256
6
ByLayer
370
18
48
1
60
0
100
AcDbSpline
70
4
71
3
72
20
73
16
40
0
40
0
40
0
40
0
40
0.0618285642512353
40
0.125322966218705
40
0.188817368186174
40
0.252311770153643
40
0.379300574088581
40
0.50628937802352
40
0.569783779990989
40
0.633278181958458
40
0.760266985893396
40
0.823761387860866
40
0.887255789828335
40
0.950750191795804
40
1
40
1
40
1
40
1
41
1
10
-1.69999999999996
20
11.0168587087595
30
0
41
1
10
-1.69999999999996
20
11.0254727809742
30
0
41
1
10
-1.69999999999993
20
11.007756793174
30
0
41
1
10
-1.69999999999996
20
10.8874544346102
30
0
41
1
10
-1.69999999999996
20
10.6806097131649
30
0
41
1
10
-1.69999999999996
20
10.3009819355763
30
0
41
1
10
-1.69999999999996
20
9.64588812329174
30
0
41
1
10
-1.69999999999996
20
8.77694672660431
30
0
41
1
10
-1.69999999999996
20
7.96298250837995
30
0
41
1
10
-1.69999999999996
20
7.07216160324032
30
0
41
1
10
-1.69999999999999
20
6.06822933336571
30
0
41
1
10
-1.69999999999999
20
4.95534741364136
30
0
41
1
10
-1.69999999999999
20
4.06639719899749
30
0
41
1
10
-1.69999999999999
20
3.19422498243512
30
0
41
1
10
-1.69999999999999
20
2.6085619558728
30
0
41
1
10
-1.69999999999999
20
2.34765420370229
30
0
0
SPLINE
5
166
100
AcDbEntity
8
SK1
62
256
6
ByLayer
370
18
48
1
60
0
100
AcDbSpline
70
4
71
3
72
20
73
16
40
0
40
0
40
0
40
0
40
0.0492498069282652
40
0.112744110632573
40
0.17623841433688
40
0.239732718041187
40
0.366721325449802
40
0.430215629154109
40
0.493709932858417
40
0.620698540267032
40
0.747687147675646
40
0.811181451379954
40
0.874675755084261
40
0.938170058788569
40
1
40
1
40
1
40
1
41
1
10
-1.70000000000002
20
-2.34765294686034
30
0
41
1
10
-1.70000000000002
20
-2.60856107921731
30
0
41
1
10
-1.70000000000002
20
-3.19422443293118
30
0
41
1
10
-1.70000000000002
20
-4.06639725254809
30
0
41
1
10
-1.70000000000002
20
-4.95534732741851
30
0
41
1
10
-1.70000000000002
20
-6.06822920670999
30
0
41
1
10
-1.70000000000002
20
-7.07216159896134
30
0
41
1
10
-1.70000000000002
20
-7.96298240583451
30
0
41
1
10
-1.70000000000005
20
-8.77694696279681
30
0
41
1
10
-1.70000000000005
20
-9.64588785545641
30
0
41
1
10
-1.70000000000005
20
-10.3009824188478
30
0
41
1
10
-1.70000000000005
20
-10.6806096294116
30
0
41
1
10
-1.70000000000005
20
-10.8874546409424
30
0
41
1
10
-1.70000000000005
20
-11.0077581004227
30
0
41
1
10
-1.70000000000005
20
-11.025473275428
30
0
41
1
10
-1.70000000000005
20
-11.0168581574052
30
0
0
SPLINE
5
167
100
AcDbEntity
8
SK1
62
256
6
ByLayer
370
18
48
1
60
0
100
AcDbSpline
70
4
71
3
72
28
73
24
40
0
40
0
40
0
40
0
40
0.125
40
0.125
40
0.25
40
0.25
40
0.375
40
0.375
40
0.40625
40
0.40625
40
0.4375
40
0.4375
40
0.5
40
0.5
40
0.625
40
0.625
40
0.75
40
0.75
40
0.8125
40
0.8125
40
0.875
40
0.875
40
1
40
1
40
1
40
1
41
1
10
-1.70000000000002
20
-2.34765294686034
30
0
41
1
10
-1.73205415669227
20
-2.16038584160378
30
0
41
1
10
-1.76222065032135
20
-1.97131662577766
30
0
41
1
10
-1.81699375220629
20
-1.58898156364668
30
0
41
1
10
-1.84157210171966
20
-1.39570674274961
30
0
41
1
10
-1.88287055486933
20
-1.00413788392149
30
0
41
1
10
-1.89960742958058
20
-0.805850441666081
30
0
41
1
10
-1.91396022727267
20
-0.554216735189272
30
0
41
1
10
-1.91649855456245
20
-0.503699732728535
30
0
41
1
10
-1.92087575570554
20
-0.402270484700296
30
0
41
1
10
-1.92271432260526
20
-0.351352531619938
30
0
41
1
10
-1.92711759702396
20
-0.1991732695476
30
0
41
1
10
-1.92858996593
20
-0.098096875673491
30
0
41
1
10
-1.92851257349815
20
0.203996833737762
30
0
41
1
10
-1.92249647820373
20
0.403884260844421
30
0
41
1
10
-1.89992814454848
20
0.800898512891649
30
0
41
1
10
-1.88342776895729
20
0.998033489767096
30
0
41
1
10
-1.85255630843312
20
1.29195216882439
30
0
41
1
10
-1.84124169681192
20
1.38962690798928
30
0
41
1
10
-1.81682576986773
20
1.58441982262917
30
0
41
1
10
-1.80370973774757
20
1.68162305605506
30
0
41
1
10
-1.76234965181257
20
1.97058473862921
30
0
41
1
10
-1.73206310969363
20
2.16033448890278
30
0
41
1
10
-1.69999999999999
20
2.34765420370229
30
0
0
SPLINE
5
168
100
AcDbEntity
8
SK1
62
256
6
ByLayer
370
18
48
1
60
0
100
AcDbSpline
70
4
71
3
72
39
73
35
40
0
40
0
40
0
40
0
40
0.0271657224963328
40
0.054979525362835
40
0.0827933282293372
40
0.11060713109584
40
0.166234736828844
40
0.221862342561848
40
0.249676145428351
40
0.277489948294853
40
0.333117554027857
40
0.360931356894359
40
0.388745159760861
40
0.416558962627364
40
0.444372765493866
40
0.472186568360368
40
0.486093469793619
40
0.50000037122687
40
0.513907272660121
40
0.527814174093373
40
0.555627976959875
40
0.583441779826377
40
0.611255582692879
40
0.639069385559381
40
0.666883188425884
40
0.722510794158888
40
0.75032459702539
40
0.778138399891892
40
0.833766005624897
40
0.889393611357902
40
0.917207414224404
40
0.945021217090906
40
0.972835019957408
40
1
40
1
40
1
40
1
41
1
10
-18
20
10.6076106355697
30
0
41
1
10
-18
20
10.615956213717
30
0
41
1
10
-18
20
10.5989384253545
30
0
41
1
10
-18
20
10.4823597514039
30
0
41
1
10
-18
20
10.2815422565791
30
0
41
1
10
-18
20
9.91155641668587
30
0
41
1
10
-18
20
9.27398520146801
30
0
41
1
10
-18
20
8.42758364438689
30
0
41
1
10
-18
20
7.63255231230312
30
0
41
1
10
-18
20
6.76298285981454
30
0
41
1
10
-18
20
5.7896565616218
30
0
41
1
10
-18
20
4.70769937196647
30
0
41
1
10
-18
20
3.84817166067395
30
0
41
1
10
-18
20
2.94117947415668
30
0
41
1
10
-18
20
1.99095585453046
30
0
41
1
10
-18
20
1.17129189084355
30
0
41
1
10
-18
20
0.501599059707615
30
0
41
1
10
-18
20
7.85940699E-08
30
0
41
1
10
-18
20
-0.501599044412359
30
0
41
1
10
-18
20
-1.17129192458168
30
0
41
1
10
-18
20
-1.99095571595871
30
0
41
1
10
-18
20
-2.94117931205875
30
0
41
1
10
-18
20
-3.84817175180615
30
0
41
1
10
-18
20
-4.70769924070129
30
0
41
1
10
-18
20
-5.78965645018155
30
0
41
1
10
-18
20
-6.76298285919086
30
0
41
1
10
-18
20
-7.6325522351784
30
0
41
1
10
-18
20
-8.42758387223563
30
0
41
1
10
-18
20
-9.27398495420741
30
0
41
1
10
-18
20
-9.9115568934896
30
0
41
1
10
-18
20
-10.2815421717017
30
0
41
1
10
-18
20
-10.482359969962
30
0
41
1
10
-18.0000000000001
20
-10.5989377403916
30
0
41
1
10
-18.0000000000001
20
-10.615955833789
30
0
41
1
10
-18
20
-10.6076113859111
30
0
0
SPLINE
5
169
100
AcDbEntity
8
1
62
256
6
ByLayer
370
18
48
1
60
0
100
AcDbSpline
70
4
71
3
72
36
73
32
40
0
40
0
40
0
40
0
40
0.122035612499393
40
0.122035612499393
40
0.195199311457771
40
0.195199311457771
40
0.23178116093696
40
0.23178116093696
40
0.268363010416149
40
0.268363010416149
40
0.341526709374535
40
0.341526709374535
40
0.378108558853727
40
0.378108558853727
40
0.414690408332919
40
0.414690408332919
40
0.487854107291305
40
0.487854107291305
40
0.524435956770497
40
0.524435956770497
40
0.56101780624969
40
0.56101780624969
40
0.634181505208075
40
0.634181505208075
40
0.70734520416646
40
0.70734520416646
40
0.780508903124845
40
0.780508903124845
40
0.85367260208323
40
0.85367260208323
40
1
40
1
40
1
40
1
41
1
10
159.607669637935
20
-15.5914611994877
30
0
41
1
10
159.598262347174
20
-15.6009550511317
30
0
41
1
10
159.589540126288
20
-15.6097658957029
30
0
41
1
10
159.576976644012
20
-15.6224654597945
30
0
41
1
10
159.572676386704
20
-15.6268143799589
30
0
41
1
10
159.566946242107
20
-15.6326111896652
30
0
41
1
10
159.565154909061
20
-15.6344237048787
30
0
41
1
10
159.561829597008
20
-15.6377888178362
30
0
41
1
10
159.560292382381
20
-15.6393446922309
30
0
41
1
10
159.556174960262
20
-15.6435125705879
30
0
41
1
10
159.554057495271
20
-15.6456566565702
30
0
41
1
10
159.551906147985
20
-15.6478352113858
30
0
41
1
10
159.55135900524
20
-15.648389319482
30
0
41
1
10
159.550642850165
20
-15.6491146039354
30
0
41
1
10
159.55047117912
20
-15.6492884721363
30
0
41
1
10
159.550501767327
20
-15.6492574930086
30
0
41
1
10
159.551246731204
20
-15.648502959378
30
0
41
1
10
159.55345134394
20
-15.6462704782767
30
0
41
1
10
159.554368893717
20
-15.6453413791045
30
0
41
1
10
159.556511279087
20
-15.6431722755061
30
0
41
1
10
159.557740145399
20
-15.6419281894764
30
0
41
1
10
159.561869743699
20
-15.6377480363996
30
0
41
1
10
159.565225921132
20
-15.634351469467
30
0
41
1
10
159.572961123947
20
-15.626526389139
30
0
41
1
10
159.577262308037
20
-15.6221766324263
30
0
41
1
10
159.586594869352
20
-15.6127431271582
30
0
41
1
10
159.591627397181
20
-15.6076582111835
30
0
41
1
10
159.602350709483
20
-15.5968290428847
30
0
41
1
10
159.607961866034
20
-15.5911652276631
30
0
41
1
10
159.625301331398
20
-15.57367287271
30
0
41
1
10
159.637588136647
20
-15.561290405766
30
0
41
1
10
159.650480947162
20
-15.5483138743523
30
0
0
SPLINE
5
16A
100
AcDbEntity
8
1
62
256
6
ByLayer
370
18
48
1
60
0
100
AcDbSpline
70
4
71
3
72
8
73
4
40
0
40
0
40
0
40
0
40
1
40
1
40
1
40
1
41
1
10
159.650480947162
20
-15.5483138743523
30
0
41
1
10
159.876001090753
20
-15.3213292906336
30
0
41
1
10
160.100790144465
20
-15.0933837089892
30
0
41
1
10
160.324759526419
20
-14.8643606909284
30
0
0
SPLINE
5
16B
100
AcDbEntity
8
1
62
256
6
ByLayer
370
18
48
1
60
0
100
AcDbSpline
70
4
71
3
72
8
73
4
40
0
40
0
40
0
40
0
40
1
40
1
40
1
40
1
41
1
10
160.324759526419
20
-14.8454275367878
30
0
41
1
10
160.100551573487
20
-15.0619074716061
30
0
41
1
10
159.875771559452
20
-15.2775926728209
30
0
41
1
10
159.650480947162
20
-15.4925685274471
30
0
0
SPLINE
5
16C
100
AcDbEntity
8
1
62
256
6
ByLayer
370
18
48
1
60
0
100
AcDbSpline
70
4
71
3
72
40
73
36
40
0
40
0
40
0
40
0
40
0.0624999999999968
40
0.0624999999999968
40
0.124999999999994
40
0.124999999999994
40
0.18749999999999
40
0.18749999999999
40
0.249999999999987
40
0.249999999999987
40
0.312499999999984
40
0.312499999999984
40
0.343749999999983
40
0.343749999999983
40
0.374999999999983
40
0.374999999999983
40
0.437499999999984
40
0.437499999999984
40
0.499999999999985
40
0.499999999999985
40
0.531249999999986
40
0.531249999999986
40
0.562499999999987
40
0.562499999999987
40
0.624999999999988
40
0.624999999999988
40
0.687499999999989
40
0.687499999999989
40
0.74999999999999
40
0.74999999999999
40
0.812499999999991
40
0.812499999999991
40
0.874999999999991
40
0.874999999999991
40
1
40
1
40
1
40
1
41
1
10
159.650480947162
20
-15.4925685274471
30
0
41
1
10
159.643824748839
20
-15.4989199768417
30
0
41
1
10
159.637291879632
20
-15.5051091491988
30
0
41
1
10
159.6245013281
20
-15.5171232539097
30
0
41
1
10
159.618273362368
20
-15.5229198088945
30
0
41
1
10
159.606351289461
20
-15.5338928813394
30
0
41
1
10
159.600633008237
20
-15.5390922955419
30
0
41
1
10
159.589752945295
20
-15.5488298849582
30
0
41
1
10
159.584551960913
20
-15.553401524197
30
0
41
1
10
159.575054864585
20
-15.561541887717
30
0
41
1
10
159.570757441295
20
-15.5651138727134
30
0
41
1
10
159.565082111261
20
-15.5696179538637
30
0
41
1
10
159.563311796155
20
-15.5709817653281
30
0
41
1
10
159.560104320401
20
-15.5733588917923
30
0
41
1
10
159.558664038415
20
-15.5743751954407
30
0
41
1
10
159.554843422915
20
-15.5768963845962
30
0
41
1
10
159.552955347308
20
-15.5778779409141
30
0
41
1
10
159.550651513262
20
-15.5783020652506
30
0
41
1
10
159.550266574665
20
-15.5777438943191
30
0
41
1
10
159.550753623192
20
-15.5758368426874
30
0
41
1
10
159.551094269711
20
-15.5750219785408
30
0
41
1
10
159.552127339579
20
-15.5730387018165
30
0
41
1
10
159.552825322446
20
-15.5718619613845
30
0
41
1
10
159.555403417858
20
-15.5678679190398
30
0
41
1
10
159.557747957548
20
-15.5646092502017
30
0
41
1
10
159.563511127861
20
-15.5570699710177
30
0
41
1
10
159.566962008369
20
-15.5527510093387
30
0
41
1
10
159.57469266594
20
-15.5433663058324
30
0
41
1
10
159.578949081509
20
-15.5383263655538
30
0
41
1
10
159.588127319266
20
-15.5276568264768
30
0
41
1
10
159.593050049563
20
-15.5220264170093
30
0
41
1
10
159.603498064586
20
-15.5102335012362
30
0
41
1
10
159.608970800441
20
-15.5041307406252
30
0
41
1
10
159.625881745024
20
-15.4854609883056
30
0
41
1
10
159.637874454147
20
-15.472460392771
30
0
41
1
10
159.650480947162
20
-15.45899249929
30
0
0
SPLINE
5
16D
100
AcDbEntity
8
1
62
256
6
ByLayer
370
18
48
1
60
0
100
AcDbSpline
70
4
71
3
72
8
73
4
40
0
40
0
40
0
40
0
40
1
40
1
40
1
40
1
41
1
10
159.650480947162
20
-15.45899249929
30
0
41
1
10
159.876300003536
20
-15.2177432483216
30
0
41
1
10
160.101101228039
20
-14.9752364721527
30
0
41
1
10
160.324759526419
20
-14.7313176175798
30
0
0
SPLINE
5
16E
100
AcDbEntity
8
1
62
256
6
ByLayer
370
18
48
1
60
0
100
AcDbSpline
70
4
71
3
72
8
73
4
40
0
40
0
40
0
40
0
40
1
40
1
40
1
40
1
41
1
10
160.324759526419
20
-14.6739299013597
30
0
41
1
10
160.100366304594
20
-14.8798776311323
30
0
41
1
10
159.875593141359
20
-15.0852710609534
30
0
41
1
10
159.650480947162
20
-15.2901698754434
30
0
0
SPLINE
5
16F
100
AcDbEntity
8
1
62
256
6
ByLayer
370
18
48
1
60
0
100
AcDbSpline
70
4
71
3
72
39
73
35
40
0
40
0
40
0
40
0
40
0.0625000000000013
40
0.0625000000000013
40
0.125000000000003
40
0.125000000000003
40
0.187500000000004
40
0.218750000000005
40
0.218750000000005
40
0.250000000000006
40
0.250000000000006
40
0.312500000000009
40
0.312500000000009
40
0.343750000000008
40
0.343750000000008
40
0.375000000000007
40
0.375000000000007
40
0.437500000000005
40
0.437500000000005
40
0.500000000000004
40
0.500000000000004
40
0.562500000000002
40
0.562500000000002
40
0.625000000000001
40
0.625000000000001
40
0.687499999999999
40
0.687499999999999
40
0.749999999999998
40
0.749999999999998
40
0.812499999999996
40
0.812499999999996
40
0.874999999999994
40
0.874999999999994
40
1
40
1
40
1
40
1
41
1
10
159.650480947162
20
-15.2901698754434
30
0
41
1
10
159.643642222986
20
-15.2963945336904
30
0
41
1
10
159.636926011079
20
-15.3024077221736
30
0
41
1
10
159.623770014776
20
-15.313954444241
30
0
41
1
10
159.61729774108
20
-15.3195144442684
30
0
41
1
10
159.604954484736
20
-15.329835313817
30
0
41
1
10
159.596110982906
20
-15.3370114528643
30
0
41
1
10
159.587979167719
20
-15.3432127436754
30
0
41
1
10
159.582733001996
20
-15.3471066005155
30
0
41
1
10
159.580192369491
20
-15.3489364645472
30
0
41
1
10
159.572997343766
20
-15.3539328766847
30
0
41
1
10
159.568719357875
20
-15.3566462135091
30
0
41
1
10
159.563173902124
20
-15.3596750721432
30
0
41
1
10
159.561464995097
20
-15.3605120591211
30
0
41
1
10
159.558426910618
20
-15.3617835025292
30
0
41
1
10
159.55708902863
20
-15.3622236713614
30
0
41
1
10
159.553616999518
20
-15.3629588315106
30
0
41
1
10
159.552016870813
20
-15.362665401974
30
0
41
1
10
159.550338111577
20
-15.3604793198483
30
0
41
1
10
159.550271550947
20
-15.3586254719454
30
0
41
1
10
159.551519972535
20
-15.3535560940906
30
0
41
1
10
159.552860972089
20
-15.3502983241224
30
0
41
1
10
159.556699029489
20
-15.3427767239647
30
0
41
1
10
159.559188983748
20
-15.3385072848502
30
0
41
1
10
159.565150520241
20
-15.3290943287897
30
0
41
1
10
159.568651079833
20
-15.3239124582664
30
0
41
1
10
159.576345969628
20
-15.313032932326
30
0
41
1
10
159.580548692688
20
-15.3073183941822
30
0
41
1
10
159.589565510147
20
-15.2954177629436
30
0
41
1
10
159.594380315029
20
-15.2892311191769
30
0
41
1
10
159.604566819971
20
-15.27642977441
30
0
41
1
10
159.609909549282
20
-15.269852504771
30
0
41
1
10
159.626420003145
20
-15.2498769456116
30
0
41
1
10
159.638139154426
20
-15.2361434089773
30
0
41
1
10
159.650480947162
20
-15.2220509081672
30
0
0
SPLINE
5
170
100
AcDbEntity
8
1
62
256
6
ByLayer
370
18
48
1
60
0
100
AcDbSpline
70
4
71
3
72
8
73
4
40
0
40
0
40
0
40
0
40
1
40
1
40
1
40
1
41
1
10
159.650480947162
20
-15.2220509081672
30
0
41
1
10
159.876696937425
20
-14.9637457255701
30
0
41
1
10
160.101514956522
20
-14.7038291246146
30
0
41
1
10
160.324759526419
20
-14.4420988346576
30
0
0
SPLINE
5
171
100
AcDbEntity
8
1
62
256
6
ByLayer
370
18
48
1
60
0
100
AcDbSpline
70
4
71
3
72
8
73
4
40
0
40
0
40
0
40
0
40
1
40
1
40
1
40
1
41
1
10
160.324759526419
20
-14.3443967719112
30
0
41
1
10
160.100222163115
20
-14.5416548922598
30
0
41
1
10
159.875454263316
20
-14.7385621746025
30
0
41
1
10
159.650480947162
20
-14.9351568475924
30
0
0
SPLINE
5
172
100
AcDbEntity
8
1
62
256
6
ByLayer
370
18
48
1
60
0
100
AcDbSpline
70
4
71
3
72
35
73
31
40
0
40
0
40
0
40
0
40
0.125000000000004
40
0.125000000000004
40
0.187500000000008
40
0.187500000000008
40
0.250000000000011
40
0.250000000000011
40
0.312500000000015
40
0.312500000000015
40
0.375000000000019
40
0.375000000000019
40
0.406250000000021
40
0.406250000000021
40
0.437500000000022
40
0.468750000000024
40
0.468750000000024
40
0.500000000000025
40
0.500000000000025
40
0.562500000000025
40
0.562500000000025
40
0.625000000000024
40
0.625000000000024
40
0.750000000000018
40
0.750000000000018
40
0.812500000000014
40
0.812500000000014
40
0.875000000000009
40
0.875000000000009
40
1
40
1
40
1
40
1
41
1
10
159.650480947162
20
-14.9351568475924
30
0
41
1
10
159.636302522651
20
-14.9475467735527
30
0
41
1
10
159.622413848473
20
-14.9590056238529
30
0
41
1
10
159.603289167571
20
-14.9734036683577
30
0
41
1
10
159.597171267094
20
-14.9777621864667
30
0
41
1
10
159.58555979254
20
-14.9854028761506
30
0
41
1
10
159.58020654445
20
-14.9885897521679
30
0
41
1
10
159.570603429298
20
-14.993490953887
30
0
41
1
10
159.566307507221
20
-14.9952141008578
30
0
41
1
10
159.559277344021
20
-14.9969015590041
30
0
41
1
10
159.556492569701
20
-14.9969017314826
30
0
41
1
10
159.55343875487
20
-14.9956006006822
30
0
41
1
10
159.552615162101
20
-14.9949472598502
30
0
41
1
10
159.551375037606
20
-14.9932504325502
30
0
41
1
10
159.550527945319
20
-14.9911588726464
30
0
41
1
10
159.550421504324
20
-14.9883226520469
30
0
41
1
10
159.550670521422
20
-14.9851287300328
30
0
41
1
10
159.550975659374
20
-14.9833464383492
30
0
41
1
10
159.552372263222
20
-14.9776035836535
30
0
41
1
10
159.55393963159
20
-14.9732218164515
30
0
41
1
10
159.558142314441
20
-14.963529010057
30
0
41
1
10
159.56080305185
20
-14.958174991762
30
0
41
1
10
159.57002703344
20
-14.9412164909591
30
0
41
1
10
159.577769184891
20
-14.9287641335982
30
0
41
1
10
159.591195476704
20
-14.9087849043231
30
0
41
1
10
159.595957372821
20
-14.9019389248513
30
0
41
1
10
159.605849826494
20
-14.8881125803118
30
0
41
1
10
159.611000753017
20
-14.8811020653236
30
0
41
1
10
159.627006930813
20
-14.8598090253419
30
0
41
1
10
159.638409727851
20
-14.8452677593395
30
0
41
1
10
159.650480947162
20
-14.8304153215128
30
0
0
SPLINE
5
173
100
AcDbEntity
8
1
62
256
6
ByLayer
370
18
48
1
60
0
100
AcDbSpline
70
4
71
3
72
8
73
4
40
0
40
0
40
0
40
0
40
1
40
1
40
1
40
1
41
1
10
159.650480947162
20
-14.8304153215128
30
0
41
1
10
159.877238226736
20
-14.5514129846231
30
0
41
1
10
160.102080121807
20
-14.2703688976805
30
0
41
1
10
160.324759526419
20
-13.9870196521638
30
0
0
SPLINE
5
174
100
AcDbEntity
8
1
62
256
6
ByLayer
370
18
48
1
60
0
100
AcDbSpline
70
4
71
3
72
8
73
4
40
0
40
0
40
0
40
0
40
1
40
1
40
1
40
1
41
1
10
160.324759526419
20
-13.8455486980479
30
0
41
1
10
160.100112327899
20
-14.0359624353473
30
0
41
1
10
159.875348460448
20
-14.2261923844755
30
0
41
1
10
159.650480947162
20
-14.4162590606737
30
0
0
SPLINE
5
175
100
AcDbEntity
8
1
62
256
6
ByLayer
370
18
48
1
60
0
100
AcDbSpline
70
4
71
3
72
40
73
36
40
0
40
0
40
0
40
0
40
0.0624999999999906
40
0.0624999999999906
40
0.124999999999981
40
0.124999999999981
40
0.156249999999978
40
0.156249999999978
40
0.187499999999975
40
0.187499999999975
40
0.24999999999997
40
0.24999999999997
40
0.312499999999966
40
0.312499999999966
40
0.343749999999963
40
0.343749999999963
40
0.374999999999961
40
0.374999999999961
40
0.437499999999954
40
0.437499999999954
40
0.468749999999952
40
0.468749999999952
40
0.499999999999951
40
0.499999999999951
40
0.562499999999957
40
0.562499999999957
40
0.624999999999963
40
0.624999999999963
40
0.687499999999969
40
0.687499999999969
40
0.749999999999975
40
0.749999999999975
40
0.874999999999988
40
0.874999999999988
40
1
40
1
40
1
40
1
41
1
10
159.650480947162
20
-14.4162590606737
30
0
41
1
10
159.643104298224
20
-14.4224940882444
30
0
41
1
10
159.635771436613
20
-14.4284369046779
30
0
41
1
10
159.621492330795
20
-14.4394012265341
30
0
41
1
10
159.614576527393
20
-14.4444030472545
30
0
41
1
10
159.604594898881
20
-14.4510603216596
30
0
41
1
10
159.601333364441
20
-14.4531377759164
30
0
41
1
10
159.594956728133
20
-14.4569760332198
30
0
41
1
10
159.591840088414
20
-14.4587358966185
30
0
41
1
10
159.582937917134
20
-14.4633795464232
30
0
41
1
10
159.577525983142
20
-14.4656773359153
30
0
41
1
10
159.567890629157
20
-14.4684511202576
30
0
41
1
10
159.563817265228
20
-14.4688734156264
30
0
41
1
10
159.558910189923
20
-14.4680723967423
30
0
41
1
10
159.557468808296
20
-14.4675673142492
30
0
41
1
10
159.554977709934
20
-14.4660764161243
30
0
41
1
10
159.553935209076
20
-14.465089322205
30
0
41
1
10
159.551452437147
20
-14.4615169935423
30
0
41
1
10
159.550615942315
20
-14.4583072425307
30
0
41
1
10
159.550435936409
20
-14.4524022853732
30
0
41
1
10
159.55055853754
20
-14.4502480564534
30
0
41
1
10
159.551130166036
20
-14.4456884970678
30
0
41
1
10
159.55157831313
20
-14.4432731425608
30
0
41
1
10
159.553360150572
20
-14.4356613938733
30
0
41
1
10
159.55512841551
20
-14.4301016398268
30
0
41
1
10
159.559657200512
20
-14.4181513245885
30
0
41
1
10
159.562405807886
20
-14.4118018664642
30
0
41
1
10
159.568619725461
20
-14.3986847612277
30
0
41
1
10
159.572098299655
20
-14.3918838654866
30
0
41
1
10
159.579700162976
20
-14.3778619207947
30
0
41
1
10
159.583843550409
20
-14.3706082784267
30
0
41
1
10
159.597012239094
20
-14.3485142294195
30
0
41
1
10
159.606693212945
20
-14.3334515630541
30
0
41
1
10
159.627510176637
20
-14.3027949611124
30
0
41
1
10
159.638651489249
20
-14.2871990333914
30
0
41
1
10
159.650480947162
20
-14.2713560451097
30
0
0
SPLINE
5
176
100
AcDbEntity
8
1
62
256
6
ByLayer
370
18
48
1
60
0
100
AcDbSpline
70
4
71
3
72
8
73
4
40
0
40
0
40
0
40
0
40
1
40
1
40
1
40
1
41
1
10
159.650480947162
20
-14.2713560451097
30
0
41
1
10
159.878002972007
20
-13.9666397343593
30
0
41
1
10
160.102880102657
20
-13.6593450378135
30
0
41
1
10
160.324759526419
20
-13.3491280145939
30
0
0
SPLINE
5
177
100
AcDbEntity
8
1
62
256
6
ByLayer
370
18
48
1
60
0
100
AcDbSpline
70
4
71
3
72
8
73
4
40
0
40
0
40
0
40
0
40
1
40
1
40
1
40
1
41
1
10
160.324759526419
20
-13.1581426785856
30
0
41
1
10
160.100035623553
20
-13.343781814706
30
0
41
1
10
159.87527465126
20
-13.5293611300293
30
0
41
1
10
159.650480947162
20
-13.7148875513701
30
0
0
SPLINE
5
178
100
AcDbEntity
8
1
62
256
6
ByLayer
370
18
48
1
60
0
100
AcDbSpline
70
4
71
3
72
39
73
35
40
0
40
0
40
0
40
0
40
0.062500000000006
40
0.062500000000006
40
0.125000000000012
40
0.125000000000012
40
0.156250000000015
40
0.156250000000015
40
0.187500000000019
40
0.218750000000022
40
0.218750000000022
40
0.250000000000025
40
0.250000000000025
40
0.312500000000028
40
0.312500000000028
40
0.343750000000027
40
0.343750000000027
40
0.375000000000026
40
0.375000000000026
40
0.437500000000025
40
0.437500000000025
40
0.500000000000023
40
0.500000000000023
40
0.562500000000021
40
0.562500000000021
40
0.62500000000002
40
0.62500000000002
40
0.687500000000018
40
0.687500000000018
40
0.750000000000016
40
0.750000000000016
40
0.875000000000008
40
0.875000000000008
40
1
40
1
40
1
40
1
41
1
10
159.650480947162
20
-13.7148875513701
30
0
41
1
10
159.642745835049
20
-13.7212714831384
30
0
41
1
10
159.635015749358
20
-13.7272791437375
30
0
41
1
10
159.620008571985
20
-13.7380412264744
30
0
41
1
10
159.612723928358
20
-13.7428095789745
30
0
41
1
10
159.602197480775
20
-13.7488358304769
30
0
41
1
10
159.598734835513
20
-13.7506649186389
30
0
41
1
10
159.592088755372
20
-13.7538311127502
30
0
41
1
10
159.58572172019
20
-13.7565107028211
30
0
41
1
10
159.57994020434
20
-13.7581670101182
30
0
41
1
10
159.574472486959
20
-13.7592735917713
30
0
41
1
10
159.57190884154
20
-13.7595445691104
30
0
41
1
10
159.564933360512
20
-13.7594968055854
30
0
41
1
10
159.561145580565
20
-13.7583437099654
30
0
41
1
10
159.556707968269
20
-13.7549899669048
30
0
41
1
10
159.555447072422
20
-13.7536008675131
30
0
41
1
10
159.553384786397
20
-13.7503906291743
30
0
41
1
10
159.552572397843
20
-13.7485620289777
30
0
41
1
10
159.550731111279
20
-13.7424662900207
30
0
41
1
10
159.550303053198
20
-13.737535531307
30
0
41
1
10
159.5507927282
20
-13.7266363435789
30
0
41
1
10
159.551691359674
20
-13.7206608289404
30
0
41
1
10
159.554542154002
20
-13.7078597042826
30
0
41
1
10
159.556512441976
20
-13.7009894119652
30
0
41
1
10
159.561279415671
20
-13.6867643421302
30
0
41
1
10
159.564070865405
20
-13.6794093389158
30
0
41
1
10
159.570336222583
20
-13.6642931780041
30
0
41
1
10
159.573811144721
20
-13.6565314274489
30
0
41
1
10
159.581367080292
20
-13.6406472497528
30
0
41
1
10
159.585443365082
20
-13.6325393982528
30
0
41
1
10
159.598279694508
20
-13.6081335473162
30
0
41
1
10
159.607703887187
20
-13.5916165968372
30
0
41
1
10
159.628008049073
20
-13.5581739427273
30
0
41
1
10
159.638891659154
20
-13.5412471886969
30
0
41
1
10
159.650480947162
20
-13.5241261501074
30
0
0
SPLINE
5
179
100
AcDbEntity
8
1
62
256
6
ByLayer
370
18
48
1
60
0
100
AcDbSpline
70
4
71
3
72
8
73
4
40
0
40
0
40
0
40
0
40
1
40
1
40
1
40
1
41
1
10
159.650480947162
20
-13.5241261501074
30
0
41
1
10
159.879136900982
20
-13.1863290907554
30
0
41
1
10
160.104068659537
20
-12.8452612190802
30
0
41
1
10
160.324759526419
20
-12.5004687412119
30
0
0
SPLINE
5
17A
100
AcDbEntity
8
1
62
256
6
ByLayer
370
18
48
1
60
0
100
AcDbSpline
70
4
71
3
72
8
73
4
40
0
40
0
40
0
40
0
40
1
40
1
40
1
40
1
41
1
10
160.324759526419
20
-12.2504783069893
30
0
41
1
10
160.100000365157
20
-12.4340141890899
30
0
41
1
10
159.875240823031
20
-12.6175494493151
30
0
41
1
10
159.650480947162
20
-12.8010841645931
30
0
0
SPLINE
5
17B
100
AcDbEntity
8
1
62
256
6
ByLayer
370
18
48
1
60
0
100
AcDbSpline
70
4
71
3
72
38
73
34
40
0
40
0
40
0
40
0
40
0.0624999999999981
40
0.0624999999999981
40
0.0937499999999946
40
0.0937499999999946
40
0.124999999999991
40
0.124999999999991
40
0.187499999999983
40
0.187499999999983
40
0.249999999999975
40
0.249999999999975
40
0.281249999999975
40
0.281249999999975
40
0.312499999999975
40
0.312499999999975
40
0.374999999999979
40
0.374999999999979
40
0.437499999999984
40
0.437499999999984
40
0.499999999999988
40
0.499999999999988
40
0.562499999999993
40
0.562499999999993
40
0.624999999999997
40
0.624999999999997
40
0.687500000000002
40
0.687500000000002
40
0.750000000000006
40
0.750000000000006
40
0.875000000000003
40
0.875000000000003
40
1
40
1
40
1
40
1
41
1
10
159.650480947162
20
-12.8010841645931
30
0
41
1
10
159.64225476982
20
-12.8078015073141
30
0
41
1
10
159.634022997574
20
-12.8139815682513
30
0
41
1
10
159.622024347187
20
-12.8219782036232
30
0
41
1
10
159.618070470135
20
-12.8244413098386
30
0
41
1
10
159.610266392061
20
-12.8289067197182
30
0
41
1
10
159.606390093812
20
-12.8309205403412
30
0
41
1
10
159.595154151806
20
-12.8360578572948
30
0
41
1
10
159.588222224254
20
-12.8382831663993
30
0
41
1
10
159.575650300151
20
-12.8399456777738
30
0
41
1
10
159.570338689547
20
-12.8393341054447
30
0
41
1
10
159.563750621826
20
-12.836399781245
30
0
41
1
10
159.561773127065
20
-12.8350684814405
30
0
41
1
10
159.558361695512
20
-12.8318301704462
30
0
41
1
10
159.556915943627
20
-12.8299254043448
30
0
41
1
10
159.553269572862
20
-12.823450183343
30
0
41
1
10
159.551756836978
20
-12.8180471620944
30
0
41
1
10
159.550302561437
20
-12.8060838941013
30
0
41
1
10
159.550326073786
20
-12.7995040688392
30
0
41
1
10
159.551516546283
20
-12.7854288155454
30
0
41
1
10
159.552687641568
20
-12.7779301448291
30
0
41
1
10
159.555988452498
20
-12.7621622869438
30
0
41
1
10
159.558105272065
20
-12.7539682079281
30
0
41
1
10
159.563056189954
20
-12.7372401547637
30
0
41
1
10
159.565897619284
20
-12.7286767016539
30
0
41
1
10
159.572208303093
20
-12.7112068682817
30
0
41
1
10
159.57569309354
20
-12.7022659364156
30
0
41
1
10
159.583134827379
20
-12.6842964905593
30
0
41
1
10
159.587092915393
20
-12.6752595515486
30
0
41
1
10
159.599594481642
20
-12.6480108693728
30
0
41
1
10
159.608758738078
20
-12.6296626066676
30
0
41
1
10
159.628534527462
20
-12.5926517999851
30
0
41
1
10
159.63914834483
20
-12.5739887413701
30
0
41
1
10
159.650480947162
20
-12.555173152201
30
0
0
SPLINE
5
17C
100
AcDbEntity
8
1
62
256
6
ByLayer
370
18
48
1
60
0
100
AcDbSpline
70
4
71
3
72
8
73
4
40
0
40
0
40
0
40
0
40
1
40
1
40
1
40
1
41
1
10
159.650480947162
20
-12.555173152201
30
0
41
1
10
159.880939074424
20
-12.1725421098045
30
0
41
1
10
160.105961619054
20
-11.7857024167785
30
0
41
1
10
160.324759526419
20
-11.394043125687
30
0
0
SPLINE
5
17D
100
AcDbEntity
8
1
62
256
6
ByLayer
370
18
48
1
60
0
100
AcDbSpline
70
4
71
3
72
8
73
4
40
0
40
0
40
0
40
0
40
1
40
1
40
1
40
1
41
1
10
160.324759526419
20
-11.0685011970914
30
0
41
1
10
160.100039688933
20
-11.2540182637713
30
0
41
1
10
159.875278263296
20
-11.4394681755109
30
0
41
1
10
159.650480947162
20
-11.624860043513
30
0
0
SPLINE
5
17E
100
AcDbEntity
8
1
62
256
6
ByLayer
370
18
48
1
60
0
100
AcDbSpline
70
4
71
3
72
42
73
38
40
0
40
0
40
0
40
0
40
0.0312500000000022
40
0.0312500000000022
40
0.0625000000000044
40
0.0625000000000044
40
0.0937500000000067
40
0.0937500000000067
40
0.125000000000009
40
0.125000000000009
40
0.156250000000011
40
0.156250000000011
40
0.187500000000013
40
0.187500000000013
40
0.250000000000016
40
0.250000000000016
40
0.281250000000016
40
0.281250000000016
40
0.312500000000016
40
0.312500000000016
40
0.343750000000016
40
0.343750000000016
40
0.375000000000016
40
0.375000000000016
40
0.437500000000017
40
0.437500000000017
40
0.500000000000017
40
0.500000000000017
40
0.562500000000018
40
0.562500000000018
40
0.625000000000018
40
0.625000000000018
40
0.750000000000012
40
0.750000000000012
40
0.875000000000006
40
0.875000000000006
40
1
40
1
40
1
40
1
41
1
10
159.650480947162
20
-11.6248600435136
30
0
41
1
10
159.646074525325
20
-11.6284940494239
30
0
41
1
10
159.641662883611
20
-11.6319341742266
30
0
41
1
10
159.632827437589
20
-11.6383611964535
30
0
41
1
10
159.628382844566
20
-11.6413611163502
30
0
41
1
10
159.619576505526
20
-11.6467519238981
30
0
41
1
10
159.615247527492
20
-11.6491249580943
30
0
41
1
10
159.606757241438
20
-11.6531408298834
30
0
41
1
10
159.602560805781
20
-11.6547934024331
30
0
41
1
10
159.59454784653
20
-11.6571917746062
30
0
41
1
10
159.590749009416
20
-11.6579394011154
30
0
41
1
10
159.583577122024
20
-11.6585063530403
30
0
41
1
10
159.580179994002
20
-11.6583199869818
30
0
41
1
10
159.570825194145
20
-11.6563291978923
30
0
41
1
10
159.565882402115
20
-11.6531908342849
30
0
41
1
10
159.560036276896
20
-11.6462753723046
30
0
41
1
10
159.558365656545
20
-11.6436044344864
30
0
41
1
10
159.555575607336
20
-11.6377632018638
30
0
41
1
10
159.554441472908
20
-11.6345760071057
30
0
41
1
10
159.552618964849
20
-11.6277447036378
30
0
41
1
10
159.551929474331
20
-11.6240796831522
30
0
41
1
10
159.550957652969
20
-11.6164871691744
30
0
41
1
10
159.550670744266
20
-11.6125533173558
30
0
41
1
10
159.550305764422
20
-11.6004077885322
30
0
41
1
10
159.550718130718
20
-11.5918557442681
30
0
41
1
10
159.552533243758
20
-11.5740598150073
30
0
41
1
10
159.553939616291
20
-11.5648134674858
30
0
41
1
10
159.557573055502
20
-11.5457443652971
30
0
41
1
10
159.55979903589
20
-11.5359463486966
30
0
41
1
10
159.564872774992
20
-11.5161601355331
30
0
41
1
10
159.567728522475
20
-11.5061327736611
30
0
41
1
10
159.577119364504
20
-11.4757024077322
30
0
41
1
10
159.58450834062
20
-11.4548641550955
30
0
41
1
10
159.600828867774
20
-11.4131111173117
30
0
41
1
10
159.609776289356
20
-11.392136806881
30
0
41
1
10
159.629073334288
20
-11.3500166955423
30
0
41
1
10
159.639424506048
20
-11.3288706936784
30
0
41
1
10
159.650480947162
20
-11.3076415595594
30
0
0
SPLINE
5
17F
100
AcDbEntity
8
1
62
256
6
ByLayer
370
18
48
1
60
0
100
AcDbSpline
70
4
71
3
72
8
73
4
40
0
40
0
40
0
40
0
40
1
40
1
40
1
40
1
41
1
10
159.650480947162
20
-11.3076415595594
30
0
41
1
10
159.884131235778
20
-10.8590167929567
30
0
41
1
10
160.109321752657
20
-10.4048138402302
30
0
41
1
10
160.324759526419
20
-9.94418014468823
30
0
0
SPLINE
5
180
100
AcDbEntity
8
1
62
256
6
ByLayer
370
18
48
1
60
0
100
AcDbSpline
70
4
71
3
72
8
73
4
40
0
40
0
40
0
40
0
40
1
40
1
40
1
40
1
41
1
10
160.324759526419
20
-9.51047941746427
30
0
41
1
10
160.100279781297
20
-9.7057163521776
30
0
41
1
10
159.87550469639
20
-9.90049895287689
30
0
41
1
10
159.650480947162
20
-10.0948990224536
30
0
0
SPLINE
5
181
100
AcDbEntity
8
1
62
256
6
ByLayer
370
18
48
1
60
0
100
AcDbSpline
70
4
71
3
72
37
73
33
40
0
40
0
40
0
40
0
40
0.0312500000000006
40
0.0312500000000006
40
0.0625000000000011
40
0.0625000000000011
40
0.0937500000000017
40
0.0937500000000017
40
0.125000000000002
40
0.125000000000002
40
0.156250000000003
40
0.156250000000003
40
0.187500000000003
40
0.187500000000003
40
0.250000000000004
40
0.250000000000004
40
0.281250000000005
40
0.281250000000005
40
0.312500000000005
40
0.312500000000005
40
0.375000000000006
40
0.375000000000006
40
0.500000000000002
40
0.500000000000002
40
0.562500000000001
40
0.562500000000001
40
0.625000000000001
40
0.625000000000001
40
0.750000000000001
40
0.750000000000001
40
0.875
40
1
40
1
40
1
40
1
41
1
10
159.650480947162
20
-10.0948990224553
30
0
41
1
10
159.645592111779
20
-10.0991225319373
30
0
41
1
10
159.640660577913
20
-10.1030623930008
30
0
41
1
10
159.630690682245
20
-10.1102306362301
30
0
41
1
10
159.625627973702
20
-10.1134670436227
30
0
41
1
10
159.615691566211
20
-10.1188391502036
30
0
41
1
10
159.610760100173
20
-10.1210111657382
30
0
41
1
10
159.601154248889
20
-10.1240418591827
30
0
41
1
10
159.596593248772
20
-10.1248683270994
30
0
41
1
10
159.587974986474
20
-10.1250828591091
30
0
41
1
10
159.58389430403
20
-10.1244434263643
30
0
41
1
10
159.576627132379
20
-10.1218131524446
30
0
41
1
10
159.573383835546
20
-10.1198353804366
30
0
41
1
10
159.564691544231
20
-10.1121342006284
30
0
41
1
10
159.560618209477
20
-10.1050490001555
30
0
41
1
10
159.556112122243
20
-10.0926044771819
30
0
41
1
10
159.554886151804
20
-10.0881241572998
30
0
41
1
10
159.552934358117
20
-10.0788095392285
30
0
41
1
10
159.552200374837
20
-10.0739570985654
30
0
41
1
10
159.550589890179
20
-10.0589205058897
30
0
41
1
10
159.550304395867
20
-10.0482263281394
30
0
41
1
10
159.551125123266
20
-10.015440969248
30
0
41
1
10
159.55383060518
20
-9.9924349342067
30
0
41
1
10
159.559862692662
20
-9.95685329893993
30
0
41
1
10
159.56222598142
20
-9.94477464581809
30
0
41
1
10
159.56747320521
20
-9.92060811861569
30
0
41
1
10
159.570362131967
20
-9.90848566373285
30
0
41
1
10
159.579708544012
20
-9.87201642183376
30
0
41
1
10
159.586838167051
20
-9.84756871830348
30
0
41
1
10
159.602573828023
20
-9.79844867641916
30
0
41
1
10
159.61979396939
20
-9.74910292710422
30
0
41
1
10
159.639774571958
20
-9.69934083729066
30
0
41
1
10
159.650480947162
20
-9.67435488274037
30
0
0
SPLINE
5
182
100
AcDbEntity
8
1
62
256
6
ByLayer
370
18
48
1
60
0
100
AcDbSpline
70
4
71
3
72
8
73
4
40
0
40
0
40
0
40
0
40
1
40
1
40
1
40
1
41
1
10
159.650480947162
20
-9.67435488274037
30
0
41
1
10
159.89100570236
20
-9.1130313266932
30
0
41
1
10
160.116573030394
20
-8.54383861601639
30
0
41
1
10
160.324759526419
20
-7.96550178896533
30
0
0
SPLINE
5
183
100
AcDbEntity
8
1
62
256
6
ByLayer
370
18
48
1
60
0
100
AcDbSpline
70
4
71
3
72
8
73
4
40
0
40
0
40
0
40
0
40
1
40
1
40
1
40
1
41
1
10
160.324759526419
20
-7.34075736896469
30
0
41
1
10
160.101412076415
20
-7.56607559671716
30
0
41
1
10
159.87655017156
20
-7.78936248367853
30
0
41
1
10
159.650480947162
20
-8.01102999094385
30
0
0
SPLINE
5
184
100
AcDbEntity
8
1
62
256
6
ByLayer
370
18
48
1
60
0
100
AcDbSpline
70
4
71
3
72
42
73
38
40
0
40
0
40
0
40
0
40
0.031249999999998
40
0.031249999999998
40
0.0468749999999969
40
0.0468749999999969
40
0.0624999999999957
40
0.0624999999999957
40
0.0781249999999944
40
0.0781249999999944
40
0.0937499999999932
40
0.0937499999999932
40
0.109374999999992
40
0.109374999999992
40
0.124999999999991
40
0.124999999999991
40
0.14062499999999
40
0.14062499999999
40
0.156249999999989
40
0.156249999999989
40
0.187499999999986
40
0.187499999999986
40
0.218749999999984
40
0.218749999999984
40
0.249999999999981
40
0.249999999999981
40
0.312499999999985
40
0.312499999999985
40
0.374999999999989
40
0.374999999999989
40
0.499999999999991
40
0.499999999999991
40
0.624999999999992
40
0.624999999999992
40
0.749999999999994
40
0.749999999999994
40
1
40
1
40
1
40
1
41
1
10
159.650480947162
20
-8.01102999094655
30
0
41
1
10
159.644781716455
20
-8.01661825386697
30
0
41
1
10
159.638950708155
20
-8.02172461987706
30
0
41
1
10
159.629919022019
20
-8.02833767373394
30
0
41
1
10
159.626841491124
20
-8.03037464307874
30
0
41
1
10
159.620715472091
20
-8.03392055379692
30
0
41
1
10
159.617657084884
20
-8.03543949319669
30
0
41
1
10
159.611551030171
20
-8.03788736482574
30
0
41
1
10
159.608486304252
20
-8.03881448205314
30
0
41
1
10
159.602584921446
20
-8.03994486474917
30
0
41
1
10
159.599724310765
20
-8.04016120146645
30
0
41
1
10
159.594187907673
20
-8.03987680689312
30
0
41
1
10
159.591494149306
20
-8.03936414868542
30
0
41
1
10
159.586484957149
20
-8.03767806360548
30
0
41
1
10
159.584145531581
20
-8.03650911510522
30
0
41
1
10
159.579758673547
20
-8.03359388069302
30
0
41
1
10
159.577700891947
20
-8.03183267856198
30
0
41
1
10
159.573944692356
20
-8.02790344926714
30
0
41
1
10
159.57223258259
20
-8.02573081033046
30
0
41
1
10
159.567502850684
20
-8.01870211500679
30
0
41
1
10
159.564876270856
20
-8.01331032348122
30
0
41
1
10
159.560456470546
20
-8.00168693944866
30
0
41
1
10
159.558672863714
20
-7.9954950880763
30
0
41
1
10
159.5557164184
20
-7.98256324429951
30
0
41
1
10
159.554548922826
20
-7.97582152433762
30
0
41
1
10
159.551786829262
20
-7.95524949836897
30
0
41
1
10
159.550891615199
20
-7.9409725332826
30
0
41
1
10
159.550293581162
20
-7.91169822100386
30
0
41
1
10
159.550604950969
20
-7.89666945557801
30
0
41
1
10
159.552865631633
20
-7.8509239023484
30
0
41
1
10
159.556089838546
20
-7.81981861953022
30
0
41
1
10
159.564680533171
20
-7.75681818220471
30
0
41
1
10
159.570086268835
20
-7.72488964675014
30
0
41
1
10
159.582433399474
20
-7.66110115743743
30
0
41
1
10
159.589394816775
20
-7.62913897734168
30
0
41
1
10
159.612266509014
20
-7.53307304664764
30
0
41
1
10
159.63010909448
20
-7.4687926029151
30
0
41
1
10
159.650480947162
20
-7.40429113115695
30
0
0
SPLINE
5
185
100
AcDbEntity
8
1
62
256
6
ByLayer
370
18
48
1
60
0
100
AcDbSpline
70
4
71
3
72
8
73
4
40
0
40
0
40
0
40
0
40
1
40
1
40
1
40
1
41
1
10
159.650480947162
20
-7.40429113115698
30
0
41
1
10
159.915082845896
20
-6.56650714728198
30
0
41
1
10
160.142017638328
20
-5.71547151733898
30
0
41
1
10
160.324759526419
20
-4.8488884035423
30
0
0
SPLINE
5
186
100
AcDbEntity
8
1
62
256
6
ByLayer
370
18
48
1
60
0
100
AcDbSpline
70
4
71
3
72
10
73
6
40
0
40
0
40
0
40
0
40
0.5
40
0.5
40
1
40
1
40
1
40
1
41
1
10
160.324759526419
20
-3.58109183769488
30
0
41
1
10
160.220440994029
20
-3.77159005612873
30
0
41
1
10
160.111537497524
20
-3.9583531601329
30
0
41
1
10
159.88627716124
20
-4.32580754525949
30
0
41
1
10
159.769915870059
20
-4.50649520007403
30
0
41
1
10
159.650480947162
20
-4.68467893863271
30
0
0
SPLINE
5
187
100
AcDbEntity
8
1
62
256
6
ByLayer
370
18
48
1
60
0
100
AcDbSpline
70
4
71
3
72
44
73
40
40
0
40
0
40
0
40
0
40
0.0156249999999969
40
0.0156249999999969
40
0.0312499999999938
40
0.0312499999999938
40
0.0390624999999926
40
0.0390624999999926
40
0.0468749999999913
40
0.0468749999999913
40
0.05468749999999
40
0.05468749999999
40
0.0624999999999888
40
0.0624999999999888
40
0.0781249999999897
40
0.0781249999999897
40
0.0937499999999906
40
0.0937499999999906
40
0.109374999999992
40
0.109374999999992
40
0.124999999999993
40
0.124999999999993
40
0.156249999999993
40
0.156249999999993
40
0.187499999999993
40
0.187499999999993
40
0.249999999999994
40
0.249999999999994
40
0.312499999999994
40
0.312499999999994
40
0.374999999999995
40
0.374999999999995
40
0.499999999999996
40
0.499999999999996
40
0.624999999999997
40
0.624999999999997
40
0.749999999999998
40
0.749999999999998
40
1
40
1
40
1
40
1
41
1
10
159.650480947162
20
-4.68467893863271
30
0
41
1
10
159.646382308247
20
-4.69079365606248
30
0
41
1
10
159.642076170955
20
-4.69661542819409
30
0
41
1
10
159.632882683622
20
-4.70718070495096
30
0
41
1
10
159.627900674051
20
-4.71201898762934
30
0
41
1
10
159.620048912293
20
-4.71741640094794
30
0
41
1
10
159.617340610944
20
-4.71891976680914
30
0
41
1
10
159.611854926178
20
-4.72104879785203
30
0
41
1
10
159.60913940452
20
-4.72165437044907
30
0
41
1
10
159.603768957253
20
-4.72184634117167
30
0
41
1
10
159.601142454754
20
-4.72141144427803
30
0
41
1
10
159.596290750135
20
-4.71963999450153
30
0
41
1
10
159.594005756044
20
-4.71829846477627
30
0
41
1
10
159.587614028732
20
-4.71320262273414
30
0
41
1
10
159.584088184483
20
-4.70852765773171
30
0
41
1
10
159.578044974996
20
-4.6980957672815
30
0
41
1
10
159.575537145488
20
-4.6923597395494
30
0
41
1
10
159.571121055967
20
-4.68027716521996
30
0
41
1
10
159.569218552535
20
-4.67390407974884
30
0
41
1
10
159.56588239674
20
-4.66094919091728
30
0
41
1
10
159.564439835625
20
-4.65433691340982
30
0
41
1
10
159.560587708737
20
-4.63421342212675
30
0
41
1
10
159.558644869221
20
-4.62042072731796
30
0
41
1
10
159.555503852675
20
-4.59237763055836
30
0
41
1
10
159.554315102322
20
-4.57810472606667
30
0
41
1
10
159.551554608281
20
-4.53511975739355
30
0
41
1
10
159.550755128507
20
-4.50612543350798
30
0
41
1
10
159.550323317851
20
-4.44773514112939
30
0
41
1
10
159.550711133478
20
-4.41833314139953
30
0
41
1
10
159.55229668469
20
-4.35923434016172
30
0
41
1
10
159.553501154096
20
-4.32951282609906
30
0
41
1
10
159.558005573374
20
-4.24027924354448
30
0
41
1
10
159.562179765929
20
-4.18062544913107
30
0
41
1
10
159.571973544978
20
-4.06106944287924
30
0
41
1
10
159.577608497186
20
-4.00116585087753
30
0
41
1
10
159.589920758855
20
-3.88114673379891
30
0
41
1
10
159.596602716568
20
-3.82103078941139
30
0
41
1
10
159.617863609614
20
-3.6403965327292
30
0
41
1
10
159.633608511553
20
-3.51977194934466
30
0
41
1
10
159.650480947162
20
-3.39910457512769
30
0
0
SPLINE
5
188
100
AcDbEntity
8
1
62
256
6
ByLayer
370
18
48
1
60
0
100
AcDbSpline
70
4
71
3
72
11
73
7
40
0
40
0
40
0
40
0
40
0.25
40
0.5
40
0.75
40
1
40
1
40
1
40
1
41
1
10
159.650480947162
20
-3.39910457512769
30
0
41
1
10
159.729694810125
20
-2.83258714593984
30
0
41
1
10
159.849001006398
20
-1.69955228756416
30
0
41
1
10
159.908852166089
20
-5.969E-13
30
0
41
1
10
159.849001642386
20
1.69955228756297
30
0
41
1
10
159.729694810125
20
2.83258714593865
30
0
41
1
10
159.650480947162
20
3.3991045751265
30
0
0
SPLINE
5
189
100
AcDbEntity
8
1
62
256
6
ByLayer
370
18
48
1
60
0
100
AcDbSpline
70
4
71
3
72
46
73
42
40
0
40
0
40
0
40
0
40
0.249999999999998
40
0.249999999999998
40
0.374999999999998
40
0.374999999999998
40
0.499999999999998
40
0.499999999999998
40
0.562499999999999
40
0.562499999999999
40
0.625
40
0.625
40
0.6875
40
0.6875
40
0.750000000000001
40
0.750000000000001
40
0.812500000000002
40
0.812500000000002
40
0.843750000000001
40
0.843750000000001
40
0.875000000000001
40
0.875000000000001
40
0.90625
40
0.90625
40
0.921875000000001
40
0.921875000000001
40
0.929687500000001
40
0.929687500000001
40
0.9375
40
0.9375
40
0.9453125
40
0.9453125
40
0.953125
40
0.953125
40
0.960937499999999
40
0.960937499999999
40
0.968749999999999
40
0.968749999999999
40
0.984374999999999
40
0.984374999999999
40
1
40
1
40
1
40
1
41
1
10
159.650480947162
20
3.3991045751265
30
0
41
1
10
159.633622165898
20
3.51967429693346
30
0
41
1
10
159.617912784072
20
3.64002863431259
30
0
41
1
10
159.596695535138
20
3.82021745606966
30
0
41
1
10
159.590021268449
20
3.88022307534348
30
0
41
1
10
159.577710921038
20
4.0001122454062
30
0
41
1
10
159.572070099693
20
4.05999593729283
30
0
41
1
10
159.564707264067
20
4.14972018470226
30
0
41
1
10
159.562437822266
20
4.17961133208405
30
0
41
1
10
159.558359669018
20
4.23935700649156
30
0
41
1
10
159.556550170364
20
4.26922097676857
30
0
41
1
10
159.553537661744
20
4.32868271403936
30
0
41
1
10
159.552330951688
20
4.35830525509593
30
0
41
1
10
159.550730512121
20
4.41727422458032
30
0
41
1
10
159.550331585255
20
4.44662209975317
30
0
41
1
10
159.550730465953
20
4.50493497497558
30
0
41
1
10
159.551508339693
20
4.53390552308551
30
0
41
1
10
159.554222440595
20
4.57689335988914
30
0
41
1
10
159.555388696996
20
4.59114361825311
30
0
41
1
10
159.558510585187
20
4.61941198655967
30
0
41
1
10
159.560447665325
20
4.6333224516307
30
0
41
1
10
159.565548394146
20
4.66027786684259
30
0
41
1
10
159.568666367705
20
4.67337005423687
30
0
41
1
10
159.575271636336
20
4.69172062694423
30
0
41
1
10
159.577802320358
20
4.69758799422056
30
0
41
1
10
159.582301030769
20
4.70548145859738
30
0
41
1
10
159.583922683601
20
4.70796932449014
30
0
41
1
10
159.587504373377
20
4.71254883276197
30
0
41
1
10
159.589455150519
20
4.71462064691411
30
0
41
1
10
159.593669971071
20
4.71807370988691
30
0
41
1
10
159.595974085143
20
4.71948281617213
30
0
41
1
10
159.600902184538
20
4.72136083493217
30
0
41
1
10
159.603479220993
20
4.72181977584106
30
0
41
1
10
159.608878627873
20
4.7216970359178
30
0
41
1
10
159.611670416491
20
4.72109782452222
30
0
41
1
10
159.617124799157
20
4.7190245097793
30
0
41
1
10
159.619854748791
20
4.71753559337395
30
0
41
1
10
159.627837470927
20
4.71208981336008
30
0
41
1
10
159.6328413111
20
4.70722804783267
30
0
41
1
10
159.642114445338
20
4.69657164566439
30
0
41
1
10
159.646400999607
20
4.69076577061247
30
0
41
1
10
159.650480947162
20
4.68467893863149
30
0
0
SPLINE
5
18A
100
AcDbEntity
8
1
62
256
6
ByLayer
370
18
48
1
60
0
100
AcDbSpline
70
4
71
3
72
10
73
6
40
0
40
0
40
0
40
0
40
0.5
40
0.5
40
1
40
1
40
1
40
1
41
1
10
159.650480947162
20
4.68467893863149
30
0
41
1
10
159.769915870059
20
4.50649520007286
30
0
41
1
10
159.88627716124
20
4.3258075452583
30
0
41
1
10
160.111537497524
20
3.95835316013174
30
0
41
1
10
160.220440994029
20
3.77159005612759
30
0
41
1
10
160.324759526419
20
3.58109183769375
30
0
0
SPLINE
5
18B
100
AcDbEntity
8
1
62
256
6
ByLayer
370
18
48
1
60
0
100
AcDbSpline
70
4
71
3
72
8
73
4
40
0
40
0
40
0
40
0
40
1
40
1
40
1
40
1
41
1
10
160.324759526419
20
4.84888840354108
30
0
41
1
10
160.142017638328
20
5.71547151733779
30
0
41
1
10
159.915082845896
20
6.56650714728079
30
0
41
1
10
159.650480947162
20
7.40429113115579
30
0
0
SPLINE
5
18C
100
AcDbEntity
8
1
62
256
6
ByLayer
370
18
48
1
60
0
100
AcDbSpline
70
4
71
3
72
40
73
36
40
0
40
0
40
0
40
0
40
0.125000000000005
40
0.125000000000005
40
0.25000000000001
40
0.25000000000001
40
0.375000000000015
40
0.375000000000015
40
0.50000000000002
40
0.50000000000002
40
0.562500000000018
40
0.562500000000018
40
0.625000000000017
40
0.625000000000017
40
0.687500000000015
40
0.687500000000015
40
0.750000000000013
40
0.750000000000013
40
0.781250000000014
40
0.781250000000014
40
0.812500000000015
40
0.812500000000015
40
0.828125000000016
40
0.828125000000016
40
0.843750000000017
40
0.843750000000017
40
0.875000000000013
40
0.875000000000013
40
0.90625000000001
40
0.90625000000001
40
0.937500000000007
40
0.937500000000007
40
0.968750000000003
40
0.968750000000003
40
1
40
1
40
1
40
1
41
1
10
159.650480947162
20
7.40429113115576
30
0
41
1
10
159.640287680124
20
7.43656510918967
30
0
41
1
10
159.630715305132
20
7.46888230302315
30
0
41
1
10
159.612885331389
20
7.5331873079171
30
0
41
1
10
159.604610560981
20
7.56522774636898
30
0
41
1
10
159.589411082784
20
7.62907255518147
30
0
41
1
10
159.582484081303
20
7.66087724436508
30
0
41
1
10
159.570209138234
20
7.72421748184763
30
0
41
1
10
159.564852952187
20
7.75575414573095
30
0
41
1
10
159.558397240574
20
7.80280256773972
30
0
41
1
10
159.556511136846
20
7.81844224828848
30
0
41
1
10
159.553402897358
20
7.84961726134568
30
0
41
1
10
159.552186151038
20
7.86511112093061
30
0
41
1
10
159.550640926933
20
7.89553429170405
30
0
41
1
10
159.550304092067
20
7.91050672401704
30
0
41
1
10
159.550835545454
20
7.93980132558221
30
0
41
1
10
159.551690014487
20
7.95413062130669
30
0
41
1
10
159.554397020406
20
7.97486799063947
30
0
41
1
10
159.55554851826
20
7.9816764007999
30
0
41
1
10
159.558455819851
20
7.99467933892069
30
0
41
1
10
159.560210849815
20
8.00090143854885
30
0
41
1
10
159.563466735675
20
8.00966042105469
30
0
41
1
10
159.564656805311
20
8.01248358511637
30
0
41
1
10
159.567292965891
20
8.01789479624074
30
0
41
1
10
159.568745126672
20
8.02048925669533
30
0
41
1
10
159.573478920825
20
8.02768405685728
30
0
41
1
10
159.577146278644
20
8.03176069635907
30
0
41
1
10
159.585978602873
20
8.03781622208371
30
0
41
1
10
159.590966992874
20
8.03964411905272
30
0
41
1
10
159.602217160541
20
8.04035228218862
30
0
41
1
10
159.608175318024
20
8.03920797907571
30
0
41
1
10
159.620541001466
20
8.03431476256941
30
0
41
1
10
159.626648167846
20
8.03071058623465
30
0
41
1
10
159.63875673915
20
8.02188786062143
30
0
41
1
10
159.644732850747
20
8.01666616812625
30
0
41
1
10
159.650480947162
20
8.01102999094485
30
0
0
SPLINE
5
18D
100
AcDbEntity
8
1
62
256
6
ByLayer
370
18
48
1
60
0
100
AcDbSpline
70
4
71
3
72
8
73
4
40
0
40
0
40
0
40
0
40
1
40
1
40
1
40
1
41
1
10
159.650480947162
20
8.01102999094266
30
0
41
1
10
159.87655017156
20
7.78936248367734
30
0
41
1
10
160.101412076415
20
7.56607559671596
30
0
41
1
10
160.324759526419
20
7.34075736896349
30
0
0
SPLINE
5
18E
100
AcDbEntity
8
1
62
256
6
ByLayer
370
18
48
1
60
0
100
AcDbSpline
70
4
71
3
72
8
73
4
40
0
40
0
40
0
40
0
40
1
40
1
40
1
40
1
41
1
10
160.324759526419
20
7.96550178896413
30
0
41
1
10
160.116573030394
20
8.54383861601519
30
0
41
1
10
159.891005702361
20
9.11303132669201
30
0
41
1
10
159.650480947162
20
9.67435488273918
30
0
0
SPLINE
5
18F
100
AcDbEntity
8
1
62
256
6
ByLayer
370
18
48
1
60
0
100
AcDbSpline
70
4
71
3
72
43
73
39
40
0
40
0
40
0
40
0
40
0.125000000000008
40
0.250000000000016
40
0.250000000000016
40
0.375000000000024
40
0.375000000000024
40
0.437500000000025
40
0.437500000000025
40
0.500000000000025
40
0.500000000000025
40
0.562500000000026
40
0.562500000000026
40
0.625000000000027
40
0.625000000000027
40
0.687500000000027
40
0.687500000000027
40
0.718750000000022
40
0.718750000000022
40
0.750000000000017
40
0.750000000000017
40
0.781250000000012
40
0.781250000000012
40
0.812500000000007
40
0.812500000000007
40
0.843750000000002
40
0.843750000000002
40
0.874999999999997
40
0.874999999999997
40
0.890624999999997
40
0.890624999999997
40
0.906249999999997
40
0.906249999999997
40
0.937499999999998
40
0.937499999999998
40
0.968749999999999
40
0.968749999999999
40
1
40
1
40
1
40
1
41
1
10
159.650480947162
20
9.67435488273918
30
0
41
1
10
159.639770765879
20
9.69934971970937
30
0
41
1
10
159.619755774253
20
9.74919359517014
30
0
41
1
10
159.602471350142
20
9.7987427834581
30
0
41
1
10
159.586666575595
20
9.84813058992395
30
0
41
1
10
159.57949984055
20
9.87274417010343
30
0
41
1
10
159.570109082444
20
9.90951886541947
30
0
41
1
10
159.56721739983
20
9.92171908408221
30
0
41
1
10
159.562017993996
20
9.9458059621625
30
0
41
1
10
159.559703114204
20
9.95771803681404
30
0
41
1
10
159.555743011404
20
9.98123587526905
30
0
41
1
10
159.554096425307
20
9.99284222851136
30
0
41
1
10
159.551635897452
20
10.0156778047121
30
0
41
1
10
159.550818147552
20
10.0269220487784
30
0
41
1
10
159.550309406911
20
10.0488507881041
30
0
41
1
10
159.550618491147
20
10.0593774118954
30
0
41
1
10
159.552244874523
20
10.074272357813
30
0
41
1
10
159.5529826076
20
10.0790868122433
30
0
41
1
10
159.55494271377
20
10.0883444873461
30
0
41
1
10
159.556175008315
20
10.0928137458761
30
0
41
1
10
159.55920463057
20
10.1011076760419
30
0
41
1
10
159.560998289349
20
10.1049391114595
30
0
41
1
10
159.565273292953
20
10.1118269313126
30
0
41
1
10
159.567777103859
20
10.1149049251626
30
0
41
1
10
159.57356758644
20
10.1199587337029
30
0
41
1
10
159.576816253506
20
10.1219123364591
30
0
41
1
10
159.584131822115
20
10.1244968104366
30
0
41
1
10
159.588200559384
20
10.1251009441953
30
0
41
1
10
159.594657205597
20
10.1249037331406
30
0
41
1
10
159.596879298603
20
10.1246588428024
30
0
41
1
10
159.601462648405
20
10.1238127758361
30
0
41
1
10
159.603838666426
20
10.1232056298154
30
0
41
1
10
159.611000388548
20
10.1209119986294
30
0
41
1
10
159.615853946919
20
10.1187586641332
30
0
41
1
10
159.625691635027
20
10.1134251504926
30
0
41
1
10
159.630712506111
20
10.1102159900089
30
0
41
1
10
159.640678156526
20
10.1030487051359
30
0
41
1
10
159.645602717193
20
10.0991133698222
30
0
41
1
10
159.650480947162
20
10.0948990224534
30
0
0
SPLINE
5
190
100
AcDbEntity
8
1
62
256
6
ByLayer
370
18
48
1
60
0
100
AcDbSpline
70
4
71
3
72
8
73
4
40
0
40
0
40
0
40
0
40
1
40
1
40
1
40
1
41
1
10
159.650480947162
20
10.0948990224523
30
0
41
1
10
159.87550469639
20
9.90049895287569
30
0
41
1
10
160.100279781297
20
9.70571635217641
30
0
41
1
10
160.324759526419
20
9.51047941746307
30
0
0
SPLINE
5
191
100
AcDbEntity
8
1
62
256
6
ByLayer
370
18
48
1
60
0
100
AcDbSpline
70
4
71
3
72
8
73
4
40
0
40
0
40
0
40
0
40
1
40
1
40
1
40
1
41
1
10
160.324759526419
20
9.94418014468704
30
0
41
1
10
160.109321752657
20
10.404813840229
30
0
41
1
10
159.884131235778
20
10.8590167929555
30
0
41
1
10
159.650480947162
20
11.3076415595582
30
0
0
SPLINE
5
192
100
AcDbEntity
8
1
62
256
6
ByLayer
370
18
48
1
60
0
100
AcDbSpline
70
4
71
3
72
41
73
37
40
0
40
0
40
0
40
0
40
0.125
40
0.125
40
0.250000000000001
40
0.250000000000001
40
0.375000000000001
40
0.375000000000001
40
0.437500000000001
40
0.437500000000001
40
0.500000000000002
40
0.500000000000002
40
0.562500000000002
40
0.562500000000002
40
0.625000000000002
40
0.625000000000002
40
0.656250000000003
40
0.656250000000003
40
0.687500000000003
40
0.718750000000004
40
0.718750000000004
40
0.750000000000004
40
0.750000000000004
40
0.781250000000005
40
0.781250000000005
40
0.812500000000006
40
0.812500000000006
40
0.843750000000006
40
0.843750000000006
40
0.875000000000007
40
0.875000000000007
40
0.937500000000002
40
0.937500000000002
40
0.968750000000001
40
0.968750000000001
40
1
40
1
40
1
40
1
41
1
10
159.650480947162
20
11.3076415595582
30
0
41
1
10
159.639406704693
20
11.3289048735154
30
0
41
1
10
159.6290149766
20
11.3501327275006
30
0
41
1
10
159.609610134007
20
11.392510956779
30
0
41
1
10
159.600568876303
20
11.4137388482412
30
0
41
1
10
159.584289476404
20
11.4554626029
30
0
41
1
10
159.577017744599
20
11.4760120197819
30
0
41
1
10
159.567689449101
20
11.506269371076
30
0
41
1
10
159.564845545933
20
11.5162599084984
30
0
41
1
10
159.559782305466
20
11.5360180617707
30
0
41
1
10
159.557554037169
20
11.5458304545276
30
0
41
1
10
159.553918821684
20
11.5649364764577
30
0
41
1
10
159.552510262326
20
11.5742158603306
30
0
41
1
10
159.550699929449
20
11.5921050535503
30
0
41
1
10
159.550293994005
20
11.6007175545127
30
0
41
1
10
159.550694540039
20
11.6129693929369
30
0
41
1
10
159.551000845894
20
11.6169502678042
30
0
41
1
10
159.552002202944
20
11.6245065621495
30
0
41
1
10
159.553391055304
20
11.6316899827218
30
0
41
1
10
159.555675280745
20
11.6380145231853
30
0
41
1
10
159.558494356137
20
11.643827617027
30
0
41
1
10
159.560183279982
20
11.6464843496009
30
0
41
1
10
159.564099252622
20
11.6510435100917
30
0
41
1
10
159.566332379294
20
11.652966244984
30
0
41
1
10
159.57142544765
20
11.6560011429234
30
0
41
1
10
159.574297061969
20
11.6571029459633
30
0
41
1
10
159.580489091802
20
11.6583469052062
30
0
41
1
10
159.583832613098
20
11.6585072879601
30
0
41
1
10
159.591021250651
20
11.657895134741
30
0
41
1
10
159.594914277662
20
11.6571037536876
30
0
41
1
10
159.60688978809
20
11.6534513754811
30
0
41
1
10
159.615306460288
20
11.6493729215819
30
0
41
1
10
159.62844389083
20
11.6413201519198
30
0
41
1
10
159.632882290007
20
11.6383227405022
30
0
41
1
10
159.641691152944
20
11.6319121525994
30
0
41
1
10
159.646088912057
20
11.6284821845877
30
0
41
1
10
159.650480947162
20
11.6248600435123
30
0
0
SPLINE
5
193
100
AcDbEntity
8
1
62
256
6
ByLayer
370
18
48
1
60
0
100
AcDbSpline
70
4
71
3
72
8
73
4
40
0
40
0
40
0
40
0
40
1
40
1
40
1
40
1
41
1
10
159.650480947162
20
11.6248600435118
30
0
41
1
10
159.875278263296
20
11.4394681755097
30
0
41
1
10
160.100039688933
20
11.2540182637701
30
0
41
1
10
160.324759526419
20
11.0685011970902
30
0
0
SPLINE
5
194
100
AcDbEntity
8
1
62
256
6
ByLayer
370
18
48
1
60
0
100
AcDbSpline
70
4
71
3
72
8
73
4
40
0
40
0
40
0
40
0
40
1
40
1
40
1
40
1
41
1
10
160.324759526419
20
11.3940431256858
30
0
41
1
10
160.105961619054
20
11.7857024167773
30
0
41
1
10
159.880939074424
20
12.1725421098033
30
0
41
1
10
159.650480947162
20
12.5551731521998
30
0
0
SPLINE
5
195
100
AcDbEntity
8
1
62
256
6
ByLayer
370
18
48
1
60
0
100
AcDbSpline
70
4
71
3
72
34
73
30
40
0
40
0
40
0
40
0
40
0.124999999999998
40
0.124999999999998
40
0.249999999999997
40
0.249999999999997
40
0.374999999999995
40
0.374999999999995
40
0.499999999999994
40
0.499999999999994
40
0.562499999999989
40
0.562499999999989
40
0.624999999999985
40
0.624999999999985
40
0.687499999999981
40
0.687499999999981
40
0.749999999999977
40
0.749999999999977
40
0.78124999999998
40
0.78124999999998
40
0.812499999999983
40
0.812499999999983
40
0.87499999999999
40
0.87499999999999
40
0.906249999999994
40
0.906249999999994
40
0.937499999999997
40
0.937499999999997
40
1
40
1
40
1
40
1
41
1
10
159.650480947162
20
12.5551731521998
30
0
41
1
10
159.639123927362
20
12.574029281841
30
0
41
1
10
159.628439270443
20
12.5928141227507
30
0
41
1
10
159.608464654169
20
12.6302292574867
30
0
41
1
10
159.599162055837
20
12.6488988956092
30
0
41
1
10
159.582514462654
20
12.6852961708129
30
0
41
1
10
159.57511186229
20
12.7031149086287
30
0
41
1
10
159.562623036282
20
12.7377973906413
30
0
41
1
10
159.557504463794
20
12.7548030541209
30
0
41
1
10
159.552639849119
20
12.7782191915664
30
0
41
1
10
159.551476882694
20
12.785705015276
30
0
41
1
10
159.550312095403
20
12.7998710314913
30
0
41
1
10
159.550321713102
20
12.8065833924966
30
0
41
1
10
159.551853311447
20
12.8184713102287
30
0
41
1
10
159.553358515098
20
12.8237088874146
30
0
41
1
10
159.558326381476
20
12.832323329191
30
0
41
1
10
159.561723473872
20
12.8355517306993
30
0
41
1
10
159.568372854912
20
12.8384291027126
30
0
41
1
10
159.570864504682
20
12.8390561554922
30
0
41
1
10
159.57622331238
20
12.8395887747925
30
0
41
1
10
159.579107962177
20
12.8395053437475
30
0
41
1
10
159.588366084099
20
12.8382281131685
30
0
41
1
10
159.595456935882
20
12.8359379088821
30
0
41
1
10
159.606574735725
20
12.8308264465227
30
0
41
1
10
159.610378199123
20
12.8288461881547
30
0
41
1
10
159.618162062294
20
12.8243853673462
30
0
41
1
10
159.622164707964
20
12.821889211845
30
0
41
1
10
159.634224647377
20
12.8138377911185
30
0
41
1
10
159.642328167487
20
12.8077415721498
30
0
41
1
10
159.650480947162
20
12.8010841645922
30
0
0
SPLINE
5
196
100
AcDbEntity
8
1
62
256
6
ByLayer
370
18
48
1
60
0
100
AcDbSpline
70
4
71
3
72
8
73
4
40
0
40
0
40
0
40
0
40
1
40
1
40
1
40
1
41
1
10
159.650480947162
20
12.8010841645919
30
0
41
1
10
159.875240823032
20
12.6175494493139
30
0
41
1
10
160.100000365157
20
12.4340141890887
30
0
41
1
10
160.324759526419
20
12.2504783069881
30
0
0
SPLINE
5
197
100
AcDbEntity
8
1
62
256
6
ByLayer
370
18
48
1
60
0
100
AcDbSpline
70
4
71
3
72
8
73
4
40
0
40
0
40
0
40
0
40
1
40
1
40
1
40
1
41
1
10
160.324759526419
20
12.5004687412107
30
0
41
1
10
160.104068659537
20
12.8452612190789
30
0
41
1
10
159.879136900982
20
13.1863290907542
30
0
41
1
10
159.650480947162
20
13.5241261501062
30
0
0
SPLINE
5
198
100
AcDbEntity
8
1
62
256
6
ByLayer
370
18
48
1
60
0
100
AcDbSpline
70
4
71
3
72
35
73
31
40
0
40
0
40
0
40
0
40
0.125000000000004
40
0.125000000000004
40
0.250000000000008
40
0.250000000000008
40
0.375000000000012
40
0.375000000000012
40
0.500000000000017
40
0.500000000000017
40
0.562500000000022
40
0.562500000000022
40
0.625000000000027
40
0.625000000000027
40
0.656250000000027
40
0.656250000000027
40
0.687500000000027
40
0.718750000000028
40
0.718750000000028
40
0.750000000000028
40
0.750000000000028
40
0.812500000000024
40
0.812500000000024
40
0.843750000000022
40
0.843750000000022
40
0.875000000000021
40
0.875000000000021
40
0.93750000000001
40
0.93750000000001
40
1
40
1
40
1
40
1
41
1
10
159.650480947162
20
13.5241261501062
30
0
41
1
10
159.638858639622
20
13.5412959689719
30
0
41
1
10
159.627880037477
20
13.5583672792959
30
0
41
1
10
159.607305455144
20
13.5922908104703
30
0
41
1
10
159.597863794909
20
13.6088867789533
30
0
41
1
10
159.580887891057
20
13.6412398522727
30
0
41
1
10
159.573341159957
20
13.6570034428819
30
0
41
1
10
159.560765908867
20
13.687423877657
30
0
41
1
10
159.555914552173
20
13.7016330388662
30
0
41
1
10
159.551665365059
20
13.7208101940028
30
0
41
1
10
159.550764430261
20
13.7268837973188
30
0
41
1
10
159.550311879852
20
13.7377376102613
30
0
41
1
10
159.550742394554
20
13.7425560750008
30
0
41
1
10
159.552609194675
20
13.7486567241818
30
0
41
1
10
159.553443903026
20
13.7505080598545
30
0
41
1
10
159.555532069809
20
13.7537059459652
30
0
41
1
10
159.558039409971
20
13.7564189329298
30
0
41
1
10
159.56143278467
20
13.7581090180429
30
0
41
1
10
159.565305117674
20
13.7592472971059
30
0
41
1
10
159.567457684514
20
13.7595298981706
30
0
41
1
10
159.574448778942
20
13.7595281650152
30
0
41
1
10
159.579854662374
20
13.7584116886296
30
0
41
1
10
159.58905350254
20
13.755112515483
30
0
41
1
10
159.592271516137
20
13.7537496155985
30
0
41
1
10
159.598876150913
20
13.7505917454124
30
0
41
1
10
159.602279502296
20
13.748790822508
30
0
41
1
10
159.612766368983
20
13.7427813276207
30
0
41
1
10
159.620192977216
20
13.7379161526121
30
0
41
1
10
159.635186350384
20
13.7271494604601
30
0
41
1
10
159.642789854766
20
13.7212351528467
30
0
41
1
10
159.650480947162
20
13.714887551369
30
0
0
SPLINE
5
199
100
AcDbEntity
8
1
62
256
6
ByLayer
370
18
48
1
60
0
100
AcDbSpline
70
4
71
3
72
8
73
4
40
0
40
0
40
0
40
0
40
1
40
1
40
1
40
1
41
1
10
159.650480947162
20
13.7148875513689
30
0
41
1
10
159.87527465126
20
13.5293611300281
30
0
41
1
10
160.100035623554
20
13.3437818147047
30
0
41
1
10
160.324759526419
20
13.1581426785844
30
0
0
SPLINE
5
19A
100
AcDbEntity
8
1
62
256
6
ByLayer
370
18
48
1
60
0
100
AcDbSpline
70
4
71
3
72
8
73
4
40
0
40
0
40
0
40
0
40
1
40
1
40
1
40
1
41
1
10
160.324759526419
20
13.3491280145927
30
0
41
1
10
160.102880102657
20
13.6593450378123
30
0
41
1
10
159.878002972007
20
13.9666397343581
30
0
41
1
10
159.650480947162
20
14.2713560451086
30
0
0
SPLINE
5
19B
100
AcDbEntity
8
1
62
256
6
ByLayer
370
18
48
1
60
0
100
AcDbSpline
70
4
71
3
72
41
73
37
40
0
40
0
40
0
40
0
40
0.0625000000000104
40
0.0625000000000104
40
0.125000000000021
40
0.125000000000021
40
0.250000000000039
40
0.250000000000039
40
0.312500000000046
40
0.312500000000046
40
0.375000000000053
40
0.375000000000053
40
0.437500000000061
40
0.468750000000061
40
0.468750000000061
40
0.500000000000062
40
0.500000000000062
40
0.562500000000059
40
0.562500000000059
40
0.625000000000055
40
0.625000000000055
40
0.687500000000052
40
0.687500000000052
40
0.750000000000049
40
0.750000000000049
40
0.781250000000045
40
0.781250000000045
40
0.812500000000041
40
0.812500000000041
40
0.875000000000025
40
0.875000000000025
40
0.906250000000017
40
0.906250000000017
40
0.937500000000008
40
0.937500000000008
40
1
40
1
40
1
40
1
41
1
10
159.650480947162
20
14.2713560451086
30
0
41
1
10
159.644541763467
20
14.2793102910575
30
0
41
1
10
159.638756839539
20
14.2872294433612
30
0
41
1
10
159.627506774317
20
14.3029939465163
30
0
41
1
10
159.622036841691
20
14.310847425005
30
0
41
1
10
159.606303670805
20
14.3340419064654
30
0
41
1
10
159.596648437231
20
14.3491012776323
30
0
41
1
10
159.583633254484
20
14.3709733054265
30
0
41
1
10
159.579541653131
20
14.3781434271869
30
0
41
1
10
159.571931370335
20
14.392203119139
30
0
41
1
10
159.56843089975
20
14.3990639033667
30
0
41
1
10
159.562253628208
20
14.412143661972
30
0
41
1
10
159.558207911073
20
14.4215257021617
30
0
41
1
10
159.555200721481
20
14.4301516009071
30
0
41
1
10
159.55345518968
20
14.4357135774878
30
0
41
1
10
159.552710442822
20
14.4384087911512
30
0
41
1
10
159.550942245299
20
14.4460502422378
30
0
41
1
10
159.550366329962
20
14.4505927249279
30
0
41
1
10
159.550633108058
20
14.4583821261444
30
0
41
1
10
159.551503033045
20
14.4616464130949
30
0
41
1
10
159.554855359467
20
14.466354170452
30
0
41
1
10
159.557331074051
20
14.4678426894623
30
0
41
1
10
159.564017307023
20
14.4688769046281
30
0
41
1
10
159.568091472035
20
14.4684067895684
30
0
41
1
10
159.575219147711
20
14.4663343824121
30
0
41
1
10
159.577765374082
20
14.4654144454729
30
0
41
1
10
159.583195178748
20
14.4631216378031
30
0
41
1
10
159.586076510252
20
14.4617472419394
30
0
41
1
10
159.594973748989
20
14.457091083218
30
0
41
1
10
159.601313509255
20
14.4532519906578
30
0
41
1
10
159.611346272036
20
14.4465558779874
30
0
41
1
10
159.614793791829
20
14.4441549227076
30
0
41
1
10
159.621753592838
20
14.4391294491512
30
0
41
1
10
159.625269774212
20
14.4365033089273
30
0
41
1
10
159.635916030169
20
14.4283204218174
30
0
41
1
10
159.643143199086
20
14.4224612077371
30
0
41
1
10
159.650480947162
20
14.4162590606726
30
0
0
SPLINE
5
19C
100
AcDbEntity
8
1
62
256
6
ByLayer
370
18
48
1
60
0
100
AcDbSpline
70
4
71
3
72
8
73
4
40
0
40
0
40
0
40
0
40
1
40
1
40
1
40
1
41
1
10
159.650480947162
20
14.4162590606725
30
0
41
1
10
159.875348460448
20
14.2261923844744
30
0
41
1
10
160.100112327899
20
14.0359624353461
30
0
41
1
10
160.324759526419
20
13.8455486980467
30
0
0
SPLINE
5
19D
100
AcDbEntity
8
1
62
256
6
ByLayer
370
18
48
1
60
0
100
AcDbSpline
70
4
71
3
72
8
73
4
40
0
40
0
40
0
40
0
40
1
40
1
40
1
40
1
41
1
10
160.324759526419
20
13.9870196521626
30
0
41
1
10
160.102080121807
20
14.2703688976793
30
0
41
1
10
159.877238226736
20
14.5514129846219
30
0
41
1
10
159.650480947162
20
14.8304153215116
30
0
0
SPLINE
5
19E
100
AcDbEntity
8
1
62
256
6
ByLayer
370
18
48
1
60
0
100
AcDbSpline
70
4
71
3
72
39
73
35
40
0
40
0
40
0
40
0
40
0.125000000000008
40
0.125000000000008
40
0.187500000000007
40
0.187500000000007
40
0.250000000000007
40
0.250000000000007
40
0.312500000000006
40
0.312500000000006
40
0.375000000000006
40
0.375000000000006
40
0.437500000000005
40
0.437500000000005
40
0.500000000000005
40
0.500000000000005
40
0.562500000000004
40
0.562500000000004
40
0.593750000000004
40
0.593750000000004
40
0.625000000000004
40
0.656250000000004
40
0.656250000000004
40
0.687500000000003
40
0.687500000000003
40
0.750000000000002
40
0.750000000000002
40
0.781250000000003
40
0.781250000000003
40
0.812500000000003
40
0.812500000000003
40
0.875000000000002
40
0.875000000000002
40
1
40
1
40
1
40
1
41
1
10
159.650480947162
20
14.8304153215116
30
0
41
1
10
159.638373424806
20
14.8453124266346
30
0
41
1
10
159.626879692994
20
14.8599680744838
30
0
41
1
10
159.610679568091
20
14.8815346298462
30
0
41
1
10
159.605479541519
20
14.8886211864286
30
0
41
1
10
159.595604467179
20
14.9024417752074
30
0
41
1
10
159.590914494101
20
14.9091953839257
30
0
41
1
10
159.582081461249
20
14.9223552101113
30
0
41
1
10
159.577937788705
20
14.9287618173769
30
0
41
1
10
159.570285250187
20
14.9411707644356
30
0
41
1
10
159.56677140083
20
14.9471873255043
30
0
41
1
10
159.560678781527
20
14.9584189402439
30
0
41
1
10
159.558073230203
20
14.9636743992602
30
0
41
1
10
159.553893832727
20
14.9733417740616
30
0
41
1
10
159.552312937964
20
14.9777886164388
30
0
41
1
10
159.550489509687
20
14.9854070182936
30
0
41
1
10
159.550231560541
20
14.9885939889233
30
0
41
1
10
159.550980242484
20
14.9922954153532
30
0
41
1
10
159.551422775317
20
14.993343952854
30
0
41
1
10
159.552686525779
20
14.995013885134
30
0
41
1
10
159.5543306151
20
14.9962719112228
30
0
41
1
10
159.556748694073
20
14.9966927508124
30
0
41
1
10
159.559567576045
20
14.9966806584236
30
0
41
1
10
159.561183605443
20
14.9964540484117
30
0
41
1
10
159.566506436117
20
14.9951447688908
30
0
41
1
10
159.570717710927
20
14.9934413492999
30
0
41
1
10
159.577958305296
20
14.9897326464968
30
0
41
1
10
159.580537151557
20
14.9882959102667
30
0
41
1
10
159.585880111042
20
14.9851164812348
30
0
41
1
10
159.588655360764
20
14.9833688613553
30
0
41
1
10
159.597265745629
20
14.9776938429166
30
0
41
1
10
159.603383833781
20
14.9733368817564
30
0
41
1
10
159.622740472732
20
14.9587505765198
30
0
41
1
10
159.636379623364
20
14.9474793984973
30
0
41
1
10
159.650480947162
20
14.9351568475913
30
0
0
SPLINE
5
19F
100
AcDbEntity
8
1
62
256
6
ByLayer
370
18
48
1
60
0
100
AcDbSpline
70
4
71
3
72
8
73
4
40
0
40
0
40
0
40
0
40
1
40
1
40
1
40
1
41
1
10
159.650480947162
20
14.9351568475912
30
0
41
1
10
159.875454263316
20
14.7385621746012
30
0
41
1
10
160.100222163115
20
14.5416548922586
30
0
41
1
10
160.324759526419
20
14.34439677191
30
0
0
SPLINE
5
1A0
100
AcDbEntity
8
1
62
256
6
ByLayer
370
18
48
1
60
0
100
AcDbSpline
70
4
71
3
72
8
73
4
40
0
40
0
40
0
40
0
40
1
40
1
40
1
40
1
41
1
10
160.324759526419
20
14.4420988346564
30
0
41
1
10
160.101514956522
20
14.7038291246134
30
0
41
1
10
159.876696937425
20
14.9637457255689
30
0
41
1
10
159.650480947162
20
15.222050908166
30
0
0
SPLINE
5
1A1
100
AcDbEntity
8
1
62
256
6
ByLayer
370
18
48
1
60
0
100
AcDbSpline
70
4
71
3
72
37
73
33
40
0
40
0
40
0
40
0
40
0.0624999999999953
40
0.0624999999999953
40
0.124999999999991
40
0.124999999999991
40
0.249999999999988
40
0.249999999999988
40
0.312499999999988
40
0.312499999999988
40
0.374999999999989
40
0.374999999999989
40
0.437499999999989
40
0.437499999999989
40
0.49999999999999
40
0.49999999999999
40
0.56249999999999
40
0.56249999999999
40
0.62499999999999
40
0.62499999999999
40
0.65624999999999
40
0.65624999999999
40
0.687499999999991
40
0.718749999999991
40
0.718749999999991
40
0.749999999999991
40
0.749999999999991
40
0.812499999999994
40
0.812499999999994
40
0.874999999999996
40
0.874999999999996
40
1
40
1
40
1
40
1
41
1
10
159.650480947162
20
15.222050908166
30
0
41
1
10
159.644294333432
20
15.2291151054727
30
0
41
1
10
159.638254285596
20
15.2361013691697
30
0
41
1
10
159.626485187195
20
15.2499071715829
30
0
41
1
10
159.620736080959
20
15.256751094208
30
0
41
1
10
159.604171835447
20
15.2767999145127
30
0
41
1
10
159.594038658074
20
15.2895121613157
30
0
41
1
10
159.580511471499
20
15.3073684373036
30
0
41
1
10
159.576261489572
20
15.3131487300509
30
0
41
1
10
159.568550606069
20
15.3240582484619
30
0
41
1
10
159.565111393543
20
15.3291540615024
30
0
41
1
10
159.559174019191
20
15.3385329781315
30
0
41
1
10
159.556673297191
20
15.3428191151768
30
0
41
1
10
159.552811676533
20
15.3504031254536
30
0
41
1
10
159.551504626515
20
15.3535966360265
30
0
41
1
10
159.550267848023
20
15.358662616686
30
0
41
1
10
159.550356237082
20
15.3605373474091
30
0
41
1
10
159.552049103844
20
15.3626719024932
30
0
41
1
10
159.553634168403
20
15.3629642507975
30
0
41
1
10
159.557155738882
20
15.362204871874
30
0
41
1
10
159.558526169189
20
15.361747310494
30
0
41
1
10
159.561577133251
20
15.3604593963503
30
0
41
1
10
159.564951313696
20
15.3587975304605
30
0
41
1
10
159.568938345093
20
15.356427625419
30
0
41
1
10
159.573221150482
20
15.3537165266532
30
0
41
1
10
159.575523372987
20
15.3521811350277
30
0
41
1
10
159.582746229745
20
15.347157990094
30
0
41
1
10
159.587979356439
20
15.3432613857023
30
0
41
1
10
159.599154252662
20
15.3345430038483
30
0
41
1
10
159.605140004151
20
15.3296835354686
30
0
41
1
10
159.623741159003
20
15.3141198856099
30
0
41
1
10
159.636843765495
20
15.3025825408976
30
0
41
1
10
159.650480947162
20
15.2901698754422
30
0
0
SPLINE
5
1A2
100
AcDbEntity
8
1
62
256
6
ByLayer
370
18
48
1
60
0
100
AcDbSpline
70
4
71
3
72
8
73
4
40
0
40
0
40
0
40
0
40
1
40
1
40
1
40
1
41
1
10
159.650480947162
20
15.2901698754422
30
0
41
1
10
159.875593141359
20
15.0852710609522
30
0
41
1
10
160.100366304594
20
14.8798776311311
30
0
41
1
10
160.324759526419
20
14.6739299013585
30
0
0
SPLINE
5
1A3
100
AcDbEntity
8
1
62
256
6
ByLayer
370
18
48
1
60
0
100
AcDbSpline
70
4
71
3
72
8
73
4
40
0
40
0
40
0
40
0
40
1
40
1
40
1
40
1
41
1
10
160.324759526419
20
14.7313176175786
30
0
41
1
10
160.101101228039
20
14.9752364721515
30
0
41
1
10
159.876300003536
20
15.2177432483205
30
0
41
1
10
159.650480947162
20
15.4589924992888
30
0
0
SPLINE
5
1A4
100
AcDbEntity
8
1
62
256
6
ByLayer
370
18
48
1
60
0
100
AcDbSpline
70
4
71
3
72
36
73
32
40
0
40
0
40
0
40
0
40
0.124999999999994
40
0.124999999999994
40
0.187499999999995
40
0.187499999999995
40
0.249999999999996
40
0.249999999999996
40
0.312499999999997
40
0.312499999999997
40
0.374999999999997
40
0.374999999999997
40
0.437499999999998
40
0.437499999999998
40
0.499999999999999
40
0.499999999999999
40
0.5625
40
0.5625
40
0.593750000000001
40
0.593750000000001
40
0.625000000000002
40
0.625000000000002
40
0.687500000000002
40
0.687500000000002
40
0.750000000000003
40
0.750000000000003
40
0.812500000000004
40
0.812500000000004
40
0.875000000000004
40
0.875000000000004
40
1
40
1
40
1
40
1
41
1
10
159.650480947162
20
15.4589924992888
30
0
41
1
10
159.637779184345
20
15.4725621723481
30
0
41
1
10
159.625682351265
20
15.4856785147977
30
0
41
1
10
159.608796513398
20
15.5043244886968
30
0
41
1
10
159.60336854529
20
15.5103787087682
30
0
41
1
10
159.592969496432
20
15.5221183431412
30
0
41
1
10
159.587974869903
20
15.5278317856406
30
0
41
1
10
159.578761815747
20
15.5385464040311
30
0
41
1
10
159.574516901229
20
15.5435765620344
30
0
41
1
10
159.566849576797
20
15.5528907308124
30
0
41
1
10
159.563406643093
20
15.5572012643934
30
0
41
1
10
159.557609631908
20
15.5647958271566
30
0
41
1
10
159.555281508536
20
15.5680434298926
30
0
41
1
10
159.551900875466
20
15.5733082427215
30
0
41
1
10
159.550860656782
20
15.5753190439054
30
0
41
1
10
159.550276828273
20
15.5778099072427
30
0
41
1
10
159.55070742994
20
15.5783251754664
30
0
41
1
10
159.552496708887
20
15.577943512665
30
0
41
1
10
159.553284202495
20
15.5776209079287
30
0
41
1
10
159.555192138946
20
15.5766149883924
30
0
41
1
10
159.556316008362
20
15.5759312254567
30
0
41
1
10
159.560171459294
20
15.573365510941
30
0
41
1
10
159.56338438504
20
15.5709717738386
30
0
41
1
10
159.571028690427
20
15.5648917328045
30
0
41
1
10
159.57538384051
20
15.5612647435849
30
0
41
1
10
159.584863528357
20
15.5531292924509
30
0
41
1
10
159.59001082287
20
15.5486023360615
30
0
41
1
10
159.601035252391
20
15.5387288385976
30
0
41
1
10
159.606805271365
20
15.5334780207416
30
0
41
1
10
159.624631639548
20
15.5170613432578
30
0
41
1
10
159.637255927245
20
15.5051880499825
30
0
41
1
10
159.650480947162
20
15.492568527446
30
0
0
SPLINE
5
1A5
100
AcDbEntity
8
1
62
256
6
ByLayer
370
18
48
1
60
0
100
AcDbSpline
70
4
71
3
72
8
73
4
40
0
40
0
40
0
40
0
40
1
40
1
40
1
40
1
41
1
10
159.650480947162
20
15.4925685274459
30
0
41
1
10
159.875771559452
20
15.2775926728197
30
0
41
1
10
160.100551573487
20
15.0619074716049
30
0
41
1
10
160.324759526419
20
14.8454275367866
30
0
0
SPLINE
5
1A6
100
AcDbEntity
8
1
62
256
6
ByLayer
370
18
48
1
60
0
100
AcDbSpline
70
4
71
3
72
8
73
4
40
0
40
0
40
0
40
0
40
1
40
1
40
1
40
1
41
1
10
160.324759526419
20
14.8643606909272
30
0
41
1
10
160.100790144465
20
15.093383708988
30
0
41
1
10
159.876001090753
20
15.3213292906324
30
0
41
1
10
159.650480947162
20
15.5483138743511
30
0
0
SPLINE
5
1A7
100
AcDbEntity
8
1
62
256
6
ByLayer
370
18
48
1
60
0
100
AcDbSpline
70
4
71
3
72
36
73
32
40
0
40
0
40
0
40
0
40
0.0816277357749292
40
0.0816277357749292
40
0.163255471549859
40
0.163255471549859
40
0.326510943099726
40
0.326510943099726
40
0.408138678874666
40
0.408138678874666
40
0.448952546762137
40
0.448952546762137
40
0.489766414649607
40
0.489766414649607
40
0.57139415042454
40
0.57139415042454
40
0.612208018312006
40
0.612208018312006
40
0.653021886199473
40
0.653021886199473
40
0.734649621974406
40
0.734649621974406
40
0.775463489861872
40
0.775463489861872
40
0.816277357749339
40
0.816277357749339
40
0.897905093524271
40
0.897905093524271
40
0.979532829299203
40
0.979532829299203
40
1
40
1
40
1
40
1
41
1
10
159.650480947162
20
15.5483138743511
30
0
41
1
10
159.64399689804
20
15.5548400283666
30
0
41
1
10
159.637644982441
20
15.5612371970024
30
0
41
1
10
159.625230622589
20
15.5737471498225
30
0
41
1
10
159.619166433218
20
15.5798617325436
30
0
41
1
10
159.601769130335
20
15.5974128454548
30
0
41
1
10
159.59110360217
20
15.6081854849744
30
0
41
1
10
159.576976644012
20
15.6224654597933
30
0
41
1
10
159.572676386705
20
15.6268143799577
30
0
41
1
10
159.566946242107
20
15.632611189664
30
0
41
1
10
159.565154909061
20
15.6344237048776
30
0
41
1
10
159.561829597008
20
15.637788817835
30
0
41
1
10
159.560292382381
20
15.6393446922297
30
0
41
1
10
159.556174960262
20
15.6435125705868
30
0
41
1
10
159.554057495271
20
15.645656656569
30
0
41
1
10
159.551906147985
20
15.6478352113846
30
0
41
1
10
159.55135900524
20
15.6483893194809
30
0
41
1
10
159.550642850166
20
15.6491146039342
30
0
41
1
10
159.55047117912
20
15.6492884721351
30
0
41
1
10
159.550501767327
20
15.6492574930074
30
0
41
1
10
159.551246731204
20
15.6485029593768
30
0
41
1
10
159.55345134394
20
15.6462704782755
30
0
41
1
10
159.554368893717
20
15.6453413791033
30
0
41
1
10
159.556511279087
20
15.6431722755049
30
0
41
1
10
159.557740145399
20
15.6419281894752
30
0
41
1
10
159.561869743699
20
15.6377480363985
30
0
41
1
10
159.565225921132
20
15.6343514694658
30
0
41
1
10
159.572961123947
20
15.6265263891378
30
0
41
1
10
159.577262308037
20
15.6221766324251
30
0
41
1
10
159.583098602316
20
15.6162772109298
30
0
41
1
10
159.58429164172
20
15.6150713958171
30
0
41
1
10
159.585507121774
20
15.6138430412822
30
0
0
SPLINE
5
1A8
100
AcDbEntity
8
1
62
256
6
ByLayer
370
18
48
1
60
0
100
AcDbSpline
70
4
71
3
72
10
73
6
40
0
40
0
40
0
40
0
40
0.143647075370488
40
0.143647075370488
40
1
40
1
40
1
40
1
41
1
10
159.607984547752
20
15.5911433936467
30
0
41
1
10
159.609882576217
20
15.5892279399556
30
0
41
1
10
159.611802640328
20
15.587290587594
30
0
41
1
10
159.625301331398
20
15.5736728727087
30
0
41
1
10
159.637588136647
20
15.5612904057647
30
0
41
1
10
159.650480947162
20
15.5483138743511
30
0
0
SPLINE
5
1A9
100
AcDbEntity
8
SK1
62
256
6
ByLayer
370
18
48
1
60
0
100
AcDbSpline
70
4
71
2
72
6
73
3
40
0
40
0
40
0
40
1
40
1
40
1
41
1
10
-0.394913799811263
20
10.7561253011184
30
0
41
1
10
-0.944976888870315
20
10.7424218878285
30
0
41
1
10
-1.49503997793926
20
10.7287184519682
30
0
0
SPLINE
5
1AA
100
AcDbEntity
8
SK1
62
256
6
ByLayer
370
18
48
1
60
0
100
AcDbSpline
70
4
71
2
72
6
73
3
40
0
40
0
40
0
40
1
40
1
40
1
41
1
10
-1.49503997793934
20
-10.7287185965104
30
0
41
1
10
-0.9449768888704
20
-10.742422032064
30
0
41
1
10
-0.39491379981132
20
-10.7561254450469
30
0
0
SPLINE
5
1AB
100
AcDbEntity
8
SK1
62
256
6
ByLayer
370
18
48
1
60
0
100
AcDbSpline
70
4
71
2
72
6
73
3
40
0
40
0
40
0
40
1
40
1
40
1
41
1
10
-18
20
10.610149600804
30
0
41
1
10
-18.4999993598727
20
10.3216388688798
30
0
41
1
10
-19
20
10.0331225704843
30
0
0
SPLINE
5
1AC
100
AcDbEntity
8
SK1
62
256
6
ByLayer
370
18
48
1
60
0
100
AcDbSpline
70
4
71
2
72
6
73
3
40
0
40
0
40
0
40
1
40
1
40
1
41
1
10
-19
20
-10.0331227046419
30
0
41
1
10
-18.499999359849
20
-10.3216390035827
30
0
41
1
10
-18
20
-10.6101497360691
30
0
0
SPLINE
5
1AD
100
AcDbEntity
8
SK1
62
256
6
ByLayer
370
18
48
1
60
0
100
AcDbSpline
70
4
71
3
72
13
73
9
40
0
40
0
40
0
40
0
40
0.239503299986072
40
0.368422974046453
40
0.500068382752372
40
0.631702431366343
40
0.760590771380856
40
1
40
1
40
1
40
1
41
1
10
-1.49503997793926
20
10.8252677308309
30
0
41
1
10
-1.52110932222985
20
10.8248656203855
30
0
41
1
10
-1.55883875866951
20
10.8310353403565
30
0
41
1
10
-1.60627575626162
20
10.8540692579953
30
0
41
1
10
-1.63886251160176
20
10.8792258274844
30
0
41
1
10
-1.6656349616041
20
10.9104942540852
30
0
41
1
10
-1.69103211703242
20
10.9566935764512
30
0
41
1
10
-1.69909125944699
20
10.994051696625
30
0
41
1
10
-1.69999999999996
20
11.020099440279
30
0
0
SPLINE
5
1AE
100
AcDbEntity
8
SK1
62
256
6
ByLayer
370
18
48
1
60
0
100
AcDbSpline
70
4
71
3
72
13
73
9
40
0
40
0
40
0
40
0
40
0.239409228197305
40
0.368297568070461
40
0.499931616633788
40
0.631577025391789
40
0.760496699593568
40
1
40
1
40
1
40
1
41
1
10
-1.70000000000005
20
-11.0200995388071
30
0
41
1
10
-1.69909125944082
20
-10.9940517952282
30
0
41
1
10
-1.69103211702642
20
-10.9566936751655
30
0
41
1
10
-1.66563496159549
20
-10.9104943529528
30
0
41
1
10
-1.63886251159013
20
-10.8792259264472
30
0
41
1
10
-1.60627575624903
20
-10.854069357026
30
0
41
1
10
-1.5588387586518
20
-10.8310354394285
30
0
41
1
10
-1.52110932222064
20
-10.8248657194289
30
0
41
1
10
-1.49503997793934
20
-10.825267829839
30
0
0
SPLINE
5
1AF
100
AcDbEntity
8
SK1
62
256
6
ByLayer
370
18
48
1
60
0
100
AcDbSpline
70
4
71
2
72
6
73
3
40
0
40
0
40
0
40
1
40
1
40
1
41
1
10
-1.69999999999996
20
11.0168487405457
30
0
41
1
10
-9.84999999929852
20
10.8122283432519
30
0
41
1
10
-18
20
10.6076073812181
30
0
0
SPLINE
5
1B0
100
AcDbEntity
8
SK1
62
256
6
ByLayer
370
18
48
1
60
0
100
AcDbSpline
70
4
71
2
72
6
73
3
40
0
40
0
40
0
40
1
40
1
40
1
41
1
10
-18
20
-10.6076075596898
30
0
41
1
10
-9.84999999929853
20
-10.8122285220589
30
0
41
1
10
-1.70000000000005
20
-11.0168489196732
30
0
0
LINE
5
A2
100
AcDbEntity
8
81
62
256
6
ByLayer
370
18
48
1
60
0
100
AcDbLine
10
160
20
0
30
0
11
165
21
0
31
0
39
0
210
0
220
0
230
1
0
LINE
5
A3
100
AcDbEntity
8
4
62
256
6
ByLayer
370
18
48
0.05
60
0
100
AcDbLine
10
0
20
0
30
0
11
160
21
0
31
0
39
0
210
0
220
0
230
1
0
LINE
5
A5
100
AcDbEntity
8
SK4
62
256
6
ByLayer
370
18
48
0.05
60
0
100
AcDbLine
10
4
20
0
30
0
11
174
21
0
31
0
39
0
210
0
220
0
230
1
0
LINE
5
A7
100
AcDbEntity
8
80
62
256
6
ByLayer
370
18
48
1
60
0
100
AcDbLine
10
0
20
0
30
0
11
-5
21
0
31
0
39
0
210
0
220
0
230
1
0
LINE
5
A8
100
AcDbEntity
8
1
62
256
6
ByLayer
370
18
48
1
60
0
100
AcDbLine
10
164.8
20
10.278175
30
0
11
164.8
21
5.278175
31
0
39
0
210
0
220
0
230
1
0
LINE
5
A9
100
AcDbEntity
8
1
62
256
6
ByLayer
370
13
48
1
60
0
100
AcDbLine
10
160.324732
20
5.723175
30
0
11
164.8
21
5.723175
31
0
39
0
210
0
220
0
230
1
0
LINE
5
AA
100
AcDbEntity
8
1
62
256
6
ByLayer
370
13
48
1
60
0
100
AcDbLine
10
160.324732
20
9.833175
30
0
11
164.8
21
9.833175
31
0
39
0
210
0
220
0
230
1
0
LINE
5
AB
100
AcDbEntity
8
1
62
256
6
ByLayer
370
18
48
1
60
0
100
AcDbLine
10
164.8
20
-5.278175
30
0
11
164.8
21
-10.278175
31
0
39
0
210
0
220
0
230
1
0
LINE
5
AC
100
AcDbEntity
8
1
62
256
6
ByLayer
370
13
48
1
60
0
100
AcDbLine
10
160.324732
20
-9.833175
30
0
11
164.8
21
-9.833175
31
0
39
0
210
0
220
0
230
1
0
LINE
5
AD
100
AcDbEntity
8
1
62
256
6
ByLayer
370
13
48
1
60
0
100
AcDbLine
10
160.324732
20
-5.723175
30
0
11
164.8
21
-5.723175
31
0
39
0
210
0
220
0
230
1
0
LINE
5
AE
100
AcDbEntity
8
1
62
256
6
ByLayer
370
13
48
1
60
0
100
AcDbLine
10
7.076795
20
-4.755463
30
0
11
7.076795
21
-15.276962
31
0
39
0
210
0
220
0
230
1
0
LINE
5
AF
100
AcDbEntity
8
1
62
256
6
ByLayer
370
13
48
1
60
0
100
AcDbLine
10
7.336603
20
-5.068619
30
0
11
7.336603
21
-15.175938
31
0
39
0
210
0
220
0
230
1
0
LINE
5
B0
100
AcDbEntity
8
1
62
256
6
ByLayer
370
13
48
1
60
0
100
AcDbLine
10
4.663397
20
15.175938
30
0
11
4.663397
21
5.068619
31
0
39
0
210
0
220
0
230
1
0
LINE
5
B1
100
AcDbEntity
8
1
62
256
6
ByLayer
370
13
48
1
60
0
100
AcDbLine
10
4.923205
20
15.276962
30
0
11
4.923205
21
4.755463
31
0
39
0
210
0
220
0
230
1
0
LINE
5
B2
100
AcDbEntity
8
1
62
256
6
ByLayer
370
13
48
1
60
0
100
AcDbLine
10
7.076795
20
15.276962
30
0
11
7.076795
21
4.755463
31
0
39
0
210
0
220
0
230
1
0
LINE
5
B3
100
AcDbEntity
8
1
62
256
6
ByLayer
370
13
48
1
60
0
100
AcDbLine
10
7.336603
20
15.175938
30
0
11
7.336603
21
5.068619
31
0
39
0
210
0
220
0
230
1
0
LINE
5
B4
100
AcDbEntity
8
1
62
256
6
ByLayer
370
13
48
1
60
0
100
AcDbLine
10
4.663397
20
-5.068619
30
0
11
4.663397
21
-15.175938
31
0
39
0
210
0
220
0
230
1
0
LINE
5
B5
100
AcDbEntity
8
1
62
256
6
ByLayer
370
13
48
1
60
0
100
AcDbLine
10
4.923205
20
-4.755463
30
0
11
4.923205
21
-15.276962
31
0
39
0
210
0
220
0
230
1
0
LINE
5
B6
100
AcDbEntity
8
1
62
256
6
ByLayer
370
18
48
1
60
0
100
AcDbLine
10
0
20
-15.7
30
0
11
0
21
15.7
31
0
39
0
210
0
220
0
230
1
0
LINE
5
B7
100
AcDbEntity
8
1
62
256
6
ByLayer
370
18
48
1
60
0
100
AcDbLine
10
158
20
15.8
30
0
11
158
21
-15.8
31
0
39
0
210
0
220
0
230
1
0
LINE
5
B8
100
AcDbEntity
8
1
62
256
6
ByLayer
370
13
48
1
60
0
100
AcDbLine
10
157.8
20
16
30
0
11
157.8
21
-16
31
0
39
0
210
0
220
0
230
1
0
LINE
5
B9
100
AcDbEntity
8
1
62
256
6
ByLayer
370
18
48
1
60
0
100
AcDbLine
10
0.3
20
-16
30
0
11
0.3
21
16
31
0
39
0
210
0
220
0
230
1
0
LINE
5
BA
100
AcDbEntity
8
1
62
256
6
ByLayer
370
18
48
1
60
0
100
AcDbLine
10
7.076795
20
4.755463
30
0
11
4.923205
21
4.755463
31
0
39
0
210
0
220
0
230
1
0
LINE
5
BB
100
AcDbEntity
8
1
62
256
6
ByLayer
370
18
48
1
60
0
100
AcDbLine
10
4.923205
20
15.276962
30
0
11
7.076795
21
15.276962
31
0
39
0
210
0
220
0
230
1
0
LINE
5
BC
100
AcDbEntity
8
1
62
256
6
ByLayer
370
18
48
1
60
0
100
AcDbLine
10
4.923205
20
-4.755463
30
0
11
7.076795
21
-4.755463
31
0
39
0
210
0
220
0
230
1
0
LINE
5
BD
100
AcDbEntity
8
1
62
256
6
ByLayer
370
18
48
1
60
0
100
AcDbLine
10
7.076795
20
-15.276962
30
0
11
4.923205
21
-15.276962
31
0
39
0
210
0
220
0
230
1
0
LINE
5
BE
100
AcDbEntity
8
SK1
62
256
6
ByLayer
370
18
48
1
60
0
100
AcDbLine
10
-0.2
20
-5.336172
30
0
11
-0.2
21
-10.883485
31
0
39
0
210
0
220
0
230
1
0
LINE
5
C0
100
AcDbEntity
8
SK1
62
256
6
ByLayer
370
18
48
1
60
0
100
AcDbLine
10
-0.2
20
10.883485
30
0
11
-0.2
21
5.336173
31
0
39
0
210
0
220
0
230
1
0
LINE
5
C1
100
AcDbEntity
8
SK1
62
256
6
ByLayer
370
13
48
1
60
0
100
AcDbLine
10
-1.307107
20
3.314517
30
0
11
-1.307107
21
-3.314515
31
0
39
0
210
0
220
0
230
1
0
LINE
5
C2
100
AcDbEntity
8
1
62
256
6
ByLayer
370
13
48
1
60
0
100
AcDbLine
10
164.8
20
10.278175
30
0
11
164.8
21
5.278175
31
0
39
0
210
0
220
0
230
1
0
LINE
5
C3
100
AcDbEntity
8
1
62
256
6
ByLayer
370
18
48
1
60
0
100
AcDbLine
10
170
20
11.528175
30
0
11
170
21
4.028175
31
0
39
0
210
0
220
0
230
1
0
LINE
5
C4
100
AcDbEntity
8
1
62
256
6
ByLayer
370
18
48
1
60
0
100
AcDbLine
10
165
20
12.028175
30
0
11
165
21
3.528175
31
0
39
0
210
0
220
0
230
1
0
LINE
5
C5
100
AcDbEntity
8
1
62
256
6
ByLayer
370
13
48
1
60
0
100
AcDbLine
10
169.5
20
12.028175
30
0
11
169.5
21
3.528175
31
0
39
0
210
0
220
0
230
1
0
LINE
5
C6
100
AcDbEntity
8
1
62
256
6
ByLayer
370
18
48
1
60
0
100
AcDbLine
10
160.32476
20
14.731291
30
0
11
160.32476
21
14.845428
31
0
39
0
210
0
220
0
230
1
0
LINE
5
C7
100
AcDbEntity
8
1
62
256
6
ByLayer
370
18
48
1
60
0
100
AcDbLine
10
160.32476
20
-14.845428
30
0
11
160.32476
21
-14.731291
31
0
39
0
210
0
220
0
230
1
0
LINE
5
C8
100
AcDbEntity
8
1
62
256
6
ByLayer
370
13
48
1
60
0
100
AcDbLine
10
159.650481
20
15.458981
30
0
11
159.650481
21
15.492569
31
0
39
0
210
0
220
0
230
1
0
LINE
5
C9
100
AcDbEntity
8
1
62
256
6
ByLayer
370
13
48
1
60
0
100
AcDbLine
10
159.650481
20
-15.492569
30
0
11
159.650481
21
-15.458981
31
0
39
0
210
0
220
0
230
1
0
LINE
5
CA
100
AcDbEntity
8
1
62
256
6
ByLayer
370
18
48
1
60
0
100
AcDbLine
10
160.32476
20
14.441992
30
0
11
160.32476
21
14.67393
31
0
39
0
210
0
220
0
230
1
0
LINE
5
CB
100
AcDbEntity
8
1
62
256
6
ByLayer
370
18
48
1
60
0
100
AcDbLine
10
160.32476
20
-14.67393
30
0
11
160.32476
21
-14.441992
31
0
39
0
210
0
220
0
230
1
0
LINE
5
CC
100
AcDbEntity
8
1
62
256
6
ByLayer
370
13
48
1
60
0
100
AcDbLine
10
159.650481
20
-15.29017
30
0
11
159.650481
21
-15.221974
31
0
39
0
210
0
220
0
230
1
0
LINE
5
CD
100
AcDbEntity
8
1
62
256
6
ByLayer
370
13
48
1
60
0
100
AcDbLine
10
159.650481
20
15.221974
30
0
11
159.650481
21
15.29017
31
0
39
0
210
0
220
0
230
1
0
LINE
5
CE
100
AcDbEntity
8
1
62
256
6
ByLayer
370
18
48
1
60
0
100
AcDbLine
10
160.32476
20
-14.344397
30
0
11
160.32476
21
-13.986992
31
0
39
0
210
0
220
0
230
1
0
LINE
5
CF
100
AcDbEntity
8
1
62
256
6
ByLayer
370
18
48
1
60
0
100
AcDbLine
10
160.32476
20
13.986992
30
0
11
160.32476
21
14.344397
31
0
39
0
210
0
220
0
230
1
0
LINE
5
D0
100
AcDbEntity
8
1
62
256
6
ByLayer
370
13
48
1
60
0
100
AcDbLine
10
159.650481
20
-14.935157
30
0
11
159.650481
21
-14.830351
31
0
39
0
210
0
220
0
230
1
0
LINE
5
D1
100
AcDbEntity
8
1
62
256
6
ByLayer
370
13
48
1
60
0
100
AcDbLine
10
159.650481
20
14.830351
30
0
11
159.650481
21
14.935157
31
0
39
0
210
0
220
0
230
1
0
LINE
5
D2
100
AcDbEntity
8
1
62
256
6
ByLayer
370
18
48
1
60
0
100
AcDbLine
10
160.32476
20
13.349093
30
0
11
160.32476
21
13.845549
31
0
39
0
210
0
220
0
230
1
0
LINE
5
D3
100
AcDbEntity
8
1
62
256
6
ByLayer
370
18
48
1
60
0
100
AcDbLine
10
160.32476
20
-13.845549
30
0
11
160.32476
21
-13.349093
31
0
39
0
210
0
220
0
230
1
0
LINE
5
D4
100
AcDbEntity
8
1
62
256
6
ByLayer
370
13
48
1
60
0
100
AcDbLine
10
159.650481
20
14.271278
30
0
11
159.650481
21
14.416259
31
0
39
0
210
0
220
0
230
1
0
LINE
5
D5
100
AcDbEntity
8
1
62
256
6
ByLayer
370
13
48
1
60
0
100
AcDbLine
10
159.650481
20
-14.416259
30
0
11
159.650481
21
-14.271278
31
0
39
0
210
0
220
0
230
1
0
LINE
5
D6
100
AcDbEntity
8
1
62
256
6
ByLayer
370
18
48
1
60
0
100
AcDbLine
10
160.32476
20
-13.158143
30
0
11
160.32476
21
-12.500456
31
0
39
0
210
0
220
0
230
1
0
LINE
5
D7
100
AcDbEntity
8
1
62
256
6
ByLayer
370
18
48
1
60
0
100
AcDbLine
10
160.32476
20
12.500456
30
0
11
160.32476
21
13.158143
31
0
39
0
210
0
220
0
230
1
0
LINE
5
D8
100
AcDbEntity
8
1
62
256
6
ByLayer
370
13
48
1
60
0
100
AcDbLine
10
159.650481
20
13.524107
30
0
11
159.650481
21
13.714888
31
0
39
0
210
0
220
0
230
1
0
LINE
5
D9
100
AcDbEntity
8
1
62
256
6
ByLayer
370
13
48
1
60
0
100
AcDbLine
10
159.650481
20
-13.714888
30
0
11
159.650481
21
-13.524107
31
0
39
0
210
0
220
0
230
1
0
LINE
5
DA
100
AcDbEntity
8
1
62
256
6
ByLayer
370
18
48
1
60
0
100
AcDbLine
10
160.32476
20
-12.250478
30
0
11
160.32476
21
-11.394065
31
0
39
0
210
0
220
0
230
1
0
LINE
5
DB
100
AcDbEntity
8
1
62
256
6
ByLayer
370
18
48
1
60
0
100
AcDbLine
10
160.32476
20
11.394065
30
0
11
160.32476
21
12.250478
31
0
39
0
210
0
220
0
230
1
0
LINE
5
DC
100
AcDbEntity
8
1
62
256
6
ByLayer
370
13
48
1
60
0
100
AcDbLine
10
159.650481
20
-12.801084
30
0
11
159.650481
21
-12.555173
31
0
39
0
210
0
220
0
230
1
0
LINE
5
DD
100
AcDbEntity
8
1
62
256
6
ByLayer
370
13
48
1
60
0
100
AcDbLine
10
159.650481
20
12.555173
30
0
11
159.650481
21
12.801084
31
0
39
0
210
0
220
0
230
1
0
LINE
5
DE
100
AcDbEntity
8
1
62
256
6
ByLayer
370
18
48
1
60
0
100
AcDbLine
10
160.32476
20
9.944196
30
0
11
160.32476
21
11.068501
31
0
39
0
210
0
220
0
230
1
0
LINE
5
DF
100
AcDbEntity
8
1
62
256
6
ByLayer
370
18
48
1
60
0
100
AcDbLine
10
160.32476
20
-11.068501
30
0
11
160.32476
21
-9.944196
31
0
39
0
210
0
220
0
230
1
0
LINE
5
E0
100
AcDbEntity
8
1
62
256
6
ByLayer
370
13
48
1
60
0
100
AcDbLine
10
159.650481
20
-11.62486
30
0
11
159.650481
21
-11.307356
31
0
39
0
210
0
220
0
230
1
0
LINE
5
E1
100
AcDbEntity
8
1
62
256
6
ByLayer
370
13
48
1
60
0
100
AcDbLine
10
159.650481
20
11.307356
30
0
11
159.650481
21
11.62486
31
0
39
0
210
0
220
0
230
1
0
LINE
5
E2
100
AcDbEntity
8
1
62
256
6
ByLayer
370
18
48
1
60
0
100
AcDbLine
10
160.32476
20
-9.510479
30
0
11
160.32476
21
-7.965324
31
0
39
0
210
0
220
0
230
1
0
LINE
5
E3
100
AcDbEntity
8
1
62
256
6
ByLayer
370
18
48
1
60
0
100
AcDbLine
10
160.32476
20
7.965324
30
0
11
160.32476
21
9.510479
31
0
39
0
210
0
220
0
230
1
0
LINE
5
E4
100
AcDbEntity
8
1
62
256
6
ByLayer
370
13
48
1
60
0
100
AcDbLine
10
159.650481
20
-10.094899
30
0
11
159.650481
21
-9.674068
31
0
39
0
210
0
220
0
230
1
0
LINE
5
E5
100
AcDbEntity
8
1
62
256
6
ByLayer
370
13
48
1
60
0
100
AcDbLine
10
159.650481
20
9.674068
30
0
11
159.650481
21
10.094899
31
0
39
0
210
0
220
0
230
1
0
LINE
5
E6
100
AcDbEntity
8
1
62
256
6
ByLayer
370
18
48
1
60
0
100
AcDbLine
10
160.32476
20
-7.340757
30
0
11
160.32476
21
-4.8488
31
0
39
0
210
0
220
0
230
1
0
LINE
5
E7
100
AcDbEntity
8
1
62
256
6
ByLayer
370
18
48
1
60
0
100
AcDbLine
10
160.32476
20
4.8488
30
0
11
160.32476
21
7.340757
31
0
39
0
210
0
220
0
230
1
0
LINE
5
E8
100
AcDbEntity
8
1
62
256
6
ByLayer
370
13
48
1
60
0
100
AcDbLine
10
159.650481
20
-8.01103
30
0
11
159.650481
21
-7.404194
31
0
39
0
210
0
220
0
230
1
0
LINE
5
E9
100
AcDbEntity
8
1
62
256
6
ByLayer
370
13
48
1
60
0
100
AcDbLine
10
159.650481
20
7.404194
30
0
11
159.650481
21
8.01103
31
0
39
0
210
0
220
0
230
1
0
LINE
5
EA
100
AcDbEntity
8
1
62
256
6
ByLayer
370
18
48
1
60
0
100
AcDbLine
10
160.32476
20
-3.581092
30
0
11
160.32476
21
3.581092
31
0
39
0
210
0
220
0
230
1
0
LINE
5
EB
100
AcDbEntity
8
1
62
256
6
ByLayer
370
13
48
1
60
0
100
AcDbLine
10
159.650481
20
-4.684679
30
0
11
159.650481
21
-3.399027
31
0
39
0
210
0
220
0
230
1
0
LINE
5
EC
100
AcDbEntity
8
1
62
256
6
ByLayer
370
13
48
1
60
0
100
AcDbLine
10
159.650481
20
3.399027
30
0
11
159.650481
21
4.684679
31
0
39
0
210
0
220
0
230
1
0
LINE
5
ED
100
AcDbEntity
8
1
62
256
6
ByLayer
370
13
48
1
60
0
100
AcDbLine
10
158.2
20
15.875
30
0
11
158.2
21
-15.875
31
0
39
0
210
0
220
0
230
1
0
LINE
5
EE
100
AcDbEntity
8
1
62
256
6
ByLayer
370
18
48
1
60
0
100
AcDbLine
10
159.32476
20
-15.875
30
0
11
159.32476
21
15.875
31
0
39
0
210
0
220
0
230
1
0
LINE
5
EF
100
AcDbEntity
8
1
62
256
6
ByLayer
370
18
48
1
60
0
100
AcDbLine
10
160.32476
20
-14.845428
30
0
11
160.32476
21
-14.864361
31
0
39
0
210
0
220
0
230
1
0
LINE
5
F0
100
AcDbEntity
8
1
62
256
6
ByLayer
370
18
48
1
60
0
100
AcDbLine
10
160.32476
20
-14.67393
30
0
11
160.32476
21
-14.731318
31
0
39
0
210
0
220
0
230
1
0
LINE
5
F1
100
AcDbEntity
8
1
62
256
6
ByLayer
370
18
48
1
60
0
100
AcDbLine
10
160.32476
20
-14.344397
30
0
11
160.32476
21
-14.442099
31
0
39
0
210
0
220
0
230
1
0
LINE
5
F2
100
AcDbEntity
8
1
62
256
6
ByLayer
370
18
48
1
60
0
100
AcDbLine
10
160.32476
20
-13.845549
30
0
11
160.32476
21
-13.98702
31
0
39
0
210
0
220
0
230
1
0
LINE
5
F3
100
AcDbEntity
8
1
62
256
6
ByLayer
370
18
48
1
60
0
100
AcDbLine
10
160.32476
20
-13.158143
30
0
11
160.32476
21
-13.349128
31
0
39
0
210
0
220
0
230
1
0
LINE
5
F4
100
AcDbEntity
8
1
62
256
6
ByLayer
370
18
48
1
60
0
100
AcDbLine
10
160.32476
20
-12.250478
30
0
11
160.32476
21
-12.500469
31
0
39
0
210
0
220
0
230
1
0
LINE
5
F5
100
AcDbEntity
8
1
62
256
6
ByLayer
370
18
48
1
60
0
100
AcDbLine
10
160.32476
20
-11.068501
30
0
11
160.32476
21
-11.394043
31
0
39
0
210
0
220
0
230
1
0
LINE
5
F6
100
AcDbEntity
8
1
62
256
6
ByLayer
370
18
48
1
60
0
100
AcDbLine
10
160.32476
20
-9.510479
30
0
11
160.32476
21
-9.94418
31
0
39
0
210
0
220
0
230
1
0
LINE
5
F7
100
AcDbEntity
8
1
62
256
6
ByLayer
370
18
48
1
60
0
100
AcDbLine
10
160.32476
20
-7.340757
30
0
11
160.32476
21
-7.965502
31
0
39
0
210
0
220
0
230
1
0
LINE
5
F8
100
AcDbEntity
8
1
62
256
6
ByLayer
370
18
48
1
60
0
100
AcDbLine
10
160.32476
20
-3.581092
30
0
11
160.32476
21
-4.848888
31
0
39
0
210
0
220
0
230
1
0
LINE
5
F9
100
AcDbEntity
8
1
62
256
6
ByLayer
370
18
48
1
60
0
100
AcDbLine
10
160.32476
20
4.848888
30
0
11
160.32476
21
3.581092
31
0
39
0
210
0
220
0
230
1
0
LINE
5
FA
100
AcDbEntity
8
1
62
256
6
ByLayer
370
18
48
1
60
0
100
AcDbLine
10
160.32476
20
7.965502
30
0
11
160.32476
21
7.340757
31
0
39
0
210
0
220
0
230
1
0
LINE
5
FB
100
AcDbEntity
8
1
62
256
6
ByLayer
370
18
48
1
60
0
100
AcDbLine
10
160.32476
20
9.94418
30
0
11
160.32476
21
9.510479
31
0
39
0
210
0
220
0
230
1
0
LINE
5
FC
100
AcDbEntity
8
1
62
256
6
ByLayer
370
18
48
1
60
0
100
AcDbLine
10
160.32476
20
11.394043
30
0
11
160.32476
21
11.068501
31
0
39
0
210
0
220
0
230
1
0
LINE
5
FD
100
AcDbEntity
8
1
62
256
6
ByLayer
370
18
48
1
60
0
100
AcDbLine
10
160.32476
20
12.500469
30
0
11
160.32476
21
12.250478
31
0
39
0
210
0
220
0
230
1
0
LINE
5
FE
100
AcDbEntity
8
1
62
256
6
ByLayer
370
18
48
1
60
0
100
AcDbLine
10
160.32476
20
13.349128
30
0
11
160.32476
21
13.158143
31
0
39
0
210
0
220
0
230
1
0
LINE
5
FF
100
AcDbEntity
8
1
62
256
6
ByLayer
370
18
48
1
60
0
100
AcDbLine
10
160.32476
20
13.98702
30
0
11
160.32476
21
13.845549
31
0
39
0
210
0
220
0
230
1
0
LINE
5
100
100
AcDbEntity
8
1
62
256
6
ByLayer
370
18
48
1
60
0
100
AcDbLine
10
160.32476
20
14.442099
30
0
11
160.32476
21
14.344397
31
0
39
0
210
0
220
0
230
1
0
LINE
5
101
100
AcDbEntity
8
1
62
256
6
ByLayer
370
18
48
1
60
0
100
AcDbLine
10
160.32476
20
14.731318
30
0
11
160.32476
21
14.67393
31
0
39
0
210
0
220
0
230
1
0
LINE
5
102
100
AcDbEntity
8
1
62
256
6
ByLayer
370
18
48
1
60
0
100
AcDbLine
10
160.32476
20
14.864361
30
0
11
160.32476
21
14.845428
31
0
39
0
210
0
220
0
230
1
0
LINE
5
103
100
AcDbEntity
8
1
62
256
6
ByLayer
370
13
48
1
60
0
100
AcDbLine
10
164.8
20
-5.278175
30
0
11
164.8
21
-7.778175
31
0
39
0
210
0
220
0
230
1
0
LINE
5
104
100
AcDbEntity
8
1
62
256
6
ByLayer
370
13
48
1
60
0
100
AcDbLine
10
164.8
20
-7.778175
30
0
11
164.8
21
-10.278175
31
0
39
0
210
0
220
0
230
1
0
LINE
5
105
100
AcDbEntity
8
1
62
256
6
ByLayer
370
18
48
1
60
0
100
AcDbLine
10
170
20
-11.528175
30
0
11
170
21
-7.778175
31
0
39
0
210
0
220
0
230
1
0
LINE
5
106
100
AcDbEntity
8
1
62
256
6
ByLayer
370
18
48
1
60
0
100
AcDbLine
10
170
20
-7.778175
30
0
11
170
21
-4.028175
31
0
39
0
210
0
220
0
230
1
0
LINE
5
107
100
AcDbEntity
8
1
62
256
6
ByLayer
370
13
48
1
60
0
100
AcDbLine
10
169.5
20
-3.528175
30
0
11
169.5
21
-7.778175
31
0
39
0
210
0
220
0
230
1
0
LINE
5
108
100
AcDbEntity
8
1
62
256
6
ByLayer
370
13
48
1
60
0
100
AcDbLine
10
169.5
20
-7.778175
30
0
11
169.5
21
-12.028175
31
0
39
0
210
0
220
0
230
1
0
LINE
5
109
100
AcDbEntity
8
1
62
256
6
ByLayer
370
18
48
1
60
0
100
AcDbLine
10
165
20
-12.028175
30
0
11
165
21
-7.778175
31
0
39
0
210
0
220
0
230
1
0
LINE
5
10A
100
AcDbEntity
8
1
62
256
6
ByLayer
370
18
48
1
60
0
100
AcDbLine
10
165
20
-7.778175
30
0
11
165
21
-3.528175
31
0
39
0
210
0
220
0
230
1
0
LINE
5
10B
100
AcDbEntity
8
1
62
256
6
ByLayer
370
18
48
1
60
0
100
AcDbLine
10
0
20
-15.7
30
0
11
0.3
21
-16
31
0
39
0
210
0
220
0
230
1
0
LINE
5
10C
100
AcDbEntity
8
1
62
256
6
ByLayer
370
18
48
1
60
0
100
AcDbLine
10
0.3
20
16
30
0
11
0
21
15.7
31
0
39
0
210
0
220
0
230
1
0
LINE
5
10D
100
AcDbEntity
8
1
62
256
6
ByLayer
370
18
48
1
60
0
100
AcDbLine
10
157.8
20
16
30
0
11
0.3
21
16
31
0
39
0
210
0
220
0
230
1
0
LINE
5
10E
100
AcDbEntity
8
1
62
256
6
ByLayer
370
18
48
1
60
0
100
AcDbLine
10
0.3
20
-16
30
0
11
157.8
21
-16
31
0
39
0
210
0
220
0
230
1
0
LINE
5
10F
100
AcDbEntity
8
1
62
256
6
ByLayer
370
18
48
1
60
0
100
AcDbLine
10
160.324813
20
5.278175
30
0
11
164.8
21
5.278175
31
0
39
0
210
0
220
0
230
1
0
LINE
5
110
100
AcDbEntity
8
1
62
256
6
ByLayer
370
18
48
1
60
0
100
AcDbLine
10
164.8
20
10.278175
30
0
11
160.324813
21
10.278175
31
0
39
0
210
0
220
0
230
1
0
LINE
5
111
100
AcDbEntity
8
1
62
256
6
ByLayer
370
18
48
1
60
0
100
AcDbLine
10
165
20
3.528175
30
0
11
169.5
21
3.528175
31
0
39
0
210
0
220
0
230
1
0
LINE
5
112
100
AcDbEntity
8
1
62
256
6
ByLayer
370
18
48
1
60
0
100
AcDbLine
10
169.5
20
12.028175
30
0
11
165
21
12.028175
31
0
39
0
210
0
220
0
230
1
0
LINE
5
113
100
AcDbEntity
8
1
62
256
6
ByLayer
370
18
48
1
60
0
100
AcDbLine
10
159.32476
20
15.875
30
0
11
158.2
21
15.875
31
0
39
0
210
0
220
0
230
1
0
LINE
5
114
100
AcDbEntity
8
1
62
256
6
ByLayer
370
18
48
1
60
0
100
AcDbLine
10
158.2
20
-15.875
30
0
11
159.32476
21
-15.875
31
0
39
0
210
0
220
0
230
1
0
LINE
5
115
100
AcDbEntity
8
1
62
256
6
ByLayer
370
18
48
1
60
0
100
AcDbLine
10
159.552119
20
15.647641
30
0
11
159.32476
21
15.875
31
0
39
0
210
0
220
0
230
1
0
LINE
5
116
100
AcDbEntity
8
1
62
256
6
ByLayer
370
18
48
1
60
0
100
AcDbLine
10
159.32476
20
-15.875
30
0
11
159.552119
21
-15.647641
31
0
39
0
210
0
220
0
230
1
0
LINE
5
117
100
AcDbEntity
8
1
62
256
6
ByLayer
370
18
48
1
60
0
100
AcDbLine
10
160.324813
20
-10.278175
30
0
11
164.8
21
-10.278175
31
0
39
0
210
0
220
0
230
1
0
LINE
5
118
100
AcDbEntity
8
1
62
256
6
ByLayer
370
18
48
1
60
0
100
AcDbLine
10
164.8
20
-5.278175
30
0
11
160.324813
21
-5.278175
31
0
39
0
210
0
220
0
230
1
0
LINE
5
119
100
AcDbEntity
8
1
62
256
6
ByLayer
370
18
48
1
60
0
100
AcDbLine
10
165
20
-12.028175
30
0
11
169.5
21
-12.028175
31
0
39
0
210
0
220
0
230
1
0
LINE
5
11A
100
AcDbEntity
8
1
62
256
6
ByLayer
370
18
48
1
60
0
100
AcDbLine
10
169.5
20
-3.528175
30
0
11
165
21
-3.528175
31
0
39
0
210
0
220
0
230
1
0
LINE
5
11B
100
AcDbEntity
8
1
62
256
6
ByLayer
370
13
48
0.05
60
0
100
AcDbLine
10
164.3
20
0
30
0
11
-6.5
21
0
31
0
39
0
210
0
220
0
230
1
0
LINE
5
11C
100
AcDbEntity
8
SK2
62
256
6
ByLayer
370
18
48
1
60
0
100
AcDbLine
10
-25.6
20
-16
30
0
11
-25.6
21
16
31
0
39
0
210
0
220
0
230
1
0
LINE
5
11E
100
AcDbEntity
8
SK2
62
256
6
ByLayer
370
18
48
1
60
0
100
AcDbLine
10
-1.2875
20
16
30
0
11
-27.6
21
16
31
0
39
0
210
0
220
0
230
1
0
LINE
5
11F
100
AcDbEntity
8
SK2
62
256
6
ByLayer
370
18
48
1
60
0
100
AcDbLine
10
-1.2875
20
-16
30
0
11
-27.6
21
-16
31
0
39
0
210
0
220
0
230
1
0
LINE
5
120
100
AcDbEntity
8
1
62
256
6
ByLayer
370
18
48
1
60
1
100
AcDbLine
10
-25.6
20
16
30
0
11
-25.139216
21
12.500002
31
0
39
0
210
0
220
0
230
1
0
LINE
5
121
100
AcDbEntity
8
1
62
256
6
ByLayer
370
18
48
1
60
1
100
AcDbLine
10
-25.139216
20
12.500002
30
0
11
-26.060784
21
12.499998
31
0
39
0
210
0
220
0
230
1
0
LINE
5
122
100
AcDbEntity
8
1
62
256
6
ByLayer
370
18
48
1
60
1
100
AcDbLine
10
-26.060784
20
12.499998
30
0
11
-25.6
21
16
31
0
39
0
210
0
220
0
230
1
0
LINE
5
123
100
AcDbEntity
8
1
62
256
6
ByLayer
370
18
48
1
60
1
100
AcDbLine
10
-25.6
20
-16
30
0
11
-26.060784
21
-12.500002
31
0
39
0
210
0
220
0
230
1
0
LINE
5
124
100
AcDbEntity
8
1
62
256
6
ByLayer
370
18
48
1
60
1
100
AcDbLine
10
-26.060784
20
-12.500002
30
0
11
-25.139216
21
-12.499998
31
0
39
0
210
0
220
0
230
1
0
LINE
5
125
100
AcDbEntity
8
1
62
256
6
ByLayer
370
18
48
1
60
1
100
AcDbLine
10
-25.139216
20
-12.499998
30
0
11
-25.6
21
-16
31
0
39
0
210
0
220
0
230
1
0
LINE
5
126
100
AcDbEntity
8
SK2
62
256
6
ByLayer
370
18
48
1
60
0
100
AcDbLine
10
181.748796
20
-16
30
0
11
181.748796
21
16
31
0
39
0
210
0
220
0
230
1
0
LINE
5
127
100
AcDbEntity
8
SK2
62
256
6
ByLayer
370
18
48
1
60
0
100
AcDbLine
10
159.3875
20
16
30
0
11
183.748796
21
16
31
0
39
0
210
0
220
0
230
1
0
LINE
5
128
100
AcDbEntity
8
SK2
62
256
6
ByLayer
370
18
48
1
60
0
100
AcDbLine
10
159.3875
20
-16
30
0
11
183.748796
21
-16
31
0
39
0
210
0
220
0
230
1
0
LINE
5
129
100
AcDbEntity
8
1
62
256
6
ByLayer
370
18
48
1
60
1
100
AcDbLine
10
181.748796
20
16
30
0
11
182.20958
21
12.500002
31
0
39
0
210
0
220
0
230
1
0
LINE
5
12A
100
AcDbEntity
8
1
62
256
6
ByLayer
370
18
48
1
60
1
100
AcDbLine
10
182.20958
20
12.500002
30
0
11
181.288012
21
12.499998
31
0
39
0
210
0
220
0
230
1
0
LINE
5
12B
100
AcDbEntity
8
1
62
256
6
ByLayer
370
18
48
1
60
1
100
AcDbLine
10
181.288012
20
12.499998
30
0
11
181.748796
21
16
31
0
39
0
210
0
220
0
230
1
0
LINE
5
12C
100
AcDbEntity
8
1
62
256
6
ByLayer
370
18
48
1
60
1
100
AcDbLine
10
181.748796
20
-16
30
0
11
181.288012
21
-12.500002
31
0
39
0
210
0
220
0
230
1
0
LINE
5
12D
100
AcDbEntity
8
1
62
256
6
ByLayer
370
18
48
1
60
1
100
AcDbLine
10
181.288012
20
-12.500002
30
0
11
182.20958
21
-12.499998
31
0
39
0
210
0
220
0
230
1
0
LINE
5
12E
100
AcDbEntity
8
1
62
256
6
ByLayer
370
18
48
1
60
1
100
AcDbLine
10
182.20958
20
-12.499998
30
0
11
181.748796
21
-16
31
0
39
0
210
0
220
0
230
1
0
LINE
5
12F
100
AcDbEntity
8
SK2
62
256
6
ByLayer
370
18
48
1
60
0
100
AcDbLine
10
0
20
21.6
30
0
11
160
21
21.6
31
0
39
0
210
0
220
0
230
1
0
LINE
5
130
100
AcDbEntity
8
SK2
62
256
6
ByLayer
370
18
48
1
60
0
100
AcDbLine
10
160
20
17.5875
30
0
11
160
21
23.6
31
0
39
0
210
0
220
0
230
1
0
LINE
5
131
100
AcDbEntity
8
SK2
62
256
6
ByLayer
370
18
48
1
60
0
100
AcDbLine
10
0
20
17.2875
30
0
11
0
21
23.6
31
0
39
0
210
0
220
0
230
1
0
LINE
5
132
100
AcDbEntity
8
1
62
256
6
ByLayer
370
18
48
1
60
1
100
AcDbLine
10
160
20
21.6
30
0
11
156.500002
21
21.139216
31
0
39
0
210
0
220
0
230
1
0
LINE
5
133
100
AcDbEntity
8
1
62
256
6
ByLayer
370
18
48
1
60
1
100
AcDbLine
10
156.500002
20
21.139216
30
0
11
156.499998
21
22.060784
31
0
39
0
210
0
220
0
230
1
0
LINE
5
134
100
AcDbEntity
8
1
62
256
6
ByLayer
370
18
48
1
60
1
100
AcDbLine
10
156.499998
20
22.060784
30
0
11
160
21
21.6
31
0
39
0
210
0
220
0
230
1
0
LINE
5
135
100
AcDbEntity
8
1
62
256
6
ByLayer
370
18
48
1
60
1
100
AcDbLine
10
0
20
21.6
30
0
11
3.499998
21
22.060784
31
0
39
0
210
0
220
0
230
1
0
LINE
5
136
100
AcDbEntity
8
1
62
256
6
ByLayer
370
18
48
1
60
1
100
AcDbLine
10
3.499998
20
22.060784
30
0
11
3.500002
21
21.139216
31
0
39
0
210
0
220
0
230
1
0
LINE
5
137
100
AcDbEntity
8
1
62
256
6
ByLayer
370
18
48
1
60
1
100
AcDbLine
10
3.500002
20
21.139216
30
0
11
0
21
21.6
31
0
39
0
210
0
220
0
230
1
0
LINE
5
1B1
100
AcDbEntity
8
1
62
256
6
ByLayer
370
13
48
0.05
60
0
100
AcDbLine
10
149.39
20
-7.778175
30
0
11
176
21
-7.778175
31
0
39
0
210
0
220
0
230
1
0
LINE
5
1B2
100
AcDbEntity
8
1
62
256
6
ByLayer
370
13
48
0.05
60
0
100
AcDbLine
10
167.472489
20
0
30
0
11
151.7
21
0
31
0
39
0
210
0
220
0
230
1
0
LINE
5
1B3
100
AcDbEntity
8
1
62
256
6
ByLayer
370
13
48
0.05
60
0
100
AcDbLine
10
149.39
20
7.778175
30
0
11
176
21
7.778175
31
0
39
0
210
0
220
0
230
1
0
LINE
5
1B8
100
AcDbEntity
8
1
62
256
6
ByLayer
370
18
48
1
60
1
100
AcDbLine
10
-25.6
20
16
30
0
11
-25.139216
21
12.500002
31
0
39
0
210
0
220
0
230
1
0
LINE
5
1B9
100
AcDbEntity
8
1
62
256
6
ByLayer
370
18
48
1
60
1
100
AcDbLine
10
-25.139216
20
12.500002
30
0
11
-26.060784
21
12.499998
31
0
39
0
210
0
220
0
230
1
0
LINE
5
1BA
100
AcDbEntity
8
1
62
256
6
ByLayer
370
18
48
1
60
1
100
AcDbLine
10
-26.060784
20
12.499998
30
0
11
-25.6
21
16
31
0
39
0
210
0
220
0
230
1
0
LINE
5
1BC
100
AcDbEntity
8
1
62
256
6
ByLayer
370
18
48
1
60
1
100
AcDbLine
10
-25.6
20
-16
30
0
11
-26.060784
21
-12.500002
31
0
39
0
210
0
220
0
230
1
0
LINE
5
1BD
100
AcDbEntity
8
1
62
256
6
ByLayer
370
18
48
1
60
1
100
AcDbLine
10
-26.060784
20
-12.500002
30
0
11
-25.139216
21
-12.499998
31
0
39
0
210
0
220
0
230
1
0
LINE
5
1BE
100
AcDbEntity
8
1
62
256
6
ByLayer
370
18
48
1
60
1
100
AcDbLine
10
-25.139216
20
-12.499998
30
0
11
-25.6
21
-16
31
0
39
0
210
0
220
0
230
1
0
LINE
5
1C2
100
AcDbEntity
8
1
62
256
6
ByLayer
370
18
48
1
60
1
100
AcDbLine
10
181.748796
20
16
30
0
11
182.20958
21
12.500002
31
0
39
0
210
0
220
0
230
1
0
LINE
5
1C3
100
AcDbEntity
8
1
62
256
6
ByLayer
370
18
48
1
60
1
100
AcDbLine
10
182.20958
20
12.500002
30
0
11
181.288012
21
12.499998
31
0
39
0
210
0
220
0
230
1
0
LINE
5
1C4
100
AcDbEntity
8
1
62
256
6
ByLayer
370
18
48
1
60
1
100
AcDbLine
10
181.288012
20
12.499998
30
0
11
181.748796
21
16
31
0
39
0
210
0
220
0
230
1
0
LINE
5
1C6
100
AcDbEntity
8
1
62
256
6
ByLayer
370
18
48
1
60
1
100
AcDbLine
10
181.748796
20
-16
30
0
11
181.288012
21
-12.500002
31
0
39
0
210
0
220
0
230
1
0
LINE
5
1C7
100
AcDbEntity
8
1
62
256
6
ByLayer
370
18
48
1
60
1
100
AcDbLine
10
181.288012
20
-12.500002
30
0
11
182.20958
21
-12.499998
31
0
39
0
210
0
220
0
230
1
0
LINE
5
1C8
100
AcDbEntity
8
1
62
256
6
ByLayer
370
18
48
1
60
1
100
AcDbLine
10
182.20958
20
-12.499998
30
0
11
181.748796
21
-16
31
0
39
0
210
0
220
0
230
1
0
LINE
5
1CB
100
AcDbEntity
8
1
62
256
6
ByLayer
370
18
48
1
60
1
100
AcDbLine
10
160
20
21.6
30
0
11
156.500002
21
21.139216
31
0
39
0
210
0
220
0
230
1
0
LINE
5
1CC
100
AcDbEntity
8
1
62
256
6
ByLayer
370
18
48
1
60
1
100
AcDbLine
10
156.500002
20
21.139216
30
0
11
156.499998
21
22.060784
31
0
39
0
210
0
220
0
230
1
0
LINE
5
1CD
100
AcDbEntity
8
1
62
256
6
ByLayer
370
18
48
1
60
1
100
AcDbLine
10
156.499998
20
22.060784
30
0
11
160
21
21.6
31
0
39
0
210
0
220
0
230
1
0
LINE
5
1CF
100
AcDbEntity
8
1
62
256
6
ByLayer
370
18
48
1
60
1
100
AcDbLine
10
0
20
21.6
30
0
11
3.499998
21
22.060784
31
0
39
0
210
0
220
0
230
1
0
LINE
5
1D0
100
AcDbEntity
8
1
62
256
6
ByLayer
370
18
48
1
60
1
100
AcDbLine
10
3.499998
20
22.060784
30
0
11
3.500002
21
21.139216
31
0
39
0
210
0
220
0
230
1
0
LINE
5
1D1
100
AcDbEntity
8
1
62
256
6
ByLayer
370
18
48
1
60
1
100
AcDbLine
10
3.500002
20
21.139216
30
0
11
0
21
21.6
31
0
39
0
210
0
220
0
230
1
0
MTEXT
5
1B4
100
AcDbEntity
8
SK2
62
256
6
ByLayer
370
18
48
1
60
0
100
AcDbMText
10
-27.164634
20
-4.530622
30
0
210
0
220
0
230
1
1
%%c
40
3.5
41
0
44
1.084337
50
90
71
7
72
5
7
iso_b_vert
0
MTEXT
5
1B7
100
AcDbEntity
8
SK2
62
256
6
ByLayer
370
18
48
1
60
0
100
AcDbMText
10
-27.164634
20
2.442034
30
0
210
0
220
0
230
1
1
\W0.6740;32
40
3.5
41
0
44
1.084337
50
90
71
7
72
5
7
iso_b_vert
0
MTEXT
5
1C0
100
AcDbEntity
8
SK2
62
256
6
ByLayer
370
18
48
1
60
0
100
AcDbMText
10
180.184162
20
-4.530622
30
0
210
0
220
0
230
1
1
%%c
40
3.5
41
0
44
1.084337
50
90
71
7
72
5
7
iso_b_vert
0
MTEXT
5
1C1
100
AcDbEntity
8
SK2
62
256
6
ByLayer
370
18
48
1
60
0
100
AcDbMText
10
180.184162
20
2.442034
30
0
210
0
220
0
230
1
1
\W0.6740;32
40
3.5
41
0
44
1.084337
50
90
71
7
72
5
7
iso_b_vert
0
MTEXT
5
1CA
100
AcDbEntity
8
SK2
62
256
6
ByLayer
370
18
48
1
60
0
100
AcDbMText
10
77.224734
20
22.632634
30
0
210
0
220
0
230
1
1
\W0.6217;160
40
3.5
41
0
44
1.084337
50
0
71
7
72
5
7
iso_b_vert
0
MTEXT
5
1D3
100
AcDbEntity
8
SK6
62
256
6
ByLayer
370
18
48
1
60
0
100
AcDbMText
10
53.074168
20
-41.567366
30
0
210
0
220
0
230
1
1
\W0.7314;HT30D-C3 32 160-32
40
3.5
41
0
44
1.084337
50
0
71
7
72
5
7
iso_b_vert
0
HATCH
5
1BB
100
AcDbEntity
8
SK2
62
256
6
ByLayer
370
13
48
1
60
0
100
AcDbHatch
10
0
20
0
30
0
210
0
220
0
230
1
2
ANSI31
70
0
71
0
91
1
92
5
93
3
72
1
10
-25.6000000000001
20
15.9999999999994
11
-25.1392162584473
21
12.5000016925526
72
1
10
-25.1392162584473
20
12.5000016925526
11
-26.0607837415528
21
12.4999983074462
72
1
10
-26.0607837415528
20
12.4999983074462
11
-25.6000000000001
21
15.9999999999994
97
0
75
0
76
1
52
0
41
0.0062
77
0
78
1
53
45
43
0
44
0
45
-0.0139193969876572
46
0.0139193969876572
79
0
47
0
98
1
10
0
20
0
0
HATCH
5
1BF
100
AcDbEntity
8
SK2
62
256
6
ByLayer
370
13
48
1
60
0
100
AcDbHatch
10
0
20
0
30
0
210
0
220
0
230
1
2
ANSI31
70
0
71
0
91
1
92
5
93
3
72
1
10
-25.6000000000001
20
-16.0000000000006
11
-26.0607837415528
21
-12.5000016925538
72
1
10
-26.0607837415528
20
-12.5000016925538
11
-25.1392162584473
21
-12.4999983074474
72
1
10
-25.1392162584473
20
-12.4999983074474
11
-25.6000000000001
21
-16.0000000000006
97
0
75
0
76
1
52
0
41
0.0062
77
0
78
1
53
45
43
0
44
0
45
-0.0139193969876572
46
0.0139193969876572
79
0
47
0
98
1
10
0
20
0
0
HATCH
5
1C5
100
AcDbEntity
8
SK2
62
256
6
ByLayer
370
13
48
1
60
0
100
AcDbHatch
10
0
20
0
30
0
210
0
220
0
230
1
2
ANSI31
70
0
71
0
91
1
92
5
93
3
72
1
10
181.748795950574
20
15.9999999999994
11
182.209579692127
21
12.5000016925526
72
1
10
182.209579692127
20
12.5000016925526
11
181.288012209021
21
12.4999983074462
72
1
10
181.288012209021
20
12.4999983074462
11
181.748795950574
21
15.9999999999994
97
0
75
0
76
1
52
0
41
0.0062
77
0
78
1
53
45
43
0
44
0
45
-0.0139193969876572
46
0.0139193969876572
79
0
47
0
98
1
10
0
20
0
0
HATCH
5
1C9
100
AcDbEntity
8
SK2
62
256
6
ByLayer
370
13
48
1
60
0
100
AcDbHatch
10
0
20
0
30
0
210
0
220
0
230
1
2
ANSI31
70
0
71
0
91
1
92
5
93
3
72
1
10
181.748795950574
20
-16.0000000000006
11
181.288012209021
21
-12.5000016925538
72
1
10
181.288012209021
20
-12.5000016925538
11
182.209579692127
21
-12.4999983074474
72
1
10
182.209579692127
20
-12.4999983074474
11
181.748795950574
21
-16.0000000000006
97
0
75
0
76
1
52
0
41
0.0062
77
0
78
1
53
45
43
0
44
0
45
-0.0139193969876572
46
0.0139193969876572
79
0
47
0
98
1
10
0
20
0
0
HATCH
5
1CE
100
AcDbEntity
8
SK2
62
256
6
ByLayer
370
13
48
1
60
0
100
AcDbHatch
10
0
20
0
30
0
210
0
220
0
230
1
2
ANSI31
70
0
71
0
91
1
92
5
93
3
72
1
10
160
20
21.6000000000001
11
156.500001692553
21
21.1392162584473
72
1
10
156.500001692553
20
21.1392162584473
11
156.499998307447
21
22.0607837415529
72
1
10
156.499998307447
20
22.0607837415529
11
160
21
21.6000000000001
97
0
75
0
76
1
52
0
41
0.0062
77
0
78
1
53
45
43
0
44
0
45
-0.0139193969876572
46
0.0139193969876572
79
0
47
0
98
1
10
0
20
0
0
HATCH
5
1D2
100
AcDbEntity
8
SK2
62
256
6
ByLayer
370
13
48
1
60
0
100
AcDbHatch
10
0
20
0
30
0
210
0
220
0
230
1
2
ANSI31
70
0
71
0
91
1
92
5
93
3
72
1
10
0
20
21.6000000000001
11
3.49999830744682
21
22.0607837415529
72
1
10
3.49999830744682
20
22.0607837415529
11
3.50000169255318
21
21.1392162584473
72
1
10
3.50000169255318
20
21.1392162584473
11
0
21
21.6000000000001
97
0
75
0
76
1
52
0
41
0.0062
77
0
78
1
53
45
43
0
44
0
45
-0.0139193969876572
46
0.0139193969876572
79
0
47
0
98
1
10
0
20
0
0
ENDSEC
0
SECTION
2
OBJECTS
0
DICTIONARY
5
242
330
0
100
AcDbDictionary
280
0
281
1
3
ACAD_GROUP
350
243
3
ACAD_MLINESTYLE
350
244
0
DICTIONARY
5
243
330
0
100
AcDbDictionary
280
0
281
1
0
DICTIONARY
5
244
330
0
100
AcDbDictionary
280
0
281
1
3
Standard
350
18
0
MLINESTYLE
5
18
330
244
100
AcDbMlineStyle
2
Standard
70
0
3

62
256
51
90
52
90
71
2
49
-0.5
62
256
6
ByLayer
49
0.5
62
256
6
ByLayer
0
RASTERVARIABLES
5
230
330

100
AcDbRasterVariables
90
0
70
1
71
1
72
1
0
ENDSEC
0
EOF
