0
SECTION
2
HEADER
9
$ACADVER
1
AC1015
9
$DWGCODEPAGE
3
ANSI_1252
9
$HANDSEED
5
27b
9
$ANGBASE
50
0
9
$ANGDIR
70
0
9
$ATTMODE
70
1
9
$AUNITS
70
0
9
$AUPREC
70
0
9
$CECOLOR
62
256
9
$CELTSCALE
40
1
9
$CELTYPE
6
ByLayer
9
$CELWEIGHT
370
18
9
$CLAYER
8
0
9
$CMLJUST
70
0
9
$CMLSCALE
40
1
9
$CMLSTYLE
2
Standard
9
$DIMSTYLE
2
Standard
9
$TEXTSIZE
40
0.2
9
$TEXTSTYLE
7
Standard
9
$LUNITS
70
2
9
$LUPREC
70
4
9
$EXTNAMES
290
1
9
$INSUNITS
70
4
9
$LTSCALE
40
1
9
$LWDISPLAY
290
1
9
$PDMODE
70
0
9
$PDSIZE
40
0
9
$PLINEGEN
70
0
0
ENDSEC
0
SECTION
2
CLASSES
0
CLASS
1
RASTERVARIABLES
2
AcDbRasterVariables
3
ISM
90
0
280
0
281
0
0
ENDSEC
0
SECTION
2
TABLES
0
TABLE
2
VPORT
5
271
100
AcDbSymbolTable
0
VPORT
5
1
100
AcDbSymbolTableRecord
100
AcDbViewportTableRecord
2
*Active
70
0
10
0
20
0
11
1
21
1
12
-1
22
1
13
0
23
0
14
0.5
24
0.5
15
10
25
10
16
0
26
0
36
1
17
0
27
0
37
0
0
ENDTAB
0
TABLE
2
LTYPE
5
272
100
AcDbSymbolTable
0
LTYPE
5
14
100
AcDbSymbolTableRecord
100
AcDbLinetypeTableRecord
70
0
2
ByBlock
3

72
65
73
0
40
0
0
LTYPE
5
15
100
AcDbSymbolTableRecord
100
AcDbLinetypeTableRecord
70
0
2
ByLayer
3

72
65
73
0
40
0
0
LTYPE
5
16
100
AcDbSymbolTableRecord
100
AcDbLinetypeTableRecord
70
0
2
Continuous
3
Solid line
72
65
73
0
40
0
0
LTYPE
5
6E
100
AcDbSymbolTableRecord
100
AcDbLinetypeTableRecord
70
0
2
CENTER
3
____ _ ____ _ ____ _ ____
72
65
73
4
40
47.5
49
22
74
0
49
-8.5
74
0
49
8.5
74
0
49
-8.5
74
0
0
LTYPE
5
6F
100
AcDbSymbolTableRecord
100
AcDbLinetypeTableRecord
70
0
2
DASHED
3
__ __ __ __ __ __ __ __ __
72
65
73
2
40
25.72
49
12.86
74
0
49
-12.86
74
0
0
ENDTAB
0
TABLE
2
LAYER
5
273
100
AcDbSymbolTable
0
LAYER
5
10
100
AcDbSymbolTableRecord
100
AcDbLayerTableRecord
2
0
70
0
62
7
6
Continuous
290
1
370
-3
390
0
0
LAYER
5
71
100
AcDbSymbolTableRecord
100
AcDbLayerTableRecord
2
2
70
0
62
7
6
Continuous
290
1
370
-3
390
0
0
LAYER
5
7B
100
AcDbSymbolTableRecord
100
AcDbLayerTableRecord
2
81
70
0
62
-3
6
Continuous
290
1
370
-3
390
0
0
LAYER
5
7D
100
AcDbSymbolTableRecord
100
AcDbLayerTableRecord
2
80
70
0
62
-6
6
Continuous
290
1
370
-3
390
0
0
LAYER
5
7F
100
AcDbSymbolTableRecord
100
AcDbLayerTableRecord
2
1
70
0
62
4
6
Continuous
290
1
370
-3
390
0
0
LAYER
5
8A
100
AcDbSymbolTableRecord
100
AcDbLayerTableRecord
2
4
70
0
62
-2
6
CENTER
290
1
370
-3
390
0
0
LAYER
5
25e
100
AcDbSymbolTableRecord
100
AcDbLayerTableRecord
2
SK1
70
0
62
4
6
Continuous
290
1
370
-3
390
0
0
LAYER
5
25f
100
AcDbSymbolTableRecord
100
AcDbLayerTableRecord
2
SK2
70
0
62
7
6
Continuous
290
1
370
-3
390
0
0
LAYER
5
260
100
AcDbSymbolTableRecord
100
AcDbLayerTableRecord
2
SK6
70
0
62
5
6
Continuous
290
1
370
-3
390
0
0
ENDTAB
0
TABLE
2
STYLE
5
274
100
AcDbSymbolTable
0
STYLE
5
11
100
AcDbSymbolTableRecord
100
AcDbTextStyleTableRecord
2
Standard
3
txt
70
0
71
0
40
0
41
1
42
0
50
0
0
STYLE
5
1BE
100
AcDbSymbolTableRecord
100
AcDbTextStyleTableRecord
2
iso_b_vert
3
simplex.shx
70
0
71
0
40
0
41
1
42
0
50
0
0
STYLE
5
1BF
100
AcDbSymbolTableRecord
100
AcDbTextStyleTableRecord
2
DWGDirectTextStyle
3
simplex
70
0
71
0
40
0
41
1
42
0
50
0
0
ENDTAB
0
TABLE
2
DIMSTYLE
5
275
100
AcDbSymbolTable
100
AcDbDimStyleTable
0
DIMSTYLE
105
27
100
AcDbSymbolTableRecord
100
AcDbDimStyleTableRecord
2
Standard
70
0
3
<>
41
0.18
42
0.0625
44
0.18
140
0.18
147
0.09
73
0
74
0
77
1
271
2
275
0
278
52
280
0
340
11
0
ENDTAB
0
TABLE
2
VIEW
5
276
100
AcDbSymbolTable
0
ENDTAB
0
TABLE
2
UCS
5
277
100
AcDbSymbolTable
0
ENDTAB
0
TABLE
2
APPID
5
278
100
AcDbSymbolTable
0
APPID
5
12
100
AcDbSymbolTableRecord
100
AcDbRegAppTableRecord
2
ACAD
70
0
0
APPID
5
25A
100
AcDbSymbolTableRecord
100
AcDbRegAppTableRecord
2
ACAD_MLEADERVER
70
0
0
ENDTAB
0
TABLE
2
BLOCK_RECORD
5
279
100
AcDbSymbolTable
0
BLOCK_RECORD
5
1F
100
AcDbSymbolTableRecord
100
AcDbBlockTableRecord
2
*Model_Space
340
0
70
0
0
BLOCK_RECORD
5
1B
100
AcDbSymbolTableRecord
100
AcDbBlockTableRecord
2
*Paper_Space
340
0
70
0
0
BLOCK_RECORD
5
23
100
AcDbSymbolTableRecord
100
AcDbBlockTableRecord
2
*Paper_Space0
340
0
70
0
0
ENDTAB
0
ENDSEC
0
SECTION
2
BLOCKS
0
BLOCK
5
20
100
AcDbEntity
8
0
100
AcDbBlockBegin
2
*Model_Space
70
0
10
0
20
0
30
0
3
*Model_Space
0
ENDBLK
5
21
100
AcDbEntity
8
0
100
AcDbBlockEnd
0
BLOCK
5
1C
100
AcDbEntity
8
0
100
AcDbBlockBegin
2
*Paper_Space
70
0
10
0
20
0
30
0
3
*Paper_Space
0
ENDBLK
5
1D
100
AcDbEntity
8
0
100
AcDbBlockEnd
0
BLOCK
5
24
100
AcDbEntity
8
0
100
AcDbBlockBegin
2
*Paper_Space0
70
0
10
0
20
0
30
0
3
*Paper_Space0
0
ENDBLK
5
25
100
AcDbEntity
8
0
100
AcDbBlockEnd
0
ENDSEC
0
SECTION
2
ENTITIES
0
ARC
5
158
100
AcDbEntity
8
1
62
256
6
ByLayer
370
18
48
1
60
0
100
AcDbCircle
39
0
10
19.525
20
-27.875
30
0
40
0.399999999999999
210
0
220
0
230
1
100
AcDbArc
50
0
51
90
0
ARC
5
159
100
AcDbEntity
8
1
62
256
6
ByLayer
370
18
48
1
60
0
100
AcDbCircle
39
0
10
19.525
20
27.875
30
0
40
0.399999999999999
210
0
220
0
230
1
100
AcDbArc
50
270
51
0
0
ARC
5
15A
100
AcDbEntity
8
1
62
256
6
ByLayer
370
18
48
1
60
0
100
AcDbCircle
39
0
10
26.55
20
-26.85
30
0
40
0.6
210
0
220
0
230
1
100
AcDbArc
50
90
51
180
0
ARC
5
15B
100
AcDbEntity
8
1
62
256
6
ByLayer
370
18
48
1
60
0
100
AcDbCircle
39
0
10
26.55
20
26.85
30
0
40
0.6
210
0
220
0
230
1
100
AcDbArc
50
180
51
270
0
ARC
5
15C
100
AcDbEntity
8
1
62
256
6
ByLayer
370
18
48
1
60
0
100
AcDbCircle
39
0
10
16.475
20
-27.875
30
0
40
0.399999999999995
210
0
220
0
230
1
100
AcDbArc
50
90
51
180
0
ARC
5
15D
100
AcDbEntity
8
1
62
256
6
ByLayer
370
18
48
1
60
0
100
AcDbCircle
39
0
10
16.475
20
27.875
30
0
40
0.399999999999995
210
0
220
0
230
1
100
AcDbArc
50
180
51
270
0
ARC
5
15E
100
AcDbEntity
8
SK1
62
256
6
ByLayer
370
18
48
1
60
0
100
AcDbCircle
39
0
10
-30.7
20
-21.58105
30
0
40
1.2
210
0
220
0
230
1
100
AcDbArc
50
180
51
267.131868
0
ARC
5
15F
100
AcDbEntity
8
SK1
62
256
6
ByLayer
370
18
48
1
60
0
100
AcDbCircle
39
0
10
-30.7
20
21.58105
30
0
40
1.2
210
0
220
0
230
1
100
AcDbArc
50
92.868132
51
180
0
ARC
5
160
100
AcDbEntity
8
SK1
62
256
6
ByLayer
370
18
48
1
60
0
100
AcDbCircle
39
0
10
-0.45
20
24.570431
30
0
40
0.600000000000001
210
0
220
0
230
1
100
AcDbArc
50
270
51
318.590378
0
ARC
5
161
100
AcDbEntity
8
SK1
62
256
6
ByLayer
370
18
48
1
60
0
100
AcDbCircle
39
0
10
-0.45
20
-24.570431
30
0
40
0.600000000000001
210
0
220
0
230
1
100
AcDbArc
50
41.409622
51
90
0
ARC
5
163
100
AcDbEntity
8
SK1
62
256
6
ByLayer
370
18
48
1
60
0
100
AcDbCircle
39
0
10
-23.2
20
-4.82125
30
0
40
1.4
210
0
220
0
230
1
100
AcDbArc
50
270
51
0
0
ARC
5
164
100
AcDbEntity
8
SK1
62
256
6
ByLayer
370
18
48
1
60
0
100
AcDbCircle
39
0
10
-23.2
20
4.82125
30
0
40
1.4
210
0
220
0
230
1
100
AcDbArc
50
0
51
90
0
CIRCLE
5
162
100
AcDbEntity
8
1
62
256
6
ByLayer
370
18
48
1
60
0
100
AcDbCircle
10
18
20
0
30
0
40
1
39
0
210
0
220
0
230
1
0
CIRCLE
5
165
100
AcDbEntity
8
SK1
62
256
6
ByLayer
370
18
48
1
60
0
100
AcDbCircle
10
-9
20
0
30
0
40
3.75
39
0
210
0
220
0
230
1
0
ELLIPSE
5
166
100
AcDbEntity
8
1
62
256
6
ByLayer
370
18
48
1
60
0
100
AcDbEllipse
10
49.5
20
15.5
30
0
11
-2.1
21
2.57167334302699E-16
31
0
210
0
220
0
230
1
40
0.866025
41
-1.5707963267949
42
0.46564301588819
0
ELLIPSE
5
167
100
AcDbEntity
8
1
62
256
6
ByLayer
370
18
48
1
60
0
100
AcDbEllipse
10
49.5
20
-15.5
30
0
11
2.1
21
0
31
0
210
0
220
0
230
1
40
0.866025
41
2.66073244085763
42
-1.5707963267949
0
ELLIPSE
5
168
100
AcDbEntity
8
1
62
256
6
ByLayer
370
18
48
1
60
0
100
AcDbEllipse
10
49.5
20
15.7
30
0
11
-2.5
21
3.06151588455594E-16
31
0
210
0
220
0
230
1
40
0.866025
41
-1.5707963267949
42
0.26786995839163
0
ELLIPSE
5
169
100
AcDbEntity
8
1
62
256
6
ByLayer
370
18
48
1
60
0
100
AcDbEllipse
10
49.5
20
-15.7
30
0
11
2.5
21
0
31
0
210
0
220
0
230
1
40
0.866025
41
2.86611438829813
42
-1.5707963267949
0
ELLIPSE
5
16A
100
AcDbEntity
8
SK1
62
256
6
ByLayer
370
13
48
1
60
0
100
AcDbEllipse
10
-23.2
20
-11.044329
30
0
11
1.4
21
0
31
0
210
0
220
0
230
1
40
0.45399
41
1.06803366524436
42
1.5707963267949
0
ELLIPSE
5
16B
100
AcDbEntity
8
SK1
62
256
6
ByLayer
370
13
48
1
60
0
100
AcDbEllipse
10
-23.2
20
11.044329
30
0
11
-1.4
21
1.71444889535133E-16
31
0
210
0
220
0
230
1
40
0.45399
41
1.5707963267949
42
2.07355898834548
0
POINT
5
70
100
AcDbEntity
8
2
62
256
6
ByLayer
370
18
48
1
60
0
100
AcDbPoint
10
50
20
0
30
0
39
0
210
0
220
0
230
1
50
360
0
POINT
5
72
100
AcDbEntity
8
2
62
256
6
ByLayer
370
18
48
1
60
0
100
AcDbPoint
10
50
20
21.5
30
0
39
0
210
0
220
0
230
1
50
360
0
POINT
5
73
100
AcDbEntity
8
2
62
256
6
ByLayer
370
18
48
1
60
0
100
AcDbPoint
10
50
20
0
30
0
39
0
210
0
220
0
230
1
50
360
0
POINT
5
74
100
AcDbEntity
8
2
62
256
6
ByLayer
370
18
48
1
60
0
100
AcDbPoint
10
50
20
0
30
0
39
0
210
0
220
0
230
1
50
360
0
POINT
5
75
100
AcDbEntity
8
2
62
256
6
ByLayer
370
18
48
1
60
0
100
AcDbPoint
10
0
20
0
30
0
39
0
210
0
220
0
230
1
50
360
0
POINT
5
76
100
AcDbEntity
8
2
62
256
6
ByLayer
370
18
48
1
60
0
100
AcDbPoint
10
50
20
21.5
30
0
39
0
210
0
220
0
230
1
50
360
0
POINT
5
77
100
AcDbEntity
8
2
62
256
6
ByLayer
370
18
48
1
60
0
100
AcDbPoint
10
50
20
0
30
0
39
0
210
0
220
0
230
1
50
360
0
POINT
5
78
100
AcDbEntity
8
2
62
256
6
ByLayer
370
18
48
1
60
0
100
AcDbPoint
10
50
20
21.5
30
0
39
0
210
0
220
0
230
1
50
360
0
POINT
5
79
100
AcDbEntity
8
2
62
256
6
ByLayer
370
18
48
1
60
0
100
AcDbPoint
10
33
20
0
30
0
39
0
210
0
220
0
230
1
50
360
0
POINT
5
7A
100
AcDbEntity
8
81
62
256
6
ByLayer
370
18
48
1
60
0
100
AcDbPoint
10
50
20
0
30
0
39
0
210
0
220
0
230
1
50
360
0
POINT
5
7C
100
AcDbEntity
8
80
62
256
6
ByLayer
370
18
48
1
60
0
100
AcDbPoint
10
0
20
0
30
0
39
0
210
0
220
0
230
1
50
360
0
POINT
5
7E
100
AcDbEntity
8
1
62
256
6
ByLayer
370
13
48
1
60
1
100
AcDbPoint
10
18
20
24.234794
30
0
39
0
210
0
220
0
230
1
50
360
0
POINT
5
80
100
AcDbEntity
8
1
62
256
6
ByLayer
370
13
48
1
60
1
100
AcDbPoint
10
18
20
13.969053
30
0
39
0
210
0
220
0
230
1
50
360
0
POINT
5
81
100
AcDbEntity
8
1
62
256
6
ByLayer
370
13
48
1
60
1
100
AcDbPoint
10
18
20
27.635248
30
0
39
0
210
0
220
0
230
1
50
360
0
POINT
5
82
100
AcDbEntity
8
1
62
256
6
ByLayer
370
13
48
1
60
1
100
AcDbPoint
10
18
20
16.474174
30
0
39
0
210
0
220
0
230
1
50
360
0
POINT
5
83
100
AcDbEntity
8
1
62
256
6
ByLayer
370
13
48
1
60
1
100
AcDbPoint
10
18
20
29.144664
30
0
39
0
210
0
220
0
230
1
50
360
0
POINT
5
84
100
AcDbEntity
8
1
62
256
6
ByLayer
370
13
48
1
60
1
100
AcDbPoint
10
18
20
18.424591
30
0
39
0
210
0
220
0
230
1
50
360
0
POINT
5
85
100
AcDbEntity
8
1
62
256
6
ByLayer
370
13
48
1
60
1
100
AcDbPoint
10
-32.260045
20
0
30
0
39
0
210
0
220
0
230
1
50
360
0
POINT
5
86
100
AcDbEntity
8
1
62
256
6
ByLayer
370
13
48
1
60
1
100
AcDbPoint
10
44.674167
20
0
30
0
39
0
210
0
220
0
230
1
50
360
0
POINT
5
87
100
AcDbEntity
8
1
62
256
6
ByLayer
370
13
48
1
60
1
100
AcDbPoint
10
61.5
20
0
30
0
39
0
210
0
220
0
230
1
50
360
0
POINT
5
88
100
AcDbEntity
8
1
62
256
6
ByLayer
370
13
48
1
60
1
100
AcDbPoint
10
41.5
20
0
30
0
39
0
210
0
220
0
230
1
50
360
0
SPLINE
5
16C
100
AcDbEntity
8
1
62
256
6
ByLayer
370
18
48
1
60
0
100
AcDbSpline
70
4
71
3
72
52
73
48
40
0
40
0
40
0
40
0
40
0.0625000000000126
40
0.0625000000000126
40
0.125000000000025
40
0.125000000000025
40
0.156250000000031
40
0.156250000000031
40
0.171875000000034
40
0.171875000000034
40
0.187500000000036
40
0.187500000000036
40
0.25000000000004
40
0.312500000000045
40
0.312500000000045
40
0.328125000000046
40
0.328125000000046
40
0.343750000000047
40
0.375000000000047
40
0.375000000000047
40
0.437500000000047
40
0.437500000000047
40
0.468750000000047
40
0.468750000000047
40
0.484375000000047
40
0.484375000000047
40
0.500000000000047
40
0.500000000000047
40
0.562500000000041
40
0.625000000000035
40
0.625000000000035
40
0.656250000000032
40
0.656250000000032
40
0.68750000000003
40
0.68750000000003
40
0.750000000000024
40
0.750000000000024
40
0.781250000000021
40
0.781250000000021
40
0.812500000000018
40
0.812500000000018
40
0.875000000000012
40
0.937500000000006
40
0.937500000000006
40
0.968750000000003
40
0.968750000000003
40
1
40
1
40
1
40
1
41
1
10
16.475
20
27.1208332690275
30
0
41
1
10
16.5131913232136
20
27.1316974162083
30
0
41
1
10
16.5554551603681
20
27.1417855593491
30
0
41
1
10
16.6478009638929
20
27.1605867016231
30
0
41
1
10
16.6978839475418
20
27.1692991748318
30
0
41
1
10
16.7789435239476
20
27.1814173707329
30
0
41
1
10
16.8069557155953
20
27.1852978728434
30
0
41
1
10
16.8505015589457
20
27.1908862453377
30
0
41
1
10
16.8652488722836
20
27.1927070856399
30
0
41
1
10
16.8950371680023
20
27.1962470452332
30
0
41
1
10
16.9101019245861
20
27.1979692506055
30
0
41
1
10
16.9862682240961
20
27.2063492452915
30
0
41
1
10
17.1135048019649
20
27.2182859500462
30
0
41
1
10
17.2513051323546
20
27.2275603575845
30
0
41
1
10
17.340852835611
20
27.2325593206391
30
0
41
1
10
17.3589510261372
20
27.2335196930482
30
0
41
1
10
17.3952241179028
20
27.2353472612522
30
0
41
1
10
17.4498427753161
20
27.2379542890512
30
0
41
1
10
17.5050795190823
20
27.2401701169256
30
0
41
1
10
17.6163637965048
20
27.2441019585401
30
0
41
1
10
17.691630903465
20
27.2460597735575
30
0
41
1
10
17.8061588831876
20
27.2480315926628
30
0
41
1
10
17.844606956195
20
27.2485272948397
30
0
41
1
10
17.9026967272745
20
27.2490252543333
30
0
41
1
10
17.9221663084688
20
27.2491503511788
30
0
41
1
10
17.9610107977543
20
27.2493166522484
30
0
41
1
10
17.9803927501871
20
27.2493581073743
30
0
41
1
10
18.0771038623368
20
27.2493599844162
30
0
41
1
10
18.2305754935628
20
27.2480563960538
30
0
41
1
10
18.3815722297398
20
27.2441658939821
30
0
41
1
10
18.4938641285014
20
27.2402118091583
30
0
41
1
10
18.53118989199
20
27.2387162896815
30
0
41
1
10
18.6044182748904
20
27.2354116930949
30
0
41
1
10
18.6404572010122
20
27.2335984961412
30
0
41
1
10
18.7468816355557
20
27.2276697523671
30
0
41
1
10
18.8155819965158
20
27.2230678565507
30
0
41
1
10
18.9152578724162
20
27.2151149292204
30
0
41
1
10
18.9479189224545
20
27.2122882535371
30
0
41
1
10
19.012089924821
20
27.206261876742
30
0
41
1
10
19.0436842374209
20
27.2030514711211
30
0
41
1
10
19.1354026811123
20
27.1929673492861
30
0
41
1
10
19.250303463002
20
27.1782579583756
30
0
41
1
10
19.350832367964
20
27.1608439964982
30
0
41
1
10
19.420705897915
20
27.1466492044015
30
0
41
1
10
19.4431211599626
20
27.1417156216417
30
0
41
1
10
19.4857083394232
20
27.1315251263696
30
0
41
1
10
19.5059044140918
20
27.1262653210842
30
0
41
1
10
19.525
20
27.1208332690275
30
0
0
SPLINE
5
16D
100
AcDbEntity
8
1
62
256
6
ByLayer
370
18
48
1
60
0
100
AcDbSpline
70
4
71
3
72
52
73
48
40
0
40
0
40
0
40
0
40
0.0625000000000001
40
0.0625000000000001
40
0.125
40
0.125
40
0.156249999999999
40
0.156249999999999
40
0.171874999999998
40
0.171874999999998
40
0.187499999999998
40
0.187499999999998
40
0.25
40
0.312500000000003
40
0.312500000000003
40
0.328125000000003
40
0.328125000000003
40
0.343750000000004
40
0.375000000000003
40
0.375000000000003
40
0.4375
40
0.4375
40
0.468749999999999
40
0.468749999999999
40
0.484374999999999
40
0.484374999999999
40
0.499999999999998
40
0.499999999999998
40
0.562499999999998
40
0.624999999999999
40
0.624999999999999
40
0.656249999999999
40
0.656249999999999
40
0.687499999999999
40
0.687499999999999
40
0.750000000000002
40
0.750000000000002
40
0.781250000000002
40
0.781250000000002
40
0.812500000000002
40
0.812500000000002
40
0.875000000000001
40
0.937499999999999
40
0.937499999999999
40
0.96875
40
0.96875
40
1
40
1
40
1
40
1
41
1
10
19.525
20
26.7932469531775
30
0
41
1
10
19.4868086767864
20
26.7782190478728
30
0
41
1
10
19.4445448396319
20
26.7636778297996
30
0
41
1
10
19.3521990361071
20
26.7356425269
30
0
41
1
10
19.3021160524582
20
26.7221482366298
30
0
41
1
10
19.2210564760524
20
26.7027937225695
30
0
41
1
10
19.1930442844047
20
26.696490535162
30
0
41
1
10
19.1494984410542
20
26.6872760989359
30
0
41
1
10
19.1347511277164
20
26.6842499023395
30
0
41
1
10
19.1049628319977
20
26.6783234071167
30
0
41
1
10
19.0898980754139
20
26.6754180306102
30
0
41
1
10
19.0137317759039
20
26.6611817241371
30
0
41
1
10
18.8864951980351
20
26.6402572336436
30
0
41
1
10
18.7486948676454
20
26.6232057126545
30
0
41
1
10
18.659147164389
20
26.6138669592113
30
0
41
1
10
18.6410489738628
20
26.6120640960198
30
0
41
1
10
18.6047758820972
20
26.608619114004
30
0
41
1
10
18.5501572246839
20
26.6036825499448
30
0
41
1
10
18.4949204809177
20
26.5994346655301
30
0
41
1
10
18.3836362034951
20
26.5918553257042
30
0
41
1
10
18.3083690965349
20
26.5880212717788
30
0
41
1
10
18.1938411168124
20
26.5841468956358
30
0
41
1
10
18.155393043805
20
26.5831689747049
30
0
41
1
10
18.0973032727254
20
26.5821857673452
30
0
41
1
10
18.0778336915312
20
26.5819385142023
30
0
41
1
10
18.0389892022457
20
26.5816097525469
30
0
41
1
10
18.0196072498129
20
26.5815277490761
30
0
41
1
10
17.9228961376632
20
26.5815240368116
30
0
41
1
10
17.7694245435129
20
26.584110268167
30
0
41
1
10
17.6184277702601
20
26.5917312694547
30
0
41
1
10
17.5061358714986
20
26.5993546894979
30
0
41
1
10
17.46881010801
20
26.6022219094338
30
0
41
1
10
17.3955817251096
20
26.6085030100581
30
0
41
1
10
17.3595427989878
20
26.6119249030653
30
0
41
1
10
17.2531183644443
20
26.6230027793082
30
0
41
1
10
17.1844180034842
20
26.6314682142538
30
0
41
1
10
17.0847421275837
20
26.6457128953723
30
0
41
1
10
17.0520810775454
20
26.6507195771728
30
0
41
1
10
16.9879100751789
20
26.6612459409822
30
0
41
1
10
16.9563157625791
20
26.6667833943611
30
0
41
1
10
16.8645973188877
20
26.6839169371751
30
0
41
1
10
16.7496965369979
20
26.7082543058536
30
0
41
1
10
16.649167632036
20
26.7352517843549
30
0
41
1
10
16.579294102085
20
26.7564288414743
30
0
41
1
10
16.5568788400374
20
26.7636606478014
30
0
41
1
10
16.5142916605768
20
26.7783102313741
30
0
41
1
10
16.4940955859081
20
26.7857330303118
30
0
41
1
10
16.475
20
26.7932469531775
30
0
0
SPLINE
5
16E
100
AcDbEntity
8
1
62
256
6
ByLayer
370
18
48
1
60
0
100
AcDbSpline
70
4
71
3
72
52
73
48
40
0
40
0
40
0
40
0
40
0.0625000000000119
40
0.0625000000000119
40
0.125000000000024
40
0.125000000000024
40
0.156250000000032
40
0.156250000000032
40
0.171875000000034
40
0.171875000000034
40
0.187500000000036
40
0.187500000000036
40
0.250000000000038
40
0.31250000000004
40
0.31250000000004
40
0.32812500000004
40
0.32812500000004
40
0.343750000000041
40
0.375000000000038
40
0.375000000000038
40
0.437500000000034
40
0.437500000000034
40
0.468750000000031
40
0.468750000000031
40
0.48437500000003
40
0.48437500000003
40
0.500000000000029
40
0.500000000000029
40
0.562500000000027
40
0.625000000000025
40
0.625000000000025
40
0.656250000000024
40
0.656250000000024
40
0.687500000000023
40
0.687500000000023
40
0.75000000000002
40
0.75000000000002
40
0.781250000000018
40
0.781250000000018
40
0.812500000000015
40
0.812500000000015
40
0.87500000000001
40
0.937500000000005
40
0.937500000000005
40
0.968750000000003
40
0.968750000000003
40
1
40
1
40
1
40
1
41
1
10
16.475
20
25.3449590148056
30
0
41
1
10
16.5131913232136
20
25.3711652732471
30
0
41
1
10
16.5554551603681
20
25.3958653042828
30
0
41
1
10
16.6478009638929
20
25.4424811158632
30
0
41
1
10
16.6978839475418
20
25.4643962091644
30
0
41
1
10
16.7789435239476
20
25.4952426863963
30
0
41
1
10
16.8069557155953
20
25.5051861016711
30
0
41
1
10
16.8505015589457
20
25.5195912187657
30
0
41
1
10
16.8652488722836
20
25.524299675429
30
0
41
1
10
16.8950371680023
20
25.5334804477194
30
0
41
1
10
16.9101019245861
20
25.5379607116957
30
0
41
1
10
16.9862682240961
20
25.5598228133552
30
0
41
1
10
17.1135048019649
20
25.5913663185602
30
0
41
1
10
17.2513051323546
20
25.6163692804839
30
0
41
1
10
17.340852835611
20
25.6299381855863
30
0
41
1
10
17.3589510261372
20
25.6325504224434
30
0
41
1
10
17.3952241179028
20
25.6375302849733
30
0
41
1
10
17.4498427753161
20
25.6446479566543
30
0
41
1
10
17.5050795190823
20
25.6507300351839
30
0
41
1
10
17.6163637965048
20
25.6615483012304
30
0
41
1
10
17.691630903465
20
25.6669725279171
30
0
41
1
10
17.8061588831876
20
25.6724435910726
30
0
41
1
10
17.844606956195
20
25.6738214280777
30
0
41
1
10
17.9026967272745
20
25.6752060586707
30
0
41
1
10
17.9221663084688
20
25.6755540616427
30
0
41
1
10
17.9610107977543
20
25.6760167321082
30
0
41
1
10
17.9803927501871
20
25.6761320969868
30
0
41
1
10
18.0771038623368
20
25.6761373201056
30
0
41
1
10
18.2305754935628
20
25.6725048469032
30
0
41
1
10
18.3815722297398
20
25.6617247205932
30
0
41
1
10
18.4938641285014
20
25.6508445041694
30
0
41
1
10
18.53118989199
20
25.6467394195053
30
0
41
1
10
18.6044182748904
20
25.6377025181656
30
0
41
1
10
18.6404572010122
20
25.6327593219671
30
0
41
1
10
18.7468816355557
20
25.6166653236514
30
0
41
1
10
18.8155819965158
20
25.6042561692872
30
0
41
1
10
18.9152578724162
20
25.5830508746831
30
0
41
1
10
18.9479189224545
20
25.575549016392
30
0
41
1
10
19.0120899248211
20
25.5596473591563
30
0
41
1
10
19.0436842374209
20
25.5512198917614
30
0
41
1
10
19.1354026811123
20
25.5249106231448
30
0
41
1
10
19.250303463002
20
25.4869421706006
30
0
41
1
10
19.350832367964
20
25.4431234668905
30
0
41
1
10
19.420705897915
20
25.4079221550004
30
0
41
1
10
19.4431211599626
20
25.3957675965109
30
0
41
1
10
19.4857083394232
20
25.3708413718896
30
0
41
1
10
19.5059044140918
20
25.3580620920832
30
0
41
1
10
19.525
20
25.3449590148056
30
0
0
SPLINE
5
16F
100
AcDbEntity
8
1
62
256
6
ByLayer
370
18
48
1
60
0
100
AcDbSpline
70
4
71
3
72
52
73
48
40
0
40
0
40
0
40
0
40
0.0625000000000042
40
0.0625000000000042
40
0.125000000000008
40
0.125000000000008
40
0.15625000000001
40
0.15625000000001
40
0.171875000000012
40
0.171875000000012
40
0.187500000000013
40
0.187500000000013
40
0.250000000000023
40
0.312500000000032
40
0.312500000000032
40
0.328125000000034
40
0.328125000000034
40
0.343750000000036
40
0.375000000000037
40
0.375000000000037
40
0.437500000000038
40
0.437500000000038
40
0.468750000000039
40
0.468750000000039
40
0.484375000000039
40
0.484375000000039
40
0.50000000000004
40
0.50000000000004
40
0.562500000000035
40
0.625000000000031
40
0.625000000000031
40
0.656250000000029
40
0.656250000000029
40
0.687500000000027
40
0.687500000000027
40
0.75000000000002
40
0.75000000000002
40
0.781250000000017
40
0.781250000000017
40
0.812500000000014
40
0.812500000000014
40
0.875000000000009
40
0.937500000000003
40
0.937500000000003
40
0.968750000000002
40
0.968750000000002
40
1
40
1
40
1
40
1
41
1
10
19.525
20
24.6330018489415
30
0
41
1
10
19.4868086767864
20
24.6029358169546
30
0
41
1
10
19.4445448396319
20
24.574107817793
30
0
41
1
10
19.3521990361071
20
24.5189320063674
30
0
41
1
10
19.3021160524582
20
24.4925842033738
30
0
41
1
10
19.2210564760524
20
24.4550297117555
30
0
41
1
10
19.1930442844047
20
24.442840484803
30
0
41
1
10
19.1494984410542
20
24.42507403296
30
0
41
1
10
19.1347511277164
20
24.4192482197647
30
0
41
1
10
19.1049628319977
20
24.407855146276
30
0
41
1
10
19.0898980754139
20
24.4022780912499
30
0
41
1
10
19.0137317759039
20
24.37498723109
30
0
41
1
10
18.8864951980351
20
24.3351121137708
30
0
41
1
10
18.7486948676454
20
24.3028998241525
30
0
41
1
10
18.659147164389
20
24.2853079648736
30
0
41
1
10
18.6410489738628
20
24.281914745179
30
0
41
1
10
18.6047758820972
20
24.2754355517906
30
0
41
1
10
18.5501572246839
20
24.2661584169125
30
0
41
1
10
18.4949204809177
20
24.2581926367261
30
0
41
1
10
18.3836362034951
20
24.2439931663242
30
0
41
1
10
18.3083690965349
20
24.2368296797943
30
0
41
1
10
18.1938411168124
20
24.2295949600805
30
0
41
1
10
18.155393043805
20
24.227770109792
30
0
41
1
10
18.0973032727254
20
24.2259356579508
30
0
41
1
10
18.0778336915312
20
24.2254744169782
30
0
41
1
10
18.0389892022457
20
24.2248611467294
30
0
41
1
10
18.0196072498129
20
24.2247081938296
30
0
41
1
10
17.9228961376632
20
24.2247012694728
30
0
41
1
10
17.7694245064372
20
24.2295227715185
30
0
41
1
10
17.6184277702601
20
24.2437610154095
30
0
41
1
10
17.5061358714986
20
24.2580426789365
30
0
41
1
10
17.46881010801
20
24.2634193199654
30
0
41
1
10
17.3955817251096
20
24.2752154189338
30
0
41
1
10
17.3595427989878
20
24.2816498646922
30
0
41
1
10
17.2531183644443
20
24.3025170714156
30
0
41
1
10
17.1844180034841
20
24.3185076984971
30
0
41
1
10
17.0847421275837
20
24.3455454031746
30
0
41
1
10
17.0520810775454
20
24.3550681113061
30
0
41
1
10
16.9879100751789
20
24.375141223827
30
0
41
1
10
16.9563157625791
20
24.3857258475955
30
0
41
1
10
16.8645973188877
20
24.4185698782696
30
0
41
1
10
16.7496965369979
20
24.4654633962902
30
0
41
1
10
16.649167632036
20
24.518165950319
30
0
41
1
10
16.579294102085
20
24.5598397711828
30
0
41
1
10
16.5568788400374
20
24.5741247662304
30
0
41
1
10
16.5142916605768
20
24.6031845333263
30
0
41
1
10
16.4940955859082
20
24.6179688925416
30
0
41
1
10
16.475
20
24.6330018489415
30
0
0
SPLINE
5
170
100
AcDbEntity
8
1
62
256
6
ByLayer
370
18
48
1
60
0
100
AcDbSpline
70
4
71
3
72
52
73
48
40
0
40
0
40
0
40
0
40
0.0625000000000071
40
0.0625000000000071
40
0.125000000000014
40
0.125000000000014
40
0.156250000000017
40
0.156250000000017
40
0.171875000000019
40
0.171875000000019
40
0.187500000000021
40
0.187500000000021
40
0.25000000000002
40
0.312500000000019
40
0.312500000000019
40
0.328125000000019
40
0.328125000000019
40
0.343750000000018
40
0.375000000000019
40
0.375000000000019
40
0.437500000000022
40
0.437500000000022
40
0.468750000000023
40
0.468750000000023
40
0.484375000000023
40
0.484375000000023
40
0.500000000000024
40
0.500000000000024
40
0.562500000000021
40
0.625000000000018
40
0.625000000000018
40
0.656250000000017
40
0.656250000000017
40
0.687500000000015
40
0.687500000000015
40
0.750000000000012
40
0.750000000000012
40
0.781250000000011
40
0.781250000000011
40
0.81250000000001
40
0.81250000000001
40
0.875000000000007
40
0.937500000000003
40
0.937500000000003
40
0.968750000000002
40
0.968750000000002
40
1
40
1
40
1
40
1
41
1
10
16.475
20
22.1685182903902
30
0
41
1
10
16.5131913232136
20
22.208618498079
30
0
41
1
10
16.5554551603681
20
22.246565489362
30
0
41
1
10
16.6478009638929
20
22.3184199730795
30
0
41
1
10
16.6978839475418
20
22.3523266549284
30
0
41
1
10
16.7789435239476
20
22.4001968322483
30
0
41
1
10
16.8069557155953
20
22.4156536859763
30
0
41
1
10
16.8505015589457
20
22.4380795186071
30
0
41
1
10
16.8652488722836
20
22.4454154015669
30
0
41
1
10
16.8950371680023
20
22.4597296556158
30
0
41
1
10
16.9101019245861
20
22.4667203980956
30
0
41
1
10
16.9862682240961
20
22.5008565035102
30
0
41
1
10
17.1135048019649
20
22.5502637100461
30
0
41
1
10
17.2513051323546
20
22.5896135586987
30
0
41
1
10
17.340852835611
20
22.6110025859927
30
0
41
1
10
17.3589510261372
20
22.6151223346733
30
0
41
1
10
17.3952241179028
20
22.6229793035328
30
0
41
1
10
17.4498427753161
20
22.6342142954257
30
0
41
1
10
17.5050795190823
20
22.6438265279825
30
0
41
1
10
17.6163637965048
20
22.660933399357
30
0
41
1
10
17.691630903465
20
22.6695242940827
30
0
41
1
10
17.8061588831876
20
22.6781922694673
30
0
41
1
10
17.844606956195
20
22.6803761018085
30
0
41
1
10
17.9026967272745
20
22.6825708885939
30
0
41
1
10
17.9221663084688
20
22.6831225669927
30
0
41
1
10
17.9610107977543
20
22.6838560396105
30
0
41
1
10
17.9803927501871
20
22.6840389391603
30
0
41
1
10
18.0771038623368
20
22.6840472197256
30
0
41
1
10
18.2305754935628
20
22.6782865927306
30
0
41
1
10
18.3815722297398
20
22.6612125536784
30
0
41
1
10
18.4938641285014
20
22.6440074481465
30
0
41
1
10
18.53118989199
20
22.6375196459272
30
0
41
1
10
18.6044182748904
20
22.6232498204411
30
0
41
1
10
18.6404572010122
20
22.6154497868068
30
0
41
1
10
18.7468816355557
20
22.5900798908586
30
0
41
1
10
18.8155819965158
20
22.5705492097923
30
0
41
1
10
18.9152578724162
20
22.5372633558704
30
0
41
1
10
18.9479189224545
20
22.5255008688547
30
0
41
1
10
19.0120899248211
20
22.500602659289
30
0
41
1
10
19.0436842374209
20
22.48742383331
30
0
41
1
10
19.1354026811123
20
22.4463432722842
30
0
41
1
10
19.250303463002
20
22.3872139008386
30
0
41
1
10
19.350832367964
20
22.3194118838389
30
0
41
1
10
19.420705897915
20
22.2651492822547
30
0
41
1
10
19.4431211599626
20
22.2464454108728
30
0
41
1
10
19.4857083394232
20
22.2081608840431
30
0
41
1
10
19.5059044140919
20
22.1885683147524
30
0
41
1
10
19.525
20
22.1685182903902
30
0
0
SPLINE
5
171
100
AcDbEntity
8
1
62
256
6
ByLayer
370
18
48
1
60
0
100
AcDbSpline
70
4
71
3
72
41
73
37
40
0
40
0
40
0
40
0
40
0.0156250000000085
40
0.0156250000000085
40
0.0234375000000128
40
0.0234375000000128
40
0.031250000000017
40
0.046875000000019
40
0.046875000000019
40
0.0625000000000211
40
0.0625000000000211
40
0.0937500000000251
40
0.0937500000000251
40
0.109375000000027
40
0.109375000000027
40
0.125000000000029
40
0.125000000000029
40
0.187500000000028
40
0.187500000000028
40
0.250000000000026
40
0.250000000000026
40
0.312500000000025
40
0.312500000000025
40
0.375000000000023
40
0.375000000000023
40
0.500000000000019
40
0.500000000000019
40
0.625000000000014
40
0.625000000000014
40
0.750000000000009
40
0.750000000000009
40
0.875000000000005
40
0.875000000000005
40
0.937500000000002
40
0.937500000000002
40
1
40
1
40
1
40
1
41
1
10
19.5249999999999
20
-7.61023159962957
30
0
41
1
10
19.5327024693616
20
-7.61023159962957
30
0
41
1
10
19.5403499375636
20
-7.61103410581498
30
0
41
1
10
19.5517417352149
20
-7.61339643564898
30
0
41
1
10
19.5555389622455
20
-7.61438303764569
30
0
41
1
10
19.5629467216247
20
-7.61667947511052
30
0
41
1
10
19.5738357169481
20
-7.62061761781715
30
0
41
1
10
19.5841291181375
20
-7.62587588595315
30
0
41
1
10
19.5974172425026
20
-7.63385420755566
30
0
41
1
10
19.6038132044863
20
-7.63831659750599
30
0
41
1
10
19.6220238572668
20
-7.65253689560294
30
0
41
1
10
19.6330616978773
20
-7.66321812538723
30
0
41
1
10
19.6485474404334
20
-7.68040660586607
30
0
41
1
10
19.6535386937919
20
-7.68635312220977
30
0
41
1
10
19.6631054971761
20
-7.69844289168751
30
0
41
1
10
19.6676931737667
20
-7.70459789849571
30
0
41
1
10
19.6898281317934
20
-7.73582496865617
30
0
41
1
10
19.7050613891478
20
-7.76219898622028
30
0
41
1
10
19.7327804518614
20
-7.81649283788752
30
0
41
1
10
19.7452338963722
20
-7.84449196198281
30
0
41
1
10
19.7681114975808
20
-7.90136811316489
30
0
41
1
10
19.778450296592
20
-7.93005011121824
30
0
41
1
10
19.7975412774733
20
-7.98776593550619
30
0
41
1
10
19.8062863087924
20
-8.01680134735662
30
0
41
1
10
19.8306324142891
20
-8.10432646113463
30
0
41
1
10
19.8443712784708
20
-8.16322910323458
30
0
41
1
10
19.8682330833853
20
-8.28183620895624
30
0
41
1
10
19.8783333135742
20
-8.34154570858132
30
0
41
1
10
19.8954778619715
20
-8.4616423482818
30
0
41
1
10
19.9025205311075
20
-8.52209474896756
30
0
41
1
10
19.9137604894845
20
-8.64331563626854
30
0
41
1
10
19.9179523889072
20
-8.70401289008936
30
0
41
1
10
19.9221674874787
20
-8.79518476926535
30
0
41
1
10
19.9232255222331
20
-8.82559648899198
30
0
41
1
10
19.9246418186499
20
-8.88646246628016
30
0
41
1
10
19.925
20
-8.91695840044605
30
0
41
1
10
19.925
20
-8.94738090169409
30
0
0
SPLINE
5
172
100
AcDbEntity
8
1
62
256
6
ByLayer
370
18
48
1
60
0
100
AcDbSpline
70
4
71
3
72
32
73
28
40
0
40
0
40
0
40
0
40
0.125000000000006
40
0.125000000000006
40
0.250000000000011
40
0.250000000000011
40
0.281250000000012
40
0.281250000000012
40
0.312500000000014
40
0.312500000000014
40
0.375000000000015
40
0.375000000000015
40
0.500000000000017
40
0.500000000000017
40
0.562500000000017
40
0.562500000000017
40
0.593750000000017
40
0.593750000000017
40
0.625000000000016
40
0.625000000000016
40
0.75000000000001
40
0.75000000000001
40
0.875000000000005
40
0.875000000000005
40
0.937500000000002
40
0.937500000000002
40
1
40
1
40
1
40
1
41
1
10
19.525
20
27.1208332690275
30
0
41
1
10
19.5622257722493
20
27.1102437886272
30
0
41
1
10
19.5945540477172
20
27.1041708178686
30
0
41
1
10
19.6502751353693
20
27.094841269757
30
0
41
1
10
19.6736593922955
20
27.0916668022928
30
0
41
1
10
19.6973388066952
20
27.0866207506159
30
0
41
1
10
19.7017954531887
20
27.0855586608656
30
0
41
1
10
19.7101445492717
20
27.0832579448407
30
0
41
1
10
19.7140405161275
20
27.0820172954398
30
0
41
1
10
19.7248000309276
20
27.0779555911893
30
0
41
1
10
19.7307633876758
20
27.0747854427417
30
0
41
1
10
19.7450941258959
20
27.0632416237393
30
0
41
1
10
19.7499173582746
20
27.0527432530066
30
0
41
1
10
19.7500397482501
20
27.0314980826331
30
0
41
1
10
19.7488912538172
20
27.0235217432637
30
0
41
1
10
19.7453483394831
20
27.010270042848
30
0
41
1
10
19.7438637724502
20
27.005639883421
30
0
41
1
10
19.7402785478741
20
26.9959813812545
30
0
41
1
10
19.7381740269327
20
26.9909467221946
30
0
41
1
10
19.7261954023969
20
26.9650961650185
30
0
41
1
10
19.7119380543277
20
26.9420726020337
30
0
41
1
10
19.6743437734414
20
26.8952530799975
30
0
41
1
10
19.6510085472785
20
26.8714513844216
30
0
41
1
10
19.6088439545667
20
26.8386144918302
30
0
41
1
10
19.5936282036746
20
26.8281899190856
30
0
41
1
10
19.561007612055
20
26.8091729540188
30
0
41
1
10
19.5435796738199
20
26.8005578697727
30
0
41
1
10
19.5250000000015
20
26.7932469531759
30
0
0
SPLINE
5
173
100
AcDbEntity
8
1
62
256
6
ByLayer
370
18
48
1
60
0
100
AcDbSpline
70
4
71
3
72
32
73
28
40
0
40
0
40
0
40
0
40
0.125000000000002
40
0.125000000000002
40
0.250000000000004
40
0.250000000000004
40
0.281250000000002
40
0.281250000000002
40
0.3125
40
0.3125
40
0.375000000000002
40
0.375000000000002
40
0.500000000000002
40
0.500000000000002
40
0.562500000000002
40
0.562500000000002
40
0.593750000000002
40
0.593750000000002
40
0.625000000000003
40
0.625000000000003
40
0.750000000000004
40
0.750000000000004
40
0.875000000000004
40
0.875000000000004
40
0.937500000000002
40
0.937500000000002
40
1
40
1
40
1
40
1
41
1
10
19.525
20
25.3449590148056
30
0
41
1
10
19.5622257722493
20
25.3194153015701
30
0
41
1
10
19.5945540477172
20
25.2977519054731
30
0
41
1
10
19.6502751353693
20
25.2563279975244
30
0
41
1
10
19.6736593922955
20
25.2366451013006
30
0
41
1
10
19.6973388066952
20
25.2105249010716
30
0
41
1
10
19.7017954531887
20
25.2052258559486
30
0
41
1
10
19.7101445492718
20
25.1944097009008
30
0
41
1
10
19.7140405161275
20
25.1888853169807
30
0
41
1
10
19.7248000309276
20
25.1720025972996
30
0
41
1
10
19.7307633876759
20
25.1603009475975
30
0
41
1
10
19.7450941258959
20
25.1232531489135
30
0
41
1
10
19.7499173582746
20
25.0958789625443
30
0
41
1
10
19.7500397482501
20
25.0495945521474
30
0
41
1
10
19.7488912538172
20
25.0333160878797
30
0
41
1
10
19.7453483394831
20
25.0076736324579
30
0
41
1
10
19.7438637724502
20
24.9989235192026
30
0
41
1
10
19.7402785478741
20
24.9810437943411
30
0
41
1
10
19.7381740269327
20
24.9719034684447
30
0
41
1
10
19.7261954023969
20
24.9257319427237
30
0
41
1
10
19.7119380543278
20
24.886987279408
30
0
41
1
10
19.6743437734414
20
24.8093740986208
30
0
41
1
10
19.6510085472785
20
24.770500332777
30
0
41
1
10
19.6088439545667
20
24.7152064692375
30
0
41
1
10
19.5936282036746
20
24.6973444447343
30
0
41
1
10
19.561007612055
20
24.6635730532899
30
0
41
1
10
19.5435796738199
20
24.6476286547252
30
0
41
1
10
19.5250000000015
20
24.6330018489398
30
0
0
SPLINE
5
174
100
AcDbEntity
8
1
62
256
6
ByLayer
370
18
48
1
60
0
100
AcDbSpline
70
4
71
3
72
32
73
28
40
0
40
0
40
0
40
0
40
0.125000000000009
40
0.125000000000009
40
0.250000000000019
40
0.250000000000019
40
0.281250000000022
40
0.281250000000022
40
0.312500000000024
40
0.312500000000024
40
0.375000000000029
40
0.375000000000029
40
0.500000000000034
40
0.500000000000034
40
0.562500000000038
40
0.562500000000038
40
0.593750000000038
40
0.593750000000038
40
0.625000000000038
40
0.625000000000038
40
0.750000000000028
40
0.750000000000028
40
0.875000000000018
40
0.875000000000018
40
0.937500000000009
40
0.937500000000009
40
1
40
1
40
1
40
1
41
1
10
19.525
20
22.1685182903902
30
0
41
1
10
19.5622257722493
20
22.1294318939796
30
0
41
1
10
19.5945540477172
20
22.0933751952614
30
0
41
1
10
19.6502751353693
20
22.0221460192238
30
0
41
1
10
19.6736593922955
20
21.9870423742194
30
0
41
1
10
19.6973388066952
20
21.9412914318613
30
0
41
1
10
19.7017954531887
20
21.9320482574428
30
0
41
1
10
19.7101445492718
20
21.9133143658221
30
0
41
1
10
19.7140405161275
20
21.9038115257178
30
0
41
1
10
19.7248000309276
20
21.8750407323834
30
0
41
1
10
19.7307633876759
20
21.8554542164522
30
0
41
1
10
19.7450941258959
20
21.7949497053402
30
0
41
1
10
19.7499173582746
20
21.7522124052313
30
0
41
1
10
19.7500397482501
20
21.6834464386982
30
0
41
1
10
19.7488912538172
20
21.6597654000592
30
0
41
1
10
19.7453483394831
20
21.6231491958002
30
0
41
1
10
19.7438637724502
20
21.6107626613683
30
0
41
1
10
19.7402785478741
20
21.5856497502541
30
0
41
1
10
19.7381740269327
20
21.5729088533856
30
0
41
1
10
19.7261954023969
20
21.5089678049817
30
0
41
1
10
19.7119380543278
20
21.4566430775981
30
0
41
1
10
19.6743437734414
20
21.3525251547867
30
0
41
1
10
19.6510085472785
20
21.3007274891644
30
0
41
1
10
19.6088439545667
20
21.226032202379
30
0
41
1
10
19.5936282036746
20
21.2017197844351
30
0
41
1
10
19.561007612055
20
21.1550601790806
30
0
41
1
10
19.5435796738199
20
21.1326675562007
30
0
41
1
10
19.5250000000015
20
21.111533140843
30
0
0
SPLINE
5
175
100
AcDbEntity
8
1
62
256
6
ByLayer
370
18
48
1
60
0
100
AcDbSpline
70
4
71
3
72
32
73
28
40
0
40
0
40
0
40
0
40
0.250000000000001
40
0.250000000000001
40
0.375000000000002
40
0.375000000000002
40
0.500000000000003
40
0.500000000000003
40
0.562500000000005
40
0.562500000000005
40
0.625000000000006
40
0.625000000000006
40
0.687500000000008
40
0.687500000000008
40
0.75000000000001
40
0.75000000000001
40
0.812500000000011
40
0.812500000000011
40
0.875000000000011
40
0.875000000000011
40
0.906250000000008
40
0.906250000000008
40
0.937500000000006
40
0.937500000000006
40
0.968750000000003
40
0.968750000000003
40
1
40
1
40
1
40
1
41
1
10
19.925
20
8.94738090169409
30
0
41
1
10
19.925
20
8.82590112311172
30
0
41
1
10
19.9194176880974
20
8.70490826221709
30
0
41
1
10
19.9027368669201
20
8.52414358056055
30
0
41
1
10
19.8957723681701
20
8.46401117033659
30
0
41
1
10
19.8787281897428
20
8.34401807184202
30
0
41
1
10
19.8686570848438
20
8.2841566356355
30
0
41
1
10
19.8507055228471
20
8.19461262840483
30
0
41
1
10
19.8442344836365
20
8.1647666924946
30
0
41
1
10
19.8302256509177
20
8.10536010678604
30
0
41
1
10
19.8227032010589
20
8.07585475839369
30
0
41
1
10
19.8064372623681
20
8.0173106297033
30
0
41
1
10
19.7976959923051
20
7.9882710015971
30
0
41
1
10
19.7787004633519
20
7.9307698696945
30
0
41
1
10
19.7684515593262
20
7.90230631976453
30
0
41
1
10
19.7459364641737
20
7.84615004034433
30
0
41
1
10
19.7336864060722
20
7.81845114630494
30
0
41
1
10
19.7061726787183
20
7.76420488151274
30
0
41
1
10
19.6909725350734
20
7.7376189539678
30
0
41
1
10
19.6640406321409
20
7.69936185644173
30
0
41
1
10
19.6545107395917
20
7.68711376313931
30
0
41
1
10
19.6338830913967
20
7.66404834447607
30
0
41
1
10
19.6228019250377
20
7.65321588040831
30
0
41
1
10
19.598147986261
20
7.63382469038129
30
0
41
1
10
19.5849441081097
20
7.62554992982004
30
0
41
1
10
19.5558575509739
20
7.61356706972242
30
0
41
1
10
19.5407541033155
20
7.61023159962957
30
0
41
1
10
19.5249999999999
20
7.61023159962957
30
0
0
SPLINE
5
176
100
AcDbEntity
8
1
62
256
6
ByLayer
370
18
48
1
60
0
100
AcDbSpline
70
4
71
3
72
37
73
33
40
0
40
0
40
0
40
0
40
0.0625000000000001
40
0.0625000000000001
40
0.125
40
0.125
40
0.25
40
0.25
40
0.375
40
0.375
40
0.4375
40
0.4375
40
0.46875
40
0.46875
40
0.484375
40
0.4921875
40
0.49609375
40
0.49609375
40
0.498046875
40
0.498046875
40
0.5
40
0.5625
40
0.5625
40
0.625
40
0.625
40
0.75
40
0.75
40
0.875
40
0.875
40
0.9375
40
0.9375
40
1
40
1
40
1
40
1
41
1
10
25.95
20
4.89515066162423
30
0
41
1
10
25.95
20
4.68983084684297
30
0
41
1
10
25.9534727064905
20
4.48460552218756
30
0
41
1
10
25.9651841447927
20
4.07440239189472
30
0
41
1
10
25.9734364677076
20
3.86940062515089
30
0
41
1
10
26.0028006404192
20
3.25458717623965
30
0
41
1
10
26.0285562674561
20
2.84496886836195
30
0
41
1
10
26.0798455251282
20
2.02572300832233
30
0
41
1
10
26.1053886580658
20
1.61609585185144
30
0
41
1
10
26.1332150981399
20
1.00121836930097
30
0
41
1
10
26.1407236950649
20
0.796185632620904
30
0
41
1
10
26.1482778339447
20
0.488482089065457
30
0
41
1
10
26.150181897379
20
0.385888673988291
30
0
41
1
10
26.1520402351913
20
0.231957003165832
30
0
41
1
10
26.1527206938384
20
0.154980811062785
30
0
41
1
10
26.1530708935379
20
0.0651567785361351
30
0
41
1
10
26.1531255806314
20
0.026656792050801
30
0
41
1
10
26.1531370096458
20
0.007406136101622
30
0
41
1
10
26.1531381482943
20
0.0009785203105253
30
0
41
1
10
26.1531352198497
20
-0.0117184281079119
30
0
41
1
10
26.1530026015188
20
-0.221216045501421
30
0
41
1
10
26.1499957685767
20
-0.430644397556961
30
0
41
1
10
26.1393611325506
20
-0.836692722496537
30
0
41
1
10
26.1316593163865
20
-1.03966010895059
30
0
41
1
10
26.1035026164147
20
-1.64843616924915
30
0
41
1
10
26.0780715937937
20
-2.05410474819857
30
0
41
1
10
26.0272712831325
20
-2.86544359435223
30
0
41
1
10
26.0018879727888
20
-3.27111347808875
30
0
41
1
10
25.9730010220494
20
-3.879869568228
30
0
41
1
10
25.9648949198713
20
-4.08282991116127
30
0
41
1
10
25.9534008397226
20
-4.48887962351628
30
0
41
1
10
25.95
20
-4.69196864120786
30
0
41
1
10
25.95
20
-4.89515066162423
30
0
0
SPLINE
5
177
100
AcDbEntity
8
1
62
256
6
ByLayer
370
18
48
1
60
0
100
AcDbSpline
70
4
71
3
72
52
73
48
40
0
40
0
40
0
40
0
40
0.0625000000000044
40
0.0625000000000044
40
0.125000000000009
40
0.125000000000009
40
0.156250000000012
40
0.156250000000012
40
0.171875000000013
40
0.171875000000013
40
0.187500000000014
40
0.187500000000014
40
0.25000000000002
40
0.312500000000027
40
0.312500000000027
40
0.328125000000028
40
0.328125000000028
40
0.343750000000029
40
0.375000000000027
40
0.375000000000027
40
0.437500000000024
40
0.437500000000024
40
0.468750000000023
40
0.468750000000023
40
0.484375000000022
40
0.484375000000022
40
0.500000000000022
40
0.500000000000022
40
0.562500000000022
40
0.625000000000022
40
0.625000000000022
40
0.656250000000022
40
0.656250000000022
40
0.687500000000022
40
0.687500000000022
40
0.75000000000002
40
0.75000000000002
40
0.781250000000018
40
0.781250000000018
40
0.812500000000016
40
0.812500000000016
40
0.875000000000012
40
0.937500000000008
40
0.937500000000008
40
0.968750000000004
40
0.968750000000004
40
1
40
1
40
1
40
1
41
1
10
19.525
20
21.1115331408446
30
0
41
1
10
19.4868086767864
20
21.0680904358897
30
0
41
1
10
19.4445448396319
20
21.0265686954631
30
0
41
1
10
19.3521990361071
20
20.947301399635
30
0
41
1
10
19.3021160524582
20
20.9095560677061
30
0
41
1
10
19.2210564760524
20
20.8558768657156
30
0
41
1
10
19.1930442844047
20
20.83847517784
30
0
41
1
10
19.1494984410542
20
20.8131384873375
30
0
41
1
10
19.1347511277164
20
20.804834992908
30
0
41
1
10
19.1049628319977
20
20.7886049242081
30
0
41
1
10
19.0898980754139
20
20.7806643796111
30
0
41
1
10
19.0137317759039
20
20.7418270630417
30
0
41
1
10
18.8864951980351
20
20.685204824228
30
0
41
1
10
18.7486948676454
20
20.6396118222332
30
0
41
1
10
18.6591471643889
20
20.6147389860631
30
0
41
1
10
18.6410489738628
20
20.6099429197259
30
0
41
1
10
18.6047758820972
20
20.6007875562231
30
0
41
1
10
18.5501572246839
20
20.5876825064764
30
0
41
1
10
18.4949204809177
20
20.5764390207995
30
0
41
1
10
18.3836362034951
20
20.5564040848168
30
0
41
1
10
18.3083690965349
20
20.5463070210884
30
0
41
1
10
18.1938411168124
20
20.5361117495671
30
0
41
1
10
18.155393043805
20
20.5335408114385
30
0
41
1
10
18.0973032727254
20
20.5309564872165
30
0
41
1
10
18.0778336915312
20
20.5303067466639
30
0
41
1
10
18.0389892022457
20
20.5294428572332
30
0
41
1
10
18.0196072498129
20
20.5292274071059
30
0
41
1
10
17.9228961376632
20
20.5292176532978
30
0
41
1
10
17.7694245064372
20
20.5360079587471
30
0
41
1
10
17.6184277702601
20
20.5560766679334
30
0
41
1
10
17.5061358714986
20
20.5762273679438
30
0
41
1
10
17.46881010801
20
20.5838163160265
30
0
41
1
10
17.3955817251096
20
20.6004755590322
30
0
41
1
10
17.3595427989878
20
20.6095669890447
30
0
41
1
10
17.2531183644443
20
20.639070401083
30
0
41
1
10
17.1844180034841
20
20.6617025757021
30
0
41
1
10
17.0847421275837
20
20.7000391960735
30
0
41
1
10
17.0520810775454
20
20.7135517041687
30
0
41
1
10
16.9879100751789
20
20.7420623220073
30
0
41
1
10
16.9563157625791
20
20.757109208171
30
0
41
1
10
16.8645973188877
20
20.803848760341
30
0
41
1
10
16.7496965369979
20
20.8707070844324
30
0
41
1
10
16.649167632036
20
20.9462023624627
30
0
41
1
10
16.579294102085
20
21.0060700450952
30
0
41
1
10
16.5568788400374
20
21.0266188377626
30
0
41
1
10
16.5142916605768
20
21.0684829410257
30
0
41
1
10
16.4940955859082
20
21.0898118744745
30
0
41
1
10
16.475
20
21.1115331408446
30
0
0
SPLINE
5
178
100
AcDbEntity
8
1
62
256
6
ByLayer
370
18
48
1
60
0
100
AcDbSpline
70
4
71
3
72
42
73
38
40
0
40
0
40
0
40
0
40
0.062499999999998
40
0.062499999999998
40
0.124999999999996
40
0.124999999999996
40
0.249999999999996
40
0.249999999999996
40
0.374999999999995
40
0.374999999999995
40
0.499999999999995
40
0.499999999999995
40
0.562499999999997
40
0.562499999999997
40
0.624999999999998
40
0.624999999999998
40
0.6875
40
0.6875
40
0.750000000000001
40
0.750000000000001
40
0.812500000000003
40
0.812500000000003
40
0.875000000000005
40
0.875000000000005
40
0.890625000000005
40
0.890625000000005
40
0.906250000000005
40
0.906250000000005
40
0.937500000000007
40
0.937500000000007
40
0.953125000000005
40
0.953125000000005
40
0.968750000000004
40
0.968750000000004
40
0.984375000000002
40
0.984375000000002
40
1
40
1
40
1
40
1
41
1
10
16.075
20
-8.94738090169409
30
0
41
1
10
16.075
20
-8.91683058415697
30
0
41
1
10
16.0753631932505
20
-8.88614623221449
30
0
41
1
10
16.0767837754561
20
-8.82529878466522
30
0
41
1
10
16.0778431774124
20
-8.79491958785687
30
0
41
1
10
16.0820553953892
20
-8.70391387938793
30
0
41
1
10
16.0862362739362
20
-8.64341849085051
30
0
41
1
10
16.0974090920582
20
-8.52278624751466
30
0
41
1
10
16.1043983184048
20
-8.4626490466604
30
0
41
1
10
16.1214724591174
20
-8.34276948113268
30
0
41
1
10
16.1315492786989
20
-8.28302608401864
30
0
41
1
10
16.1494739282733
20
-8.1937693128092
30
0
41
1
10
16.155920439599
20
-8.16407720903973
30
0
41
1
10
16.1699066079324
20
-8.1048324255847
30
0
41
1
10
16.1774612459458
20
-8.07522344883336
30
0
41
1
10
16.1937954157266
20
-8.01651358331125
30
0
41
1
10
16.2025699625126
20
-7.98741269774078
30
0
41
1
10
16.2216246656878
20
-7.92984058895834
30
0
41
1
10
16.2318996771023
20
-7.90136721406179
30
0
41
1
10
16.2544480369457
20
-7.84525619060489
30
0
41
1
10
16.2667060829124
20
-7.8176121423879
30
0
41
1
10
16.2941864751381
20
-7.76356374866918
30
0
41
1
10
16.3093426615533
20
-7.73713173439913
30
0
41
1
10
16.331647680339
20
-7.7054968156159
30
0
41
1
10
16.3362965993882
20
-7.69922976360172
30
0
41
1
10
16.3458855219581
20
-7.68705307206176
30
0
41
1
10
16.3508375517118
20
-7.68112447878974
30
0
41
1
10
16.366257074736
20
-7.66390994239401
30
0
41
1
10
16.3772667743436
20
-7.65317372103536
30
0
41
1
10
16.3955016783629
20
-7.63881358914122
30
0
41
1
10
16.4019102030707
20
-7.63429793642993
30
0
41
1
10
16.4153245221641
20
-7.62616747464563
30
0
41
1
10
16.4222563069459
20
-7.62259273519354
30
0
41
1
10
16.4366669189874
20
-7.61663777769999
30
0
41
1
10
16.444234430583
20
-7.61424365334338
30
0
41
1
10
16.4595114655378
20
-7.61105035823886
30
0
41
1
10
16.4672192694332
20
-7.61023159962957
30
0
41
1
10
16.475
20
-7.61023159962957
30
0
0
SPLINE
5
179
100
AcDbEntity
8
1
62
256
6
ByLayer
370
18
48
1
60
0
100
AcDbSpline
70
4
71
3
72
38
73
34
40
0
40
0
40
0
40
0
40
0.0156249999999986
40
0.0156249999999986
40
0.0312499999999972
40
0.0312499999999972
40
0.0468749999999958
40
0.0468749999999958
40
0.0624999999999944
40
0.0624999999999944
40
0.0937499999999971
40
0.0937499999999971
40
0.125
40
0.125
40
0.156250000000003
40
0.156250000000003
40
0.187500000000005
40
0.187500000000005
40
0.250000000000006
40
0.250000000000006
40
0.312500000000007
40
0.312500000000007
40
0.375000000000007
40
0.375000000000007
40
0.437500000000008
40
0.437500000000008
40
0.500000000000009
40
0.500000000000009
40
0.625000000000007
40
0.625000000000007
40
0.750000000000005
40
0.750000000000005
40
1
40
1
40
1
40
1
41
1
10
16.475
20
7.61023159962977
30
0
41
1
10
16.4673059832248
20
7.61023159962977
30
0
41
1
10
16.4595506338667
20
7.61104506279017
30
0
41
1
10
16.4442786040538
20
7.61423154393992
30
0
41
1
10
16.4368954364014
20
7.61656092892707
30
0
41
1
10
16.4225527998862
20
7.62245326379588
30
0
41
1
10
16.4155619748883
20
7.62604378110623
30
0
41
1
10
16.4023109051351
20
7.63403579357711
30
0
41
1
10
16.3959986363515
20
7.63845299817586
30
0
41
1
10
16.377799471236
20
7.65269639910829
30
0
41
1
10
16.3665715905153
20
7.66358909470219
30
0
41
1
10
16.3459547685037
20
7.68654622194509
30
0
41
1
10
16.3365048365685
20
7.69865254231976
30
0
41
1
10
16.3187707465794
20
7.72371764698099
30
0
41
1
10
16.3104936003352
20
7.73668155860378
30
0
41
1
10
16.2948182379467
20
7.76325209327339
30
0
41
1
10
16.2874346930323
20
7.77684564184355
30
0
41
1
10
16.2665535114736
20
7.81790723796521
30
0
41
1
10
16.2541961004758
20
7.84582812577969
30
0
41
1
10
16.2315150832526
20
7.90238083357099
30
0
41
1
10
16.2212092505707
20
7.93101886642717
30
0
41
1
10
16.2021275679482
20
7.98882974942069
30
0
41
1
10
16.1933574880052
20
8.01800461650521
30
0
41
1
10
16.1770509603439
20
8.07678557634395
30
0
41
1
10
16.1695168708873
20
8.1063924934468
30
0
41
1
10
16.1554957739586
20
8.1659723432453
30
0
41
1
10
16.1490199883054
20
8.19590927632822
30
0
41
1
10
16.1310739311434
20
8.28564847601615
30
0
41
1
10
16.1210248624714
20
8.34556702201556
30
0
41
1
10
16.1040360935154
20
8.46555416636721
30
0
41
1
10
16.097105395645
20
8.52562319915924
30
0
41
1
10
16.0805216136987
20
8.70603338285295
30
0
41
1
10
16.075
20
8.82657391085422
30
0
41
1
10
16.075
20
8.94738090169409
30
0
0
SPLINE
5
17A
100
AcDbEntity
8
1
62
256
6
ByLayer
370
18
48
1
60
0
100
AcDbSpline
70
4
71
3
72
32
73
28
40
0
40
0
40
0
40
0
40
0.125000000000008
40
0.125000000000008
40
0.250000000000017
40
0.250000000000017
40
0.281250000000021
40
0.281250000000021
40
0.312500000000026
40
0.312500000000026
40
0.37500000000003
40
0.37500000000003
40
0.50000000000004
40
0.50000000000004
40
0.562500000000041
40
0.562500000000041
40
0.593750000000039
40
0.593750000000039
40
0.625000000000037
40
0.625000000000037
40
0.750000000000025
40
0.750000000000025
40
0.875000000000014
40
0.875000000000014
40
0.937500000000007
40
0.937500000000007
40
1
40
1
40
1
40
1
41
1
10
16.475
20
21.1115331408446
30
0
41
1
10
16.4377742277507
20
21.1538775296866
30
0
41
1
10
16.4054459522828
20
21.200838332596
30
0
41
1
10
16.3497248646307
20
21.2993093819061
30
0
41
1
10
16.3263406077045
20
21.3508806922864
30
0
41
1
10
16.3026611933048
20
21.4161519086275
30
0
41
1
10
16.2982045468113
20
21.4292477138106
30
0
41
1
10
16.2898554507283
20
21.455473532548
30
0
41
1
10
16.2859594838725
20
21.4686193751549
30
0
41
1
10
16.2751999690725
20
21.5077667562006
30
0
41
1
10
16.2692366123242
20
21.5335517665318
30
0
41
1
10
16.2549058741041
20
21.6094617601546
30
0
41
1
10
16.2500826417254
20
21.6580701023619
30
0
41
1
10
16.24996025175
20
21.7269795525294
30
0
41
1
10
16.2511087461828
20
21.7492991797791
30
0
41
1
10
16.2546516605169
20
21.7818472878892
30
0
41
1
10
16.2561362275498
20
21.79254269297
30
0
41
1
10
16.2597214521259
20
21.8136474324661
30
0
41
1
10
16.2618259730673
20
21.824067405485
30
0
41
1
10
16.2738045976031
20
21.8751130477694
30
0
41
1
10
16.2880619456723
20
21.9128898476825
30
0
41
1
10
16.3256562265586
20
21.9859090225324
30
0
41
1
10
16.3489914527215
20
22.0211465682343
30
0
41
1
10
16.3911560454333
20
22.0751383411964
30
0
41
1
10
16.4063717963254
20
22.0932750563104
30
0
41
1
10
16.438992387945
20
22.1301973514886
30
0
41
1
10
16.4564203261801
20
22.1490099645129
30
0
41
1
10
16.4749999999985
20
22.1685182903894
30
0
0
SPLINE
5
17B
100
AcDbEntity
8
1
62
256
6
ByLayer
370
18
48
1
60
0
100
AcDbSpline
70
4
71
3
72
32
73
28
40
0
40
0
40
0
40
0
40
0.125000000000003
40
0.125000000000003
40
0.250000000000006
40
0.250000000000006
40
0.281250000000007
40
0.281250000000007
40
0.312500000000009
40
0.312500000000009
40
0.375000000000009
40
0.375000000000009
40
0.500000000000009
40
0.500000000000009
40
0.562500000000009
40
0.562500000000009
40
0.593750000000008
40
0.593750000000008
40
0.625000000000007
40
0.625000000000007
40
0.750000000000004
40
0.750000000000004
40
0.875000000000001
40
0.875000000000001
40
0.937500000000001
40
0.937500000000001
40
1
40
1
40
1
40
1
41
1
10
16.475
20
24.6330018489415
30
0
41
1
10
16.4377742277507
20
24.6623077531367
30
0
41
1
10
16.4054459522828
20
24.6965627445414
30
0
41
1
10
16.3497248646307
20
24.7694444079974
30
0
41
1
10
16.3263406077045
20
24.8081434631318
30
0
41
1
10
16.3026611933048
20
24.8568048447345
30
0
41
1
10
16.2982045468113
20
24.8665527438494
30
0
41
1
10
16.2898554507283
20
24.8860202573833
30
0
41
1
10
16.2859594838725
20
24.8957514255025
30
0
41
1
10
16.2751999690725
20
24.9246165869179
30
0
41
1
10
16.2692366123242
20
24.9434759940694
30
0
41
1
10
16.2549058741041
20
24.9983133881108
30
0
41
1
10
16.2500826417254
20
25.0324672039518
30
0
41
1
10
16.24996025175
20
25.0789173031414
30
0
41
1
10
16.2511087461828
20
25.093623667495
30
0
41
1
10
16.2546516605169
20
25.1145684586721
30
0
41
1
10
16.2561362275498
20
25.1213657277478
30
0
41
1
10
16.2597214521259
20
25.1346169866617
30
0
41
1
10
16.2618259730674
20
25.1410772085035
30
0
41
1
10
16.2738045976031
20
25.172357668224
30
0
41
1
10
16.2880619456723
20
25.1943030042349
30
0
41
1
10
16.3256562265586
20
25.2360046748196
30
0
41
1
10
16.3489914527215
20
25.255755519181
30
0
41
1
10
16.3911560454333
20
25.2871418463524
30
0
41
1
10
16.4063717963254
20
25.2978724321412
30
0
41
1
10
16.438992387945
20
25.3203995923332
30
0
41
1
10
16.4564203261801
20
25.3322099479255
30
0
41
1
10
16.4749999999985
20
25.3449590148044
30
0
0
SPLINE
5
17C
100
AcDbEntity
8
1
62
256
6
ByLayer
370
18
48
1
60
0
100
AcDbSpline
70
4
71
3
72
32
73
28
40
0
40
0
40
0
40
0
40
0.125000000000004
40
0.125000000000004
40
0.250000000000009
40
0.250000000000009
40
0.281250000000011
40
0.281250000000011
40
0.312500000000012
40
0.312500000000012
40
0.375000000000013
40
0.375000000000013
40
0.500000000000011
40
0.500000000000011
40
0.562500000000011
40
0.562500000000011
40
0.59375000000001
40
0.59375000000001
40
0.62500000000001
40
0.62500000000001
40
0.750000000000007
40
0.750000000000007
40
0.875000000000005
40
0.875000000000005
40
0.937500000000002
40
0.937500000000002
40
1
40
1
40
1
40
1
41
1
10
16.475
20
26.7932469531775
30
0
41
1
10
16.4377742277507
20
26.8078949237945
30
0
41
1
10
16.4054459522828
20
26.827551167416
30
0
41
1
10
16.3497248646307
20
26.8708159926922
30
0
41
1
10
16.3263406077045
20
26.8945042766329
30
0
41
1
10
16.3026611933048
20
26.9238667878026
30
0
41
1
10
16.2982045468113
20
26.9297281103922
30
0
41
1
10
16.2898554507283
20
26.9413615408255
30
0
41
1
10
16.2859594838725
20
26.9471402885575
30
0
41
1
10
16.2751999690725
20
26.9641281369275
30
0
41
1
10
16.2692366123242
20
26.9750197670575
30
0
41
1
10
16.2549058741041
20
27.0057542383923
30
0
41
1
10
16.2500826417254
20
27.0235661825663
30
0
41
1
10
16.24996025175
20
27.0449900909016
30
0
41
1
10
16.2511087461828
20
27.0512705163237
30
0
41
1
10
16.2546516605169
20
27.0594545780728
30
0
41
1
10
16.2561362275498
20
27.0619780929721
30
0
41
1
10
16.2597214521259
20
27.0666436046266
30
0
41
1
10
16.2618259730673
20
27.0687870824038
30
0
41
1
10
16.2738045976031
20
27.0785737963763
30
0
41
1
10
16.2880619456723
20
27.0834749657232
30
0
41
1
10
16.3256562265586
20
27.0915546910871
30
0
41
1
10
16.3489914527215
20
27.0947273993041
30
0
41
1
10
16.3911560454333
20
27.1017738672485
30
0
41
1
10
16.4063717963254
20
27.104505349833
30
0
41
1
10
16.438992387945
20
27.1113925205802
30
0
41
1
10
16.4564203261801
20
27.1155479766103
30
0
41
1
10
16.4749999999985
20
27.1208332690262
30
0
0
SPLINE
5
17D
100
AcDbEntity
8
1
62
256
6
ByLayer
370
18
48
1
60
0
100
AcDbSpline
70
4
71
3
72
8
73
4
40
0
40
0
40
0
40
0
40
1
40
1
40
1
40
1
41
1
10
16.075
20
9.01749999999998
30
0
41
1
10
15.5933771502786
20
9.01749999999998
30
0
41
1
10
15.1100404143128
20
9.01749999999998
30
0
41
1
10
14.6253876765866
20
9.01749999999998
30
0
0
SPLINE
5
17E
100
AcDbEntity
8
1
62
256
6
ByLayer
370
18
48
1
60
0
100
AcDbSpline
70
4
71
3
72
8
73
4
40
0
40
0
40
0
40
0
40
1
40
1
40
1
40
1
41
1
10
21.3746123234134
20
9.01749999999998
30
0
41
1
10
20.8899595856872
20
9.01749999999998
30
0
41
1
10
20.4066228497214
20
9.01749999999998
30
0
41
1
10
19.925
20
9.01749999999998
30
0
0
SPLINE
5
17F
100
AcDbEntity
8
1
62
256
6
ByLayer
370
18
48
1
60
0
100
AcDbSpline
70
4
71
3
72
8
73
4
40
0
40
0
40
0
40
0
40
1
40
1
40
1
40
1
41
1
10
25.45
20
-9.01749999999998
30
0
41
1
10
25.6167293283391
20
-9.01749999999998
30
0
41
1
10
25.7833972320879
20
-9.01749999999998
30
0
41
1
10
25.95
20
-9.01749999999998
30
0
0
SPLINE
5
180
100
AcDbEntity
8
1
62
256
6
ByLayer
370
18
48
1
60
0
100
AcDbSpline
70
4
71
3
72
8
73
4
40
0
40
0
40
0
40
0
40
1
40
1
40
1
40
1
41
1
10
14.6253876765866
20
-9.01749999999998
30
0
41
1
10
15.1100404143128
20
-9.01749999999998
30
0
41
1
10
15.5933771502786
20
-9.01749999999998
30
0
41
1
10
16.075
20
-9.01749999999998
30
0
0
SPLINE
5
181
100
AcDbEntity
8
1
62
256
6
ByLayer
370
18
48
1
60
0
100
AcDbSpline
70
4
71
3
72
8
73
4
40
0
40
0
40
0
40
0
40
1
40
1
40
1
40
1
41
1
10
25.95
20
9.01749999999998
30
0
41
1
10
25.7833972320879
20
9.01749999999998
30
0
41
1
10
25.6167293283391
20
9.01749999999998
30
0
41
1
10
25.45
20
9.01749999999998
30
0
0
SPLINE
5
182
100
AcDbEntity
8
1
62
256
6
ByLayer
370
18
48
1
60
0
100
AcDbSpline
70
4
71
3
72
8
73
4
40
0
40
0
40
0
40
0
40
1
40
1
40
1
40
1
41
1
10
19.925
20
-9.01749999999998
30
0
41
1
10
20.4066228497214
20
-9.01749999999998
30
0
41
1
10
20.8899595856872
20
-9.01749999999998
30
0
41
1
10
21.3746123234134
20
-9.01749999999998
30
0
0
SPLINE
5
183
100
AcDbEntity
8
1
62
256
6
ByLayer
370
18
48
1
60
0
100
AcDbSpline
70
4
71
3
72
92
73
88
40
0
40
0
40
0
40
0
40
0.0310097337062559
40
0.0310097337062559
40
0.0622674842318609
40
0.0622674842318609
40
0.0700819218632621
40
0.0700819218632621
40
0.0778963594946636
40
0.0935252347574661
40
0.0935252347574661
40
0.124782985283071
40
0.156040735808676
40
0.156040735808676
40
0.171669611071479
40
0.171669611071479
40
0.17948404870288
40
0.17948404870288
40
0.187298486334282
40
0.187298486334282
40
0.218556236859886
40
0.249813987385491
40
0.249813987385491
40
0.281071737911096
40
0.281071737911096
40
0.288886175542497
40
0.288886175542497
40
0.296700613173898
40
0.312329488436701
40
0.312329488436701
40
0.343587238962306
40
0.374844989487911
40
0.374844989487911
40
0.390473864750713
40
0.390473864750713
40
0.406102740013516
40
0.406102740013516
40
0.437360490539121
40
0.468618241064726
40
0.468618241064726
40
0.484247116327529
40
0.484247116327529
40
0.492061553958931
40
0.492061553958931
40
0.499875991590332
40
0.499875991590332
40
0.531133742115938
40
0.531133742115938
40
0.562391492641543
40
0.593649243167149
40
0.593649243167149
40
0.60146368079855
40
0.60146368079855
40
0.609278118429952
40
0.609278118429952
40
0.624906993692753
40
0.624906993692753
40
0.656164744218358
40
0.687422494743962
40
0.687422494743962
40
0.703051370006764
40
0.703051370006764
40
0.710865807638164
40
0.710865807638164
40
0.718680245269565
40
0.718680245269565
40
0.749937995795169
40
0.781195746320772
40
0.781195746320772
40
0.812453496846376
40
0.812453496846376
40
0.820267934477777
40
0.820267934477777
40
0.828082372109178
40
0.84371124737198
40
0.84371124737198
40
0.874968997897583
40
0.906226748423188
40
0.906226748423188
40
0.92185562368599
40
0.92185562368599
40
0.929670061317391
40
0.929670061317391
40
0.937484498948792
40
0.937484498948792
40
0.968742249474396
40
1
40
1
40
1
40
1
41
1
10
1.97750037663286
20
-31.4699999393364
30
0
41
1
10
1.97756339151959
20
-31.4699898365483
30
0
41
1
10
1.98551484825876
20
-31.4687179703952
30
0
41
1
10
2.01730937280206
20
-31.4636671626933
30
0
41
1
10
2.04127795135659
20
-31.4598681862222
30
0
41
1
10
2.08153601650164
20
-31.453562889898
30
0
41
1
10
2.09011165266981
20
-31.4522227654335
30
0
41
1
10
2.10827168240198
20
-31.4493929592187
30
0
41
1
10
2.13696000586685
20
-31.4449341796747
30
0
41
1
10
2.16993698319737
20
-31.4398528407364
30
0
41
1
10
2.24150765554458
20
-31.4289101170974
30
0
41
1
10
2.35188687819709
20
-31.4122426878448
30
0
41
1
10
2.49176593374276
20
-31.3919367374494
30
0
41
1
10
2.60791227551187
20
-31.3755375942001
30
0
41
1
10
2.64850394072769
20
-31.3698763022901
30
0
41
1
10
2.71225980213762
20
-31.3611171139302
30
0
41
1
10
2.73400711866773
20
-31.3581506018445
30
0
41
1
10
2.77822476648203
20
-31.3521657948335
30
0
41
1
10
2.80072129528506
20
-31.3491438667888
30
0
41
1
10
2.91512268842069
20
-31.3339010395864
30
0
41
1
10
3.110410493823
20
-31.3086675680832
30
0
41
1
10
3.32963542839082
20
-31.2824834550234
30
0
41
1
10
3.5609060914995
20
-31.2561923774597
30
0
41
1
10
3.68256306876467
20
-31.2429927112997
30
0
41
1
10
3.84243907564686
20
-31.2266644551091
30
0
41
1
10
3.87472487556389
20
-31.2234157545487
30
0
41
1
10
3.93975854023157
20
-31.2169733353643
30
0
41
1
10
4.0380749178203
20
-31.2073847672348
30
0
41
1
10
4.13866541037291
20
-31.1980453648337
30
0
41
1
10
4.34284019785648
20
-31.1797607166675
30
0
41
1
10
4.62304460804577
20
-31.1564353752979
30
0
41
1
10
4.9191359297362
20
-31.1358689791426
30
0
41
1
10
5.14731741056485
20
-31.1217297646122
30
0
41
1
10
5.22445333435138
20
-31.1172280774846
30
0
41
1
10
5.38058952085885
20
-31.1087095130006
30
0
41
1
10
5.45903364297612
20
-31.1047226852131
30
0
41
1
10
5.69547230984654
20
-31.0936067835141
30
0
41
1
10
6.01366846567373
20
-31.0810392971748
30
0
41
1
10
6.3376537235001
20
-31.0732583643421
30
0
41
1
10
6.58283766472411
20
-31.0693215314281
30
0
41
1
10
6.66493211259382
20
-31.0683257337552
30
0
41
1
10
6.78863246663741
20
-31.0673199664703
30
0
41
1
10
6.82995907463112
20
-31.0670660348637
30
0
41
1
10
6.91280063734555
20
-31.0667230622595
30
0
41
1
10
6.9543753438125
20
-31.0666340943484
30
0
41
1
10
7.16182456343196
20
-31.066606483899
30
0
41
1
10
7.32644490609971
20
-31.0679141759137
30
0
41
1
10
7.65309721813617
20
-31.0730634495985
30
0
41
1
10
7.9771601916089
20
-31.0807462591924
30
0
41
1
10
8.29607400826683
20
-31.0932508442756
30
0
41
1
10
8.49374875802542
20
-31.1024937827678
30
0
41
1
10
8.53320120061892
20
-31.1044137335573
30
0
41
1
10
8.61193936183878
20
-31.1083943059261
30
0
41
1
10
8.65119518825313
20
-31.1104536486322
30
0
41
1
10
8.76806259088482
20
-31.1168023223985
30
0
41
1
10
8.84498475347803
20
-31.1212727187844
30
0
41
1
10
9.07284302572177
20
-31.1353354903533
30
0
41
1
10
9.36891313137437
20
-31.155819863118
30
0
41
1
10
9.64979023957287
20
-31.179131978018
30
0
41
1
10
9.85469305689946
20
-31.1974364076416
30
0
41
1
10
9.92203311435605
20
-31.2036745837146
30
0
41
1
10
10.0215784679151
20
-31.2132061674463
30
0
41
1
10
10.0545503640593
20
-31.2164158165903
30
0
41
1
10
10.1198393490693
20
-31.222872002295
30
0
41
1
10
10.1521018977693
20
-31.2261130150734
30
0
41
1
10
10.3115268280287
20
-31.2423678749674
30
0
41
1
10
10.5545609571191
20
-31.2686864633103
30
0
41
1
10
10.7741766920927
20
-31.2948744051435
30
0
41
1
10
10.9820729655368
20
-31.3206267407507
30
0
41
1
10
11.0801623345576
20
-31.3332857459614
30
0
41
1
10
11.1952227769773
20
-31.3486007299242
30
0
41
1
10
11.2178835339078
20
-31.3516419476272
30
0
41
1
10
11.2622202024702
20
-31.3576375074302
30
0
41
1
10
11.3273032083542
20
-31.366507914615
30
0
41
1
10
11.3881706482481
20
-31.3749894809689
30
0
41
1
10
11.504372722589
20
-31.3913827547872
30
0
41
1
10
11.6445789767551
20
-31.4117179426263
30
0
41
1
10
11.7556008881709
20
-31.4284723936981
30
0
41
1
10
11.827702498995
20
-31.4394901521919
30
0
41
1
10
11.8498721974364
20
-31.4429046565356
30
0
41
1
10
11.8802705099091
20
-31.4476125292449
30
0
41
1
10
11.8899278316337
20
-31.44911296944
30
0
41
1
10
11.9081934090391
20
-31.451958204642
30
0
41
1
10
11.9168144080131
20
-31.453304968996
30
0
41
1
10
11.9573777187122
20
-31.4596561495609
30
0
41
1
10
12.0060441892134
20
-31.4673675972862
30
0
41
1
10
12.0225079003572
20
-31.4700012637862
30
0
41
1
10
12.022501543038
20
-31.4700002468367
30
0
0
SPLINE
5
184
100
AcDbEntity
8
1
62
256
6
ByLayer
370
18
48
1
60
0
100
AcDbSpline
70
4
71
3
72
54
73
50
40
0
40
0
40
0
40
0
40
0.0624999999999994
40
0.0624999999999994
40
0.124999999999999
40
0.187499999999998
40
0.187499999999998
40
0.203124999999998
40
0.203124999999998
40
0.218749999999998
40
0.218749999999998
40
0.249999999999998
40
0.249999999999998
40
0.312499999999997
40
0.312499999999997
40
0.374999999999996
40
0.374999999999996
40
0.406249999999996
40
0.406249999999996
40
0.421874999999995
40
0.421874999999995
40
0.437499999999995
40
0.437499999999995
40
0.499999999999994
40
0.499999999999994
40
0.562499999999993
40
0.562499999999993
40
0.624999999999993
40
0.624999999999993
40
0.632812499999993
40
0.632812499999993
40
0.640624999999993
40
0.640624999999993
40
0.656249999999993
40
0.687499999999994
40
0.687499999999994
40
0.749999999999995
40
0.749999999999995
40
0.812499999999996
40
0.812499999999996
40
0.843749999999997
40
0.843749999999997
40
0.859374999999997
40
0.859374999999997
40
0.874999999999998
40
0.874999999999998
40
0.937499999999999
40
0.937499999999999
40
1
40
1
40
1
40
1
41
1
10
4.94999999999999
20
-1.01749999999998
30
0
41
1
10
4.94999999999999
20
-1.28321855847429
30
0
41
1
10
4.96320332389666
20
-1.54647828246479
30
0
41
1
10
5.0149762347682
20
-2.06827924129732
30
0
41
1
10
5.09212212659659
20
-2.58536053825858
30
0
41
1
10
5.21948587240465
20
-3.09313699258192
30
0
41
1
10
5.31508247467499
20
-3.40755318593651
30
0
41
1
10
5.33500338384488
20
-3.47028890645566
30
0
41
1
10
5.37646363542584
20
-3.59546311419675
30
0
41
1
10
5.39802901009426
20
-3.65796920082073
30
0
41
1
10
5.4648193209535
20
-3.844060442211
30
0
41
1
10
5.5122151193039
20
-3.96647828372355
30
0
41
1
10
5.66282464693495
20
-4.32892609327459
30
0
41
1
10
5.77443936590146
20
-4.56416189269126
30
0
41
1
10
6.0196425271485
20
-5.02220052478143
30
0
41
1
10
6.15323143214724
20
-5.2450028861164
30
0
41
1
10
6.37027058357381
20
-5.56987539213148
30
0
41
1
10
6.44539813617322
20
-5.67660825317353
30
0
41
1
10
6.56233213376078
20
-5.83434367724729
30
0
41
1
10
6.60201833431029
20
-5.88652893035422
30
0
41
1
10
6.6828189562687
20
-5.99010049849716
30
0
41
1
10
6.7237706850573
20
-6.04127832596558
30
0
41
1
10
6.93125749590902
20
-6.29416761133785
30
0
41
1
10
7.10595541319907
20
-6.4869033638542
30
0
41
1
10
7.47238623578693
20
-6.85384969301535
30
0
41
1
10
7.66412003569914
20
-7.02805892704066
30
0
41
1
10
8.06477337455669
20
-7.35799733305558
30
0
41
1
10
8.27369116965085
20
-7.51372802161063
30
0
41
1
10
8.51877817503413
20
-7.67823185216687
30
0
41
1
10
8.54615008531209
20
-7.69636114193926
30
0
41
1
10
8.60117596137886
20
-7.73232015436852
30
0
41
1
10
8.62884835323041
20
-7.75016141959912
30
0
41
1
10
8.71208932669376
20
-7.80310524245471
30
0
41
1
10
8.8795670698747
20
-7.90674236584749
30
0
41
1
10
9.05000565221562
20
-8.00370512017483
30
0
41
1
10
9.39478841653238
20
-8.1888696162174
30
0
41
1
10
9.62984181097744
20
-8.30065288803254
30
0
41
1
10
10.1103513205057
20
-8.50109283817849
30
0
41
1
10
10.3558070141257
20
-8.58975020852355
30
0
41
1
10
10.7320238627841
20
-8.70500833962814
30
0
41
1
10
10.8587707514647
20
-8.74046753265898
30
0
41
1
10
11.0509551214302
20
-8.78911472084704
30
0
41
1
10
11.1154358596218
20
-8.80458980929043
30
0
41
1
10
11.2447145247582
20
-8.83391828020004
30
0
41
1
10
11.3094560341208
20
-8.84776115965207
30
0
41
1
10
11.6336717540774
20
-8.91289544712026
30
0
41
1
10
11.8946670010514
20
-8.95197672780171
30
0
41
1
10
12.4198900458876
20
-9.00427858208477
30
0
41
1
10
12.6841177347867
20
-9.01749999999998
30
0
41
1
10
12.95
20
-9.01749999999998
30
0
0
SPLINE
5
185
100
AcDbEntity
8
1
62
256
6
ByLayer
370
18
48
1
60
0
100
AcDbSpline
70
4
71
3
72
53
73
49
40
0
40
0
40
0
40
0
40
0.0624999999999989
40
0.0624999999999989
40
0.124999999999998
40
0.124999999999998
40
0.187499999999997
40
0.187499999999997
40
0.203124999999996
40
0.203124999999996
40
0.218749999999996
40
0.218749999999996
40
0.249999999999996
40
0.249999999999996
40
0.312499999999996
40
0.312499999999996
40
0.374999999999995
40
0.374999999999995
40
0.406249999999995
40
0.406249999999995
40
0.421874999999995
40
0.421874999999995
40
0.437499999999995
40
0.437499999999995
40
0.499999999999996
40
0.499999999999996
40
0.562499999999997
40
0.562499999999997
40
0.624999999999997
40
0.624999999999997
40
0.640624999999997
40
0.640624999999997
40
0.656249999999997
40
0.687499999999998
40
0.687499999999998
40
0.749999999999998
40
0.749999999999998
40
0.812499999999998
40
0.812499999999998
40
0.843749999999998
40
0.843749999999998
40
0.859374999999998
40
0.859374999999998
40
0.874999999999999
40
0.874999999999999
40
0.937499999999999
40
0.937499999999999
40
1
40
1
40
1
40
1
41
1
10
12.95
20
9.01749999999998
30
0
41
1
10
12.6841313593866
20
9.01749999999998
30
0
41
1
10
12.420647498405
20
9.00428156970125
30
0
41
1
10
11.8982638705435
20
8.95240674343816
30
0
41
1
10
11.6393646026072
20
8.91374750647225
30
0
41
1
10
11.1260959657865
20
8.81120668567581
30
0
41
1
10
10.8717264718107
20
8.74732597816791
30
0
41
1
10
10.5566391253124
20
8.65138257248142
30
0
41
1
10
10.4937656966583
20
8.63138737236397
30
0
41
1
10
10.3683093033381
20
8.58976789137341
30
0
41
1
10
10.3057219374419
20
8.56813881087706
30
0
41
1
10
10.1194618268704
20
8.5011799335789
30
0
41
1
10
9.99692951457195
20
8.45366383802914
30
0
41
1
10
9.63413312205708
20
8.30266702069591
30
0
41
1
10
9.39865793344254
20
8.19075902287267
30
0
41
1
10
8.94013129968297
20
7.94488251355753
30
0
41
1
10
8.7170802774682
20
7.81091356129224
30
0
41
1
10
8.39183435684626
20
7.59322393486906
30
0
41
1
10
8.28497698908882
20
7.51786612484557
30
0
41
1
10
8.1270559476547
20
7.40056435266712
30
0
41
1
10
8.07474052483525
20
7.36069734775228
30
0
41
1
10
7.97132476718412
20
7.27985582419754
30
0
41
1
10
7.92022166488195
20
7.23888285633782
30
0
41
1
10
7.66769106088228
20
7.0312848482161
30
0
41
1
10
7.47519443651623
20
6.85648182027413
30
0
41
1
10
7.10865483934171
20
6.4897839262504
30
0
41
1
10
6.93461315369413
20
6.29788822220127
30
0
41
1
10
6.60496316861745
20
5.89683256668064
30
0
41
1
10
6.44935329682477
20
5.68767442292131
30
0
41
1
10
6.26671018689765
20
5.41499312879887
30
0
41
1
10
6.23077961689893
20
5.35989299353488
30
0
41
1
10
6.16050409576215
20
5.24917163581006
30
0
41
1
10
6.05731623933841
20
5.08208211556715
30
0
41
1
10
5.9607330741635
20
4.91199460890078
30
0
41
1
10
5.7762484438189
20
4.56785917726438
30
0
41
1
10
5.66481288123555
20
4.33316429088495
30
0
41
1
10
5.46492163805172
20
3.85319796712466
30
0
41
1
10
5.37646500709747
20
3.60792711119188
30
0
41
1
10
5.26144287268465
20
3.23183410459839
30
0
41
1
10
5.22605148530559
20
3.10510288766176
30
0
41
1
10
5.17749558495797
20
2.91290015213357
30
0
41
1
10
5.16207042207299
20
2.84848838315375
30
0
41
1
10
5.13289039673245
20
2.71960546691344
30
0
41
1
10
5.11911462028144
20
2.65505406706944
30
0
41
1
10
5.05428379043076
20
2.33174958961254
30
0
41
1
10
5.0153430130141
20
2.07135768861204
30
0
41
1
10
4.96320171145763
20
1.54707589362408
30
0
41
1
10
4.94999999999999
20
1.28318616959129
30
0
41
1
10
4.94999999999999
20
1.01750000000001
30
0
0
SPLINE
5
186
100
AcDbEntity
8
1
62
256
6
ByLayer
370
13
48
1
60
0
100
AcDbSpline
70
4
71
3
72
47
73
43
40
0
40
0
40
0
40
0
40
0.0329369950918091
40
0.0329369950918091
40
0.0658739901836183
40
0.0658739901836183
40
0.131747980367237
40
0.197621970550855
40
0.197621970550855
40
0.230558965642666
40
0.24702746318857
40
0.24702746318857
40
0.263495960734473
40
0.263495960734473
40
0.329369950918093
40
0.395243941101714
40
0.461117931285334
40
0.461117931285334
40
0.477586428831242
40
0.477586428831242
40
0.49405492637715
40
0.49405492637715
40
0.526991921468964
40
0.526991921468964
40
0.592865911652594
40
0.658739901836223
40
0.658739901836223
40
0.691676896928036
40
0.691676896928036
40
0.724613892019848
40
0.724613892019848
40
0.790487882203473
40
0.856361872387098
40
0.856361872387098
40
0.922235862570722
40
0.922235862570722
40
0.938704360116627
40
0.938704360116627
40
0.955172857662532
40
0.988109852754338
40
0.988109852754338
40
1
40
1
40
1
40
1
41
1
10
49.5
20
19.4336747188519
30
0
41
1
10
49.4488196871585
20
19.4336747188519
30
0
41
1
10
49.3976621063398
20
19.4326627409075
30
0
41
1
10
49.2954366546693
20
19.4286158847225
30
0
41
1
10
49.2445951230435
20
19.4255903124914
30
0
41
1
10
49.0928672822023
20
19.4135669200205
30
0
41
1
10
48.8926844029348
20
19.3896927893246
30
0
41
1
10
48.6966593991322
20
19.3503934001206
30
0
41
1
10
48.5512127435846
20
19.3150559633507
30
0
41
1
10
48.478883122889
20
19.2959188045127
30
0
41
1
10
48.4071529156981
20
19.2745385911622
30
0
41
1
10
48.3594674389514
20
19.2597802698108
30
0
41
1
10
48.3356666777235
20
19.2521402705183
30
0
41
1
10
48.2173024431551
20
19.2127610060199
30
0
41
1
10
48.0332042014288
20
19.1426467011808
30
0
41
1
10
47.7724161523277
20
19.0166209921778
30
0
41
1
10
47.6087666386975
20
18.9185934197346
30
0
41
1
10
47.5097600784136
20
18.8527807459337
30
0
41
1
10
47.4901228691134
20
18.8393903868722
30
0
41
1
10
47.4511803481161
20
18.8121475400288
30
0
41
1
10
47.4318541064045
20
18.7982789689188
30
0
41
1
10
47.3746689122752
20
18.7561857211711
30
0
41
1
10
47.337527491012
20
18.7274241360345
30
0
41
1
10
47.2289980535335
20
18.639061999495
30
0
41
1
10
47.0919978426606
20
18.5157159228193
30
0
41
1
10
46.970210982995
20
18.3812885642567
30
0
41
1
10
46.8846692241807
20
18.2761848733134
30
0
41
1
10
46.8571234531067
20
18.2404351673165
30
0
41
1
10
46.8040059788671
20
18.1674679452661
30
0
41
1
10
46.7783846057255
20
18.1301644700238
30
0
41
1
10
46.7053037487823
20
18.0171792601767
30
0
41
1
10
46.6174657290078
20
17.8631042568838
30
0
41
1
10
46.548378416668
20
17.7022138638628
30
0
41
1
10
46.4887161323906
20
17.5378473837715
30
0
41
1
10
46.4635965739711
20
17.4539264921194
30
0
41
1
10
46.4382959481094
20
17.3467519249612
30
0
41
1
10
46.433539087301
20
17.3251867902847
30
0
41
1
10
46.4246916643938
20
17.2820700199464
30
0
41
1
10
46.4123987810576
20
17.2173309405732
30
0
41
1
10
46.4030078848119
20
17.1524004399249
30
0
41
1
10
46.3962158852128
20
17.0933713935766
30
0
41
1
10
46.3945795714725
20
17.0777032092164
30
0
41
1
10
46.3931082325037
20
17.0620239585981
30
0
0
SPLINE
5
187
100
AcDbEntity
8
1
62
256
6
ByLayer
370
18
48
1
60
0
100
AcDbSpline
70
4
71
3
72
47
73
43
40
0
40
0
40
0
40
0
40
0.0487233051339075
40
0.10817809856304
40
0.10817809856304
40
0.137905495277607
40
0.137905495277607
40
0.167632891992172
40
0.167632891992172
40
0.227087685421304
40
0.286542478850435
40
0.286542478850435
40
0.316269875565001
40
0.331133573922285
40
0.331133573922285
40
0.345997272279569
40
0.345997272279569
40
0.405452065708702
40
0.405452065708702
40
0.464906859137835
40
0.524361652566967
40
0.524361652566967
40
0.53922535092425
40
0.53922535092425
40
0.554089049281532
40
0.554089049281532
40
0.583816445996096
40
0.583816445996096
40
0.643271239425227
40
0.702726032854358
40
0.702726032854358
40
0.732453429568925
40
0.747317127926207
40
0.747317127926207
40
0.762180826283488
40
0.762180826283488
40
0.821635619712616
40
0.821635619712616
40
0.881090413141744
40
0.940545206570872
40
0.940545206570872
40
1
40
1
40
1
40
1
41
1
10
46.3931082343376
20
17.0620239781416
30
0
41
1
10
46.3864280356124
20
16.9908367790061
30
0
41
1
10
46.3791467585478
20
16.8322766632795
30
0
41
1
10
46.3885135415293
20
16.6725900814491
30
0
41
1
10
46.4039368256036
20
16.5404288647011
30
0
41
1
10
46.4103678828372
20
16.496266208105
30
0
41
1
10
46.4258417059755
20
16.4078618386675
30
0
41
1
10
46.4348234481144
20
16.3639608690638
30
0
41
1
10
46.4654177691522
20
16.2331455401316
30
0
41
1
10
46.5159233939286
20
16.0610869714397
30
0
41
1
10
46.5854034377469
20
15.8937089747509
30
0
41
1
10
46.644670684969
20
15.7699747484833
30
0
41
1
10
46.6760967509868
20
15.7085583729273
30
0
41
1
10
46.7102493014751
20
15.647835150775
30
0
41
1
10
46.7336299625277
20
15.6075095838948
30
0
41
1
10
46.7456443348075
20
15.5873964516781
30
0
41
1
10
46.8069834417649
20
15.4876795916504
30
0
41
1
10
46.8601189604749
20
15.4105475380946
30
0
41
1
10
46.974218467803
20
15.261429966361
30
0
41
1
10
47.0961482272573
20
15.1174599110081
30
0
41
1
10
47.2336148653113
20
14.9838298230029
30
0
41
1
10
47.3244908484205
20
14.90365330163
30
0
41
1
10
47.3429145966941
20
14.8877855174189
30
0
41
1
10
47.3802641850856
20
14.8563894186832
30
0
41
1
10
47.3992117067314
20
14.840844495953
30
0
41
1
10
47.4565128302582
20
14.7949652018711
30
0
41
1
10
47.4953980237724
20
14.7653207675794
30
0
41
1
10
47.614064078141
20
14.6791655977402
30
0
41
1
10
47.7776371728116
20
14.5716874562581
30
0
41
1
10
47.951702860022
20
14.4788281299174
30
0
41
1
10
48.0862223546013
20
14.4147566005784
30
0
41
1
10
48.154476381286
20
14.3841164449134
30
0
41
1
10
48.2242449209357
20
14.3556093456937
30
0
41
1
10
48.2710976185899
20
14.3370847063881
30
0
41
1
10
48.2947140301876
20
14.3280558617456
30
0
41
1
10
48.4129512385064
20
14.2843803405947
30
0
41
1
10
48.5085436563217
20
14.2539194731188
30
0
41
1
10
48.7016530262942
20
14.201633968953
30
0
41
1
10
48.8966874412273
20
14.1579868164278
30
0
41
1
10
49.0955245006577
20
14.1314591526326
30
0
41
1
10
49.2962925707934
20
14.1136422750307
30
0
41
1
10
49.3976418401328
20
14.109088041837
30
0
41
1
10
49.5
20
14.109088041837
30
0
0
SPLINE
5
188
100
AcDbEntity
8
1
62
256
6
ByLayer
370
18
48
1
60
0
100
AcDbSpline
70
4
71
3
72
48
73
44
40
0
40
0
40
0
40
0
40
0.0297450857138731
40
0.0297450857138731
40
0.0594901714277462
40
0.0594901714277462
40
0.118980342855492
40
0.178470514283239
40
0.178470514283239
40
0.208215599997113
40
0.223088142854049
40
0.223088142854049
40
0.237960685710985
40
0.237960685710985
40
0.297450857138734
40
0.356941028566484
40
0.416431199994234
40
0.416431199994234
40
0.431303742851172
40
0.431303742851172
40
0.446176285708111
40
0.446176285708111
40
0.475921371421985
40
0.475921371421985
40
0.535411542849735
40
0.594901714277484
40
0.594901714277484
40
0.624646799991358
40
0.624646799991358
40
0.654391885705232
40
0.654391885705232
40
0.713882057132977
40
0.773372228560723
40
0.773372228560723
40
0.832862399988468
40
0.832862399988468
40
0.847734942845405
40
0.847734942845405
40
0.862607485702341
40
0.892352571416213
40
0.892352571416213
40
0.951842742843954
40
1
40
1
40
1
40
1
41
1
10
49.5
20
-14.1090880418369
30
0
41
1
10
49.4488196871585
20
-14.1090880418369
30
0
41
1
10
49.3976621063398
20
-14.110229209684
30
0
41
1
10
49.2954366546693
20
-14.1147916756836
30
0
41
1
10
49.2445951230435
20
-14.1182024759986
30
0
41
1
10
49.0928672822023
20
-14.1317517719819
30
0
41
1
10
48.8926844029348
20
-14.1586475137895
30
0
41
1
10
48.6966593991322
20
-14.2028187103216
30
0
41
1
10
48.5512127435846
20
-14.242457412895
30
0
41
1
10
48.478883122889
20
-14.2639070476507
30
0
41
1
10
48.4071529156981
20
-14.2878335673093
30
0
41
1
10
48.3594674389514
20
-14.3043403686434
30
0
41
1
10
48.3356666777235
20
-14.3128810754177
30
0
41
1
10
48.2173024431551
20
-14.3568769227616
30
0
41
1
10
48.033204612033
20
-14.4350519165021
30
0
41
1
10
47.7724161523277
20
-14.5747826488534
30
0
41
1
10
47.6087666386975
20
-14.6827625677172
30
0
41
1
10
47.5097600784136
20
-14.7549667250283
30
0
41
1
10
47.4901228691134
20
-14.7696439295613
30
0
41
1
10
47.4511803481161
20
-14.7994754027176
30
0
41
1
10
47.4318541064045
20
-14.8146472193682
30
0
41
1
10
47.3746689122752
20
-14.8606493347251
30
0
41
1
10
47.337527491012
20
-14.8920205094467
30
0
41
1
10
47.2289980535335
20
-14.9881940828384
30
0
41
1
10
47.091997915176
20
-15.1219089713307
30
0
41
1
10
46.970210982995
20
-15.2663192329985
30
0
41
1
10
46.8846692241807
20
-15.378655549569
30
0
41
1
10
46.8571234531067
20
-15.4167736589177
30
0
41
1
10
46.804005978867
20
-15.4943737666013
30
0
41
1
10
46.7783846057255
20
-15.5339462997773
30
0
41
1
10
46.7053037487823
20
-15.6534860926516
30
0
41
1
10
46.6174657290078
20
-15.8156661463658
30
0
41
1
10
46.548378416668
20
-15.9831930556234
30
0
41
1
10
46.4887161323906
20
-16.1533629780554
30
0
41
1
10
46.4635965739711
20
-16.2397692282087
30
0
41
1
10
46.4382959481094
20
-16.3494659430042
30
0
41
1
10
46.433539087301
20
-16.3715065086519
30
0
41
1
10
46.4246916643938
20
-16.4155092984927
30
0
41
1
10
46.4123987810576
20
-16.4814822816022
30
0
41
1
10
46.4030078848119
20
-16.5473609259153
30
0
41
1
10
46.3880365050321
20
-16.6789909393321
30
0
41
1
10
46.3791530878743
20
-16.8374732245067
30
0
41
1
10
46.3867346973183
20
-16.9953924140498
30
0
41
1
10
46.3934776934291
20
-17.0659267053635
30
0
0
SPLINE
5
189
100
AcDbEntity
8
1
62
256
6
ByLayer
370
13
48
1
60
0
100
AcDbSpline
70
4
71
3
72
46
73
42
40
0
40
0
40
0
40
0
40
0.0125407961137592
40
0.0125407961137592
40
0.045456102909971
40
0.045456102909971
40
0.0783714097061828
40
0.0783714097061828
40
0.144202023298608
40
0.210032636891033
40
0.210032636891033
40
0.242947943687245
40
0.259405597085351
40
0.259405597085351
40
0.275863250483458
40
0.275863250483458
40
0.341693864075878
40
0.341693864075878
40
0.407524477668298
40
0.473355091260719
40
0.473355091260719
40
0.489812744658822
40
0.489812744658822
40
0.506270398056925
40
0.506270398056925
40
0.539185704853129
40
0.539185704853129
40
0.605016318445543
40
0.670846932037956
40
0.670846932037956
40
0.703762238834164
40
0.720219892232266
40
0.720219892232266
40
0.736677545630368
40
0.736677545630368
40
0.802508159222776
40
0.802508159222776
40
0.868338772815184
40
0.934169386407592
40
0.934169386407592
40
1
40
1
40
1
40
1
41
1
10
46.3934776844297
20
-17.0659266112267
30
0
41
1
10
46.3950645253763
20
-17.0825255754564
30
0
41
1
10
46.3968369638034
20
-17.0991183043775
30
0
41
1
10
46.4039368256036
20
-17.1592386839337
30
0
41
1
10
46.4103678828372
20
-17.2027522364575
30
0
41
1
10
46.4258417059755
20
-17.2896015209355
30
0
41
1
10
46.4348234481144
20
-17.3326026617505
30
0
41
1
10
46.4654177691522
20
-17.4603697656643
30
0
41
1
10
46.5159233939286
20
-17.627434278681
30
0
41
1
10
46.5854034377469
20
-17.7881432006992
30
0
41
1
10
46.6446706849691
20
-17.9063152093287
30
0
41
1
10
46.6760967509868
20
-17.9648104039624
30
0
41
1
10
46.7102493014751
20
-18.0224153305508
30
0
41
1
10
46.7336299625276
20
-18.0606197096102
30
0
41
1
10
46.7456443348075
20
-18.0796494809831
30
0
41
1
10
46.8069834417649
20
-18.1738725607912
30
0
41
1
10
46.8601189604749
20
-18.2463615373649
30
0
41
1
10
46.974218467803
20
-18.3858466004694
30
0
41
1
10
47.0961482272573
20
-18.5198372863417
30
0
41
1
10
47.2336148653113
20
-18.6430826431752
30
0
41
1
10
47.3244908484206
20
-18.7167329900424
30
0
41
1
10
47.3429145966941
20
-18.7312937754253
30
0
41
1
10
47.3802641850856
20
-18.7600747056973
30
0
41
1
10
47.3992117067315
20
-18.7743100162571
30
0
41
1
10
47.4565128302582
20
-18.8162828009841
30
0
41
1
10
47.4953980237724
20
-18.8433473935331
30
0
41
1
10
47.614064078141
20
-18.9218627647558
30
0
41
1
10
47.7776371728116
20
-19.019420661719
30
0
41
1
10
47.9517028600219
20
-19.1031617159022
30
0
41
1
10
48.0862223546013
20
-19.1607953389882
30
0
41
1
10
48.154476381286
20
-19.1883167982221
30
0
41
1
10
48.2242449209357
20
-19.2138748925244
30
0
41
1
10
48.2710976185899
20
-19.2304734417011
30
0
41
1
10
48.2947140301876
20
-19.2385585002581
30
0
41
1
10
48.4129512385064
20
-19.2776470523597
30
0
41
1
10
48.5085436563217
20
-19.3048391127624
30
0
41
1
10
48.7016530262942
20
-19.3514480586668
30
0
41
1
10
48.8966874412273
20
-19.3902795251031
30
0
41
1
10
49.0955245006577
20
-19.4138266420576
30
0
41
1
10
49.2962925707934
20
-19.4296368915781
30
0
41
1
10
49.3976418401328
20
-19.4336747188518
30
0
41
1
10
49.5
20
-19.4336747188518
30
0
0
SPLINE
5
18A
100
AcDbEntity
8
1
62
256
6
ByLayer
370
13
48
1
60
0
100
AcDbSpline
70
4
71
3
72
85
73
81
40
0
40
0
40
0
40
0
40
0.0312499999999985
40
0.0312499999999985
40
0.062499999999997
40
0.0937499999999955
40
0.0937499999999955
40
0.109374999999994
40
0.109374999999994
40
0.124999999999992
40
0.124999999999992
40
0.14062499999999
40
0.14062499999999
40
0.156249999999988
40
0.156249999999988
40
0.187499999999985
40
0.218749999999981
40
0.218749999999981
40
0.23437499999998
40
0.23437499999998
40
0.24218749999998
40
0.24218749999998
40
0.249999999999979
40
0.281249999999975
40
0.312499999999971
40
0.312499999999971
40
0.343749999999967
40
0.343749999999967
40
0.351562499999966
40
0.351562499999966
40
0.359374999999965
40
0.374999999999966
40
0.374999999999966
40
0.406249999999969
40
0.437499999999972
40
0.437499999999972
40
0.453124999999974
40
0.453124999999974
40
0.468749999999976
40
0.468749999999976
40
0.499999999999979
40
0.531249999999982
40
0.531249999999982
40
0.546874999999983
40
0.554687499999984
40
0.554687499999984
40
0.562499999999985
40
0.562499999999985
40
0.593749999999987
40
0.593749999999987
40
0.624999999999989
40
0.656249999999992
40
0.656249999999992
40
0.671874999999992
40
0.671874999999992
40
0.687499999999993
40
0.687499999999993
40
0.718749999999996
40
0.749999999999999
40
0.749999999999999
40
0.765625
40
0.765625
40
0.773437500000001
40
0.773437500000001
40
0.781250000000002
40
0.812500000000005
40
0.843750000000008
40
0.87500000000001
40
0.87500000000001
40
0.88281250000001
40
0.88281250000001
40
0.890625000000009
40
0.906250000000008
40
0.906250000000008
40
0.937500000000006
40
0.968750000000004
40
0.968750000000004
40
0.984375000000002
40
0.984375000000002
40
1
40
1
40
1
40
1
41
1
10
49.5
20
13.9986125519229
30
0
41
1
10
49.3910077262519
20
13.9986125519229
30
0
41
1
10
49.28292814498
20
14.0034914052126
30
0
41
1
10
49.0685307842351
20
14.0226608339467
30
0
41
1
10
48.8558956459187
20
14.0512441678272
30
0
41
1
10
48.6467611565585
20
14.0984926386712
30
0
41
1
10
48.4912518933784
20
14.1410600616604
30
0
41
1
10
48.4396008999345
20
14.1564522819556
30
0
41
1
10
48.3369226131682
20
14.1896117857656
30
0
41
1
10
48.286068093515
20
14.2073213114952
30
0
41
1
10
48.18532774563
20
14.2449931645957
30
0
41
1
10
48.1355099633862
20
14.2649344909318
30
0
41
1
10
48.0374721539114
20
14.3067811450518
30
0
41
1
10
47.9891768141987
20
14.3287140497789
30
0
41
1
10
47.8464276425141
20
14.3974845872799
30
0
41
1
10
47.6617837693993
20
14.4970899885268
30
0
41
1
10
47.4884064648637
20
14.6122533251823
30
0
41
1
10
47.3626801498272
20
14.7045264376386
30
0
41
1
10
47.3214904388481
20
14.7362692985117
30
0
41
1
10
47.2608070372191
20
14.7853861108678
30
0
41
1
10
47.2407580782285
20
14.8020143684421
30
0
41
1
10
47.2012528360266
20
14.8355846421377
30
0
41
1
10
47.1038308427492
20
14.9204098868597
30
0
41
1
10
46.9403697021262
20
15.0810515766092
30
0
41
1
10
46.811620170937
20
15.234778067036
30
0
41
1
10
46.6912020926544
20
15.3939448918496
30
0
41
1
10
46.6351578864997
20
15.4762479830743
30
0
41
1
10
46.5705013894618
20
15.5826139568423
30
0
41
1
10
46.5578515481808
20
15.6040461014947
30
0
41
1
10
46.5332343298681
20
15.6470181306022
30
0
41
1
10
46.4972796204996
20
15.7117238444312
30
0
41
1
10
46.4642075157892
20
15.7771606362104
30
0
41
1
10
46.4018526301832
20
15.9089853442861
30
0
41
1
10
46.3288000443831
20
16.0872828354791
30
0
41
1
10
46.2757925828312
20
16.2705208658745
30
0
41
1
10
46.2437267755583
20
16.4098191359123
30
0
41
1
10
46.2343219437777
20
16.4565652144949
30
0
41
1
10
46.2181396756649
20
16.550688911945
30
0
41
1
10
46.2114315228511
20
16.5976632519084
30
0
41
1
10
46.1953684738705
20
16.7383257925939
30
0
41
1
10
46.1847617468158
20
16.9251815791207
30
0
41
1
10
46.195344082696
20
17.1106619565893
30
0
41
1
10
46.2112967827248
20
17.2492574483025
30
0
41
1
10
46.2212806891899
20
17.3184264363199
30
0
41
1
10
46.2343227083123
20
17.3874019151069
30
0
41
1
10
46.2437046486835
20
17.4333424836409
30
0
41
1
10
46.2487463349404
20
17.4563192349464
30
0
41
1
10
46.275550820474
20
17.5705120691474
30
0
41
1
10
46.302139646528
20
17.6599750650794
30
0
41
1
10
46.3652710035239
20
17.8352796531727
30
0
41
1
10
46.4383583930365
20
18.0069620024097
30
0
41
1
10
46.5312783618289
20
18.1715284188138
30
0
41
1
10
46.6085962003793
20
18.2922632917962
30
0
41
1
10
46.6357053662187
20
18.3321369502147
30
0
41
1
10
46.6919205950651
20
18.4101617902438
30
0
41
1
10
46.7210770533951
20
18.4484016340786
30
0
41
1
10
46.8116357396003
20
18.5608597064516
30
0
41
1
10
46.9406040687736
20
18.7047839271711
30
0
41
1
10
47.0857828600181
20
18.8369976982701
30
0
41
1
10
47.2008352964573
20
18.9317640927516
30
0
41
1
10
47.2402160071336
20
18.9626192755428
30
0
41
1
10
47.3008605985577
20
19.0077891565612
30
0
41
1
10
47.3213605105818
20
19.0226755130059
30
0
41
1
10
47.3626765721642
20
19.0519247762638
30
0
41
1
10
47.4668578073721
20
19.123814696887
30
0
41
1
10
47.662284766307
20
19.2423137139746
30
0
41
1
10
47.9392990522954
20
19.3778606085987
30
0
41
1
10
48.1349842009641
20
19.4533442679686
30
0
41
1
10
48.2608441571007
20
19.4957562339997
30
0
41
1
10
48.2861611615115
20
19.50398777034
30
0
41
1
10
48.336881617097
20
19.5198880218526
30
0
41
1
10
48.4131803084703
20
19.5429239433311
30
0
41
1
10
48.4901260051543
20
19.5635468638283
30
0
41
1
10
48.6448675205206
20
19.6016318639639
30
0
41
1
10
48.8534526461044
20
19.6439983544859
30
0
41
1
10
49.0665290116466
20
19.6697485374777
30
0
41
1
10
49.2280557812694
20
19.6827186426096
30
0
41
1
10
49.2821851257766
20
19.6859829378095
30
0
41
1
10
49.3910303662298
20
19.6903493834074
30
0
41
1
10
49.4455033352487
20
19.6914413712264
30
0
41
1
10
49.5
20
19.6914413712264
30
0
0
SPLINE
5
18B
100
AcDbEntity
8
1
62
256
6
ByLayer
370
18
48
1
60
0
100
AcDbSpline
70
4
71
3
72
46
73
42
40
0
40
0
40
0
40
0
40
0.0625185251257829
40
0.0625185251257829
40
0.125037050251566
40
0.187555575377349
40
0.187555575377349
40
0.218814837940238
40
0.218814837940238
40
0.250074100503128
40
0.250074100503128
40
0.281333363066017
40
0.281333363066017
40
0.312592625628907
40
0.312592625628907
40
0.375111150754686
40
0.437629675880465
40
0.437629675880465
40
0.468888938443356
40
0.468888938443356
40
0.484518569724802
40
0.484518569724802
40
0.500148201006247
40
0.562666726132027
40
0.625185251257807
40
0.625185251257807
40
0.687703776383586
40
0.687703776383586
40
0.703333407665031
40
0.703333407665031
40
0.718963038946476
40
0.750222301509367
40
0.750222301509367
40
0.812740826635152
40
0.875259351760936
40
0.875259351760936
40
0.906518614323828
40
0.906518614323828
40
0.93777787688672
40
0.93777787688672
40
1
40
1
40
1
40
1
41
1
10
49.5
20
33.6900539231492
30
0
41
1
10
49.3910077262519
20
33.6900539231492
30
0
41
1
10
49.28292814498
20
33.6905753790469
30
0
41
1
10
49.0685307842351
20
33.6926102869876
30
0
41
1
10
48.8558956459187
20
33.695637274646
30
0
41
1
10
48.6467611565585
20
33.7005499528915
30
0
41
1
10
48.4912518933784
20
33.7049039317573
30
0
41
1
10
48.4396008999345
20
33.7064680860254
30
0
41
1
10
48.3369226131682
20
33.7098075464504
30
0
41
1
10
48.286068093515
20
33.7115770348953
30
0
41
1
10
48.18532774563
20
33.7153024794052
30
0
41
1
10
48.1355099633862
20
33.7172562698564
30
0
41
1
10
48.0374721539114
20
33.7213089035691
30
0
41
1
10
47.9891768141988
20
33.7234104859232
30
0
41
1
10
47.8464276425141
20
33.7299149988647
30
0
41
1
10
47.6617837693992
20
33.7391200777018
30
0
41
1
10
47.4884064648636
20
33.7491202416359
30
0
41
1
10
47.3626801498272
20
33.7568163374827
30
0
41
1
10
47.3214904388481
20
33.7594143378291
30
0
41
1
10
47.2608070372191
20
33.7633470380661
30
0
41
1
10
47.2407580782285
20
33.7646642594624
30
0
41
1
10
47.2012528360266
20
33.767293410237
30
0
41
1
10
47.1038308427493
20
33.7738622847116
30
0
41
1
10
46.9403697021262
20
33.7855957368511
30
0
41
1
10
46.8116201709369
20
33.7956051791664
30
0
41
1
10
46.6912020926544
20
33.8052602705255
30
0
41
1
10
46.6351578864996
20
33.8099108902605
30
0
41
1
10
46.5705013894618
20
33.8154095002685
30
0
41
1
10
46.5578515481808
20
33.8164925617532
30
0
41
1
10
46.5332343298681
20
33.8186130794744
30
0
41
1
10
46.4972796204996
20
33.8217299380665
30
0
41
1
10
46.4642075157892
20
33.8246484398312
30
0
41
1
10
46.4018526301832
20
33.830203786392
30
0
41
1
10
46.3288000443831
20
33.8368596614176
30
0
41
1
10
46.2757925828312
20
33.8418340757027
30
0
41
1
10
46.2437267755583
20
33.8448659259827
30
0
41
1
10
46.2343219437777
20
33.8457600417197
30
0
41
1
10
46.2181396756649
20
33.8473032488554
30
0
41
1
10
46.2114315228511
20
33.8479457113334
30
0
41
1
10
46.1954192441025
20
33.8494820165471
30
0
41
1
10
46.1901155186195
20
33.8499945379307
30
0
41
1
10
46.1900594564957
20
33.8499999589149
30
0
0
SPLINE
5
18C
100
AcDbEntity
8
1
62
256
6
ByLayer
370
18
48
1
60
0
100
AcDbSpline
70
4
71
3
72
10
73
6
40
0
40
0
40
0
40
0
40
0.668289425790515
40
0.668289425790515
40
1
40
1
40
1
40
1
41
1
10
46.1905043845165
20
33.8499569975283
30
0
41
1
10
46.1919808632969
20
33.8498144856673
30
0
41
1
10
46.1971301733603
20
33.8493178858188
30
0
41
1
10
46.2103715061522
20
33.8480474028356
30
0
41
1
10
46.2156769263422
20
33.847539135453
30
0
41
1
10
46.2219071929912
20
33.846944231362
30
0
0
SPLINE
5
18D
100
AcDbEntity
8
1
62
256
6
ByLayer
370
18
48
1
60
0
100
AcDbSpline
70
4
71
3
72
46
73
42
40
0
40
0
40
0
40
0
40
0.0622102528585131
40
0.0622102528585131
40
0.0934699110965633
40
0.109099740215588
40
0.109099740215588
40
0.124729569334614
40
0.124729569334614
40
0.187248885810712
40
0.187248885810712
40
0.249768202286811
40
0.312287518762909
40
0.312287518762909
40
0.343547177000958
40
0.343547177000958
40
0.374806835239008
40
0.374806835239008
40
0.437326151715107
40
0.499845468191205
40
0.499845468191205
40
0.531105126429254
40
0.531105126429254
40
0.546734955548278
40
0.546734955548278
40
0.562364784667302
40
0.624884101143407
40
0.687403417619513
40
0.749922734095619
40
0.749922734095619
40
0.765552563214642
40
0.765552563214642
40
0.781182392333666
40
0.812442050571713
40
0.812442050571713
40
0.874961367047808
40
0.937480683523902
40
0.937480683523902
40
0.968740341761951
40
0.968740341761951
40
1
40
1
40
1
40
1
41
1
10
46.1900594580324
20
-33.849999968356
30
0
41
1
10
46.1901055051248
20
-33.8499955217346
30
0
41
1
10
46.1953966573716
20
-33.8494842136802
30
0
41
1
10
46.2112967827248
20
-33.8479586241485
30
0
41
1
10
46.2212806891899
20
-33.8470023971768
30
0
41
1
10
46.2343227083124
20
-33.8457605958904
30
0
41
1
10
46.2437046486834
20
-33.8448693557843
30
0
41
1
10
46.2487463349404
20
-33.8443913712671
30
0
41
1
10
46.275550820474
20
-33.8418567452411
30
0
41
1
10
46.302139646528
20
-33.8393614192028
30
0
41
1
10
46.3652710035239
20
-33.8335367891115
30
0
41
1
10
46.4383578653525
20
-33.8268778445526
30
0
41
1
10
46.5312783618289
20
-33.8187460747365
30
0
41
1
10
46.6085962003793
20
-33.8121693381803
30
0
41
1
10
46.6357053662187
20
-33.8098924317541
30
0
41
1
10
46.6919205950651
20
-33.8052424844296
30
0
41
1
10
46.7210770533951
20
-33.8028650332772
30
0
41
1
10
46.8116357396002
20
-33.7956036725808
30
0
41
1
10
46.9406040687736
20
-33.7855782471699
30
0
41
1
10
47.0857828600181
20
-33.7751583664261
30
0
41
1
10
47.2008352964573
20
-33.7673057421386
30
0
41
1
10
47.2402160071336
20
-33.7646819375125
30
0
41
1
10
47.3008605985577
20
-33.7607510663381
30
0
41
1
10
47.3213605105818
20
-33.7594401949205
30
0
41
1
10
47.3626765721642
20
-33.7568359043409
30
0
41
1
10
47.4668578073721
20
-33.7503621506173
30
0
41
1
10
47.6622850575872
20
-33.7390923831809
30
0
41
1
10
47.9392985690538
20
-33.7252878711619
30
0
41
1
10
48.1349842009641
20
-33.7171642926393
30
0
41
1
10
48.2608441571007
20
-33.7125098137761
30
0
41
1
10
48.2861611615116
20
-33.7116013899274
30
0
41
1
10
48.336881617097
20
-33.7098380545741
30
0
41
1
10
48.4131803084703
20
-33.7072700244367
30
0
41
1
10
48.4901260051543
20
-33.7049375661758
30
0
41
1
10
48.6448675205206
20
-33.7005988318565
30
0
41
1
10
48.8534526461044
20
-33.695683810447
30
0
41
1
10
49.0665290116466
20
-33.6926340976415
30
0
41
1
10
49.2280557812694
20
-33.6910938334903
30
0
41
1
10
49.2821851257766
20
-33.6907049280955
30
0
41
1
10
49.3910303662298
20
-33.6901843640015
30
0
41
1
10
49.4455033352487
20
-33.6900539231492
30
0
41
1
10
49.5
20
-33.6900539231492
30
0
0
SPLINE
5
18E
100
AcDbEntity
8
1
62
256
6
ByLayer
370
13
48
1
60
0
100
AcDbSpline
70
4
71
3
72
85
73
81
40
0
40
0
40
0
40
0
40
0.0312500000000047
40
0.0312500000000047
40
0.0625000000000094
40
0.0937500000000141
40
0.0937500000000141
40
0.109375000000016
40
0.109375000000016
40
0.125000000000017
40
0.125000000000017
40
0.140625000000018
40
0.140625000000018
40
0.15625000000002
40
0.15625000000002
40
0.187500000000022
40
0.218750000000024
40
0.218750000000024
40
0.234375000000025
40
0.234375000000025
40
0.242187500000025
40
0.242187500000025
40
0.250000000000026
40
0.281250000000026
40
0.312500000000026
40
0.312500000000026
40
0.343750000000026
40
0.343750000000026
40
0.351562500000026
40
0.351562500000026
40
0.359375000000026
40
0.375000000000027
40
0.375000000000027
40
0.406250000000029
40
0.437500000000031
40
0.437500000000031
40
0.453125000000032
40
0.453125000000032
40
0.468750000000033
40
0.468750000000033
40
0.500000000000035
40
0.531250000000038
40
0.531250000000038
40
0.546875000000038
40
0.554687500000038
40
0.554687500000038
40
0.562500000000037
40
0.562500000000037
40
0.593750000000034
40
0.593750000000034
40
0.625000000000031
40
0.656250000000028
40
0.656250000000028
40
0.671875000000027
40
0.671875000000027
40
0.687500000000026
40
0.687500000000026
40
0.718750000000023
40
0.75000000000002
40
0.75000000000002
40
0.765625000000018
40
0.765625000000018
40
0.773437500000017
40
0.773437500000017
40
0.781250000000016
40
0.812500000000016
40
0.843750000000016
40
0.875000000000016
40
0.875000000000016
40
0.882812500000015
40
0.882812500000015
40
0.890625000000014
40
0.906250000000012
40
0.906250000000012
40
0.937500000000007
40
0.968750000000003
40
0.968750000000003
40
0.984375000000001
40
0.984375000000001
40
1
40
1
40
1
40
1
41
1
10
49.5
20
-19.6914413712264
30
0
41
1
10
49.3910077262518
20
-19.6914413712264
30
0
41
1
10
49.28292814498
20
-19.6870839738343
30
0
41
1
10
49.0685307842351
20
-19.6699494530409
30
0
41
1
10
48.8558956459187
20
-19.6443931068188
30
0
41
1
10
48.6467611565585
20
-19.6020573142204
30
0
41
1
10
48.4912518933784
20
-19.5638438700968
30
0
41
1
10
48.4396008999345
20
-19.5500158040699
30
0
41
1
10
48.3369226131682
20
-19.5201957606848
30
0
41
1
10
48.286068093515
20
-19.5042557234
30
0
41
1
10
48.18532774563
20
-19.4703093148095
30
0
41
1
10
48.1355099633862
20
-19.4523217789246
30
0
41
1
10
48.0374721539114
20
-19.4145277585172
30
0
41
1
10
47.9891768141988
20
-19.3946964361442
30
0
41
1
10
47.8464276425141
20
-19.3324304115848
30
0
41
1
10
47.6617837693992
20
-19.2420300891749
30
0
41
1
10
47.4884064648637
20
-19.1368669164536
30
0
41
1
10
47.3626801498272
20
-19.0522898998441
30
0
41
1
10
47.3214904388481
20
-19.0231450393174
30
0
41
1
10
47.2608070372191
20
-18.9779609271983
30
0
41
1
10
47.2407580782285
20
-18.9626498910202
30
0
41
1
10
47.2012528360266
20
-18.9317087680993
30
0
41
1
10
47.1038308427492
20
-18.8534523978518
30
0
41
1
10
46.9403697021262
20
-18.7045441602419
30
0
41
1
10
46.811620170937
20
-18.5608271121304
30
0
41
1
10
46.6912020926544
20
-18.4113153786758
30
0
41
1
10
46.6351578864997
20
-18.3336629071862
30
0
41
1
10
46.5705013894618
20
-18.2327955434261
30
0
41
1
10
46.5578515481808
20
-18.2124464602585
30
0
41
1
10
46.5332343298681
20
-18.1715949488722
30
0
41
1
10
46.4972796204996
20
-18.1100060936353
30
0
41
1
10
46.4642075157892
20
-18.0474878036208
30
0
41
1
10
46.4018526301832
20
-17.9212184421059
30
0
41
1
10
46.3288000443831
20
-17.7495768259385
30
0
41
1
10
46.2757925828312
20
-17.5713132098282
30
0
41
1
10
46.2437267755583
20
-17.4350467900703
30
0
41
1
10
46.2343219437777
20
-17.3891948272247
30
0
41
1
10
46.2181396756649
20
-17.2966143369104
30
0
41
1
10
46.2114315228511
20
-17.2502824594249
30
0
41
1
10
46.1953684738705
20
-17.1111610951256
30
0
41
1
10
46.1847617468158
20
-16.9253303516835
30
0
41
1
10
46.195344082696
20
-16.7388273015401
30
0
41
1
10
46.2112967827248
20
-16.598701175846
30
0
41
1
10
46.2212806891899
20
-16.5285759608568
30
0
41
1
10
46.2343227083123
20
-16.4583586807834
30
0
41
1
10
46.2437046486834
20
-16.4115268721434
30
0
41
1
10
46.2487463349404
20
-16.3880721363207
30
0
41
1
10
46.275550820474
20
-16.2713446760936
30
0
41
1
10
46.302139646528
20
-16.1793863541233
30
0
41
1
10
46.3652710035239
20
-15.9982571359387
30
0
41
1
10
46.4383583930365
20
-15.8199160058294
30
0
41
1
10
46.5312783618289
20
-15.6472176559227
30
0
41
1
10
46.6085962003793
20
-15.5199060463841
30
0
41
1
10
46.6357053662187
20
-15.4777554815394
30
0
41
1
10
46.6919205950651
20
-15.3950806941859
30
0
41
1
10
46.7210770533951
20
-15.3544633991986
30
0
41
1
10
46.8116357396003
20
-15.2347439661292
30
0
41
1
10
46.9406040687736
20
-15.0807943199987
30
0
41
1
10
47.0857828600181
20
-14.9381606681561
30
0
41
1
10
47.2008352964572
20
-14.835541649387
30
0
41
1
10
47.2402160071336
20
-14.8020626619697
30
0
41
1
10
47.3008605985577
20
-14.7529619097769
30
0
41
1
10
47.3213605105818
20
-14.7367646819146
30
0
41
1
10
47.3626765721642
20
-14.7049111280771
30
0
41
1
10
47.4668578073721
20
-14.6265474537302
30
0
41
1
10
47.6622847663071
20
-14.4967788838482
30
0
41
1
10
47.9392990522954
20
-14.3474274823296
30
0
41
1
10
48.1349842009641
20
-14.2638200246706
30
0
41
1
10
48.2608441571007
20
-14.2167535797763
30
0
41
1
10
48.2861611615116
20
-14.2076136195874
30
0
41
1
10
48.336881617097
20
-14.1899500327215
30
0
41
1
10
48.4131803084703
20
-14.1643460811056
30
0
41
1
10
48.4901260051543
20
-14.1413907023475
30
0
41
1
10
48.6448675205206
20
-14.0989669678926
30
0
41
1
10
48.8534526461044
20
-14.0516854559611
30
0
41
1
10
49.0665290116466
20
-14.0228855601638
30
0
41
1
10
49.2280557812694
20
-14.0083751908806
30
0
41
1
10
49.2821851257766
20
-14.004721990286
30
0
41
1
10
49.3910303662298
20
-13.9998349805941
30
0
41
1
10
49.4455033352487
20
-13.9986125519228
30
0
41
1
10
49.5
20
-13.9986125519228
30
0
0
SPLINE
5
18F
100
AcDbEntity
8
1
62
256
6
ByLayer
370
18
48
1
60
0
100
AcDbSpline
70
4
71
3
72
8
73
4
40
0
40
0
40
0
40
0
40
1
40
1
40
1
40
1
41
1
10
57.9796406331302
20
13.5349364905389
30
0
41
1
10
57.5596841211549
20
13.7263717626045
30
0
41
1
10
57.1393552680272
20
13.9177522539503
30
0
41
1
10
56.7187225682608
20
14.1090880418369
30
0
0
SPLINE
5
190
100
AcDbEntity
8
1
62
256
6
ByLayer
370
18
48
1
60
0
100
AcDbSpline
70
4
71
3
72
22
73
18
40
0
40
0
40
0
40
0
40
0.250000000000004
40
0.250000000000004
40
0.312500000000004
40
0.312500000000004
40
0.375000000000005
40
0.375000000000005
40
0.500000000000004
40
0.500000000000004
40
0.625000000000003
40
0.625000000000003
40
0.750000000000002
40
0.750000000000002
40
0.875000000000001
40
0.875000000000001
40
1
40
1
40
1
40
1
41
1
10
56.7187225682608
20
14.1090880418369
30
0
41
1
10
56.7062194512196
20
14.1147754117239
30
0
41
1
10
56.694266129591
20
14.116967548718
30
0
41
1
10
56.6800525484951
20
14.1150547497748
30
0
41
1
10
56.6772378036302
20
14.1144287008353
30
0
41
1
10
56.6717848582514
20
14.1127026196802
30
0
41
1
10
56.6691361462111
20
14.1116028976314
30
0
41
1
10
56.6614247621649
20
14.1075884753372
30
0
41
1
10
56.6565948106336
20
14.103964741994
30
0
41
1
10
56.6476085192513
20
14.0946604879176
30
0
41
1
10
56.6434216271892
20
14.0888979461121
30
0
41
1
10
56.6361654882693
20
14.0756100805072
30
0
41
1
10
56.6330492148127
20
14.0680643321882
30
0
41
1
10
56.6279067324668
20
14.0510495797404
30
0
41
1
10
56.6258745411532
20
14.0414549565806
30
0
41
1
10
56.6231891739723
20
14.0210468725756
30
0
41
1
10
56.6225009252407
20
14.0101789208044
30
0
41
1
10
56.6225009252407
20
13.9986125519229
30
0
0
SPLINE
5
191
100
AcDbEntity
8
1
62
256
6
ByLayer
370
18
48
1
60
0
100
AcDbSpline
70
4
71
3
72
26
73
22
40
0
40
0
40
0
40
0
40
0.125000000000067
40
0.125000000000067
40
0.187500000000079
40
0.187500000000079
40
0.250000000000092
40
0.250000000000092
40
0.375000000000105
40
0.375000000000105
40
0.437500000000097
40
0.437500000000097
40
0.500000000000089
40
0.500000000000089
40
0.625000000000067
40
0.625000000000067
40
0.750000000000045
40
0.750000000000045
40
0.875000000000022
40
0.875000000000022
40
1
40
1
40
1
40
1
41
1
10
56.6225009252407
20
-13.9986125519228
30
0
41
1
10
56.6225009252407
20
-14.0101299332704
30
0
41
1
10
56.6231833276021
20
-14.020935672591
30
0
41
1
10
56.6251708216861
20
-14.0361393792599
30
0
41
1
10
56.6259951214105
20
-14.0410386008521
30
0
41
1
10
56.6279704790296
20
-14.050496512413
30
0
41
1
10
56.6291199728684
20
-14.0550356804394
30
0
41
1
10
56.6329684782824
20
-14.0678510186907
30
0
41
1
10
56.6360847600015
20
-14.0754370529605
30
0
41
1
10
56.6415387612126
20
-14.0854621543334
30
0
41
1
10
56.6434952591123
20
-14.0885841389937
30
0
41
1
10
56.6475922616289
20
-14.0942724396006
30
0
41
1
10
56.6497393940392
20
-14.0968538956556
30
0
41
1
10
56.6564614801868
20
-14.1038514034084
30
0
41
1
10
56.6613294336992
20
-14.107533150984
30
0
41
1
10
56.6717245620117
20
-14.1129560408374
30
0
41
1
10
56.6771519888291
20
-14.1146522735236
30
0
41
1
10
56.6884271081892
20
-14.1161936666663
30
0
41
1
10
56.6942986163695
20
-14.1160326828728
30
0
41
1
10
56.7063538146869
20
-14.1138899307342
30
0
41
1
10
56.7124867338321
20
-14.1119245742658
30
0
41
1
10
56.7187225682608
20
-14.1090880418369
30
0
0
SPLINE
5
192
100
AcDbEntity
8
1
62
256
6
ByLayer
370
18
48
1
60
0
100
AcDbSpline
70
4
71
3
72
8
73
4
40
0
40
0
40
0
40
0
40
1
40
1
40
1
40
1
41
1
10
56.7187225682608
20
-14.1090880418369
30
0
41
1
10
57.1393552680272
20
-13.9177522539503
30
0
41
1
10
57.5596841211549
20
-13.7263717626044
30
0
41
1
10
57.9796406331302
20
-13.5349364905389
30
0
0
SPLINE
5
193
100
AcDbEntity
8
1
62
256
6
ByLayer
370
18
48
1
60
0
100
AcDbSpline
70
4
71
3
72
8
73
4
40
0
40
0
40
0
40
0
40
1
40
1
40
1
40
1
41
1
10
57.9796406331302
20
-13.5349364905389
30
0
41
1
10
58.0624202780138
20
-13.583700287737
30
0
41
1
10
58.1448554149218
20
-13.6325030634831
30
0
41
1
10
58.226929831797
20
-13.6813466520527
30
0
0
SPLINE
5
194
100
AcDbEntity
8
1
62
256
6
ByLayer
370
18
48
1
60
0
100
AcDbSpline
70
4
71
3
72
9
73
5
40
0
40
0
40
0
40
0
40
0.500000000000001
40
1
40
1
40
1
40
1
41
1
10
58.226929831797
20
-13.6813466520527
30
0
41
1
10
58.254244807017
20
-14.2875644347018
30
0
41
1
10
58.2816535778452
20
-15.5
30
0
41
1
10
58.254244807017
20
-16.7124355652982
30
0
41
1
10
58.226929831797
20
-17.3186533479473
30
0
0
SPLINE
5
195
100
AcDbEntity
8
1
62
256
6
ByLayer
370
18
48
1
60
0
100
AcDbSpline
70
4
71
3
72
8
73
4
40
0
40
0
40
0
40
0
40
1
40
1
40
1
40
1
41
1
10
58.226929831797
20
-17.3186533479473
30
0
41
1
10
58.1448554149218
20
-17.5009401021127
30
0
41
1
10
58.0624202780138
20
-17.6830745407478
30
0
41
1
10
57.9796406331302
20
-17.8650635094611
30
0
0
SPLINE
5
196
100
AcDbEntity
8
1
62
256
6
ByLayer
370
18
48
1
60
0
100
AcDbSpline
70
4
71
3
72
8
73
4
40
0
40
0
40
0
40
0
40
1
40
1
40
1
40
1
41
1
10
57.9796406331302
20
-17.8650635094611
30
0
41
1
10
57.5596841211581
20
-18.388074399101
30
0
41
1
10
57.1393552680302
20
-18.9109356250356
30
0
41
1
10
56.7187225682608
20
-19.4336747188518
30
0
0
SPLINE
5
197
100
AcDbEntity
8
1
62
256
6
ByLayer
370
18
48
1
60
0
100
AcDbSpline
70
4
71
3
72
22
73
18
40
0
40
0
40
0
40
0
40
0.249999999999969
40
0.249999999999969
40
0.312499999999972
40
0.312499999999972
40
0.374999999999976
40
0.374999999999976
40
0.49999999999998
40
0.49999999999998
40
0.624999999999985
40
0.624999999999985
40
0.74999999999999
40
0.74999999999999
40
0.874999999999995
40
0.874999999999995
40
1
40
1
40
1
40
1
41
1
10
56.7187225682608
20
-19.4336747188518
30
0
41
1
10
56.7062194512196
20
-19.4492129023445
30
0
41
1
10
56.694266129591
20
-19.466986776591
30
0
41
1
10
56.6800525484951
20
-19.4921785428611
30
0
41
1
10
56.6772378036302
20
-19.4973892476046
30
0
41
1
10
56.6717848582514
20
-19.507944208181
30
0
41
1
10
56.6691361462111
20
-19.5133055466462
30
0
41
1
10
56.6614247621649
20
-19.5296428890598
30
0
41
1
10
56.6565948106336
20
-19.5408700201818
30
0
41
1
10
56.6476085192513
20
-19.5640521889488
30
0
41
1
10
56.6434216271892
20
-19.5761311288008
30
0
41
1
10
56.6361654882693
20
-19.6000166654047
30
0
41
1
10
56.6330492148127
20
-19.6119192901182
30
0
41
1
10
56.6279067324668
20
-19.635638523493
30
0
41
1
10
56.6258745411532
20
-19.6475772737325
30
0
41
1
10
56.6231891739723
20
-19.6702588708247
30
0
41
1
10
56.6225009252407
20
-19.6811084889255
30
0
41
1
10
56.6225009252407
20
-19.6914413712263
30
0
0
SPLINE
5
198
100
AcDbEntity
8
1
62
256
6
ByLayer
370
18
48
1
60
0
100
AcDbSpline
70
4
71
3
72
26
73
22
40
0
40
0
40
0
40
0
40
0.12499999999998
40
0.12499999999998
40
0.187499999999971
40
0.187499999999971
40
0.249999999999961
40
0.249999999999961
40
0.374999999999937
40
0.374999999999937
40
0.437499999999933
40
0.437499999999933
40
0.49999999999993
40
0.49999999999993
40
0.624999999999947
40
0.624999999999947
40
0.749999999999965
40
0.749999999999965
40
0.874999999999982
40
0.874999999999982
40
1
40
1
40
1
40
1
41
1
10
56.6225009252407
20
-33.6900539231492
30
0
41
1
10
56.6225009252407
20
-33.6912821854918
30
0
41
1
10
56.6231833276021
20
-33.6913035752414
30
0
41
1
10
56.6251708216861
20
-33.6896314857235
30
0
41
1
10
56.6259951214106
20
-33.688788064447
30
0
41
1
10
56.6279704790297
20
-33.6865237448362
30
0
41
1
10
56.6291199728685
20
-33.685103359354
30
0
41
1
10
56.6329684782826
20
-33.6800946052012
30
0
41
1
10
56.6360847600018
20
-33.6757419863958
30
0
41
1
10
56.6415387612132
20
-33.6677803139104
30
0
41
1
10
56.6434952591129
20
-33.6648740922081
30
0
41
1
10
56.6475922616296
20
-33.6586988804854
30
0
41
1
10
56.6497393940398
20
-33.655420527518
30
0
41
1
10
56.6564614801877
20
-33.6450432596459
30
0
41
1
10
56.6613294337003
20
-33.6373831103389
30
0
41
1
10
56.6717245620129
20
-33.6207726988767
30
0
41
1
10
56.6771519888304
20
-33.6119825791395
30
0
41
1
10
56.6884271081907
20
-33.5935186795842
30
0
41
1
10
56.6942986163712
20
-33.5838049273129
30
0
41
1
10
56.7063538146888
20
-33.5636772484747
30
0
41
1
10
56.7124867338341
20
-33.5533488438275
30
0
41
1
10
56.7187225682629
20
-33.5427627606853
30
0
0
SPLINE
5
199
100
AcDbEntity
8
1
62
256
6
ByLayer
370
18
48
1
60
0
100
AcDbSpline
70
4
71
3
72
8
73
4
40
0
40
0
40
0
40
0
40
1
40
1
40
1
40
1
41
1
10
56.7187225682629
20
-33.5427627606853
30
0
41
1
10
57.1393552680286
20
-32.8286878789873
30
0
41
1
10
57.5596841211556
20
-32.1144461617082
30
0
41
1
10
57.9796406331302
20
-31.4
30
0
0
SPLINE
5
19A
100
AcDbEntity
8
1
62
256
6
ByLayer
370
18
48
1
60
0
100
AcDbSpline
70
4
71
3
72
8
73
4
40
0
40
0
40
0
40
0
40
1
40
1
40
1
40
1
41
1
10
57.9796406331302
20
-31.4
30
0
41
1
10
58.0624202780143
20
-31.266774828484
30
0
41
1
10
58.1448554149224
20
-31.1334431655951
30
0
41
1
10
58.226929831797
20
-31
30
0
0
SPLINE
5
19B
100
AcDbEntity
8
1
62
256
6
ByLayer
370
18
48
1
60
0
100
AcDbSpline
70
4
71
3
72
10
73
6
40
0
40
0
40
0
40
0
40
0.502058881415526
40
0.502058881415526
40
1
40
1
40
1
40
1
41
1
10
58.226929831797
20
-31
30
0
41
1
10
58.2405990043474
20
-31
30
0
41
1
10
58.2508781974504
20
-31
30
0
41
1
10
58.2645003464797
20
-31
30
0
41
1
10
58.2679085898627
20
-31
30
0
41
1
10
58.2679488317971
20
-31
30
0
0
SPLINE
5
19C
100
AcDbEntity
8
1
62
256
6
ByLayer
370
18
48
1
60
0
100
AcDbSpline
70
4
71
3
72
10
73
6
40
0
40
0
40
0
40
0
40
0.497941118712854
40
0.497941118712854
40
1
40
1
40
1
40
1
41
1
10
58.2679488317972
20
31
30
0
41
1
10
58.2679085898662
20
31
30
0
41
1
10
58.2645003464832
20
31
30
0
41
1
10
58.2508781974504
20
31
30
0
41
1
10
58.2405990043474
20
31
30
0
41
1
10
58.226929831797
20
31
30
0
0
SPLINE
5
19D
100
AcDbEntity
8
1
62
256
6
ByLayer
370
18
48
1
60
0
100
AcDbSpline
70
4
71
3
72
8
73
4
40
0
40
0
40
0
40
0
40
1
40
1
40
1
40
1
41
1
10
58.226929831797
20
31
30
0
41
1
10
58.1448554149223
20
31.1334431655951
30
0
41
1
10
58.0624202780143
20
31.266774828484
30
0
41
1
10
57.9796406331302
20
31.4
30
0
0
SPLINE
5
19E
100
AcDbEntity
8
1
62
256
6
ByLayer
370
18
48
1
60
0
100
AcDbSpline
70
4
71
3
72
8
73
4
40
0
40
0
40
0
40
0
40
1
40
1
40
1
40
1
41
1
10
57.9796406331302
20
31.4
30
0
41
1
10
57.5596841211549
20
32.1144461617094
30
0
41
1
10
57.1393552680272
20
32.8286878789897
30
0
41
1
10
56.7187225682608
20
33.5427627606888
30
0
0
SPLINE
5
19F
100
AcDbEntity
8
1
62
256
6
ByLayer
370
18
48
1
60
0
100
AcDbSpline
70
4
71
3
72
22
73
18
40
0
40
0
40
0
40
0
40
0.250000000000048
40
0.250000000000048
40
0.312500000000054
40
0.312500000000054
40
0.375000000000061
40
0.375000000000061
40
0.500000000000049
40
0.500000000000049
40
0.625000000000037
40
0.625000000000037
40
0.750000000000024
40
0.750000000000024
40
0.875000000000012
40
0.875000000000012
40
1
40
1
40
1
40
1
41
1
10
56.7187225682608
20
33.5427627606888
30
0
41
1
10
56.7062194512196
20
33.5639883140684
30
0
41
1
10
56.694266129591
20
33.583954325309
30
0
41
1
10
56.6800525484951
20
33.6072332926359
30
0
41
1
10
56.6772378036302
20
33.6118179484399
30
0
41
1
10
56.6717848582514
20
33.6206468278612
30
0
41
1
10
56.6691361462111
20
33.6249084442776
30
0
41
1
10
56.6614247621649
20
33.6372313643971
30
0
41
1
10
56.6565948106336
20
33.6448347621758
30
0
41
1
10
56.6476085192513
20
33.6587126768663
30
0
41
1
10
56.6434216271892
20
33.665029074913
30
0
41
1
10
56.6361654882693
20
33.6756267459119
30
0
41
1
10
56.6330492148127
20
33.6799836223065
30
0
41
1
10
56.6279067324668
20
33.6866881032334
30
0
41
1
10
56.6258745411532
20
33.6890322303131
30
0
41
1
10
56.6231891739723
20
33.6913057434003
30
0
41
1
10
56.6225009252407
20
33.6912874097299
30
0
41
1
10
56.6225009252407
20
33.6900539231492
30
0
0
SPLINE
5
1A0
100
AcDbEntity
8
1
62
256
6
ByLayer
370
18
48
1
60
0
100
AcDbSpline
70
4
71
3
72
26
73
22
40
0
40
0
40
0
40
0
40
0.124999999999993
40
0.124999999999993
40
0.187499999999977
40
0.187499999999977
40
0.249999999999961
40
0.249999999999961
40
0.374999999999948
40
0.374999999999948
40
0.437499999999952
40
0.437499999999952
40
0.499999999999956
40
0.499999999999956
40
0.624999999999967
40
0.624999999999967
40
0.749999999999978
40
0.749999999999978
40
0.874999999999989
40
0.874999999999989
40
1
40
1
40
1
40
1
41
1
10
56.6225009252407
20
19.6914413712264
30
0
41
1
10
56.6225009252407
20
19.6811522522211
30
0
41
1
10
56.6231833276021
20
19.6703679026498
30
0
41
1
10
56.6251708216862
20
19.6534921064626
30
0
41
1
10
56.6259951214106
20
19.6477494635938
30
0
41
1
10
56.6279704790298
20
19.6360272324218
30
0
41
1
10
56.6291199728687
20
19.6300676789131
30
0
41
1
10
56.6329684782829
20
19.6122435865088
30
0
41
1
10
56.6360847600021
20
19.6003049334334
30
0
41
1
10
56.6415387612136
20
19.5823181595748
30
0
41
1
10
56.6434952591134
20
19.5762899532122
30
0
41
1
10
56.6475922616302
20
19.5644264408824
30
0
41
1
10
56.6497393940405
20
19.55856663186
30
0
41
1
10
56.6564614801884
20
19.541191856235
30
0
41
1
10
56.661329433701
20
19.5298499593523
30
0
41
1
10
56.6717245620139
20
19.5078166580368
30
0
41
1
10
56.6771519888315
20
19.4973303056134
30
0
41
1
10
56.688427108192
20
19.4773250129156
30
0
41
1
10
56.6942986163726
20
19.467772244438
30
0
41
1
10
56.7063538146904
20
19.4497873177388
30
0
41
1
10
56.7124867338357
20
19.4414242695602
30
0
41
1
10
56.7187225682646
20
19.4336747188472
30
0
0
SPLINE
5
1A1
100
AcDbEntity
8
1
62
256
6
ByLayer
370
18
48
1
60
0
100
AcDbSpline
70
4
71
3
72
8
73
4
40
0
40
0
40
0
40
0
40
1
40
1
40
1
40
1
41
1
10
56.7187225682646
20
19.4336747188471
30
0
41
1
10
57.1393552680327
20
18.9109356250325
30
0
41
1
10
57.5596841211594
20
18.3880743990994
30
0
41
1
10
57.9796406331302
20
17.8650635094611
30
0
0
SPLINE
5
1A2
100
AcDbEntity
8
1
62
256
6
ByLayer
370
18
48
1
60
0
100
AcDbSpline
70
4
71
3
72
8
73
4
40
0
40
0
40
0
40
0
40
1
40
1
40
1
40
1
41
1
10
57.9796406331302
20
17.8650635094611
30
0
41
1
10
58.0624202780138
20
17.6830745407478
30
0
41
1
10
58.1448554149218
20
17.5009401021128
30
0
41
1
10
58.226929831797
20
17.3186533479473
30
0
0
SPLINE
5
1A3
100
AcDbEntity
8
1
62
256
6
ByLayer
370
18
48
1
60
0
100
AcDbSpline
70
4
71
3
72
9
73
5
40
0
40
0
40
0
40
0
40
0.5
40
1
40
1
40
1
40
1
41
1
10
58.226929831797
20
17.3186533479473
30
0
41
1
10
58.254244807017
20
16.7124355652982
30
0
41
1
10
58.2816535778452
20
15.5
30
0
41
1
10
58.254244807017
20
14.2875644347018
30
0
41
1
10
58.226929831797
20
13.6813466520527
30
0
0
SPLINE
5
1A4
100
AcDbEntity
8
1
62
256
6
ByLayer
370
18
48
1
60
0
100
AcDbSpline
70
4
71
3
72
8
73
4
40
0
40
0
40
0
40
0
40
1
40
1
40
1
40
1
41
1
10
58.226929831797
20
13.6813466520527
30
0
41
1
10
58.1448554149218
20
13.6325030634831
30
0
41
1
10
58.0624202780138
20
13.583700287737
30
0
41
1
10
57.9796406331302
20
13.5349364905389
30
0
0
SPLINE
5
1A5
100
AcDbEntity
8
SK1
62
256
6
ByLayer
370
18
48
1
60
0
100
AcDbSpline
70
4
71
3
72
32
73
28
40
0
40
0
40
0
40
0
40
0.145515379717261
40
0.145515379717261
40
0.218273069575894
40
0.218273069575894
40
0.254651914505211
40
0.254651914505211
40
0.291030759434528
40
0.291030759434528
40
0.436546139151798
40
0.436546139151798
40
0.509303829010431
40
0.509303829010431
40
0.545682673939748
40
0.545682673939748
40
0.582061518869065
40
0.582061518869065
40
0.72757689858632
40
0.72757689858632
40
0.763955743515636
40
0.763955743515636
40
0.800334588444952
40
0.800334588444952
40
0.873092278303589
40
0.873092278303589
40
1
40
1
40
1
40
1
41
1
10
-25.8
20
4.87000000000001
30
0
41
1
10
-25.8
20
4.96109765262787
30
0
41
1
10
-25.808805133659
20
5.05052271863863
30
0
41
1
10
-25.8345421175813
20
5.18229420961694
30
0
41
1
10
-25.8452248710048
20
5.22582112057597
30
0
41
1
10
-25.8644566393579
20
5.29051160726263
30
0
41
1
10
-25.8714027751051
20
5.31197497069167
30
0
41
1
10
-25.8863868212075
20
5.35469874893482
30
0
41
1
10
-25.8944258684405
20
5.37595107760106
30
0
41
1
10
-25.9369337216554
20
5.48059681564635
30
0
41
1
10
-25.9785739382998
20
5.56008586410093
30
0
41
1
10
-26.0523851123406
20
5.6731220957183
30
0
41
1
10
-26.0788940750744
20
5.7097607983649
30
0
41
1
10
-26.1216325695387
20
5.7631085366649
30
0
41
1
10
-26.1364189020971
20
5.78066926556747
30
0
41
1
10
-26.1667379961542
20
5.81493010031119
30
0
41
1
10
-26.182276268388
20
5.83164305169831
30
0
41
1
10
-26.2618408925655
20
5.91314943003459
30
0
41
1
10
-26.3314306915815
20
5.97182929293479
30
0
41
1
10
-26.4260798692421
20
6.03686552710718
30
0
41
1
10
-26.4453963830412
20
6.04945319032993
30
0
41
1
10
-26.4848239392125
20
6.07376893504662
30
0
41
1
10
-26.504971424652
20
6.08551694290551
30
0
41
1
10
-26.5664067913667
20
6.11929751546066
30
0
41
1
10
-26.6082346736958
20
6.13963255719543
30
0
41
1
10
-26.725367869652
20
6.18957370175804
30
0
41
1
10
-26.8023998881922
20
6.21486701036491
30
0
41
1
10
-26.8821365484778
20
6.23344164737119
30
0
0
SPLINE
5
1A6
100
AcDbEntity
8
SK1
62
256
6
ByLayer
370
18
48
1
60
0
100
AcDbSpline
70
4
71
3
72
34
73
30
40
0
40
0
40
0
40
0
40
0.058823491419801
40
0.058823491419801
40
0.0950225879036553
40
0.0950225879036553
40
0.13122168438751
40
0.13122168438751
40
0.276018070322935
40
0.276018070322935
40
0.312217166806789
40
0.312217166806789
40
0.348416263290644
40
0.42081445625835
40
0.493212649226056
40
0.493212649226056
40
0.529411745709909
40
0.529411745709909
40
0.565610842193761
40
0.565610842193761
40
0.710407228129172
40
0.710407228129172
40
0.782805421096878
40
0.782805421096878
40
0.819004517580731
40
0.819004517580731
40
0.855203614064584
40
0.855203614064584
40
1
40
1
40
1
40
1
41
1
10
-26.894216790071
20
-6.2361983077713
30
0
41
1
10
-26.8571252461968
20
-6.22789742674235
30
0
41
1
10
-26.8203171472709
20
-6.21807417520381
30
0
41
1
10
-26.761322502954
20
-6.19970527147035
30
0
41
1
10
-26.738947688458
20
-6.19211204993346
30
0
41
1
10
-26.6949437415086
20
-6.17593555825553
30
0
41
1
10
-26.6732468453112
20
-6.16733263475393
30
0
41
1
10
-26.5662494419288
20
-6.12180423744758
30
0
41
1
10
-26.4853661913642
20
-6.0774132385242
30
0
41
1
10
-26.3900055054556
20
-6.01212222720284
30
0
41
1
10
-26.3711749208065
20
-5.99853151564082
30
0
41
1
10
-26.3343680365871
20
-5.97055245109567
30
0
41
1
10
-26.28047676743
20
-5.92742786007696
30
0
41
1
10
-26.1970518628438
20
-5.84993064475213
30
0
41
1
10
-26.1369121823778
20
-5.7820880332628
30
0
41
1
10
-26.0942760389608
20
-5.72900500236227
30
0
41
1
10
-26.080476186897
20
-5.71094314490745
30
0
41
1
10
-26.0537090705115
20
-5.67407465203428
30
0
41
1
10
-26.0407575610831
20
-5.65528401183443
30
0
41
1
10
-25.9787088304242
20
-5.56041441321568
30
0
41
1
10
-25.9371254458849
20
-5.48089463840466
30
0
41
1
10
-25.886403252699
20
-5.35628662859068
30
0
41
1
10
-25.8714524612521
20
-5.31385636180505
30
0
41
1
10
-25.8520377264494
20
-5.24882643419036
30
0
41
1
10
-25.8460784474988
20
-5.22694001875655
30
0
41
1
10
-25.8352728670703
20
-5.18309679008678
30
0
41
1
10
-25.8304118763048
20
-5.16109256669171
30
0
41
1
10
-25.8087897410636
20
-5.05066042906955
30
0
41
1
10
-25.8
20
-4.96100935186118
30
0
41
1
10
-25.8
20
-4.87000000000001
30
0
0
SPLINE
5
1A7
100
AcDbEntity
8
SK1
62
256
6
ByLayer
370
18
48
1
60
0
100
AcDbSpline
70
4
71
3
72
85
73
81
40
0
40
0
40
0
40
0
40
0.0625000000000059
40
0.0625000000000059
40
0.125000000000012
40
0.125000000000012
40
0.187500000000018
40
0.187500000000018
40
0.250000000000023
40
0.250000000000023
40
0.281250000000027
40
0.281250000000027
40
0.31250000000003
40
0.31250000000003
40
0.343750000000034
40
0.343750000000034
40
0.375000000000037
40
0.375000000000037
40
0.406250000000041
40
0.406250000000041
40
0.421875000000043
40
0.421875000000043
40
0.437500000000044
40
0.437500000000044
40
0.453125000000046
40
0.453125000000046
40
0.468750000000048
40
0.468750000000048
40
0.476562500000047
40
0.476562500000047
40
0.484375000000047
40
0.484375000000047
40
0.492187500000047
40
0.492187500000047
40
0.496093750000047
40
0.496093750000047
40
0.500000000000046
40
0.500000000000046
40
0.501953125000046
40
0.501953125000046
40
0.503906250000046
40
0.505859375000047
40
0.505859375000047
40
0.507812500000047
40
0.507812500000047
40
0.511718750000046
40
0.511718750000046
40
0.515625000000046
40
0.515625000000046
40
0.519531250000045
40
0.519531250000045
40
0.523437500000044
40
0.523437500000044
40
0.531250000000044
40
0.531250000000044
40
0.539062500000043
40
0.539062500000043
40
0.546875000000043
40
0.546875000000043
40
0.562500000000042
40
0.562500000000042
40
0.578125000000041
40
0.578125000000041
40
0.593750000000041
40
0.593750000000041
40
0.625000000000037
40
0.625000000000037
40
0.656250000000034
40
0.656250000000034
40
0.687500000000031
40
0.687500000000031
40
0.750000000000025
40
0.750000000000025
40
0.812500000000019
40
0.812500000000019
40
0.875000000000012
40
0.875000000000012
40
0.937500000000006
40
0.937500000000006
40
1
40
1
40
1
40
1
41
1
10
-30.9697797028104
20
-10.2868327052761
30
0
41
1
10
-30.9693805484014
20
-10.4203933493107
30
0
41
1
10
-30.9708959030155
20
-10.5529402613861
30
0
41
1
10
-30.9777953092696
20
-10.815985611611
30
0
41
1
10
-30.9831782641179
20
-10.9464846305112
30
0
41
1
10
-30.9980277307872
20
-11.2053204261075
30
0
41
1
10
-31.0074909213459
20
-11.333658961411
30
0
41
1
10
-31.0309520383002
20
-11.5879348907391
30
0
41
1
10
-31.0449413593767
20
-11.7138768412776
30
0
41
1
10
-31.0699640521917
20
-11.9006512707046
30
0
41
1
10
-31.0789925010703
20
-11.9626149191855
30
0
41
1
10
-31.0985197922663
20
-12.0853536939826
30
0
41
1
10
-31.1090149799109
20
-12.1461251829244
30
0
41
1
10
-31.1316836456084
20
-12.2662964730838
30
0
41
1
10
-31.1438549479183
20
-12.3256980525633
30
0
41
1
10
-31.1702012624288
20
-12.4428635543883
30
0
41
1
10
-31.1843712421239
20
-12.5006315898635
30
0
41
1
10
-31.215251732803
20
-12.6140912528426
30
0
41
1
10
-31.2319480136138
20
-12.6697945108449
30
0
41
1
10
-31.2596496194289
20
-12.7511776476688
30
0
41
1
10
-31.269330732714
20
-12.7779398212772
30
0
41
1
10
-31.2898206204752
20
-12.8305425169104
30
0
41
1
10
-31.3006256953053
20
-12.8563860627019
30
0
41
1
10
-31.3237443497553
20
-12.9068402344688
30
0
41
1
10
-31.3359968749228
20
-12.9313248552683
30
0
41
1
10
-31.3623030742785
20
-12.9778980463947
30
0
41
1
10
-31.3763538144416
20
-13.0000511107364
30
0
41
1
10
-31.3996123195163
20
-13.0305248013842
30
0
41
1
10
-31.4077338006011
20
-13.0402171757938
30
0
41
1
10
-31.4250044752431
20
-13.0583041398167
30
0
41
1
10
-31.4342063227092
20
-13.0667443009983
30
0
41
1
10
-31.4537358335999
20
-13.0813350568201
30
0
41
1
10
-31.4640680013394
20
-13.0875366165719
30
0
41
1
10
-31.4809347945916
20
-13.0942007763157
30
0
41
1
10
-31.4867689754925
20
-13.0959592346265
30
0
41
1
10
-31.4987695265093
20
-13.0982520756002
30
0
41
1
10
-31.5049588926807
20
-13.0987987727474
30
0
41
1
10
-31.5146084609661
20
-13.0984595317592
30
0
41
1
10
-31.5179009844923
20
-13.0981484520927
30
0
41
1
10
-31.5245047171155
20
-13.0971010373452
30
0
41
1
10
-31.5311452766929
20
-13.0956310095051
30
0
41
1
10
-31.5378642934663
20
-13.0932606346502
30
0
41
1
10
-31.5446253008473
20
-13.0904083904436
30
0
41
1
10
-31.5480480136681
20
-13.0887288115278
30
0
41
1
10
-31.5582177001601
20
-13.0830096250475
30
0
41
1
10
-31.5648179679005
20
-13.0783319471613
30
0
41
1
10
-31.577687455399
20
-13.0673817057353
30
0
41
1
10
-31.5839965957658
20
-13.0610473246906
30
0
41
1
10
-31.5958275050373
20
-13.0475041881128
30
0
41
1
10
-31.6014172059611
20
-13.0402503508104
30
0
41
1
10
-31.6120792030089
20
-13.024976673262
30
0
41
1
10
-31.6171684198044
20
-13.0169187898782
30
0
41
1
10
-31.6314755580393
20
-12.9923884568231
30
0
41
1
10
-31.6398873844074
20
-12.975399608373
30
0
41
1
10
-31.6553235899368
20
-12.9406392937118
30
0
41
1
10
-31.6623480733508
20
-12.9228042668225
30
0
41
1
10
-31.6751712230682
20
-12.8872936487409
30
0
41
1
10
-31.6810118139046
20
-12.8695168620474
30
0
41
1
10
-31.6973298182025
20
-12.8161412220391
30
0
41
1
10
-31.7066261909751
20
-12.7804979436955
30
0
41
1
10
-31.7233527311735
20
-12.7091411894047
30
0
41
1
10
-31.7307660688537
20
-12.6733888683792
30
0
41
1
10
-31.7442620339321
20
-12.6019987408077
30
0
41
1
10
-31.7503106880221
20
-12.5665196382702
30
0
41
1
10
-31.7669652168291
20
-12.4605429037016
30
0
41
1
10
-31.7761076686093
20
-12.3904971947183
30
0
41
1
10
-31.7920763347651
20
-12.251121059423
30
0
41
1
10
-31.798874912481
20
-12.1817991676523
30
0
41
1
10
-31.8108834227722
20
-12.0436459773194
30
0
41
1
10
-31.8160848263626
20
-11.9748173126129
30
0
41
1
10
-31.8299579674628
20
-11.768865894153
30
0
41
1
10
-31.8369326384218
20
-11.6322672154765
30
0
41
1
10
-31.8482528452256
20
-11.3598817674658
30
0
41
1
10
-31.8525686835723
20
-11.2241249656685
30
0
41
1
10
-31.8594677308272
20
-10.9534617543825
30
0
41
1
10
-31.8620435345824
20
-10.8185064429026
30
0
41
1
10
-31.8659662688388
20
-10.5491250717629
30
0
41
1
10
-31.8673094050546
20
-10.4147006462281
30
0
41
1
10
-31.8690154340586
20
-10.1462739669458
30
0
41
1
10
-31.869376997654
20
-10.0122722856559
30
0
41
1
10
-31.8692807746814
20
-9.87846776414111
30
0
0
SPLINE
5
1A8
100
AcDbEntity
8
SK1
62
256
6
ByLayer
370
18
48
1
60
0
100
AcDbSpline
70
4
71
3
72
85
73
81
40
0
40
0
40
0
40
0
40
0.0624999999999939
40
0.0624999999999939
40
0.124999999999988
40
0.124999999999988
40
0.187499999999982
40
0.187499999999982
40
0.249999999999976
40
0.249999999999976
40
0.281249999999973
40
0.281249999999973
40
0.31249999999997
40
0.31249999999997
40
0.343749999999968
40
0.343749999999968
40
0.374999999999965
40
0.374999999999965
40
0.406249999999962
40
0.406249999999962
40
0.421874999999961
40
0.421874999999961
40
0.437499999999961
40
0.437499999999961
40
0.45312499999996
40
0.45312499999996
40
0.468749999999959
40
0.468749999999959
40
0.476562499999958
40
0.476562499999958
40
0.484374999999957
40
0.484374999999957
40
0.492187499999955
40
0.492187499999955
40
0.496093749999955
40
0.496093749999955
40
0.499999999999955
40
0.499999999999955
40
0.501953124999955
40
0.501953124999955
40
0.503906249999955
40
0.505859374999956
40
0.505859374999956
40
0.507812499999956
40
0.507812499999956
40
0.511718749999956
40
0.511718749999956
40
0.515624999999955
40
0.515624999999955
40
0.519531249999955
40
0.519531249999955
40
0.523437499999954
40
0.523437499999954
40
0.531249999999954
40
0.531249999999954
40
0.539062499999955
40
0.539062499999955
40
0.546874999999955
40
0.546874999999955
40
0.562499999999956
40
0.562499999999956
40
0.578124999999957
40
0.578124999999957
40
0.593749999999958
40
0.593749999999958
40
0.624999999999961
40
0.624999999999961
40
0.656249999999964
40
0.656249999999964
40
0.687499999999967
40
0.687499999999967
40
0.749999999999974
40
0.749999999999974
40
0.81249999999998
40
0.81249999999998
40
0.874999999999987
40
0.874999999999987
40
0.937499999999994
40
0.937499999999994
40
1
40
1
40
1
40
1
41
1
10
-30.9697797028104
20
10.2868327052761
30
0
41
1
10
-30.9693805484014
20
10.4203933493107
30
0
41
1
10
-30.9708959030155
20
10.5529402613861
30
0
41
1
10
-30.9777953092696
20
10.815985611611
30
0
41
1
10
-30.9831782641179
20
10.9464846305112
30
0
41
1
10
-30.9980277307872
20
11.2053204261074
30
0
41
1
10
-31.0074909213458
20
11.3336589614109
30
0
41
1
10
-31.0309520383002
20
11.587934890739
30
0
41
1
10
-31.0449413593767
20
11.7138768412776
30
0
41
1
10
-31.0699640521917
20
11.9006512707045
30
0
41
1
10
-31.0789925010703
20
11.9626149191855
30
0
41
1
10
-31.0985197922663
20
12.0853536939825
30
0
41
1
10
-31.1090149799109
20
12.1461251829244
30
0
41
1
10
-31.1316836456084
20
12.2662964730837
30
0
41
1
10
-31.1438549479183
20
12.3256980525632
30
0
41
1
10
-31.1702012624288
20
12.4428635543883
30
0
41
1
10
-31.1843712421239
20
12.5006315898635
30
0
41
1
10
-31.2152517328029
20
12.6140912528426
30
0
41
1
10
-31.2319480136137
20
12.6697945108448
30
0
41
1
10
-31.2596496194289
20
12.7511776476687
30
0
41
1
10
-31.269330732714
20
12.7779398212771
30
0
41
1
10
-31.2898206204752
20
12.8305425169103
30
0
41
1
10
-31.3006256953053
20
12.8563860627019
30
0
41
1
10
-31.3237443497552
20
12.9068402344687
30
0
41
1
10
-31.3359968749228
20
12.9313248552682
30
0
41
1
10
-31.3623030742785
20
12.9778980463947
30
0
41
1
10
-31.3763538144415
20
13.0000511107364
30
0
41
1
10
-31.3996123195163
20
13.0305248013841
30
0
41
1
10
-31.407733800601
20
13.0402171757938
30
0
41
1
10
-31.425004475243
20
13.0583041398166
30
0
41
1
10
-31.4342063227091
20
13.0667443009983
30
0
41
1
10
-31.4537358335998
20
13.0813350568201
30
0
41
1
10
-31.4640680013393
20
13.0875366165718
30
0
41
1
10
-31.4809347945915
20
13.0942007763157
30
0
41
1
10
-31.4867689754925
20
13.0959592346265
30
0
41
1
10
-31.4987695265092
20
13.0982520756002
30
0
41
1
10
-31.5049588926806
20
13.0987987727474
30
0
41
1
10
-31.5146084609661
20
13.0984595317592
30
0
41
1
10
-31.5179009844922
20
13.0981484520927
30
0
41
1
10
-31.5245047171153
20
13.0971010373453
30
0
41
1
10
-31.5311452766927
20
13.0956310095051
30
0
41
1
10
-31.5378642934662
20
13.0932606346503
30
0
41
1
10
-31.5446253008471
20
13.0904083904437
30
0
41
1
10
-31.5480480136679
20
13.0887288115278
30
0
41
1
10
-31.55821770016
20
13.0830096250475
30
0
41
1
10
-31.5648179679004
20
13.0783319471614
30
0
41
1
10
-31.5776874553989
20
13.0673817057354
30
0
41
1
10
-31.5839965957657
20
13.0610473246907
30
0
41
1
10
-31.5958275050372
20
13.0475041881129
30
0
41
1
10
-31.601417205961
20
13.0402503508105
30
0
41
1
10
-31.6120792030089
20
13.0249766732622
30
0
41
1
10
-31.6171684198044
20
13.0169187898783
30
0
41
1
10
-31.6314755580392
20
12.9923884568232
30
0
41
1
10
-31.6398873844074
20
12.9753996083732
30
0
41
1
10
-31.6553235899367
20
12.940639293712
30
0
41
1
10
-31.6623480733508
20
12.9228042668227
30
0
41
1
10
-31.6751712230682
20
12.887293648741
30
0
41
1
10
-31.6810118139046
20
12.8695168620476
30
0
41
1
10
-31.6973298182025
20
12.8161412220393
30
0
41
1
10
-31.7066261909751
20
12.7804979436957
30
0
41
1
10
-31.7233527311735
20
12.7091411894048
30
0
41
1
10
-31.7307660688537
20
12.6733888683794
30
0
41
1
10
-31.744262033932
20
12.6019987408078
30
0
41
1
10
-31.750310688022
20
12.5665196382704
30
0
41
1
10
-31.7669652168291
20
12.4605429037017
30
0
41
1
10
-31.7761076686093
20
12.3904971947184
30
0
41
1
10
-31.7920763347651
20
12.2511210594231
30
0
41
1
10
-31.798874912481
20
12.1817991676524
30
0
41
1
10
-31.8108834227722
20
12.0436459773195
30
0
41
1
10
-31.8160848263625
20
11.974817312613
30
0
41
1
10
-31.8299579674628
20
11.7688658941531
30
0
41
1
10
-31.8369326384218
20
11.6322672154766
30
0
41
1
10
-31.8482528452256
20
11.3598817674659
30
0
41
1
10
-31.8525686835723
20
11.2241249656685
30
0
41
1
10
-31.8594677308272
20
10.9534617543825
30
0
41
1
10
-31.8620435345824
20
10.8185064429027
30
0
41
1
10
-31.8659662688388
20
10.5491250717629
30
0
41
1
10
-31.8673094050546
20
10.4147006462281
30
0
41
1
10
-31.8690154340586
20
10.1462739669458
30
0
41
1
10
-31.869376997654
20
10.012272285656
30
0
41
1
10
-31.8692807746814
20
9.87846776414111
30
0
0
SPLINE
5
1A9
100
AcDbEntity
8
SK1
62
256
6
ByLayer
370
18
48
1
60
0
100
AcDbSpline
70
4
71
3
72
21
73
17
40
0
40
0
40
0
40
0
40
0.249999999999995
40
0.249999999999995
40
0.312499999999994
40
0.312499999999994
40
0.374999999999993
40
0.499999999999996
40
0.499999999999996
40
0.749999999999995
40
0.749999999999995
40
0.812499999999996
40
0.812499999999996
40
0.874999999999997
40
0.874999999999997
40
1
40
1
40
1
40
1
41
1
10
-31.8692807746814
20
9.87846776414111
30
0
41
1
10
-31.8692299147198
20
9.80774356339532
30
0
41
1
10
-31.8707678265068
20
9.73390897762897
30
0
41
1
10
-31.8742083558994
20
9.63782326557526
30
0
41
1
10
-31.8749676630486
20
9.61845651934684
30
0
41
1
10
-31.87658886101
20
9.57971643372329
30
0
41
1
10
-31.8791786747931
20
9.52147183361953
30
0
41
1
10
-31.882101951808
20
9.46284067673682
30
0
41
1
10
-31.8880002377309
20
9.34509904355173
30
0
41
1
10
-31.891999405525
20
9.26596769873353
30
0
41
1
10
-31.8957563161762
20
9.16633792063703
30
0
41
1
10
-31.8964456824745
20
9.14637601383598
30
0
41
1
10
-31.8976676502273
20
9.10638170014417
30
0
41
1
10
-31.8982008064945
20
9.08632050783882
30
0
41
1
10
-31.8995113892774
20
9.02627681714088
30
0
41
1
10
-31.9
20
8.98645648434862
30
0
41
1
10
-31.9
20
8.94683005895271
30
0
0
SPLINE
5
1AA
100
AcDbEntity
8
SK1
62
256
6
ByLayer
370
18
48
1
60
0
100
AcDbSpline
70
4
71
3
72
14
73
10
40
0
40
0
40
0
40
0
40
0.25
40
0.25
40
0.5
40
0.5
40
0.75
40
0.75
40
1
40
1
40
1
40
1
41
1
10
-30.7600449304182
20
9.34174801463021
30
0
41
1
10
-30.7900404769229
20
9.4199095564764
30
0
41
1
10
-30.8180896999408
20
9.49767682896677
30
0
41
1
10
-30.8687458608594
20
9.65314598350403
30
0
41
1
10
-30.8913498391749
20
9.73084941234231
30
0
41
1
10
-30.9290751655626
20
9.88712385607934
30
0
41
1
10
-30.9441756135538
20
9.96570568126734
30
0
41
1
10
-30.9646688220374
20
10.1247204904456
30
0
41
1
10
-30.9700237499846
20
10.2051723327198
30
0
41
1
10
-30.9697797028104
20
10.286832705276
30
0
0
SPLINE
5
1AB
100
AcDbEntity
8
SK1
62
256
6
ByLayer
370
18
48
1
60
0
100
AcDbSpline
70
4
71
3
72
14
73
10
40
0
40
0
40
0
40
0
40
0.25
40
0.25
40
0.5
40
0.5
40
0.75
40
0.75
40
1
40
1
40
1
40
1
41
1
10
-30.7600449304182
20
-9.34174801463021
30
0
41
1
10
-30.7900404769229
20
-9.4199095564764
30
0
41
1
10
-30.8180896999408
20
-9.49767682896677
30
0
41
1
10
-30.8687458608594
20
-9.65314598350403
30
0
41
1
10
-30.8913498391749
20
-9.73084941234231
30
0
41
1
10
-30.9290751655626
20
-9.88712385607937
30
0
41
1
10
-30.9441756135538
20
-9.96570568126734
30
0
41
1
10
-30.9646688220374
20
-10.1247204904456
30
0
41
1
10
-30.9700237499846
20
-10.2051723327198
30
0
41
1
10
-30.9697797028104
20
-10.2868327052761
30
0
0
SPLINE
5
1AC
100
AcDbEntity
8
SK1
62
256
6
ByLayer
370
18
48
1
60
0
100
AcDbSpline
70
4
71
3
72
21
73
17
40
0
40
0
40
0
40
0
40
0.250000000000009
40
0.250000000000009
40
0.312500000000011
40
0.312500000000011
40
0.375000000000014
40
0.500000000000013
40
0.500000000000013
40
0.750000000000003
40
0.750000000000003
40
0.812500000000001
40
0.812500000000001
40
0.874999999999999
40
0.874999999999999
40
1
40
1
40
1
40
1
41
1
10
-31.8692807746814
20
-9.87846776414111
30
0
41
1
10
-31.8692299147198
20
-9.80774356339535
30
0
41
1
10
-31.8707678265068
20
-9.73390897762897
30
0
41
1
10
-31.8742083558994
20
-9.63782326557526
30
0
41
1
10
-31.8749676630486
20
-9.61845651934684
30
0
41
1
10
-31.87658886101
20
-9.57971643372329
30
0
41
1
10
-31.8791786747931
20
-9.52147183361953
30
0
41
1
10
-31.882101951808
20
-9.46284067673682
30
0
41
1
10
-31.8880002377309
20
-9.34509904355173
30
0
41
1
10
-31.891999405525
20
-9.26596769873353
30
0
41
1
10
-31.8957563161762
20
-9.16633792063703
30
0
41
1
10
-31.8964456824745
20
-9.14637601383598
30
0
41
1
10
-31.8976676502273
20
-9.10638170014417
30
0
41
1
10
-31.8982008064945
20
-9.08632050783882
30
0
41
1
10
-31.8995113892774
20
-9.02627681714088
30
0
41
1
10
-31.9
20
-8.98645648434862
30
0
41
1
10
-31.9
20
-8.94683005895271
30
0
0
SPLINE
5
1AD
100
AcDbEntity
8
SK1
62
256
6
ByLayer
370
18
48
1
60
0
100
AcDbSpline
70
2053
71
3
72
183
73
179
40
0
40
0
40
0
40
0
40
0.0156249999999996
40
0.0312499999999991
40
0.0312499999999991
40
0.039062499999999
40
0.0429687499999989
40
0.0429687499999989
40
0.0468749999999987
40
0.0468749999999987
40
0.0624999999999983
40
0.0781249999999978
40
0.0781249999999978
40
0.0937499999999973
40
0.0937499999999973
40
0.0976562499999971
40
0.0976562499999971
40
0.101562499999997
40
0.101562499999997
40
0.109374999999997
40
0.109374999999997
40
0.124999999999996
40
0.140624999999996
40
0.140624999999996
40
0.148437499999996
40
0.148437499999996
40
0.152343749999995
40
0.152343749999995
40
0.156249999999995
40
0.156249999999995
40
0.171874999999995
40
0.171874999999995
40
0.187499999999994
40
0.187499999999994
40
0.195312499999994
40
0.195312499999994
40
0.199218749999994
40
0.199218749999994
40
0.203124999999994
40
0.203124999999994
40
0.218749999999994
40
0.218749999999994
40
0.234374999999993
40
0.234374999999993
40
0.242187499999993
40
0.242187499999993
40
0.246093749999993
40
0.246093749999993
40
0.249999999999993
40
0.249999999999993
40
0.265624999999993
40
0.265624999999993
40
0.281249999999993
40
0.281249999999993
40
0.289062499999993
40
0.292968749999993
40
0.292968749999993
40
0.296874999999993
40
0.296874999999993
40
0.312499999999993
40
0.312499999999993
40
0.328124999999993
40
0.343749999999993
40
0.343749999999993
40
0.351562499999993
40
0.351562499999993
40
0.359374999999993
40
0.359374999999993
40
0.374999999999993
40
0.390624999999994
40
0.390624999999994
40
0.398437499999994
40
0.402343749999994
40
0.402343749999994
40
0.406249999999994
40
0.406249999999994
40
0.421874999999995
40
0.437499999999995
40
0.453124999999995
40
0.453124999999995
40
0.460937499999995
40
0.460937499999995
40
0.468749999999995
40
0.468749999999995
40
0.484374999999995
40
0.499999999999996
40
0.499999999999996
40
0.515624999999996
40
0.515624999999996
40
0.523437499999996
40
0.523437499999996
40
0.527343749999996
40
0.527343749999996
40
0.531249999999996
40
0.546874999999996
40
0.562499999999996
40
0.562499999999996
40
0.578124999999996
40
0.578124999999996
40
0.582031249999996
40
0.582031249999996
40
0.585937499999996
40
0.585937499999996
40
0.593749999999996
40
0.593749999999996
40
0.609374999999996
40
0.609374999999996
40
0.624999999999996
40
0.624999999999996
40
0.632812499999996
40
0.632812499999996
40
0.636718749999996
40
0.636718749999996
40
0.640624999999996
40
0.640624999999996
40
0.656249999999996
40
0.671874999999997
40
0.671874999999997
40
0.679687499999997
40
0.679687499999997
40
0.683593749999997
40
0.683593749999997
40
0.687499999999997
40
0.687499999999997
40
0.703124999999997
40
0.703124999999997
40
0.718749999999997
40
0.718749999999997
40
0.726562499999997
40
0.726562499999997
40
0.730468749999997
40
0.730468749999997
40
0.734374999999997
40
0.734374999999997
40
0.749999999999997
40
0.749999999999997
40
0.765624999999997
40
0.765624999999997
40
0.773437499999997
40
0.773437499999997
40
0.777343749999997
40
0.777343749999997
40
0.781249999999997
40
0.781249999999997
40
0.796874999999997
40
0.796874999999997
40
0.812499999999997
40
0.828124999999998
40
0.828124999999998
40
0.832031249999998
40
0.832031249999998
40
0.835937499999998
40
0.843749999999998
40
0.843749999999998
40
0.859374999999998
40
0.874999999999998
40
0.874999999999998
40
0.882812499999998
40
0.882812499999998
40
0.890624999999998
40
0.890624999999998
40
0.906249999999998
40
0.921874999999998
40
0.921874999999998
40
0.937499999999998
40
0.937499999999998
40
0.945312499999998
40
0.945312499999998
40
0.949218749999998
40
0.949218749999998
40
0.953124999999998
40
0.968749999999999
40
0.984374999999999
40
0.984374999999999
40
0.9921875
40
0.99609375
40
0.99609375
40
1
40
1
40
1
40
1
41
1
10
-11.4681204191151
20
-3.28721445789113
30
0
41
1
10
-11.5847957657171
20
-3.20636378886243
30
0
41
1
10
-11.8088242734413
20
-3.03464223444419
30
0
41
1
10
-12.0143326430346
20
-2.84296924999623
30
0
41
1
10
-12.1613551672144
20
-2.69153884007201
30
0
41
1
10
-12.2330862614078
20
-2.6139014956477
30
0
41
1
10
-12.3020831061896
20
-2.53330851338322
30
0
41
1
10
-12.3474642847756
20
-2.47891283669298
30
0
41
1
10
-12.3698708944452
20
-2.45134933313901
30
0
41
1
10
-12.479782568463
20
-2.31254823861389
30
0
41
1
10
-12.6427933961222
20
-2.08340154785208
30
0
41
1
10
-12.7804409846279
20
-1.84027568412353
30
0
41
1
10
-12.905179237126
20
-1.5900200564096
30
0
41
1
10
-12.9610959363317
20
-1.46132861640237
30
0
41
1
10
-13.022516565245
20
-1.29577545026493
30
0
41
1
10
-13.0343757721356
20
-1.26242973795351
30
0
41
1
10
-13.0572292156026
20
-1.19525960752847
30
0
41
1
10
-13.0682245613352
20
-1.16142481082432
30
0
41
1
10
-13.0996857195727
20
-1.0598787010135
30
0
41
1
10
-13.1187066177624
20
-0.99190174683298
30
0
41
1
10
-13.1699966571392
20
-0.787144176920094
30
0
41
1
10
-13.2230148165891
20
-0.51193306298083
30
0
41
1
10
-13.2454889136976
20
-0.232343719943259
30
0
41
1
10
-13.2505982867545
20
-0.0209673670418624
30
0
41
1
10
-13.2503399093062
20
0.0497726781011636
30
0
41
1
10
-13.2469365039879
20
0.156315184739981
30
0
41
1
10
-13.2452991642846
20
0.191848461785952
30
0
41
1
10
-13.2410429449998
20
0.26260576929343
30
0
41
1
10
-13.238422655649
20
0.29788055730657
30
0
41
1
10
-13.2228904369507
20
0.473741570914569
30
0
41
1
10
-13.2027059118386
20
0.612793118018203
30
0
41
1
10
-13.1472632100579
20
0.887717475546907
30
0
41
1
10
-13.112004059108
20
1.02359007716612
30
0
41
1
10
-13.0477814830663
20
1.22501166377558
30
0
41
1
10
-13.0244813481594
20
1.29175355220838
30
0
41
1
10
-12.9866550651022
20
1.39126105134059
30
0
41
1
10
-12.9735673760034
20
1.42432226200259
30
0
41
1
10
-12.9465940156617
20
1.48984873967109
30
0
41
1
10
-12.9326897576672
20
1.52236409955998
30
0
41
1
10
-12.8611124023998
20
1.6837209157087
30
0
41
1
10
-12.7972883829372
20
1.80891261083696
30
0
41
1
10
-12.6570409007133
20
2.05183433442196
30
0
41
1
10
-12.5806158295878
20
2.16956338663476
30
0
41
1
10
-12.456614037022
20
2.34062360706454
30
0
41
1
10
-12.4137163910493
20
2.39671968054481
30
0
41
1
10
-12.3470080832682
20
2.47946985072323
30
0
41
1
10
-12.3243587430964
20
2.50684198941997
30
0
41
1
10
-12.2785103065266
20
2.56083928769198
30
0
41
1
10
-12.2552856904668
20
2.58749731720516
30
0
41
1
10
-12.1376841190669
20
2.7191119186831
30
0
41
1
10
-12.0388838172259
20
2.81905564230189
30
0
41
1
10
-11.8322424541654
20
3.00872015529549
30
0
41
1
10
-11.7244000562005
20
3.09843939257857
30
0
41
1
10
-11.5559397289975
20
3.22546261607789
30
0
41
1
10
-11.4700325268677
20
3.28708208116035
30
0
41
1
10
-11.3815971444373
20
3.34585217732871
30
0
41
1
10
-11.3220754526997
20
3.38439605897176
30
0
41
1
10
-11.292040288245
20
3.40334311576908
30
0
41
1
10
-11.1412090975778
20
3.49602533210225
30
0
41
1
10
-11.0178624240849
20
3.56400450490753
30
0
41
1
10
-10.7660399087142
20
3.68817940401553
30
0
41
1
10
-10.5090870676334
20
3.80056820619214
30
0
41
1
10
-10.2420386902451
20
3.88978307614644
30
0
41
1
10
-10.0379253701214
20
3.94791534242634
30
0
41
1
10
-9.96909745915056
20
3.96585824226258
30
0
41
1
10
-9.83135291982148
20
3.99849996722389
30
0
41
1
10
-9.76234395534394
20
4.01323252928683
30
0
41
1
10
-9.55491657989552
20
4.05276667806274
30
0
41
1
10
-9.27728095010187
20
4.09306602794717
30
0
41
1
10
-8.99756793694371
20
4.10909818487875
30
0
41
1
10
-8.78700252968957
20
4.11199303272582
30
0
41
1
10
-8.68152435641588
20
4.11115479473293
30
0
41
1
10
-8.57574943133045
20
4.10684733502725
30
0
41
1
10
-8.50516629236202
20
4.10319823461512
30
0
41
1
10
-8.46980183964931
20
4.10098187757546
30
0
41
1
10
-8.29331585260809
20
4.08797492768474
30
0
41
1
10
-8.01401881209091
20
4.05498113360133
30
0
41
1
10
-7.60401258929522
20
3.97004848933153
30
0
41
1
10
-7.33658355744123
20
3.88990547023428
30
0
41
1
10
-7.13826597722021
20
3.82077406868677
30
0
41
1
10
-7.07253642101864
20
3.79622368633017
30
0
41
1
10
-6.94184416469395
20
3.74404261833914
30
0
41
1
10
-6.87677097778638
20
3.71635464186531
30
0
41
1
10
-6.68462051554101
20
3.62943113113022
30
0
41
1
10
-6.43547363472479
20
3.50286058308376
30
0
41
1
10
-6.20019551432108
20
3.35519532315166
30
0
41
1
10
-5.97193167710211
20
3.19679929975951
30
0
41
1
10
-5.86130586018859
20
3.11223762034933
30
0
41
1
10
-5.70084746445252
20
2.976960518319
30
0
41
1
10
-5.64827648052716
20
2.93045963401406
30
0
41
1
10
-5.57083822625771
20
2.85851887399454
30
0
41
1
10
-5.54527212997712
20
2.83418073743806
30
0
41
1
10
-5.49491518416582
20
2.78505654772476
30
0
41
1
10
-5.37077964737091
20
2.66094633260135
30
0
41
1
10
-5.16297868868602
20
2.42595959782511
30
0
41
1
10
-5.00050606880197
20
2.20052579380771
30
0
41
1
10
-4.84949796142115
20
1.96651765590468
30
0
41
1
10
-4.77972332880711
20
1.84522860126069
30
0
41
1
10
-4.700133460562
20
1.68788889345916
30
0
41
1
10
-4.68459802487297
20
1.65613369721737
30
0
41
1
10
-4.65430866683164
20
1.59203591940047
30
0
41
1
10
-4.63961951812664
20
1.55982931719768
30
0
41
1
10
-4.59697075937379
20
1.46287124767929
30
0
41
1
10
-4.57040176631844
20
1.39772438763279
30
0
41
1
10
-4.49623484469882
20
1.20077091984024
30
0
41
1
10
-4.45416284893426
20
1.06745519319733
30
0
41
1
10
-4.38483973098332
20
0.796766705688356
30
0
41
1
10
-4.3575871714846
20
0.659394347137265
30
0
41
1
10
-4.32823260598516
20
0.450176351386972
30
0
41
1
10
-4.32037224999971
20
0.379909429312818
30
0
41
1
10
-4.3115575089962
20
0.273692890960888
30
0
41
1
10
-4.30911679194932
20
0.238135875832171
30
0
41
1
10
-4.30526526658653
20
0.16724966843708
30
0
41
1
10
-4.3038485515705
20
0.131858516368624
30
0
41
1
10
-4.29928105665195
20
-0.0448404413604351
30
0
41
1
10
-4.30803508602503
20
-0.325919299754872
30
0
41
1
10
-4.34808834866413
20
-0.603804167887773
30
0
41
1
10
-4.38992362484706
20
-0.811015490754897
30
0
41
1
10
-4.40583834464758
20
-0.879885172994932
30
0
41
1
10
-4.43270705638068
20
-0.982884526717726
30
0
41
1
10
-4.44217032644491
20
-1.01718590861154
30
0
41
1
10
-4.46197488601172
20
-1.08525827353964
30
0
41
1
10
-4.47232916662631
20
-1.11908206240855
30
0
41
1
10
-4.5263240712415
20
-1.28715681124945
30
0
41
1
10
-4.57661619545104
20
-1.41828396944325
30
0
41
1
10
-4.69077786428738
20
-1.67418013668302
30
0
41
1
10
-4.7546492840998
20
-1.79894823810969
30
0
41
1
10
-4.86051605570705
20
-1.9814064307725
30
0
41
1
10
-4.89748488130371
20
-2.0414419878403
30
0
41
1
10
-4.95547186109607
20
-2.1303154752336
30
0
41
1
10
-4.97518021274971
20
-2.1596756517269
30
0
41
1
10
-5.01523978740315
20
-2.217721162483
30
0
41
1
10
-5.03560698791506
20
-2.24643108036469
30
0
41
1
10
-5.13910252836226
20
-2.38844383924379
30
0
41
1
10
-5.22719533278763
20
-2.49714930138438
30
0
41
1
10
-5.41350735624911
20
-2.70522982093635
30
0
41
1
10
-5.51172813427723
20
-2.80460335382807
30
0
41
1
10
-5.66655415949984
20
-2.94679456592945
30
0
41
1
10
-5.71941439629157
20
-2.99304456512115
30
0
41
1
10
-5.80059087070436
20
-3.06069559037783
30
0
41
1
10
-5.82799317936011
20
-3.08298061083815
30
0
41
1
10
-5.88318202724082
20
-3.12678008067562
30
0
41
1
10
-5.91098923808764
20
-3.14831291582721
30
0
41
1
10
-6.0510739235954
20
-3.25417181988109
30
0
41
1
10
-6.16648897178851
20
-3.33309671162854
30
0
41
1
10
-6.40376177839866
20
-3.4799237142162
30
0
41
1
10
-6.6474790977706
20
-3.61572496141656
30
0
41
1
10
-6.90397104300809
20
-3.72979522464124
30
0
41
1
10
-7.06834851829942
20
-3.79420120928529
30
0
41
1
10
-7.10138315716435
20
-3.80671878486652
30
0
41
1
10
-7.1675615058642
20
-3.83095549389327
30
0
41
1
10
-7.26708520507506
20
-3.86614831884387
30
0
41
1
10
-7.36736914889528
20
-3.89789807262144
30
0
41
1
10
-7.56893622146873
20
-3.95688640216028
30
0
41
1
10
-7.84035247995467
20
-4.02352885778007
30
0
41
1
10
-8.11704065087486
20
-4.06649285805167
30
0
41
1
10
-8.32656566210039
20
-4.08972391593824
30
0
41
1
10
-8.39674266334194
20
-4.09596647403572
30
0
41
1
10
-8.5377791390604
20
-4.10539963226083
30
0
41
1
10
-8.60876511922163
20
-4.10858710179377
30
0
41
1
10
-8.82076408550674
20
-4.11345352733886
30
0
41
1
10
-9.10197722702191
20
-4.10756122538092
30
0
41
1
10
-9.38034954873871
20
-4.07745248182755
30
0
41
1
10
-9.6572941955375
20
-4.03519051548733
30
0
41
1
10
-9.79505279470982
20
-4.00798382236931
30
0
41
1
10
-10.0005846008154
20
-3.95778205961514
30
0
41
1
10
-10.0689105328774
20
-3.93948024155713
30
0
41
1
10
-10.1711148277304
20
-3.90961523742931
30
0
41
1
10
-10.2051251598403
20
-3.89925968500816
30
0
41
1
10
-10.2727097036818
20
-3.87784645157393
30
0
41
1
10
-10.4407902593359
20
-3.8224901810967
30
0
41
1
10
-10.7354909469787
20
-3.7066087702992
30
0
41
1
10
-10.9863587203157
20
-3.58062525866876
30
0
41
1
10
-11.1702603297196
20
-3.4773225114707
30
0
41
1
10
-11.261147174977
20
-3.42346390779153
30
0
41
1
10
-11.3504025722982
20
-3.36621876428424
30
0
41
1
10
-11.4095385806372
20
-3.32729206098463
30
0
41
1
10
-11.4389515824646
20
-3.30742712514831
30
0
41
1
10
-11.4681204191151
20
-3.28721445789113
30
0
0
SPLINE
5
1AE
100
AcDbEntity
8
SK1
62
256
6
ByLayer
370
18
48
1
60
0
100
AcDbSpline
70
4
71
3
72
8
73
4
40
0
40
0
40
0
40
0
40
1
40
1
40
1
40
1
41
1
10
-30.7600449304182
20
9.34174801463021
30
0
41
1
10
-30.7414872158135
20
9.29339084979495
30
0
41
1
10
-30.7218522549563
20
9.24533982137714
30
0
41
1
10
-30.70125
20
9.19755885599326
30
0
0
SPLINE
5
1AF
100
AcDbEntity
8
SK1
62
256
6
ByLayer
370
18
48
1
60
0
100
AcDbSpline
70
4
71
3
72
44
73
40
40
0
40
0
40
0
40
0
40
0.0078125000000004
40
0.0078125000000004
40
0.0156250000000008
40
0.0156250000000008
40
0.0234375000000011
40
0.0234375000000011
40
0.0312500000000015
40
0.0312500000000015
40
0.0468750000000029
40
0.0468750000000029
40
0.0546875000000034
40
0.0546875000000034
40
0.0625000000000038
40
0.0625000000000038
40
0.0781250000000042
40
0.0781250000000042
40
0.0937500000000045
40
0.0937500000000045
40
0.125000000000005
40
0.125000000000005
40
0.156250000000006
40
0.156250000000006
40
0.187500000000007
40
0.187500000000007
40
0.250000000000006
40
0.250000000000006
40
0.312500000000005
40
0.312500000000005
40
0.375000000000005
40
0.375000000000005
40
0.500000000000003
40
0.500000000000003
40
0.625000000000002
40
0.625000000000002
40
0.750000000000001
40
0.750000000000001
40
1
40
1
40
1
40
1
41
1
10
-25.9833434997484
20
10.4087426392499
30
0
41
1
10
-25.9828031618322
20
10.3968448251537
30
0
41
1
10
-25.9838914660093
20
10.3851042535958
30
0
41
1
10
-25.9890236323278
20
10.3619084659698
30
0
41
1
10
-25.9931333824195
20
10.3503660360948
30
0
41
1
10
-26.0035108983183
20
10.3284793808975
30
0
41
1
10
-26.0097833008974
20
10.3180112117335
30
0
41
1
10
-26.0240019197853
20
10.297808816648
30
0
41
1
10
-26.0319777000089
20
10.288060206512
30
0
41
1
10
-26.0572642628517
20
10.2603472770828
30
0
41
1
10
-26.0760833795908
20
10.2435924197252
30
0
41
1
10
-26.1060653331202
20
10.2199980348718
30
0
41
1
10
-26.1163855034072
20
10.2123831199457
30
0
41
1
10
-26.1374112205773
20
10.1976642104272
30
0
41
1
10
-26.1480862607682
20
10.1905795389156
30
0
41
1
10
-26.1805020443379
20
10.1699874282922
30
0
41
1
10
-26.2026285707414
20
10.1571336252841
30
0
41
1
10
-26.2475993651115
20
10.1326421220294
30
0
41
1
10
-26.2704469285868
20
10.1210100051506
30
0
41
1
10
-26.3398016510718
20
10.0874895508003
30
0
41
1
10
-26.3871071994478
20
10.0669539958183
30
0
41
1
10
-26.4830721960951
20
10.0281770530914
30
0
41
1
10
-26.5318115234254
20
10.0099337406444
30
0
41
1
10
-26.6296273769646
20
9.97531073880612
30
0
41
1
10
-26.6787817533781
20
9.95890522298876
30
0
41
1
10
-26.8267903169712
20
9.91169386546738
30
0
41
1
10
-26.926180450836
20
9.88285834016619
30
0
41
1
10
-27.1258560688841
20
9.82847924952515
30
0
41
1
10
-27.2261500148117
20
9.80296678681466
30
0
41
1
10
-27.4273774831828
20
9.75429368700415
30
0
41
1
10
-27.5283138087648
20
9.73114335332059
30
0
41
1
10
-27.8318508313425
20
9.66436984604073
30
0
41
1
10
-28.0351676379407
20
9.62338029285485
30
0
41
1
10
-28.4430293749969
20
9.5459192303648
30
0
41
1
10
-28.6476200301024
20
9.50947976699214
30
0
41
1
10
-29.0571977039526
20
9.43995789482196
30
0
41
1
10
-29.2622565030359
20
9.40687476603708
30
0
41
1
10
-29.8780477589523
20
9.31144728367443
30
0
41
1
10
-30.2893853411834
20
9.25286437069164
30
0
41
1
10
-30.7012499999992
20
9.19755885598815
30
0
0
SPLINE
5
1B0
100
AcDbEntity
8
SK1
62
256
6
ByLayer
370
18
48
1
60
0
100
AcDbSpline
70
4
71
3
72
40
73
36
40
0
40
0
40
0
40
0
40
0.125000000000006
40
0.125000000000006
40
0.250000000000011
40
0.250000000000011
40
0.312500000000013
40
0.312500000000013
40
0.375000000000014
40
0.375000000000014
40
0.500000000000015
40
0.500000000000015
40
0.562500000000015
40
0.562500000000015
40
0.625000000000015
40
0.625000000000015
40
0.656250000000014
40
0.656250000000014
40
0.687500000000013
40
0.687500000000013
40
0.750000000000011
40
0.750000000000011
40
0.78125000000001
40
0.78125000000001
40
0.812500000000009
40
0.812500000000009
40
0.875000000000009
40
0.875000000000009
40
0.906250000000008
40
0.906250000000008
40
0.921875000000007
40
0.921875000000007
40
0.937500000000007
40
0.937500000000007
40
1
40
1
40
1
40
1
41
1
10
-23.2
20
12.7116897284782
30
0
41
1
10
-23.3511498698863
20
12.650123192385
30
0
41
1
10
-23.5011417738728
20
12.5865607807969
30
0
41
1
10
-23.7982575980832
20
12.4544926872604
30
0
41
1
10
-23.9453860922001
20
12.3859948888956
30
0
41
1
10
-24.1633277841841
20
12.2785064699669
30
0
41
1
10
-24.2355141475595
20
12.2418826439598
30
0
41
1
10
-24.3788251046806
20
12.1668049207963
30
0
41
1
10
-24.4498886068506
20
12.128381513928
30
0
41
1
10
-24.6605180310533
20
12.0103267290447
30
0
41
1
10
-24.7977509432142
20
11.9278665996181
30
0
41
1
10
-24.9969552111743
20
11.7963422169375
30
0
41
1
10
-25.0622401051568
20
11.7511844333778
30
0
41
1
10
-25.1900960100751
20
11.6576693552558
30
0
41
1
10
-25.2526702413816
20
11.609315857324
30
0
41
1
10
-25.3439908091237
20
11.5337901788166
30
0
41
1
10
-25.374005721696
20
11.5081135760673
30
0
41
1
10
-25.4330711781515
20
11.4556234357123
30
0
41
1
10
-25.4621594165359
20
11.4287708120819
30
0
41
1
10
-25.5471770614402
20
11.3468460346437
30
0
41
1
10
-25.6010398129091
20
11.2902862858341
30
0
41
1
10
-25.6764945943256
20
11.2017617320436
30
0
41
1
10
-25.7007521766219
20
11.1716365485715
30
0
41
1
10
-25.7472269417682
20
11.1099780071789
30
0
41
1
10
-25.7694641654583
20
11.0784152628229
30
0
41
1
10
-25.8325202493385
20
10.9814738917701
30
0
41
1
10
-25.8690266895949
20
10.9149004002389
30
0
41
1
10
-25.9137039563343
20
10.8114929526911
30
0
41
1
10
-25.9269103792575
20
10.776430631461
30
0
41
1
10
-25.943903925382
20
10.7228463871544
30
0
41
1
10
-25.9490985759968
20
10.7048196635162
30
0
41
1
10
-25.958493297034
20
10.6684163008152
30
0
41
1
10
-25.9626968383489
20
10.650009603911
30
0
41
1
10
-25.9809200317924
20
10.5579692927412
30
0
41
1
10
-25.9867474411683
20
10.4836947403972
30
0
41
1
10
-25.9833434997534
20
10.4087426392502
30
0
0
SPLINE
5
1B1
100
AcDbEntity
8
SK1
62
256
6
ByLayer
370
18
48
1
60
0
100
AcDbSpline
70
4
71
3
72
49
73
45
40
0
40
0
40
0
40
0
40
0.0156250000000044
40
0.0156250000000044
40
0.0234375000000065
40
0.0234375000000065
40
0.0312500000000086
40
0.0390625000000106
40
0.0390625000000106
40
0.0468750000000127
40
0.0468750000000127
40
0.0625000000000149
40
0.0625000000000149
40
0.0703125000000155
40
0.0703125000000155
40
0.0781250000000162
40
0.0781250000000162
40
0.0937500000000148
40
0.0937500000000148
40
0.125000000000014
40
0.125000000000014
40
0.156250000000014
40
0.156250000000014
40
0.187500000000014
40
0.187500000000014
40
0.218750000000013
40
0.218750000000013
40
0.250000000000013
40
0.250000000000013
40
0.312500000000011
40
0.312500000000011
40
0.375000000000008
40
0.375000000000008
40
0.500000000000005
40
0.500000000000005
40
0.625000000000002
40
0.625000000000002
40
0.687500000000001
40
0.687500000000001
40
0.75
40
0.75
40
0.875
40
0.875
40
1
40
1
40
1
40
1
41
1
10
-23.2
20
12.7116897284782
30
0
41
1
10
-23.1861263738958
20
12.717340749567
30
0
41
1
10
-23.1718181484693
20
12.7215852807745
30
0
41
1
10
-23.1495705820266
20
12.7254130871728
30
0
41
1
10
-23.1419558829897
20
12.7262661039696
30
0
41
1
10
-23.1267710245218
20
12.7270131657634
30
0
41
1
10
-23.1117483110011
20
12.726814044429
30
0
41
1
10
-23.0970313418169
20
12.7248305189462
30
0
41
1
10
-23.0824594197307
20
12.7219999808117
30
0
41
1
10
-23.0751972475898
20
12.7201424802591
30
0
41
1
10
-23.0541683727243
20
12.7135490191578
30
0
41
1
10
-23.0410262338589
20
12.7078076749796
30
0
41
1
10
-23.0222759824085
20
12.6977143399288
30
0
41
1
10
-23.0161653761048
20
12.6940841789243
30
0
41
1
10
-23.0043574985133
20
12.6864683517972
30
0
41
1
10
-22.9986643953669
20
12.6824889718798
30
0
41
1
10
-22.9821128438073
20
12.6701206075409
30
0
41
1
10
-22.9717769671596
20
12.6613055755216
30
0
41
1
10
-22.9423174354007
20
12.6335912696757
30
0
41
1
10
-22.9246416181742
20
12.6133226736246
30
0
41
1
10
-22.892600097543
20
12.5716725243324
30
0
41
1
10
-22.8781266650963
20
12.5501665830583
30
0
41
1
10
-22.851228655901
20
12.5062309802182
30
0
41
1
10
-22.8388186769919
20
12.483795167677
30
0
41
1
10
-22.8155229034175
20
12.4382186345104
30
0
41
1
10
-22.8046422524309
20
12.4150757491969
30
0
41
1
10
-22.7840801449199
20
12.3682200798539
30
0
41
1
10
-22.7743855330712
20
12.3444641525157
30
0
41
1
10
-22.7469250060528
20
12.2728798445079
30
0
41
1
10
-22.7307289881771
20
12.2246986376881
30
0
41
1
10
-22.7012516700928
20
12.1276303410173
30
0
41
1
10
-22.6879871624016
20
12.078740514427
30
0
41
1
10
-22.6515479659095
20
11.9311750213956
30
0
41
1
10
-22.6316754243823
20
11.8316117899703
30
0
41
1
10
-22.5979028786882
20
11.6305659892212
30
0
41
1
10
-22.5840501695142
20
11.5290757663779
30
0
41
1
10
-22.5668031549043
20
11.3755455465696
30
0
41
1
10
-22.5616502875565
20
11.3241517798417
30
0
41
1
10
-22.5524349659652
20
11.2209451416354
30
0
41
1
10
-22.548371267677
20
11.1691073267332
30
0
41
1
10
-22.5377232568456
20
11.0132146065448
30
0
41
1
10
-22.5326683781548
20
10.9087666551973
30
0
41
1
10
-22.5262727782788
20
10.6988473663372
30
0
41
1
10
-22.5249342246094
20
10.5933759366048
30
0
41
1
10
-22.5254125626117
20
10.4873934907615
30
0
0
SPLINE
5
1B2
100
AcDbEntity
8
SK1
62
256
6
ByLayer
370
18
48
1
60
0
100
AcDbSpline
70
4
71
3
72
34
73
30
40
0
40
0
40
0
40
0
40
0.0156250000000011
40
0.0156250000000011
40
0.0312500000000021
40
0.0312500000000021
40
0.062500000000003
40
0.062500000000003
40
0.125000000000003
40
0.125000000000003
40
0.187500000000004
40
0.187500000000004
40
0.250000000000004
40
0.250000000000004
40
0.312500000000005
40
0.312500000000005
40
0.375000000000005
40
0.375000000000005
40
0.500000000000004
40
0.500000000000004
40
0.625000000000004
40
0.625000000000004
40
0.750000000000003
40
0.750000000000003
40
0.875000000000003
40
0.875000000000003
40
0.937500000000002
40
0.937500000000002
40
1
40
1
40
1
40
1
41
1
10
-22.5254125626117
20
10.4873934907615
30
0
41
1
10
-22.5254818561565
20
10.4720405409045
30
0
41
1
10
-22.5252982329915
20
10.4566523100548
30
0
41
1
10
-22.524420671904
20
10.4258045933059
30
0
41
1
10
-22.5237250932908
20
10.4103337956464
30
0
41
1
10
-22.5209000969644
20
10.3641437533752
30
0
41
1
10
-22.5180297482889
20
10.3335405000039
30
0
41
1
10
-22.5067325290341
20
10.2422423976997
30
0
41
1
10
-22.4956150185209
20
10.182060449636
30
0
41
1
10
-22.4680447309115
20
10.0626613415911
30
0
41
1
10
-22.4516075368503
20
10.003440607954
30
0
41
1
10
-22.4152303797028
20
9.88555603960228
30
0
41
1
10
-22.3952943205214
20
9.82689125901831
30
0
41
1
10
-22.3534119707754
20
9.70978271703689
30
0
41
1
10
-22.3314622748996
20
9.65133410882191
30
0
41
1
10
-22.2867010042882
20
9.53442203758678
30
0
41
1
10
-22.26389101687
20
9.47596958620366
30
0
41
1
10
-22.1954619614247
20
9.30029965106854
30
0
41
1
10
-22.1499039898424
20
9.18275521967502
30
0
41
1
10
-22.06361977863
20
8.94559904227222
30
0
41
1
10
-22.0228509469915
20
8.82599775081906
30
0
41
1
10
-21.9492920327111
20
8.58389251377861
30
0
41
1
10
-21.9164767448842
20
8.46139491928034
30
0
41
1
10
-21.8615121435874
20
8.21275872493501
30
0
41
1
10
-21.8393398492877
20
8.08662615408559
30
0
41
1
10
-21.8162516997397
20
7.89408681522914
30
0
41
1
10
-21.8102527530668
20
7.82932630472772
30
0
41
1
10
-21.8021075898157
20
7.6986556428611
30
0
41
1
10
-21.7999999999999
20
7.63335487465483
30
0
41
1
10
-21.8
20
7.56809977683884
30
0
0
SPLINE
5
1B3
100
AcDbEntity
8
SK1
62
256
6
ByLayer
370
18
48
1
60
0
100
AcDbSpline
70
4
71
3
72
32
73
28
40
0
40
0
40
0
40
0
40
0.124999999999999
40
0.124999999999999
40
0.249999999999999
40
0.249999999999999
40
0.312499999999998
40
0.312499999999998
40
0.374999999999998
40
0.374999999999998
40
0.499999999999997
40
0.499999999999997
40
0.624999999999996
40
0.624999999999996
40
0.687499999999996
40
0.687499999999996
40
0.749999999999997
40
0.749999999999997
40
0.812499999999997
40
0.812499999999997
40
0.874999999999998
40
0.874999999999998
40
0.906249999999998
40
0.906249999999998
40
0.937499999999998
40
0.937499999999998
40
1
40
1
40
1
40
1
41
1
10
-21.8
20
-7.56809977683895
30
0
41
1
10
-21.8
20
-7.69718498703716
30
0
41
1
10
-21.8082123204439
20
-7.82504889973322
30
0
41
1
10
-21.8381551467128
20
-8.07864306075217
30
0
41
1
10
-21.8599105028113
20
-8.20437082176429
30
0
41
1
10
-21.9009213644209
20
-8.3915477554371
30
0
41
1
10
-21.9160122746849
20
-8.45378278006862
30
0
41
1
10
-21.9485237180609
20
-8.57722909593068
30
0
41
1
10
-21.9659503128705
20
-8.63848434035012
30
0
41
1
10
-22.0212038675345
20
-8.82101701558099
30
0
41
1
10
-22.062032124433
20
-8.9410541764268
30
0
41
1
10
-22.148412252694
20
-9.17882990438665
30
0
41
1
10
-22.1940067248057
20
-9.2965563859162
30
0
41
1
10
-22.2625143076408
20
-9.47243886272136
30
0
41
1
10
-22.2853551459998
20
-9.53095240294397
30
0
41
1
10
-22.3302010209482
20
-9.64799680860966
30
0
41
1
10
-22.3522091087777
20
-9.70652683549699
30
0
41
1
10
-22.3942699583296
20
-9.82392508939239
30
0
41
1
10
-22.4143250840326
20
-9.88279269823559
30
0
41
1
10
-22.4509936727354
20
-10.0012878607497
30
0
41
1
10
-22.4676047716027
20
-10.0609161727845
30
0
41
1
10
-22.488535481288
20
-10.1513232104236
30
0
41
1
10
-22.4948451475709
20
-10.1816204277979
30
0
41
1
10
-22.5058766597353
20
-10.2426084061982
30
0
41
1
10
-22.5106063441628
20
-10.2733924516832
30
0
41
1
10
-22.5219388481118
20
-10.365451393833
30
0
41
1
10
-22.5256871369425
20
-10.4265577240028
30
0
41
1
10
-22.5254125626117
20
-10.4873934907615
30
0
0
SPLINE
5
1B4
100
AcDbEntity
8
SK1
62
256
6
ByLayer
370
18
48
1
60
0
100
AcDbSpline
70
4
71
3
72
49
73
45
40
0
40
0
40
0
40
0
40
0.125000000000003
40
0.125000000000003
40
0.250000000000006
40
0.250000000000006
40
0.375000000000009
40
0.375000000000009
40
0.500000000000012
40
0.500000000000012
40
0.562500000000013
40
0.562500000000013
40
0.625000000000013
40
0.625000000000013
40
0.687500000000014
40
0.687500000000014
40
0.750000000000015
40
0.750000000000015
40
0.781250000000014
40
0.781250000000014
40
0.812500000000013
40
0.812500000000013
40
0.843750000000012
40
0.843750000000012
40
0.875000000000012
40
0.875000000000012
40
0.906250000000011
40
0.906250000000011
40
0.921875000000009
40
0.921875000000009
40
0.937500000000007
40
0.937500000000007
40
0.953125000000006
40
0.953125000000006
40
0.960937500000005
40
0.960937500000005
40
0.968750000000004
40
0.976562500000003
40
0.976562500000003
40
0.984375000000002
40
0.984375000000002
40
0.992187500000001
40
0.992187500000001
40
1
40
1
40
1
40
1
41
1
10
-22.5254125626117
20
-10.4873934907615
30
0
41
1
10
-22.524933808019
20
-10.5934682380186
30
0
41
1
10
-22.5262751478894
20
-10.6990205610863
30
0
41
1
10
-22.5326808100257
20
-10.9090790605723
30
0
41
1
10
-22.5377429839122
20
-11.0135853362539
30
0
41
1
10
-22.5519578973343
20
-11.2215353085894
30
0
41
1
10
-22.5611119763531
20
-11.3250264298555
30
0
41
1
10
-22.5842152608137
20
-11.5304011349296
30
0
41
1
10
-22.5981500559934
20
-11.6323364531228
30
0
41
1
10
-22.6237015081944
20
-11.7839887912774
30
0
41
1
10
-22.6330033754949
20
-11.8343434817701
30
0
41
1
10
-22.6534382911092
20
-11.9344262765135
30
0
41
1
10
-22.6645712051838
20
-11.984172814295
30
0
41
1
10
-22.6891071294003
20
-12.0829956070989
30
0
41
1
10
-22.7025153688913
20
-12.1321084754578
30
0
41
1
10
-22.732243597417
20
-12.2293383142836
30
0
41
1
10
-22.7485434421077
20
-12.277446823165
30
0
41
1
10
-22.7760533432812
20
-12.3486131520639
30
0
41
1
10
-22.7857441771079
20
-12.3721784795266
30
0
41
1
10
-22.8063395401305
20
-12.4187472897739
30
0
41
1
10
-22.8172475832644
20
-12.4417684383611
30
0
41
1
10
-22.8406386251635
20
-12.4871513534895
30
0
41
1
10
-22.8531158065026
20
-12.5095153276387
30
0
41
1
10
-22.8802277314148
20
-12.5533645625088
30
0
41
1
10
-22.8948406627662
20
-12.5748195937577
30
0
41
1
10
-22.9268226041828
20
-12.6158882157764
30
0
41
1
10
-22.9441868001887
20
-12.635578739245
30
0
41
1
10
-22.973723722088
20
-12.66300496429
30
0
41
1
10
-22.9841053728532
20
-12.6717274096473
30
0
41
1
10
-23.0060849258503
20
-12.6878932682054
30
0
41
1
10
-23.0177291365879
20
-12.6953794991053
30
0
41
1
10
-23.0426800591108
20
-12.7085689224172
30
0
41
1
10
-23.0557296234281
20
-12.7141368791732
30
0
41
1
10
-23.0764336995276
20
-12.7204734364068
30
0
41
1
10
-23.0835648951233
20
-12.7222546393716
30
0
41
1
10
-23.0980867420292
20
-12.7249891829505
30
0
41
1
10
-23.1127180579136
20
-12.7268754214497
30
0
41
1
10
-23.1275767488497
20
-12.7270007347821
30
0
41
1
10
-23.1425541535116
20
-12.7262067854459
30
0
41
1
10
-23.1500537120161
20
-12.7253452873054
30
0
41
1
10
-23.16470997021
20
-12.7227921039091
30
0
41
1
10
-23.1719220561325
20
-12.7210984800414
30
0
41
1
10
-23.1861335170224
20
-12.7169465514806
30
0
41
1
10
-23.1931549751917
20
-12.7144778517454
30
0
41
1
10
-23.2
20
-12.7116897284924
30
0
0
SPLINE
5
1B5
100
AcDbEntity
8
SK1
62
256
6
ByLayer
370
18
48
1
60
0
100
AcDbSpline
70
4
71
3
72
40
73
36
40
0
40
0
40
0
40
0
40
0.0625000000000006
40
0.0625000000000006
40
0.0937500000000003
40
0.0937500000000003
40
0.109375000000001
40
0.109375000000001
40
0.125000000000002
40
0.125000000000002
40
0.187500000000001
40
0.187500000000001
40
0.21875
40
0.21875
40
0.234374999999999
40
0.234374999999999
40
0.249999999999999
40
0.249999999999999
40
0.312499999999998
40
0.312499999999998
40
0.374999999999996
40
0.374999999999996
40
0.437499999999995
40
0.437499999999995
40
0.468749999999994
40
0.468749999999994
40
0.499999999999993
40
0.499999999999993
40
0.624999999999995
40
0.624999999999995
40
0.749999999999997
40
0.749999999999997
40
0.874999999999998
40
0.874999999999998
40
1
40
1
40
1
40
1
41
1
10
-25.9833434997484
20
-10.4087426392499
30
0
41
1
10
-25.986759086565
20
-10.483951162943
30
0
41
1
10
-25.9808649552934
20
-10.5580012311999
30
0
41
1
10
-25.9592603157293
20
-10.6674881136855
30
0
41
1
10
-25.9499296725475
20
-10.7037188068855
30
0
41
1
10
-25.9328748787559
20
-10.7576842210777
30
0
41
1
10
-25.9266620033919
20
-10.7756557558361
30
0
41
1
10
-25.9133334387925
20
-10.8112258065152
30
0
41
1
10
-25.9062286144158
20
-10.8288049776206
30
0
41
1
10
-25.8686467672698
20
-10.9157393098785
30
0
41
1
10
-25.8320436116168
20
-10.98223188319
30
0
41
1
10
-25.7694731655851
20
-11.0783887484534
30
0
41
1
10
-25.7473293420913
20
-11.1098396503308
30
0
41
1
10
-25.7123828498496
20
-11.1562072639241
30
0
41
1
10
-25.7004451747535
20
-11.1715281654213
30
0
41
1
10
-25.6760212751046
20
-11.2019136450492
30
0
41
1
10
-25.6635403502051
20
-11.2169700680376
30
0
41
1
10
-25.6002100030161
20
-11.2912178863428
30
0
41
1
10
-25.5463234796767
20
-11.3476964863944
30
0
41
1
10
-25.4336507840261
20
-11.4562141482214
30
0
41
1
10
-25.3748543671227
20
-11.5082439274423
30
0
41
1
10
-25.2533587070522
20
-11.6087671618166
30
0
41
1
10
-25.190654372894
20
-11.6572560040578
30
0
41
1
10
-25.0941966691443
20
-11.7278135543178
30
0
41
1
10
-25.0616419960415
20
-11.7509683929908
30
0
41
1
10
-24.995798350562
20
-11.7966127268089
30
0
41
1
10
-24.9625188336835
20
-11.8190942664031
30
0
41
1
10
-24.7951134553133
20
-11.9295443176593
30
0
41
1
10
-24.6574679298291
20
-12.0121120954876
30
0
41
1
10
-24.3769846721398
20
-12.1691657303592
30
0
41
1
10
-24.2341238595366
20
-12.2436156616471
30
0
41
1
10
-23.9444826691423
20
-12.3864145315117
30
0
41
1
10
-23.797692711436
20
-12.4547485584872
30
0
41
1
10
-23.5010237947648
20
-12.5866084326374
30
0
41
1
10
-23.3511402342021
20
-12.6501271172029
30
0
41
1
10
-23.1999999999925
20
-12.7116897284814
30
0
0
SPLINE
5
1B6
100
AcDbEntity
8
SK1
62
256
6
ByLayer
370
18
48
1
60
0
100
AcDbSpline
70
4
71
3
72
49
73
45
40
0
40
0
40
0
40
0
40
0.249999999999995
40
0.249999999999995
40
0.374999999999994
40
0.374999999999994
40
0.499999999999992
40
0.499999999999992
40
0.624999999999991
40
0.624999999999991
40
0.687499999999991
40
0.687499999999991
40
0.749999999999992
40
0.749999999999992
40
0.812499999999992
40
0.812499999999992
40
0.843749999999992
40
0.843749999999992
40
0.874999999999993
40
0.874999999999993
40
0.890624999999994
40
0.890624999999994
40
0.906249999999995
40
0.906249999999995
40
0.921874999999996
40
0.921874999999996
40
0.937499999999997
40
0.937499999999997
40
0.953124999999998
40
0.953124999999998
40
0.960937499999999
40
0.960937499999999
40
0.96875
40
0.96875
40
0.976562500000001
40
0.976562500000001
40
0.984375000000002
40
0.984375000000002
40
0.988281250000001
40
0.988281250000001
40
0.992187500000001
40
0.996093750000001
40
0.996093750000001
40
1
40
1
40
1
40
1
41
1
10
-30.7012499999997
20
-9.19755885599096
30
0
41
1
10
-30.2890238578836
20
-9.25291291096028
30
0
41
1
10
-29.8772997291749
20
-9.31155314568554
30
0
41
1
10
-29.2608719501305
20
-9.40709437701
30
0
41
1
10
-29.0555718359932
20
-9.44022365496545
30
0
41
1
10
-28.6456301203552
20
-9.50982784083629
30
0
41
1
10
-28.4409787773184
20
-9.54629015395031
30
0
41
1
10
-28.0325762779766
20
-9.6238911811414
30
0
41
1
10
-27.8288136850715
20
-9.66499351529259
30
0
41
1
10
-27.5245226403674
20
-9.73200016732363
30
0
41
1
10
-27.4233063998765
20
-9.75524199071754
30
0
41
1
10
-27.2214752006611
20
-9.80413556100086
30
0
41
1
10
-27.1209171940336
20
-9.82976262011982
30
0
41
1
10
-26.9208211490663
20
-9.88438279932825
30
0
41
1
10
-26.8212194755092
20
-9.91336404248824
30
0
41
1
10
-26.6733285210693
20
-9.96070265810363
30
0
41
1
10
-26.6242814966098
20
-9.97713599239353
30
0
41
1
10
-26.5268597111619
20
-10.0117609271124
30
0
41
1
10
-26.4784854755874
20
-10.0299453793895
30
0
41
1
10
-26.4068518073802
20
-10.0590243269832
30
0
41
1
10
-26.3831230780509
20
-10.0690228646205
30
0
41
1
10
-26.3360362268513
20
-10.089779110677
30
0
41
1
10
-26.3126563155834
20
-10.1005464334156
30
0
41
1
10
-26.2665288503813
20
-10.1229784875404
30
0
41
1
10
-26.2437713201136
20
-10.1346440784269
30
0
41
1
10
-26.1990696963757
20
-10.1591695106372
30
0
41
1
10
-26.1771222055622
20
-10.1720243644858
30
0
41
1
10
-26.134374030834
20
-10.1994177239145
30
0
41
1
10
-26.1135045921754
20
-10.2139997920699
30
0
41
1
10
-26.0839712409112
20
-10.2374700379426
30
0
41
1
10
-26.0744126301924
20
-10.2455689398094
30
0
41
1
10
-26.0560251765374
20
-10.2624700722622
30
0
41
1
10
-26.0471616391337
20
-10.2713122273389
30
0
41
1
10
-26.0306670986853
20
-10.2896247790117
30
0
41
1
10
-26.0230135625696
20
-10.299107480284
30
0
41
1
10
-26.0092325080985
20
-10.3189118546734
30
0
41
1
10
-26.0031007889301
20
-10.3292312182942
30
0
41
1
10
-25.9954431012559
20
-10.3455568568877
30
0
41
1
10
-25.9931526373207
20
-10.3511468536362
30
0
41
1
10
-25.9892675363405
20
-10.3623717222656
30
0
41
1
10
-25.9860459102167
20
-10.3737044246611
30
0
41
1
10
-25.9842454587826
20
-10.385268107663
30
0
41
1
10
-25.9832087617187
20
-10.3969559217474
30
0
41
1
10
-25.9830766650774
20
-10.4028671505712
30
0
41
1
10
-25.9833434997483
20
-10.4087426392499
30
0
0
SPLINE
5
1B7
100
AcDbEntity
8
SK1
62
256
6
ByLayer
370
18
48
1
60
0
100
AcDbSpline
70
4
71
3
72
8
73
4
40
0
40
0
40
0
40
0
40
1
40
1
40
1
40
1
41
1
10
-30.7600449304182
20
-9.34174801463021
30
0
41
1
10
-30.7414872158135
20
-9.29339084979495
30
0
41
1
10
-30.7218522549563
20
-9.24533982137714
30
0
41
1
10
-30.70125
20
-9.19755885599326
30
0
0
LINE
5
89
100
AcDbEntity
8
4
62
256
6
ByLayer
370
18
48
0.05
60
0
100
AcDbLine
10
0
20
0
30
0
11
50
21
0
31
0
39
0
210
0
220
0
230
1
0
LINE
5
8B
100
AcDbEntity
8
81
62
256
6
ByLayer
370
18
48
1
60
0
100
AcDbLine
10
50
20
0
30
0
11
55
21
0
31
0
39
0
210
0
220
0
230
1
0
LINE
5
8C
100
AcDbEntity
8
80
62
256
6
ByLayer
370
18
48
1
60
0
100
AcDbLine
10
0
20
0
30
0
11
-5
21
0
31
0
39
0
210
0
220
0
230
1
0
LINE
5
8D
100
AcDbEntity
8
1
62
256
6
ByLayer
370
18
48
1
60
0
100
AcDbLine
10
19.525
20
27.475
30
0
11
16.475
21
27.475
31
0
39
0
210
0
220
0
230
1
0
LINE
5
8E
100
AcDbEntity
8
1
62
256
6
ByLayer
370
18
48
1
60
0
100
AcDbLine
10
42.999873
20
26.25
30
0
11
26.55
21
26.25
31
0
39
0
210
0
220
0
230
1
0
LINE
5
8F
100
AcDbEntity
8
1
62
256
6
ByLayer
370
18
48
1
60
0
100
AcDbLine
10
26.55
20
-26.25
30
0
11
42.999873
21
-26.25
31
0
39
0
210
0
220
0
230
1
0
LINE
5
90
100
AcDbEntity
8
1
62
256
6
ByLayer
370
18
48
1
60
0
100
AcDbLine
10
16.475
20
-27.475
30
0
11
19.525
21
-27.475
31
0
39
0
210
0
220
0
230
1
0
LINE
5
91
100
AcDbEntity
8
1
62
256
6
ByLayer
370
18
48
1
60
0
100
AcDbLine
10
16.075
20
28.959198
30
0
11
14.625388
21
31.47
31
0
39
0
210
0
220
0
230
1
0
LINE
5
92
100
AcDbEntity
8
1
62
256
6
ByLayer
370
18
48
1
60
0
100
AcDbLine
10
21.374612
20
31.47
30
0
11
19.925
21
28.959198
31
0
39
0
210
0
220
0
230
1
0
LINE
5
93
100
AcDbEntity
8
1
62
256
6
ByLayer
370
18
48
1
60
0
100
AcDbLine
10
25.45
20
-31.47
30
0
11
25.95
21
-30.97
31
0
39
0
210
0
220
0
230
1
0
LINE
5
94
100
AcDbEntity
8
1
62
256
6
ByLayer
370
18
48
1
60
0
100
AcDbLine
10
14.625388
20
-31.47
30
0
11
16.075
21
-28.959198
31
0
39
0
210
0
220
0
230
1
0
LINE
5
95
100
AcDbEntity
8
1
62
256
6
ByLayer
370
18
48
1
60
0
100
AcDbLine
10
25.45
20
31.47
30
0
11
21.374612
21
31.47
31
0
39
0
210
0
220
0
230
1
0
LINE
5
96
100
AcDbEntity
8
1
62
256
6
ByLayer
370
18
48
1
60
0
100
AcDbLine
10
25.95
20
30.97
30
0
11
25.45
21
31.47
31
0
39
0
210
0
220
0
230
1
0
LINE
5
97
100
AcDbEntity
8
1
62
256
6
ByLayer
370
18
48
1
60
0
100
AcDbLine
10
21.374612
20
-31.47
30
0
11
25.45
21
-31.47
31
0
39
0
210
0
220
0
230
1
0
LINE
5
98
100
AcDbEntity
8
1
62
256
6
ByLayer
370
18
48
1
60
0
100
AcDbLine
10
19.925
20
-28.959198
30
0
11
21.374612
21
-31.47
31
0
39
0
210
0
220
0
230
1
0
LINE
5
99
100
AcDbEntity
8
1
62
256
6
ByLayer
370
18
48
1
60
0
100
AcDbLine
10
0
20
-30.97
30
0
11
0.5
21
-31.47
31
0
39
0
210
0
220
0
230
1
0
LINE
5
9A
100
AcDbEntity
8
1
62
256
6
ByLayer
370
18
48
1
60
0
100
AcDbLine
10
0.5
20
31.47
30
0
11
0
21
30.97
31
0
39
0
210
0
220
0
230
1
0
LINE
5
9B
100
AcDbEntity
8
1
62
256
6
ByLayer
370
18
48
1
60
0
100
AcDbLine
10
14.625388
20
31.47
30
0
11
0.5
21
31.47
31
0
39
0
210
0
220
0
230
1
0
LINE
5
9C
100
AcDbEntity
8
1
62
256
6
ByLayer
370
18
48
1
60
0
100
AcDbLine
10
0.5
20
-31.47
30
0
11
1.991532
21
-31.47
31
0
39
0
210
0
220
0
230
1
0
LINE
5
9D
100
AcDbEntity
8
1
62
256
6
ByLayer
370
18
48
1
60
0
100
AcDbLine
10
12.0225
20
-31.47
30
0
11
14.625388
21
-31.47
31
0
39
0
210
0
220
0
230
1
0
LINE
5
9E
100
AcDbEntity
8
1
62
256
6
ByLayer
370
18
48
1
60
0
100
AcDbLine
10
49.5
20
-33.690999
30
0
11
56.624178
21
-33.690999
31
0
39
0
210
0
220
0
230
1
0
LINE
5
9F
100
AcDbEntity
8
1
62
256
6
ByLayer
370
18
48
1
60
0
100
AcDbLine
10
56.624036
20
33.690999
30
0
11
49.5
21
33.690999
31
0
39
0
210
0
220
0
230
1
0
LINE
5
A0
100
AcDbEntity
8
1
62
256
6
ByLayer
370
18
48
1
60
0
100
AcDbLine
10
56.690513
20
14.115903
30
0
11
49.5
21
14.115903
31
0
39
0
210
0
220
0
230
1
0
LINE
5
A1
100
AcDbEntity
8
1
62
256
6
ByLayer
370
18
48
1
60
0
100
AcDbLine
10
49.5
20
-14.115903
30
0
11
56.690454
21
-14.115903
31
0
39
0
210
0
220
0
230
1
0
LINE
5
A2
100
AcDbEntity
8
1
62
256
6
ByLayer
370
18
48
1
60
0
100
AcDbLine
10
43
20
-32.85
30
0
11
44
21
-33.85
31
0
39
0
210
0
220
0
230
1
0
LINE
5
A3
100
AcDbEntity
8
1
62
256
6
ByLayer
370
18
48
1
60
0
100
AcDbLine
10
44
20
33.85
30
0
11
43
21
32.85
31
0
39
0
210
0
220
0
230
1
0
LINE
5
A4
100
AcDbEntity
8
1
62
256
6
ByLayer
370
18
48
1
60
0
100
AcDbLine
10
46.194096
20
33.85
30
0
11
44
21
33.85
31
0
39
0
210
0
220
0
230
1
0
LINE
5
A5
100
AcDbEntity
8
1
62
256
6
ByLayer
370
18
48
1
60
0
100
AcDbLine
10
44
20
-33.85
30
0
11
46.194096
21
-33.85
31
0
39
0
210
0
220
0
230
1
0
LINE
5
A6
100
AcDbEntity
8
1
62
256
6
ByLayer
370
18
48
1
60
0
100
AcDbLine
10
60
20
28
30
0
11
58.266996
21
31.001652
31
0
39
0
210
0
220
0
230
1
0
LINE
5
A7
100
AcDbEntity
8
1
62
256
6
ByLayer
370
18
48
1
60
0
100
AcDbLine
10
58.267004
20
-31.001638
30
0
11
60
21
-28
31
0
39
0
210
0
220
0
230
1
0
LINE
5
A8
100
AcDbEntity
8
SK1
62
256
6
ByLayer
370
18
48
1
60
0
100
AcDbLine
10
-0.45
20
23.970431
30
0
11
-1.566987
21
23.970431
31
0
39
0
210
0
220
0
230
1
0
LINE
5
AA
100
AcDbEntity
8
SK1
62
256
6
ByLayer
370
18
48
1
60
0
100
AcDbLine
10
-1.566987
20
-23.970431
30
0
11
-0.45
21
-23.970431
31
0
39
0
210
0
220
0
230
1
0
LINE
5
AB
100
AcDbEntity
8
SK1
62
256
6
ByLayer
370
18
48
1
60
0
100
AcDbLine
10
-1.566987
20
23.970431
30
0
11
-2
21
24.220431
31
0
39
0
210
0
220
0
230
1
0
LINE
5
AC
100
AcDbEntity
8
SK1
62
256
6
ByLayer
370
18
48
1
60
0
100
AcDbLine
10
-2
20
-24.220431
30
0
11
-1.566987
21
-23.970431
31
0
39
0
210
0
220
0
230
1
0
LINE
5
AD
100
AcDbEntity
8
SK1
62
256
6
ByLayer
370
18
48
1
60
0
100
AcDbLine
10
-30.760045
20
-22.779547
30
0
11
-2
21
-24.220431
31
0
39
0
210
0
220
0
230
1
0
LINE
5
AE
100
AcDbEntity
8
SK1
62
256
6
ByLayer
370
18
48
1
60
0
100
AcDbLine
10
-2
20
24.220431
30
0
11
-30.760045
21
22.779547
31
0
39
0
210
0
220
0
230
1
0
LINE
5
AF
100
AcDbEntity
8
1
62
256
6
ByLayer
370
18
48
1
60
0
100
AcDbLine
10
25.95
20
4.895151
30
0
11
25.95
21
9.0175
31
0
39
0
210
0
220
0
230
1
0
LINE
5
B0
100
AcDbEntity
8
1
62
256
6
ByLayer
370
18
48
1
60
0
100
AcDbLine
10
25.95
20
-9.0175
30
0
11
25.95
21
-4.895151
31
0
39
0
210
0
220
0
230
1
0
LINE
5
B1
100
AcDbEntity
8
1
62
256
6
ByLayer
370
18
48
1
60
0
100
AcDbLine
10
19.925
20
-8.947381
30
0
11
19.925
21
-9.0175
31
0
39
0
210
0
220
0
230
1
0
LINE
5
B2
100
AcDbEntity
8
1
62
256
6
ByLayer
370
18
48
1
60
0
100
AcDbLine
10
19.925
20
9.0175
30
0
11
19.925
21
8.947381
31
0
39
0
210
0
220
0
230
1
0
LINE
5
B3
100
AcDbEntity
8
1
62
256
6
ByLayer
370
18
48
1
60
0
100
AcDbLine
10
16.075
20
8.947381
30
0
11
16.075
21
9.0175
31
0
39
0
210
0
220
0
230
1
0
LINE
5
B4
100
AcDbEntity
8
1
62
256
6
ByLayer
370
18
48
1
60
0
100
AcDbLine
10
16.075
20
-9.0175
30
0
11
16.075
21
-8.947381
31
0
39
0
210
0
220
0
230
1
0
LINE
5
B5
100
AcDbEntity
8
1
62
256
6
ByLayer
370
13
48
1
60
0
100
AcDbLine
10
19.525
20
27.120833
30
0
11
19.525
21
27.475
31
0
39
0
210
0
220
0
230
1
0
LINE
5
B6
100
AcDbEntity
8
1
62
256
6
ByLayer
370
13
48
1
60
0
100
AcDbLine
10
19.525
20
26.793247
30
0
11
19.525
21
25.344959
31
0
39
0
210
0
220
0
230
1
0
LINE
5
B7
100
AcDbEntity
8
1
62
256
6
ByLayer
370
13
48
1
60
0
100
AcDbLine
10
19.525
20
24.633002
30
0
11
19.525
21
22.168518
31
0
39
0
210
0
220
0
230
1
0
LINE
5
B8
100
AcDbEntity
8
1
62
256
6
ByLayer
370
13
48
1
60
0
100
AcDbLine
10
19.525
20
-7.610232
30
0
11
19.525
21
-27.475
31
0
39
0
210
0
220
0
230
1
0
LINE
5
B9
100
AcDbEntity
8
1
62
256
6
ByLayer
370
18
48
1
60
0
100
AcDbLine
10
16.475
20
-7.610232
30
0
11
19.525
21
-7.610232
31
0
39
0
210
0
220
0
230
1
0
LINE
5
BA
100
AcDbEntity
8
1
62
256
6
ByLayer
370
13
48
1
60
0
100
AcDbLine
10
26.55
20
26.25
30
0
11
26.55
21
-26.25
31
0
39
0
210
0
220
0
230
1
0
LINE
5
BB
100
AcDbEntity
8
1
62
256
6
ByLayer
370
18
48
1
60
0
100
AcDbLine
10
19.525
20
7.610232
30
0
11
16.475
21
7.610232
31
0
39
0
210
0
220
0
230
1
0
LINE
5
BC
100
AcDbEntity
8
1
62
256
6
ByLayer
370
13
48
1
60
0
100
AcDbLine
10
19.525
20
21.111533
30
0
11
19.525
21
7.610232
31
0
39
0
210
0
220
0
230
1
0
LINE
5
BD
100
AcDbEntity
8
1
62
256
6
ByLayer
370
13
48
1
60
0
100
AcDbLine
10
16.475
20
-27.475
30
0
11
16.475
21
-7.610232
31
0
39
0
210
0
220
0
230
1
0
LINE
5
BE
100
AcDbEntity
8
1
62
256
6
ByLayer
370
13
48
1
60
0
100
AcDbLine
10
16.475
20
21.111533
30
0
11
16.475
21
7.610232
31
0
39
0
210
0
220
0
230
1
0
LINE
5
BF
100
AcDbEntity
8
1
62
256
6
ByLayer
370
13
48
1
60
0
100
AcDbLine
10
16.475
20
24.633002
30
0
11
16.475
21
22.168518
31
0
39
0
210
0
220
0
230
1
0
LINE
5
C0
100
AcDbEntity
8
1
62
256
6
ByLayer
370
13
48
1
60
0
100
AcDbLine
10
16.475
20
26.793247
30
0
11
16.475
21
25.344959
31
0
39
0
210
0
220
0
230
1
0
LINE
5
C1
100
AcDbEntity
8
1
62
256
6
ByLayer
370
13
48
1
60
0
100
AcDbLine
10
16.475
20
27.120833
30
0
11
16.475
21
27.475
31
0
39
0
210
0
220
0
230
1
0
LINE
5
C2
100
AcDbEntity
8
1
62
256
6
ByLayer
370
18
48
1
60
0
100
AcDbLine
10
16.075
20
28.959198
30
0
11
16.075
21
9.0175
31
0
39
0
210
0
220
0
230
1
0
LINE
5
C3
100
AcDbEntity
8
1
62
256
6
ByLayer
370
18
48
1
60
0
100
AcDbLine
10
19.925
20
28.959198
30
0
11
19.925
21
9.0175
31
0
39
0
210
0
220
0
230
1
0
LINE
5
C4
100
AcDbEntity
8
1
62
256
6
ByLayer
370
18
48
1
60
0
100
AcDbLine
10
25.95
20
-30.97
30
0
11
25.95
21
-9.0175
31
0
39
0
210
0
220
0
230
1
0
LINE
5
C5
100
AcDbEntity
8
1
62
256
6
ByLayer
370
18
48
1
60
0
100
AcDbLine
10
16.075
20
-28.959198
30
0
11
16.075
21
-9.0175
31
0
39
0
210
0
220
0
230
1
0
LINE
5
C6
100
AcDbEntity
8
1
62
256
6
ByLayer
370
18
48
1
60
0
100
AcDbLine
10
25.45
20
9.0175
30
0
11
21.374612
21
9.0175
31
0
39
0
210
0
220
0
230
1
0
LINE
5
C7
100
AcDbEntity
8
1
62
256
6
ByLayer
370
18
48
1
60
0
100
AcDbLine
10
21.374612
20
31.47
30
0
11
21.374612
21
9.0175
31
0
39
0
210
0
220
0
230
1
0
LINE
5
C8
100
AcDbEntity
8
1
62
256
6
ByLayer
370
18
48
1
60
0
100
AcDbLine
10
25.95
20
30.97
30
0
11
25.95
21
9.0175
31
0
39
0
210
0
220
0
230
1
0
LINE
5
C9
100
AcDbEntity
8
1
62
256
6
ByLayer
370
18
48
1
60
0
100
AcDbLine
10
25.45
20
9.0175
30
0
11
25.45
21
31.47
31
0
39
0
210
0
220
0
230
1
0
LINE
5
CA
100
AcDbEntity
8
1
62
256
6
ByLayer
370
18
48
1
60
0
100
AcDbLine
10
25.45
20
-9.0175
30
0
11
25.45
21
-31.47
31
0
39
0
210
0
220
0
230
1
0
LINE
5
CB
100
AcDbEntity
8
1
62
256
6
ByLayer
370
18
48
1
60
0
100
AcDbLine
10
21.374612
20
-9.0175
30
0
11
25.45
21
-9.0175
31
0
39
0
210
0
220
0
230
1
0
LINE
5
CC
100
AcDbEntity
8
1
62
256
6
ByLayer
370
18
48
1
60
0
100
AcDbLine
10
19.925
20
-28.959198
30
0
11
19.925
21
-9.0175
31
0
39
0
210
0
220
0
230
1
0
LINE
5
CD
100
AcDbEntity
8
1
62
256
6
ByLayer
370
18
48
1
60
0
100
AcDbLine
10
21.374612
20
-31.47
30
0
11
21.374612
21
-9.0175
31
0
39
0
210
0
220
0
230
1
0
LINE
5
CE
100
AcDbEntity
8
1
62
256
6
ByLayer
370
18
48
1
60
0
100
AcDbLine
10
0
20
30.97
30
0
11
0
21
0
31
0
39
0
210
0
220
0
230
1
0
LINE
5
CF
100
AcDbEntity
8
1
62
256
6
ByLayer
370
18
48
1
60
0
100
AcDbLine
10
0
20
0
30
0
11
0
21
-30.97
31
0
39
0
210
0
220
0
230
1
0
LINE
5
D0
100
AcDbEntity
8
1
62
256
6
ByLayer
370
18
48
1
60
0
100
AcDbLine
10
0.5
20
-31.47
30
0
11
0.5
21
0
31
0
39
0
210
0
220
0
230
1
0
LINE
5
D1
100
AcDbEntity
8
1
62
256
6
ByLayer
370
18
48
1
60
0
100
AcDbLine
10
0.5
20
0
30
0
11
0.5
21
31.47
31
0
39
0
210
0
220
0
230
1
0
LINE
5
D2
100
AcDbEntity
8
1
62
256
6
ByLayer
370
18
48
1
60
0
100
AcDbLine
10
14.625388
20
-9.0175
30
0
11
14.625388
21
-31.47
31
0
39
0
210
0
220
0
230
1
0
LINE
5
D3
100
AcDbEntity
8
1
62
256
6
ByLayer
370
18
48
1
60
0
100
AcDbLine
10
12.95
20
-9.0175
30
0
11
14.625388
21
-9.0175
31
0
39
0
210
0
220
0
230
1
0
LINE
5
D4
100
AcDbEntity
8
1
62
256
6
ByLayer
370
18
48
1
60
0
100
AcDbLine
10
4.95
20
1.0175
30
0
11
4.95
21
-1.0175
31
0
39
0
210
0
220
0
230
1
0
LINE
5
D5
100
AcDbEntity
8
1
62
256
6
ByLayer
370
18
48
1
60
0
100
AcDbLine
10
14.625388
20
9.0175
30
0
11
12.95
21
9.0175
31
0
39
0
210
0
220
0
230
1
0
LINE
5
D6
100
AcDbEntity
8
1
62
256
6
ByLayer
370
18
48
1
60
0
100
AcDbLine
10
14.625388
20
9.0175
30
0
11
14.625388
21
31.47
31
0
39
0
210
0
220
0
230
1
0
LINE
5
D7
100
AcDbEntity
8
1
62
256
6
ByLayer
370
18
48
1
60
0
100
AcDbLine
10
49.5
20
33.690054
30
0
11
49.5
21
33.690999
31
0
39
0
210
0
220
0
230
1
0
LINE
5
D8
100
AcDbEntity
8
1
62
256
6
ByLayer
370
18
48
1
60
0
100
AcDbLine
10
49.5
20
-33.690054
30
0
11
49.5
21
-33.690999
31
0
39
0
210
0
220
0
230
1
0
LINE
5
D9
100
AcDbEntity
8
1
62
256
6
ByLayer
370
18
48
1
60
0
100
AcDbLine
10
49.5
20
17.865064
30
0
11
57.979641
21
17.865064
31
0
39
0
210
0
220
0
230
1
0
LINE
5
DA
100
AcDbEntity
8
1
62
256
6
ByLayer
370
18
48
1
60
0
100
AcDbLine
10
49.5
20
-17.865064
30
0
11
57.979641
21
-17.865064
31
0
39
0
210
0
220
0
230
1
0
LINE
5
DB
100
AcDbEntity
8
1
62
256
6
ByLayer
370
13
48
1
60
0
100
AcDbLine
10
56.718723
20
19.433675
30
0
11
49.5
21
19.433675
31
0
39
0
210
0
220
0
230
1
0
LINE
5
DC
100
AcDbEntity
8
1
62
256
6
ByLayer
370
13
48
1
60
0
100
AcDbLine
10
49.5
20
-19.433675
30
0
11
56.718723
21
-19.433675
31
0
39
0
210
0
220
0
230
1
0
LINE
5
DD
100
AcDbEntity
8
1
62
256
6
ByLayer
370
18
48
1
60
0
100
AcDbLine
10
49.5
20
17.318653
30
0
11
58.22693
21
17.318653
31
0
39
0
210
0
220
0
230
1
0
LINE
5
DE
100
AcDbEntity
8
1
62
256
6
ByLayer
370
18
48
1
60
0
100
AcDbLine
10
49.5
20
-17.318653
30
0
11
58.22693
21
-17.318653
31
0
39
0
210
0
220
0
230
1
0
LINE
5
DF
100
AcDbEntity
8
1
62
256
6
ByLayer
370
13
48
1
60
0
100
AcDbLine
10
49.5
20
17.865064
30
0
11
49.5
21
17.318653
31
0
39
0
210
0
220
0
230
1
0
LINE
5
E0
100
AcDbEntity
8
1
62
256
6
ByLayer
370
18
48
1
60
0
100
AcDbLine
10
57.658043
20
13.681347
30
0
11
58.22693
21
13.681347
31
0
39
0
210
0
220
0
230
1
0
LINE
5
E1
100
AcDbEntity
8
1
62
256
6
ByLayer
370
18
48
1
60
0
100
AcDbLine
10
57.658043
20
-13.681347
30
0
11
58.22693
21
-13.681347
31
0
39
0
210
0
220
0
230
1
0
LINE
5
E2
100
AcDbEntity
8
1
62
256
6
ByLayer
370
13
48
1
60
0
100
AcDbLine
10
49.5
20
-17.318653
30
0
11
49.5
21
-17.865064
31
0
39
0
210
0
220
0
230
1
0
LINE
5
E3
100
AcDbEntity
8
1
62
256
6
ByLayer
370
13
48
1
60
0
100
AcDbLine
10
49.5
20
19.433675
30
0
11
49.5
21
17.865064
31
0
39
0
210
0
220
0
230
1
0
LINE
5
E4
100
AcDbEntity
8
1
62
256
6
ByLayer
370
13
48
1
60
0
100
AcDbLine
10
49.5
20
-17.865064
30
0
11
49.5
21
-19.433675
31
0
39
0
210
0
220
0
230
1
0
LINE
5
E5
100
AcDbEntity
8
1
62
256
6
ByLayer
370
13
48
1
60
0
100
AcDbLine
10
49.5
20
19.433675
30
0
11
49.5
21
19.691441
31
0
39
0
210
0
220
0
230
1
0
LINE
5
E6
100
AcDbEntity
8
1
62
256
6
ByLayer
370
13
48
1
60
0
100
AcDbLine
10
49.5
20
14.115903
30
0
11
49.5
21
13.998613
31
0
39
0
210
0
220
0
230
1
0
LINE
5
E7
100
AcDbEntity
8
1
62
256
6
ByLayer
370
13
48
1
60
0
100
AcDbLine
10
49.5
20
-14.115903
30
0
11
49.5
21
-13.998613
31
0
39
0
210
0
220
0
230
1
0
LINE
5
E8
100
AcDbEntity
8
1
62
256
6
ByLayer
370
13
48
1
60
0
100
AcDbLine
10
49.5
20
-19.433675
30
0
11
49.5
21
-19.691441
31
0
39
0
210
0
220
0
230
1
0
LINE
5
E9
100
AcDbEntity
8
1
62
256
6
ByLayer
370
18
48
1
60
0
100
AcDbLine
10
43
20
32.85
30
0
11
43
21
0
31
0
39
0
210
0
220
0
230
1
0
LINE
5
EA
100
AcDbEntity
8
1
62
256
6
ByLayer
370
18
48
1
60
0
100
AcDbLine
10
43
20
0
30
0
11
43
21
-32.85
31
0
39
0
210
0
220
0
230
1
0
LINE
5
EB
100
AcDbEntity
8
1
62
256
6
ByLayer
370
18
48
1
60
0
100
AcDbLine
10
44
20
-33.85
30
0
11
44
21
0
31
0
39
0
210
0
220
0
230
1
0
LINE
5
EC
100
AcDbEntity
8
1
62
256
6
ByLayer
370
18
48
1
60
0
100
AcDbLine
10
44
20
0
30
0
11
44
21
33.85
31
0
39
0
210
0
220
0
230
1
0
LINE
5
ED
100
AcDbEntity
8
1
62
256
6
ByLayer
370
13
48
1
60
0
100
AcDbLine
10
56.622501
20
13.998613
30
0
11
49.5
21
13.998613
31
0
39
0
210
0
220
0
230
1
0
LINE
5
EE
100
AcDbEntity
8
1
62
256
6
ByLayer
370
13
48
1
60
0
100
AcDbLine
10
49.5
20
19.691441
30
0
11
56.622501
21
19.691441
31
0
39
0
210
0
220
0
230
1
0
LINE
5
EF
100
AcDbEntity
8
1
62
256
6
ByLayer
370
13
48
1
60
0
100
AcDbLine
10
56.622501
20
33.690054
30
0
11
49.5
21
33.690054
31
0
39
0
210
0
220
0
230
1
0
LINE
5
F0
100
AcDbEntity
8
1
62
256
6
ByLayer
370
13
48
1
60
0
100
AcDbLine
10
49.5
20
-33.690054
30
0
11
56.622501
21
-33.690054
31
0
39
0
210
0
220
0
230
1
0
LINE
5
F1
100
AcDbEntity
8
1
62
256
6
ByLayer
370
13
48
1
60
0
100
AcDbLine
10
56.622501
20
-19.691441
30
0
11
49.5
21
-19.691441
31
0
39
0
210
0
220
0
230
1
0
LINE
5
F2
100
AcDbEntity
8
1
62
256
6
ByLayer
370
13
48
1
60
0
100
AcDbLine
10
49.5
20
-13.998613
30
0
11
56.622501
21
-13.998613
31
0
39
0
210
0
220
0
230
1
0
LINE
5
F3
100
AcDbEntity
8
1
62
256
6
ByLayer
370
18
48
1
60
0
100
AcDbLine
10
60
20
28
30
0
11
60
21
0
31
0
39
0
210
0
220
0
230
1
0
LINE
5
F4
100
AcDbEntity
8
1
62
256
6
ByLayer
370
18
48
1
60
0
100
AcDbLine
10
60
20
0
30
0
11
60
21
-28
31
0
39
0
210
0
220
0
230
1
0
LINE
5
F5
100
AcDbEntity
8
1
62
256
6
ByLayer
370
18
48
1
60
0
100
AcDbLine
10
56.622501
20
-13.998613
30
0
11
56.622501
21
13.998613
31
0
39
0
210
0
220
0
230
1
0
LINE
5
F6
100
AcDbEntity
8
1
62
256
6
ByLayer
370
18
48
1
60
0
100
AcDbLine
10
56.622501
20
-33.690054
30
0
11
56.622501
21
-19.691441
31
0
39
0
210
0
220
0
230
1
0
LINE
5
F7
100
AcDbEntity
8
1
62
256
6
ByLayer
370
18
48
1
60
0
100
AcDbLine
10
56.622501
20
19.691441
30
0
11
56.622501
21
33.690054
31
0
39
0
210
0
220
0
230
1
0
LINE
5
F8
100
AcDbEntity
8
SK1
62
256
6
ByLayer
370
18
48
1
60
0
100
AcDbLine
10
-25.8
20
4.87
30
0
11
-25.8
21
-4.87
31
0
39
0
210
0
220
0
230
1
0
LINE
5
F9
100
AcDbEntity
8
SK1
62
256
6
ByLayer
370
18
48
1
60
0
100
AcDbLine
10
-31.9
20
-8.94683
30
0
11
-31.9
21
-21.58105
31
0
39
0
210
0
220
0
230
1
0
LINE
5
FA
100
AcDbEntity
8
SK1
62
256
6
ByLayer
370
18
48
1
60
0
100
AcDbLine
10
-31.9
20
21.58105
30
0
11
-31.9
21
8.94683
31
0
39
0
210
0
220
0
230
1
0
LINE
5
FB
100
AcDbEntity
8
SK1
62
256
6
ByLayer
370
13
48
1
60
0
100
AcDbLine
10
-23.2
20
-12.71169
30
0
11
-23.2
21
-10.408743
31
0
39
0
210
0
220
0
230
1
0
LINE
5
FC
100
AcDbEntity
8
SK1
62
256
6
ByLayer
370
18
48
1
60
0
100
AcDbLine
10
-31.9
20
7.42
30
0
11
-31.9
21
8.94683
31
0
39
0
210
0
220
0
230
1
0
LINE
5
FD
100
AcDbEntity
8
SK1
62
256
6
ByLayer
370
18
48
1
60
0
100
AcDbLine
10
-31.9
20
7.42
30
0
11
-30.70125
21
6.22125
31
0
39
0
210
0
220
0
230
1
0
LINE
5
FE
100
AcDbEntity
8
SK1
62
256
6
ByLayer
370
13
48
1
60
0
100
AcDbLine
10
-31.869281
20
9.878468
30
0
11
-30.96978
21
10.286833
31
0
39
0
210
0
220
0
230
1
0
LINE
5
FF
100
AcDbEntity
8
SK1
62
256
6
ByLayer
370
18
48
1
60
0
100
AcDbLine
10
-30.70125
20
9.197559
30
0
11
-30.70125
21
6.22125
31
0
39
0
210
0
220
0
230
1
0
LINE
5
100
100
AcDbEntity
8
SK1
62
256
6
ByLayer
370
18
48
1
60
0
100
AcDbLine
10
-23.2
20
6.22125
30
0
11
-30.70125
21
6.22125
31
0
39
0
210
0
220
0
230
1
0
LINE
5
101
100
AcDbEntity
8
SK1
62
256
6
ByLayer
370
13
48
1
60
0
100
AcDbLine
10
-23.2
20
10.408743
30
0
11
-25.983343
21
10.408743
31
0
39
0
210
0
220
0
230
1
0
LINE
5
102
100
AcDbEntity
8
SK1
62
256
6
ByLayer
370
13
48
1
60
0
100
AcDbLine
10
-31.869281
20
-9.878468
30
0
11
-30.96978
21
-10.286833
31
0
39
0
210
0
220
0
230
1
0
LINE
5
103
100
AcDbEntity
8
SK1
62
256
6
ByLayer
370
18
48
1
60
0
100
AcDbLine
10
-31.9
20
-7.42
30
0
11
-30.70125
21
-6.22125
31
0
39
0
210
0
220
0
230
1
0
LINE
5
104
100
AcDbEntity
8
SK1
62
256
6
ByLayer
370
18
48
1
60
0
100
AcDbLine
10
-31.9
20
-7.42
30
0
11
-31.9
21
-8.94683
31
0
39
0
210
0
220
0
230
1
0
LINE
5
105
100
AcDbEntity
8
SK1
62
256
6
ByLayer
370
13
48
1
60
0
100
AcDbLine
10
-23.2
20
-10.408743
30
0
11
-25.983343
21
-10.408743
31
0
39
0
210
0
220
0
230
1
0
LINE
5
106
100
AcDbEntity
8
SK1
62
256
6
ByLayer
370
18
48
1
60
0
100
AcDbLine
10
-23.2
20
-6.22125
30
0
11
-30.70125
21
-6.22125
31
0
39
0
210
0
220
0
230
1
0
LINE
5
107
100
AcDbEntity
8
SK1
62
256
6
ByLayer
370
18
48
1
60
0
100
AcDbLine
10
-30.70125
20
-9.197559
30
0
11
-30.70125
21
-6.22125
31
0
39
0
210
0
220
0
230
1
0
LINE
5
108
100
AcDbEntity
8
SK1
62
256
6
ByLayer
370
13
48
1
60
0
100
AcDbLine
10
-23.2
20
10.408743
30
0
11
-23.2
21
12.71169
31
0
39
0
210
0
220
0
230
1
0
LINE
5
109
100
AcDbEntity
8
SK1
62
256
6
ByLayer
370
13
48
1
60
0
100
AcDbLine
10
-23.2
20
-10.408743
30
0
11
-23.2
21
-6.22125
31
0
39
0
210
0
220
0
230
1
0
LINE
5
10A
100
AcDbEntity
8
SK1
62
256
6
ByLayer
370
13
48
1
60
0
100
AcDbLine
10
-23.2
20
6.22125
30
0
11
-23.2
21
10.408743
31
0
39
0
210
0
220
0
230
1
0
LINE
5
10B
100
AcDbEntity
8
SK1
62
256
6
ByLayer
370
13
48
1
60
0
100
AcDbLine
10
-0.45
20
23.970431
30
0
11
-0.45
21
0
31
0
39
0
210
0
220
0
230
1
0
LINE
5
10C
100
AcDbEntity
8
SK1
62
256
6
ByLayer
370
13
48
1
60
0
100
AcDbLine
10
-0.45
20
0
30
0
11
-0.45
21
-23.970431
31
0
39
0
210
0
220
0
230
1
0
LINE
5
10D
100
AcDbEntity
8
SK1
62
256
6
ByLayer
370
18
48
1
60
0
100
AcDbLine
10
-1.566987
20
23.970431
30
0
11
-1.566987
21
0
31
0
39
0
210
0
220
0
230
1
0
LINE
5
10E
100
AcDbEntity
8
SK1
62
256
6
ByLayer
370
18
48
1
60
0
100
AcDbLine
10
-1.566987
20
0
30
0
11
-1.566987
21
-23.970431
31
0
39
0
210
0
220
0
230
1
0
LINE
5
10F
100
AcDbEntity
8
SK1
62
256
6
ByLayer
370
18
48
1
60
0
100
AcDbLine
10
-2
20
-24.220431
30
0
11
-2
21
0
31
0
39
0
210
0
220
0
230
1
0
LINE
5
110
100
AcDbEntity
8
SK1
62
256
6
ByLayer
370
18
48
1
60
0
100
AcDbLine
10
-2
20
0
30
0
11
-2
21
24.220431
31
0
39
0
210
0
220
0
230
1
0
LINE
5
111
100
AcDbEntity
8
SK1
62
256
6
ByLayer
370
13
48
1
60
0
100
AcDbLine
10
-30.760045
20
9.341748
30
0
11
-30.760045
21
22.779547
31
0
39
0
210
0
220
0
230
1
0
LINE
5
112
100
AcDbEntity
8
SK1
62
256
6
ByLayer
370
18
48
1
60
0
100
AcDbLine
10
-21.8
20
7.5681
30
0
11
-21.8
21
-7.5681
31
0
39
0
210
0
220
0
230
1
0
LINE
5
113
100
AcDbEntity
8
SK1
62
256
6
ByLayer
370
13
48
1
60
0
100
AcDbLine
10
-30.760045
20
-22.779547
30
0
11
-30.760045
21
-9.341748
31
0
39
0
210
0
220
0
230
1
0
LINE
5
114
100
AcDbEntity
8
1
62
256
6
ByLayer
370
13
48
0.05
60
0
100
AcDbLine
10
10
20
0
30
0
11
26
21
0
31
0
39
0
210
0
220
0
230
1
0
LINE
5
115
100
AcDbEntity
8
1
62
256
6
ByLayer
370
13
48
0.05
60
0
100
AcDbLine
10
18
20
-8
30
0
11
18
21
8
31
0
39
0
210
0
220
0
230
1
0
LINE
5
116
100
AcDbEntity
8
1
62
256
6
ByLayer
370
13
48
0.05
60
0
100
AcDbLine
10
-17.75
20
0
30
0
11
-0.25
21
0
31
0
39
0
210
0
220
0
230
1
0
LINE
5
117
100
AcDbEntity
8
1
62
256
6
ByLayer
370
13
48
0.05
60
0
100
AcDbLine
10
-9
20
-8.75
30
0
11
-9
21
8.75
31
0
39
0
210
0
220
0
230
1
0
LINE
5
118
100
AcDbEntity
8
SK2
62
256
6
ByLayer
370
18
48
1
60
0
100
AcDbLine
10
-58.875
20
-31.47
30
0
11
-58.875
21
31.47
31
0
39
0
210
0
220
0
230
1
0
LINE
5
11A
100
AcDbEntity
8
SK2
62
256
6
ByLayer
370
18
48
1
60
0
100
AcDbLine
10
-1.0875
20
31.47
30
0
11
-60.875
21
31.47
31
0
39
0
210
0
220
0
230
1
0
LINE
5
11B
100
AcDbEntity
8
SK2
62
256
6
ByLayer
370
18
48
1
60
0
100
AcDbLine
10
-1.0875
20
-31.47
30
0
11
-60.875
21
-31.47
31
0
39
0
210
0
220
0
230
1
0
LINE
5
11C
100
AcDbEntity
8
1
62
256
6
ByLayer
370
18
48
1
60
1
100
AcDbLine
10
-58.875
20
31.47
30
0
11
-58.414216
21
27.970002
31
0
39
0
210
0
220
0
230
1
0
LINE
5
11D
100
AcDbEntity
8
1
62
256
6
ByLayer
370
18
48
1
60
1
100
AcDbLine
10
-58.414216
20
27.970002
30
0
11
-59.335784
21
27.969998
31
0
39
0
210
0
220
0
230
1
0
LINE
5
11E
100
AcDbEntity
8
1
62
256
6
ByLayer
370
18
48
1
60
1
100
AcDbLine
10
-59.335784
20
27.969998
30
0
11
-58.875
21
31.47
31
0
39
0
210
0
220
0
230
1
0
LINE
5
11F
100
AcDbEntity
8
1
62
256
6
ByLayer
370
18
48
1
60
1
100
AcDbLine
10
-58.875
20
-31.47
30
0
11
-59.335784
21
-27.970002
31
0
39
0
210
0
220
0
230
1
0
LINE
5
120
100
AcDbEntity
8
1
62
256
6
ByLayer
370
18
48
1
60
1
100
AcDbLine
10
-59.335784
20
-27.970002
30
0
11
-58.414216
21
-27.969998
31
0
39
0
210
0
220
0
230
1
0
LINE
5
121
100
AcDbEntity
8
1
62
256
6
ByLayer
370
18
48
1
60
1
100
AcDbLine
10
-58.414216
20
-27.969998
30
0
11
-58.875
21
-31.47
31
0
39
0
210
0
220
0
230
1
0
LINE
5
122
100
AcDbEntity
8
SK2
62
256
6
ByLayer
370
13
48
1
60
0
100
AcDbLine
10
85.725
20
-33.85
30
0
11
85.725
21
33.85
31
0
39
0
210
0
220
0
230
1
0
LINE
5
123
100
AcDbEntity
8
SK2
62
256
6
ByLayer
370
13
48
1
60
0
100
AcDbLine
10
45.5875
20
33.85
30
0
11
87.725
21
33.85
31
0
39
0
210
0
220
0
230
1
0
LINE
5
124
100
AcDbEntity
8
SK2
62
256
6
ByLayer
370
13
48
1
60
0
100
AcDbLine
10
45.5875
20
-33.85
30
0
11
87.725
21
-33.85
31
0
39
0
210
0
220
0
230
1
0
LINE
5
125
100
AcDbEntity
8
1
62
256
6
ByLayer
370
18
48
1
60
1
100
AcDbLine
10
85.725
20
33.85
30
0
11
86.185784
21
30.350002
31
0
39
0
210
0
220
0
230
1
0
LINE
5
126
100
AcDbEntity
8
1
62
256
6
ByLayer
370
18
48
1
60
1
100
AcDbLine
10
86.185784
20
30.350002
30
0
11
85.264216
21
30.349998
31
0
39
0
210
0
220
0
230
1
0
LINE
5
127
100
AcDbEntity
8
1
62
256
6
ByLayer
370
18
48
1
60
1
100
AcDbLine
10
85.264216
20
30.349998
30
0
11
85.725
21
33.85
31
0
39
0
210
0
220
0
230
1
0
LINE
5
128
100
AcDbEntity
8
1
62
256
6
ByLayer
370
18
48
1
60
1
100
AcDbLine
10
85.725
20
-33.85
30
0
11
85.264216
21
-30.350002
31
0
39
0
210
0
220
0
230
1
0
LINE
5
129
100
AcDbEntity
8
1
62
256
6
ByLayer
370
18
48
1
60
1
100
AcDbLine
10
85.264216
20
-30.350002
30
0
11
86.185784
21
-30.349998
31
0
39
0
210
0
220
0
230
1
0
LINE
5
12A
100
AcDbEntity
8
1
62
256
6
ByLayer
370
18
48
1
60
1
100
AcDbLine
10
86.185784
20
-30.349998
30
0
11
85.725
21
-33.85
31
0
39
0
210
0
220
0
230
1
0
LINE
5
12B
100
AcDbEntity
8
SK2
62
256
6
ByLayer
370
18
48
1
60
0
100
AcDbLine
10
-31.9
20
56.7955
30
0
11
0
21
56.7955
31
0
39
0
210
0
220
0
230
1
0
LINE
5
12C
100
AcDbEntity
8
SK2
62
256
6
ByLayer
370
18
48
1
60
0
100
AcDbLine
10
0
20
32.5575
30
0
11
0
21
58.7955
31
0
39
0
210
0
220
0
230
1
0
LINE
5
12D
100
AcDbEntity
8
SK2
62
256
6
ByLayer
370
18
48
1
60
0
100
AcDbLine
10
-31.9
20
23.16855
30
0
11
-31.9
21
58.7955
31
0
39
0
210
0
220
0
230
1
0
LINE
5
12E
100
AcDbEntity
8
1
62
256
6
ByLayer
370
18
48
1
60
1
100
AcDbLine
10
0
20
56.7955
30
0
11
-3.499998
21
56.334716
31
0
39
0
210
0
220
0
230
1
0
LINE
5
12F
100
AcDbEntity
8
1
62
256
6
ByLayer
370
18
48
1
60
1
100
AcDbLine
10
-3.499998
20
56.334716
30
0
11
-3.500002
21
57.256283
31
0
39
0
210
0
220
0
230
1
0
LINE
5
130
100
AcDbEntity
8
1
62
256
6
ByLayer
370
18
48
1
60
1
100
AcDbLine
10
-3.500002
20
57.256283
30
0
11
0
21
56.7955
31
0
39
0
210
0
220
0
230
1
0
LINE
5
131
100
AcDbEntity
8
1
62
256
6
ByLayer
370
18
48
1
60
1
100
AcDbLine
10
-31.9
20
56.7955
30
0
11
-28.400002
21
57.256283
31
0
39
0
210
0
220
0
230
1
0
LINE
5
132
100
AcDbEntity
8
1
62
256
6
ByLayer
370
18
48
1
60
1
100
AcDbLine
10
-28.400002
20
57.256283
30
0
11
-28.399998
21
56.334716
31
0
39
0
210
0
220
0
230
1
0
LINE
5
133
100
AcDbEntity
8
1
62
256
6
ByLayer
370
18
48
1
60
1
100
AcDbLine
10
-28.399998
20
56.334716
30
0
11
-31.9
21
56.7955
31
0
39
0
210
0
220
0
230
1
0
LINE
5
134
100
AcDbEntity
8
SK2
62
256
6
ByLayer
370
18
48
1
60
0
100
AcDbLine
10
0
20
76.7955
30
0
11
60
21
76.7955
31
0
39
0
210
0
220
0
230
1
0
LINE
5
135
100
AcDbEntity
8
SK2
62
256
6
ByLayer
370
18
48
1
60
0
100
AcDbLine
10
60
20
29.5875
30
0
11
60
21
78.7955
31
0
39
0
210
0
220
0
230
1
0
LINE
5
136
100
AcDbEntity
8
SK2
62
256
6
ByLayer
370
18
48
1
60
0
100
AcDbLine
10
0
20
32.5575
30
0
11
0
21
78.7955
31
0
39
0
210
0
220
0
230
1
0
LINE
5
137
100
AcDbEntity
8
1
62
256
6
ByLayer
370
18
48
1
60
1
100
AcDbLine
10
60
20
76.7955
30
0
11
56.500002
21
76.334716
31
0
39
0
210
0
220
0
230
1
0
LINE
5
138
100
AcDbEntity
8
1
62
256
6
ByLayer
370
18
48
1
60
1
100
AcDbLine
10
56.500002
20
76.334716
30
0
11
56.499998
21
77.256283
31
0
39
0
210
0
220
0
230
1
0
LINE
5
139
100
AcDbEntity
8
1
62
256
6
ByLayer
370
18
48
1
60
1
100
AcDbLine
10
56.499998
20
77.256283
30
0
11
60
21
76.7955
31
0
39
0
210
0
220
0
230
1
0
LINE
5
13A
100
AcDbEntity
8
1
62
256
6
ByLayer
370
18
48
1
60
1
100
AcDbLine
10
0
20
76.7955
30
0
11
3.499998
21
77.256283
31
0
39
0
210
0
220
0
230
1
0
LINE
5
13B
100
AcDbEntity
8
1
62
256
6
ByLayer
370
18
48
1
60
1
100
AcDbLine
10
3.499998
20
77.256283
30
0
11
3.500002
21
76.334716
31
0
39
0
210
0
220
0
230
1
0
LINE
5
13C
100
AcDbEntity
8
1
62
256
6
ByLayer
370
18
48
1
60
1
100
AcDbLine
10
3.500002
20
76.334716
30
0
11
0
21
76.7955
31
0
39
0
210
0
220
0
230
1
0
LINE
5
13D
100
AcDbEntity
8
SK2
62
256
6
ByLayer
370
18
48
1
60
0
100
AcDbLine
10
0
20
66.7955
30
0
11
43
21
66.7955
31
0
39
0
210
0
220
0
230
1
0
LINE
5
13E
100
AcDbEntity
8
SK2
62
256
6
ByLayer
370
18
48
1
60
0
100
AcDbLine
10
43
20
34.4375
30
0
11
43
21
68.7955
31
0
39
0
210
0
220
0
230
1
0
LINE
5
13F
100
AcDbEntity
8
SK2
62
256
6
ByLayer
370
18
48
1
60
0
100
AcDbLine
10
0
20
32.5575
30
0
11
0
21
68.7955
31
0
39
0
210
0
220
0
230
1
0
LINE
5
140
100
AcDbEntity
8
1
62
256
6
ByLayer
370
18
48
1
60
1
100
AcDbLine
10
43
20
66.7955
30
0
11
39.500002
21
66.334716
31
0
39
0
210
0
220
0
230
1
0
LINE
5
141
100
AcDbEntity
8
1
62
256
6
ByLayer
370
18
48
1
60
1
100
AcDbLine
10
39.500002
20
66.334716
30
0
11
39.499998
21
67.256283
31
0
39
0
210
0
220
0
230
1
0
LINE
5
142
100
AcDbEntity
8
1
62
256
6
ByLayer
370
18
48
1
60
1
100
AcDbLine
10
39.499998
20
67.256283
30
0
11
43
21
66.7955
31
0
39
0
210
0
220
0
230
1
0
LINE
5
143
100
AcDbEntity
8
1
62
256
6
ByLayer
370
18
48
1
60
1
100
AcDbLine
10
0
20
66.7955
30
0
11
3.499998
21
67.256283
31
0
39
0
210
0
220
0
230
1
0
LINE
5
144
100
AcDbEntity
8
1
62
256
6
ByLayer
370
18
48
1
60
1
100
AcDbLine
10
3.499998
20
67.256283
30
0
11
3.500002
21
66.334716
31
0
39
0
210
0
220
0
230
1
0
LINE
5
145
100
AcDbEntity
8
1
62
256
6
ByLayer
370
18
48
1
60
1
100
AcDbLine
10
3.500002
20
66.334716
30
0
11
0
21
66.7955
31
0
39
0
210
0
220
0
230
1
0
LINE
5
146
100
AcDbEntity
8
SK2
62
256
6
ByLayer
370
18
48
1
60
0
100
AcDbLine
10
60
20
56.7955
30
0
11
43
21
56.7955
31
0
39
0
210
0
220
0
230
1
0
LINE
5
147
100
AcDbEntity
8
SK2
62
256
6
ByLayer
370
18
48
1
60
0
100
AcDbLine
10
43
20
34.4375
30
0
11
43
21
58.7955
31
0
39
0
210
0
220
0
230
1
0
LINE
5
148
100
AcDbEntity
8
SK2
62
256
6
ByLayer
370
18
48
1
60
0
100
AcDbLine
10
60
20
29.5875
30
0
11
60
21
58.7955
31
0
39
0
210
0
220
0
230
1
0
LINE
5
149
100
AcDbEntity
8
1
62
256
6
ByLayer
370
18
48
1
60
1
100
AcDbLine
10
43
20
56.7955
30
0
11
46.499998
21
57.256283
31
0
39
0
210
0
220
0
230
1
0
LINE
5
14A
100
AcDbEntity
8
1
62
256
6
ByLayer
370
18
48
1
60
1
100
AcDbLine
10
46.499998
20
57.256283
30
0
11
46.500002
21
56.334716
31
0
39
0
210
0
220
0
230
1
0
LINE
5
14B
100
AcDbEntity
8
1
62
256
6
ByLayer
370
18
48
1
60
1
100
AcDbLine
10
46.500002
20
56.334716
30
0
11
43
21
56.7955
31
0
39
0
210
0
220
0
230
1
0
LINE
5
14C
100
AcDbEntity
8
1
62
256
6
ByLayer
370
18
48
1
60
1
100
AcDbLine
10
60
20
56.7955
30
0
11
56.500002
21
56.334716
31
0
39
0
210
0
220
0
230
1
0
LINE
5
14D
100
AcDbEntity
8
1
62
256
6
ByLayer
370
18
48
1
60
1
100
AcDbLine
10
56.500002
20
56.334716
30
0
11
56.499998
21
57.256283
31
0
39
0
210
0
220
0
230
1
0
LINE
5
14E
100
AcDbEntity
8
1
62
256
6
ByLayer
370
18
48
1
60
1
100
AcDbLine
10
56.499998
20
57.256283
30
0
11
60
21
56.7955
31
0
39
0
210
0
220
0
230
1
0
LINE
5
14F
100
AcDbEntity
8
2
62
256
6
ByLayer
370
18
48
1
60
0
100
AcDbLine
10
0
20
-53.7955
30
0
11
50
21
-53.7955
31
0
39
0
210
0
220
0
230
1
0
LINE
5
150
100
AcDbEntity
8
2
62
256
6
ByLayer
370
18
48
1
60
0
100
AcDbLine
10
50
20
-1.5875
30
0
11
50
21
-55.7955
31
0
39
0
210
0
220
0
230
1
0
LINE
5
151
100
AcDbEntity
8
2
62
256
6
ByLayer
370
18
48
1
60
0
100
AcDbLine
10
0
20
-32.5575
30
0
11
0
21
-55.7955
31
0
39
0
210
0
220
0
230
1
0
LINE
5
152
100
AcDbEntity
8
1
62
256
6
ByLayer
370
18
48
1
60
1
100
AcDbLine
10
50
20
-53.7955
30
0
11
46.500002
21
-54.256283
31
0
39
0
210
0
220
0
230
1
0
LINE
5
153
100
AcDbEntity
8
1
62
256
6
ByLayer
370
18
48
1
60
1
100
AcDbLine
10
46.500002
20
-54.256283
30
0
11
46.499998
21
-53.334716
31
0
39
0
210
0
220
0
230
1
0
LINE
5
154
100
AcDbEntity
8
1
62
256
6
ByLayer
370
18
48
1
60
1
100
AcDbLine
10
46.499998
20
-53.334716
30
0
11
50
21
-53.7955
31
0
39
0
210
0
220
0
230
1
0
LINE
5
155
100
AcDbEntity
8
1
62
256
6
ByLayer
370
18
48
1
60
1
100
AcDbLine
10
0
20
-53.7955
30
0
11
3.499998
21
-53.334716
31
0
39
0
210
0
220
0
230
1
0
LINE
5
156
100
AcDbEntity
8
1
62
256
6
ByLayer
370
18
48
1
60
1
100
AcDbLine
10
3.499998
20
-53.334716
30
0
11
3.500002
21
-54.256283
31
0
39
0
210
0
220
0
230
1
0
LINE
5
157
100
AcDbEntity
8
1
62
256
6
ByLayer
370
18
48
1
60
1
100
AcDbLine
10
3.500002
20
-54.256283
30
0
11
0
21
-53.7955
31
0
39
0
210
0
220
0
230
1
0
LINE
5
1B8
100
AcDbEntity
8
1
62
256
6
ByLayer
370
13
48
0.05
60
0
100
AcDbLine
10
18
20
29.234794
30
0
11
18
21
8.969053
31
0
39
0
210
0
220
0
230
1
0
LINE
5
1B9
100
AcDbEntity
8
1
62
256
6
ByLayer
370
13
48
0.05
60
0
100
AcDbLine
10
18
20
32.635248
30
0
11
18
21
11.474174
31
0
39
0
210
0
220
0
230
1
0
LINE
5
1BA
100
AcDbEntity
8
1
62
256
6
ByLayer
370
13
48
0.05
60
0
100
AcDbLine
10
18
20
34.144664
30
0
11
18
21
13.424591
31
0
39
0
210
0
220
0
230
1
0
LINE
5
1BB
100
AcDbEntity
8
1
62
256
6
ByLayer
370
13
48
0.05
60
0
100
AcDbLine
10
-37.260045
20
0
30
0
11
49.674167
21
0
31
0
39
0
210
0
220
0
230
1
0
LINE
5
1BC
100
AcDbEntity
8
1
62
256
6
ByLayer
370
13
48
0.05
60
0
100
AcDbLine
10
66.5
20
0
30
0
11
36.5
21
0
31
0
39
0
210
0
220
0
230
1
0
LINE
5
1C1
100
AcDbEntity
8
1
62
256
6
ByLayer
370
18
48
1
60
1
100
AcDbLine
10
-58.875
20
31.47
30
0
11
-58.414216
21
27.970002
31
0
39
0
210
0
220
0
230
1
0
LINE
5
1C2
100
AcDbEntity
8
1
62
256
6
ByLayer
370
18
48
1
60
1
100
AcDbLine
10
-58.414216
20
27.970002
30
0
11
-59.335784
21
27.969998
31
0
39
0
210
0
220
0
230
1
0
LINE
5
1C3
100
AcDbEntity
8
1
62
256
6
ByLayer
370
18
48
1
60
1
100
AcDbLine
10
-59.335784
20
27.969998
30
0
11
-58.875
21
31.47
31
0
39
0
210
0
220
0
230
1
0
LINE
5
1C5
100
AcDbEntity
8
1
62
256
6
ByLayer
370
18
48
1
60
1
100
AcDbLine
10
-58.875
20
-31.47
30
0
11
-59.335784
21
-27.970002
31
0
39
0
210
0
220
0
230
1
0
LINE
5
1C6
100
AcDbEntity
8
1
62
256
6
ByLayer
370
18
48
1
60
1
100
AcDbLine
10
-59.335784
20
-27.970002
30
0
11
-58.414216
21
-27.969998
31
0
39
0
210
0
220
0
230
1
0
LINE
5
1C7
100
AcDbEntity
8
1
62
256
6
ByLayer
370
18
48
1
60
1
100
AcDbLine
10
-58.414216
20
-27.969998
30
0
11
-58.875
21
-31.47
31
0
39
0
210
0
220
0
230
1
0
LINE
5
1CB
100
AcDbEntity
8
1
62
256
6
ByLayer
370
18
48
1
60
1
100
AcDbLine
10
85.725
20
33.85
30
0
11
86.185784
21
30.350002
31
0
39
0
210
0
220
0
230
1
0
LINE
5
1CC
100
AcDbEntity
8
1
62
256
6
ByLayer
370
18
48
1
60
1
100
AcDbLine
10
86.185784
20
30.350002
30
0
11
85.264216
21
30.349998
31
0
39
0
210
0
220
0
230
1
0
LINE
5
1CD
100
AcDbEntity
8
1
62
256
6
ByLayer
370
18
48
1
60
1
100
AcDbLine
10
85.264216
20
30.349998
30
0
11
85.725
21
33.85
31
0
39
0
210
0
220
0
230
1
0
LINE
5
1CF
100
AcDbEntity
8
1
62
256
6
ByLayer
370
18
48
1
60
1
100
AcDbLine
10
85.725
20
-33.85
30
0
11
85.264216
21
-30.350002
31
0
39
0
210
0
220
0
230
1
0
LINE
5
1D0
100
AcDbEntity
8
1
62
256
6
ByLayer
370
18
48
1
60
1
100
AcDbLine
10
85.264216
20
-30.350002
30
0
11
86.185784
21
-30.349998
31
0
39
0
210
0
220
0
230
1
0
LINE
5
1D1
100
AcDbEntity
8
1
62
256
6
ByLayer
370
18
48
1
60
1
100
AcDbLine
10
86.185784
20
-30.349998
30
0
11
85.725
21
-33.85
31
0
39
0
210
0
220
0
230
1
0
LINE
5
1D4
100
AcDbEntity
8
1
62
256
6
ByLayer
370
18
48
1
60
1
100
AcDbLine
10
0
20
56.7955
30
0
11
-3.499998
21
56.334716
31
0
39
0
210
0
220
0
230
1
0
LINE
5
1D5
100
AcDbEntity
8
1
62
256
6
ByLayer
370
18
48
1
60
1
100
AcDbLine
10
-3.499998
20
56.334716
30
0
11
-3.500002
21
57.256283
31
0
39
0
210
0
220
0
230
1
0
LINE
5
1D6
100
AcDbEntity
8
1
62
256
6
ByLayer
370
18
48
1
60
1
100
AcDbLine
10
-3.500002
20
57.256283
30
0
11
0
21
56.7955
31
0
39
0
210
0
220
0
230
1
0
LINE
5
1D8
100
AcDbEntity
8
1
62
256
6
ByLayer
370
18
48
1
60
1
100
AcDbLine
10
-31.9
20
56.7955
30
0
11
-28.400002
21
57.256283
31
0
39
0
210
0
220
0
230
1
0
LINE
5
1D9
100
AcDbEntity
8
1
62
256
6
ByLayer
370
18
48
1
60
1
100
AcDbLine
10
-28.400002
20
57.256283
30
0
11
-28.399998
21
56.334716
31
0
39
0
210
0
220
0
230
1
0
LINE
5
1DA
100
AcDbEntity
8
1
62
256
6
ByLayer
370
18
48
1
60
1
100
AcDbLine
10
-28.399998
20
56.334716
30
0
11
-31.9
21
56.7955
31
0
39
0
210
0
220
0
230
1
0
LINE
5
1DD
100
AcDbEntity
8
1
62
256
6
ByLayer
370
18
48
1
60
1
100
AcDbLine
10
60
20
76.7955
30
0
11
56.500002
21
76.334716
31
0
39
0
210
0
220
0
230
1
0
LINE
5
1DE
100
AcDbEntity
8
1
62
256
6
ByLayer
370
18
48
1
60
1
100
AcDbLine
10
56.500002
20
76.334716
30
0
11
56.499998
21
77.256283
31
0
39
0
210
0
220
0
230
1
0
LINE
5
1DF
100
AcDbEntity
8
1
62
256
6
ByLayer
370
18
48
1
60
1
100
AcDbLine
10
56.499998
20
77.256283
30
0
11
60
21
76.7955
31
0
39
0
210
0
220
0
230
1
0
LINE
5
1E1
100
AcDbEntity
8
1
62
256
6
ByLayer
370
18
48
1
60
1
100
AcDbLine
10
0
20
76.7955
30
0
11
3.499998
21
77.256283
31
0
39
0
210
0
220
0
230
1
0
LINE
5
1E2
100
AcDbEntity
8
1
62
256
6
ByLayer
370
18
48
1
60
1
100
AcDbLine
10
3.499998
20
77.256283
30
0
11
3.500002
21
76.334716
31
0
39
0
210
0
220
0
230
1
0
LINE
5
1E3
100
AcDbEntity
8
1
62
256
6
ByLayer
370
18
48
1
60
1
100
AcDbLine
10
3.500002
20
76.334716
30
0
11
0
21
76.7955
31
0
39
0
210
0
220
0
230
1
0
LINE
5
1E6
100
AcDbEntity
8
1
62
256
6
ByLayer
370
18
48
1
60
1
100
AcDbLine
10
43
20
66.7955
30
0
11
39.500002
21
66.334716
31
0
39
0
210
0
220
0
230
1
0
LINE
5
1E7
100
AcDbEntity
8
1
62
256
6
ByLayer
370
18
48
1
60
1
100
AcDbLine
10
39.500002
20
66.334716
30
0
11
39.499998
21
67.256283
31
0
39
0
210
0
220
0
230
1
0
LINE
5
1E8
100
AcDbEntity
8
1
62
256
6
ByLayer
370
18
48
1
60
1
100
AcDbLine
10
39.499998
20
67.256283
30
0
11
43
21
66.7955
31
0
39
0
210
0
220
0
230
1
0
LINE
5
1EA
100
AcDbEntity
8
1
62
256
6
ByLayer
370
18
48
1
60
1
100
AcDbLine
10
0
20
66.7955
30
0
11
3.499998
21
67.256283
31
0
39
0
210
0
220
0
230
1
0
LINE
5
1EB
100
AcDbEntity
8
1
62
256
6
ByLayer
370
18
48
1
60
1
100
AcDbLine
10
3.499998
20
67.256283
30
0
11
3.500002
21
66.334716
31
0
39
0
210
0
220
0
230
1
0
LINE
5
1EC
100
AcDbEntity
8
1
62
256
6
ByLayer
370
18
48
1
60
1
100
AcDbLine
10
3.500002
20
66.334716
30
0
11
0
21
66.7955
31
0
39
0
210
0
220
0
230
1
0
LINE
5
1EF
100
AcDbEntity
8
1
62
256
6
ByLayer
370
18
48
1
60
1
100
AcDbLine
10
43
20
56.7955
30
0
11
46.499998
21
57.256283
31
0
39
0
210
0
220
0
230
1
0
LINE
5
1F0
100
AcDbEntity
8
1
62
256
6
ByLayer
370
18
48
1
60
1
100
AcDbLine
10
46.499998
20
57.256283
30
0
11
46.500002
21
56.334716
31
0
39
0
210
0
220
0
230
1
0
LINE
5
1F1
100
AcDbEntity
8
1
62
256
6
ByLayer
370
18
48
1
60
1
100
AcDbLine
10
46.500002
20
56.334716
30
0
11
43
21
56.7955
31
0
39
0
210
0
220
0
230
1
0
LINE
5
1F3
100
AcDbEntity
8
1
62
256
6
ByLayer
370
18
48
1
60
1
100
AcDbLine
10
60
20
56.7955
30
0
11
56.500002
21
56.334716
31
0
39
0
210
0
220
0
230
1
0
LINE
5
1F4
100
AcDbEntity
8
1
62
256
6
ByLayer
370
18
48
1
60
1
100
AcDbLine
10
56.500002
20
56.334716
30
0
11
56.499998
21
57.256283
31
0
39
0
210
0
220
0
230
1
0
LINE
5
1F5
100
AcDbEntity
8
1
62
256
6
ByLayer
370
18
48
1
60
1
100
AcDbLine
10
56.499998
20
57.256283
30
0
11
60
21
56.7955
31
0
39
0
210
0
220
0
230
1
0
LINE
5
1F8
100
AcDbEntity
8
1
62
256
6
ByLayer
370
18
48
1
60
1
100
AcDbLine
10
50
20
-53.7955
30
0
11
46.500002
21
-54.256283
31
0
39
0
210
0
220
0
230
1
0
LINE
5
1F9
100
AcDbEntity
8
1
62
256
6
ByLayer
370
18
48
1
60
1
100
AcDbLine
10
46.500002
20
-54.256283
30
0
11
46.499998
21
-53.334716
31
0
39
0
210
0
220
0
230
1
0
LINE
5
1FA
100
AcDbEntity
8
1
62
256
6
ByLayer
370
18
48
1
60
1
100
AcDbLine
10
46.499998
20
-53.334716
30
0
11
50
21
-53.7955
31
0
39
0
210
0
220
0
230
1
0
LINE
5
1FC
100
AcDbEntity
8
1
62
256
6
ByLayer
370
18
48
1
60
1
100
AcDbLine
10
0
20
-53.7955
30
0
11
3.499998
21
-53.334716
31
0
39
0
210
0
220
0
230
1
0
LINE
5
1FD
100
AcDbEntity
8
1
62
256
6
ByLayer
370
18
48
1
60
1
100
AcDbLine
10
3.499998
20
-53.334716
30
0
11
3.500002
21
-54.256283
31
0
39
0
210
0
220
0
230
1
0
LINE
5
1FE
100
AcDbEntity
8
1
62
256
6
ByLayer
370
18
48
1
60
1
100
AcDbLine
10
3.500002
20
-54.256283
30
0
11
0
21
-53.7955
31
0
39
0
210
0
220
0
230
1
0
MTEXT
5
1BD
100
AcDbEntity
8
SK2
62
256
6
ByLayer
370
18
48
1
60
0
100
AcDbMText
10
-60.439634
20
-4.530622
30
0
210
0
220
0
230
1
1
%%c
40
3.5
41
0
44
1.084337
50
90
71
7
72
5
7
iso_b_vert
0
MTEXT
5
1C0
100
AcDbEntity
8
SK2
62
256
6
ByLayer
370
18
48
1
60
0
100
AcDbMText
10
-60.439634
20
2.442034
30
0
210
0
220
0
230
1
1
\W0.6740;63
40
3.5
41
0
44
1.084337
50
90
71
7
72
5
7
iso_b_vert
0
MTEXT
5
1C9
100
AcDbEntity
8
SK2
62
256
6
ByLayer
370
18
48
1
60
0
100
AcDbMText
10
84.160366
20
-4.530622
30
0
210
0
220
0
230
1
1
%%c
40
3.5
41
0
44
1.084337
50
90
71
7
72
5
7
iso_b_vert
0
MTEXT
5
1CA
100
AcDbEntity
8
SK2
62
256
6
ByLayer
370
18
48
1
60
0
100
AcDbMText
10
84.160366
20
2.442034
30
0
210
0
220
0
230
1
1
\W0.6740;68
40
3.5
41
0
44
1.084337
50
90
71
7
72
5
7
iso_b_vert
0
MTEXT
5
1D3
100
AcDbEntity
8
SK2
62
256
6
ByLayer
370
18
48
1
60
0
100
AcDbMText
10
-19.434266
20
57.828133
30
0
210
0
220
0
230
1
1
\W0.6662;31.9
40
3.5
41
0
44
1.084337
50
0
71
7
72
5
7
iso_b_vert
0
MTEXT
5
1DC
100
AcDbEntity
8
SK2
62
256
6
ByLayer
370
18
48
1
60
0
100
AcDbMText
10
28.095034
20
77.828133
30
0
210
0
220
0
230
1
1
\W0.6740;60
40
3.5
41
0
44
1.084337
50
0
71
7
72
5
7
iso_b_vert
0
MTEXT
5
1E5
100
AcDbEntity
8
SK2
62
256
6
ByLayer
370
18
48
1
60
0
100
AcDbMText
10
19.410767
20
67.828133
30
0
210
0
220
0
230
1
1
\W0.7361;43
40
3.5
41
0
44
1.084337
50
0
71
7
72
5
7
iso_b_vert
0
MTEXT
5
1EE
100
AcDbEntity
8
SK2
62
256
6
ByLayer
370
18
48
1
60
0
100
AcDbMText
10
50.032467
20
57.828133
30
0
210
0
220
0
230
1
1
\W0.5321;17
40
3.5
41
0
44
1.084337
50
0
71
7
72
5
7
iso_b_vert
0
MTEXT
5
1F7
100
AcDbEntity
8
2
62
256
6
ByLayer
370
18
48
1
60
0
100
AcDbMText
10
23.095034
20
-52.762866
30
0
210
0
220
0
230
1
1
\W0.6740;50
40
3.5
41
0
44
1.084337
50
0
71
7
72
5
7
iso_b_vert
0
MTEXT
5
200
100
AcDbEntity
8
SK6
62
256
6
ByLayer
370
18
48
1
60
0
100
AcDbMText
10
-19.57854
20
-87.114886
30
0
210
0
220
0
230
1
1
\W0.7730;HT06-DM32-N-050A
40
3
41
0
44
1.084337
50
0
71
7
72
5
7
iso_b_vert
0
HATCH
5
1C4
100
AcDbEntity
8
SK2
62
256
6
ByLayer
370
13
48
1
60
0
100
AcDbHatch
10
0
20
0
30
0
210
0
220
0
230
1
2
ANSI31
70
0
71
0
91
1
92
5
93
3
72
1
10
-58.875
20
31.47
11
-58.4142162584472
21
27.9700016925532
72
1
10
-58.4142162584472
20
27.9700016925532
11
-59.3357837415528
21
27.9699983074468
72
1
10
-59.3357837415528
20
27.9699983074468
11
-58.875
21
31.47
97
0
75
0
76
1
52
0
41
0.0062
77
0
78
1
53
45
43
0
44
0
45
-0.0139193969876572
46
0.0139193969876572
79
0
47
0
98
1
10
0
20
0
0
HATCH
5
1C8
100
AcDbEntity
8
SK2
62
256
6
ByLayer
370
13
48
1
60
0
100
AcDbHatch
10
0
20
0
30
0
210
0
220
0
230
1
2
ANSI31
70
0
71
0
91
1
92
5
93
3
72
1
10
-58.875
20
-31.47
11
-59.3357837415528
21
-27.9700016925532
72
1
10
-59.3357837415528
20
-27.9700016925532
11
-58.4142162584472
21
-27.9699983074468
72
1
10
-58.4142162584472
20
-27.9699983074468
11
-58.875
21
-31.47
97
0
75
0
76
1
52
0
41
0.0062
77
0
78
1
53
45
43
0
44
0
45
-0.0139193969876572
46
0.0139193969876572
79
0
47
0
98
1
10
0
20
0
0
HATCH
5
1CE
100
AcDbEntity
8
SK2
62
256
6
ByLayer
370
13
48
1
60
0
100
AcDbHatch
10
0
20
0
30
0
210
0
220
0
230
1
2
ANSI31
70
0
71
0
91
1
92
5
93
3
72
1
10
85.725
20
33.85
11
86.1857837415528
21
30.3500016925532
72
1
10
86.1857837415528
20
30.3500016925532
11
85.2642162584472
21
30.3499983074468
72
1
10
85.2642162584472
20
30.3499983074468
11
85.725
21
33.85
97
0
75
0
76
1
52
0
41
0.0062
77
0
78
1
53
45
43
0
44
0
45
-0.0139193969876572
46
0.0139193969876572
79
0
47
0
98
1
10
0
20
0
0
HATCH
5
1D2
100
AcDbEntity
8
SK2
62
256
6
ByLayer
370
13
48
1
60
0
100
AcDbHatch
10
0
20
0
30
0
210
0
220
0
230
1
2
ANSI31
70
0
71
0
91
1
92
5
93
3
72
1
10
85.725
20
-33.85
11
85.2642162584472
21
-30.3500016925532
72
1
10
85.2642162584472
20
-30.3500016925532
11
86.1857837415528
21
-30.3499983074468
72
1
10
86.1857837415528
20
-30.3499983074468
11
85.725
21
-33.85
97
0
75
0
76
1
52
0
41
0.0062
77
0
78
1
53
45
43
0
44
0
45
-0.0139193969876572
46
0.0139193969876572
79
0
47
0
98
1
10
0
20
0
0
HATCH
5
1D7
100
AcDbEntity
8
SK2
62
256
6
ByLayer
370
13
48
1
60
0
100
AcDbHatch
10
0
20
0
30
0
210
0
220
0
230
1
2
ANSI31
70
0
71
0
91
1
92
5
93
3
72
1
10
0
20
56.7954996009155
11
-3.49999830744682
21
56.3347158593627
72
1
10
-3.49999830744682
20
56.3347158593627
11
-3.50000169255318
21
57.2562833424682
72
1
10
-3.50000169255318
20
57.2562833424682
11
0
21
56.7954996009155
97
0
75
0
76
1
52
0
41
0.0062
77
0
78
1
53
45
43
0
44
0
45
-0.0139193969876572
46
0.0139193969876572
79
0
47
0
98
1
10
0
20
0
0
HATCH
5
1DB
100
AcDbEntity
8
SK2
62
256
6
ByLayer
370
13
48
1
60
0
100
AcDbHatch
10
0
20
0
30
0
210
0
220
0
230
1
2
ANSI31
70
0
71
0
91
1
92
5
93
3
72
1
10
-31.9
20
56.7954996009155
11
-28.4000016925532
21
57.2562833424682
72
1
10
-28.4000016925532
20
57.2562833424682
11
-28.3999983074468
21
56.3347158593627
72
1
10
-28.3999983074468
20
56.3347158593627
11
-31.9
21
56.7954996009155
97
0
75
0
76
1
52
0
41
0.0062
77
0
78
1
53
45
43
0
44
0
45
-0.0139193969876572
46
0.0139193969876572
79
0
47
0
98
1
10
0
20
0
0
HATCH
5
1E0
100
AcDbEntity
8
SK2
62
256
6
ByLayer
370
13
48
1
60
0
100
AcDbHatch
10
0
20
0
30
0
210
0
220
0
230
1
2
ANSI31
70
0
71
0
91
1
92
5
93
3
72
1
10
60
20
76.7954996009155
11
56.5000016925532
21
76.3347158593627
72
1
10
56.5000016925532
20
76.3347158593627
11
56.4999983074468
21
77.2562833424682
72
1
10
56.4999983074468
20
77.2562833424682
11
60
21
76.7954996009155
97
0
75
0
76
1
52
0
41
0.0062
77
0
78
1
53
45
43
0
44
0
45
-0.0139193969876572
46
0.0139193969876572
79
0
47
0
98
1
10
0
20
0
0
HATCH
5
1E4
100
AcDbEntity
8
SK2
62
256
6
ByLayer
370
13
48
1
60
0
100
AcDbHatch
10
0
20
0
30
0
210
0
220
0
230
1
2
ANSI31
70
0
71
0
91
1
92
5
93
3
72
1
10
0
20
76.7954996009155
11
3.49999830744682
21
77.2562833424682
72
1
10
3.49999830744682
20
77.2562833424682
11
3.50000169255318
21
76.3347158593627
72
1
10
3.50000169255318
20
76.3347158593627
11
0
21
76.7954996009155
97
0
75
0
76
1
52
0
41
0.0062
77
0
78
1
53
45
43
0
44
0
45
-0.0139193969876572
46
0.0139193969876572
79
0
47
0
98
1
10
0
20
0
0
HATCH
5
1E9
100
AcDbEntity
8
SK2
62
256
6
ByLayer
370
13
48
1
60
0
100
AcDbHatch
10
0
20
0
30
0
210
0
220
0
230
1
2
ANSI31
70
0
71
0
91
1
92
5
93
3
72
1
10
43
20
66.7954996009155
11
39.5000016925532
21
66.3347158593627
72
1
10
39.5000016925532
20
66.3347158593627
11
39.4999983074468
21
67.2562833424682
72
1
10
39.4999983074468
20
67.2562833424682
11
43
21
66.7954996009155
97
0
75
0
76
1
52
0
41
0.0062
77
0
78
1
53
45
43
0
44
0
45
-0.0139193969876572
46
0.0139193969876572
79
0
47
0
98
1
10
0
20
0
0
HATCH
5
1ED
100
AcDbEntity
8
SK2
62
256
6
ByLayer
370
13
48
1
60
0
100
AcDbHatch
10
0
20
0
30
0
210
0
220
0
230
1
2
ANSI31
70
0
71
0
91
1
92
5
93
3
72
1
10
0
20
66.7954996009155
11
3.49999830744682
21
67.2562833424682
72
1
10
3.49999830744682
20
67.2562833424682
11
3.50000169255318
21
66.3347158593627
72
1
10
3.50000169255318
20
66.3347158593627
11
0
21
66.7954996009155
97
0
75
0
76
1
52
0
41
0.0062
77
0
78
1
53
45
43
0
44
0
45
-0.0139193969876572
46
0.0139193969876572
79
0
47
0
98
1
10
0
20
0
0
HATCH
5
1F2
100
AcDbEntity
8
SK2
62
256
6
ByLayer
370
13
48
1
60
0
100
AcDbHatch
10
0
20
0
30
0
210
0
220
0
230
1
2
ANSI31
70
0
71
0
91
1
92
5
93
3
72
1
10
43
20
56.7954996009155
11
46.4999983074468
21
57.2562833424682
72
1
10
46.4999983074468
20
57.2562833424682
11
46.5000016925532
21
56.3347158593627
72
1
10
46.5000016925532
20
56.3347158593627
11
43
21
56.7954996009155
97
0
75
0
76
1
52
0
41
0.0062
77
0
78
1
53
45
43
0
44
0
45
-0.0139193969876572
46
0.0139193969876572
79
0
47
0
98
1
10
0
20
0
0
HATCH
5
1F6
100
AcDbEntity
8
SK2
62
256
6
ByLayer
370
13
48
1
60
0
100
AcDbHatch
10
0
20
0
30
0
210
0
220
0
230
1
2
ANSI31
70
0
71
0
91
1
92
5
93
3
72
1
10
60
20
56.7954996009155
11
56.5000016925532
21
56.3347158593627
72
1
10
56.5000016925532
20
56.3347158593627
11
56.4999983074468
21
57.2562833424682
72
1
10
56.4999983074468
20
57.2562833424682
11
60
21
56.7954996009155
97
0
75
0
76
1
52
0
41
0.0062
77
0
78
1
53
45
43
0
44
0
45
-0.0139193969876572
46
0.0139193969876572
79
0
47
0
98
1
10
0
20
0
0
HATCH
5
1FB
100
AcDbEntity
8
2
62
256
6
ByLayer
370
13
48
1
60
0
100
AcDbHatch
10
0
20
0
30
0
210
0
220
0
230
1
2
ANSI31
70
0
71
0
91
1
92
5
93
3
72
1
10
50
20
-53.7954996009155
11
46.5000016925532
21
-54.2562833424682
72
1
10
46.5000016925532
20
-54.2562833424682
11
46.4999983074468
21
-53.3347158593627
72
1
10
46.4999983074468
20
-53.3347158593627
11
50
21
-53.7954996009155
97
0
75
0
76
1
52
0
41
0.0062
77
0
78
1
53
45
43
0
44
0
45
-0.0139193969876572
46
0.0139193969876572
79
0
47
0
98
1
10
0
20
0
0
HATCH
5
1FF
100
AcDbEntity
8
2
62
256
6
ByLayer
370
13
48
1
60
0
100
AcDbHatch
10
0
20
0
30
0
210
0
220
0
230
1
2
ANSI31
70
0
71
0
91
1
92
5
93
3
72
1
10
0
20
-53.7954996009155
11
3.49999830744682
21
-53.3347158593627
72
1
10
3.49999830744682
20
-53.3347158593627
11
3.50000169255318
21
-54.2562833424682
72
1
10
3.50000169255318
20
-54.2562833424682
11
0
21
-53.7954996009155
97
0
75
0
76
1
52
0
41
0.0062
77
0
78
1
53
45
43
0
44
0
45
-0.0139193969876572
46
0.0139193969876572
79
0
47
0
98
1
10
0
20
0
0
ENDSEC
0
SECTION
2
OBJECTS
0
DICTIONARY
5
26e
330
0
100
AcDbDictionary
280
0
281
1
3
ACAD_GROUP
350
26f
3
ACAD_MLINESTYLE
350
270
0
DICTIONARY
5
26f
330
0
100
AcDbDictionary
280
0
281
1
0
DICTIONARY
5
270
330
0
100
AcDbDictionary
280
0
281
1
3
Standard
350
18
0
MLINESTYLE
5
18
330
270
100
AcDbMlineStyle
2
Standard
70
0
3

62
256
51
90
52
90
71
2
49
-0.5
62
256
6
ByLayer
49
0.5
62
256
6
ByLayer
0
RASTERVARIABLES
5
25d
330

100
AcDbRasterVariables
90
0
70
1
71
1
72
1
0
ENDSEC
0
EOF
