0
SECTION
2
HEADER
9
$ACADVER
1
AC1015
9
$DWGCODEPAGE
3
ANSI_1252
9
$HANDSEED
5
263
9
$ANGBASE
50
0
9
$ANGDIR
70
0
9
$ATTMODE
70
1
9
$AUNITS
70
0
9
$AUPREC
70
0
9
$CECOLOR
62
256
9
$CELTSCALE
40
1
9
$CELTYPE
6
ByLayer
9
$CELWEIGHT
370
18
9
$CLAYER
8
0
9
$CMLJUST
70
0
9
$CMLSCALE
40
1
9
$CMLSTYLE
2
Standard
9
$DIMSTYLE
2
Standard
9
$TEXTSIZE
40
0.2
9
$TEXTSTYLE
7
Standard
9
$LUNITS
70
2
9
$LUPREC
70
4
9
$EXTNAMES
290
1
9
$INSUNITS
70
4
9
$LTSCALE
40
1
9
$LWDISPLAY
290
1
9
$PDMODE
70
0
9
$PDSIZE
40
0
9
$PLINEGEN
70
0
0
ENDSEC
0
SECTION
2
CLASSES
0
CLASS
1
RASTERVARIABLES
2
AcDbRasterVariables
3
ISM
90
0
280
0
281
0
0
ENDSEC
0
SECTION
2
TABLES
0
TABLE
2
VPORT
5
259
100
AcDbSymbolTable
0
VPORT
5
1
100
AcDbSymbolTableRecord
100
AcDbViewportTableRecord
2
*Active
70
0
10
0
20
0
11
1
21
1
12
-1
22
1
13
0
23
0
14
0.5
24
0.5
15
10
25
10
16
0
26
0
36
1
17
0
27
0
37
0
0
ENDTAB
0
TABLE
2
LTYPE
5
25a
100
AcDbSymbolTable
0
LTYPE
5
14
100
AcDbSymbolTableRecord
100
AcDbLinetypeTableRecord
70
0
2
ByBlock
3

72
65
73
0
40
0
0
LTYPE
5
15
100
AcDbSymbolTableRecord
100
AcDbLinetypeTableRecord
70
0
2
ByLayer
3

72
65
73
0
40
0
0
LTYPE
5
16
100
AcDbSymbolTableRecord
100
AcDbLinetypeTableRecord
70
0
2
Continuous
3
Solid line
72
65
73
0
40
0
0
LTYPE
5
6E
100
AcDbSymbolTableRecord
100
AcDbLinetypeTableRecord
70
0
2
CENTER
3
____ _ ____ _ ____ _ ____
72
65
73
4
40
47.5
49
22
74
0
49
-8.5
74
0
49
8.5
74
0
49
-8.5
74
0
0
LTYPE
5
6F
100
AcDbSymbolTableRecord
100
AcDbLinetypeTableRecord
70
0
2
DASHED
3
__ __ __ __ __ __ __ __ __
72
65
73
2
40
25.72
49
12.86
74
0
49
-12.86
74
0
0
ENDTAB
0
TABLE
2
LAYER
5
25b
100
AcDbSymbolTable
0
LAYER
5
10
100
AcDbSymbolTableRecord
100
AcDbLayerTableRecord
2
0
70
0
62
7
6
Continuous
290
1
370
-3
390
0
0
LAYER
5
71
100
AcDbSymbolTableRecord
100
AcDbLayerTableRecord
2
2
70
0
62
7
6
Continuous
290
1
370
-3
390
0
0
LAYER
5
7B
100
AcDbSymbolTableRecord
100
AcDbLayerTableRecord
2
81
70
0
62
-3
6
Continuous
290
1
370
-3
390
0
0
LAYER
5
7D
100
AcDbSymbolTableRecord
100
AcDbLayerTableRecord
2
80
70
0
62
-6
6
Continuous
290
1
370
-3
390
0
0
LAYER
5
7F
100
AcDbSymbolTableRecord
100
AcDbLayerTableRecord
2
1
70
0
62
4
6
Continuous
290
1
370
-3
390
0
0
LAYER
5
87
100
AcDbSymbolTableRecord
100
AcDbLayerTableRecord
2
4
70
0
62
-2
6
CENTER
290
1
370
-3
390
0
0
LAYER
5
246
100
AcDbSymbolTableRecord
100
AcDbLayerTableRecord
2
SK1
70
0
62
4
6
Continuous
290
1
370
-3
390
0
0
LAYER
5
247
100
AcDbSymbolTableRecord
100
AcDbLayerTableRecord
2
SK2
70
0
62
7
6
Continuous
290
1
370
-3
390
0
0
LAYER
5
248
100
AcDbSymbolTableRecord
100
AcDbLayerTableRecord
2
SK6
70
0
62
5
6
Continuous
290
1
370
-3
390
0
0
ENDTAB
0
TABLE
2
STYLE
5
25c
100
AcDbSymbolTable
0
STYLE
5
11
100
AcDbSymbolTableRecord
100
AcDbTextStyleTableRecord
2
Standard
3
txt
70
0
71
0
40
0
41
1
42
0
50
0
0
STYLE
5
1A6
100
AcDbSymbolTableRecord
100
AcDbTextStyleTableRecord
2
iso_b_vert
3
simplex.shx
70
0
71
0
40
0
41
1
42
0
50
0
0
STYLE
5
1A7
100
AcDbSymbolTableRecord
100
AcDbTextStyleTableRecord
2
DWGDirectTextStyle
3
simplex
70
0
71
0
40
0
41
1
42
0
50
0
0
ENDTAB
0
TABLE
2
DIMSTYLE
5
25d
100
AcDbSymbolTable
100
AcDbDimStyleTable
0
DIMSTYLE
105
27
100
AcDbSymbolTableRecord
100
AcDbDimStyleTableRecord
2
Standard
70
0
3
<>
41
0.18
42
0.0625
44
0.18
140
0.18
147
0.09
73
0
74
0
77
1
271
2
275
0
278
52
280
0
340
11
0
ENDTAB
0
TABLE
2
VIEW
5
25e
100
AcDbSymbolTable
0
ENDTAB
0
TABLE
2
UCS
5
25f
100
AcDbSymbolTable
0
ENDTAB
0
TABLE
2
APPID
5
260
100
AcDbSymbolTable
0
APPID
5
12
100
AcDbSymbolTableRecord
100
AcDbRegAppTableRecord
2
ACAD
70
0
0
APPID
5
242
100
AcDbSymbolTableRecord
100
AcDbRegAppTableRecord
2
ACAD_MLEADERVER
70
0
0
ENDTAB
0
TABLE
2
BLOCK_RECORD
5
261
100
AcDbSymbolTable
0
BLOCK_RECORD
5
1F
100
AcDbSymbolTableRecord
100
AcDbBlockTableRecord
2
*Model_Space
340
0
70
0
0
BLOCK_RECORD
5
1B
100
AcDbSymbolTableRecord
100
AcDbBlockTableRecord
2
*Paper_Space
340
0
70
0
0
BLOCK_RECORD
5
23
100
AcDbSymbolTableRecord
100
AcDbBlockTableRecord
2
*Paper_Space0
340
0
70
0
0
ENDTAB
0
ENDSEC
0
SECTION
2
BLOCKS
0
BLOCK
5
20
100
AcDbEntity
8
0
100
AcDbBlockBegin
2
*Model_Space
70
0
10
0
20
0
30
0
3
*Model_Space
0
ENDBLK
5
21
100
AcDbEntity
8
0
100
AcDbBlockEnd
0
BLOCK
5
1C
100
AcDbEntity
8
0
100
AcDbBlockBegin
2
*Paper_Space
70
0
10
0
20
0
30
0
3
*Paper_Space
0
ENDBLK
5
1D
100
AcDbEntity
8
0
100
AcDbBlockEnd
0
BLOCK
5
24
100
AcDbEntity
8
0
100
AcDbBlockBegin
2
*Paper_Space0
70
0
10
0
20
0
30
0
3
*Paper_Space0
0
ENDBLK
5
25
100
AcDbEntity
8
0
100
AcDbBlockEnd
0
ENDSEC
0
SECTION
2
ENTITIES
0
ARC
5
14B
100
AcDbEntity
8
1
62
256
6
ByLayer
370
18
48
1
60
0
100
AcDbCircle
39
0
10
30.15
20
-25.075
30
0
40
1.2
210
0
220
0
230
1
100
AcDbArc
50
90
51
180
0
ARC
5
14C
100
AcDbEntity
8
1
62
256
6
ByLayer
370
18
48
1
60
0
100
AcDbCircle
39
0
10
30.15
20
25.075
30
0
40
1.2
210
0
220
0
230
1
100
AcDbArc
50
180
51
270
0
ARC
5
14D
100
AcDbEntity
8
1
62
256
6
ByLayer
370
18
48
1
60
0
100
AcDbCircle
39
0
10
21.525
20
-46.375
30
0
40
0.39999999999997
210
0
220
0
230
1
100
AcDbArc
50
0
51
90
0
ARC
5
14E
100
AcDbEntity
8
1
62
256
6
ByLayer
370
18
48
1
60
0
100
AcDbCircle
39
0
10
18.475
20
46.375
30
0
40
0.399999999999999
210
0
220
0
230
1
100
AcDbArc
50
180
51
270
0
ARC
5
14F
100
AcDbEntity
8
1
62
256
6
ByLayer
370
18
48
1
60
0
100
AcDbCircle
39
0
10
18.475
20
-46.375
30
0
40
0.399999999999999
210
0
220
0
230
1
100
AcDbArc
50
90
51
180
0
ARC
5
150
100
AcDbEntity
8
1
62
256
6
ByLayer
370
18
48
1
60
0
100
AcDbCircle
39
0
10
21.525
20
46.375
30
0
40
0.39999999999997
210
0
220
0
230
1
100
AcDbArc
50
270
51
0
0
ARC
5
151
100
AcDbEntity
8
SK1
62
256
6
ByLayer
370
18
48
1
60
0
100
AcDbCircle
39
0
10
-47.9
20
-33.605194
30
0
40
2
210
0
220
0
230
1
100
AcDbArc
50
180
51
267.131868
0
ARC
5
152
100
AcDbEntity
8
SK1
62
256
6
ByLayer
370
18
48
1
60
0
100
AcDbCircle
39
0
10
-47.9
20
33.605194
30
0
40
2
210
0
220
0
230
1
100
AcDbArc
50
92.868132
51
180
0
ARC
5
153
100
AcDbEntity
8
SK1
62
256
6
ByLayer
370
18
48
1
60
0
100
AcDbCircle
39
0
10
-0.8
20
38.632252
30
0
40
1
210
0
220
0
230
1
100
AcDbArc
50
270
51
323.130102
0
ARC
5
154
100
AcDbEntity
8
SK1
62
256
6
ByLayer
370
18
48
1
60
0
100
AcDbCircle
39
0
10
-0.8
20
-38.632252
30
0
40
1
210
0
220
0
230
1
100
AcDbArc
50
36.869898
51
90
0
ARC
5
156
100
AcDbEntity
8
SK1
62
256
6
ByLayer
370
18
48
1
60
0
100
AcDbCircle
39
0
10
-36.7
20
8.06375
30
0
40
1.9
210
0
220
0
230
1
100
AcDbArc
50
0
51
90
0
ARC
5
157
100
AcDbEntity
8
SK1
62
256
6
ByLayer
370
18
48
1
60
0
100
AcDbCircle
39
0
10
-36.7
20
-8.06375
30
0
40
1.9
210
0
220
0
230
1
100
AcDbArc
50
270
51
0
0
CIRCLE
5
155
100
AcDbEntity
8
1
62
256
6
ByLayer
370
18
48
1
60
0
100
AcDbCircle
10
20
20
0
30
0
40
1.00000000000001
39
0
210
0
220
0
230
1
0
CIRCLE
5
158
100
AcDbEntity
8
SK1
62
256
6
ByLayer
370
18
48
1
60
0
100
AcDbCircle
10
-15
20
0
30
0
40
5.99999999999999
39
0
210
0
220
0
230
1
0
ELLIPSE
5
159
100
AcDbEntity
8
1
62
256
6
ByLayer
370
18
48
1
60
0
100
AcDbEllipse
10
47.5
20
14.25
30
0
11
-2.1
21
2.57167334302699E-16
31
0
210
0
220
0
230
1
40
0.866025
41
-1.5707963267949
42
0.466870322693541
0
ELLIPSE
5
15A
100
AcDbEntity
8
1
62
256
6
ByLayer
370
18
48
1
60
0
100
AcDbEllipse
10
47.5
20
-14.25
30
0
11
2.1
21
0
31
0
210
0
220
0
230
1
40
0.866025
41
2.65925997959603
42
-1.5707963267949
0
ELLIPSE
5
15B
100
AcDbEntity
8
1
62
256
6
ByLayer
370
18
48
1
60
0
100
AcDbEllipse
10
47.5
20
14.45
30
0
11
-2.5
21
3.06151588455594E-16
31
0
210
0
220
0
230
1
40
0.866025
41
-1.5707963267949
42
0.268262610839661
0
ELLIPSE
5
15C
100
AcDbEntity
8
1
62
256
6
ByLayer
370
18
48
1
60
0
100
AcDbEllipse
10
47.5
20
-14.45
30
0
11
2.5
21
0
31
0
210
0
220
0
230
1
40
0.866025
41
2.86586890799862
42
-1.5707963267949
0
ELLIPSE
5
15D
100
AcDbEntity
8
SK1
62
256
6
ByLayer
370
13
48
1
60
0
100
AcDbEllipse
10
-36.7
20
17.921806
30
0
11
-1.9
21
2.32675207226252E-16
31
0
210
0
220
0
230
1
40
0.45399
41
1.5707963267949
42
2.057660152551
0
ELLIPSE
5
15E
100
AcDbEntity
8
SK1
62
256
6
ByLayer
370
13
48
1
60
0
100
AcDbEllipse
10
-36.7
20
-17.921806
30
0
11
1.9
21
0
31
0
210
0
220
0
230
1
40
0.45399
41
1.08393250103923
42
1.5707963267949
0
POINT
5
70
100
AcDbEntity
8
2
62
256
6
ByLayer
370
18
48
1
60
0
100
AcDbPoint
10
48
20
0
30
0
39
0
210
0
220
0
230
1
50
360
0
POINT
5
72
100
AcDbEntity
8
2
62
256
6
ByLayer
370
18
48
1
60
0
100
AcDbPoint
10
48
20
18
30
0
39
0
210
0
220
0
230
1
50
360
0
POINT
5
73
100
AcDbEntity
8
2
62
256
6
ByLayer
370
18
48
1
60
0
100
AcDbPoint
10
48
20
0
30
0
39
0
210
0
220
0
230
1
50
360
0
POINT
5
74
100
AcDbEntity
8
2
62
256
6
ByLayer
370
18
48
1
60
0
100
AcDbPoint
10
48
20
0
30
0
39
0
210
0
220
0
230
1
50
360
0
POINT
5
75
100
AcDbEntity
8
2
62
256
6
ByLayer
370
18
48
1
60
0
100
AcDbPoint
10
0
20
0
30
0
39
0
210
0
220
0
230
1
50
360
0
POINT
5
76
100
AcDbEntity
8
2
62
256
6
ByLayer
370
18
48
1
60
0
100
AcDbPoint
10
48
20
18
30
0
39
0
210
0
220
0
230
1
50
360
0
POINT
5
77
100
AcDbEntity
8
2
62
256
6
ByLayer
370
18
48
1
60
0
100
AcDbPoint
10
48
20
0
30
0
39
0
210
0
220
0
230
1
50
360
0
POINT
5
78
100
AcDbEntity
8
2
62
256
6
ByLayer
370
18
48
1
60
0
100
AcDbPoint
10
48
20
18
30
0
39
0
210
0
220
0
230
1
50
360
0
POINT
5
79
100
AcDbEntity
8
2
62
256
6
ByLayer
370
18
48
1
60
0
100
AcDbPoint
10
31
20
0
30
0
39
0
210
0
220
0
230
1
50
360
0
POINT
5
7A
100
AcDbEntity
8
81
62
256
6
ByLayer
370
18
48
1
60
0
100
AcDbPoint
10
48
20
0
30
0
39
0
210
0
220
0
230
1
50
360
0
POINT
5
7C
100
AcDbEntity
8
80
62
256
6
ByLayer
370
18
48
1
60
0
100
AcDbPoint
10
0
20
0
30
0
39
0
210
0
220
0
230
1
50
360
0
POINT
5
7E
100
AcDbEntity
8
1
62
256
6
ByLayer
370
13
48
1
60
1
100
AcDbPoint
10
20
20
47.422472
30
0
39
0
210
0
220
0
230
1
50
360
0
POINT
5
80
100
AcDbEntity
8
1
62
256
6
ByLayer
370
13
48
1
60
1
100
AcDbPoint
10
20
20
41.200875
30
0
39
0
210
0
220
0
230
1
50
360
0
POINT
5
81
100
AcDbEntity
8
1
62
256
6
ByLayer
370
13
48
1
60
1
100
AcDbPoint
10
-49.75
20
0
30
0
39
0
210
0
220
0
230
1
50
360
0
POINT
5
82
100
AcDbEntity
8
1
62
256
6
ByLayer
370
13
48
1
60
1
100
AcDbPoint
10
42.890673
20
0
30
0
39
0
210
0
220
0
230
1
50
360
0
POINT
5
83
100
AcDbEntity
8
1
62
256
6
ByLayer
370
13
48
1
60
1
100
AcDbPoint
10
59.5
20
0
30
0
39
0
210
0
220
0
230
1
50
360
0
POINT
5
84
100
AcDbEntity
8
1
62
256
6
ByLayer
370
13
48
1
60
1
100
AcDbPoint
10
39.5
20
0
30
0
39
0
210
0
220
0
230
1
50
360
0
SPLINE
5
15F
100
AcDbEntity
8
1
62
256
6
ByLayer
370
18
48
1
60
0
100
AcDbSpline
70
4
71
3
72
52
73
48
40
0
40
0
40
0
40
0
40
0.062500000000002
40
0.062500000000002
40
0.125000000000004
40
0.125000000000004
40
0.156250000000005
40
0.156250000000005
40
0.171875000000006
40
0.171875000000006
40
0.187500000000007
40
0.187500000000007
40
0.250000000000014
40
0.31250000000002
40
0.31250000000002
40
0.328125000000021
40
0.328125000000021
40
0.343750000000021
40
0.375000000000022
40
0.375000000000022
40
0.43750000000002
40
0.43750000000002
40
0.46875000000002
40
0.46875000000002
40
0.484375000000019
40
0.484375000000019
40
0.500000000000018
40
0.500000000000018
40
0.562500000000016
40
0.625000000000015
40
0.625000000000015
40
0.656250000000013
40
0.656250000000013
40
0.68750000000001
40
0.68750000000001
40
0.750000000000009
40
0.750000000000009
40
0.781250000000008
40
0.781250000000008
40
0.812500000000007
40
0.812500000000007
40
0.875000000000004
40
0.937500000000002
40
0.937500000000002
40
0.968750000000001
40
0.968750000000001
40
1
40
1
40
1
40
1
41
1
10
18.475
20
45.4177057068927
30
0
41
1
10
18.5131930808128
20
45.4282401035344
30
0
41
1
10
18.5554606478647
20
45.4381136869634
30
0
41
1
10
18.6478179474983
20
45.4566607629005
30
0
41
1
10
18.6979086926173
20
45.4653338936089
30
0
41
1
10
18.7789823714228
20
45.4774884886754
30
0
41
1
10
18.8069996678942
20
45.4813970665735
30
0
41
1
10
18.8505536464378
20
45.4870471981333
30
0
41
1
10
18.8653029438398
20
45.4888917756283
30
0
41
1
10
18.8950955856762
20
45.4924846390732
30
0
41
1
10
18.9101625115515
20
45.4942360168509
30
0
41
1
10
18.9863395554145
20
45.5027733570546
30
0
41
1
10
19.1135926887495
20
45.5150344539884
30
0
41
1
10
19.2514036903975
20
45.5246838080132
30
0
41
1
10
19.3409544661046
20
45.5299076460752
30
0
41
1
10
19.3590520089523
20
45.5309125077375
30
0
41
1
10
19.3953229586329
20
45.5328269057902
30
0
41
1
10
19.4499381667588
20
45.535561256528
30
0
41
1
10
19.5051707053838
20
45.5378933746879
30
0
41
1
10
19.6164454423366
20
45.5420380112818
30
0
41
1
10
19.6917046822207
20
45.5441110444607
30
0
41
1
10
19.8062181220335
20
45.5462007902096
30
0
41
1
10
19.8446608919079
20
45.546726719729
30
0
41
1
10
19.9027419621887
20
45.5472551242484
30
0
41
1
10
19.9222082263656
20
45.547387892317
30
0
41
1
10
19.9610432866323
20
45.5475643683662
30
0
41
1
10
19.9804206757315
20
45.5476083511067
30
0
41
1
10
20.077109708401
20
45.5476101677026
30
0
41
1
10
20.2305507204106
20
45.5462245146832
30
0
41
1
10
20.3815254793057
20
45.5421044575915
30
0
41
1
10
20.493803921715
20
45.5379360085788
30
0
41
1
10
20.531126742299
20
45.5363618734393
30
0
41
1
10
20.6043513378543
20
45.5328919449171
30
0
41
1
10
20.6403890093397
20
45.530991817569
30
0
41
1
10
20.7468111863411
20
45.5247960222789
30
0
41
1
10
20.8155120434473
20
45.5200074806351
30
0
41
1
10
20.9151902047722
20
45.5117918402699
30
0
41
1
10
20.9478522755725
20
45.5088805298285
30
0
41
1
10
21.0120256139634
20
45.5026966909818
30
0
41
1
10
21.0436243918519
20
45.4994130173258
30
0
41
1
10
21.1353630867129
20
45.4891382328376
30
0
41
1
10
21.2502848660041
20
45.4742528671883
30
0
41
1
10
21.3508223253872
20
45.4569143091999
30
0
41
1
10
21.4206978904473
20
45.4429109582395
30
0
41
1
10
21.4431137195572
20
45.4380639570225
30
0
41
1
10
21.4857057869268
20
45.4280961070812
30
0
41
1
10
21.5059034870284
20
45.4229728976465
30
0
41
1
10
21.525
20
45.4177057068927
30
0
0
SPLINE
5
160
100
AcDbEntity
8
1
62
256
6
ByLayer
370
18
48
1
60
0
100
AcDbSpline
70
4
71
3
72
52
73
48
40
0
40
0
40
0
40
0
40
0.0625000000000169
40
0.0625000000000169
40
0.125000000000034
40
0.125000000000034
40
0.156250000000042
40
0.156250000000042
40
0.171875000000047
40
0.171875000000047
40
0.187500000000051
40
0.187500000000051
40
0.250000000000062
40
0.312500000000074
40
0.312500000000074
40
0.328125000000076
40
0.328125000000076
40
0.343750000000077
40
0.375000000000081
40
0.375000000000081
40
0.437500000000084
40
0.437500000000084
40
0.468750000000087
40
0.468750000000087
40
0.484375000000087
40
0.484375000000087
40
0.500000000000088
40
0.500000000000088
40
0.56250000000008
40
0.625000000000072
40
0.625000000000072
40
0.656250000000067
40
0.656250000000067
40
0.687500000000061
40
0.687500000000061
40
0.750000000000049
40
0.750000000000049
40
0.781250000000042
40
0.781250000000042
40
0.812500000000036
40
0.812500000000036
40
0.875000000000024
40
0.937500000000012
40
0.937500000000012
40
0.968750000000006
40
0.968750000000006
40
1
40
1
40
1
40
1
41
1
10
21.525
20
45.1195815714781
30
0
41
1
10
21.4868069191872
20
45.1065514886976
30
0
41
1
10
21.4445393521353
20
45.0940088833776
30
0
41
1
10
21.3521820525017
20
45.0699274918839
30
0
41
1
10
21.3020913073827
20
45.058388630909
30
0
41
1
10
21.2210176285772
20
45.0418976939086
30
0
41
1
10
21.1930003321058
20
45.0365373889623
30
0
41
1
10
21.1494463535621
20
45.0287145425449
30
0
41
1
10
21.1346970561602
20
45.0261477798033
30
0
41
1
10
21.1049044143238
20
45.0211250502974
30
0
41
1
10
21.0898374884485
20
45.0186648082821
30
0
41
1
10
21.0136604445855
20
45.0066189187686
30
0
41
1
10
20.8864073112504
20
44.9889738319142
30
0
41
1
10
20.7485963096024
20
44.9746669075076
30
0
41
1
10
20.6590455338954
20
44.9668443642354
30
0
41
1
10
20.6409479910477
20
44.9653350596848
30
0
41
1
10
20.6046770413671
20
44.962452270241
30
0
41
1
10
20.5500618332412
20
44.9583231937532
30
0
41
1
10
20.4948292946162
20
44.9547745416958
30
0
41
1
10
20.3835545576634
20
44.9484463392982
30
0
41
1
10
20.3082953177793
20
44.9452502276732
30
0
41
1
10
20.1937818779665
20
44.9420217394222
30
0
41
1
10
20.1553391080921
20
44.9412072085839
30
0
41
1
10
20.0972580378113
20
44.9403884186257
30
0
41
1
10
20.0777917736344
20
44.9401825584009
30
0
41
1
10
20.0389567133677
20
44.9399088928258
30
0
41
1
10
20.0195793242685
20
44.9398406619296
30
0
41
1
10
19.922890291599
20
44.9398378441799
30
0
41
1
10
19.7694493182328
20
44.941991309267
30
0
41
1
10
19.6184745206943
20
44.9483444791322
30
0
41
1
10
19.5061960782849
20
44.9547096445997
30
0
41
1
10
19.468873257701
20
44.9571050212856
30
0
41
1
10
19.3956486621457
20
44.9623571116746
30
0
41
1
10
19.3596109906603
20
44.965220479296
30
0
41
1
10
19.2531888136589
20
44.9744995933726
30
0
41
1
10
19.1844879565527
20
44.98160184958
30
0
41
1
10
19.0848097952278
20
44.9935857902299
30
0
41
1
10
19.0521477244275
20
44.9978028298077
30
0
41
1
10
18.9879743860366
20
45.0066821072472
30
0
41
1
10
18.9563756081481
20
45.0113598577862
30
0
41
1
10
18.8646369132871
20
45.02585836291
30
0
41
1
10
18.7497151339958
20
45.0465128233415
30
0
41
1
10
18.6491776746128
20
45.069594390286
30
0
41
1
10
18.5793021095527
20
45.0877820305388
30
0
41
1
10
18.5568862804428
20
45.0940063501909
30
0
41
1
10
18.5142942130732
20
45.1066468703864
30
0
41
1
10
18.4940965129716
20
45.1130665394476
30
0
41
1
10
18.475
20
45.1195815714781
30
0
0
SPLINE
5
161
100
AcDbEntity
8
1
62
256
6
ByLayer
370
18
48
1
60
0
100
AcDbSpline
70
4
71
3
72
30
73
26
40
0
40
0
40
0
40
0
40
0.12499999999998
40
0.12499999999998
40
0.18749999999997
40
0.18749999999997
40
0.24999999999996
40
0.31249999999995
40
0.31249999999995
40
0.37499999999994
40
0.37499999999994
40
0.499999999999933
40
0.499999999999933
40
0.562499999999935
40
0.562499999999935
40
0.624999999999937
40
0.624999999999937
40
0.749999999999978
40
0.749999999999978
40
0.812499999999984
40
0.812499999999984
40
0.874999999999989
40
0.937499999999995
40
0.937499999999995
40
1
40
1
40
1
40
1
41
1
10
21.5249999999981
20
-11.021
30
0
41
1
10
21.5514658257386
20
-11.021
30
0
41
1
10
21.5778123376984
20
-11.021
30
0
41
1
10
21.617147298598
20
-11.021
30
0
41
1
10
21.6300776915159
20
-11.021
30
0
41
1
10
21.6553616377659
20
-11.021
30
0
41
1
10
21.680143340414
20
-11.021
30
0
41
1
10
21.7039336034373
20
-11.021
30
0
41
1
10
21.7272199704532
20
-11.021
30
0
41
1
10
21.7386238958464
20
-11.021
30
0
41
1
10
21.7713302338265
20
-11.021
30
0
41
1
10
21.7914054108743
20
-11.021
30
0
41
1
10
21.8189753761471
20
-11.021
30
0
41
1
10
21.8277813540115
20
-11.021
30
0
41
1
10
21.844270095332
20
-11.021
30
0
41
1
10
21.8519480792139
20
-11.021
30
0
41
1
10
21.8733390297163
20
-11.021
30
0
41
1
10
21.8854242332151
20
-11.021
30
0
41
1
10
21.9002268661624
20
-11.021
30
0
41
1
10
21.9045542912651
20
-11.021
30
0
41
1
10
21.9119490720264
20
-11.021
30
0
41
1
10
21.9181144875677
20
-11.021
30
0
41
1
10
21.9218542195072
20
-11.021
30
0
41
1
10
21.9243633939712
20
-11.021
30
0
41
1
10
21.9250110011
20
-11.021
30
0
41
1
10
21.924995249525
20
-11.021
30
0
0
SPLINE
5
162
100
AcDbEntity
8
1
62
256
6
ByLayer
370
18
48
1
60
0
100
AcDbSpline
70
4
71
3
72
30
73
26
40
0
40
0
40
0
40
0
40
0.124999999999956
40
0.124999999999956
40
0.187499999999946
40
0.187499999999946
40
0.249999999999935
40
0.312499999999925
40
0.312499999999925
40
0.374999999999914
40
0.374999999999914
40
0.499999999999898
40
0.499999999999898
40
0.562499999999902
40
0.562499999999902
40
0.624999999999906
40
0.624999999999906
40
0.749999999999941
40
0.749999999999941
40
0.812499999999956
40
0.812499999999956
40
0.874999999999971
40
0.937499999999985
40
0.937499999999985
40
1
40
1
40
1
40
1
41
1
10
18.475
20
11.021
30
0
41
1
10
18.4485341742595
20
11.021
30
0
41
1
10
18.4221876622999
20
11.021
30
0
41
1
10
18.3828527014004
20
11.021
30
0
41
1
10
18.3699223084826
20
11.021
30
0
41
1
10
18.3446383622326
20
11.021
30
0
41
1
10
18.3198566554283
20
11.021
30
0
41
1
10
18.2960663965615
20
11.021
30
0
41
1
10
18.2727800295457
20
11.021
30
0
41
1
10
18.2613761041526
20
11.021
30
0
41
1
10
18.2286697661727
20
11.021
30
0
41
1
10
18.208594589125
20
11.021
30
0
41
1
10
18.1810246238523
20
11.021
30
0
41
1
10
18.1722186459879
20
11.021
30
0
41
1
10
18.1557299046675
20
11.021
30
0
41
1
10
18.1480519207856
20
11.021
30
0
41
1
10
18.1266609702834
20
11.021
30
0
41
1
10
18.1145757667846
20
11.021
30
0
41
1
10
18.0997731338374
20
11.021
30
0
41
1
10
18.0954457087347
20
11.021
30
0
41
1
10
18.0880509279735
20
11.021
30
0
41
1
10
18.0818855098977
20
11.021
30
0
41
1
10
18.0781457804928
20
11.021
30
0
41
1
10
18.0756366060288
20
11.021
30
0
41
1
10
18.0749889989
20
11.0210000000001
30
0
41
1
10
18.075004750475
20
11.0209999999999
30
0
0
SPLINE
5
163
100
AcDbEntity
8
1
62
256
6
ByLayer
370
18
48
1
60
0
100
AcDbSpline
70
4
71
3
72
32
73
28
40
0
40
0
40
0
40
0
40
0.125000000000002
40
0.125000000000002
40
0.250000000000005
40
0.250000000000005
40
0.281250000000005
40
0.281250000000005
40
0.312500000000005
40
0.312500000000005
40
0.375000000000009
40
0.375000000000009
40
0.500000000000014
40
0.500000000000014
40
0.562500000000019
40
0.562500000000019
40
0.593750000000019
40
0.593750000000019
40
0.625000000000017
40
0.625000000000017
40
0.75000000000001
40
0.75000000000001
40
0.875000000000003
40
0.875000000000003
40
0.937500000000002
40
0.937500000000002
40
1
40
1
40
1
40
1
41
1
10
18.475
20
45.1195815714781
30
0
41
1
10
18.4377864466611
20
45.1322774752973
30
0
41
1
10
18.4054492427887
20
45.1500575939043
30
0
41
1
10
18.3497108149511
20
45.189719781936
30
0
41
1
10
18.3263174295068
20
45.2116806655758
30
0
41
1
10
18.3026347247877
20
45.2389668848321
30
0
41
1
10
18.2981777768653
20
45.2444170977807
30
0
41
1
10
18.2898288157941
20
45.2552364221601
30
0
41
1
10
18.2859353635673
20
45.2606089114671
30
0
41
1
10
18.2751840579966
20
45.2763970731348
30
0
41
1
10
18.2692244159246
20
45.2865162769309
30
0
41
1
10
18.2549017237893
20
45.3150139016755
30
0
41
1
10
18.250079691989
20
45.3314415856493
30
0
41
1
10
18.2499616171529
20
45.350944389701
30
0
41
1
10
18.251111974268
20
45.3566103770954
30
0
41
1
10
18.2546595041354
20
45.3639119298484
30
0
41
1
10
18.2561459141042
20
45.3661478085099
30
0
41
1
10
18.2597356429362
20
45.3702512724834
30
0
41
1
10
18.261839368491
20
45.3721167479223
30
0
41
1
10
18.2738091220134
20
45.3805615004972
30
0
41
1
10
18.2880551680473
20
45.3845321627458
30
0
41
1
10
18.3256409102619
20
45.3909978487505
30
0
41
1
10
18.3489787734403
20
45.3934875945267
30
0
41
1
10
18.3911622507963
20
45.3996902864256
30
0
41
1
10
18.4063797715671
20
45.4021708108456
30
0
41
1
10
18.4390017274134
20
45.4086176655123
30
0
41
1
10
18.4564279174875
20
45.4125831642876
30
0
41
1
10
18.4749999999984
20
45.4177057068912
30
0
0
SPLINE
5
164
100
AcDbEntity
8
1
62
256
6
ByLayer
370
18
48
1
60
0
100
AcDbSpline
70
4
71
3
72
31
73
27
40
0
40
0
40
0
40
0
40
0.0598617441356292
40
0.0598617441356292
40
0.122537627859958
40
0.122537627859958
40
0.247889395308579
40
0.247889395308579
40
0.310565279032874
40
0.310565279032874
40
0.37324116275717
40
0.37324116275717
40
0.498592930205761
40
0.498592930205761
40
0.561268813930038
40
0.561268813930038
40
0.623944697654316
40
0.686620581378594
40
0.686620581378594
40
0.749296465102872
40
0.749296465102872
40
0.874648232551428
40
0.874648232551428
40
0.937324116275714
40
0.937324116275714
40
1
40
1
40
1
40
1
41
1
10
18.0750000000019
20
-11.0209999999999
30
0
41
1
10
18.0750613850971
20
-11.021
30
0
41
1
10
18.075674827987
20
-11.021
30
0
41
1
10
18.0781273604823
20
-11.021
30
0
41
1
10
18.0800214434276
20
-11.021
30
0
41
1
10
18.0874930358664
20
-11.021
30
0
41
1
10
18.0948638931352
20
-11.021
30
0
41
1
10
18.1095281633044
20
-11.021
30
0
41
1
10
18.1150473219139
20
-11.021
30
0
41
1
10
18.1272345767072
20
-11.021
30
0
41
1
10
18.133854303181
20
-11.021
30
0
41
1
10
18.1552543785186
20
-11.021
30
0
41
1
10
18.17156072295
20
-11.021
30
0
41
1
10
18.1991984075213
20
-11.021
30
0
41
1
10
18.2089726767831
20
-11.021
30
0
41
1
10
18.229164307973
20
-11.021
30
0
41
1
10
18.2500967411405
20
-11.021
30
0
41
1
10
18.2724948657073
20
-11.021
30
0
41
1
10
18.29563937979
20
-11.021
30
0
41
1
10
18.3076255402956
20
-11.021
30
0
41
1
10
18.3444895086936
20
-11.021
30
0
41
1
10
18.3697382808188
20
-11.021
30
0
41
1
10
18.4085946056628
20
-11.021
30
0
41
1
10
18.4217117815291
20
-11.021
30
0
41
1
10
18.4482868577836
20
-11.021
30
0
41
1
10
18.4617141931376
20
-11.021
30
0
41
1
10
18.475
20
-11.021
30
0
0
SPLINE
5
165
100
AcDbEntity
8
1
62
256
6
ByLayer
370
18
48
1
60
0
100
AcDbSpline
70
4
71
3
72
31
73
27
40
0
40
0
40
0
40
0
40
0.0598617443087767
40
0.0598617443087767
40
0.122537628021499
40
0.122537628021499
40
0.247889395446947
40
0.247889395446947
40
0.310565279159686
40
0.310565279159686
40
0.373241162872425
40
0.373241162872425
40
0.49859293029793
40
0.49859293029793
40
0.56126881401069
40
0.56126881401069
40
0.623944697723449
40
0.686620581436208
40
0.686620581436208
40
0.749296465148967
40
0.749296465148967
40
0.874648232574487
40
0.874648232574487
40
0.937324116287243
40
0.937324116287243
40
1
40
1
40
1
40
1
41
1
10
21.9249999999987
20
11.021
30
0
41
1
10
21.9249386149067
20
11.021
30
0
41
1
10
21.9243251720167
20
11.021
30
0
41
1
10
21.9218726395178
20
11.021
30
0
41
1
10
21.9199785565725
20
11.021
30
0
41
1
10
21.9125069641338
20
11.021
30
0
41
1
10
21.905136106865
20
11.021
30
0
41
1
10
21.8904718366959
20
11.021
30
0
41
1
10
21.8849526780864
20
11.021
30
0
41
1
10
21.8727654232931
20
11.021
30
0
41
1
10
21.8661456968194
20
11.021
30
0
41
1
10
21.8447456214817
20
11.021
30
0
41
1
10
21.8284392770504
20
11.021
30
0
41
1
10
21.8008015924791
20
11.021
30
0
41
1
10
21.7910273232173
20
11.021
30
0
41
1
10
21.7708356920273
20
11.021
30
0
41
1
10
21.7499032588598
20
11.021
30
0
41
1
10
21.727505134293
20
11.021
30
0
41
1
10
21.7043606202103
20
11.021
30
0
41
1
10
21.6923744597047
20
11.021
30
0
41
1
10
21.6555104913066
20
11.021
30
0
41
1
10
21.6302617191814
20
11.021
30
0
41
1
10
21.5914053943374
20
11.021
30
0
41
1
10
21.578288218471
20
11.021
30
0
41
1
10
21.5517131422165
20
11.021
30
0
41
1
10
21.5382858068624
20
11.021
30
0
41
1
10
21.525
20
11.021
30
0
0
SPLINE
5
166
100
AcDbEntity
8
1
62
256
6
ByLayer
370
18
48
1
60
0
100
AcDbSpline
70
4
71
3
72
32
73
28
40
0
40
0
40
0
40
0
40
0.125
40
0.125
40
0.25
40
0.25
40
0.281249999999999
40
0.281249999999999
40
0.312499999999998
40
0.312499999999998
40
0.374999999999999
40
0.374999999999999
40
0.5
40
0.5
40
0.562499999999998
40
0.562499999999998
40
0.59375
40
0.59375
40
0.625000000000001
40
0.625000000000001
40
0.750000000000002
40
0.750000000000002
40
0.875000000000003
40
0.875000000000003
40
0.937500000000002
40
0.937500000000002
40
1
40
1
40
1
40
1
41
1
10
21.525
20
45.4177057068927
30
0
41
1
10
21.5622135533389
20
45.407441483034
30
0
41
1
10
21.5945507572113
20
45.4018022521571
30
0
41
1
10
21.6502891850489
20
45.3935842298266
30
0
41
1
10
21.6736825704932
20
45.3910862233466
30
0
41
1
10
21.6973652752123
20
45.3870467324895
30
0
41
1
10
21.7018222231347
20
45.386194024833
30
0
41
1
10
21.7101711842059
20
45.3843286087977
30
0
41
1
10
21.7140646364327
20
45.3833146819362
30
0
41
1
10
21.7248159420034
20
45.3799545391366
30
0
41
1
10
21.7307755840754
20
45.3772808340348
30
0
41
1
10
21.7450982762107
20
45.3673113440866
30
0
41
1
10
21.749920308011
20
45.3579756530298
30
0
41
1
10
21.7500383828471
20
45.3386399072617
30
0
41
1
10
21.7488880257321
20
45.3313276433923
30
0
41
1
10
21.7453404958646
20
45.3191136630104
30
0
41
1
10
21.7438540858958
20
45.3148363523193
30
0
41
1
10
21.7402643570638
20
45.3058975686558
30
0
41
1
10
21.738160631509
20
45.3012381872404
30
0
41
1
10
21.7261908779866
20
45.2772881975344
30
0
41
1
10
21.7119448319527
20
45.255858682452
30
0
41
1
10
21.6743590897382
20
45.2123688518471
30
0
41
1
10
21.6510212265597
20
45.1903033128275
30
0
41
1
10
21.6088377492037
20
45.1601933693725
30
0
41
1
10
21.5936202284329
20
45.1507002947949
30
0
41
1
10
21.5609982725867
20
45.1335724616283
30
0
41
1
10
21.5435720825125
20
45.1259176870075
30
0
41
1
10
21.5250000000016
20
45.1195815714763
30
0
0
SPLINE
5
167
100
AcDbEntity
8
1
62
256
6
ByLayer
370
18
48
1
60
0
100
AcDbSpline
70
4
71
3
72
8
73
4
40
0
40
0
40
0
40
0
40
1
40
1
40
1
40
1
41
1
10
18.075
20
11.021
30
0
41
1
10
17.636488468587
20
11.021
30
0
41
1
10
17.1975280498136
20
11.021
30
0
41
1
10
16.7581782385003
20
11.021
30
0
0
SPLINE
5
168
100
AcDbEntity
8
1
62
256
6
ByLayer
370
18
48
1
60
0
100
AcDbSpline
70
4
71
3
72
8
73
4
40
0
40
0
40
0
40
0
40
1
40
1
40
1
40
1
41
1
10
28.95
20
11.021
30
0
41
1
10
28.7167108769179
20
11.021
30
0
41
1
10
28.4833769086861
20
11.021
30
0
41
1
10
28.25
20
11.021
30
0
0
SPLINE
5
169
100
AcDbEntity
8
1
62
256
6
ByLayer
370
18
48
1
60
0
100
AcDbSpline
70
4
71
3
72
8
73
4
40
0
40
0
40
0
40
0
40
1
40
1
40
1
40
1
41
1
10
23.2418217614998
20
11.021
30
0
41
1
10
22.8024719501864
20
11.021
30
0
41
1
10
22.363511531413
20
11.021
30
0
41
1
10
21.925
20
11.021
30
0
0
SPLINE
5
16A
100
AcDbEntity
8
1
62
256
6
ByLayer
370
18
48
1
60
0
100
AcDbSpline
70
4
71
3
72
8
73
4
40
0
40
0
40
0
40
0
40
1
40
1
40
1
40
1
41
1
10
28.25
20
-11.021
30
0
41
1
10
28.4833769086861
20
-11.021
30
0
41
1
10
28.7167108769179
20
-11.021
30
0
41
1
10
28.95
20
-11.021
30
0
0
SPLINE
5
16B
100
AcDbEntity
8
1
62
256
6
ByLayer
370
18
48
1
60
0
100
AcDbSpline
70
4
71
3
72
8
73
4
40
0
40
0
40
0
40
0
40
1
40
1
40
1
40
1
41
1
10
16.7581782385003
20
-11.021
30
0
41
1
10
17.1975280498136
20
-11.021
30
0
41
1
10
17.636488468587
20
-11.021
30
0
41
1
10
18.075
20
-11.021
30
0
0
SPLINE
5
16C
100
AcDbEntity
8
1
62
256
6
ByLayer
370
18
48
1
60
0
100
AcDbSpline
70
4
71
3
72
8
73
4
40
0
40
0
40
0
40
0
40
1
40
1
40
1
40
1
41
1
10
21.925
20
-11.021
30
0
41
1
10
22.363511531413
20
-11.021
30
0
41
1
10
22.8024719501864
20
-11.021
30
0
41
1
10
23.2418217614998
20
-11.021
30
0
0
SPLINE
5
16D
100
AcDbEntity
8
1
62
256
6
ByLayer
370
18
48
1
60
0
100
AcDbSpline
70
4
71
3
72
94
73
90
40
0
40
0
40
0
40
0
40
0.0311179546925681
40
0.0311179546925681
40
0.0623722142186144
40
0.0623722142186144
40
0.0701857791001258
40
0.0701857791001258
40
0.0779993439816374
40
0.0779993439816374
40
0.0936264737446605
40
0.0936264737446605
40
0.124880733270707
40
0.156134992796753
40
0.156134992796753
40
0.171762122559776
40
0.171762122559776
40
0.179575687441287
40
0.179575687441287
40
0.187389252322799
40
0.187389252322799
40
0.218643511848845
40
0.249897771374891
40
0.249897771374891
40
0.281152030900938
40
0.281152030900938
40
0.288965595782449
40
0.288965595782449
40
0.29677916066396
40
0.312406290426983
40
0.312406290426983
40
0.343660549953029
40
0.374914809479074
40
0.374914809479074
40
0.390541939242097
40
0.390541939242097
40
0.398355504123608
40
0.398355504123608
40
0.40616906900512
40
0.40616906900512
40
0.437423328531165
40
0.468677588057211
40
0.468677588057211
40
0.499931847583257
40
0.499931847583257
40
0.507745412464768
40
0.507745412464768
40
0.51555897734628
40
0.531186107109302
40
0.531186107109302
40
0.562440366635348
40
0.593694626161393
40
0.593694626161393
40
0.601508191042904
40
0.601508191042904
40
0.609321755924416
40
0.609321755924416
40
0.624948885687439
40
0.624948885687439
40
0.656203145213485
40
0.687457404739532
40
0.687457404739532
40
0.703084534502555
40
0.703084534502555
40
0.710898099384067
40
0.710898099384067
40
0.718711664265578
40
0.718711664265578
40
0.749965923791625
40
0.749965923791625
40
0.781220183317672
40
0.812474442843718
40
0.812474442843718
40
0.82028800772523
40
0.82028800772523
40
0.828101572606742
40
0.828101572606742
40
0.843728702369765
40
0.843728702369765
40
0.874982961895812
40
0.906237221421859
40
0.906237221421859
40
0.921864351184882
40
0.921864351184882
40
0.937491480947906
40
0.937491480947906
40
0.968745740473953
40
0.968745740473953
40
1
40
1
40
1
40
1
41
1
10
1.97750000777802
20
-49.9649999991108
30
0
41
1
10
1.97750953964069
20
-49.9649990246962
30
0
41
1
10
1.98545632950612
20
-49.9641983617187
30
0
41
1
10
2.01724722732342
20
-49.9610177309566
30
0
41
1
10
2.04115992233255
20
-49.9586308152791
30
0
41
1
10
2.08129162068926
20
-49.9546729253147
30
0
41
1
10
2.08983119845442
20
-49.9538326371641
30
0
41
1
10
2.10794835031368
20
-49.9520550811008
30
0
41
1
10
2.11751930921079
20
-49.9511184727661
30
0
41
1
10
2.14762771793312
20
-49.9481815129571
30
0
41
1
10
2.16960599648607
20
-49.9460495083297
30
0
41
1
10
2.24115197110834
20
-49.9391639832848
30
0
41
1
10
2.35148290558954
20
-49.9286784285348
30
0
41
1
10
2.49122428669722
20
-49.9159177578778
30
0
41
1
10
2.60720742921933
20
-49.9056195475719
30
0
41
1
10
2.64773464843901
20
-49.9020655468381
30
0
41
1
10
2.71137475352148
20
-49.8965688059296
30
0
41
1
10
2.73307730245006
20
-49.8947077439422
30
0
41
1
10
2.77738331378703
20
-49.8909382876813
30
0
41
1
10
2.79992333522819
20
-49.8890352780807
30
0
41
1
10
2.91453715737509
20
-49.8794380930142
30
0
41
1
10
3.11013072197537
20
-49.8635617090824
30
0
41
1
10
3.32950267196341
20
-49.8471159052254
30
0
41
1
10
3.56078910500128
20
-49.8306189507428
30
0
41
1
10
3.68238860919033
20
-49.8223445053227
30
0
41
1
10
3.84207090983477
20
-49.8121191993806
30
0
41
1
10
3.87443814538912
20
-49.8100772567124
30
0
41
1
10
3.93965882426463
20
-49.8060272185271
30
0
41
1
10
4.0382421227211
20
-49.800001164638
30
0
41
1
10
4.13905574540769
20
-49.7941370666848
30
0
41
1
10
4.34361047392363
20
-49.7826631778807
30
0
41
1
10
4.62414385817337
20
-49.7680448554114
30
0
41
1
10
4.92011814828717
20
-49.7551864754428
30
0
41
1
10
5.14800327249657
20
-49.7463551339536
30
0
41
1
10
5.22495080454612
20
-49.7435468038677
30
0
41
1
10
5.34188195419261
20
-49.7395572634288
30
0
41
1
10
5.38113273765828
20
-49.738264025278
30
0
41
1
10
5.45970172354154
20
-49.7357687767631
30
0
41
1
10
5.49907237231864
20
-49.7345649128229
30
0
41
1
10
5.69635211383064
20
-49.7287675075731
30
0
41
1
10
6.01472190291227
20
-49.7209134175242
30
0
41
1
10
6.33841570227307
20
-49.7160616455492
30
0
41
1
10
6.66478767023932
20
-49.7127896930666
30
0
41
1
10
6.8293124755898
20
-49.7119434987089
30
0
41
1
10
7.03670161170086
20
-49.7119235732049
30
0
41
1
10
7.07818500894933
20
-49.7119716121354
30
0
41
1
10
7.16089151267801
20
-49.7121704874302
30
0
41
1
10
7.28468511010232
20
-49.7126229641513
30
0
41
1
10
7.40768922605051
20
-49.7135319810613
30
0
41
1
10
7.65266037829241
20
-49.715943396819
30
0
41
1
10
7.97652734228561
20
-49.7207401959277
30
0
41
1
10
8.29491693416145
20
-49.7285395922947
30
0
41
1
10
8.49216312939765
20
-49.7343011878131
30
0
41
1
10
8.53152480372492
20
-49.7354978473571
30
0
41
1
10
8.61007130962133
20
-49.7379785226753
30
0
41
1
10
8.64929678904488
20
-49.7392639286545
30
0
41
1
10
8.76642134246316
20
-49.7432394720436
30
0
41
1
10
8.8434894394633
20
-49.7460389709654
30
0
41
1
10
9.07171369917643
20
-49.7548453350853
30
0
41
1
10
9.36808143142349
20
-49.7676724885507
30
0
41
1
10
9.64891315195442
20
-49.7822647681041
30
0
41
1
10
9.85366457163323
20
-49.7937192494058
30
0
41
1
10
9.92093458026835
20
-49.7976224434852
30
0
41
1
10
10.0203468060376
20
-49.8035854074952
30
0
41
1
10
10.0532352997926
20
-49.805591086346
30
0
41
1
10
10.1185093158849
20
-49.8096351925776
30
0
41
1
10
10.150930159383
20
-49.8116759372703
30
0
41
1
10
10.3109396075499
20
-49.8219000119434
30
0
41
1
10
10.4327775869071
20
-49.8301748316995
30
0
41
1
10
10.6645110074542
20
-49.8466752790785
30
0
41
1
10
10.8842971383039
20
-49.8631257744873
30
0
41
1
10
11.0802740041645
20
-49.8790133403504
30
0
41
1
10
11.1951240327003
20
-49.8886185464077
30
0
41
1
10
11.2177113632257
20
-49.8905233345677
30
0
41
1
10
11.2621120723669
20
-49.894296555528
30
0
41
1
10
11.2839089846801
20
-49.8961636305444
30
0
41
1
10
11.3477792027177
20
-49.9016743524074
30
0
41
1
10
11.3884530168723
20
-49.9052376494133
30
0
41
1
10
11.5048604965918
20
-49.9155640978341
30
0
41
1
10
11.6451268378791
20
-49.9283616954864
30
0
41
1
10
11.7559492883186
20
-49.9388876004249
30
0
41
1
10
11.8278693088857
20
-49.9458053434909
30
0
41
1
10
11.8499731879294
20
-49.9479484513177
30
0
41
1
10
11.8903740459414
20
-49.9518875807619
30
0
41
1
10
11.9086951317471
20
-49.9536860048986
30
0
41
1
10
11.957414776904
20
-49.9584891218553
30
0
41
1
10
11.9817465763237
20
-49.9609172813825
30
0
41
1
10
12.0142890389608
20
-49.9641726761554
30
0
41
1
10
12.0225079604949
20
-49.9650008020738
30
0
41
1
10
12.0225015547839
20
-49.9650001566577
30
0
0
SPLINE
5
16E
100
AcDbEntity
8
1
62
256
6
ByLayer
370
18
48
1
60
0
100
AcDbSpline
70
4
71
3
72
55
73
51
40
0
40
0
40
0
40
0
40
0.0625000000000003
40
0.0625000000000003
40
0.125000000000001
40
0.125000000000001
40
0.187500000000001
40
0.187500000000001
40
0.203125000000001
40
0.203125000000001
40
0.218750000000001
40
0.218750000000001
40
0.250000000000002
40
0.250000000000002
40
0.312500000000002
40
0.312500000000002
40
0.375000000000003
40
0.375000000000003
40
0.406250000000003
40
0.406250000000003
40
0.421875000000003
40
0.421875000000003
40
0.429687500000003
40
0.429687500000003
40
0.437500000000003
40
0.500000000000004
40
0.500000000000004
40
0.562500000000003
40
0.562500000000003
40
0.625000000000003
40
0.625000000000003
40
0.640625000000003
40
0.640625000000003
40
0.656250000000003
40
0.687500000000003
40
0.687500000000003
40
0.750000000000003
40
0.750000000000003
40
0.812500000000003
40
0.812500000000003
40
0.843750000000003
40
0.843750000000003
40
0.851562500000003
40
0.851562500000003
40
0.859375000000003
40
0.875000000000003
40
0.875000000000003
40
0.937500000000001
40
0.937500000000001
40
1
40
1
40
1
40
1
41
1
10
4.94999999999999
20
-1.02099999999999
30
0
41
1
10
4.94999999999999
20
-1.3523079915542
30
0
41
1
10
4.96642134783585
20
-1.68067409887229
30
0
41
1
10
5.03087929999901
20
-2.33174679457287
30
0
41
1
10
5.07891940867376
20
-2.65445276224668
30
0
41
1
10
5.20635268944537
20
-3.29426572456245
30
0
41
1
10
5.28574480986381
20
-3.61137286765143
30
0
41
1
10
5.40498744242313
20
-4.00419904197594
30
0
41
1
10
5.42983842315942
20
-4.08258599739003
30
0
41
1
10
5.48156509690597
20
-4.23900027259739
30
0
41
1
10
5.50847964164046
20
-4.31713183409292
30
0
41
1
10
5.5918899973689
20
-4.54987293038582
30
0
41
1
10
5.65109467221163
20
-4.70300204372802
30
0
41
1
10
5.83927605334895
20
-5.15643547267669
30
0
41
1
10
5.97879417795303
20
-5.4508001141709
30
0
41
1
10
6.28541740613582
20
-6.02406620255456
30
0
41
1
10
6.4525230892929
20
-6.30296717537195
30
0
41
1
10
6.7240890609533
20
-6.70966961558665
30
0
41
1
10
6.8181020070767
20
-6.84329211848563
30
0
41
1
10
6.96444502625468
20
-7.04076946247642
30
0
41
1
10
7.01411373212787
20
-7.1061022749893
30
0
41
1
10
7.08996329600507
20
-7.20335498416847
30
0
41
1
10
7.11547387776457
20
-7.2356511153352
30
0
41
1
10
7.16680433031482
20
-7.29981781967913
30
0
41
1
10
7.39934135356521
20
-7.58684936765701
30
0
41
1
10
7.64568626465802
20
-7.8585833343617
30
0
41
1
10
8.10489484089737
20
-8.31826526580147
30
0
41
1
10
8.34513155185402
20
-8.53640409494648
30
0
41
1
10
8.84696022030755
20
-8.9493347163918
30
0
41
1
10
9.1085504088683
20
-9.14412818546518
30
0
41
1
10
9.44934766744328
20
-9.37262008050175
30
0
41
1
10
9.51822592407589
20
-9.41758351937679
30
0
41
1
10
9.65727468452178
20
-9.50591857030147
30
0
41
1
10
9.86707016214334
20
-9.63558019202677
30
0
41
1
10
10.0804943122016
20
-9.75682082478644
30
0
41
1
10
10.5121139651924
20
-9.98826112294904
30
0
41
1
10
10.8062109677211
20
-10.127860076892
30
0
41
1
10
11.4070327340522
20
-10.3779904860776
30
0
41
1
10
11.7137572119495
20
-10.488522402293
30
0
41
1
10
12.1835333498157
20
-10.6321120183203
30
0
41
1
10
12.3417431598832
20
-10.6762670868699
30
0
41
1
10
12.5415733527485
20
-10.7267292475236
30
0
41
1
10
12.5816428517718
20
-10.7365849456891
30
0
41
1
10
12.6619901753909
20
-10.7558198473806
30
0
41
1
10
12.7828972503331
20
-10.7839728615934
30
0
41
1
10
12.9040786948306
20
-10.8098209298593
30
0
41
1
10
13.3086235808411
20
-10.8908951560489
30
0
41
1
10
13.6341967826629
20
-10.9395167419546
30
0
41
1
10
14.2891915210968
20
-11.0045687317411
30
0
41
1
10
14.6186129503849
20
-11.021
30
0
41
1
10
14.95
20
-11.021
30
0
0
SPLINE
5
16F
100
AcDbEntity
8
1
62
256
6
ByLayer
370
18
48
1
60
0
100
AcDbSpline
70
4
71
3
72
55
73
51
40
0
40
0
40
0
40
0
40
0.0624999999999992
40
0.0624999999999992
40
0.124999999999998
40
0.124999999999998
40
0.187499999999998
40
0.187499999999998
40
0.203124999999997
40
0.203124999999997
40
0.218749999999997
40
0.218749999999997
40
0.249999999999997
40
0.249999999999997
40
0.312499999999995
40
0.312499999999995
40
0.374999999999994
40
0.374999999999994
40
0.406249999999994
40
0.406249999999994
40
0.421874999999993
40
0.421874999999993
40
0.437499999999993
40
0.437499999999993
40
0.499999999999992
40
0.499999999999992
40
0.562499999999991
40
0.562499999999991
40
0.62499999999999
40
0.62499999999999
40
0.632812499999991
40
0.632812499999991
40
0.640624999999991
40
0.640624999999991
40
0.656249999999991
40
0.687499999999992
40
0.687499999999992
40
0.749999999999993
40
0.749999999999993
40
0.812499999999995
40
0.812499999999995
40
0.843749999999996
40
0.843749999999996
40
0.859374999999996
40
0.859374999999996
40
0.874999999999997
40
0.874999999999997
40
0.937499999999998
40
0.937499999999998
40
1
40
1
40
1
40
1
41
1
10
14.95
20
11.021
30
0
41
1
10
14.6186180770483
20
11.021
30
0
41
1
10
14.2901293667462
20
11.0045711927872
30
0
41
1
10
13.638723291142
20
10.9400562256138
30
0
41
1
10
13.3158065177085
20
10.8919666612244
30
0
41
1
10
12.6754919299054
20
10.7643661638903
30
0
41
1
10
12.358093938917
20
10.6848563818256
30
0
41
1
10
11.9648592282067
20
10.5654062490788
30
0
41
1
10
11.8863883176173
20
10.5405107376267
30
0
41
1
10
11.7298017686215
20
10.4886884493971
30
0
41
1
10
11.6515991381982
20
10.4617283040525
30
0
41
1
10
11.4187515333456
20
10.3782154453684
30
0
41
1
10
11.2655498884332
20
10.3189373489954
30
0
41
1
10
10.811895150555
20
10.1305188971136
30
0
41
1
10
10.517377974707
20
9.99082036436087
30
0
41
1
10
9.94380215106821
20
9.68378237550539
30
0
41
1
10
9.66474394687691
20
9.51644235821485
30
0
41
1
10
9.25780740131535
20
9.24447624315204
30
0
41
1
10
9.1241071697944
20
9.15032179382399
30
0
41
1
10
8.92651453327986
20
9.00375315015796
30
0
41
1
10
8.86114350809254
20
8.95400700659482
30
0
41
1
10
8.73139739917735
20
8.85271470616544
30
0
41
1
10
8.66727138387006
20
8.80136264181385
30
0
41
1
10
8.3504638548728
20
8.54121741057332
30
0
41
1
10
8.10907647024368
20
8.32218372161557
30
0
41
1
10
7.64966054039306
20
7.86282448264086
30
0
41
1
10
7.43163375382827
20
7.62249758266881
30
0
41
1
10
7.01889930623037
20
7.12044613312091
30
0
41
1
10
6.8241899298157
20
6.85872339583085
30
0
41
1
10
6.61863457130426
20
6.55182584493645
30
0
41
1
10
6.59598297197468
20
6.51755262139244
30
0
41
1
10
6.55105770947227
20
6.44865691847392
30
0
41
1
10
6.52877521323913
20
6.41401992754103
30
0
41
1
10
6.46267533310353
20
6.30986409266976
30
0
41
1
10
6.33330054912724
20
6.10032299193614
30
0
41
1
10
6.21230230261042
20
5.88713055580908
30
0
41
1
10
5.98129593649492
20
5.4559405824487
30
0
41
1
10
5.84191861237483
20
5.16208506636173
30
0
41
1
10
5.59213609509965
20
4.56163768660548
30
0
41
1
10
5.48173027698672
20
4.25504620266597
30
0
41
1
10
5.33828630346613
20
3.78537269792633
30
0
41
1
10
5.29417252865377
20
3.62718093132489
30
0
41
1
10
5.23367267386433
20
3.38738523748583
30
0
41
1
10
5.21443098384967
20
3.30693861804855
30
0
41
1
10
5.17800678971312
20
3.14584543715986
30
0
41
1
10
5.16081455682291
20
3.06517189242359
30
0
41
1
10
5.07992001326323
20
2.66117283308185
30
0
41
1
10
5.03138034853976
20
2.33595764841223
30
0
41
1
10
4.96642087804358
20
1.68151292423911
30
0
41
1
10
4.94999999999999
20
1.35228352660408
30
0
41
1
10
4.94999999999999
20
1.02100000000002
30
0
0
SPLINE
5
170
100
AcDbEntity
8
1
62
256
6
ByLayer
370
13
48
1
60
0
100
AcDbSpline
70
4
71
3
72
46
73
42
40
0
40
0
40
0
40
0
40
0.0329359079657781
40
0.0329359079657781
40
0.0658718159315562
40
0.0658718159315562
40
0.131743631863108
40
0.19761544779466
40
0.19761544779466
40
0.230551355760438
40
0.230551355760438
40
0.263487263726217
40
0.263487263726217
40
0.329359079657774
40
0.395230895589332
40
0.461102711520889
40
0.461102711520889
40
0.47757066550378
40
0.47757066550378
40
0.49403861948667
40
0.49403861948667
40
0.52697452745245
40
0.52697452745245
40
0.592846343384007
40
0.658718159315564
40
0.658718159315564
40
0.69165406728134
40
0.69165406728134
40
0.724589975247115
40
0.724589975247115
40
0.790461791178665
40
0.856333607110214
40
0.856333607110214
40
0.922205423041764
40
0.922205423041764
40
0.938673377024652
40
0.938673377024652
40
0.95514133100754
40
0.988077238973316
40
0.988077238973316
40
1
40
1
40
1
40
1
41
1
10
47.5
20
18.174541197026
30
0
41
1
10
47.4488425059472
20
18.174541197026
30
0
41
1
10
47.397715905822
20
18.1735366743511
30
0
41
1
10
47.2955244912419
20
18.169518047195
30
0
41
1
10
47.244688240491
20
18.1665127228656
30
0
41
1
10
47.0930007258548
20
18.1545708282766
30
0
41
1
10
46.8928839501817
20
18.1308586215812
30
0
41
1
10
46.6969472651321
20
18.0918282464726
30
0
41
1
10
46.5515744098775
20
18.0567333863446
30
0
41
1
10
46.503380524305
20
18.0440629473586
30
0
41
1
10
46.4075279425321
20
18.0167421609143
30
0
41
1
10
46.3598304555005
20
18.0020789906986
30
0
41
1
10
46.21780148854
20
17.9551222250044
30
0
41
1
10
46.0337219171346
20
17.885444979152
30
0
41
1
10
45.7729774640925
20
17.760181097585
30
0
41
1
10
45.6093626817141
20
17.6627251874375
30
0
41
1
10
45.5103781469386
20
17.5972877417737
30
0
41
1
10
45.4907453584643
20
17.5839733261887
30
0
41
1
10
45.4518116728523
20
17.5568841159723
30
0
41
1
10
45.4324862553472
20
17.5430908684655
30
0
41
1
10
45.3752828940993
20
17.5012088888253
30
0
41
1
10
45.3381296004014
20
17.4725889663809
30
0
41
1
10
45.2295649468597
20
17.3846530848906
30
0
41
1
10
45.0925188237034
20
17.2618787246396
30
0
41
1
10
44.9706855593538
20
17.1280174419812
30
0
41
1
10
44.8851081550728
20
17.0233315010578
30
0
41
1
10
44.8575503642568
20
16.9877199079185
30
0
41
1
10
44.8044084965306
20
16.9150258204418
30
0
41
1
10
44.7787703571097
20
16.8778517548015
30
0
41
1
10
44.7056255943257
20
16.7652191970721
30
0
41
1
10
44.6177081057349
20
16.6115862280178
30
0
41
1
10
44.5485535440855
20
16.45107236252
30
0
41
1
10
44.4888311532385
20
16.2870449348158
30
0
41
1
10
44.4636851059814
20
16.203274842195
30
0
41
1
10
44.4383569602603
20
16.0962621609444
30
0
41
1
10
44.4335944796086
20
16.0747263668082
30
0
41
1
10
44.4247364241455
20
16.0316641933451
30
0
41
1
10
44.4124288972177
20
15.9670032306802
30
0
41
1
10
44.4030271879727
20
15.9021394993601
30
0
41
1
10
44.3962226196644
20
15.8431207305659
30
0
41
1
10
44.3945804328502
20
15.8274226415173
30
0
41
1
10
44.3931043556898
20
15.8117127616023
30
0
0
SPLINE
5
171
100
AcDbEntity
8
1
62
256
6
ByLayer
370
18
48
1
60
0
100
AcDbSpline
70
4
71
3
72
47
73
43
40
0
40
0
40
0
40
0
40
0.0486948336502647
40
0.108151406547131
40
0.108151406547131
40
0.137879692995566
40
0.137879692995566
40
0.167607979444
40
0.167607979444
40
0.227064552340868
40
0.286521125237737
40
0.286521125237737
40
0.31624941168617
40
0.331113554910387
40
0.331113554910387
40
0.345977698134603
40
0.345977698134603
40
0.405434271031472
40
0.405434271031472
40
0.464890843928341
40
0.524347416825209
40
0.524347416825209
40
0.539211560049424
40
0.539211560049424
40
0.554075703273639
40
0.554075703273639
40
0.583803989722066
40
0.583803989722066
40
0.643260562618916
40
0.702717135515765
40
0.702717135515765
40
0.73244542196419
40
0.747309565188403
40
0.747309565188403
40
0.762173708412615
40
0.762173708412615
40
0.821630281309462
40
0.821630281309462
40
0.881086854206308
40
0.940543427103154
40
0.940543427103154
40
1
40
1
40
1
40
1
41
1
10
44.3931043007396
20
15.8117121767661
30
0
41
1
10
44.3864252666807
20
15.7406270595112
30
0
41
1
10
44.3791447383209
20
15.5822105747643
30
0
41
1
10
44.3885240104903
20
15.4226010166495
30
0
41
1
10
44.4039701059944
20
15.290436189688
30
0
41
1
10
44.4104109841801
20
15.2462643098525
30
0
41
1
10
44.4259058036736
20
15.1578434717047
30
0
41
1
10
44.434899269638
20
15.1139307105193
30
0
41
1
10
44.4655317725771
20
14.9830697773312
30
0
41
1
10
44.5160958698633
20
14.8109230741587
30
0
41
1
10
44.5856456005301
20
14.6434073496814
30
0
41
1
10
44.6449671238616
20
14.5195531341117
30
0
41
1
10
44.6764209127755
20
14.4580726011801
30
0
41
1
10
44.7106018109317
20
14.3972793746452
30
0
41
1
10
44.7340014835892
20
14.3569058853759
30
0
41
1
10
44.7460254121334
20
14.3367681941972
30
0
41
1
10
44.807407212012
20
14.2369340474884
30
0
41
1
10
44.8605742660337
20
14.1597030350263
30
0
41
1
10
44.9747292329085
20
14.0103799400392
30
0
41
1
10
45.0967071000377
20
13.8661970310186
30
0
41
1
10
45.2342022985095
20
13.7323442835594
30
0
41
1
10
45.325089140797
20
13.6520279215953
30
0
41
1
10
45.3435147034564
20
13.6361321276486
30
0
41
1
10
45.380867174105
20
13.6046799805938
30
0
41
1
10
45.399815921484
20
13.5891068547198
30
0
41
1
10
45.4571202159189
20
13.543142936094
30
0
41
1
10
45.4960060654178
20
13.5134425896725
30
0
41
1
10
45.6146696962147
20
13.4271217514905
30
0
41
1
10
45.7782276961502
20
13.3194281015245
30
0
41
1
10
45.9522548233438
20
13.2263705757024
30
0
41
1
10
46.0867360015726
20
13.1621589590668
30
0
41
1
10
46.1549685472607
20
13.1314509242551
30
0
41
1
10
46.2247120099667
20
13.1028796121179
30
0
41
1
10
46.2715471741959
20
13.0843130248626
30
0
41
1
10
46.295156101081
20
13.0752629530607
30
0
41
1
10
46.4133599729924
20
13.0314823577997
30
0
41
1
10
46.5089231483451
20
13.0009460347642
30
0
41
1
10
46.7019692772282
20
12.9485292216529
30
0
41
1
10
46.8969357018671
20
12.9047704297883
30
0
41
1
10
47.0956955425683
20
12.8781738558553
30
0
41
1
10
47.2963817056173
20
12.8603108641173
30
0
41
1
10
47.3976876751201
20
12.8557449408227
30
0
41
1
10
47.5
20
12.8557449408227
30
0
0
SPLINE
5
172
100
AcDbEntity
8
1
62
256
6
ByLayer
370
18
48
1
60
0
100
AcDbSpline
70
4
71
3
72
47
73
43
40
0
40
0
40
0
40
0
40
0.0297441979847977
40
0.0297441979847977
40
0.0594883959695953
40
0.0594883959695953
40
0.118976791939187
40
0.178465187908778
40
0.178465187908778
40
0.208209385893572
40
0.208209385893572
40
0.237953583878366
40
0.237953583878366
40
0.297441979847954
40
0.356930375817541
40
0.416418771787128
40
0.416418771787128
40
0.431290870779525
40
0.431290870779525
40
0.446162969771922
40
0.446162969771922
40
0.475907167756715
40
0.475907167756715
40
0.535395563726299
40
0.594883959695882
40
0.594883959695882
40
0.624628157680672
40
0.624628157680672
40
0.654372355665462
40
0.654372355665462
40
0.713860751635042
40
0.773349147604621
40
0.773349147604621
40
0.8328375435742
40
0.8328375435742
40
0.847709642566595
40
0.847709642566595
40
0.86258174155899
40
0.892325939543779
40
0.892325939543779
40
0.95181433551336
40
1
40
1
40
1
40
1
41
1
10
47.5
20
-12.8557449408226
30
0
41
1
10
47.4488425059472
20
-12.8557449408226
30
0
41
1
10
47.397715905822
20
-12.8568887008864
30
0
41
1
10
47.2955244912419
20
-12.8614632503387
30
0
41
1
10
47.244688240491
20
-12.8648840381257
30
0
41
1
10
47.0930007258548
20
-12.8784714217672
30
0
41
1
10
46.8928839501817
20
-12.9054419699147
30
0
41
1
10
46.6969472651321
20
-12.9497248023595
30
0
41
1
10
46.5515744098775
20
-12.9894564094669
30
0
41
1
10
46.503380524305
20
-13.0037886580158
30
0
41
1
10
46.4075279425321
20
-13.0346569009829
30
0
41
1
10
46.3598304555005
20
-13.0512073586653
30
0
41
1
10
46.21780148854
20
-13.1041381624101
30
0
41
1
10
46.0337223364169
20
-13.1825074315375
30
0
41
1
10
45.7729771645168
20
-13.3225478242578
30
0
41
1
10
45.6093626817141
20
-13.4307333972172
30
0
41
1
10
45.5103781469386
20
-13.5030609087143
30
0
41
1
10
45.4907453584643
20
-13.5177625336987
30
0
41
1
10
45.4518116728523
20
-13.5476422249726
30
0
41
1
10
45.4324862553472
20
-13.5628405785737
30
0
41
1
10
45.3752828940993
20
-13.608938453114
30
0
41
1
10
45.3381296004014
20
-13.6403729181405
30
0
41
1
10
45.2295649468596
20
-13.7367336790967
30
0
41
1
10
45.0925188237034
20
-13.8706910356647
30
0
41
1
10
44.9706855593538
20
-14.0153188701254
30
0
41
1
10
44.8851081550728
20
-14.1278053036951
30
0
41
1
10
44.8575503642568
20
-14.1659712668257
30
0
41
1
10
44.8044084965305
20
-14.2436620614384
30
0
41
1
10
44.7787703571097
20
-14.2832838103055
30
0
41
1
10
44.7056255943257
20
-14.4029884606788
30
0
41
1
10
44.6177085462878
20
-14.5653667299733
30
0
41
1
10
44.5485535440855
20
-14.7330412061098
30
0
41
1
10
44.4888311532385
20
-14.9033307260455
30
0
41
1
10
44.4636851059814
20
-14.9897826813229
30
0
41
1
10
44.4383569602603
20
-15.0995169954901
30
0
41
1
10
44.4335944796086
20
-15.1215658708067
30
0
41
1
10
44.4247364241455
20
-15.1655842472385
30
0
41
1
10
44.4124288972177
20
-15.2315768372201
30
0
41
1
10
44.4030271879727
20
-15.297463758113
30
0
41
1
10
44.3880391394695
20
-15.4290951843919
30
0
41
1
10
44.3791450682315
20
-15.5875865777931
30
0
41
1
10
44.3867463974237
20
-15.7454480895504
30
0
41
1
10
44.3935079731916
20
-15.8159672362984
30
0
0
SPLINE
5
173
100
AcDbEntity
8
1
62
256
6
ByLayer
370
13
48
1
60
0
100
AcDbSpline
70
4
71
3
72
46
73
42
40
0
40
0
40
0
40
0
40
0.0125082691157073
40
0.0125082691157073
40
0.0454246601451838
40
0.0454246601451838
40
0.0783410511746603
40
0.0783410511746603
40
0.144173833233615
40
0.21000661529257
40
0.21000661529257
40
0.242923006322046
40
0.259381201836783
40
0.259381201836783
40
0.27583939735152
40
0.27583939735152
40
0.341672179410473
40
0.341672179410473
40
0.407504961469427
40
0.47333774352838
40
0.47333774352838
40
0.489795939043118
40
0.489795939043118
40
0.506254134557856
40
0.506254134557856
40
0.539170525587335
40
0.539170525587335
40
0.60500330764629
40
0.670836089705244
40
0.670836089705244
40
0.703752480734722
40
0.72021067624946
40
0.72021067624946
40
0.736668871764199
40
0.736668871764199
40
0.802501653823149
40
0.802501653823149
40
0.868334435882099
40
0.93416721794105
40
0.93416721794105
40
1
40
1
40
1
40
1
41
1
10
44.3935079309387
20
-15.8159667956258
30
0
41
1
10
44.3950939793324
20
-15.8325083557052
30
0
41
1
10
44.3968648957238
20
-15.8490429768213
30
0
41
1
10
44.4039701059944
20
-15.909064420053
30
0
41
1
10
44.4104109841801
20
-15.9525355592644
30
0
41
1
10
44.4259058036736
20
-16.0392778847862
30
0
41
1
10
44.434899269638
20
-16.0822194456546
30
0
41
1
10
44.4655317725771
20
-16.2097905523888
30
0
41
1
10
44.5160958698633
20
-16.3765479569769
30
0
41
1
10
44.58564560053
20
-16.5368674516488
30
0
41
1
10
44.6449671238616
20
-16.6547202979178
30
0
41
1
10
44.6764209127755
20
-16.7130490981839
30
0
41
1
10
44.7106018109317
20
-16.7704780491555
30
0
41
1
10
44.7340014835892
20
-16.8085630529646
30
0
41
1
10
44.7460254121334
20
-16.8275319548532
30
0
41
1
10
44.807407212012
20
-16.9214396641305
30
0
41
1
10
44.8605742660337
20
-16.9936623663747
30
0
41
1
10
44.9747292329085
20
-17.1325960471856
30
0
41
1
10
45.0967071000377
20
-17.266016457816
30
0
41
1
10
45.2342022985095
20
-17.3886704003674
30
0
41
1
10
45.325089140797
20
-17.4619495268369
30
0
41
1
10
45.3435147034564
20
-17.4764359901161
30
0
41
1
10
45.3808671741051
20
-17.5050682490919
30
0
41
1
10
45.399815921484
20
-17.5192292502024
30
0
41
1
10
45.4571202159188
20
-17.5609808734268
30
0
41
1
10
45.4960060654178
20
-17.5878995019105
30
0
41
1
10
45.6146696962147
20
-17.6659828783096
30
0
41
1
10
45.7782276961502
20
-17.7629808846279
30
0
41
1
10
45.9522548233438
20
-17.8462075997003
30
0
41
1
10
46.0867360015726
20
-17.9034785481861
30
0
41
1
10
46.1549685472607
20
-17.930824377805
30
0
41
1
10
46.2247120099667
20
-17.9562164753641
30
0
41
1
10
46.2715471741959
20
-17.9727066248388
30
0
41
1
10
46.295156101081
20
-17.9807391701412
30
0
41
1
10
46.4133599729924
20
-18.0195742066343
30
0
41
1
10
46.5089231483452
20
-18.0465861725198
30
0
41
1
10
46.7019692772283
20
-18.0928826585455
30
0
41
1
10
46.8969357018671
20
-18.1314494035106
30
0
41
1
10
47.0956955425683
20
-18.1548324198407
30
0
41
1
10
47.2963817056173
20
-18.1705320030228
30
0
41
1
10
47.3976876751201
20
-18.1745411970259
30
0
41
1
10
47.5
20
-18.1745411970259
30
0
0
SPLINE
5
174
100
AcDbEntity
8
1
62
256
6
ByLayer
370
13
48
1
60
0
100
AcDbSpline
70
4
71
3
72
84
73
80
40
0
40
0
40
0
40
0
40
0.0312499999999983
40
0.0312499999999983
40
0.0624999999999966
40
0.0937499999999948
40
0.0937499999999948
40
0.109374999999994
40
0.109374999999994
40
0.124999999999993
40
0.124999999999993
40
0.140624999999992
40
0.140624999999992
40
0.156249999999991
40
0.156249999999991
40
0.18749999999999
40
0.218749999999988
40
0.218749999999988
40
0.234374999999988
40
0.234374999999988
40
0.242187499999989
40
0.242187499999989
40
0.249999999999989
40
0.281249999999995
40
0.312500000000002
40
0.312500000000002
40
0.343750000000008
40
0.343750000000008
40
0.351562500000009
40
0.351562500000009
40
0.359375000000011
40
0.375000000000014
40
0.375000000000014
40
0.406250000000017
40
0.437500000000021
40
0.437500000000021
40
0.453125000000023
40
0.453125000000023
40
0.468750000000026
40
0.468750000000026
40
0.500000000000031
40
0.531250000000035
40
0.531250000000035
40
0.546875000000038
40
0.554687500000038
40
0.554687500000038
40
0.562500000000039
40
0.562500000000039
40
0.593750000000038
40
0.593750000000038
40
0.625000000000037
40
0.656250000000037
40
0.656250000000037
40
0.671875000000036
40
0.671875000000036
40
0.687500000000035
40
0.687500000000035
40
0.718750000000033
40
0.750000000000031
40
0.750000000000031
40
0.765625000000031
40
0.765625000000031
40
0.773437500000031
40
0.773437500000031
40
0.78125000000003
40
0.812500000000027
40
0.843750000000024
40
0.875000000000021
40
0.875000000000021
40
0.890625000000018
40
0.890625000000018
40
0.906250000000015
40
0.906250000000015
40
0.93750000000001
40
0.968750000000005
40
0.968750000000005
40
0.984375000000003
40
0.984375000000003
40
1
40
1
40
1
40
1
41
1
10
47.5
20
12.7438603198703
30
0
41
1
10
47.3910277895851
20
12.7438603198703
30
0
41
1
10
47.2829683176315
20
12.7487555965887
30
0
41
1
10
47.0686111958715
20
12.7679888317246
30
0
41
1
10
46.8560163162584
20
12.7966669315657
30
0
41
1
10
46.6469218113347
20
12.8440677972707
30
0
41
1
10
46.4914422486485
20
12.8867692570368
30
0
41
1
10
46.4398015922308
20
12.902209324424
30
0
41
1
10
46.3371415834528
20
12.9354713087652
30
0
41
1
10
46.2862957744966
20
12.9532350563848
30
0
41
1
10
46.1855719426216
20
12.9910208580744
30
0
41
1
10
46.1357667214591
20
13.01101994233
30
0
41
1
10
46.037749443259
20
13.0529872503281
30
0
41
1
10
45.9894634627267
20
13.0749826607275
30
0
41
1
10
45.8467396689234
20
13.1439464950295
30
0
41
1
10
45.6621224462916
20
13.2438250277781
30
0
41
1
10
45.488757315247
20
13.35928449196
30
0
41
1
10
45.3630345781332
20
13.4517854815597
30
0
41
1
10
45.3218451337646
20
13.483605265815
30
0
41
1
10
45.2611607247417
20
13.5328385603939
30
0
41
1
10
45.2411120776896
20
13.5495051123269
30
0
41
1
10
45.2016071308455
20
13.5831516281828
30
0
41
1
10
45.1041846255335
20
13.6681673054247
30
0
41
1
10
44.9407116572216
20
13.8291486730303
30
0
41
1
10
44.8119380178846
20
13.9831647766707
30
0
41
1
10
44.6914901236595
20
14.1426113662724
30
0
41
1
10
44.635428147294
20
14.2250494177431
30
0
41
1
10
44.5707467515515
20
14.3315757508041
30
0
41
1
10
44.5580910457176
20
14.3530408012346
30
0
41
1
10
44.5334624978658
20
14.3960765767624
30
0
41
1
10
44.4974908294378
20
14.4608757912132
30
0
41
1
10
44.4644019443515
20
14.526399510887
30
0
41
1
10
44.4020139513639
20
14.6583887587887
30
0
41
1
10
44.3289184157978
20
14.8368807825232
30
0
41
1
10
44.2758730988778
20
15.0202580408279
30
0
41
1
10
44.2437821600305
20
15.1596379473712
30
0
41
1
10
44.234369677985
20
15.2064063956376
30
0
41
1
10
44.2181727697276
20
15.300571081618
30
0
41
1
10
44.2114577475758
20
15.3475645107089
30
0
41
1
10
44.1953781757751
20
15.4882635263602
30
0
41
1
10
44.1847580381555
20
15.6751272558668
30
0
41
1
10
44.195342413125
20
15.8605347208539
30
0
41
1
10
44.2113029950842
20
15.9990453531606
30
0
41
1
10
44.2212923805165
20
16.0681643693032
30
0
41
1
10
44.2343422583516
20
16.1370785911196
30
0
41
1
10
44.2437299786952
20
16.1829758169143
30
0
41
1
10
44.2487746663626
20
16.2059287797845
30
0
41
1
10
44.2755933785982
20
16.3199896126336
30
0
41
1
10
44.3021962572155
20
16.4093274044309
30
0
41
1
10
44.3653604069472
20
16.5843469286923
30
0
41
1
10
44.4384847517613
20
16.7557096249098
30
0
41
1
10
44.5314518236979
20
16.9198955374766
30
0
41
1
10
44.6088082875778
20
17.0403255729164
30
0
41
1
10
44.6359260820255
20
17.0800865858508
30
0
41
1
10
44.692149912223
20
17.1578721624162
30
0
41
1
10
44.7213107167657
20
17.195991126056
30
0
41
1
10
44.8118828910546
20
17.3080838606679
30
0
41
1
10
44.9408703880906
20
17.4515137812605
30
0
41
1
10
45.0860744319131
20
17.5832298206905
30
0
41
1
10
45.2011498529412
20
17.6776257456652
30
0
41
1
10
45.2405389037824
20
17.7083579107749
30
0
41
1
10
45.3011972957952
20
17.7533444988402
30
0
41
1
10
45.3216961141418
20
17.7681655325259
30
0
41
1
10
45.3630011385891
20
17.7972795200312
30
0
41
1
10
45.467155543863
20
17.8688353854683
30
0
41
1
10
45.6625420775973
20
17.9867710022546
30
0
41
1
10
45.9395276966392
20
18.1216548783468
30
0
41
1
10
46.1352166266668
20
18.1967607415985
30
0
41
1
10
46.2862627178955
20
18.2473979564306
30
0
41
1
10
46.3370145845608
20
18.2632195974981
30
0
41
1
10
46.4389948768955
20
18.2926962360084
30
0
41
1
10
46.4902742493767
20
18.3063683448341
30
0
41
1
10
46.6449677232767
20
18.3442420095438
30
0
41
1
10
46.8535027387047
20
18.3863751572561
30
0
41
1
10
47.0665591937807
20
18.4119861793827
30
0
41
1
10
47.2280835013795
20
18.4248863976175
30
0
41
1
10
47.28222023603
20
18.4281333883234
30
0
41
1
10
47.3910599214033
20
18.4324755914175
30
0
41
1
10
47.4455132277062
20
18.4335610287257
30
0
41
1
10
47.5
20
18.4335610287257
30
0
0
SPLINE
5
175
100
AcDbEntity
8
1
62
256
6
ByLayer
370
18
48
1
60
0
100
AcDbSpline
70
4
71
3
72
46
73
42
40
0
40
0
40
0
40
0
40
0.0625024827762167
40
0.0625024827762167
40
0.125004965552434
40
0.18750744832865
40
0.18750744832865
40
0.218758689716758
40
0.218758689716758
40
0.250009931104867
40
0.250009931104867
40
0.281261172492975
40
0.281261172492975
40
0.312512413881083
40
0.312512413881083
40
0.3750148966573
40
0.437517379433517
40
0.437517379433517
40
0.468768620821627
40
0.468768620821627
40
0.484394241515683
40
0.484394241515683
40
0.50001986220974
40
0.562522344985965
40
0.625024827762191
40
0.625024827762191
40
0.687527310538416
40
0.687527310538416
40
0.703152931232474
40
0.703152931232474
40
0.718778551926531
40
0.750029793314645
40
0.750029793314645
40
0.812532276090872
40
0.875034758867099
40
0.875034758867099
40
0.906286000255213
40
0.906286000255213
40
0.937537241643327
40
0.937537241643327
40
1
40
1
40
1
40
1
41
1
10
47.5
20
31.1774213485959
30
0
41
1
10
47.3910277895851
20
31.1774213485959
30
0
41
1
10
47.2829683176315
20
31.1779840115233
30
0
41
1
10
47.0686111958715
20
31.180179687428
30
0
41
1
10
46.8560163162584
20
31.1834458031701
30
0
41
1
10
46.6469218113347
20
31.1887463949427
30
0
41
1
10
46.4914422486485
20
31.1934440497001
30
0
41
1
10
46.4398015922309
20
31.19513163411
30
0
41
1
10
46.3371415834528
20
31.1987346513811
30
0
41
1
10
46.2862957744966
20
31.2006437818572
30
0
41
1
10
46.1855719426216
20
31.2046632030637
30
0
41
1
10
46.1357667214591
20
31.2067709565181
30
0
41
1
10
46.0377494432591
20
31.2111430474951
30
0
41
1
10
45.9894634627267
20
31.213410289189
30
0
41
1
10
45.8467396689234
20
31.220427529414
30
0
41
1
10
45.6621222935159
20
31.2303584495983
30
0
41
1
10
45.488757315247
20
31.2411467916772
30
0
41
1
10
45.3630345781332
20
31.2494497535047
30
0
41
1
10
45.3218451337646
20
31.2522526335495
30
0
41
1
10
45.2611607247417
20
31.2564955048239
30
0
41
1
10
45.2411120776896
20
31.257916558858
30
0
41
1
10
45.2016071308455
20
31.2607529571609
30
0
41
1
10
45.1041846255335
20
31.2678396670988
30
0
41
1
10
44.9407116572216
20
31.2804984078464
30
0
41
1
10
44.8119380178846
20
31.2912978146065
30
0
41
1
10
44.6914901236595
20
31.301715305826
30
0
41
1
10
44.635428147294
20
31.3067333638651
30
0
41
1
10
44.5707467515515
20
31.3126667092077
30
0
41
1
10
44.5580910457176
20
31.3138354859213
30
0
41
1
10
44.5334624978658
20
31.3161238074615
30
0
41
1
10
44.4974908294378
20
31.3194873360644
30
0
41
1
10
44.4644019443515
20
31.3226368788048
30
0
41
1
10
44.4020139513639
20
31.3286321075737
30
0
41
1
10
44.3289180186214
20
31.3358154438207
30
0
41
1
10
44.2758730988778
20
31.3411843356748
30
0
41
1
10
44.2437821600305
20
31.3444569262333
30
0
41
1
10
44.234369677985
20
31.3454220625508
30
0
41
1
10
44.2181727697276
20
31.3470879971547
30
0
41
1
10
44.2114577475758
20
31.3477816337083
30
0
41
1
10
44.1953849888555
20
31.3494448709304
30
0
41
1
10
44.1900748589432
20
31.3499983576988
30
0
41
1
10
44.190059189774
20
31.3499999937798
30
0
0
SPLINE
5
176
100
AcDbEntity
8
1
62
256
6
ByLayer
370
18
48
1
60
0
100
AcDbSpline
70
4
71
3
72
10
73
6
40
0
40
0
40
0
40
0
40
0.669228844508752
40
0.669228844508752
40
1
40
1
40
1
40
1
41
1
10
44.1905008001795
20
31.3499540023029
30
0
41
1
10
44.1919724962749
20
31.349800791416
30
0
41
1
10
44.1971241084019
20
31.3492649356667
30
0
41
1
10
44.2103612734891
20
31.3478950833212
30
0
41
1
10
44.2156469382544
20
31.3473489275947
30
0
41
1
10
44.2218514023732
20
31.3467099328569
30
0
0
SPLINE
5
177
100
AcDbEntity
8
1
62
256
6
ByLayer
370
18
48
1
60
0
100
AcDbSpline
70
4
71
3
72
45
73
41
40
0
40
0
40
0
40
0
40
0.0622534984400443
40
0.0622534984400443
40
0.093511715158713
40
0.109140823518047
40
0.109140823518047
40
0.124769931877382
40
0.124769931877382
40
0.187286365314716
40
0.187286365314716
40
0.249802798752051
40
0.312319232189385
40
0.312319232189385
40
0.343577448908052
40
0.343577448908052
40
0.37483566562672
40
0.37483566562672
40
0.437352099064054
40
0.499868532501389
40
0.499868532501389
40
0.531126749220056
40
0.531126749220056
40
0.54675585757939
40
0.54675585757939
40
0.562384965938723
40
0.624901399376051
40
0.687417832813378
40
0.749934266250705
40
0.749934266250705
40
0.781192482969367
40
0.781192482969367
40
0.812450699688029
40
0.812450699688029
40
0.874967133125353
40
0.937483566562677
40
0.937483566562677
40
0.968741783281338
40
0.968741783281338
40
1
40
1
40
1
40
1
41
1
10
44.1900591870506
20
-31.349999983855
30
0
41
1
10
44.1900946900505
20
-31.3499962863427
30
0
41
1
10
44.1953871650443
20
-31.3494446838164
30
0
41
1
10
44.2113029950842
20
-31.3477976289548
30
0
41
1
10
44.2212923805165
20
-31.3467657189659
30
0
41
1
10
44.2343422583516
20
-31.3454255524183
30
0
41
1
10
44.2437299786952
20
-31.3444637005699
30
0
41
1
10
44.2487746663626
20
-31.3439478557845
30
0
41
1
10
44.2755933785983
20
-31.3412126358011
30
0
41
1
10
44.3021962572155
20
-31.3385198110808
30
0
41
1
10
44.3653604069472
20
-31.3322341321617
30
0
41
1
10
44.4384847517613
20
-31.3250480594014
30
0
41
1
10
44.5314518236979
20
-31.3162723746436
30
0
41
1
10
44.6088082875778
20
-31.3091747294258
30
0
41
1
10
44.6359260820254
20
-31.3067179108997
30
0
41
1
10
44.692149912223
20
-31.3017012879225
30
0
41
1
10
44.7213107167656
20
-31.2991363355306
30
0
41
1
10
44.8118828910546
20
-31.2913021823649
30
0
41
1
10
44.9408703880906
20
-31.2804856252588
30
0
41
1
10
45.0860744319131
20
-31.2692425536044
30
0
41
1
10
45.2011498529412
20
-31.2607691414827
30
0
41
1
10
45.2405389037824
20
-31.2579378442408
30
0
41
1
10
45.3011972957952
20
-31.2536960103476
30
0
41
1
10
45.3216961141419
20
-31.2522818339185
30
0
41
1
10
45.3630011385891
20
-31.2494728672647
30
0
41
1
10
45.467155543863
20
-31.242490181865
30
0
41
1
10
45.6625420775973
20
-31.2303333227784
30
0
41
1
10
45.9395276966392
20
-31.2154392307928
30
0
41
1
10
46.1352166266668
20
-31.2066727132548
30
0
41
1
10
46.2862627178955
20
-31.200645069521
30
0
41
1
10
46.3370145845608
20
-31.1987398627151
30
0
41
1
10
46.4389948768955
20
-31.195159199844
30
0
41
1
10
46.4902742493767
20
-31.1934816982983
30
0
41
1
10
46.6449677232766
20
-31.1888008150698
30
0
41
1
10
46.8535027387047
20
-31.1834974424504
30
0
41
1
10
47.0665591937807
20
-31.1802060089224
30
0
41
1
10
47.2280835013796
20
-31.1785436061792
30
0
41
1
10
47.28222023603
20
-31.1781238164017
30
0
41
1
10
47.3910599214033
20
-31.1775620518015
30
0
41
1
10
47.4455132277062
20
-31.1774213485959
30
0
41
1
10
47.5
20
-31.1774213485959
30
0
0
SPLINE
5
178
100
AcDbEntity
8
1
62
256
6
ByLayer
370
13
48
1
60
0
100
AcDbSpline
70
4
71
3
72
84
73
80
40
0
40
0
40
0
40
0
40
0.0312499999999998
40
0.0312499999999998
40
0.0624999999999997
40
0.0937499999999995
40
0.0937499999999995
40
0.109375
40
0.109375
40
0.125
40
0.125
40
0.140625
40
0.140625
40
0.15625
40
0.15625
40
0.1875
40
0.21875
40
0.21875
40
0.234375000000001
40
0.234375000000001
40
0.242187500000001
40
0.242187500000001
40
0.250000000000001
40
0.281250000000004
40
0.312500000000006
40
0.312500000000006
40
0.343750000000009
40
0.343750000000009
40
0.35156250000001
40
0.35156250000001
40
0.359375000000012
40
0.375000000000014
40
0.375000000000014
40
0.406250000000018
40
0.437500000000021
40
0.437500000000021
40
0.453125000000023
40
0.453125000000023
40
0.468750000000024
40
0.468750000000024
40
0.500000000000026
40
0.531250000000028
40
0.531250000000028
40
0.546875000000029
40
0.554687500000029
40
0.554687500000029
40
0.562500000000029
40
0.562500000000029
40
0.593750000000026
40
0.593750000000026
40
0.625000000000022
40
0.656250000000019
40
0.656250000000019
40
0.671875000000018
40
0.671875000000018
40
0.687500000000016
40
0.687500000000016
40
0.718750000000013
40
0.75000000000001
40
0.75000000000001
40
0.765625000000009
40
0.765625000000009
40
0.773437500000007
40
0.773437500000007
40
0.781250000000006
40
0.812500000000004
40
0.843750000000002
40
0.875
40
0.875
40
0.890625
40
0.890625
40
0.90625
40
0.90625
40
0.9375
40
0.96875
40
0.96875
40
0.984375
40
0.984375
40
1
40
1
40
1
40
1
41
1
10
47.5
20
-18.4335610287256
30
0
41
1
10
47.3910277895851
20
-18.4335610287256
30
0
41
1
10
47.2829683176315
20
-18.4292284149346
30
0
41
1
10
47.0686111958715
20
-18.4121908557034
30
0
41
1
10
46.8560163162584
20
-18.3867788716044
30
0
41
1
10
46.6469218113347
20
-18.3446785976719
30
0
41
1
10
46.4914422486485
20
-18.3066747926632
30
0
41
1
10
46.4398015922309
20
-18.2929223096861
30
0
41
1
10
46.3371415834528
20
-18.2632633426159
30
0
41
1
10
46.2862957744966
20
-18.2474087254724
30
0
41
1
10
46.1855719426216
20
-18.2136423449893
30
0
41
1
10
46.1357667214591
20
-18.1957510141881
30
0
41
1
10
46.0377494432591
20
-18.158155797167
30
0
41
1
10
45.9894634627267
20
-18.1384276284615
30
0
41
1
10
45.8467396689234
20
-18.0764810343844
30
0
41
1
10
45.6621224462916
20
-17.9865331890753
30
0
41
1
10
45.488757315247
20
-17.8818622997172
30
0
41
1
10
45.3630345781332
20
-17.797664271945
30
0
41
1
10
45.3218451337646
20
-17.7686473677346
30
0
41
1
10
45.2611607247417
20
-17.72365694443
30
0
41
1
10
45.2411120776896
20
-17.708411446531
30
0
41
1
10
45.2016071308454
20
-17.677601328978
30
0
41
1
10
45.1041846255335
20
-17.5996723616741
30
0
41
1
10
44.940711952502
20
-17.4513496784743
30
0
41
1
10
44.8119380178846
20
-17.3081330379358
30
0
41
1
10
44.6914901236595
20
-17.1591039395536
30
0
41
1
10
44.635428147294
20
-17.0816839461219
30
0
41
1
10
44.5707467515514
20
-16.9810909584035
30
0
41
1
10
44.5580910457176
20
-16.9607946846867
30
0
41
1
10
44.5334624978658
20
-16.9200472306991
30
0
41
1
10
44.4974908294378
20
-16.8586115448512
30
0
41
1
10
44.4644019443515
20
-16.7962373679178
30
0
41
1
10
44.4020139513639
20
-16.670243348785
30
0
41
1
10
44.3289184157979
20
-16.4989344996121
30
0
41
1
10
44.2758730988778
20
-16.3209262948468
30
0
41
1
10
44.2437821600305
20
-16.1848189788621
30
0
41
1
10
44.234369677985
20
-16.1390156669132
30
0
41
1
10
44.2181727697276
20
-16.0465169155366
30
0
41
1
10
44.2114577475758
20
-16.0002171229993
30
0
41
1
10
44.1953781757751
20
-15.8611820495997
30
0
41
1
10
44.1847577426107
20
-15.6754252914165
30
0
41
1
10
44.1953424131251
20
-15.4889145941294
30
0
41
1
10
44.2113029950842
20
-15.3487522757941
30
0
41
1
10
44.2212923805165
20
-15.2786013496627
30
0
41
1
10
44.2343422583516
20
-15.2083469612987
30
0
41
1
10
44.2437299786952
20
-15.1614878836556
30
0
41
1
10
44.2487746663626
20
-15.1380190759999
30
0
41
1
10
44.2755933785983
20
-15.0212230231675
30
0
41
1
10
44.3021962572155
20
-14.9291924066499
30
0
41
1
10
44.3653604069472
20
-14.7478872034694
30
0
41
1
10
44.4384847517613
20
-14.5693384344916
30
0
41
1
10
44.5314518236979
20
-14.396376837167
30
0
41
1
10
44.6088082875778
20
-14.2688491565094
30
0
41
1
10
44.6359260820254
20
-14.2266313250489
30
0
41
1
10
44.692149912223
20
-14.1438291255063
30
0
41
1
10
44.7213107167656
20
-14.1031452094746
30
0
41
1
10
44.8118828910546
20
-13.983218321697
30
0
41
1
10
44.9408703880906
20
-13.8289718439983
30
0
41
1
10
45.0860744319131
20
-13.6860127329138
30
0
41
1
10
45.2011498529412
20
-13.5831433958174
30
0
41
1
10
45.2405389037824
20
-13.5495799334659
30
0
41
1
10
45.3011972957952
20
-13.5003515115074
30
0
41
1
10
45.3216961141418
20
-13.4841163013925
30
0
41
1
10
45.3630011385891
20
-13.4521933472335
30
0
41
1
10
45.467155543863
20
-13.3736547963967
30
0
41
1
10
45.6625420775973
20
-13.2435623205238
30
0
41
1
10
45.9395276966392
20
-13.093784352446
30
0
41
1
10
46.1352166266668
20
-13.0099119716562
30
0
41
1
10
46.2862627178955
20
-12.9532471130904
30
0
41
1
10
46.3370145845608
20
-12.9355202652169
30
0
41
1
10
46.4389948768955
20
-12.9024629638356
30
0
41
1
10
46.4902742493767
20
-12.8871133534642
30
0
41
1
10
46.6449677232766
20
-12.8445588055259
30
0
41
1
10
46.8535027387047
20
-12.7971222851942
30
0
41
1
10
47.0665591937807
20
-12.7682198295397
30
0
41
1
10
47.2280835013795
20
-12.7536572085617
30
0
41
1
10
47.28222023603
20
-12.7499904280782
30
0
41
1
10
47.3910599214033
20
-12.7450864603841
30
0
41
1
10
47.4455132277062
20
-12.7438603198702
30
0
41
1
10
47.5
20
-12.7438603198702
30
0
0
SPLINE
5
179
100
AcDbEntity
8
1
62
256
6
ByLayer
370
18
48
1
60
0
100
AcDbSpline
70
4
71
3
72
8
73
4
40
0
40
0
40
0
40
0
40
1
40
1
40
1
40
1
41
1
10
55.6860205643162
20
12.2849364905389
30
0
41
1
10
55.2679929009607
20
12.4752569078868
30
0
41
1
10
54.8495951965157
20
12.6655228158405
30
0
41
1
10
54.430900268102
20
12.8557449408227
30
0
0
SPLINE
5
17A
100
AcDbEntity
8
1
62
256
6
ByLayer
370
18
48
1
60
0
100
AcDbSpline
70
4
71
3
72
22
73
18
40
0
40
0
40
0
40
0
40
0.25000000000004
40
0.25000000000004
40
0.312500000000034
40
0.312500000000034
40
0.375000000000028
40
0.375000000000028
40
0.500000000000023
40
0.500000000000023
40
0.625000000000017
40
0.625000000000017
40
0.750000000000011
40
0.750000000000011
40
0.875000000000006
40
0.875000000000006
40
1
40
1
40
1
40
1
41
1
10
54.430900268102
20
12.8557449408227
30
0
41
1
10
54.4183113183022
20
12.8614643718922
30
0
41
1
10
54.4062673447919
20
12.8636484666459
30
0
41
1
10
54.3919333755018
20
12.8616745465239
30
0
41
1
10
54.3890948379474
20
12.8610335998601
30
0
41
1
10
54.3835959558139
20
12.8592734887554
30
0
41
1
10
54.3809243408046
20
12.8581544012235
30
0
41
1
10
54.3731445069834
20
12.8540745226782
30
0
41
1
10
54.3682692374296
20
12.8503974933158
30
0
41
1
10
54.359193840728
20
12.8409626473365
30
0
41
1
10
54.3549655547183
20
12.8351243868178
30
0
41
1
10
54.3476380914065
20
12.8216765995846
30
0
41
1
10
54.3444888104471
20
12.8140418442878
30
0
41
1
10
54.3392890654832
20
12.7968240608871
30
0
41
1
10
54.3372347514673
20
12.787119310656
30
0
41
1
10
54.3345218443924
20
12.7665085664592
30
0
41
1
10
54.3338257906458
20
12.7555361064609
30
0
41
1
10
54.3338257906458
20
12.7438603198703
30
0
0
SPLINE
5
17B
100
AcDbEntity
8
1
62
256
6
ByLayer
370
18
48
1
60
0
100
AcDbSpline
70
4
71
3
72
26
73
22
40
0
40
0
40
0
40
0
40
0.12500000000002
40
0.12500000000002
40
0.187500000000034
40
0.187500000000034
40
0.250000000000048
40
0.250000000000048
40
0.375000000000061
40
0.375000000000061
40
0.437500000000064
40
0.437500000000064
40
0.500000000000067
40
0.500000000000067
40
0.625000000000051
40
0.625000000000051
40
0.750000000000034
40
0.750000000000034
40
0.875000000000017
40
0.875000000000017
40
1
40
1
40
1
40
1
41
1
10
54.3338257906458
20
-12.7438603198702
30
0
41
1
10
54.3338257906458
20
-12.7554857906014
30
0
41
1
10
54.3345158475981
20
-12.7663990294076
30
0
41
1
10
54.3365256400762
20
-12.7817631739716
30
0
41
1
10
54.3373592013186
20
-12.7867157257181
30
0
41
1
10
54.3393569349258
20
-12.7962798423341
30
0
41
1
10
54.340518544117
20
-12.8008676026233
30
0
41
1
10
54.3444078078807
20
-12.8138265300739
30
0
41
1
10
54.3475568343522
20
-12.8215031616635
30
0
41
1
10
54.3530688689656
20
-12.8316552886521
30
0
41
1
10
54.3550450451564
20
-12.8348159831741
30
0
41
1
10
54.3591811971537
20
-12.8405751584742
30
0
41
1
10
54.3613487975152
20
-12.8431901942374
30
0
41
1
10
54.36813508168
20
-12.8502825530318
30
0
41
1
10
54.3730555946771
20
-12.854022772714
30
0
41
1
10
54.3835369746844
20
-12.8595296002699
30
0
41
1
10
54.3890094038366
20
-12.861259699274
30
0
41
1
10
54.4003790713045
20
-12.8628495612708
30
0
41
1
10
54.4063051729193
20
-12.8627019542113
30
0
41
1
10
54.4184464568222
20
-12.8605676961272
30
0
41
1
10
54.4246219994773
20
-12.8585972934976
30
0
41
1
10
54.4309002681039
20
-12.8557449408218
30
0
0
SPLINE
5
17C
100
AcDbEntity
8
1
62
256
6
ByLayer
370
18
48
1
60
0
100
AcDbSpline
70
4
71
3
72
8
73
4
40
0
40
0
40
0
40
0
40
1
40
1
40
1
40
1
41
1
10
54.430900268104
20
-12.8557449408217
30
0
41
1
10
54.8495951965171
20
-12.6655228158398
30
0
41
1
10
55.2679929009614
20
-12.4752569078864
30
0
41
1
10
55.6860205643162
20
-12.2849364905389
30
0
0
SPLINE
5
17D
100
AcDbEntity
8
1
62
256
6
ByLayer
370
18
48
1
60
0
100
AcDbSpline
70
4
71
3
72
8
73
4
40
0
40
0
40
0
40
0
40
1
40
1
40
1
40
1
41
1
10
55.6860205643162
20
-12.2849364905389
30
0
41
1
10
55.7692759939077
20
-12.3336973679481
30
0
41
1
10
55.8521640525735
20
-12.3825000386159
30
0
41
1
10
55.934665845695
20
-12.4313466520527
30
0
0
SPLINE
5
17E
100
AcDbEntity
8
1
62
256
6
ByLayer
370
18
48
1
60
0
100
AcDbSpline
70
4
71
3
72
9
73
5
40
0
40
0
40
0
40
0
40
0.5
40
1
40
1
40
1
40
1
41
1
10
55.934665845695
20
-12.4313466520527
30
0
41
1
10
55.9643644517238
20
-13.0375644347018
30
0
41
1
10
55.9941836639488
20
-14.25
30
0
41
1
10
55.9643644517238
20
-15.4624355652982
30
0
41
1
10
55.934665845695
20
-16.0686533479473
30
0
0
SPLINE
5
17F
100
AcDbEntity
8
1
62
256
6
ByLayer
370
18
48
1
60
0
100
AcDbSpline
70
4
71
3
72
8
73
4
40
0
40
0
40
0
40
0
40
1
40
1
40
1
40
1
41
1
10
55.934665845695
20
-16.0686533479473
30
0
41
1
10
55.8521640525735
20
-16.2509513910711
30
0
41
1
10
55.7692759939077
20
-16.4330854375481
30
0
41
1
10
55.6860205643162
20
-16.6150635094611
30
0
0
SPLINE
5
180
100
AcDbEntity
8
1
62
256
6
ByLayer
370
18
48
1
60
0
100
AcDbSpline
70
4
71
3
72
8
73
4
40
0
40
0
40
0
40
0
40
1
40
1
40
1
40
1
41
1
10
55.6860205643162
20
-16.6150635094611
30
0
41
1
10
55.2679929009639
20
-17.1350285593692
30
0
41
1
10
54.8495951965187
20
-17.6548446868472
30
0
41
1
10
54.430900268102
20
-18.174541197026
30
0
0
SPLINE
5
181
100
AcDbEntity
8
1
62
256
6
ByLayer
370
18
48
1
60
0
100
AcDbSpline
70
4
71
3
72
22
73
18
40
0
40
0
40
0
40
0
40
0.250000000000122
40
0.250000000000122
40
0.312500000000137
40
0.312500000000137
40
0.375000000000151
40
0.375000000000151
40
0.500000000000121
40
0.500000000000121
40
0.625000000000091
40
0.625000000000091
40
0.75000000000006
40
0.75000000000006
40
0.87500000000003
40
0.87500000000003
40
1
40
1
40
1
40
1
41
1
10
54.430900268102
20
-18.174541197026
30
0
41
1
10
54.4183113183022
20
-18.1901669732982
30
0
41
1
10
54.4062673447918
20
-18.2080486856832
30
0
41
1
10
54.3919333755018
20
-18.2334005751538
30
0
41
1
10
54.3890948379474
20
-18.238643494064
30
0
41
1
10
54.3835959558139
20
-18.249261229482
30
0
41
1
10
54.3809243408046
20
-18.2546545303792
30
0
41
1
10
54.3731445069834
20
-18.271089579192
30
0
41
1
10
54.3682692374296
20
-18.2823842261479
30
0
41
1
10
54.359193840728
20
-18.3057076020253
30
0
41
1
10
54.3549655547183
20
-18.3178540776047
30
0
41
1
10
54.3476380914065
20
-18.3418551266413
30
0
41
1
10
54.3444888104471
20
-18.3538146491607
30
0
41
1
10
54.3392890654833
20
-18.3776455431202
30
0
41
1
10
54.3372347514673
20
-18.3896310441453
30
0
41
1
10
54.3345218443924
20
-18.4123600687689
30
0
41
1
10
54.3338257906458
20
-18.4232242950635
30
0
41
1
10
54.3338257906458
20
-18.4335610287256
30
0
0
SPLINE
5
182
100
AcDbEntity
8
1
62
256
6
ByLayer
370
18
48
1
60
0
100
AcDbSpline
70
4
71
3
72
26
73
22
40
0
40
0
40
0
40
0
40
0.124999999999973
40
0.124999999999973
40
0.187499999999964
40
0.187499999999964
40
0.249999999999954
40
0.249999999999954
40
0.374999999999943
40
0.374999999999943
40
0.437499999999945
40
0.437499999999945
40
0.499999999999947
40
0.499999999999947
40
0.624999999999961
40
0.624999999999961
40
0.749999999999974
40
0.749999999999974
40
0.874999999999987
40
0.874999999999987
40
1
40
1
40
1
40
1
41
1
10
54.3338257906458
20
-31.1774213485959
30
0
41
1
10
54.3338257906458
20
-31.178754630984
30
0
41
1
10
54.3345158475981
20
-31.1788659830434
30
0
41
1
10
54.3365256400762
20
-31.1773076156792
30
0
41
1
10
54.3373592013186
20
-31.1764985174816
30
0
41
1
10
54.3393569349258
20
-31.1742953453821
30
0
41
1
10
54.340518544117
20
-31.172902779072
30
0
41
1
10
54.3444078078807
20
-31.1679655641895
30
0
41
1
10
54.3475568343522
20
-31.1636459911536
30
0
41
1
10
54.3530688689656
20
-31.155711478606
30
0
41
1
10
54.3550450451564
20
-31.1528123231803
30
0
41
1
10
54.3591811971537
20
-31.1466474161296
30
0
41
1
10
54.3613487975153
20
-31.1433709740955
30
0
41
1
10
54.36813508168
20
-31.1329897886384
30
0
41
1
10
54.3730555946771
20
-31.1253047328646
30
0
41
1
10
54.3835369746844
20
-31.108660369355
30
0
41
1
10
54.3890094038367
20
-31.0998426271595
30
0
41
1
10
54.4003790713045
20
-31.0813019423179
30
0
41
1
10
54.4063051729194
20
-31.0715306667093
30
0
41
1
10
54.4184464568223
20
-31.0513118129774
30
0
41
1
10
54.4246219994774
20
-31.040931262952
30
0
41
1
10
54.430900268104
20
-31.0302861378452
30
0
0
SPLINE
5
183
100
AcDbEntity
8
1
62
256
6
ByLayer
370
18
48
1
60
0
100
AcDbSpline
70
4
71
3
72
8
73
4
40
0
40
0
40
0
40
0
40
1
40
1
40
1
40
1
41
1
10
54.430900268104
20
-31.0302861378451
30
0
41
1
10
54.8495951965172
20
-30.3203675026889
30
0
41
1
10
55.2679929009614
20
-29.6102854672587
30
0
41
1
10
55.6860205643162
20
-28.9
30
0
0
SPLINE
5
184
100
AcDbEntity
8
1
62
256
6
ByLayer
370
18
48
1
60
0
100
AcDbSpline
70
4
71
3
72
8
73
4
40
0
40
0
40
0
40
0
40
1
40
1
40
1
40
1
41
1
10
55.6860205643162
20
-28.9
30
0
41
1
10
55.7692759939084
20
-28.7667828054952
30
0
41
1
10
55.8521640525742
20
-28.6334514296859
30
0
41
1
10
55.934665845695
20
-28.5
30
0
0
SPLINE
5
185
100
AcDbEntity
8
1
62
256
6
ByLayer
370
18
48
1
60
0
100
AcDbSpline
70
4
71
3
72
10
73
6
40
0
40
0
40
0
40
0
40
0.501785668705477
40
0.501785668705477
40
1
40
1
40
1
40
1
41
1
10
55.934665845695
20
-28.5
30
0
41
1
10
55.9495307892792
20
-28.5
30
0
41
1
10
55.96071465784
20
-28.5
30
0
41
1
10
55.9755375942438
20
-28.5
30
0
41
1
10
55.9792416208081
20
-28.5
30
0
41
1
10
55.979273845695
20
-28.5
30
0
0
SPLINE
5
186
100
AcDbEntity
8
1
62
256
6
ByLayer
370
18
48
1
60
0
100
AcDbSpline
70
4
71
3
72
10
73
6
40
0
40
0
40
0
40
0
40
0.498214331389787
40
0.498214331389787
40
1
40
1
40
1
40
1
41
1
10
55.9792738456951
20
28.5
30
0
41
1
10
55.9792416208109
20
28.5
30
0
41
1
10
55.9755375942467
20
28.5
30
0
41
1
10
55.96071465784
20
28.5
30
0
41
1
10
55.9495307892792
20
28.5
30
0
41
1
10
55.934665845695
20
28.5
30
0
0
SPLINE
5
187
100
AcDbEntity
8
1
62
256
6
ByLayer
370
18
48
1
60
0
100
AcDbSpline
70
4
71
3
72
8
73
4
40
0
40
0
40
0
40
0
40
1
40
1
40
1
40
1
41
1
10
55.934665845695
20
28.5
30
0
41
1
10
55.8521640525742
20
28.6334514296859
30
0
41
1
10
55.7692759939084
20
28.7667828054952
30
0
41
1
10
55.6860205643162
20
28.9
30
0
0
SPLINE
5
188
100
AcDbEntity
8
1
62
256
6
ByLayer
370
18
48
1
60
0
100
AcDbSpline
70
4
71
3
72
8
73
4
40
0
40
0
40
0
40
0
40
1
40
1
40
1
40
1
41
1
10
55.6860205643162
20
28.9
30
0
41
1
10
55.2679929009607
20
29.6102854672599
30
0
41
1
10
54.8495951965158
20
30.3203675026913
30
0
41
1
10
54.430900268102
20
31.0302861378486
30
0
0
SPLINE
5
189
100
AcDbEntity
8
1
62
256
6
ByLayer
370
18
48
1
60
0
100
AcDbSpline
70
4
71
3
72
22
73
18
40
0
40
0
40
0
40
0
40
0.250000000000055
40
0.250000000000055
40
0.312500000000071
40
0.312500000000071
40
0.375000000000086
40
0.375000000000086
40
0.500000000000069
40
0.500000000000069
40
0.625000000000052
40
0.625000000000052
40
0.750000000000035
40
0.750000000000035
40
0.875000000000017
40
0.875000000000017
40
1
40
1
40
1
40
1
41
1
10
54.430900268102
20
31.0302861378486
30
0
41
1
10
54.4183113183022
20
31.0516313451904
30
0
41
1
10
54.4062673447918
20
31.0716971523291
30
0
41
1
10
54.3919333755018
20
31.0950751216777
30
0
41
1
10
54.3890948379474
20
31.0996770939241
30
0
41
1
10
54.3835959558139
20
31.1085347182373
30
0
41
1
10
54.3809243408046
20
31.1128089316027
30
0
41
1
10
54.3731445069834
20
31.1251641018702
30
0
41
1
10
54.3682692374296
20
31.1327817194638
30
0
41
1
10
54.359193840728
20
31.1466702493618
30
0
41
1
10
54.3549655547183
20
31.1529784644226
30
0
41
1
10
54.3476380914065
20
31.163531726226
30
0
41
1
10
54.3444888104471
20
31.1678564934485
30
0
41
1
10
54.3392890654833
20
31.1744696040073
30
0
41
1
10
54.3372347514673
20
31.1767503548013
30
0
41
1
10
54.3345218443924
20
31.1788686352281
30
0
41
1
10
54.3338257906458
20
31.1787604015245
30
0
41
1
10
54.3338257906458
20
31.1774213485959
30
0
0
SPLINE
5
18A
100
AcDbEntity
8
1
62
256
6
ByLayer
370
18
48
1
60
0
100
AcDbSpline
70
4
71
3
72
26
73
22
40
0
40
0
40
0
40
0
40
0.125000000000006
40
0.125000000000006
40
0.187500000000005
40
0.187500000000005
40
0.250000000000004
40
0.250000000000004
40
0.374999999999989
40
0.374999999999989
40
0.437499999999976
40
0.437499999999976
40
0.499999999999962
40
0.499999999999962
40
0.624999999999972
40
0.624999999999972
40
0.749999999999981
40
0.749999999999981
40
0.874999999999991
40
0.874999999999991
40
1
40
1
40
1
40
1
41
1
10
54.3338257906458
20
18.4335610287257
30
0
41
1
10
54.3338257906459
20
18.4232688403826
30
0
41
1
10
54.3345158475981
20
18.4124669536358
30
0
41
1
10
54.3365256400762
20
18.3955444417075
30
0
41
1
10
54.3373592013186
20
18.3897827917633
30
0
41
1
10
54.3393569349258
20
18.3780155030478
30
0
41
1
10
54.3405185441171
20
18.3720351764486
30
0
41
1
10
54.3444078078807
20
18.3541390341154
30
0
41
1
10
54.3475568343523
20
18.34214282949
30
0
41
1
10
54.3530688689657
20
18.3240561899538
30
0
41
1
10
54.3550450451564
20
18.317996340006
30
0
41
1
10
54.3591811971537
20
18.3060722576552
30
0
41
1
10
54.3613487975153
20
18.3001807798578
30
0
41
1
10
54.36813508168
20
18.2827072356064
30
0
41
1
10
54.3730555946772
20
18.2712819601504
30
0
41
1
10
54.3835369746846
20
18.2491307690849
30
0
41
1
10
54.3890094038368
20
18.2385829278853
30
0
41
1
10
54.4003790713047
20
18.2184523810469
30
0
41
1
10
54.4063051729195
20
18.2088287124978
30
0
41
1
10
54.4184464568224
20
18.19074411685
30
0
41
1
10
54.4246219994776
20
18.1823339694542
30
0
41
1
10
54.4309002681042
20
18.1745411970232
30
0
0
SPLINE
5
18B
100
AcDbEntity
8
1
62
256
6
ByLayer
370
18
48
1
60
0
100
AcDbSpline
70
4
71
3
72
8
73
4
40
0
40
0
40
0
40
0
40
1
40
1
40
1
40
1
41
1
10
54.4309002681042
20
18.1745411970232
30
0
41
1
10
54.8495951965202
20
17.6548446868453
30
0
41
1
10
55.2679929009646
20
17.1350285593683
30
0
41
1
10
55.6860205643162
20
16.6150635094611
30
0
0
SPLINE
5
18C
100
AcDbEntity
8
1
62
256
6
ByLayer
370
18
48
1
60
0
100
AcDbSpline
70
4
71
3
72
8
73
4
40
0
40
0
40
0
40
0
40
1
40
1
40
1
40
1
41
1
10
55.6860205643162
20
16.6150635094611
30
0
41
1
10
55.7692759939077
20
16.4330854375481
30
0
41
1
10
55.8521640525735
20
16.2509513910711
30
0
41
1
10
55.934665845695
20
16.0686533479473
30
0
0
SPLINE
5
18D
100
AcDbEntity
8
1
62
256
6
ByLayer
370
18
48
1
60
0
100
AcDbSpline
70
4
71
3
72
9
73
5
40
0
40
0
40
0
40
0
40
0.5
40
1
40
1
40
1
40
1
41
1
10
55.934665845695
20
16.0686533479473
30
0
41
1
10
55.9643644517238
20
15.4624355652982
30
0
41
1
10
55.9941836639488
20
14.25
30
0
41
1
10
55.9643644517238
20
13.0375644347018
30
0
41
1
10
55.934665845695
20
12.4313466520527
30
0
0
SPLINE
5
18E
100
AcDbEntity
8
1
62
256
6
ByLayer
370
18
48
1
60
0
100
AcDbSpline
70
4
71
3
72
8
73
4
40
0
40
0
40
0
40
0
40
1
40
1
40
1
40
1
41
1
10
55.934665845695
20
12.4313466520527
30
0
41
1
10
55.8521640525735
20
12.3825000386159
30
0
41
1
10
55.7692759939077
20
12.3336973679481
30
0
41
1
10
55.6860205643162
20
12.2849364905389
30
0
0
SPLINE
5
18F
100
AcDbEntity
8
SK1
62
256
6
ByLayer
370
18
48
1
60
0
100
AcDbSpline
70
4
71
3
72
33
73
29
40
0
40
0
40
0
40
0
40
0.143192088981461
40
0.143192088981461
40
0.214788133472192
40
0.214788133472192
40
0.250586155717556
40
0.250586155717556
40
0.28638417796292
40
0.28638417796292
40
0.429576266944374
40
0.429576266944374
40
0.501172311435099
40
0.501172311435099
40
0.519071322557782
40
0.519071322557782
40
0.536970333680465
40
0.536970333680465
40
0.572768355925836
40
0.572768355925836
40
0.71596044490731
40
0.71596044490731
40
0.787556489398047
40
0.787556489398047
40
0.859152533888785
40
0.859152533888785
40
0.930748578379522
40
1
40
1
40
1
40
1
41
1
10
-39.8
20
8.11000000000001
30
0
41
1
10
-39.8
20
8.23319689559852
30
0
41
1
10
-39.8118667916719
20
8.35417457248445
30
0
41
1
10
-39.8465803825738
20
8.53249589382585
30
0
41
1
10
-39.8609912480162
20
8.59140873386497
30
0
41
1
10
-39.8869393805851
20
8.67897985909462
30
0
41
1
10
-39.8963119912343
20
8.70803700905927
30
0
41
1
10
-39.9165318607134
20
8.76588115792384
30
0
41
1
10
-39.9273903818293
20
8.79468376498656
30
0
41
1
10
-39.9848208029507
20
8.9365275467211
30
0
41
1
10
-40.0411076489352
20
9.04432103623853
30
0
41
1
10
-40.1409292539038
20
9.19766645460024
30
0
41
1
10
-40.1767864152033
20
9.2473812207858
30
0
41
1
10
-40.2249698636006
20
9.30771640042951
30
0
41
1
10
-40.2347750725977
20
9.31969280465512
30
0
41
1
10
-40.2547276099737
20
9.34346199298685
30
0
41
1
10
-40.2648863442039
20
9.35526710192224
30
0
41
1
10
-40.2957187398807
20
9.39021856852924
30
0
41
1
10
-40.316788933274
20
9.41295223542141
30
0
41
1
10
-40.4246877217537
20
9.52382343996283
30
0
41
1
10
-40.5190834069945
20
9.60365303760281
30
0
41
1
10
-40.6731649779178
20
9.70984395692813
30
0
41
1
10
-40.7266213756713
20
9.74296612059283
30
0
41
1
10
-40.8379913960703
20
9.80439826016647
30
0
41
1
10
-40.8949278201465
20
9.8321631082388
30
0
41
1
10
-41.0110429545896
20
9.88181409175229
30
0
41
1
10
-41.1275320065346
20
9.92490748121503
30
0
41
1
10
-41.2485409632407
20
9.95662546282708
30
0
41
1
10
-41.3091737143753
20
9.9693694953778
30
0
0
SPLINE
5
190
100
AcDbEntity
8
SK1
62
256
6
ByLayer
370
18
48
1
60
0
100
AcDbSpline
70
4
71
3
72
36
73
32
40
0
40
0
40
0
40
0
40
0.032898792481065
40
0.101977450160985
40
0.101977450160985
40
0.136516779000945
40
0.136516779000945
40
0.171056107840904
40
0.171056107840904
40
0.309213423200732
40
0.309213423200732
40
0.343752752040692
40
0.343752752040692
40
0.378292080880653
40
0.378292080880653
40
0.447370738560574
40
0.516449396240495
40
0.516449396240495
40
0.550988725080457
40
0.550988725080457
40
0.585528053920419
40
0.585528053920419
40
0.723685369280277
40
0.723685369280277
40
0.792764026960206
40
0.792764026960206
40
0.82730335580017
40
0.82730335580017
40
0.861842684640135
40
0.861842684640135
40
1
40
1
40
1
40
1
41
1
10
-41.4083314493434
20
-9.98748103168029
30
0
41
1
10
-41.3783766770992
20
-9.98282739976494
30
0
41
1
10
-41.2859396064848
20
-9.96618825738608
30
0
41
1
10
-41.1947809789536
20
-9.94271877100826
30
0
41
1
10
-41.1030519769239
20
-9.91407293254841
30
0
41
1
10
-41.0726322747058
20
-9.903718457195
30
0
41
1
10
-41.0128138632697
20
-9.88166344995557
30
0
41
1
10
-40.9833218989539
20
-9.86993537212496
30
0
41
1
10
-40.8378957516775
20
-9.8078741114214
30
0
41
1
10
-40.7280022830846
20
-9.74738157881811
30
0
41
1
10
-40.5984896327907
20
-9.65843866061974
30
0
41
1
10
-40.5729176066122
20
-9.6399249472407
30
0
41
1
10
-40.5230012181478
20
-9.60186424757501
30
0
41
1
10
-40.4986408544189
20
-9.58231248889066
30
0
41
1
10
-40.4273036120927
20
-9.5221314919886
30
0
41
1
10
-40.3368284332642
20
-9.43782945531143
30
0
41
1
10
-40.2553380819533
20
-9.34561619017506
30
0
41
1
10
-40.1975802767161
20
-9.27347919268325
30
0
41
1
10
-40.1788886982289
20
-9.24893645024335
30
0
41
1
10
-40.1426386042457
20
-9.19884402605831
30
0
41
1
10
-40.1251406286122
20
-9.17337272151832
30
0
41
1
10
-40.0412615511893
20
-9.04471070963828
30
0
41
1
10
-39.9850618711732
20
-8.93689382639147
30
0
41
1
10
-39.9165371244681
20
-8.76799066715
30
0
41
1
10
-39.8963441090146
20
-8.71048496754932
30
0
41
1
10
-39.8701301158719
20
-8.62236256644641
30
0
41
1
10
-39.8621036923976
20
-8.59277283294423
30
0
41
1
10
-39.8475390636706
20
-8.53346301503353
30
0
41
1
10
-39.8409871302113
20
-8.50369744436819
30
0
41
1
10
-39.8118441262851
20
-8.35431913644254
30
0
41
1
10
-39.8
20
-8.23306832906806
30
0
41
1
10
-39.8
20
-8.10999999999999
30
0
0
SPLINE
5
191
100
AcDbEntity
8
SK1
62
256
6
ByLayer
370
18
48
1
60
0
100
AcDbSpline
70
4
71
3
72
8
73
4
40
0
40
0
40
0
40
0
40
1
40
1
40
1
40
1
41
1
10
-48.0000748840331
20
-15.1575618641729
30
0
41
1
10
-48.0704205135134
20
-15.1479701459217
30
0
41
1
10
-48.1381154484484
20
-15.1287112305897
30
0
41
1
10
-48.2037500000014
20
-15.101921291323
30
0
0
SPLINE
5
192
100
AcDbEntity
8
SK1
62
256
6
ByLayer
370
18
48
1
60
0
100
AcDbSpline
70
4
71
3
72
22
73
18
40
0
40
0
40
0
40
0
40
0.250000000000002
40
0.250000000000002
40
0.375000000000002
40
0.375000000000002
40
0.500000000000002
40
0.500000000000002
40
0.625000000000002
40
0.625000000000002
40
0.750000000000002
40
0.750000000000002
40
0.875000000000003
40
0.875000000000003
40
0.937500000000001
40
0.937500000000001
40
1
40
1
40
1
40
1
41
1
10
-48.20375
20
-15.1019212913179
30
0
41
1
10
-48.2737896568834
20
-15.2420308432048
30
0
41
1
10
-48.3417739186829
20
-15.3802391073468
30
0
41
1
10
-48.4388914764234
20
-15.5858968916662
30
0
41
1
10
-48.4704434350604
20
-15.6541805613641
30
0
41
1
10
-48.531401090616
20
-15.7905514952447
30
0
41
1
10
-48.5608102877274
20
-15.8586361890739
30
0
41
1
10
-48.6167419021676
20
-15.99511626323
30
0
41
1
10
-48.6432690328275
20
-16.0635082821252
30
0
41
1
10
-48.6923318001705
20
-16.2013692932474
30
0
41
1
10
-48.7148712626934
20
-16.2708358902596
30
0
41
1
10
-48.7543493944711
20
-16.4119679515416
30
0
41
1
10
-48.7712829155221
20
-16.4836382818077
30
0
41
1
10
-48.7908820151232
20
-16.5938963424684
30
0
41
1
10
-48.7964443706483
20
-16.6311101972906
30
0
41
1
10
-48.8053459563062
20
-16.7066481300675
30
0
41
1
10
-48.8086824422018
20
-16.745062428689
30
0
41
1
10
-48.810766213284
20
-16.7836440447102
30
0
0
SPLINE
5
193
100
AcDbEntity
8
SK1
62
256
6
ByLayer
370
18
48
1
60
0
100
AcDbSpline
70
4
71
3
72
79
73
75
40
0
40
0
40
0
40
0
40
0.125000000000044
40
0.125000000000044
40
0.187500000000068
40
0.187500000000068
40
0.250000000000091
40
0.250000000000091
40
0.312500000000114
40
0.312500000000114
40
0.343750000000126
40
0.343750000000126
40
0.375000000000137
40
0.375000000000137
40
0.406250000000149
40
0.406250000000149
40
0.421875000000152
40
0.421875000000152
40
0.437500000000156
40
0.437500000000156
40
0.45312500000016
40
0.45312500000016
40
0.460937500000163
40
0.460937500000163
40
0.468750000000166
40
0.468750000000166
40
0.476562500000168
40
0.476562500000168
40
0.484375000000171
40
0.484375000000171
40
0.492187500000174
40
0.492187500000174
40
0.496093750000175
40
0.496093750000175
40
0.500000000000175
40
0.500000000000175
40
0.503906250000176
40
0.503906250000176
40
0.507812500000177
40
0.507812500000177
40
0.511718750000178
40
0.511718750000178
40
0.515625000000179
40
0.51953125000018
40
0.51953125000018
40
0.52343750000018
40
0.52343750000018
40
0.531250000000179
40
0.531250000000179
40
0.539062500000177
40
0.539062500000177
40
0.546875000000175
40
0.546875000000175
40
0.562500000000168
40
0.562500000000168
40
0.578125000000161
40
0.578125000000161
40
0.593750000000154
40
0.593750000000154
40
0.609375000000147
40
0.609375000000147
40
0.62500000000014
40
0.62500000000014
40
0.656250000000128
40
0.656250000000128
40
0.687500000000116
40
0.687500000000116
40
0.750000000000093
40
0.750000000000093
40
0.81250000000007
40
0.81250000000007
40
0.875000000000046
40
0.875000000000046
40
1
40
1
40
1
40
1
41
1
10
-48.8107662132844
20
-16.78364404471
30
0
41
1
10
-48.8207523906185
20
-16.9685409667885
30
0
41
1
10
-48.8347977886098
20
-17.1511425735611
30
0
41
1
10
-48.863237913532
20
-17.4208764178835
30
0
41
1
10
-48.8739567807322
20
-17.5100871965657
30
0
41
1
10
-48.8983160849201
20
-17.686856731432
30
0
41
1
10
-48.9119361518275
20
-17.7743014379767
30
0
41
1
10
-48.942707331959
20
-17.9464331182849
30
0
41
1
10
-48.9598453675251
20
-18.0311898138798
30
0
41
1
10
-48.9892122906687
20
-18.1555907930016
30
0
41
1
10
-48.9996172942046
20
-18.1965975884405
30
0
41
1
10
-49.0219813405054
20
-18.2774502519169
30
0
41
1
10
-49.0339246793493
20
-18.3172512505915
30
0
41
1
10
-49.0597546696232
20
-18.3949053757419
30
0
41
1
10
-49.073637087042
20
-18.4328063101043
30
0
41
1
10
-49.0966115318848
20
-18.4875986998503
30
0
41
1
10
-49.1046321805199
20
-18.5055158026077
30
0
41
1
10
-49.1216148192034
20
-18.5404488475259
30
0
41
1
10
-49.1305700741604
20
-18.5574515384199
30
0
41
1
10
-49.1495989668138
20
-18.5899411565922
30
0
41
1
10
-49.1596796879745
20
-18.6054669645305
30
0
41
1
10
-49.176054788648
20
-18.62716344419
30
0
41
1
10
-49.1817244171715
20
-18.6341273644391
30
0
41
1
10
-49.1936049787255
20
-18.6473679087015
30
0
41
1
10
-49.1998257683411
20
-18.6536519281458
30
0
41
1
10
-49.2128308013286
20
-18.6651655634118
30
0
41
1
10
-49.2196268301044
20
-18.6704154850799
30
0
41
1
10
-49.2340213128811
20
-18.6795295393591
30
0
41
1
10
-49.2416110529625
20
-18.6833766183821
30
0
41
1
10
-49.2575031351019
20
-18.6889472762516
30
0
41
1
10
-49.2658380493685
20
-18.6907070327501
30
0
41
1
10
-49.2791862436771
20
-18.6911159849312
30
0
41
1
10
-49.2837741648609
20
-18.690867368687
30
0
41
1
10
-49.2930003400939
20
-18.6895099395688
30
0
41
1
10
-49.2976697254009
20
-18.6884036564132
30
0
41
1
10
-49.3071329803953
20
-18.6852456585687
30
0
41
1
10
-49.3119684578652
20
-18.6831674656065
30
0
41
1
10
-49.3214736463003
20
-18.6781349241722
30
0
41
1
10
-49.326162183721
20
-18.6751829312236
30
0
41
1
10
-49.3354171762962
20
-18.668448526696
30
0
41
1
10
-49.3400042746418
20
-18.6646466503155
30
0
41
1
10
-49.3489704146131
20
-18.6563337006182
30
0
41
1
10
-49.3576061787898
20
-18.647437117022
30
0
41
1
10
-49.365686905043
20
-18.6375600168368
30
0
41
1
10
-49.3735293784244
20
-18.6272620248831
30
0
41
1
10
-49.3773481206101
20
-18.6218767227387
30
0
41
1
10
-49.388350201165
20
-18.6053899964797
30
0
41
1
10
-49.3950862147046
20
-18.5939828719792
30
0
41
1
10
-49.4077343741284
20
-18.570596210526
30
0
41
1
10
-49.4136422709847
20
-18.5586137214044
30
0
41
1
10
-49.4248380081823
20
-18.5342179360188
30
0
41
1
10
-49.4301027025763
20
-18.5218459068418
30
0
41
1
10
-49.444967871985
20
-18.4847742162963
30
0
41
1
10
-49.4537487107808
20
-18.4599209641362
30
0
41
1
10
-49.4699151336038
20
-18.4100429780577
30
0
41
1
10
-49.477286490078
20
-18.3850164955225
30
0
41
1
10
-49.4910331687122
20
-18.3348411143031
30
0
41
1
10
-49.4974039377011
20
-18.309691656018
30
0
41
1
10
-49.5093887593112
20
-18.2592997363231
30
0
41
1
10
-49.5149900878561
20
-18.2340992840126
30
0
41
1
10
-49.525532410216
20
-18.1839454282598
30
0
41
1
10
-49.5304827245516
20
-18.1589486032538
30
0
41
1
10
-49.5445644756583
20
-18.0841501652783
30
0
41
1
10
-49.5529365392994
20
-18.0345381379896
30
0
41
1
10
-49.5682708760771
20
-17.9356660527958
30
0
41
1
10
-49.5752262670634
20
-17.8864077130936
30
0
41
1
10
-49.5944919615919
20
-17.7390322706654
30
0
41
1
10
-49.60522820112
20
-17.6413081499739
30
0
41
1
10
-49.6239958360568
20
-17.446535202058
30
0
41
1
10
-49.6320044071805
20
-17.3494920731621
30
0
41
1
10
-49.646038202798
20
-17.1559009792182
30
0
41
1
10
-49.6520570014112
20
-17.0593244609469
30
0
41
1
10
-49.6677597109614
20
-16.7705987748151
30
0
41
1
10
-49.6751434128412
20
-16.5793088711667
30
0
41
1
10
-49.6803455045439
20
-16.3888633077079
30
0
0
SPLINE
5
194
100
AcDbEntity
8
SK1
62
256
6
ByLayer
370
18
48
1
60
0
100
AcDbSpline
70
4
71
3
72
26
73
22
40
0
40
0
40
0
40
0
40
0.124999999999988
40
0.124999999999988
40
0.156249999999985
40
0.156249999999985
40
0.187499999999983
40
0.187499999999983
40
0.249999999999981
40
0.249999999999981
40
0.374999999999983
40
0.374999999999983
40
0.499999999999986
40
0.499999999999986
40
0.562499999999988
40
0.562499999999988
40
0.624999999999991
40
0.624999999999991
40
0.749999999999994
40
0.749999999999994
40
1
40
1
40
1
40
1
41
1
10
-49.6803455045439
20
-16.3888633077079
30
0
41
1
10
-49.6826466725058
20
-16.3046188817783
30
0
41
1
10
-49.6885779490543
20
-16.2175770741307
30
0
41
1
10
-49.6993728100179
20
-16.1056987249005
30
0
41
1
10
-49.7016978917135
20
-16.0831698556118
30
0
41
1
10
-49.7066424416954
20
-16.0378177461374
30
0
41
1
10
-49.7092669763272
20
-16.0149526655823
30
0
41
1
10
-49.7174822299178
20
-15.9462740562197
30
0
41
1
10
-49.7234030801494
20
-15.9004378613829
30
0
41
1
10
-49.7420007665263
20
-15.7627573300227
30
0
41
1
10
-49.7554901907109
20
-15.6707406700139
30
0
41
1
10
-49.7826003725113
20
-15.4861418061612
30
0
41
1
10
-49.7962305385269
20
-15.3935596611362
30
0
41
1
10
-49.8156911072294
20
-15.2541895927494
30
0
41
1
10
-49.8220175105965
20
-15.2076501594007
30
0
41
1
10
-49.8342006020737
20
-15.1143942032187
30
0
41
1
10
-49.8400654924927
20
-15.0676068524451
30
0
41
1
10
-49.8566753045913
20
-14.9276480792358
30
0
41
1
10
-49.8664422955215
20
-14.8348187950968
30
0
41
1
10
-49.8906557219728
20
-14.5575231178709
30
0
41
1
10
-49.9
20
-14.3742457791333
30
0
41
1
10
-49.9
20
-14.1920931702398
30
0
0
SPLINE
5
195
100
AcDbEntity
8
SK1
62
256
6
ByLayer
370
18
48
1
60
0
100
AcDbSpline
70
4
71
3
72
26
73
22
40
0
40
0
40
0
40
0
40
0.124999999999994
40
0.124999999999994
40
0.156249999999993
40
0.156249999999993
40
0.187499999999992
40
0.187499999999992
40
0.249999999999994
40
0.249999999999994
40
0.374999999999995
40
0.374999999999995
40
0.499999999999995
40
0.499999999999995
40
0.562499999999995
40
0.562499999999995
40
0.624999999999994
40
0.624999999999994
40
0.749999999999996
40
0.749999999999996
40
1
40
1
40
1
40
1
41
1
10
-49.6803455045439
20
16.388863307708
30
0
41
1
10
-49.6826466725058
20
16.3046188817784
30
0
41
1
10
-49.6885779490542
20
16.2175770741308
30
0
41
1
10
-49.6993728100178
20
16.1056987249006
30
0
41
1
10
-49.7016978917135
20
16.0831698556119
30
0
41
1
10
-49.7066424416954
20
16.0378177461375
30
0
41
1
10
-49.7092669763272
20
16.0149526655824
30
0
41
1
10
-49.7174822299178
20
15.9462740562198
30
0
41
1
10
-49.7234030801493
20
15.900437861383
30
0
41
1
10
-49.7420007665262
20
15.7627573300228
30
0
41
1
10
-49.7554901907109
20
15.670740670014
30
0
41
1
10
-49.7826003725112
20
15.4861418061612
30
0
41
1
10
-49.7962305385269
20
15.3935596611362
30
0
41
1
10
-49.8156911072293
20
15.2541895927495
30
0
41
1
10
-49.8220175105965
20
15.2076501594007
30
0
41
1
10
-49.8342006020737
20
15.1143942032188
30
0
41
1
10
-49.8400654924927
20
15.0676068524452
30
0
41
1
10
-49.8566753045913
20
14.9276480792358
30
0
41
1
10
-49.8664422955215
20
14.8348187950969
30
0
41
1
10
-49.8906557219728
20
14.5575231178709
30
0
41
1
10
-49.9
20
14.3742457791333
30
0
41
1
10
-49.9
20
14.1920931702398
30
0
0
SPLINE
5
196
100
AcDbEntity
8
SK1
62
256
6
ByLayer
370
18
48
1
60
0
100
AcDbSpline
70
4
71
3
72
79
73
75
40
0
40
0
40
0
40
0
40
0.124999999999977
40
0.124999999999977
40
0.187499999999966
40
0.187499999999966
40
0.249999999999954
40
0.249999999999954
40
0.312499999999942
40
0.312499999999942
40
0.343749999999937
40
0.343749999999937
40
0.374999999999932
40
0.374999999999932
40
0.406249999999927
40
0.406249999999927
40
0.421874999999924
40
0.421874999999924
40
0.437499999999921
40
0.437499999999921
40
0.453124999999919
40
0.453124999999919
40
0.460937499999918
40
0.460937499999918
40
0.468749999999917
40
0.468749999999917
40
0.476562499999916
40
0.476562499999916
40
0.484374999999916
40
0.484374999999916
40
0.492187499999915
40
0.492187499999915
40
0.496093749999914
40
0.496093749999914
40
0.499999999999913
40
0.499999999999913
40
0.503906249999911
40
0.503906249999911
40
0.50781249999991
40
0.50781249999991
40
0.511718749999909
40
0.511718749999909
40
0.515624999999908
40
0.519531249999907
40
0.519531249999907
40
0.523437499999906
40
0.523437499999906
40
0.531249999999906
40
0.531249999999906
40
0.539062499999906
40
0.539062499999906
40
0.546874999999907
40
0.546874999999907
40
0.562499999999909
40
0.562499999999909
40
0.578124999999911
40
0.578124999999911
40
0.593749999999913
40
0.593749999999913
40
0.609374999999915
40
0.609374999999915
40
0.624999999999917
40
0.624999999999917
40
0.656249999999924
40
0.656249999999924
40
0.687499999999931
40
0.687499999999931
40
0.749999999999945
40
0.749999999999945
40
0.812499999999958
40
0.812499999999958
40
0.874999999999972
40
0.874999999999972
40
1
40
1
40
1
40
1
41
1
10
-48.8107662132844
20
16.7836440447101
30
0
41
1
10
-48.8207523906186
20
16.9685409667885
30
0
41
1
10
-48.8347977886099
20
17.1511425735611
30
0
41
1
10
-48.8632379135321
20
17.4208764178834
30
0
41
1
10
-48.8739567807322
20
17.5100871965656
30
0
41
1
10
-48.8983160849202
20
17.6868567314319
30
0
41
1
10
-48.9119361518275
20
17.7743014379765
30
0
41
1
10
-48.942707331959
20
17.9464331182846
30
0
41
1
10
-48.9598453675251
20
18.0311898138796
30
0
41
1
10
-48.9892122906687
20
18.1555907930013
30
0
41
1
10
-48.9996172942047
20
18.1965975884403
30
0
41
1
10
-49.0219813405054
20
18.2774502519167
30
0
41
1
10
-49.0339246793494
20
18.3172512505911
30
0
41
1
10
-49.0597546696231
20
18.3949053757415
30
0
41
1
10
-49.073637087042
20
18.432806310104
30
0
41
1
10
-49.0966115318848
20
18.48759869985
30
0
41
1
10
-49.1046321805198
20
18.5055158026073
30
0
41
1
10
-49.1216148192033
20
18.5404488475255
30
0
41
1
10
-49.1305700741602
20
18.5574515384196
30
0
41
1
10
-49.1495989668137
20
18.5899411565919
30
0
41
1
10
-49.1596796879744
20
18.6054669645301
30
0
41
1
10
-49.1760547886479
20
18.6271634441897
30
0
41
1
10
-49.1817244171714
20
18.6341273644388
30
0
41
1
10
-49.1936049787253
20
18.6473679087012
30
0
41
1
10
-49.1998257683409
20
18.6536519281455
30
0
41
1
10
-49.2128308013284
20
18.6651655634115
30
0
41
1
10
-49.2196268301043
20
18.6704154850796
30
0
41
1
10
-49.2340213128809
20
18.6795295393588
30
0
41
1
10
-49.2416110529624
20
18.6833766183819
30
0
41
1
10
-49.2575031351017
20
18.6889472762514
30
0
41
1
10
-49.2658380493683
20
18.6907070327499
30
0
41
1
10
-49.2791862436769
20
18.691115984931
30
0
41
1
10
-49.2837741648607
20
18.6908673686869
30
0
41
1
10
-49.2930003400937
20
18.6895099395687
30
0
41
1
10
-49.2976697254007
20
18.688403656413
30
0
41
1
10
-49.3071329803951
20
18.6852456585686
30
0
41
1
10
-49.311968457865
20
18.6831674656063
30
0
41
1
10
-49.3214736463001
20
18.6781349241721
30
0
41
1
10
-49.3261621837208
20
18.6751829312236
30
0
41
1
10
-49.3354171762959
20
18.668448526696
30
0
41
1
10
-49.3400042746415
20
18.6646466503155
30
0
41
1
10
-49.348970414613
20
18.6563337006182
30
0
41
1
10
-49.3576061787896
20
18.647437117022
30
0
41
1
10
-49.3656869050428
20
18.6375600168369
30
0
41
1
10
-49.3735293784242
20
18.6272620248832
30
0
41
1
10
-49.37734812061
20
18.6218767227387
30
0
41
1
10
-49.3883502011648
20
18.6053899964797
30
0
41
1
10
-49.3950862147044
20
18.5939828719793
30
0
41
1
10
-49.4077343741282
20
18.5705962105261
30
0
41
1
10
-49.4136422709845
20
18.5586137214044
30
0
41
1
10
-49.4248380081821
20
18.5342179360189
30
0
41
1
10
-49.4301027025762
20
18.5218459068419
30
0
41
1
10
-49.4449678719849
20
18.4847742162964
30
0
41
1
10
-49.4537487107807
20
18.4599209641363
30
0
41
1
10
-49.4699151336037
20
18.4100429780578
30
0
41
1
10
-49.4772864900779
20
18.3850164955225
30
0
41
1
10
-49.4910331687121
20
18.3348411143032
30
0
41
1
10
-49.497403937701
20
18.3096916560181
30
0
41
1
10
-49.5093887593112
20
18.2592997363232
30
0
41
1
10
-49.5149900878561
20
18.2340992840126
30
0
41
1
10
-49.5255324102159
20
18.1839454282599
30
0
41
1
10
-49.5304827245516
20
18.1589486032539
30
0
41
1
10
-49.5445644756583
20
18.0841501652784
30
0
41
1
10
-49.5529365392994
20
18.0345381379897
30
0
41
1
10
-49.5682708760771
20
17.9356660527959
30
0
41
1
10
-49.5752262670634
20
17.8864077130937
30
0
41
1
10
-49.5944919615919
20
17.7390322706655
30
0
41
1
10
-49.6052282011199
20
17.641308149974
30
0
41
1
10
-49.6239958360567
20
17.446535202058
30
0
41
1
10
-49.6320044071804
20
17.3494920731622
30
0
41
1
10
-49.6460382027979
20
17.1559009792183
30
0
41
1
10
-49.6520570014112
20
17.059324460947
30
0
41
1
10
-49.6677597109614
20
16.7705987748152
30
0
41
1
10
-49.6751434128412
20
16.5793088711668
30
0
41
1
10
-49.6803455045439
20
16.388863307708
30
0
0
SPLINE
5
197
100
AcDbEntity
8
SK1
62
256
6
ByLayer
370
18
48
1
60
0
100
AcDbSpline
70
4
71
3
72
22
73
18
40
0
40
0
40
0
40
0
40
0.249999999999995
40
0.249999999999995
40
0.374999999999996
40
0.374999999999996
40
0.499999999999996
40
0.499999999999996
40
0.624999999999997
40
0.624999999999997
40
0.749999999999997
40
0.749999999999997
40
0.874999999999998
40
0.874999999999998
40
0.937499999999999
40
0.937499999999999
40
1
40
1
40
1
40
1
41
1
10
-48.20375
20
15.1019212913179
30
0
41
1
10
-48.2737896568834
20
15.2420308432048
30
0
41
1
10
-48.3417739186829
20
15.3802391073468
30
0
41
1
10
-48.4388914764234
20
15.5858968916662
30
0
41
1
10
-48.4704434350605
20
15.6541805613641
30
0
41
1
10
-48.531401090616
20
15.7905514952447
30
0
41
1
10
-48.5608102877275
20
15.8586361890738
30
0
41
1
10
-48.6167419021676
20
15.99511626323
30
0
41
1
10
-48.6432690328275
20
16.0635082821252
30
0
41
1
10
-48.6923318001705
20
16.2013692932474
30
0
41
1
10
-48.7148712626935
20
16.2708358902596
30
0
41
1
10
-48.7543493944711
20
16.4119679515416
30
0
41
1
10
-48.7712829155222
20
16.4836382818077
30
0
41
1
10
-48.7908820151232
20
16.5938963424684
30
0
41
1
10
-48.7964443706483
20
16.6311101972906
30
0
41
1
10
-48.8053459563062
20
16.7066481300675
30
0
41
1
10
-48.8086824422018
20
16.745062428689
30
0
41
1
10
-48.8107662132841
20
16.7836440447102
30
0
0
SPLINE
5
198
100
AcDbEntity
8
SK1
62
256
6
ByLayer
370
18
48
1
60
0
100
AcDbSpline
70
4
71
3
72
8
73
4
40
0
40
0
40
0
40
0
40
1
40
1
40
1
40
1
41
1
10
-48.2037500000014
20
15.1019212913229
30
0
41
1
10
-48.1381154484482
20
15.1287112305897
30
0
41
1
10
-48.0704205135131
20
15.1479701459218
30
0
41
1
10
-48.0000748840326
20
15.157561864173
30
0
0
SPLINE
5
199
100
AcDbEntity
8
SK1
62
256
6
ByLayer
370
18
48
1
60
0
100
AcDbSpline
70
2053
71
3
72
199
73
195
40
0
40
0
40
0
40
0
40
0.015625
40
0.015625
40
0.0312499999999999
40
0.0312499999999999
40
0.0390624999999999
40
0.0390624999999999
40
0.04296875
40
0.04296875
40
0.0468750000000001
40
0.0468750000000001
40
0.0625000000000005
40
0.078125000000001
40
0.078125000000001
40
0.0937500000000014
40
0.0937500000000014
40
0.0976562500000016
40
0.0976562500000016
40
0.101562500000002
40
0.101562500000002
40
0.109375000000002
40
0.109375000000002
40
0.125000000000003
40
0.125000000000003
40
0.140625000000003
40
0.140625000000003
40
0.144531250000003
40
0.144531250000003
40
0.148437500000003
40
0.148437500000003
40
0.156250000000004
40
0.156250000000004
40
0.171875000000004
40
0.171875000000004
40
0.187500000000005
40
0.187500000000005
40
0.191406250000005
40
0.191406250000005
40
0.195312500000005
40
0.195312500000005
40
0.203125000000005
40
0.203125000000005
40
0.218750000000006
40
0.218750000000006
40
0.234375000000006
40
0.234375000000006
40
0.242187500000006
40
0.242187500000006
40
0.246093750000006
40
0.246093750000006
40
0.250000000000007
40
0.250000000000007
40
0.265625000000007
40
0.265625000000007
40
0.281250000000008
40
0.281250000000008
40
0.289062500000008
40
0.289062500000008
40
0.292968750000008
40
0.292968750000008
40
0.296875000000008
40
0.296875000000008
40
0.312500000000008
40
0.312500000000008
40
0.328125000000009
40
0.343750000000009
40
0.343750000000009
40
0.347656250000009
40
0.347656250000009
40
0.351562500000009
40
0.351562500000009
40
0.359375000000009
40
0.359375000000009
40
0.375000000000009
40
0.390625000000009
40
0.390625000000009
40
0.40625000000001
40
0.40625000000001
40
0.41406250000001
40
0.41406250000001
40
0.42187500000001
40
0.42187500000001
40
0.43750000000001
40
0.43750000000001
40
0.45312500000001
40
0.45312500000001
40
0.46093750000001
40
0.46093750000001
40
0.46484375000001
40
0.46484375000001
40
0.46875000000001
40
0.46875000000001
40
0.48437500000001
40
0.500000000000009
40
0.500000000000009
40
0.515625000000009
40
0.515625000000009
40
0.523437500000009
40
0.523437500000009
40
0.527343750000008
40
0.527343750000008
40
0.531250000000008
40
0.531250000000008
40
0.546875000000008
40
0.546875000000008
40
0.562500000000008
40
0.562500000000008
40
0.578125000000007
40
0.578125000000007
40
0.582031250000007
40
0.582031250000007
40
0.585937500000007
40
0.593750000000007
40
0.593750000000007
40
0.609375000000007
40
0.609375000000007
40
0.625000000000007
40
0.625000000000007
40
0.628906250000007
40
0.628906250000007
40
0.632812500000007
40
0.632812500000007
40
0.640625000000007
40
0.640625000000007
40
0.656250000000007
40
0.656250000000007
40
0.671875000000007
40
0.671875000000007
40
0.675781250000007
40
0.675781250000007
40
0.679687500000007
40
0.679687500000007
40
0.687500000000007
40
0.687500000000007
40
0.703125000000007
40
0.703125000000007
40
0.718750000000007
40
0.718750000000007
40
0.722656250000007
40
0.722656250000007
40
0.726562500000007
40
0.726562500000007
40
0.734375000000007
40
0.734375000000007
40
0.750000000000007
40
0.750000000000007
40
0.765625000000007
40
0.765625000000007
40
0.773437500000007
40
0.773437500000007
40
0.777343750000007
40
0.777343750000007
40
0.781250000000007
40
0.781250000000007
40
0.796875000000007
40
0.796875000000007
40
0.812500000000007
40
0.828125000000007
40
0.828125000000007
40
0.832031250000007
40
0.832031250000007
40
0.835937500000007
40
0.843750000000007
40
0.843750000000007
40
0.859375000000006
40
0.875000000000005
40
0.875000000000005
40
0.882812500000005
40
0.882812500000005
40
0.886718750000005
40
0.886718750000005
40
0.890625000000005
40
0.890625000000005
40
0.906250000000004
40
0.921875000000004
40
0.921875000000004
40
0.937500000000003
40
0.937500000000003
40
0.945312500000003
40
0.945312500000003
40
0.949218750000003
40
0.949218750000003
40
0.953125000000003
40
0.953125000000003
40
0.968750000000002
40
0.968750000000002
40
0.984375000000001
40
0.984375000000001
40
0.9921875
40
0.9921875
40
0.99609375
40
0.99609375
40
1
40
1
40
1
40
1
41
1
10
-19.2409013463647
20
-4.68080028297888
30
0
41
1
10
-19.4079621433098
20
-4.54192515802683
30
0
41
1
10
-19.5670665156176
20
-4.3959088125365
30
0
41
1
10
-19.8694655070935
20
-4.08965357791703
30
0
41
1
10
-20.0127608800019
20
-3.92941542119291
30
0
41
1
10
-20.2155634753266
20
-3.67811209595402
30
0
41
1
10
-20.2811371228695
20
-3.5925165438729
30
0
41
1
10
-20.3763842148996
20
-3.46131312171787
30
0
41
1
10
-20.4076140766386
20
-3.41711005267425
30
0
41
1
10
-20.469019912
20
-3.32775219492208
30
0
41
1
10
-20.4992345528522
20
-3.28253591113366
30
0
41
1
10
-20.6469059096212
20
-3.0551645395735
30
0
41
1
10
-20.8621469588936
20
-2.68225303730964
30
0
41
1
10
-21.0359493662655
20
-2.29134285179632
30
0
41
1
10
-21.1887006096658
20
-1.89127361303633
30
0
41
1
10
-21.2545540746264
20
-1.68666097269678
30
0
41
1
10
-21.3230762842395
20
-1.4248854721009
30
0
41
1
10
-21.3360891245397
20
-1.372229079238
30
0
41
1
10
-21.3607076585596
20
-1.2663031177255
30
0
41
1
10
-21.3722793633372
20
-1.21317185000029
30
0
41
1
10
-21.4046753803779
20
-1.05383589651714
30
0
41
1
10
-21.4232362020401
20
-0.947458959524255
30
0
41
1
10
-21.4699539975404
20
-0.627876369739084
30
0
41
1
10
-21.4891691148553
20
-0.414220069648906
30
0
41
1
10
-21.5039397224734
20
0.0142853874746436
30
0
41
1
10
-21.4994960718303
20
0.229134501321511
30
0
41
1
10
-21.4788146901815
20
0.498458475949832
30
0
41
1
10
-21.4739201863398
20
0.552361493605673
30
0
41
1
10
-21.4625984188042
20
0.660244788432323
30
0
41
1
10
-21.456159678233
20
0.714307581104691
30
0
41
1
10
-21.4346038918093
20
0.875966706582147
30
0
41
1
10
-21.4172853236874
20
0.982846594827464
30
0
41
1
10
-21.3567175465797
20
1.30087888542042
30
0
41
1
10
-21.3048787016907
20
1.50943061979979
30
0
41
1
10
-21.1789309579674
20
1.91979865856709
30
0
41
1
10
-21.1048206678252
20
2.12161452986083
30
0
41
1
10
-20.998226662612
20
2.36966972430028
30
0
41
1
10
-20.9762083560189
20
2.41906952452885
30
0
41
1
10
-20.9307649649809
20
2.51744448695058
30
0
41
1
10
-20.9073116441753
20
2.56647622608861
30
0
41
1
10
-20.8350267778472
20
2.71252631781047
30
0
41
1
10
-20.7844346280646
20
2.80818883827374
30
0
41
1
10
-20.6256720613505
20
3.09022486681877
30
0
41
1
10
-20.5105338999628
20
3.27165981222919
30
0
41
1
10
-20.2623510498034
20
3.62186416748872
30
0
41
1
10
-20.129304333472
20
3.79063209878191
30
0
41
1
10
-19.91638920189
20
4.03436613204042
30
0
41
1
10
-19.8431890827454
20
4.11403818660335
30
0
41
1
10
-19.7300188924891
20
4.23117080081329
30
0
41
1
10
-19.6918185387117
20
4.26972937335211
30
0
41
1
10
-19.6146633567857
20
4.34570124507349
30
0
41
1
10
-19.5756796286264
20
4.38314455220441
30
0
41
1
10
-19.3787599051636
20
4.56768879385652
30
0
41
1
10
-19.2148365238777
20
4.70679413172118
30
0
41
1
10
-18.874706095973
20
4.96863291930705
30
0
41
1
10
-18.6984974556378
20
5.09136418851546
30
0
41
1
10
-18.4250584232746
20
5.26332042785435
30
0
41
1
10
-18.3323883185654
20
5.31861205123644
30
0
41
1
10
-18.1910840451221
20
5.39849359616358
30
0
41
1
10
-18.1435992640364
20
5.42461123504353
30
0
41
1
10
-18.0478586633437
20
5.47582211800821
30
0
41
1
10
-17.999653619819
20
5.50088641925819
30
0
41
1
10
-17.7578685588757
20
5.6230644943644
30
0
41
1
10
-17.5611877471659
20
5.71121804724854
30
0
41
1
10
-17.1615918134346
20
5.8691502782554
30
0
41
1
10
-16.7557600995884
20
6.00870330299327
30
0
41
1
10
-16.337639291229
20
6.11204125577314
30
0
41
1
10
-16.0724270604448
20
6.16517491060301
30
0
41
1
10
-16.0191898703303
20
6.17522781030428
30
0
41
1
10
-15.9123231813235
20
6.19417766139989
30
0
41
1
10
-15.8587245631856
20
6.203067400138
30
0
41
1
10
-15.6981171897025
20
6.22788100212605
30
0
41
1
10
-15.591046834799
20
6.24199592509535
30
0
41
1
10
-15.2698405249356
20
6.27720887586469
30
0
41
1
10
-14.8415784063018
20
6.30517583358045
30
0
41
1
10
-14.4133472399135
20
6.29598823689682
30
0
41
1
10
-13.9851301278561
20
6.26814199660083
30
0
41
1
10
-13.7710286107101
20
6.24489117648781
30
0
41
1
10
-13.4498827823393
20
6.19558292923176
30
0
41
1
10
-13.3435218403949
20
6.17684029687007
30
0
41
1
10
-13.1324691999273
20
6.13487617353348
30
0
41
1
10
-13.0277242446182
20
6.11164647440771
30
0
41
1
10
-12.7158020909691
20
6.03529266663705
30
0
41
1
10
-12.5109326313958
20
5.97551883088542
30
0
41
1
10
-12.1073058848507
20
5.83827843950013
30
0
41
1
10
-11.9085482732515
20
5.76081297582147
30
0
41
1
10
-11.6150846181189
20
5.63101285807838
30
0
41
1
10
-11.5180434948078
20
5.5854752238717
30
0
41
1
10
-11.3736757629308
20
5.51368214317216
30
0
41
1
10
-11.3257522711256
20
5.48916972742282
30
0
41
1
10
-11.2303086104433
20
5.43896513930909
30
0
41
1
10
-11.1827930088946
20
5.4132729225787
30
0
41
1
10
-10.947483899805
20
5.28253178013958
30
0
41
1
10
-10.5834454180356
20
5.05773403998504
30
0
41
1
10
-10.2439178705042
20
4.80205373514124
30
0
41
1
10
-9.91680582136416
20
4.53064355144804
30
0
41
1
10
-9.75945564033586
20
4.3870761006535
30
0
41
1
10
-9.53315123438247
20
4.15934037540231
30
0
41
1
10
-9.45933976558806
20
4.08136027368144
30
0
41
1
10
-9.35114147531016
20
3.96117214339367
30
0
41
1
10
-9.31544598229641
20
3.92051324995646
30
0
41
1
10
-9.24528651889091
20
3.83854301172633
30
0
41
1
10
-9.21079474785216
20
3.79720387028814
30
0
41
1
10
-9.04126021025354
20
3.58874534224469
30
0
41
1
10
-8.91496798581713
20
3.41635083929177
30
0
41
1
10
-8.681020496972
20
3.06027753813422
30
0
41
1
10
-8.57336408604837
20
2.87659951523889
30
0
41
1
10
-8.3772359796406
20
2.49758251455469
30
0
41
1
10
-8.28875977321567
20
2.30224633672049
30
0
41
1
10
-8.19090987217126
20
2.05030406807342
30
0
41
1
10
-8.17197900693111
20
1.99952589580772
30
0
41
1
10
-8.13542173547239
20
1.89717238781324
30
0
41
1
10
-8.08283436656745
20
1.743256447974
30
0
41
1
10
-8.03692789472026
20
1.58819780942068
30
0
41
1
10
-7.95392293194837
20
1.27657239565909
30
0
41
1
10
-7.91030798153008
20
1.06681498981709
30
0
41
1
10
-7.84653768425611
20
0.643276893043861
30
0
41
1
10
-7.82638053715212
20
0.429496514254083
30
0
41
1
10
-7.81631631923318
20
0.159674034922233
30
0
41
1
10
-7.81506199719578
20
0.105579369051867
30
0
41
1
10
-7.81409015053268
20
-0.0028737044500815
30
0
41
1
10
-7.81437319675589
20
-0.0572605386668386
30
0
41
1
10
-7.81755880079032
20
-0.220644478088502
30
0
41
1
10
-7.82277525436615
20
-0.328966946848027
30
0
41
1
10
-7.84746296604416
20
-0.652180739570952
30
0
41
1
10
-7.87594923909117
20
-0.865322863127545
30
0
41
1
10
-7.95630800773034
20
-1.28707412641489
30
0
41
1
10
-8.00818184115698
20
-1.49568299869586
30
0
41
1
10
-8.08768460032425
20
-1.75360766738268
30
0
41
1
10
-8.10431994992541
20
-1.80505044550239
30
0
41
1
10
-8.13906849712916
20
-1.90765026113797
30
0
41
1
10
-8.15720475983562
20
-1.95886904859859
30
0
41
1
10
-8.21368300526692
20
-2.11165355512418
30
0
41
1
10
-8.25395728953424
20
-2.2120054090054
30
0
41
1
10
-8.38238961887276
20
-2.50870137214946
30
0
41
1
10
-8.47813666461448
20
-2.70069746193477
30
0
41
1
10
-8.68906036100975
20
-3.0735966156966
30
0
41
1
10
-8.80423942718983
20
-3.25449823277162
30
0
41
1
10
-8.96024185584497
20
-3.47378565984053
30
0
41
1
10
-8.99204524157093
20
-3.51730033983827
30
0
41
1
10
-9.05686074403252
20
-3.60364317626261
30
0
41
1
10
-9.08991768817489
20
-3.64652703806885
30
0
41
1
10
-9.19051180539969
20
-3.77364846806404
30
0
41
1
10
-9.25945819389403
20
-3.85635639181203
30
0
41
1
10
-9.47177037849679
20
-4.09856885828645
30
0
41
1
10
-9.6205948104224
20
-4.25217769035021
30
0
41
1
10
-9.93224667064817
20
-4.54435140462192
30
0
41
1
10
-10.0950759132297
20
-4.68291418891747
30
0
41
1
10
-10.3497347334147
20
-4.87962948373189
30
0
41
1
10
-10.4363601056144
20
-4.94334291066102
30
0
41
1
10
-10.5689249705618
20
-5.03611365641081
30
0
41
1
10
-10.6135694470831
20
-5.06658050998942
30
0
41
1
10
-10.7033041255229
20
-5.1262941769383
30
0
41
1
10
-10.7484460371651
20
-5.15557803486215
30
0
41
1
10
-10.9755105570488
20
-5.29917424650947
30
0
41
1
10
-11.1614877435895
20
-5.40503944836129
30
0
41
1
10
-11.5418075549666
20
-5.59944607084668
30
0
41
1
10
-11.9304952583305
20
-5.77652393738069
30
0
41
1
10
-12.3358330572193
20
-5.9193062647613
30
0
41
1
10
-12.5944902635224
20
-5.99763500488751
30
0
41
1
10
-12.6465006823284
20
-6.01275565688368
30
0
41
1
10
-12.7505568730331
20
-6.04176095321793
30
0
41
1
10
-12.9068793539395
20
-6.08347114466181
30
0
41
1
10
-13.0639092621459
20
-6.11985234853935
30
0
41
1
10
-13.3788999335694
20
-6.18562537471328
30
0
41
1
10
-13.8013660213365
20
-6.25471573448982
30
0
41
1
10
-14.2287510066471
20
-6.28705443285702
30
0
41
1
10
-14.5511647728049
20
-6.29733269095115
30
0
41
1
10
-14.6589489955701
20
-6.29842568749291
30
0
41
1
10
-14.8211029615543
20
-6.2965055096202
30
0
41
1
10
-14.875233920426
20
-6.29527191363249
30
0
41
1
10
-14.9836568702168
20
-6.29160441950287
30
0
41
1
10
-15.0379567849357
20
-6.28916817398755
30
0
41
1
10
-15.3084918208501
20
-6.27404245388863
30
0
41
1
10
-15.7373760840781
20
-6.23098839657214
30
0
41
1
10
-16.1584914183471
20
-6.15107122839825
30
0
41
1
10
-16.5757056676582
20
-6.05265688836914
30
0
41
1
10
-16.7823625609795
20
-5.99420257299732
30
0
41
1
10
-17.0893298051161
20
-5.8922253830761
30
0
41
1
10
-17.1911483452332
20
-5.85584634942441
30
0
41
1
10
-17.3431002898168
20
-5.79760514749483
30
0
41
1
10
-17.3936857023474
20
-5.77755215252313
30
0
41
1
10
-17.4942077951299
20
-5.73636257832334
30
0
41
1
10
-17.5441454968067
20
-5.71522786403494
30
0
41
1
10
-17.7922267431611
20
-5.60686963019111
30
0
41
1
10
-17.9855596649833
20
-5.51161088869549
30
0
41
1
10
-18.3620229637573
20
-5.3040289508109
30
0
41
1
10
-18.5451538355531
20
-5.19170662187332
30
0
41
1
10
-18.8120277617516
20
-5.01012005360133
30
0
41
1
10
-18.8996797132134
20
-4.94740348819258
30
0
41
1
10
-19.0291549192911
20
-4.84997125366343
30
0
41
1
10
-19.0719793706082
20
-4.81693400133184
30
0
41
1
10
-19.1569510136826
20
-4.74972367237314
30
0
41
1
10
-19.1991361471285
20
-4.71551906421689
30
0
41
1
10
-19.2409013463647
20
-4.68080028297888
30
0
0
SPLINE
5
19A
100
AcDbEntity
8
SK1
62
256
6
ByLayer
370
18
48
1
60
0
100
AcDbSpline
70
4
71
3
72
48
73
44
40
0
40
0
40
0
40
0
40
0.0078125000000032
40
0.0078125000000032
40
0.0156250000000064
40
0.0156250000000064
40
0.0234375000000096
40
0.0234375000000096
40
0.0273437500000108
40
0.0273437500000108
40
0.031250000000012
40
0.031250000000012
40
0.046875000000011
40
0.046875000000011
40
0.06250000000001
40
0.06250000000001
40
0.0781250000000091
40
0.0781250000000091
40
0.0937500000000081
40
0.0937500000000081
40
0.125000000000007
40
0.125000000000007
40
0.156250000000005
40
0.156250000000005
40
0.187500000000004
40
0.187500000000004
40
0.250000000000003
40
0.250000000000003
40
0.312500000000003
40
0.312500000000003
40
0.375000000000002
40
0.375000000000002
40
0.437500000000002
40
0.437500000000002
40
0.500000000000002
40
0.500000000000002
40
0.625000000000001
40
0.625000000000001
40
0.750000000000001
40
0.750000000000001
40
0.875000000000001
40
0.875000000000001
40
1
40
1
40
1
40
1
41
1
10
-40.216558266844
20
17.059223638729
30
0
41
1
10
-40.2255137164713
20
17.0414928213137
30
0
41
1
10
-40.2360232406994
20
17.024734639259
30
0
41
1
10
-40.2593029922573
20
16.9926331728007
30
0
41
1
10
-40.2720804381836
20
16.9772944062159
30
0
41
1
10
-40.2993863508484
20
16.9477127888347
30
0
41
1
10
-40.3139180690732
20
16.9334719730028
30
0
41
1
10
-40.3367709283963
20
16.9127712294338
30
0
41
1
10
-40.3445719684935
20
16.9059773658596
30
0
41
1
10
-40.3603555141485
20
16.8927024516855
30
0
41
1
10
-40.3683549864992
20
16.8862055661667
30
0
41
1
10
-40.4088261315397
20
16.8543395329437
30
0
41
1
10
-40.4426888294718
20
16.8307859893159
30
0
41
1
10
-40.5123481174603
20
16.7862031287604
30
0
41
1
10
-40.5481587326132
20
16.7651921171124
30
0
41
1
10
-40.6211874460021
20
16.7250072696351
30
0
41
1
10
-40.6584106043895
20
16.7058400382047
30
0
41
1
10
-40.7339380973458
20
16.6689168682472
30
0
41
1
10
-40.7722695231471
20
16.651155671117
30
0
41
1
10
-40.8877452477218
20
16.5999068760185
30
0
41
1
10
-40.965655850879
20
16.5682722372605
30
0
41
1
10
-41.1226933524388
20
16.5083250680503
30
0
41
1
10
-41.2018286497807
20
16.4800354743394
30
0
41
1
10
-41.3609886301097
20
16.4258856416439
30
0
41
1
10
-41.4410163846208
20
16.4000337907036
30
0
41
1
10
-41.6821282190399
20
16.3252879649916
30
0
41
1
10
-41.8442249466182
20
16.2791602328019
30
0
41
1
10
-42.1701904312219
20
16.1917461714862
30
0
41
1
10
-42.3340718337276
20
16.1504943758749
30
0
41
1
10
-42.6631293631878
20
16.071528736924
30
0
41
1
10
-42.8283060210512
20
16.033830314406
30
0
41
1
10
-43.1589860239044
20
15.9613013872945
30
0
41
1
10
-43.324590035516
20
15.9264524231626
30
0
41
1
10
-43.6562168288383
20
15.8589999841604
30
0
41
1
10
-43.8222401780398
20
15.8263995506818
30
0
41
1
10
-44.3208262630884
20
15.7313656079108
30
0
41
1
10
-44.6538993113537
20
15.6716687738745
30
0
41
1
10
-45.3210244711679
20
15.5575268786883
30
0
41
1
10
-45.6550802301057
20
15.5031013652068
30
0
41
1
10
-46.3239463383711
20
15.3982990923323
30
0
41
1
10
-46.65875825511
20
15.3479307332504
30
0
41
1
10
-47.3289877270329
20
15.2504444926014
30
0
41
1
10
-47.6644060538692
20
15.2033307465867
30
0
41
1
10
-48.0000748840305
20
15.1575618641653
30
0
0
SPLINE
5
19B
100
AcDbEntity
8
SK1
62
256
6
ByLayer
370
18
48
1
60
0
100
AcDbSpline
70
4
71
3
72
34
73
30
40
0
40
0
40
0
40
0
40
0.124999999999992
40
0.124999999999992
40
0.187499999999989
40
0.187499999999989
40
0.249999999999985
40
0.249999999999985
40
0.374999999999982
40
0.374999999999982
40
0.499999999999978
40
0.499999999999978
40
0.624999999999975
40
0.624999999999975
40
0.687499999999975
40
0.687499999999975
40
0.718749999999978
40
0.718749999999978
40
0.749999999999981
40
0.749999999999981
40
0.812499999999987
40
0.812499999999987
40
0.874999999999993
40
0.874999999999993
40
0.906249999999994
40
0.906249999999994
40
0.937499999999994
40
0.937499999999994
40
1
40
1
40
1
40
1
41
1
10
-36.7
20
19.5943714322653
30
0
41
1
10
-36.8711858974658
20
19.5187882816346
30
0
41
1
10
-37.0413761276148
20
19.4410544812258
30
0
41
1
10
-37.2948644625377
20
19.3205722232495
30
0
41
1
10
-37.3790601632171
20
19.2797625803873
30
0
41
1
10
-37.5467865215208
20
19.1967067960703
30
0
41
1
10
-37.6303668864447
20
19.1544341959407
30
0
41
1
10
-37.8793229252197
20
19.0255688660013
30
0
41
1
10
-38.0430828929572
20
18.936869767415
30
0
41
1
10
-38.3651311639746
20
18.7525689434652
30
0
41
1
10
-38.5234281179983
20
18.656978131208
30
0
41
1
10
-38.8330297808163
20
18.4569756333508
30
0
41
1
10
-38.9843528118257
20
18.3525870616341
30
0
41
1
10
-39.204310734814
20
18.1871399617284
30
0
41
1
10
-39.2764508160516
20
18.1305033079847
30
0
41
1
10
-39.3825571315545
20
18.0428943287214
30
0
41
1
10
-39.4175205711071
20
18.0132908248446
30
0
41
1
10
-39.4864156420775
20
17.9533489086636
30
0
41
1
10
-39.5203702139022
20
17.922991733576
30
0
41
1
10
-39.6206319685333
20
17.8306651370866
30
0
41
1
10
-39.6853447054721
20
17.7674465321357
30
0
41
1
10
-39.8097036218329
20
17.6370398802925
30
0
41
1
10
-39.8693539749137
20
17.5698551032924
30
0
41
1
10
-39.954209950325
20
17.4654587047784
30
0
41
1
10
-39.9817772423315
20
17.4299762589511
30
0
41
1
10
-40.0347710714733
20
17.3582459732121
30
0
41
1
10
-40.0602303319981
20
17.3219648769856
30
0
41
1
10
-40.1332638811575
20
17.211781021376
30
0
41
1
10
-40.1775061488117
20
17.1365425901306
30
0
41
1
10
-40.2165582668442
20
17.059223638729
30
0
0
SPLINE
5
19C
100
AcDbEntity
8
SK1
62
256
6
ByLayer
370
18
48
1
60
0
100
AcDbSpline
70
4
71
3
72
48
73
44
40
0
40
0
40
0
40
0
40
0.0156249999999946
40
0.0156249999999946
40
0.0234374999999954
40
0.0234374999999954
40
0.0312499999999962
40
0.0312499999999962
40
0.0468749999999978
40
0.0468749999999978
40
0.0624999999999994
40
0.0624999999999994
40
0.0781250000000009
40
0.0781250000000009
40
0.0937500000000025
40
0.0937500000000025
40
0.109375000000004
40
0.109375000000004
40
0.125000000000006
40
0.125000000000006
40
0.156250000000009
40
0.156250000000009
40
0.187500000000012
40
0.187500000000012
40
0.218750000000015
40
0.218750000000015
40
0.250000000000018
40
0.250000000000018
40
0.312500000000019
40
0.312500000000019
40
0.37500000000002
40
0.37500000000002
40
0.50000000000002
40
0.50000000000002
40
0.625000000000019
40
0.625000000000019
40
0.687500000000017
40
0.687500000000017
40
0.750000000000015
40
0.750000000000015
40
0.875000000000007
40
0.875000000000007
40
1
40
1
40
1
40
1
41
1
10
-36.7
20
19.5943714322652
30
0
41
1
10
-36.6847064927801
20
19.6011239245966
30
0
41
1
10
-36.6689495589213
20
19.606533956745
30
0
41
1
10
-36.6444816853446
20
19.6122393245812
30
0
41
1
10
-36.636186502305
20
19.6137381067647
30
0
41
1
10
-36.6192872519424
20
19.6158417285694
30
0
41
1
10
-36.6107241786977
20
19.6164323671957
30
0
41
1
10
-36.5853785832221
20
19.6167731453971
30
0
41
1
10
-36.56862444355
20
19.6151195095693
30
0
41
1
10
-36.5357346965959
20
19.6083384547155
30
0
41
1
10
-36.5201531284729
20
19.6033537549418
30
0
41
1
10
-36.4903068788372
20
19.5909492448109
30
0
41
1
10
-36.4759522241272
20
19.5834551771552
30
0
41
1
10
-36.4490415344061
20
19.5669979824134
30
0
41
1
10
-36.4363973306272
20
19.5580145214643
30
0
41
1
10
-36.4123113260057
20
19.5389249920634
30
0
41
1
10
-36.4008730260034
20
19.5288156830339
30
0
41
1
10
-36.378944237093
20
19.5077087553173
30
0
41
1
10
-36.3684967164129
20
19.4967450442026
30
0
41
1
10
-36.338702963933
20
19.4632611899644
30
0
41
1
10
-36.3207126617917
20
19.4399996960829
30
0
41
1
10
-36.2871772481909
20
19.3922323109071
30
0
41
1
10
-36.2716508048236
20
19.3677172795265
30
0
41
1
10
-36.2424002313829
20
19.3177553300495
30
0
41
1
10
-36.2286825801916
20
19.2923052426748
30
0
41
1
10
-36.202653893522
20
19.2406650245474
30
0
41
1
10
-36.1903507192283
20
19.2144764267392
30
0
41
1
10
-36.1554101577732
20
19.135614879108
30
0
41
1
10
-36.1345924600216
20
19.0824192067565
30
0
41
1
10
-36.0963204719529
20
18.9751216696352
30
0
41
1
10
-36.0788871273222
20
18.9210153343339
30
0
41
1
10
-36.0304065848838
20
18.7575951619308
30
0
41
1
10
-36.0031175776361
20
18.6471931439649
30
0
41
1
10
-35.9551394416825
20
18.4242023644288
30
0
41
1
10
-35.9345079681282
20
18.3116013530288
30
0
41
1
10
-35.9073321932439
20
18.1413017298616
30
0
41
1
10
-35.898907403912
20
18.0842741447289
30
0
41
1
10
-35.8832202583696
20
17.969946122596
30
0
41
1
10
-35.8759565129337
20
17.9126393974611
30
0
41
1
10
-35.8557366578801
20
17.7403057928126
30
0
41
1
10
-35.8443429695231
20
17.6248663053036
30
0
41
1
10
-35.8251190973012
20
17.3929387252693
30
0
41
1
10
-35.8172926438243
20
17.2764502997123
30
0
41
1
10
-35.8110727855048
20
17.159451795297
30
0
0
SPLINE
5
19D
100
AcDbEntity
8
SK1
62
256
6
ByLayer
370
18
48
1
60
0
100
AcDbSpline
70
4
71
3
72
35
73
31
40
0
40
0
40
0
40
0
40
0.0312500000000014
40
0.0312500000000014
40
0.0625000000000028
40
0.0625000000000028
40
0.125000000000002
40
0.125000000000002
40
0.187500000000002
40
0.250000000000001
40
0.250000000000001
40
0.312500000000001
40
0.312500000000001
40
0.375
40
0.375
40
0.4375
40
0.4375
40
0.499999999999999
40
0.499999999999999
40
0.625
40
0.625
40
0.75
40
0.75
40
0.875
40
0.875
40
0.937499999999999
40
0.937499999999999
40
0.96875
40
0.96875
40
1
40
1
40
1
40
1
41
1
10
-35.8110727855048
20
17.1594517952971
30
0
41
1
10
-35.8087298228675
20
17.1153795495348
30
0
41
1
10
-35.8050508230864
20
17.0710748782621
30
0
41
1
10
-35.7952802677078
20
16.9831258265325
30
0
41
1
10
-35.7891941023362
20
16.939414349657
30
0
41
1
10
-35.7677724345513
20
16.8089604777204
30
0
41
1
10
-35.7492796314845
20
16.7228974439837
30
0
41
1
10
-35.7063448295786
20
16.5519632356002
30
0
41
1
10
-35.6574841798203
20
16.3822146941405
30
0
41
1
10
-35.6011189614965
20
16.2137335629906
30
0
41
1
10
-35.5427113205105
20
16.0454473330699
30
0
41
1
10
-35.5124828131835
20
15.9614025510421
30
0
41
1
10
-35.451273417161
20
15.793173337961
30
0
41
1
10
-35.4202890471679
20
15.7089897726496
30
0
41
1
10
-35.3585507750323
20
15.5402247287571
30
0
41
1
10
-35.3277941195328
20
15.4556439431823
30
0
41
1
10
-35.2672824740689
20
15.285878630315
30
0
41
1
10
-35.2375212676654
20
15.2006809286597
30
0
41
1
10
-35.1507682862352
20
14.9441756141248
30
0
41
1
10
-35.0963122006996
20
14.771892362452
30
0
41
1
10
-34.9982266523963
20
14.423908822598
30
0
41
1
10
-34.954568412715
20
14.2482143036154
30
0
41
1
10
-34.8815423282893
20
13.8926526826871
30
0
41
1
10
-34.8521479202448
20
13.7127911134685
30
0
41
1
10
-34.8215668767947
20
13.4392473053495
30
0
41
1
10
-34.8136291543811
20
13.3474397649972
30
0
41
1
10
-34.8055331814597
20
13.2086935714257
30
0
41
1
10
-34.8034705654414
20
13.1622349451048
30
0
41
1
10
-34.8007057879732
20
13.0693817557498
30
0
41
1
10
-34.8
20
13.0229430006227
30
0
41
1
10
-34.8
20
12.9764932793006
30
0
0
SPLINE
5
19E
100
AcDbEntity
8
SK1
62
256
6
ByLayer
370
18
48
1
60
0
100
AcDbSpline
70
4
71
3
72
35
73
31
40
0
40
0
40
0
40
0
40
0.125
40
0.125
40
0.15625
40
0.15625
40
0.187500000000001
40
0.187500000000001
40
0.250000000000003
40
0.375000000000005
40
0.375000000000005
40
0.500000000000006
40
0.500000000000006
40
0.625000000000008
40
0.625000000000008
40
0.687500000000007
40
0.687500000000007
40
0.750000000000006
40
0.750000000000006
40
0.812500000000004
40
0.812500000000004
40
0.875000000000003
40
0.875000000000003
40
0.937500000000002
40
0.937500000000002
40
0.968750000000001
40
0.968750000000001
40
0.984375000000001
40
0.984375000000001
40
1
40
1
40
1
40
1
41
1
10
-34.8
20
-12.9764932793005
30
0
41
1
10
-34.8
20
-13.1609211825781
30
0
41
1
10
-34.8110844849141
20
-13.344587571555
30
0
41
1
10
-34.83652436556
20
-13.5732554377875
30
0
41
1
10
-34.8421937565924
20
-13.6189432153546
30
0
41
1
10
-34.8546454515358
20
-13.710227972021
30
0
41
1
10
-34.8614337316711
20
-13.7558569499626
30
0
41
1
10
-34.8833094694193
20
-13.8921076189759
30
0
41
1
10
-34.9331485974905
20
-14.1624951870839
30
0
41
1
10
-34.9990633535392
20
-14.4271685375036
30
0
41
1
10
-35.0975593205889
20
-14.7760192988219
30
0
41
1
10
-35.1521415893961
20
-14.9484135341417
30
0
41
1
10
-35.2678766595549
20
-15.2902518874284
30
0
41
1
10
-35.3290769203068
20
-15.4596840930397
30
0
41
1
10
-35.4216546020565
20
-15.7127082175167
30
0
41
1
10
-35.4526298915758
20
-15.7968724231108
30
0
41
1
10
-35.5138018406873
20
-15.9650581671915
30
0
41
1
10
-35.5439986808527
20
-16.0490705034046
30
0
41
1
10
-35.6023033421074
20
-16.2172357800163
30
0
41
1
10
-35.6304140244393
20
-16.3013881146026
30
0
41
1
10
-35.6828368430513
20
-16.470222640282
30
0
41
1
10
-35.7071477628823
20
-16.5549051807191
30
0
41
1
10
-35.7498136477076
20
-16.7252863215812
30
0
41
1
10
-35.7681560611459
20
-16.8109878632258
30
0
41
1
10
-35.7893804543945
20
-16.940707767269
30
0
41
1
10
-35.7954060923489
20
-16.9841424836669
30
0
41
1
10
-35.8026621054137
20
-17.0496323658143
30
0
41
1
10
-35.8047839611487
20
-17.0715185641744
30
0
41
1
10
-35.8084037182345
20
-17.1154099796996
30
0
41
1
10
-35.8099029406847
20
-17.1374464557325
30
0
41
1
10
-35.8110727855048
20
-17.1594517952971
30
0
0
SPLINE
5
19F
100
AcDbEntity
8
SK1
62
256
6
ByLayer
370
18
48
1
60
0
100
AcDbSpline
70
4
71
3
72
53
73
49
40
0
40
0
40
0
40
0
40
0.125000000000004
40
0.125000000000004
40
0.250000000000008
40
0.250000000000008
40
0.375000000000013
40
0.375000000000013
40
0.500000000000019
40
0.500000000000019
40
0.562500000000022
40
0.562500000000022
40
0.625000000000026
40
0.625000000000026
40
0.68750000000003
40
0.68750000000003
40
0.750000000000033
40
0.750000000000033
40
0.781250000000034
40
0.781250000000034
40
0.812500000000036
40
0.812500000000036
40
0.843750000000037
40
0.843750000000037
40
0.859375000000034
40
0.859375000000034
40
0.875000000000031
40
0.875000000000031
40
0.890625000000028
40
0.890625000000028
40
0.906250000000025
40
0.906250000000025
40
0.921875000000022
40
0.921875000000022
40
0.92968750000002
40
0.92968750000002
40
0.937500000000018
40
0.937500000000018
40
0.953125000000014
40
0.953125000000014
40
0.960937500000011
40
0.960937500000011
40
0.968750000000009
40
0.976562500000007
40
0.976562500000007
40
0.984375000000004
40
0.984375000000004
40
1
40
1
40
1
40
1
41
1
10
-35.8110727855048
20
-17.1594517952971
30
0
41
1
10
-35.8173005718243
20
-17.2765994291774
30
0
41
1
10
-35.825139333155
20
-17.3932417035646
30
0
41
1
10
-35.8443993203418
20
-17.6254870770945
30
0
41
1
10
-35.8558167689226
20
-17.7410905024587
30
0
41
1
10
-35.8828403885793
20
-17.9712078217972
30
0
41
1
10
-35.8984464229313
20
-18.0857589250384
30
0
41
1
10
-35.9347884209076
20
-18.3132163356987
30
0
41
1
10
-35.9555086472984
20
-18.4261731973903
30
0
41
1
10
-35.9917551203116
20
-18.5942514027903
30
0
41
1
10
-36.0047084558934
20
-18.6500570529712
30
0
41
1
10
-36.0326760610089
20
-18.7609702262327
30
0
41
1
10
-36.0476910808067
20
-18.8160993765061
30
0
41
1
10
-36.0803203098191
20
-18.9255857512127
30
0
41
1
10
-36.0979425275279
20
-18.9799857663467
30
0
41
1
10
-36.136551205324
20
-19.0875632484609
30
0
41
1
10
-36.1575177703235
20
-19.1407503058783
30
0
41
1
10
-36.1925812950234
20
-19.2192937005193
30
0
41
1
10
-36.2048761480011
20
-19.245258554406
30
0
41
1
10
-36.2308938648005
20
-19.2964733063758
30
0
41
1
10
-36.2446230972401
20
-19.3217464996537
30
0
41
1
10
-36.2739616396511
20
-19.3714373959701
30
0
41
1
10
-36.2895633172475
20
-19.3958583754683
30
0
41
1
10
-36.3149245584605
20
-19.4316139538516
30
0
41
1
10
-36.323718300906
20
-19.4433966696792
30
0
41
1
10
-36.341989197859
20
-19.466452828411
30
0
41
1
10
-36.3514761631869
20
-19.4777427443063
30
0
41
1
10
-36.3713127063351
20
-19.4997414149291
30
0
41
1
10
-36.381660891984
20
-19.5104510893953
30
0
41
1
10
-36.4034528444504
20
-19.5311360208259
30
0
41
1
10
-36.4149474186246
20
-19.5411510547851
30
0
41
1
10
-36.4390421564696
20
-19.5599401940587
30
0
41
1
10
-36.4516463462974
20
-19.5687308429457
30
0
41
1
10
-36.4716485432495
20
-19.5807317589921
30
0
41
1
10
-36.4784997337055
20
-19.5845333301214
30
0
41
1
10
-36.4926332331548
20
-19.5916708709687
30
0
41
1
10
-36.4999475073115
20
-19.5950179575938
30
0
41
1
10
-36.5222662200835
20
-19.6040766012892
30
0
41
1
10
-36.5377125572612
20
-19.6088605110842
30
0
41
1
10
-36.5619497504943
20
-19.6136767513147
30
0
41
1
10
-36.5702587433574
20
-19.6148864880771
30
0
41
1
10
-36.5868023437412
20
-19.6163810659065
30
0
41
1
10
-36.6033560176342
20
-19.6169776785555
30
0
41
1
10
-36.6199298526304
20
-19.6157787597959
30
0
41
1
10
-36.6365137924802
20
-19.6136793178333
30
0
41
1
10
-36.644854239226
20
-19.6121646911544
30
0
41
1
10
-36.669259423473
20
-19.6064364162933
30
0
41
1
10
-36.6848894080014
20
-19.6010431626359
30
0
41
1
10
-36.7
20
-19.5943714322652
30
0
0
SPLINE
5
1A0
100
AcDbEntity
8
SK1
62
256
6
ByLayer
370
18
48
1
60
0
100
AcDbSpline
70
4
71
3
72
35
73
31
40
0
40
0
40
0
40
0
40
0.0156250000000018
40
0.0156250000000018
40
0.0312500000000037
40
0.0625000000000052
40
0.0625000000000052
40
0.125000000000012
40
0.125000000000012
40
0.18750000000002
40
0.18750000000002
40
0.218750000000022
40
0.218750000000022
40
0.250000000000024
40
0.250000000000024
40
0.312500000000023
40
0.312500000000023
40
0.375000000000023
40
0.375000000000023
40
0.50000000000002
40
0.50000000000002
40
0.625000000000016
40
0.625000000000016
40
0.750000000000012
40
0.750000000000012
40
0.81250000000001
40
0.81250000000001
40
0.875000000000008
40
0.875000000000008
40
1
40
1
40
1
40
1
41
1
10
-40.216558266844
20
-17.059223638729
30
0
41
1
10
-40.2065692011606
20
-17.0790009036519
30
0
41
1
10
-40.1962222733362
20
-17.0986727913565
30
0
41
1
10
-40.1749656596159
20
-17.13758981772
30
0
41
1
10
-40.1421891356425
20
-17.1954195519503
30
0
41
1
10
-40.1068855011004
20
-17.2517022862578
30
0
41
1
10
-40.0332442316912
20
-17.3624104565309
30
0
41
1
10
-39.9801176088882
20
-17.4337473967018
30
0
41
1
10
-39.8671970251932
20
-17.5723397890246
30
0
41
1
10
-39.8073980790514
20
-17.6395921893982
30
0
41
1
10
-39.7134700363204
20
-17.7378815770696
30
0
41
1
10
-39.6814534173342
20
-17.7702117419313
30
0
41
1
10
-39.6161114471282
20
-17.8340709161019
30
0
41
1
10
-39.5829412083925
20
-17.8654484067428
30
0
41
1
10
-39.4821531424353
20
-17.9580170166508
30
0
41
1
10
-39.4132293260862
20
-18.0176840834333
30
0
41
1
10
-39.2725141740843
20
-18.1336314835565
30
0
41
1
10
-39.2007207380452
20
-18.1899093361997
30
0
41
1
10
-38.9816980608985
20
-18.3544410109707
30
0
41
1
10
-38.8308583734475
20
-18.4584306527827
30
0
41
1
10
-38.5219544223898
20
-18.6578772253498
30
0
41
1
10
-38.3638725953149
20
-18.753313412466
30
0
41
1
10
-38.0420125158101
20
-18.9374579246669
30
0
41
1
10
-37.8782258183423
20
-19.0261562755932
30
0
41
1
10
-37.6290682003931
20
-19.1550965555141
30
0
41
1
10
-37.5455171787283
20
-19.197343733049
30
0
41
1
10
-37.3779261719413
20
-19.2803156203691
30
0
41
1
10
-37.2938219149035
20
-19.3210735147716
30
0
41
1
10
-37.0406735250402
20
-19.4413767868714
30
0
41
1
10
-36.8707972245172
20
-19.5189598911331
30
0
41
1
10
-36.7
20
-19.5943714322652
30
0
0
SPLINE
5
1A1
100
AcDbEntity
8
SK1
62
256
6
ByLayer
370
18
48
1
60
0
100
AcDbSpline
70
4
71
3
72
50
73
46
40
0
40
0
40
0
40
0
40
0.125000000000001
40
0.125000000000001
40
0.250000000000001
40
0.250000000000001
40
0.375000000000002
40
0.375000000000002
40
0.500000000000003
40
0.500000000000003
40
0.562500000000003
40
0.562500000000003
40
0.625000000000003
40
0.625000000000003
40
0.687500000000004
40
0.687500000000004
40
0.750000000000004
40
0.750000000000004
40
0.812500000000004
40
0.812500000000004
40
0.843750000000006
40
0.843750000000006
40
0.859375000000005
40
0.859375000000005
40
0.875000000000004
40
0.875000000000004
40
0.906250000000003
40
0.906250000000003
40
0.921875000000003
40
0.921875000000003
40
0.937500000000002
40
0.937500000000002
40
0.953125000000001
40
0.953125000000001
40
0.960937500000001
40
0.960937500000001
40
0.96875
40
0.96875
40
0.984375
40
0.984375
40
0.98828125
40
0.98828125
40
0.9921875
40
0.9921875
40
1
40
1
40
1
40
1
41
1
10
-48.0000748840304
20
-15.1575618641633
30
0
41
1
10
-47.6642819462845
20
-15.2033476688156
30
0
41
1
10
-47.3287067417301
20
-15.2504837651172
30
0
41
1
10
-46.658084439127
20
-15.3480303408005
30
0
41
1
10
-46.3230366620363
20
-15.3984366142565
30
0
41
1
10
-45.6536007422565
20
-15.503338210916
30
0
41
1
10
-45.3192112160959
20
-15.5578249650152
30
0
41
1
10
-44.6512919303171
20
-15.6721271177432
30
0
41
1
10
-44.3178713922416
20
-15.7319042753068
30
0
41
1
10
-43.8189238511906
20
-15.8270441188289
30
0
41
1
10
-43.6528043821069
20
-15.859677792755
30
0
41
1
10
-43.3210445239052
20
-15.9271901987712
30
0
41
1
10
-43.1553904474269
20
-15.9620688034591
30
0
41
1
10
-42.8247399939426
20
-16.0346341361586
30
0
41
1
10
-42.6598063089127
20
-16.0723009509185
30
0
41
1
10
-42.3309661740188
20
-16.1512653917218
30
0
41
1
10
-42.167055921612
20
-16.1925495843737
30
0
41
1
10
-41.8406604433061
20
-16.2801540624899
30
0
41
1
10
-41.6781419423617
20
-16.3264497174497
30
0
41
1
10
-41.4366019162269
20
-16.4014407944629
30
0
41
1
10
-41.3564460542775
20
-16.4273783750259
30
0
41
1
10
-41.2369128073697
20
-16.4681278019347
30
0
41
1
10
-41.1971858319494
20
-16.4820199155495
30
0
41
1
10
-41.1180057891183
20
-16.5105247392268
30
0
41
1
10
-41.0785339968349
20
-16.5251446306655
30
0
41
1
10
-40.960890515566
20
-16.5701742819971
30
0
41
1
10
-40.883401634676
20
-16.6017471334622
30
0
41
1
10
-40.7692487389967
20
-16.6525430932039
30
0
41
1
10
-40.7315481294284
20
-16.6700538360687
30
0
41
1
10
-40.657036519262
20
-16.7065448318753
30
0
41
1
10
-40.6202234363673
20
-16.7255216455051
30
0
41
1
10
-40.5477745402602
20
-16.7654199060491
30
0
41
1
10
-40.512133755177
20
-16.7863331409556
30
0
41
1
10
-40.4599191173502
20
-16.8197619998578
30
0
41
1
10
-40.4427238819597
20
-16.8312512377387
30
0
41
1
10
-40.4088519295578
20
-16.8550861812403
30
0
41
1
10
-40.3921720571703
20
-16.8674388738235
30
0
41
1
10
-40.3437315108906
20
-16.9056214367524
30
0
41
1
10
-40.313317939617
20
-16.9326542600772
30
0
41
1
10
-40.2791250486902
20
-16.9696543355769
30
0
41
1
10
-40.2724825605883
20
-16.9772189034225
30
0
41
1
10
-40.2596525181839
20
-16.9927298038496
30
0
41
1
10
-40.2534665699685
20
-17.000677729169
30
0
41
1
10
-40.2358953697256
20
-17.0249180975753
30
0
41
1
10
-40.225419582572
20
-17.0416791962087
30
0
41
1
10
-40.2165582668441
20
-17.059223638729
30
0
0
LINE
5
85
100
AcDbEntity
8
80
62
256
6
ByLayer
370
18
48
1
60
0
100
AcDbLine
10
0
20
0
30
0
11
-5
21
0
31
0
39
0
210
0
220
0
230
1
0
LINE
5
86
100
AcDbEntity
8
4
62
256
6
ByLayer
370
18
48
0.05
60
0
100
AcDbLine
10
0
20
0
30
0
11
48
21
0
31
0
39
0
210
0
220
0
230
1
0
LINE
5
88
100
AcDbEntity
8
81
62
256
6
ByLayer
370
18
48
1
60
0
100
AcDbLine
10
48
20
0
30
0
11
53
21
0
31
0
39
0
210
0
220
0
230
1
0
LINE
5
89
100
AcDbEntity
8
1
62
256
6
ByLayer
370
18
48
1
60
0
100
AcDbLine
10
21.525
20
45.975
30
0
11
18.475
21
45.975
31
0
39
0
210
0
220
0
230
1
0
LINE
5
8A
100
AcDbEntity
8
1
62
256
6
ByLayer
370
18
48
1
60
0
100
AcDbLine
10
40.999884
20
23.875
30
0
11
30.15
21
23.875
31
0
39
0
210
0
220
0
230
1
0
LINE
5
8B
100
AcDbEntity
8
1
62
256
6
ByLayer
370
18
48
1
60
0
100
AcDbLine
10
30.15
20
-23.875
30
0
11
40.999884
21
-23.875
31
0
39
0
210
0
220
0
230
1
0
LINE
5
8C
100
AcDbEntity
8
1
62
256
6
ByLayer
370
18
48
1
60
0
100
AcDbLine
10
18.475
20
-45.975
30
0
11
21.525
21
-45.975
31
0
39
0
210
0
220
0
230
1
0
LINE
5
8D
100
AcDbEntity
8
1
62
256
6
ByLayer
370
18
48
1
60
0
100
AcDbLine
10
18.075
20
47.684198
30
0
11
16.758178
21
49.965
31
0
39
0
210
0
220
0
230
1
0
LINE
5
8E
100
AcDbEntity
8
1
62
256
6
ByLayer
370
18
48
1
60
0
100
AcDbLine
10
28.95
20
49.265
30
0
11
28.25
21
49.965
31
0
39
0
210
0
220
0
230
1
0
LINE
5
8F
100
AcDbEntity
8
1
62
256
6
ByLayer
370
18
48
1
60
0
100
AcDbLine
10
23.241822
20
49.965
30
0
11
21.925
21
47.684198
31
0
39
0
210
0
220
0
230
1
0
LINE
5
90
100
AcDbEntity
8
1
62
256
6
ByLayer
370
18
48
1
60
0
100
AcDbLine
10
28.25
20
-49.965
30
0
11
28.95
21
-49.265
31
0
39
0
210
0
220
0
230
1
0
LINE
5
91
100
AcDbEntity
8
1
62
256
6
ByLayer
370
18
48
1
60
0
100
AcDbLine
10
16.758178
20
-49.965
30
0
11
18.075
21
-47.684198
31
0
39
0
210
0
220
0
230
1
0
LINE
5
92
100
AcDbEntity
8
1
62
256
6
ByLayer
370
18
48
1
60
0
100
AcDbLine
10
28.25
20
49.965
30
0
11
23.241822
21
49.965
31
0
39
0
210
0
220
0
230
1
0
LINE
5
93
100
AcDbEntity
8
1
62
256
6
ByLayer
370
18
48
1
60
0
100
AcDbLine
10
21.925
20
-47.684198
30
0
11
23.241822
21
-49.965
31
0
39
0
210
0
220
0
230
1
0
LINE
5
94
100
AcDbEntity
8
1
62
256
6
ByLayer
370
18
48
1
60
0
100
AcDbLine
10
23.241822
20
-49.965
30
0
11
28.25
21
-49.965
31
0
39
0
210
0
220
0
230
1
0
LINE
5
95
100
AcDbEntity
8
1
62
256
6
ByLayer
370
18
48
1
60
0
100
AcDbLine
10
0
20
-49.265
30
0
11
0.7
21
-49.965
31
0
39
0
210
0
220
0
230
1
0
LINE
5
96
100
AcDbEntity
8
1
62
256
6
ByLayer
370
18
48
1
60
0
100
AcDbLine
10
0.7
20
49.965
30
0
11
0
21
49.265
31
0
39
0
210
0
220
0
230
1
0
LINE
5
97
100
AcDbEntity
8
1
62
256
6
ByLayer
370
18
48
1
60
0
100
AcDbLine
10
16.758178
20
49.965
30
0
11
0.7
21
49.965
31
0
39
0
210
0
220
0
230
1
0
LINE
5
98
100
AcDbEntity
8
1
62
256
6
ByLayer
370
18
48
1
60
0
100
AcDbLine
10
0.7
20
-49.965
30
0
11
1.992886
21
-49.965
31
0
39
0
210
0
220
0
230
1
0
LINE
5
99
100
AcDbEntity
8
1
62
256
6
ByLayer
370
18
48
1
60
0
100
AcDbLine
10
12.0225
20
-49.965
30
0
11
16.758178
21
-49.965
31
0
39
0
210
0
220
0
230
1
0
LINE
5
9A
100
AcDbEntity
8
1
62
256
6
ByLayer
370
18
48
1
60
0
100
AcDbLine
10
47.5
20
-31.178522
30
0
11
54.335636
21
-31.178522
31
0
39
0
210
0
220
0
230
1
0
LINE
5
9B
100
AcDbEntity
8
1
62
256
6
ByLayer
370
18
48
1
60
0
100
AcDbLine
10
54.335518
20
31.178522
30
0
11
47.5
21
31.178522
31
0
39
0
210
0
220
0
230
1
0
LINE
5
9C
100
AcDbEntity
8
1
62
256
6
ByLayer
370
18
48
1
60
0
100
AcDbLine
10
54.402618
20
12.86256
30
0
11
47.5
21
12.86256
31
0
39
0
210
0
220
0
230
1
0
LINE
5
9D
100
AcDbEntity
8
1
62
256
6
ByLayer
370
18
48
1
60
0
100
AcDbLine
10
47.5
20
-12.86256
30
0
11
54.402527
21
-12.86256
31
0
39
0
210
0
220
0
230
1
0
LINE
5
9E
100
AcDbEntity
8
1
62
256
6
ByLayer
370
18
48
1
60
0
100
AcDbLine
10
41
20
-30.35
30
0
11
42
21
-31.35
31
0
39
0
210
0
220
0
230
1
0
LINE
5
9F
100
AcDbEntity
8
1
62
256
6
ByLayer
370
18
48
1
60
0
100
AcDbLine
10
42
20
31.35
30
0
11
41
21
30.35
31
0
39
0
210
0
220
0
230
1
0
LINE
5
A0
100
AcDbEntity
8
1
62
256
6
ByLayer
370
18
48
1
60
0
100
AcDbLine
10
44.194076
20
31.35
30
0
11
42
21
31.35
31
0
39
0
210
0
220
0
230
1
0
LINE
5
A1
100
AcDbEntity
8
1
62
256
6
ByLayer
370
18
48
1
60
0
100
AcDbLine
10
42
20
-31.35
30
0
11
44.194076
21
-31.35
31
0
39
0
210
0
220
0
230
1
0
LINE
5
A2
100
AcDbEntity
8
1
62
256
6
ByLayer
370
18
48
1
60
0
100
AcDbLine
10
58
20
25
30
0
11
55.978233
21
28.501804
31
0
39
0
210
0
220
0
230
1
0
LINE
5
A3
100
AcDbEntity
8
1
62
256
6
ByLayer
370
18
48
1
60
0
100
AcDbLine
10
55.978243
20
-28.501786
30
0
11
58
21
-25
31
0
39
0
210
0
220
0
230
1
0
LINE
5
A4
100
AcDbEntity
8
SK1
62
256
6
ByLayer
370
18
48
1
60
0
100
AcDbLine
10
-0.8
20
37.632252
30
0
11
-2.066987
21
37.632252
31
0
39
0
210
0
220
0
230
1
0
LINE
5
A6
100
AcDbEntity
8
SK1
62
256
6
ByLayer
370
18
48
1
60
0
100
AcDbLine
10
-2.066987
20
-37.632252
30
0
11
-0.8
21
-37.632252
31
0
39
0
210
0
220
0
230
1
0
LINE
5
A7
100
AcDbEntity
8
SK1
62
256
6
ByLayer
370
18
48
1
60
0
100
AcDbLine
10
-2.066987
20
37.632252
30
0
11
-2.5
21
37.882252
31
0
39
0
210
0
220
0
230
1
0
LINE
5
A8
100
AcDbEntity
8
SK1
62
256
6
ByLayer
370
18
48
1
60
0
100
AcDbLine
10
-2.5
20
-37.882252
30
0
11
-2.066987
21
-37.632252
31
0
39
0
210
0
220
0
230
1
0
LINE
5
A9
100
AcDbEntity
8
SK1
62
256
6
ByLayer
370
18
48
1
60
0
100
AcDbLine
10
-48.000075
20
-35.602689
30
0
11
-2.5
21
-37.882252
31
0
39
0
210
0
220
0
230
1
0
LINE
5
AA
100
AcDbEntity
8
SK1
62
256
6
ByLayer
370
18
48
1
60
0
100
AcDbLine
10
-2.5
20
37.882252
30
0
11
-48.000075
21
35.602689
31
0
39
0
210
0
220
0
230
1
0
LINE
5
AB
100
AcDbEntity
8
1
62
256
6
ByLayer
370
13
48
1
60
0
100
AcDbLine
10
30.15
20
23.875
30
0
11
30.15
21
-23.875
31
0
39
0
210
0
220
0
230
1
0
LINE
5
AC
100
AcDbEntity
8
1
62
256
6
ByLayer
370
18
48
1
60
0
100
AcDbLine
10
28.95
20
-11.021
30
0
11
28.95
21
11.021
31
0
39
0
210
0
220
0
230
1
0
LINE
5
AD
100
AcDbEntity
8
1
62
256
6
ByLayer
370
18
48
1
60
0
100
AcDbLine
10
21.525
20
11.021
30
0
11
18.475
21
11.021
31
0
39
0
210
0
220
0
230
1
0
LINE
5
AE
100
AcDbEntity
8
1
62
256
6
ByLayer
370
18
48
1
60
0
100
AcDbLine
10
18.475
20
-11.021
30
0
11
21.525
21
-11.021
31
0
39
0
210
0
220
0
230
1
0
LINE
5
AF
100
AcDbEntity
8
1
62
256
6
ByLayer
370
13
48
1
60
0
100
AcDbLine
10
21.525
20
-45.975
30
0
11
21.525
21
-11.021
31
0
39
0
210
0
220
0
230
1
0
LINE
5
B0
100
AcDbEntity
8
1
62
256
6
ByLayer
370
13
48
1
60
0
100
AcDbLine
10
18.475
20
45.119582
30
0
11
18.475
21
11.021
31
0
39
0
210
0
220
0
230
1
0
LINE
5
B1
100
AcDbEntity
8
1
62
256
6
ByLayer
370
13
48
1
60
0
100
AcDbLine
10
18.475
20
45.417706
30
0
11
18.475
21
45.975
31
0
39
0
210
0
220
0
230
1
0
LINE
5
B2
100
AcDbEntity
8
1
62
256
6
ByLayer
370
13
48
1
60
0
100
AcDbLine
10
18.475
20
-45.975
30
0
11
18.475
21
-11.021
31
0
39
0
210
0
220
0
230
1
0
LINE
5
B3
100
AcDbEntity
8
1
62
256
6
ByLayer
370
13
48
1
60
0
100
AcDbLine
10
21.525
20
45.417706
30
0
11
21.525
21
45.975
31
0
39
0
210
0
220
0
230
1
0
LINE
5
B4
100
AcDbEntity
8
1
62
256
6
ByLayer
370
13
48
1
60
0
100
AcDbLine
10
21.525
20
45.119582
30
0
11
21.525
21
11.021
31
0
39
0
210
0
220
0
230
1
0
LINE
5
B5
100
AcDbEntity
8
1
62
256
6
ByLayer
370
18
48
1
60
0
100
AcDbLine
10
18.075
20
47.684198
30
0
11
18.075
21
11.021
31
0
39
0
210
0
220
0
230
1
0
LINE
5
B6
100
AcDbEntity
8
1
62
256
6
ByLayer
370
18
48
1
60
0
100
AcDbLine
10
28.95
20
49.265
30
0
11
28.95
21
11.021
31
0
39
0
210
0
220
0
230
1
0
LINE
5
B7
100
AcDbEntity
8
1
62
256
6
ByLayer
370
18
48
1
60
0
100
AcDbLine
10
21.925
20
47.684198
30
0
11
21.925
21
11.021
31
0
39
0
210
0
220
0
230
1
0
LINE
5
B8
100
AcDbEntity
8
1
62
256
6
ByLayer
370
18
48
1
60
0
100
AcDbLine
10
28.95
20
-49.265
30
0
11
28.95
21
-11.021
31
0
39
0
210
0
220
0
230
1
0
LINE
5
B9
100
AcDbEntity
8
1
62
256
6
ByLayer
370
18
48
1
60
0
100
AcDbLine
10
18.075
20
-47.684198
30
0
11
18.075
21
-11.021
31
0
39
0
210
0
220
0
230
1
0
LINE
5
BA
100
AcDbEntity
8
1
62
256
6
ByLayer
370
18
48
1
60
0
100
AcDbLine
10
28.25
20
11.021
30
0
11
23.241822
21
11.021
31
0
39
0
210
0
220
0
230
1
0
LINE
5
BB
100
AcDbEntity
8
1
62
256
6
ByLayer
370
18
48
1
60
0
100
AcDbLine
10
28.25
20
11.021
30
0
11
28.25
21
49.965
31
0
39
0
210
0
220
0
230
1
0
LINE
5
BC
100
AcDbEntity
8
1
62
256
6
ByLayer
370
18
48
1
60
0
100
AcDbLine
10
23.241822
20
49.965
30
0
11
23.241822
21
11.021
31
0
39
0
210
0
220
0
230
1
0
LINE
5
BD
100
AcDbEntity
8
1
62
256
6
ByLayer
370
18
48
1
60
0
100
AcDbLine
10
21.925
20
-47.684198
30
0
11
21.925
21
-11.021
31
0
39
0
210
0
220
0
230
1
0
LINE
5
BE
100
AcDbEntity
8
1
62
256
6
ByLayer
370
18
48
1
60
0
100
AcDbLine
10
23.241822
20
-49.965
30
0
11
23.241822
21
-11.021
31
0
39
0
210
0
220
0
230
1
0
LINE
5
BF
100
AcDbEntity
8
1
62
256
6
ByLayer
370
18
48
1
60
0
100
AcDbLine
10
28.25
20
-11.021
30
0
11
28.25
21
-49.965
31
0
39
0
210
0
220
0
230
1
0
LINE
5
C0
100
AcDbEntity
8
1
62
256
6
ByLayer
370
18
48
1
60
0
100
AcDbLine
10
23.241822
20
-11.021
30
0
11
28.25
21
-11.021
31
0
39
0
210
0
220
0
230
1
0
LINE
5
C1
100
AcDbEntity
8
1
62
256
6
ByLayer
370
18
48
1
60
0
100
AcDbLine
10
0
20
49.265
30
0
11
0
21
0
31
0
39
0
210
0
220
0
230
1
0
LINE
5
C2
100
AcDbEntity
8
1
62
256
6
ByLayer
370
18
48
1
60
0
100
AcDbLine
10
0
20
0
30
0
11
0
21
-49.265
31
0
39
0
210
0
220
0
230
1
0
LINE
5
C3
100
AcDbEntity
8
1
62
256
6
ByLayer
370
18
48
1
60
0
100
AcDbLine
10
0.7
20
-49.965
30
0
11
0.7
21
0
31
0
39
0
210
0
220
0
230
1
0
LINE
5
C4
100
AcDbEntity
8
1
62
256
6
ByLayer
370
18
48
1
60
0
100
AcDbLine
10
0.7
20
0
30
0
11
0.7
21
49.965
31
0
39
0
210
0
220
0
230
1
0
LINE
5
C5
100
AcDbEntity
8
1
62
256
6
ByLayer
370
18
48
1
60
0
100
AcDbLine
10
16.758178
20
-11.021
30
0
11
16.758178
21
-49.965
31
0
39
0
210
0
220
0
230
1
0
LINE
5
C6
100
AcDbEntity
8
1
62
256
6
ByLayer
370
18
48
1
60
0
100
AcDbLine
10
14.95
20
-11.021
30
0
11
16.758178
21
-11.021
31
0
39
0
210
0
220
0
230
1
0
LINE
5
C7
100
AcDbEntity
8
1
62
256
6
ByLayer
370
18
48
1
60
0
100
AcDbLine
10
4.95
20
1.021
30
0
11
4.95
21
-1.021
31
0
39
0
210
0
220
0
230
1
0
LINE
5
C8
100
AcDbEntity
8
1
62
256
6
ByLayer
370
18
48
1
60
0
100
AcDbLine
10
16.758178
20
11.021
30
0
11
14.95
21
11.021
31
0
39
0
210
0
220
0
230
1
0
LINE
5
C9
100
AcDbEntity
8
1
62
256
6
ByLayer
370
18
48
1
60
0
100
AcDbLine
10
16.758178
20
11.021
30
0
11
16.758178
21
49.965
31
0
39
0
210
0
220
0
230
1
0
LINE
5
CA
100
AcDbEntity
8
1
62
256
6
ByLayer
370
18
48
1
60
0
100
AcDbLine
10
47.5
20
31.177421
30
0
11
47.5
21
31.178522
31
0
39
0
210
0
220
0
230
1
0
LINE
5
CB
100
AcDbEntity
8
1
62
256
6
ByLayer
370
18
48
1
60
0
100
AcDbLine
10
47.5
20
-31.177421
30
0
11
47.5
21
-31.178522
31
0
39
0
210
0
220
0
230
1
0
LINE
5
CC
100
AcDbEntity
8
1
62
256
6
ByLayer
370
18
48
1
60
0
100
AcDbLine
10
47.5
20
16.615064
30
0
11
55.686021
21
16.615064
31
0
39
0
210
0
220
0
230
1
0
LINE
5
CD
100
AcDbEntity
8
1
62
256
6
ByLayer
370
18
48
1
60
0
100
AcDbLine
10
47.5
20
-16.615064
30
0
11
55.686021
21
-16.615064
31
0
39
0
210
0
220
0
230
1
0
LINE
5
CE
100
AcDbEntity
8
1
62
256
6
ByLayer
370
13
48
1
60
0
100
AcDbLine
10
54.4309
20
18.174541
30
0
11
47.5
21
18.174541
31
0
39
0
210
0
220
0
230
1
0
LINE
5
CF
100
AcDbEntity
8
1
62
256
6
ByLayer
370
13
48
1
60
0
100
AcDbLine
10
47.5
20
-18.174541
30
0
11
54.4309
21
-18.174541
31
0
39
0
210
0
220
0
230
1
0
LINE
5
D0
100
AcDbEntity
8
1
62
256
6
ByLayer
370
18
48
1
60
0
100
AcDbLine
10
47.5
20
16.068653
30
0
11
55.934666
21
16.068653
31
0
39
0
210
0
220
0
230
1
0
LINE
5
D1
100
AcDbEntity
8
1
62
256
6
ByLayer
370
18
48
1
60
0
100
AcDbLine
10
47.5
20
-16.068653
30
0
11
55.934666
21
-16.068653
31
0
39
0
210
0
220
0
230
1
0
LINE
5
D2
100
AcDbEntity
8
1
62
256
6
ByLayer
370
13
48
1
60
0
100
AcDbLine
10
47.5
20
16.615064
30
0
11
47.5
21
16.068653
31
0
39
0
210
0
220
0
230
1
0
LINE
5
D3
100
AcDbEntity
8
1
62
256
6
ByLayer
370
18
48
1
60
0
100
AcDbLine
10
55.364008
20
12.431347
30
0
11
55.934666
21
12.431347
31
0
39
0
210
0
220
0
230
1
0
LINE
5
D4
100
AcDbEntity
8
1
62
256
6
ByLayer
370
18
48
1
60
0
100
AcDbLine
10
55.364008
20
-12.431347
30
0
11
55.934666
21
-12.431347
31
0
39
0
210
0
220
0
230
1
0
LINE
5
D5
100
AcDbEntity
8
1
62
256
6
ByLayer
370
13
48
1
60
0
100
AcDbLine
10
47.5
20
-16.068653
30
0
11
47.5
21
-16.615064
31
0
39
0
210
0
220
0
230
1
0
LINE
5
D6
100
AcDbEntity
8
1
62
256
6
ByLayer
370
13
48
1
60
0
100
AcDbLine
10
47.5
20
18.174541
30
0
11
47.5
21
16.615064
31
0
39
0
210
0
220
0
230
1
0
LINE
5
D7
100
AcDbEntity
8
1
62
256
6
ByLayer
370
13
48
1
60
0
100
AcDbLine
10
47.5
20
-16.615064
30
0
11
47.5
21
-18.174541
31
0
39
0
210
0
220
0
230
1
0
LINE
5
D8
100
AcDbEntity
8
1
62
256
6
ByLayer
370
13
48
1
60
0
100
AcDbLine
10
47.5
20
18.174541
30
0
11
47.5
21
18.433561
31
0
39
0
210
0
220
0
230
1
0
LINE
5
D9
100
AcDbEntity
8
1
62
256
6
ByLayer
370
13
48
1
60
0
100
AcDbLine
10
47.5
20
12.86256
30
0
11
47.5
21
12.74386
31
0
39
0
210
0
220
0
230
1
0
LINE
5
DA
100
AcDbEntity
8
1
62
256
6
ByLayer
370
13
48
1
60
0
100
AcDbLine
10
47.5
20
-12.86256
30
0
11
47.5
21
-12.74386
31
0
39
0
210
0
220
0
230
1
0
LINE
5
DB
100
AcDbEntity
8
1
62
256
6
ByLayer
370
13
48
1
60
0
100
AcDbLine
10
47.5
20
-18.174541
30
0
11
47.5
21
-18.433561
31
0
39
0
210
0
220
0
230
1
0
LINE
5
DC
100
AcDbEntity
8
1
62
256
6
ByLayer
370
18
48
1
60
0
100
AcDbLine
10
41
20
30.35
30
0
11
41
21
0
31
0
39
0
210
0
220
0
230
1
0
LINE
5
DD
100
AcDbEntity
8
1
62
256
6
ByLayer
370
18
48
1
60
0
100
AcDbLine
10
41
20
0
30
0
11
41
21
-30.35
31
0
39
0
210
0
220
0
230
1
0
LINE
5
DE
100
AcDbEntity
8
1
62
256
6
ByLayer
370
18
48
1
60
0
100
AcDbLine
10
42
20
-31.35
30
0
11
42
21
0
31
0
39
0
210
0
220
0
230
1
0
LINE
5
DF
100
AcDbEntity
8
1
62
256
6
ByLayer
370
18
48
1
60
0
100
AcDbLine
10
42
20
0
30
0
11
42
21
31.35
31
0
39
0
210
0
220
0
230
1
0
LINE
5
E0
100
AcDbEntity
8
1
62
256
6
ByLayer
370
13
48
1
60
0
100
AcDbLine
10
54.333826
20
12.74386
30
0
11
47.5
21
12.74386
31
0
39
0
210
0
220
0
230
1
0
LINE
5
E1
100
AcDbEntity
8
1
62
256
6
ByLayer
370
13
48
1
60
0
100
AcDbLine
10
47.5
20
18.433561
30
0
11
54.333826
21
18.433561
31
0
39
0
210
0
220
0
230
1
0
LINE
5
E2
100
AcDbEntity
8
1
62
256
6
ByLayer
370
13
48
1
60
0
100
AcDbLine
10
54.333826
20
31.177421
30
0
11
47.5
21
31.177421
31
0
39
0
210
0
220
0
230
1
0
LINE
5
E3
100
AcDbEntity
8
1
62
256
6
ByLayer
370
13
48
1
60
0
100
AcDbLine
10
47.5
20
-31.177421
30
0
11
54.333826
21
-31.177421
31
0
39
0
210
0
220
0
230
1
0
LINE
5
E4
100
AcDbEntity
8
1
62
256
6
ByLayer
370
13
48
1
60
0
100
AcDbLine
10
54.333826
20
-18.433561
30
0
11
47.5
21
-18.433561
31
0
39
0
210
0
220
0
230
1
0
LINE
5
E5
100
AcDbEntity
8
1
62
256
6
ByLayer
370
13
48
1
60
0
100
AcDbLine
10
47.5
20
-12.74386
30
0
11
54.333826
21
-12.74386
31
0
39
0
210
0
220
0
230
1
0
LINE
5
E6
100
AcDbEntity
8
1
62
256
6
ByLayer
370
18
48
1
60
0
100
AcDbLine
10
58
20
25
30
0
11
58
21
0
31
0
39
0
210
0
220
0
230
1
0
LINE
5
E7
100
AcDbEntity
8
1
62
256
6
ByLayer
370
18
48
1
60
0
100
AcDbLine
10
58
20
0
30
0
11
58
21
-25
31
0
39
0
210
0
220
0
230
1
0
LINE
5
E8
100
AcDbEntity
8
1
62
256
6
ByLayer
370
18
48
1
60
0
100
AcDbLine
10
54.333826
20
-12.74386
30
0
11
54.333826
21
12.74386
31
0
39
0
210
0
220
0
230
1
0
LINE
5
E9
100
AcDbEntity
8
1
62
256
6
ByLayer
370
18
48
1
60
0
100
AcDbLine
10
54.333826
20
-31.177421
30
0
11
54.333826
21
-18.433561
31
0
39
0
210
0
220
0
230
1
0
LINE
5
EA
100
AcDbEntity
8
1
62
256
6
ByLayer
370
18
48
1
60
0
100
AcDbLine
10
54.333826
20
18.433561
30
0
11
54.333826
21
31.177421
31
0
39
0
210
0
220
0
230
1
0
LINE
5
EB
100
AcDbEntity
8
SK1
62
256
6
ByLayer
370
18
48
1
60
0
100
AcDbLine
10
-39.8
20
8.11
30
0
11
-39.8
21
-8.11
31
0
39
0
210
0
220
0
230
1
0
LINE
5
EC
100
AcDbEntity
8
SK1
62
256
6
ByLayer
370
13
48
1
60
0
100
AcDbLine
10
-36.7
20
17.059224
30
0
11
-36.7
21
19.594371
31
0
39
0
210
0
220
0
230
1
0
LINE
5
ED
100
AcDbEntity
8
SK1
62
256
6
ByLayer
370
13
48
1
60
0
100
AcDbLine
10
-36.7
20
-19.594371
30
0
11
-36.7
21
-17.059224
31
0
39
0
210
0
220
0
230
1
0
LINE
5
EE
100
AcDbEntity
8
SK1
62
256
6
ByLayer
370
13
48
1
60
0
100
AcDbLine
10
-36.7
20
-17.059224
30
0
11
-40.216558
21
-17.059224
31
0
39
0
210
0
220
0
230
1
0
LINE
5
EF
100
AcDbEntity
8
SK1
62
256
6
ByLayer
370
18
48
1
60
0
100
AcDbLine
10
-36.7
20
-9.96375
30
0
11
-48.20375
21
-9.96375
31
0
39
0
210
0
220
0
230
1
0
LINE
5
F0
100
AcDbEntity
8
SK1
62
256
6
ByLayer
370
18
48
1
60
0
100
AcDbLine
10
-48.20375
20
-15.101921
30
0
11
-48.20375
21
-9.96375
31
0
39
0
210
0
220
0
230
1
0
LINE
5
F1
100
AcDbEntity
8
SK1
62
256
6
ByLayer
370
18
48
1
60
0
100
AcDbLine
10
-49.9
20
-11.66
30
0
11
-48.20375
21
-9.96375
31
0
39
0
210
0
220
0
230
1
0
LINE
5
F2
100
AcDbEntity
8
SK1
62
256
6
ByLayer
370
18
48
1
60
0
100
AcDbLine
10
-49.9
20
-11.66
30
0
11
-49.9
21
-14.192093
31
0
39
0
210
0
220
0
230
1
0
LINE
5
F3
100
AcDbEntity
8
SK1
62
256
6
ByLayer
370
13
48
1
60
0
100
AcDbLine
10
-49.680346
20
-16.388863
30
0
11
-48.810766
21
-16.783644
31
0
39
0
210
0
220
0
230
1
0
LINE
5
F4
100
AcDbEntity
8
SK1
62
256
6
ByLayer
370
18
48
1
60
0
100
AcDbLine
10
-49.9
20
-14.192093
30
0
11
-49.9
21
-33.605194
31
0
39
0
210
0
220
0
230
1
0
LINE
5
F5
100
AcDbEntity
8
SK1
62
256
6
ByLayer
370
18
48
1
60
0
100
AcDbLine
10
-36.7
20
9.96375
30
0
11
-48.20375
21
9.96375
31
0
39
0
210
0
220
0
230
1
0
LINE
5
F6
100
AcDbEntity
8
SK1
62
256
6
ByLayer
370
13
48
1
60
0
100
AcDbLine
10
-36.7
20
17.059224
30
0
11
-40.216558
21
17.059224
31
0
39
0
210
0
220
0
230
1
0
LINE
5
F7
100
AcDbEntity
8
SK1
62
256
6
ByLayer
370
13
48
1
60
0
100
AcDbLine
10
-49.680346
20
16.388863
30
0
11
-48.810766
21
16.783644
31
0
39
0
210
0
220
0
230
1
0
LINE
5
F8
100
AcDbEntity
8
SK1
62
256
6
ByLayer
370
18
48
1
60
0
100
AcDbLine
10
-49.9
20
11.66
30
0
11
-49.9
21
14.192093
31
0
39
0
210
0
220
0
230
1
0
LINE
5
F9
100
AcDbEntity
8
SK1
62
256
6
ByLayer
370
18
48
1
60
0
100
AcDbLine
10
-49.9
20
11.66
30
0
11
-48.20375
21
9.96375
31
0
39
0
210
0
220
0
230
1
0
LINE
5
FA
100
AcDbEntity
8
SK1
62
256
6
ByLayer
370
18
48
1
60
0
100
AcDbLine
10
-48.20375
20
15.101921
30
0
11
-48.20375
21
9.96375
31
0
39
0
210
0
220
0
230
1
0
LINE
5
FB
100
AcDbEntity
8
SK1
62
256
6
ByLayer
370
18
48
1
60
0
100
AcDbLine
10
-49.9
20
33.605194
30
0
11
-49.9
21
14.192093
31
0
39
0
210
0
220
0
230
1
0
LINE
5
FC
100
AcDbEntity
8
SK1
62
256
6
ByLayer
370
13
48
1
60
0
100
AcDbLine
10
-36.7
20
9.96375
30
0
11
-36.7
21
17.059224
31
0
39
0
210
0
220
0
230
1
0
LINE
5
FD
100
AcDbEntity
8
SK1
62
256
6
ByLayer
370
13
48
1
60
0
100
AcDbLine
10
-36.7
20
-17.059224
30
0
11
-36.7
21
-9.96375
31
0
39
0
210
0
220
0
230
1
0
LINE
5
FE
100
AcDbEntity
8
SK1
62
256
6
ByLayer
370
18
48
1
60
0
100
AcDbLine
10
-2.066987
20
37.632252
30
0
11
-2.066987
21
0
31
0
39
0
210
0
220
0
230
1
0
LINE
5
FF
100
AcDbEntity
8
SK1
62
256
6
ByLayer
370
18
48
1
60
0
100
AcDbLine
10
-2.066987
20
0
30
0
11
-2.066987
21
-37.632252
31
0
39
0
210
0
220
0
230
1
0
LINE
5
100
100
AcDbEntity
8
SK1
62
256
6
ByLayer
370
13
48
1
60
0
100
AcDbLine
10
-0.8
20
37.632252
30
0
11
-0.8
21
0
31
0
39
0
210
0
220
0
230
1
0
LINE
5
101
100
AcDbEntity
8
SK1
62
256
6
ByLayer
370
13
48
1
60
0
100
AcDbLine
10
-0.8
20
0
30
0
11
-0.8
21
-37.632252
31
0
39
0
210
0
220
0
230
1
0
LINE
5
102
100
AcDbEntity
8
SK1
62
256
6
ByLayer
370
18
48
1
60
0
100
AcDbLine
10
-2.5
20
-37.882252
30
0
11
-2.5
21
0
31
0
39
0
210
0
220
0
230
1
0
LINE
5
103
100
AcDbEntity
8
SK1
62
256
6
ByLayer
370
18
48
1
60
0
100
AcDbLine
10
-2.5
20
0
30
0
11
-2.5
21
37.882252
31
0
39
0
210
0
220
0
230
1
0
LINE
5
104
100
AcDbEntity
8
SK1
62
256
6
ByLayer
370
13
48
1
60
0
100
AcDbLine
10
-48.000075
20
15.157562
30
0
11
-48.000075
21
35.602689
31
0
39
0
210
0
220
0
230
1
0
LINE
5
105
100
AcDbEntity
8
SK1
62
256
6
ByLayer
370
18
48
1
60
0
100
AcDbLine
10
-34.8
20
12.976493
30
0
11
-34.8
21
-12.976493
31
0
39
0
210
0
220
0
230
1
0
LINE
5
106
100
AcDbEntity
8
SK1
62
256
6
ByLayer
370
13
48
1
60
0
100
AcDbLine
10
-48.000075
20
-35.602689
30
0
11
-48.000075
21
-15.157562
31
0
39
0
210
0
220
0
230
1
0
LINE
5
107
100
AcDbEntity
8
1
62
256
6
ByLayer
370
13
48
0.05
60
0
100
AcDbLine
10
12
20
0
30
0
11
28
21
0
31
0
39
0
210
0
220
0
230
1
0
LINE
5
108
100
AcDbEntity
8
1
62
256
6
ByLayer
370
13
48
0.05
60
0
100
AcDbLine
10
20
20
-8
30
0
11
20
21
8
31
0
39
0
210
0
220
0
230
1
0
LINE
5
109
100
AcDbEntity
8
1
62
256
6
ByLayer
370
13
48
0.05
60
0
100
AcDbLine
10
-26
20
0
30
0
11
-4
21
0
31
0
39
0
210
0
220
0
230
1
0
LINE
5
10A
100
AcDbEntity
8
1
62
256
6
ByLayer
370
13
48
0.05
60
0
100
AcDbLine
10
-15
20
-11
30
0
11
-15
21
11
31
0
39
0
210
0
220
0
230
1
0
LINE
5
10B
100
AcDbEntity
8
SK2
62
256
6
ByLayer
370
18
48
1
60
0
100
AcDbLine
10
-76.875
20
-49.965
30
0
11
-76.875
21
49.965
31
0
39
0
210
0
220
0
230
1
0
LINE
5
10D
100
AcDbEntity
8
SK2
62
256
6
ByLayer
370
18
48
1
60
0
100
AcDbLine
10
-0.8875
20
49.965
30
0
11
-78.875
21
49.965
31
0
39
0
210
0
220
0
230
1
0
LINE
5
10E
100
AcDbEntity
8
SK2
62
256
6
ByLayer
370
18
48
1
60
0
100
AcDbLine
10
-0.8875
20
-49.965
30
0
11
-78.875
21
-49.965
31
0
39
0
210
0
220
0
230
1
0
LINE
5
10F
100
AcDbEntity
8
1
62
256
6
ByLayer
370
18
48
1
60
1
100
AcDbLine
10
-76.875
20
49.965
30
0
11
-76.414216
21
46.465002
31
0
39
0
210
0
220
0
230
1
0
LINE
5
110
100
AcDbEntity
8
1
62
256
6
ByLayer
370
18
48
1
60
1
100
AcDbLine
10
-76.414216
20
46.465002
30
0
11
-77.335784
21
46.464998
31
0
39
0
210
0
220
0
230
1
0
LINE
5
111
100
AcDbEntity
8
1
62
256
6
ByLayer
370
18
48
1
60
1
100
AcDbLine
10
-77.335784
20
46.464998
30
0
11
-76.875
21
49.965
31
0
39
0
210
0
220
0
230
1
0
LINE
5
112
100
AcDbEntity
8
1
62
256
6
ByLayer
370
18
48
1
60
1
100
AcDbLine
10
-76.875
20
-49.965
30
0
11
-77.335784
21
-46.465002
31
0
39
0
210
0
220
0
230
1
0
LINE
5
113
100
AcDbEntity
8
1
62
256
6
ByLayer
370
18
48
1
60
1
100
AcDbLine
10
-77.335784
20
-46.465002
30
0
11
-76.414216
21
-46.464998
31
0
39
0
210
0
220
0
230
1
0
LINE
5
114
100
AcDbEntity
8
1
62
256
6
ByLayer
370
18
48
1
60
1
100
AcDbLine
10
-76.414216
20
-46.464998
30
0
11
-76.875
21
-49.965
31
0
39
0
210
0
220
0
230
1
0
LINE
5
115
100
AcDbEntity
8
SK2
62
256
6
ByLayer
370
13
48
1
60
0
100
AcDbLine
10
83.725
20
-31.35
30
0
11
83.725
21
31.35
31
0
39
0
210
0
220
0
230
1
0
LINE
5
116
100
AcDbEntity
8
SK2
62
256
6
ByLayer
370
13
48
1
60
0
100
AcDbLine
10
43.5875
20
31.35
30
0
11
85.725
21
31.35
31
0
39
0
210
0
220
0
230
1
0
LINE
5
117
100
AcDbEntity
8
SK2
62
256
6
ByLayer
370
13
48
1
60
0
100
AcDbLine
10
43.5875
20
-31.35
30
0
11
85.725
21
-31.35
31
0
39
0
210
0
220
0
230
1
0
LINE
5
118
100
AcDbEntity
8
1
62
256
6
ByLayer
370
18
48
1
60
1
100
AcDbLine
10
83.725
20
31.35
30
0
11
84.185784
21
27.850002
31
0
39
0
210
0
220
0
230
1
0
LINE
5
119
100
AcDbEntity
8
1
62
256
6
ByLayer
370
18
48
1
60
1
100
AcDbLine
10
84.185784
20
27.850002
30
0
11
83.264216
21
27.849998
31
0
39
0
210
0
220
0
230
1
0
LINE
5
11A
100
AcDbEntity
8
1
62
256
6
ByLayer
370
18
48
1
60
1
100
AcDbLine
10
83.264216
20
27.849998
30
0
11
83.725
21
31.35
31
0
39
0
210
0
220
0
230
1
0
LINE
5
11B
100
AcDbEntity
8
1
62
256
6
ByLayer
370
18
48
1
60
1
100
AcDbLine
10
83.725
20
-31.35
30
0
11
83.264216
21
-27.850002
31
0
39
0
210
0
220
0
230
1
0
LINE
5
11C
100
AcDbEntity
8
1
62
256
6
ByLayer
370
18
48
1
60
1
100
AcDbLine
10
83.264216
20
-27.850002
30
0
11
84.185784
21
-27.849998
31
0
39
0
210
0
220
0
230
1
0
LINE
5
11D
100
AcDbEntity
8
1
62
256
6
ByLayer
370
18
48
1
60
1
100
AcDbLine
10
84.185784
20
-27.849998
30
0
11
83.725
21
-31.35
31
0
39
0
210
0
220
0
230
1
0
LINE
5
11E
100
AcDbEntity
8
SK2
62
256
6
ByLayer
370
18
48
1
60
0
100
AcDbLine
10
-49.9
20
73.167689
30
0
11
0
21
73.167689
31
0
39
0
210
0
220
0
230
1
0
LINE
5
11F
100
AcDbEntity
8
SK2
62
256
6
ByLayer
370
18
48
1
60
0
100
AcDbLine
10
0
20
50.8525
30
0
11
0
21
75.167689
31
0
39
0
210
0
220
0
230
1
0
LINE
5
120
100
AcDbEntity
8
SK2
62
256
6
ByLayer
370
18
48
1
60
0
100
AcDbLine
10
-49.9
20
35.192694
30
0
11
-49.9
21
75.167689
31
0
39
0
210
0
220
0
230
1
0
LINE
5
121
100
AcDbEntity
8
1
62
256
6
ByLayer
370
18
48
1
60
1
100
AcDbLine
10
0
20
73.167689
30
0
11
-3.499998
21
72.706905
31
0
39
0
210
0
220
0
230
1
0
LINE
5
122
100
AcDbEntity
8
1
62
256
6
ByLayer
370
18
48
1
60
1
100
AcDbLine
10
-3.499998
20
72.706905
30
0
11
-3.500002
21
73.628472
31
0
39
0
210
0
220
0
230
1
0
LINE
5
123
100
AcDbEntity
8
1
62
256
6
ByLayer
370
18
48
1
60
1
100
AcDbLine
10
-3.500002
20
73.628472
30
0
11
0
21
73.167689
31
0
39
0
210
0
220
0
230
1
0
LINE
5
124
100
AcDbEntity
8
1
62
256
6
ByLayer
370
18
48
1
60
1
100
AcDbLine
10
-49.9
20
73.167689
30
0
11
-46.400002
21
73.628472
31
0
39
0
210
0
220
0
230
1
0
LINE
5
125
100
AcDbEntity
8
1
62
256
6
ByLayer
370
18
48
1
60
1
100
AcDbLine
10
-46.400002
20
73.628472
30
0
11
-46.399998
21
72.706905
31
0
39
0
210
0
220
0
230
1
0
LINE
5
126
100
AcDbEntity
8
1
62
256
6
ByLayer
370
18
48
1
60
1
100
AcDbLine
10
-46.399998
20
72.706905
30
0
11
-49.9
21
73.167689
31
0
39
0
210
0
220
0
230
1
0
LINE
5
127
100
AcDbEntity
8
SK2
62
256
6
ByLayer
370
18
48
1
60
0
100
AcDbLine
10
0
20
93.167689
30
0
11
58
21
93.167689
31
0
39
0
210
0
220
0
230
1
0
LINE
5
128
100
AcDbEntity
8
SK2
62
256
6
ByLayer
370
18
48
1
60
0
100
AcDbLine
10
58
20
26.5875
30
0
11
58
21
95.167689
31
0
39
0
210
0
220
0
230
1
0
LINE
5
129
100
AcDbEntity
8
SK2
62
256
6
ByLayer
370
18
48
1
60
0
100
AcDbLine
10
0
20
50.8525
30
0
11
0
21
95.167689
31
0
39
0
210
0
220
0
230
1
0
LINE
5
12A
100
AcDbEntity
8
1
62
256
6
ByLayer
370
18
48
1
60
1
100
AcDbLine
10
58
20
93.167689
30
0
11
54.500002
21
92.706905
31
0
39
0
210
0
220
0
230
1
0
LINE
5
12B
100
AcDbEntity
8
1
62
256
6
ByLayer
370
18
48
1
60
1
100
AcDbLine
10
54.500002
20
92.706905
30
0
11
54.499998
21
93.628472
31
0
39
0
210
0
220
0
230
1
0
LINE
5
12C
100
AcDbEntity
8
1
62
256
6
ByLayer
370
18
48
1
60
1
100
AcDbLine
10
54.499998
20
93.628472
30
0
11
58
21
93.167689
31
0
39
0
210
0
220
0
230
1
0
LINE
5
12D
100
AcDbEntity
8
1
62
256
6
ByLayer
370
18
48
1
60
1
100
AcDbLine
10
0
20
93.167689
30
0
11
3.499998
21
93.628472
31
0
39
0
210
0
220
0
230
1
0
LINE
5
12E
100
AcDbEntity
8
1
62
256
6
ByLayer
370
18
48
1
60
1
100
AcDbLine
10
3.499998
20
93.628472
30
0
11
3.500002
21
92.706905
31
0
39
0
210
0
220
0
230
1
0
LINE
5
12F
100
AcDbEntity
8
1
62
256
6
ByLayer
370
18
48
1
60
1
100
AcDbLine
10
3.500002
20
92.706905
30
0
11
0
21
93.167689
31
0
39
0
210
0
220
0
230
1
0
LINE
5
130
100
AcDbEntity
8
SK2
62
256
6
ByLayer
370
18
48
1
60
0
100
AcDbLine
10
0
20
83.167689
30
0
11
41
21
83.167689
31
0
39
0
210
0
220
0
230
1
0
LINE
5
131
100
AcDbEntity
8
SK2
62
256
6
ByLayer
370
18
48
1
60
0
100
AcDbLine
10
41
20
31.9375
30
0
11
41
21
85.167689
31
0
39
0
210
0
220
0
230
1
0
LINE
5
132
100
AcDbEntity
8
SK2
62
256
6
ByLayer
370
18
48
1
60
0
100
AcDbLine
10
0
20
50.8525
30
0
11
0
21
85.167689
31
0
39
0
210
0
220
0
230
1
0
LINE
5
133
100
AcDbEntity
8
1
62
256
6
ByLayer
370
18
48
1
60
1
100
AcDbLine
10
41
20
83.167689
30
0
11
37.500002
21
82.706905
31
0
39
0
210
0
220
0
230
1
0
LINE
5
134
100
AcDbEntity
8
1
62
256
6
ByLayer
370
18
48
1
60
1
100
AcDbLine
10
37.500002
20
82.706905
30
0
11
37.499998
21
83.628472
31
0
39
0
210
0
220
0
230
1
0
LINE
5
135
100
AcDbEntity
8
1
62
256
6
ByLayer
370
18
48
1
60
1
100
AcDbLine
10
37.499998
20
83.628472
30
0
11
41
21
83.167689
31
0
39
0
210
0
220
0
230
1
0
LINE
5
136
100
AcDbEntity
8
1
62
256
6
ByLayer
370
18
48
1
60
1
100
AcDbLine
10
0
20
83.167689
30
0
11
3.499998
21
83.628472
31
0
39
0
210
0
220
0
230
1
0
LINE
5
137
100
AcDbEntity
8
1
62
256
6
ByLayer
370
18
48
1
60
1
100
AcDbLine
10
3.499998
20
83.628472
30
0
11
3.500002
21
82.706905
31
0
39
0
210
0
220
0
230
1
0
LINE
5
138
100
AcDbEntity
8
1
62
256
6
ByLayer
370
18
48
1
60
1
100
AcDbLine
10
3.500002
20
82.706905
30
0
11
0
21
83.167689
31
0
39
0
210
0
220
0
230
1
0
LINE
5
139
100
AcDbEntity
8
SK2
62
256
6
ByLayer
370
18
48
1
60
0
100
AcDbLine
10
58
20
73.167689
30
0
11
41
21
73.167689
31
0
39
0
210
0
220
0
230
1
0
LINE
5
13A
100
AcDbEntity
8
SK2
62
256
6
ByLayer
370
18
48
1
60
0
100
AcDbLine
10
41
20
31.9375
30
0
11
41
21
75.167689
31
0
39
0
210
0
220
0
230
1
0
LINE
5
13B
100
AcDbEntity
8
SK2
62
256
6
ByLayer
370
18
48
1
60
0
100
AcDbLine
10
58
20
26.5875
30
0
11
58
21
75.167689
31
0
39
0
210
0
220
0
230
1
0
LINE
5
13C
100
AcDbEntity
8
1
62
256
6
ByLayer
370
18
48
1
60
1
100
AcDbLine
10
41
20
73.167689
30
0
11
44.499998
21
73.628472
31
0
39
0
210
0
220
0
230
1
0
LINE
5
13D
100
AcDbEntity
8
1
62
256
6
ByLayer
370
18
48
1
60
1
100
AcDbLine
10
44.499998
20
73.628472
30
0
11
44.500002
21
72.706905
31
0
39
0
210
0
220
0
230
1
0
LINE
5
13E
100
AcDbEntity
8
1
62
256
6
ByLayer
370
18
48
1
60
1
100
AcDbLine
10
44.500002
20
72.706905
30
0
11
41
21
73.167689
31
0
39
0
210
0
220
0
230
1
0
LINE
5
13F
100
AcDbEntity
8
1
62
256
6
ByLayer
370
18
48
1
60
1
100
AcDbLine
10
58
20
73.167689
30
0
11
54.500002
21
72.706905
31
0
39
0
210
0
220
0
230
1
0
LINE
5
140
100
AcDbEntity
8
1
62
256
6
ByLayer
370
18
48
1
60
1
100
AcDbLine
10
54.500002
20
72.706905
30
0
11
54.499998
21
73.628472
31
0
39
0
210
0
220
0
230
1
0
LINE
5
141
100
AcDbEntity
8
1
62
256
6
ByLayer
370
18
48
1
60
1
100
AcDbLine
10
54.499998
20
73.628472
30
0
11
58
21
73.167689
31
0
39
0
210
0
220
0
230
1
0
LINE
5
142
100
AcDbEntity
8
2
62
256
6
ByLayer
370
18
48
1
60
0
100
AcDbLine
10
0
20
-69.900089
30
0
11
48
21
-69.900089
31
0
39
0
210
0
220
0
230
1
0
LINE
5
143
100
AcDbEntity
8
2
62
256
6
ByLayer
370
18
48
1
60
0
100
AcDbLine
10
48
20
-1.5875
30
0
11
48
21
-71.900089
31
0
39
0
210
0
220
0
230
1
0
LINE
5
144
100
AcDbEntity
8
2
62
256
6
ByLayer
370
18
48
1
60
0
100
AcDbLine
10
0
20
-50.8525
30
0
11
0
21
-71.900089
31
0
39
0
210
0
220
0
230
1
0
LINE
5
145
100
AcDbEntity
8
1
62
256
6
ByLayer
370
18
48
1
60
1
100
AcDbLine
10
48
20
-69.900089
30
0
11
44.500002
21
-70.360873
31
0
39
0
210
0
220
0
230
1
0
LINE
5
146
100
AcDbEntity
8
1
62
256
6
ByLayer
370
18
48
1
60
1
100
AcDbLine
10
44.500002
20
-70.360873
30
0
11
44.499998
21
-69.439305
31
0
39
0
210
0
220
0
230
1
0
LINE
5
147
100
AcDbEntity
8
1
62
256
6
ByLayer
370
18
48
1
60
1
100
AcDbLine
10
44.499998
20
-69.439305
30
0
11
48
21
-69.900089
31
0
39
0
210
0
220
0
230
1
0
LINE
5
148
100
AcDbEntity
8
1
62
256
6
ByLayer
370
18
48
1
60
1
100
AcDbLine
10
0
20
-69.900089
30
0
11
3.499998
21
-69.439305
31
0
39
0
210
0
220
0
230
1
0
LINE
5
149
100
AcDbEntity
8
1
62
256
6
ByLayer
370
18
48
1
60
1
100
AcDbLine
10
3.499998
20
-69.439305
30
0
11
3.500002
21
-70.360873
31
0
39
0
210
0
220
0
230
1
0
LINE
5
14A
100
AcDbEntity
8
1
62
256
6
ByLayer
370
18
48
1
60
1
100
AcDbLine
10
3.500002
20
-70.360873
30
0
11
0
21
-69.900089
31
0
39
0
210
0
220
0
230
1
0
LINE
5
1A2
100
AcDbEntity
8
1
62
256
6
ByLayer
370
13
48
0.05
60
0
100
AcDbLine
10
20
20
52.422472
30
0
11
20
21
36.200875
31
0
39
0
210
0
220
0
230
1
0
LINE
5
1A3
100
AcDbEntity
8
1
62
256
6
ByLayer
370
13
48
0.05
60
0
100
AcDbLine
10
-54.75
20
0
30
0
11
47.890673
21
0
31
0
39
0
210
0
220
0
230
1
0
LINE
5
1A4
100
AcDbEntity
8
1
62
256
6
ByLayer
370
13
48
0.05
60
0
100
AcDbLine
10
64.5
20
0
30
0
11
34.5
21
0
31
0
39
0
210
0
220
0
230
1
0
LINE
5
1A9
100
AcDbEntity
8
1
62
256
6
ByLayer
370
18
48
1
60
1
100
AcDbLine
10
-76.875
20
49.965
30
0
11
-76.414216
21
46.465002
31
0
39
0
210
0
220
0
230
1
0
LINE
5
1AA
100
AcDbEntity
8
1
62
256
6
ByLayer
370
18
48
1
60
1
100
AcDbLine
10
-76.414216
20
46.465002
30
0
11
-77.335784
21
46.464998
31
0
39
0
210
0
220
0
230
1
0
LINE
5
1AB
100
AcDbEntity
8
1
62
256
6
ByLayer
370
18
48
1
60
1
100
AcDbLine
10
-77.335784
20
46.464998
30
0
11
-76.875
21
49.965
31
0
39
0
210
0
220
0
230
1
0
LINE
5
1AD
100
AcDbEntity
8
1
62
256
6
ByLayer
370
18
48
1
60
1
100
AcDbLine
10
-76.875
20
-49.965
30
0
11
-77.335784
21
-46.465002
31
0
39
0
210
0
220
0
230
1
0
LINE
5
1AE
100
AcDbEntity
8
1
62
256
6
ByLayer
370
18
48
1
60
1
100
AcDbLine
10
-77.335784
20
-46.465002
30
0
11
-76.414216
21
-46.464998
31
0
39
0
210
0
220
0
230
1
0
LINE
5
1AF
100
AcDbEntity
8
1
62
256
6
ByLayer
370
18
48
1
60
1
100
AcDbLine
10
-76.414216
20
-46.464998
30
0
11
-76.875
21
-49.965
31
0
39
0
210
0
220
0
230
1
0
LINE
5
1B3
100
AcDbEntity
8
1
62
256
6
ByLayer
370
18
48
1
60
1
100
AcDbLine
10
83.725
20
31.35
30
0
11
84.185784
21
27.850002
31
0
39
0
210
0
220
0
230
1
0
LINE
5
1B4
100
AcDbEntity
8
1
62
256
6
ByLayer
370
18
48
1
60
1
100
AcDbLine
10
84.185784
20
27.850002
30
0
11
83.264216
21
27.849998
31
0
39
0
210
0
220
0
230
1
0
LINE
5
1B5
100
AcDbEntity
8
1
62
256
6
ByLayer
370
18
48
1
60
1
100
AcDbLine
10
83.264216
20
27.849998
30
0
11
83.725
21
31.35
31
0
39
0
210
0
220
0
230
1
0
LINE
5
1B7
100
AcDbEntity
8
1
62
256
6
ByLayer
370
18
48
1
60
1
100
AcDbLine
10
83.725
20
-31.35
30
0
11
83.264216
21
-27.850002
31
0
39
0
210
0
220
0
230
1
0
LINE
5
1B8
100
AcDbEntity
8
1
62
256
6
ByLayer
370
18
48
1
60
1
100
AcDbLine
10
83.264216
20
-27.850002
30
0
11
84.185784
21
-27.849998
31
0
39
0
210
0
220
0
230
1
0
LINE
5
1B9
100
AcDbEntity
8
1
62
256
6
ByLayer
370
18
48
1
60
1
100
AcDbLine
10
84.185784
20
-27.849998
30
0
11
83.725
21
-31.35
31
0
39
0
210
0
220
0
230
1
0
LINE
5
1BC
100
AcDbEntity
8
1
62
256
6
ByLayer
370
18
48
1
60
1
100
AcDbLine
10
0
20
73.167689
30
0
11
-3.499998
21
72.706905
31
0
39
0
210
0
220
0
230
1
0
LINE
5
1BD
100
AcDbEntity
8
1
62
256
6
ByLayer
370
18
48
1
60
1
100
AcDbLine
10
-3.499998
20
72.706905
30
0
11
-3.500002
21
73.628472
31
0
39
0
210
0
220
0
230
1
0
LINE
5
1BE
100
AcDbEntity
8
1
62
256
6
ByLayer
370
18
48
1
60
1
100
AcDbLine
10
-3.500002
20
73.628472
30
0
11
0
21
73.167689
31
0
39
0
210
0
220
0
230
1
0
LINE
5
1C0
100
AcDbEntity
8
1
62
256
6
ByLayer
370
18
48
1
60
1
100
AcDbLine
10
-49.9
20
73.167689
30
0
11
-46.400002
21
73.628472
31
0
39
0
210
0
220
0
230
1
0
LINE
5
1C1
100
AcDbEntity
8
1
62
256
6
ByLayer
370
18
48
1
60
1
100
AcDbLine
10
-46.400002
20
73.628472
30
0
11
-46.399998
21
72.706905
31
0
39
0
210
0
220
0
230
1
0
LINE
5
1C2
100
AcDbEntity
8
1
62
256
6
ByLayer
370
18
48
1
60
1
100
AcDbLine
10
-46.399998
20
72.706905
30
0
11
-49.9
21
73.167689
31
0
39
0
210
0
220
0
230
1
0
LINE
5
1C5
100
AcDbEntity
8
1
62
256
6
ByLayer
370
18
48
1
60
1
100
AcDbLine
10
58
20
93.167689
30
0
11
54.500002
21
92.706905
31
0
39
0
210
0
220
0
230
1
0
LINE
5
1C6
100
AcDbEntity
8
1
62
256
6
ByLayer
370
18
48
1
60
1
100
AcDbLine
10
54.500002
20
92.706905
30
0
11
54.499998
21
93.628472
31
0
39
0
210
0
220
0
230
1
0
LINE
5
1C7
100
AcDbEntity
8
1
62
256
6
ByLayer
370
18
48
1
60
1
100
AcDbLine
10
54.499998
20
93.628472
30
0
11
58
21
93.167689
31
0
39
0
210
0
220
0
230
1
0
LINE
5
1C9
100
AcDbEntity
8
1
62
256
6
ByLayer
370
18
48
1
60
1
100
AcDbLine
10
0
20
93.167689
30
0
11
3.499998
21
93.628472
31
0
39
0
210
0
220
0
230
1
0
LINE
5
1CA
100
AcDbEntity
8
1
62
256
6
ByLayer
370
18
48
1
60
1
100
AcDbLine
10
3.499998
20
93.628472
30
0
11
3.500002
21
92.706905
31
0
39
0
210
0
220
0
230
1
0
LINE
5
1CB
100
AcDbEntity
8
1
62
256
6
ByLayer
370
18
48
1
60
1
100
AcDbLine
10
3.500002
20
92.706905
30
0
11
0
21
93.167689
31
0
39
0
210
0
220
0
230
1
0
LINE
5
1CE
100
AcDbEntity
8
1
62
256
6
ByLayer
370
18
48
1
60
1
100
AcDbLine
10
41
20
83.167689
30
0
11
37.500002
21
82.706905
31
0
39
0
210
0
220
0
230
1
0
LINE
5
1CF
100
AcDbEntity
8
1
62
256
6
ByLayer
370
18
48
1
60
1
100
AcDbLine
10
37.500002
20
82.706905
30
0
11
37.499998
21
83.628472
31
0
39
0
210
0
220
0
230
1
0
LINE
5
1D0
100
AcDbEntity
8
1
62
256
6
ByLayer
370
18
48
1
60
1
100
AcDbLine
10
37.499998
20
83.628472
30
0
11
41
21
83.167689
31
0
39
0
210
0
220
0
230
1
0
LINE
5
1D2
100
AcDbEntity
8
1
62
256
6
ByLayer
370
18
48
1
60
1
100
AcDbLine
10
0
20
83.167689
30
0
11
3.499998
21
83.628472
31
0
39
0
210
0
220
0
230
1
0
LINE
5
1D3
100
AcDbEntity
8
1
62
256
6
ByLayer
370
18
48
1
60
1
100
AcDbLine
10
3.499998
20
83.628472
30
0
11
3.500002
21
82.706905
31
0
39
0
210
0
220
0
230
1
0
LINE
5
1D4
100
AcDbEntity
8
1
62
256
6
ByLayer
370
18
48
1
60
1
100
AcDbLine
10
3.500002
20
82.706905
30
0
11
0
21
83.167689
31
0
39
0
210
0
220
0
230
1
0
LINE
5
1D7
100
AcDbEntity
8
1
62
256
6
ByLayer
370
18
48
1
60
1
100
AcDbLine
10
41
20
73.167689
30
0
11
44.499998
21
73.628472
31
0
39
0
210
0
220
0
230
1
0
LINE
5
1D8
100
AcDbEntity
8
1
62
256
6
ByLayer
370
18
48
1
60
1
100
AcDbLine
10
44.499998
20
73.628472
30
0
11
44.500002
21
72.706905
31
0
39
0
210
0
220
0
230
1
0
LINE
5
1D9
100
AcDbEntity
8
1
62
256
6
ByLayer
370
18
48
1
60
1
100
AcDbLine
10
44.500002
20
72.706905
30
0
11
41
21
73.167689
31
0
39
0
210
0
220
0
230
1
0
LINE
5
1DB
100
AcDbEntity
8
1
62
256
6
ByLayer
370
18
48
1
60
1
100
AcDbLine
10
58
20
73.167689
30
0
11
54.500002
21
72.706905
31
0
39
0
210
0
220
0
230
1
0
LINE
5
1DC
100
AcDbEntity
8
1
62
256
6
ByLayer
370
18
48
1
60
1
100
AcDbLine
10
54.500002
20
72.706905
30
0
11
54.499998
21
73.628472
31
0
39
0
210
0
220
0
230
1
0
LINE
5
1DD
100
AcDbEntity
8
1
62
256
6
ByLayer
370
18
48
1
60
1
100
AcDbLine
10
54.499998
20
73.628472
30
0
11
58
21
73.167689
31
0
39
0
210
0
220
0
230
1
0
LINE
5
1E0
100
AcDbEntity
8
1
62
256
6
ByLayer
370
18
48
1
60
1
100
AcDbLine
10
48
20
-69.900089
30
0
11
44.500002
21
-70.360873
31
0
39
0
210
0
220
0
230
1
0
LINE
5
1E1
100
AcDbEntity
8
1
62
256
6
ByLayer
370
18
48
1
60
1
100
AcDbLine
10
44.500002
20
-70.360873
30
0
11
44.499998
21
-69.439305
31
0
39
0
210
0
220
0
230
1
0
LINE
5
1E2
100
AcDbEntity
8
1
62
256
6
ByLayer
370
18
48
1
60
1
100
AcDbLine
10
44.499998
20
-69.439305
30
0
11
48
21
-69.900089
31
0
39
0
210
0
220
0
230
1
0
LINE
5
1E4
100
AcDbEntity
8
1
62
256
6
ByLayer
370
18
48
1
60
1
100
AcDbLine
10
0
20
-69.900089
30
0
11
3.499998
21
-69.439305
31
0
39
0
210
0
220
0
230
1
0
LINE
5
1E5
100
AcDbEntity
8
1
62
256
6
ByLayer
370
18
48
1
60
1
100
AcDbLine
10
3.499998
20
-69.439305
30
0
11
3.500002
21
-70.360873
31
0
39
0
210
0
220
0
230
1
0
LINE
5
1E6
100
AcDbEntity
8
1
62
256
6
ByLayer
370
18
48
1
60
1
100
AcDbLine
10
3.500002
20
-70.360873
30
0
11
0
21
-69.900089
31
0
39
0
210
0
220
0
230
1
0
MTEXT
5
1A5
100
AcDbEntity
8
SK2
62
256
6
ByLayer
370
18
48
1
60
0
100
AcDbMText
10
-78.439634
20
-5.400922
30
0
210
0
220
0
230
1
1
%%c
40
3.5
41
0
44
1.084337
50
90
71
7
72
5
7
iso_b_vert
0
MTEXT
5
1A8
100
AcDbEntity
8
SK2
62
256
6
ByLayer
370
18
48
1
60
0
100
AcDbMText
10
-78.439634
20
1.571734
30
0
210
0
220
0
230
1
1
\W0.6217;100
40
3.5
41
0
44
1.084337
50
90
71
7
72
5
7
iso_b_vert
0
MTEXT
5
1B1
100
AcDbEntity
8
SK2
62
256
6
ByLayer
370
18
48
1
60
0
100
AcDbMText
10
82.160366
20
-4.530622
30
0
210
0
220
0
230
1
1
%%c
40
3.5
41
0
44
1.084337
50
90
71
7
72
5
7
iso_b_vert
0
MTEXT
5
1B2
100
AcDbEntity
8
SK2
62
256
6
ByLayer
370
18
48
1
60
0
100
AcDbMText
10
82.160366
20
2.442034
30
0
210
0
220
0
230
1
1
\W0.6740;63
40
3.5
41
0
44
1.084337
50
90
71
7
72
5
7
iso_b_vert
0
MTEXT
5
1BB
100
AcDbEntity
8
SK2
62
256
6
ByLayer
370
18
48
1
60
0
100
AcDbMText
10
-29.055966
20
74.200322
30
0
210
0
220
0
230
1
1
\W0.7756;49.9
40
3.5
41
0
44
1.084337
50
0
71
7
72
5
7
iso_b_vert
0
MTEXT
5
1C4
100
AcDbEntity
8
SK2
62
256
6
ByLayer
370
18
48
1
60
0
100
AcDbMText
10
27.095034
20
94.200322
30
0
210
0
220
0
230
1
1
\W0.6740;58
40
3.5
41
0
44
1.084337
50
0
71
7
72
5
7
iso_b_vert
0
MTEXT
5
1CD
100
AcDbEntity
8
SK2
62
256
6
ByLayer
370
18
48
1
60
0
100
AcDbMText
10
18.8482
20
84.200322
30
0
210
0
220
0
230
1
1
\W0.7092;41
40
3.5
41
0
44
1.084337
50
0
71
7
72
5
7
iso_b_vert
0
MTEXT
5
1D6
100
AcDbEntity
8
SK2
62
256
6
ByLayer
370
18
48
1
60
0
100
AcDbMText
10
48.032467
20
74.200322
30
0
210
0
220
0
230
1
1
\W0.5321;17
40
3.5
41
0
44
1.084337
50
0
71
7
72
5
7
iso_b_vert
0
MTEXT
5
1DF
100
AcDbEntity
8
2
62
256
6
ByLayer
370
18
48
1
60
0
100
AcDbMText
10
21.910767
20
-68.867455
30
0
210
0
220
0
230
1
1
\W0.7361;48
40
3.5
41
0
44
1.084337
50
0
71
7
72
5
7
iso_b_vert
0
MTEXT
5
1E8
100
AcDbEntity
8
SK6
62
256
6
ByLayer
370
18
48
1
60
0
100
AcDbMText
10
-29.36154
20
-86.981086
30
0
210
0
220
0
230
1
1
\W0.7643;HT10-DM25-N-048A
40
3
41
0
44
1.084337
50
0
71
7
72
5
7
iso_b_vert
0
HATCH
5
1AC
100
AcDbEntity
8
SK2
62
256
6
ByLayer
370
13
48
1
60
0
100
AcDbHatch
10
0
20
0
30
0
210
0
220
0
230
1
2
ANSI31
70
0
71
0
91
1
92
5
93
3
72
1
10
-76.875
20
49.965
11
-76.4142162584472
21
46.4650016925532
72
1
10
-76.4142162584472
20
46.4650016925532
11
-77.3357837415528
21
46.4649983074468
72
1
10
-77.3357837415528
20
46.4649983074468
11
-76.875
21
49.965
97
0
75
0
76
1
52
0
41
0.0062
77
0
78
1
53
45
43
0
44
0
45
-0.0139193969876572
46
0.0139193969876572
79
0
47
0
98
1
10
0
20
0
0
HATCH
5
1B0
100
AcDbEntity
8
SK2
62
256
6
ByLayer
370
13
48
1
60
0
100
AcDbHatch
10
0
20
0
30
0
210
0
220
0
230
1
2
ANSI31
70
0
71
0
91
1
92
5
93
3
72
1
10
-76.875
20
-49.965
11
-77.3357837415528
21
-46.4650016925532
72
1
10
-77.3357837415528
20
-46.4650016925532
11
-76.4142162584472
21
-46.4649983074468
72
1
10
-76.4142162584472
20
-46.4649983074468
11
-76.875
21
-49.965
97
0
75
0
76
1
52
0
41
0.0062
77
0
78
1
53
45
43
0
44
0
45
-0.0139193969876572
46
0.0139193969876572
79
0
47
0
98
1
10
0
20
0
0
HATCH
5
1B6
100
AcDbEntity
8
SK2
62
256
6
ByLayer
370
13
48
1
60
0
100
AcDbHatch
10
0
20
0
30
0
210
0
220
0
230
1
2
ANSI31
70
0
71
0
91
1
92
5
93
3
72
1
10
83.725
20
31.35
11
84.1857837415528
21
27.8500016925532
72
1
10
84.1857837415528
20
27.8500016925532
11
83.2642162584472
21
27.8499983074468
72
1
10
83.2642162584472
20
27.8499983074468
11
83.725
21
31.35
97
0
75
0
76
1
52
0
41
0.0062
77
0
78
1
53
45
43
0
44
0
45
-0.0139193969876572
46
0.0139193969876572
79
0
47
0
98
1
10
0
20
0
0
HATCH
5
1BA
100
AcDbEntity
8
SK2
62
256
6
ByLayer
370
13
48
1
60
0
100
AcDbHatch
10
0
20
0
30
0
210
0
220
0
230
1
2
ANSI31
70
0
71
0
91
1
92
5
93
3
72
1
10
83.725
20
-31.35
11
83.2642162584472
21
-27.8500016925532
72
1
10
83.2642162584472
20
-27.8500016925532
11
84.1857837415528
21
-27.8499983074468
72
1
10
84.1857837415528
20
-27.8499983074468
11
83.725
21
-31.35
97
0
75
0
76
1
52
0
41
0.0062
77
0
78
1
53
45
43
0
44
0
45
-0.0139193969876572
46
0.0139193969876572
79
0
47
0
98
1
10
0
20
0
0
HATCH
5
1BF
100
AcDbEntity
8
SK2
62
256
6
ByLayer
370
13
48
1
60
0
100
AcDbHatch
10
0
20
0
30
0
210
0
220
0
230
1
2
ANSI31
70
0
71
0
91
1
92
5
93
3
72
1
10
0
20
73.1676887402722
11
-3.49999830744682
21
72.7069049987194
72
1
10
-3.49999830744682
20
72.7069049987194
11
-3.50000169255318
21
73.6284724818249
72
1
10
-3.50000169255318
20
73.6284724818249
11
0
21
73.1676887402722
97
0
75
0
76
1
52
0
41
0.0062
77
0
78
1
53
45
43
0
44
0
45
-0.0139193969876572
46
0.0139193969876572
79
0
47
0
98
1
10
0
20
0
0
HATCH
5
1C3
100
AcDbEntity
8
SK2
62
256
6
ByLayer
370
13
48
1
60
0
100
AcDbHatch
10
0
20
0
30
0
210
0
220
0
230
1
2
ANSI31
70
0
71
0
91
1
92
5
93
3
72
1
10
-49.9
20
73.1676887402722
11
-46.4000016925532
21
73.6284724818249
72
1
10
-46.4000016925532
20
73.6284724818249
11
-46.3999983074468
21
72.7069049987194
72
1
10
-46.3999983074468
20
72.7069049987194
11
-49.9
21
73.1676887402722
97
0
75
0
76
1
52
0
41
0.0062
77
0
78
1
53
45
43
0
44
0
45
-0.0139193969876572
46
0.0139193969876572
79
0
47
0
98
1
10
0
20
0
0
HATCH
5
1C8
100
AcDbEntity
8
SK2
62
256
6
ByLayer
370
13
48
1
60
0
100
AcDbHatch
10
0
20
0
30
0
210
0
220
0
230
1
2
ANSI31
70
0
71
0
91
1
92
5
93
3
72
1
10
58
20
93.1676887402722
11
54.5000016925532
21
92.7069049987194
72
1
10
54.5000016925532
20
92.7069049987194
11
54.4999983074468
21
93.628472481825
72
1
10
54.4999983074468
20
93.628472481825
11
58
21
93.1676887402722
97
0
75
0
76
1
52
0
41
0.0062
77
0
78
1
53
45
43
0
44
0
45
-0.0139193969876572
46
0.0139193969876572
79
0
47
0
98
1
10
0
20
0
0
HATCH
5
1CC
100
AcDbEntity
8
SK2
62
256
6
ByLayer
370
13
48
1
60
0
100
AcDbHatch
10
0
20
0
30
0
210
0
220
0
230
1
2
ANSI31
70
0
71
0
91
1
92
5
93
3
72
1
10
0
20
93.1676887402722
11
3.49999830744682
21
93.628472481825
72
1
10
3.49999830744682
20
93.628472481825
11
3.50000169255318
21
92.7069049987194
72
1
10
3.50000169255318
20
92.7069049987194
11
0
21
93.1676887402722
97
0
75
0
76
1
52
0
41
0.0062
77
0
78
1
53
45
43
0
44
0
45
-0.0139193969876572
46
0.0139193969876572
79
0
47
0
98
1
10
0
20
0
0
HATCH
5
1D1
100
AcDbEntity
8
SK2
62
256
6
ByLayer
370
13
48
1
60
0
100
AcDbHatch
10
0
20
0
30
0
210
0
220
0
230
1
2
ANSI31
70
0
71
0
91
1
92
5
93
3
72
1
10
41
20
83.1676887402722
11
37.5000016925532
21
82.7069049987194
72
1
10
37.5000016925532
20
82.7069049987194
11
37.4999983074468
21
83.628472481825
72
1
10
37.4999983074468
20
83.628472481825
11
41
21
83.1676887402722
97
0
75
0
76
1
52
0
41
0.0062
77
0
78
1
53
45
43
0
44
0
45
-0.0139193969876572
46
0.0139193969876572
79
0
47
0
98
1
10
0
20
0
0
HATCH
5
1D5
100
AcDbEntity
8
SK2
62
256
6
ByLayer
370
13
48
1
60
0
100
AcDbHatch
10
0
20
0
30
0
210
0
220
0
230
1
2
ANSI31
70
0
71
0
91
1
92
5
93
3
72
1
10
0
20
83.1676887402722
11
3.49999830744682
21
83.628472481825
72
1
10
3.49999830744682
20
83.628472481825
11
3.50000169255318
21
82.7069049987194
72
1
10
3.50000169255318
20
82.7069049987194
11
0
21
83.1676887402722
97
0
75
0
76
1
52
0
41
0.0062
77
0
78
1
53
45
43
0
44
0
45
-0.0139193969876572
46
0.0139193969876572
79
0
47
0
98
1
10
0
20
0
0
HATCH
5
1DA
100
AcDbEntity
8
SK2
62
256
6
ByLayer
370
13
48
1
60
0
100
AcDbHatch
10
0
20
0
30
0
210
0
220
0
230
1
2
ANSI31
70
0
71
0
91
1
92
5
93
3
72
1
10
41
20
73.1676887402722
11
44.4999983074468
21
73.6284724818249
72
1
10
44.4999983074468
20
73.6284724818249
11
44.5000016925532
21
72.7069049987194
72
1
10
44.5000016925532
20
72.7069049987194
11
41
21
73.1676887402722
97
0
75
0
76
1
52
0
41
0.0062
77
0
78
1
53
45
43
0
44
0
45
-0.0139193969876572
46
0.0139193969876572
79
0
47
0
98
1
10
0
20
0
0
HATCH
5
1DE
100
AcDbEntity
8
SK2
62
256
6
ByLayer
370
13
48
1
60
0
100
AcDbHatch
10
0
20
0
30
0
210
0
220
0
230
1
2
ANSI31
70
0
71
0
91
1
92
5
93
3
72
1
10
58
20
73.1676887402722
11
54.5000016925532
21
72.7069049987194
72
1
10
54.5000016925532
20
72.7069049987194
11
54.4999983074468
21
73.6284724818249
72
1
10
54.4999983074468
20
73.6284724818249
11
58
21
73.1676887402722
97
0
75
0
76
1
52
0
41
0.0062
77
0
78
1
53
45
43
0
44
0
45
-0.0139193969876572
46
0.0139193969876572
79
0
47
0
98
1
10
0
20
0
0
HATCH
5
1E3
100
AcDbEntity
8
2
62
256
6
ByLayer
370
13
48
1
60
0
100
AcDbHatch
10
0
20
0
30
0
210
0
220
0
230
1
2
ANSI31
70
0
71
0
91
1
92
5
93
3
72
1
10
48
20
-69.9000889984302
11
44.5000016925532
21
-70.360872739983
72
1
10
44.5000016925532
20
-70.360872739983
11
44.4999983074468
21
-69.4393052568774
72
1
10
44.4999983074468
20
-69.4393052568774
11
48
21
-69.9000889984302
97
0
75
0
76
1
52
0
41
0.0062
77
0
78
1
53
45
43
0
44
0
45
-0.0139193969876572
46
0.0139193969876572
79
0
47
0
98
1
10
0
20
0
0
HATCH
5
1E7
100
AcDbEntity
8
2
62
256
6
ByLayer
370
13
48
1
60
0
100
AcDbHatch
10
0
20
0
30
0
210
0
220
0
230
1
2
ANSI31
70
0
71
0
91
1
92
5
93
3
72
1
10
0
20
-69.9000889984302
11
3.49999830744682
21
-69.4393052568774
72
1
10
3.49999830744682
20
-69.4393052568774
11
3.50000169255318
21
-70.360872739983
72
1
10
3.50000169255318
20
-70.360872739983
11
0
21
-69.9000889984302
97
0
75
0
76
1
52
0
41
0.0062
77
0
78
1
53
45
43
0
44
0
45
-0.0139193969876572
46
0.0139193969876572
79
0
47
0
98
1
10
0
20
0
0
ENDSEC
0
SECTION
2
OBJECTS
0
DICTIONARY
5
256
330
0
100
AcDbDictionary
280
0
281
1
3
ACAD_GROUP
350
257
3
ACAD_MLINESTYLE
350
258
0
DICTIONARY
5
257
330
0
100
AcDbDictionary
280
0
281
1
0
DICTIONARY
5
258
330
0
100
AcDbDictionary
280
0
281
1
3
Standard
350
18
0
MLINESTYLE
5
18
330
258
100
AcDbMlineStyle
2
Standard
70
0
3

62
256
51
90
52
90
71
2
49
-0.5
62
256
6
ByLayer
49
0.5
62
256
6
ByLayer
0
RASTERVARIABLES
5
245
330

100
AcDbRasterVariables
90
0
70
1
71
1
72
1
0
ENDSEC
0
EOF
