0
SECTION
2
HEADER
9
$ACADVER
1
AC1015
9
$DWGCODEPAGE
3
ANSI_1252
9
$HANDSEED
5
263
9
$ANGBASE
50
0
9
$ANGDIR
70
0
9
$ATTMODE
70
1
9
$AUNITS
70
0
9
$AUPREC
70
0
9
$CECOLOR
62
256
9
$CELTSCALE
40
1
9
$CELTYPE
6
ByLayer
9
$CELWEIGHT
370
18
9
$CLAYER
8
0
9
$CMLJUST
70
0
9
$CMLSCALE
40
1
9
$CMLSTYLE
2
Standard
9
$DIMSTYLE
2
Standard
9
$TEXTSIZE
40
0.2
9
$TEXTSTYLE
7
Standard
9
$LUNITS
70
2
9
$LUPREC
70
4
9
$EXTNAMES
290
1
9
$INSUNITS
70
4
9
$LTSCALE
40
1
9
$LWDISPLAY
290
1
9
$PDMODE
70
0
9
$PDSIZE
40
0
9
$PLINEGEN
70
0
0
ENDSEC
0
SECTION
2
CLASSES
0
CLASS
1
RASTERVARIABLES
2
AcDbRasterVariables
3
ISM
90
0
280
0
281
0
0
ENDSEC
0
SECTION
2
TABLES
0
TABLE
2
VPORT
5
259
100
AcDbSymbolTable
0
VPORT
5
1
100
AcDbSymbolTableRecord
100
AcDbViewportTableRecord
2
*Active
70
0
10
0
20
0
11
1
21
1
12
-1
22
1
13
0
23
0
14
0.5
24
0.5
15
10
25
10
16
0
26
0
36
1
17
0
27
0
37
0
0
ENDTAB
0
TABLE
2
LTYPE
5
25a
100
AcDbSymbolTable
0
LTYPE
5
14
100
AcDbSymbolTableRecord
100
AcDbLinetypeTableRecord
70
0
2
ByBlock
3

72
65
73
0
40
0
0
LTYPE
5
15
100
AcDbSymbolTableRecord
100
AcDbLinetypeTableRecord
70
0
2
ByLayer
3

72
65
73
0
40
0
0
LTYPE
5
16
100
AcDbSymbolTableRecord
100
AcDbLinetypeTableRecord
70
0
2
Continuous
3
Solid line
72
65
73
0
40
0
0
LTYPE
5
6E
100
AcDbSymbolTableRecord
100
AcDbLinetypeTableRecord
70
0
2
CENTER
3
____ _ ____ _ ____ _ ____
72
65
73
4
40
47.5
49
22
74
0
49
-8.5
74
0
49
8.5
74
0
49
-8.5
74
0
0
LTYPE
5
6F
100
AcDbSymbolTableRecord
100
AcDbLinetypeTableRecord
70
0
2
DASHED
3
__ __ __ __ __ __ __ __ __
72
65
73
2
40
25.72
49
12.86
74
0
49
-12.86
74
0
0
ENDTAB
0
TABLE
2
LAYER
5
25b
100
AcDbSymbolTable
0
LAYER
5
10
100
AcDbSymbolTableRecord
100
AcDbLayerTableRecord
2
0
70
0
62
7
6
Continuous
290
1
370
-3
390
0
0
LAYER
5
71
100
AcDbSymbolTableRecord
100
AcDbLayerTableRecord
2
2
70
0
62
7
6
Continuous
290
1
370
-3
390
0
0
LAYER
5
7B
100
AcDbSymbolTableRecord
100
AcDbLayerTableRecord
2
80
70
0
62
-6
6
Continuous
290
1
370
-3
390
0
0
LAYER
5
7D
100
AcDbSymbolTableRecord
100
AcDbLayerTableRecord
2
81
70
0
62
-3
6
Continuous
290
1
370
-3
390
0
0
LAYER
5
7F
100
AcDbSymbolTableRecord
100
AcDbLayerTableRecord
2
1
70
0
62
4
6
Continuous
290
1
370
-3
390
0
0
LAYER
5
86
100
AcDbSymbolTableRecord
100
AcDbLayerTableRecord
2
4
70
0
62
-2
6
CENTER
290
1
370
-3
390
0
0
LAYER
5
246
100
AcDbSymbolTableRecord
100
AcDbLayerTableRecord
2
SK1
70
0
62
4
6
Continuous
290
1
370
-3
390
0
0
LAYER
5
247
100
AcDbSymbolTableRecord
100
AcDbLayerTableRecord
2
SK2
70
0
62
7
6
Continuous
290
1
370
-3
390
0
0
LAYER
5
248
100
AcDbSymbolTableRecord
100
AcDbLayerTableRecord
2
SK6
70
0
62
5
6
Continuous
290
1
370
-3
390
0
0
ENDTAB
0
TABLE
2
STYLE
5
25c
100
AcDbSymbolTable
0
STYLE
5
11
100
AcDbSymbolTableRecord
100
AcDbTextStyleTableRecord
2
Standard
3
txt
70
0
71
0
40
0
41
1
42
0
50
0
0
STYLE
5
1A6
100
AcDbSymbolTableRecord
100
AcDbTextStyleTableRecord
2
iso_b_vert
3
simplex.shx
70
0
71
0
40
0
41
1
42
0
50
0
0
STYLE
5
1A7
100
AcDbSymbolTableRecord
100
AcDbTextStyleTableRecord
2
DWGDirectTextStyle
3
simplex
70
0
71
0
40
0
41
1
42
0
50
0
0
ENDTAB
0
TABLE
2
DIMSTYLE
5
25d
100
AcDbSymbolTable
100
AcDbDimStyleTable
0
DIMSTYLE
105
27
100
AcDbSymbolTableRecord
100
AcDbDimStyleTableRecord
2
Standard
70
0
3
<>
41
0.18
42
0.0625
44
0.18
140
0.18
147
0.09
73
0
74
0
77
1
271
2
275
0
278
52
280
0
340
11
0
ENDTAB
0
TABLE
2
VIEW
5
25e
100
AcDbSymbolTable
0
ENDTAB
0
TABLE
2
UCS
5
25f
100
AcDbSymbolTable
0
ENDTAB
0
TABLE
2
APPID
5
260
100
AcDbSymbolTable
0
APPID
5
12
100
AcDbSymbolTableRecord
100
AcDbRegAppTableRecord
2
ACAD
70
0
0
APPID
5
242
100
AcDbSymbolTableRecord
100
AcDbRegAppTableRecord
2
ACAD_MLEADERVER
70
0
0
ENDTAB
0
TABLE
2
BLOCK_RECORD
5
261
100
AcDbSymbolTable
0
BLOCK_RECORD
5
1F
100
AcDbSymbolTableRecord
100
AcDbBlockTableRecord
2
*Model_Space
340
0
70
0
0
BLOCK_RECORD
5
1B
100
AcDbSymbolTableRecord
100
AcDbBlockTableRecord
2
*Paper_Space
340
0
70
0
0
BLOCK_RECORD
5
23
100
AcDbSymbolTableRecord
100
AcDbBlockTableRecord
2
*Paper_Space0
340
0
70
0
0
ENDTAB
0
ENDSEC
0
SECTION
2
BLOCKS
0
BLOCK
5
20
100
AcDbEntity
8
0
100
AcDbBlockBegin
2
*Model_Space
70
0
10
0
20
0
30
0
3
*Model_Space
0
ENDBLK
5
21
100
AcDbEntity
8
0
100
AcDbBlockEnd
0
BLOCK
5
1C
100
AcDbEntity
8
0
100
AcDbBlockBegin
2
*Paper_Space
70
0
10
0
20
0
30
0
3
*Paper_Space
0
ENDBLK
5
1D
100
AcDbEntity
8
0
100
AcDbBlockEnd
0
BLOCK
5
24
100
AcDbEntity
8
0
100
AcDbBlockBegin
2
*Paper_Space0
70
0
10
0
20
0
30
0
3
*Paper_Space0
0
ENDBLK
5
25
100
AcDbEntity
8
0
100
AcDbBlockEnd
0
ENDSEC
0
SECTION
2
ENTITIES
0
ARC
5
14B
100
AcDbEntity
8
1
62
256
6
ByLayer
370
18
48
1
60
0
100
AcDbCircle
39
0
10
30.15
20
-27.575
30
0
40
1.2
210
0
220
0
230
1
100
AcDbArc
50
90
51
180
0
ARC
5
14C
100
AcDbEntity
8
1
62
256
6
ByLayer
370
18
48
1
60
0
100
AcDbCircle
39
0
10
30.15
20
27.575
30
0
40
1.2
210
0
220
0
230
1
100
AcDbArc
50
180
51
270
0
ARC
5
14D
100
AcDbEntity
8
1
62
256
6
ByLayer
370
18
48
1
60
0
100
AcDbCircle
39
0
10
21.525
20
-46.375
30
0
40
0.399999999999991
210
0
220
0
230
1
100
AcDbArc
50
0
51
90
0
ARC
5
14E
100
AcDbEntity
8
1
62
256
6
ByLayer
370
18
48
1
60
0
100
AcDbCircle
39
0
10
18.475
20
46.375
30
0
40
0.399999999999999
210
0
220
0
230
1
100
AcDbArc
50
180
51
270
0
ARC
5
14F
100
AcDbEntity
8
1
62
256
6
ByLayer
370
18
48
1
60
0
100
AcDbCircle
39
0
10
18.475
20
-46.375
30
0
40
0.399999999999999
210
0
220
0
230
1
100
AcDbArc
50
90
51
180
0
ARC
5
150
100
AcDbEntity
8
1
62
256
6
ByLayer
370
18
48
1
60
0
100
AcDbCircle
39
0
10
21.525
20
46.375
30
0
40
0.399999999999991
210
0
220
0
230
1
100
AcDbArc
50
270
51
0
0
ARC
5
151
100
AcDbEntity
8
SK1
62
256
6
ByLayer
370
18
48
1
60
0
100
AcDbCircle
39
0
10
-47.9
20
-33.605194
30
0
40
2
210
0
220
0
230
1
100
AcDbArc
50
180
51
267.131868
0
ARC
5
152
100
AcDbEntity
8
SK1
62
256
6
ByLayer
370
18
48
1
60
0
100
AcDbCircle
39
0
10
-47.9
20
33.605194
30
0
40
2
210
0
220
0
230
1
100
AcDbArc
50
92.868132
51
180
0
ARC
5
153
100
AcDbEntity
8
SK1
62
256
6
ByLayer
370
18
48
1
60
0
100
AcDbCircle
39
0
10
-0.8
20
38.632252
30
0
40
1
210
0
220
0
230
1
100
AcDbArc
50
270
51
323.130102
0
ARC
5
154
100
AcDbEntity
8
SK1
62
256
6
ByLayer
370
18
48
1
60
0
100
AcDbCircle
39
0
10
-0.8
20
-38.632252
30
0
40
1
210
0
220
0
230
1
100
AcDbArc
50
36.869898
51
90
0
ARC
5
156
100
AcDbEntity
8
SK1
62
256
6
ByLayer
370
18
48
1
60
0
100
AcDbCircle
39
0
10
-36.7
20
8.06375
30
0
40
1.9
210
0
220
0
230
1
100
AcDbArc
50
0
51
90
0
ARC
5
157
100
AcDbEntity
8
SK1
62
256
6
ByLayer
370
18
48
1
60
0
100
AcDbCircle
39
0
10
-36.7
20
-8.06375
30
0
40
1.9
210
0
220
0
230
1
100
AcDbArc
50
270
51
0
0
CIRCLE
5
155
100
AcDbEntity
8
1
62
256
6
ByLayer
370
18
48
1
60
0
100
AcDbCircle
10
20
20
0
30
0
40
1.00000000000001
39
0
210
0
220
0
230
1
0
CIRCLE
5
158
100
AcDbEntity
8
SK1
62
256
6
ByLayer
370
18
48
1
60
0
100
AcDbCircle
10
-15
20
0
30
0
40
5.99999999999999
39
0
210
0
220
0
230
1
0
ELLIPSE
5
159
100
AcDbEntity
8
1
62
256
6
ByLayer
370
18
48
1
60
0
100
AcDbEllipse
10
47.5
20
15.5
30
0
11
-2.1
21
2.57167334302699E-16
31
0
210
0
220
0
230
1
40
0.866025
41
-1.5707963267949
42
0.46564301588819
0
ELLIPSE
5
15A
100
AcDbEntity
8
1
62
256
6
ByLayer
370
18
48
1
60
0
100
AcDbEllipse
10
47.5
20
-15.5
30
0
11
2.1
21
0
31
0
210
0
220
0
230
1
40
0.866025
41
2.66073244085763
42
-1.5707963267949
0
ELLIPSE
5
15B
100
AcDbEntity
8
1
62
256
6
ByLayer
370
18
48
1
60
0
100
AcDbEllipse
10
47.5
20
15.7
30
0
11
-2.5
21
3.06151588455594E-16
31
0
210
0
220
0
230
1
40
0.866025
41
-1.5707963267949
42
0.26786995839163
0
ELLIPSE
5
15C
100
AcDbEntity
8
1
62
256
6
ByLayer
370
18
48
1
60
0
100
AcDbEllipse
10
47.5
20
-15.7
30
0
11
2.5
21
0
31
0
210
0
220
0
230
1
40
0.866025
41
2.86611438829813
42
-1.5707963267949
0
ELLIPSE
5
15D
100
AcDbEntity
8
SK1
62
256
6
ByLayer
370
13
48
1
60
0
100
AcDbEllipse
10
-36.7
20
17.921806
30
0
11
-1.9
21
2.32675207226252E-16
31
0
210
0
220
0
230
1
40
0.45399
41
1.5707963267949
42
2.057660152551
0
ELLIPSE
5
15E
100
AcDbEntity
8
SK1
62
256
6
ByLayer
370
13
48
1
60
0
100
AcDbEllipse
10
-36.7
20
-17.921806
30
0
11
1.9
21
0
31
0
210
0
220
0
230
1
40
0.45399
41
1.08393250103923
42
1.5707963267949
0
POINT
5
70
100
AcDbEntity
8
2
62
256
6
ByLayer
370
18
48
1
60
0
100
AcDbPoint
10
48
20
0
30
0
39
0
210
0
220
0
230
1
50
360
0
POINT
5
72
100
AcDbEntity
8
2
62
256
6
ByLayer
370
18
48
1
60
0
100
AcDbPoint
10
48
20
21.5
30
0
39
0
210
0
220
0
230
1
50
360
0
POINT
5
73
100
AcDbEntity
8
2
62
256
6
ByLayer
370
18
48
1
60
0
100
AcDbPoint
10
48
20
0
30
0
39
0
210
0
220
0
230
1
50
360
0
POINT
5
74
100
AcDbEntity
8
2
62
256
6
ByLayer
370
18
48
1
60
0
100
AcDbPoint
10
48
20
0
30
0
39
0
210
0
220
0
230
1
50
360
0
POINT
5
75
100
AcDbEntity
8
2
62
256
6
ByLayer
370
18
48
1
60
0
100
AcDbPoint
10
0
20
0
30
0
39
0
210
0
220
0
230
1
50
360
0
POINT
5
76
100
AcDbEntity
8
2
62
256
6
ByLayer
370
18
48
1
60
0
100
AcDbPoint
10
48
20
21.5
30
0
39
0
210
0
220
0
230
1
50
360
0
POINT
5
77
100
AcDbEntity
8
2
62
256
6
ByLayer
370
18
48
1
60
0
100
AcDbPoint
10
48
20
0
30
0
39
0
210
0
220
0
230
1
50
360
0
POINT
5
78
100
AcDbEntity
8
2
62
256
6
ByLayer
370
18
48
1
60
0
100
AcDbPoint
10
48
20
21.5
30
0
39
0
210
0
220
0
230
1
50
360
0
POINT
5
79
100
AcDbEntity
8
2
62
256
6
ByLayer
370
18
48
1
60
0
100
AcDbPoint
10
31
20
0
30
0
39
0
210
0
220
0
230
1
50
360
0
POINT
5
7A
100
AcDbEntity
8
80
62
256
6
ByLayer
370
18
48
1
60
0
100
AcDbPoint
10
0
20
0
30
0
39
0
210
0
220
0
230
1
50
360
0
POINT
5
7C
100
AcDbEntity
8
81
62
256
6
ByLayer
370
18
48
1
60
0
100
AcDbPoint
10
48
20
0
30
0
39
0
210
0
220
0
230
1
50
360
0
POINT
5
7E
100
AcDbEntity
8
1
62
256
6
ByLayer
370
13
48
1
60
1
100
AcDbPoint
10
20
20
47.422472
30
0
39
0
210
0
220
0
230
1
50
360
0
POINT
5
80
100
AcDbEntity
8
1
62
256
6
ByLayer
370
13
48
1
60
1
100
AcDbPoint
10
20
20
41.200875
30
0
39
0
210
0
220
0
230
1
50
360
0
POINT
5
81
100
AcDbEntity
8
1
62
256
6
ByLayer
370
13
48
1
60
1
100
AcDbPoint
10
-49.75
20
0
30
0
39
0
210
0
220
0
230
1
50
360
0
POINT
5
82
100
AcDbEntity
8
1
62
256
6
ByLayer
370
13
48
1
60
1
100
AcDbPoint
10
42.890673
20
0
30
0
39
0
210
0
220
0
230
1
50
360
0
POINT
5
83
100
AcDbEntity
8
1
62
256
6
ByLayer
370
13
48
1
60
1
100
AcDbPoint
10
59.5
20
0
30
0
39
0
210
0
220
0
230
1
50
360
0
POINT
5
84
100
AcDbEntity
8
1
62
256
6
ByLayer
370
13
48
1
60
1
100
AcDbPoint
10
39.5
20
0
30
0
39
0
210
0
220
0
230
1
50
360
0
SPLINE
5
15F
100
AcDbEntity
8
1
62
256
6
ByLayer
370
18
48
1
60
0
100
AcDbSpline
70
4
71
3
72
52
73
48
40
0
40
0
40
0
40
0
40
0.0625000000000076
40
0.0625000000000076
40
0.125000000000015
40
0.125000000000015
40
0.156250000000019
40
0.156250000000019
40
0.171875000000022
40
0.171875000000022
40
0.187500000000024
40
0.187500000000024
40
0.250000000000029
40
0.312500000000034
40
0.312500000000034
40
0.328125000000037
40
0.328125000000037
40
0.343750000000039
40
0.375000000000043
40
0.375000000000043
40
0.437500000000052
40
0.437500000000052
40
0.468750000000054
40
0.468750000000054
40
0.484375000000054
40
0.484375000000054
40
0.500000000000054
40
0.500000000000054
40
0.562500000000046
40
0.625000000000037
40
0.625000000000037
40
0.656250000000034
40
0.656250000000034
40
0.687500000000031
40
0.687500000000031
40
0.750000000000022
40
0.750000000000022
40
0.78125000000002
40
0.78125000000002
40
0.812500000000017
40
0.812500000000017
40
0.875000000000011
40
0.937500000000005
40
0.937500000000005
40
0.968750000000002
40
0.968750000000002
40
1
40
1
40
1
40
1
41
1
10
18.475
20
45.4177057068927
30
0
41
1
10
18.5131930808128
20
45.4282401035344
30
0
41
1
10
18.5554606478647
20
45.4381136869634
30
0
41
1
10
18.6478179474983
20
45.4566607629005
30
0
41
1
10
18.6979086926173
20
45.4653338936088
30
0
41
1
10
18.7789823714228
20
45.4774884886754
30
0
41
1
10
18.8069996678942
20
45.4813970665735
30
0
41
1
10
18.8505536464378
20
45.4870471981333
30
0
41
1
10
18.8653029438398
20
45.4888917756283
30
0
41
1
10
18.8950955856762
20
45.4924846390732
30
0
41
1
10
18.9101625115515
20
45.4942360168509
30
0
41
1
10
18.9863395554145
20
45.5027733570546
30
0
41
1
10
19.1135926887496
20
45.5150344539883
30
0
41
1
10
19.2514036903976
20
45.5246838080132
30
0
41
1
10
19.3409544661046
20
45.5299076460752
30
0
41
1
10
19.3590520089523
20
45.5309125077375
30
0
41
1
10
19.3953229586329
20
45.5328269057902
30
0
41
1
10
19.4499381667588
20
45.535561256528
30
0
41
1
10
19.5051707053838
20
45.5378933746879
30
0
41
1
10
19.6164454423366
20
45.5420380112817
30
0
41
1
10
19.6917046822207
20
45.5441110444607
30
0
41
1
10
19.8062181220335
20
45.5462007902096
30
0
41
1
10
19.8446608919079
20
45.546726719729
30
0
41
1
10
19.9027419621887
20
45.5472551242484
30
0
41
1
10
19.9222082263656
20
45.547387892317
30
0
41
1
10
19.9610432866323
20
45.5475643683662
30
0
41
1
10
19.9804206757315
20
45.5476083511067
30
0
41
1
10
20.0771097084011
20
45.5476101677026
30
0
41
1
10
20.2305506817672
20
45.5462244066362
30
0
41
1
10
20.3815254793057
20
45.5421044575915
30
0
41
1
10
20.4938039217151
20
45.5379360085788
30
0
41
1
10
20.531126742299
20
45.5363618734393
30
0
41
1
10
20.6043513378543
20
45.532891944917
30
0
41
1
10
20.6403890093397
20
45.530991817569
30
0
41
1
10
20.7468111863411
20
45.5247960222789
30
0
41
1
10
20.8155120434473
20
45.5200074806351
30
0
41
1
10
20.9151902047722
20
45.5117918402699
30
0
41
1
10
20.9478522755725
20
45.5088805298284
30
0
41
1
10
21.0120256139634
20
45.5026966909818
30
0
41
1
10
21.0436243918519
20
45.4994130173258
30
0
41
1
10
21.1353630867129
20
45.4891382328376
30
0
41
1
10
21.2502848660041
20
45.4742528671883
30
0
41
1
10
21.3508223253872
20
45.4569143091999
30
0
41
1
10
21.4206978904473
20
45.4429109582395
30
0
41
1
10
21.4431137195572
20
45.4380639570225
30
0
41
1
10
21.4857057869268
20
45.4280961070812
30
0
41
1
10
21.5059034870284
20
45.4229728976465
30
0
41
1
10
21.525
20
45.4177057068927
30
0
0
SPLINE
5
160
100
AcDbEntity
8
1
62
256
6
ByLayer
370
18
48
1
60
0
100
AcDbSpline
70
4
71
3
72
52
73
48
40
0
40
0
40
0
40
0
40
0.0625000000000038
40
0.0625000000000038
40
0.125000000000007
40
0.125000000000007
40
0.156250000000009
40
0.156250000000009
40
0.17187500000001
40
0.17187500000001
40
0.187500000000011
40
0.187500000000011
40
0.250000000000012
40
0.312500000000014
40
0.312500000000014
40
0.328125000000016
40
0.328125000000016
40
0.343750000000018
40
0.375000000000022
40
0.375000000000022
40
0.437500000000028
40
0.437500000000028
40
0.468750000000032
40
0.468750000000032
40
0.484375000000032
40
0.484375000000032
40
0.500000000000033
40
0.500000000000033
40
0.562500000000028
40
0.625000000000022
40
0.625000000000022
40
0.656250000000019
40
0.656250000000019
40
0.687500000000016
40
0.687500000000016
40
0.750000000000012
40
0.750000000000012
40
0.781250000000011
40
0.781250000000011
40
0.812500000000009
40
0.812500000000009
40
0.875000000000006
40
0.937500000000003
40
0.937500000000003
40
0.968750000000001
40
0.968750000000001
40
1
40
1
40
1
40
1
41
1
10
21.525
20
45.1195815714781
30
0
41
1
10
21.4868069191872
20
45.1065514886976
30
0
41
1
10
21.4445393521353
20
45.0940088833776
30
0
41
1
10
21.3521820525017
20
45.0699274918839
30
0
41
1
10
21.3020913073827
20
45.058388630909
30
0
41
1
10
21.2210176285772
20
45.0418976939086
30
0
41
1
10
21.1930003321058
20
45.0365373889623
30
0
41
1
10
21.1494463535622
20
45.0287145425449
30
0
41
1
10
21.1346970561602
20
45.0261477798032
30
0
41
1
10
21.1049044143238
20
45.0211250502974
30
0
41
1
10
21.0898374884485
20
45.018664808282
30
0
41
1
10
21.0136604445855
20
45.0066189187686
30
0
41
1
10
20.8864073112505
20
44.9889738319142
30
0
41
1
10
20.7485963096024
20
44.9746669075076
30
0
41
1
10
20.6590455338954
20
44.9668443642354
30
0
41
1
10
20.6409479910477
20
44.9653350596848
30
0
41
1
10
20.6046770413671
20
44.962452270241
30
0
41
1
10
20.5500618332412
20
44.9583231937531
30
0
41
1
10
20.4948292946162
20
44.9547745416958
30
0
41
1
10
20.3835545576634
20
44.9484463392982
30
0
41
1
10
20.3082953177793
20
44.9452502276732
30
0
41
1
10
20.1937818779665
20
44.9420217394222
30
0
41
1
10
20.1553391080921
20
44.9412072085839
30
0
41
1
10
20.0972580378113
20
44.9403884186257
30
0
41
1
10
20.0777917736344
20
44.9401825584009
30
0
41
1
10
20.0389567133677
20
44.9399088928258
30
0
41
1
10
20.0195793242685
20
44.9398406619296
30
0
41
1
10
19.922890291599
20
44.9398378441798
30
0
41
1
10
19.7694493182328
20
44.9419913092671
30
0
41
1
10
19.6184745206943
20
44.9483444791322
30
0
41
1
10
19.506196078285
20
44.9547096445997
30
0
41
1
10
19.468873257701
20
44.9571050212856
30
0
41
1
10
19.3956486621457
20
44.9623571116747
30
0
41
1
10
19.3596109906603
20
44.9652204792959
30
0
41
1
10
19.2531888136589
20
44.9744995933726
30
0
41
1
10
19.1844879565527
20
44.98160184958
30
0
41
1
10
19.0848097952278
20
44.9935857902299
30
0
41
1
10
19.0521477244275
20
44.9978028298077
30
0
41
1
10
18.9879743860366
20
45.0066821072471
30
0
41
1
10
18.9563756081481
20
45.0113598577862
30
0
41
1
10
18.8646369132871
20
45.02585836291
30
0
41
1
10
18.7497151339959
20
45.0465128233415
30
0
41
1
10
18.6491776746128
20
45.069594390286
30
0
41
1
10
18.5793021095527
20
45.0877820305388
30
0
41
1
10
18.5568862804428
20
45.0940063501909
30
0
41
1
10
18.5142942130732
20
45.1066468703864
30
0
41
1
10
18.4940965129716
20
45.1130665394476
30
0
41
1
10
18.475
20
45.1195815714781
30
0
0
SPLINE
5
161
100
AcDbEntity
8
1
62
256
6
ByLayer
370
18
48
1
60
0
100
AcDbSpline
70
4
71
3
72
30
73
26
40
0
40
0
40
0
40
0
40
0.124999999999987
40
0.124999999999987
40
0.187499999999988
40
0.187499999999988
40
0.249999999999989
40
0.312499999999991
40
0.312499999999991
40
0.374999999999992
40
0.374999999999992
40
0.500000000000008
40
0.500000000000008
40
0.56250000000001
40
0.56250000000001
40
0.625000000000013
40
0.625000000000013
40
0.750000000000008
40
0.750000000000008
40
0.812500000000006
40
0.812500000000006
40
0.875000000000004
40
0.937500000000002
40
0.937500000000002
40
1
40
1
40
1
40
1
41
1
10
21.5249999999981
20
-11.021
30
0
41
1
10
21.5514658257386
20
-11.021
30
0
41
1
10
21.5778123376984
20
-11.021
30
0
41
1
10
21.617147298598
20
-11.021
30
0
41
1
10
21.6300776915159
20
-11.021
30
0
41
1
10
21.6553616377659
20
-11.021
30
0
41
1
10
21.6801433445704
20
-11.021
30
0
41
1
10
21.7039336034373
20
-11.021
30
0
41
1
10
21.7272199704532
20
-11.021
30
0
41
1
10
21.7386238958464
20
-11.021
30
0
41
1
10
21.7713302338265
20
-11.021
30
0
41
1
10
21.7914054108743
20
-11.021
30
0
41
1
10
21.8189753761471
20
-11.021
30
0
41
1
10
21.8277813540115
20
-11.021
30
0
41
1
10
21.844270095332
20
-11.021
30
0
41
1
10
21.851948079214
20
-11.021
30
0
41
1
10
21.8733390297163
20
-11.021
30
0
41
1
10
21.8854242332151
20
-11.021
30
0
41
1
10
21.9002268661624
20
-11.021
30
0
41
1
10
21.9045542912652
20
-11.021
30
0
41
1
10
21.9119490720264
20
-11.021
30
0
41
1
10
21.9181144875677
20
-11.021
30
0
41
1
10
21.9218542195072
20
-11.021
30
0
41
1
10
21.9243633939712
20
-11.021
30
0
41
1
10
21.9250110011
20
-11.021
30
0
41
1
10
21.924995249525
20
-11.021
30
0
0
SPLINE
5
162
100
AcDbEntity
8
1
62
256
6
ByLayer
370
18
48
1
60
0
100
AcDbSpline
70
4
71
3
72
30
73
26
40
0
40
0
40
0
40
0
40
0.125000000000022
40
0.125000000000022
40
0.187500000000022
40
0.187500000000022
40
0.250000000000021
40
0.312500000000021
40
0.312500000000021
40
0.375000000000021
40
0.375000000000021
40
0.500000000000026
40
0.500000000000026
40
0.562500000000011
40
0.562500000000011
40
0.624999999999995
40
0.624999999999995
40
0.749999999999993
40
0.749999999999993
40
0.812499999999995
40
0.812499999999995
40
0.874999999999997
40
0.937499999999998
40
0.937499999999998
40
1
40
1
40
1
40
1
41
1
10
18.475
20
11.021
30
0
41
1
10
18.4485341742595
20
11.021
30
0
41
1
10
18.4221876622999
20
11.021
30
0
41
1
10
18.3828527014004
20
11.021
30
0
41
1
10
18.3699223084826
20
11.021
30
0
41
1
10
18.3446383622326
20
11.021
30
0
41
1
10
18.3198566554283
20
11.021
30
0
41
1
10
18.2960663965615
20
11.021
30
0
41
1
10
18.2727800295457
20
11.021
30
0
41
1
10
18.2613761041526
20
11.021
30
0
41
1
10
18.2286697661727
20
11.021
30
0
41
1
10
18.208594589125
20
11.021
30
0
41
1
10
18.1810246238523
20
11.021
30
0
41
1
10
18.1722186459879
20
11.021
30
0
41
1
10
18.1557299046675
20
11.021
30
0
41
1
10
18.1480519207856
20
11.021
30
0
41
1
10
18.1266609702834
20
11.021
30
0
41
1
10
18.1145757667847
20
11.021
30
0
41
1
10
18.0997731338374
20
11.021
30
0
41
1
10
18.0954457087347
20
11.021
30
0
41
1
10
18.0880509279735
20
11.021
30
0
41
1
10
18.0818855124323
20
11.021
30
0
41
1
10
18.0781457804928
20
11.021
30
0
41
1
10
18.0756366060288
20
11.021
30
0
41
1
10
18.0749889989
20
11.0210000000001
30
0
41
1
10
18.075004750475
20
11.0209999999999
30
0
0
SPLINE
5
163
100
AcDbEntity
8
1
62
256
6
ByLayer
370
18
48
1
60
0
100
AcDbSpline
70
4
71
3
72
32
73
28
40
0
40
0
40
0
40
0
40
0.125
40
0.125
40
0.250000000000001
40
0.250000000000001
40
0.28125
40
0.28125
40
0.3125
40
0.3125
40
0.375000000000002
40
0.375000000000002
40
0.500000000000006
40
0.500000000000006
40
0.562500000000007
40
0.562500000000007
40
0.593750000000008
40
0.593750000000008
40
0.625000000000008
40
0.625000000000008
40
0.750000000000005
40
0.750000000000005
40
0.875000000000003
40
0.875000000000003
40
0.937500000000001
40
0.937500000000001
40
1
40
1
40
1
40
1
41
1
10
18.475
20
45.1195815714781
30
0
41
1
10
18.4377864466611
20
45.1322774752973
30
0
41
1
10
18.4054492427887
20
45.1500575939043
30
0
41
1
10
18.349710814951
20
45.189719781936
30
0
41
1
10
18.3263174295068
20
45.2116806655757
30
0
41
1
10
18.3026347247877
20
45.2389668848321
30
0
41
1
10
18.2981777768653
20
45.2444170977807
30
0
41
1
10
18.2898288157941
20
45.2552364221601
30
0
41
1
10
18.2859353635673
20
45.260608911467
30
0
41
1
10
18.2751840579965
20
45.2763970731348
30
0
41
1
10
18.2692244159246
20
45.2865162769308
30
0
41
1
10
18.2549017237893
20
45.3150139016755
30
0
41
1
10
18.250079691989
20
45.3314415856493
30
0
41
1
10
18.2499616171529
20
45.350944389701
30
0
41
1
10
18.251111974268
20
45.3566103770954
30
0
41
1
10
18.2546595041354
20
45.3639119298484
30
0
41
1
10
18.2561459141042
20
45.3661478085099
30
0
41
1
10
18.2597356429362
20
45.3702512724834
30
0
41
1
10
18.261839368491
20
45.3721167479223
30
0
41
1
10
18.2738091220134
20
45.3805615004972
30
0
41
1
10
18.2880551680473
20
45.3845321627458
30
0
41
1
10
18.3256409102619
20
45.3909978487504
30
0
41
1
10
18.3489787734403
20
45.3934875945267
30
0
41
1
10
18.3911622507963
20
45.3996902864256
30
0
41
1
10
18.4063797715671
20
45.4021708108456
30
0
41
1
10
18.4390017274133
20
45.4086176655123
30
0
41
1
10
18.4564279174875
20
45.4125831642876
30
0
41
1
10
18.4749999999984
20
45.4177057068912
30
0
0
SPLINE
5
164
100
AcDbEntity
8
1
62
256
6
ByLayer
370
18
48
1
60
0
100
AcDbSpline
70
4
71
3
72
31
73
27
40
0
40
0
40
0
40
0
40
0.0598617448464468
40
0.0598617448464468
40
0.122537628523372
40
0.122537628523372
40
0.247889395877193
40
0.247889395877193
40
0.310565279554086
40
0.310565279554086
40
0.373241163230978
40
0.373241163230978
40
0.498592930584763
40
0.498592930584763
40
0.561268814261673
40
0.561268814261673
40
0.623944697938583
40
0.686620581615493
40
0.686620581615493
40
0.749296465292402
40
0.749296465292402
40
0.874648232646209
40
0.874648232646209
40
0.937324116323105
40
0.937324116323105
40
1
40
1
40
1
40
1
41
1
10
18.0749999999996
20
-11.0210000000001
30
0
41
1
10
18.0750613850815
20
-11.021
30
0
41
1
10
18.0756748279719
20
-11.021
30
0
41
1
10
18.0781273604823
20
-11.021
30
0
41
1
10
18.0800214434276
20
-11.021
30
0
41
1
10
18.0874930358664
20
-11.021
30
0
41
1
10
18.0948638931353
20
-11.021
30
0
41
1
10
18.1095281633044
20
-11.021
30
0
41
1
10
18.1150473219139
20
-11.021
30
0
41
1
10
18.1272345767072
20
-11.021
30
0
41
1
10
18.133854303181
20
-11.021
30
0
41
1
10
18.1552543785187
20
-11.021
30
0
41
1
10
18.17156072295
20
-11.021
30
0
41
1
10
18.1991984075213
20
-11.021
30
0
41
1
10
18.2089726767831
20
-11.021
30
0
41
1
10
18.229164307973
20
-11.021
30
0
41
1
10
18.2500967411405
20
-11.021
30
0
41
1
10
18.2724948657073
20
-11.021
30
0
41
1
10
18.29563937979
20
-11.021
30
0
41
1
10
18.3076255402956
20
-11.021
30
0
41
1
10
18.3444895086936
20
-11.021
30
0
41
1
10
18.3697382808188
20
-11.021
30
0
41
1
10
18.4085946056628
20
-11.021
30
0
41
1
10
18.4217117815291
20
-11.021
30
0
41
1
10
18.4482868577835
20
-11.021
30
0
41
1
10
18.4617141931376
20
-11.021
30
0
41
1
10
18.475
20
-11.021
30
0
0
SPLINE
5
165
100
AcDbEntity
8
1
62
256
6
ByLayer
370
18
48
1
60
0
100
AcDbSpline
70
4
71
3
72
31
73
27
40
0
40
0
40
0
40
0
40
0.0598617453754562
40
0.0598617453754562
40
0.12253762901707
40
0.12253762901707
40
0.247889396300294
40
0.247889396300294
40
0.310565279941921
40
0.310565279941921
40
0.373241163583549
40
0.373241163583549
40
0.498592930866831
40
0.498592930866831
40
0.561268814508478
40
0.561268814508478
40
0.623944698150126
40
0.686620581791773
40
0.686620581791773
40
0.74929646543342
40
0.74929646543342
40
0.874648232716715
40
0.874648232716715
40
0.937324116358357
40
0.937324116358357
40
1
40
1
40
1
40
1
41
1
10
21.9250000000022
20
11.021
30
0
41
1
10
21.92493861493
20
11.021
30
0
41
1
10
21.9243251720395
20
11.021
30
0
41
1
10
21.9218726395178
20
11.021
30
0
41
1
10
21.9199785565725
20
11.021
30
0
41
1
10
21.9125069641338
20
11.021
30
0
41
1
10
21.905136106865
20
11.021
30
0
41
1
10
21.890471836696
20
11.021
30
0
41
1
10
21.8849526780865
20
11.021
30
0
41
1
10
21.8727654232931
20
11.021
30
0
41
1
10
21.8661456968194
20
11.021
30
0
41
1
10
21.8447456214817
20
11.021
30
0
41
1
10
21.8284392770504
20
11.021
30
0
41
1
10
21.8008015924791
20
11.021
30
0
41
1
10
21.7910273232173
20
11.021
30
0
41
1
10
21.7708356920273
20
11.021
30
0
41
1
10
21.7499032721751
20
11.021
30
0
41
1
10
21.727505134293
20
11.021
30
0
41
1
10
21.7043606202103
20
11.021
30
0
41
1
10
21.6923744597047
20
11.021
30
0
41
1
10
21.6555104913066
20
11.021
30
0
41
1
10
21.6302617191814
20
11.021
30
0
41
1
10
21.5914053943374
20
11.021
30
0
41
1
10
21.578288218471
20
11.021
30
0
41
1
10
21.5517131422165
20
11.021
30
0
41
1
10
21.5382858068624
20
11.021
30
0
41
1
10
21.525
20
11.021
30
0
0
SPLINE
5
166
100
AcDbEntity
8
1
62
256
6
ByLayer
370
18
48
1
60
0
100
AcDbSpline
70
4
71
3
72
32
73
28
40
0
40
0
40
0
40
0
40
0.125
40
0.125
40
0.250000000000001
40
0.250000000000001
40
0.28125
40
0.28125
40
0.3125
40
0.3125
40
0.374999999999998
40
0.374999999999998
40
0.499999999999994
40
0.499999999999994
40
0.562499999999992
40
0.562499999999992
40
0.593749999999991
40
0.593749999999991
40
0.624999999999991
40
0.624999999999991
40
0.749999999999993
40
0.749999999999993
40
0.874999999999995
40
0.874999999999995
40
0.937499999999998
40
0.937499999999998
40
1
40
1
40
1
40
1
41
1
10
21.525
20
45.4177057068927
30
0
41
1
10
21.5622135533389
20
45.407441483034
30
0
41
1
10
21.5945507572113
20
45.4018022521571
30
0
41
1
10
21.6502891850489
20
45.3935842298266
30
0
41
1
10
21.6736825704932
20
45.3910862233466
30
0
41
1
10
21.6973652752123
20
45.3870467324895
30
0
41
1
10
21.7018222231347
20
45.386194024833
30
0
41
1
10
21.7101711842059
20
45.3843286087977
30
0
41
1
10
21.7140646364327
20
45.3833146819362
30
0
41
1
10
21.7248159420035
20
45.3799545391366
30
0
41
1
10
21.7307755840754
20
45.3772808340348
30
0
41
1
10
21.7450982762107
20
45.3673113440866
30
0
41
1
10
21.749920308011
20
45.3579756530298
30
0
41
1
10
21.7500383828471
20
45.3386399072617
30
0
41
1
10
21.748888025732
20
45.3313276433922
30
0
41
1
10
21.7453404958646
20
45.3191136630103
30
0
41
1
10
21.7438540858958
20
45.3148363523192
30
0
41
1
10
21.7402643570638
20
45.3058975686557
30
0
41
1
10
21.738160631509
20
45.3012381872404
30
0
41
1
10
21.7261908779866
20
45.2772881975344
30
0
41
1
10
21.7119448319527
20
45.255858682452
30
0
41
1
10
21.6743590897382
20
45.2123688518471
30
0
41
1
10
21.6510212265597
20
45.1903033128275
30
0
41
1
10
21.6088377492037
20
45.1601933693725
30
0
41
1
10
21.5936202284329
20
45.1507002947949
30
0
41
1
10
21.5609982725867
20
45.1335724616283
30
0
41
1
10
21.5435720825125
20
45.1259176870075
30
0
41
1
10
21.5250000000016
20
45.1195815714763
30
0
0
SPLINE
5
167
100
AcDbEntity
8
1
62
256
6
ByLayer
370
18
48
1
60
0
100
AcDbSpline
70
4
71
3
72
8
73
4
40
0
40
0
40
0
40
0
40
1
40
1
40
1
40
1
41
1
10
28.95
20
11.021
30
0
41
1
10
28.7167108769179
20
11.021
30
0
41
1
10
28.4833769086861
20
11.021
30
0
41
1
10
28.25
20
11.021
30
0
0
SPLINE
5
168
100
AcDbEntity
8
1
62
256
6
ByLayer
370
18
48
1
60
0
100
AcDbSpline
70
4
71
3
72
8
73
4
40
0
40
0
40
0
40
0
40
1
40
1
40
1
40
1
41
1
10
16.7581782385003
20
-11.021
30
0
41
1
10
17.1975280498136
20
-11.021
30
0
41
1
10
17.636488468587
20
-11.021
30
0
41
1
10
18.075
20
-11.021
30
0
0
SPLINE
5
169
100
AcDbEntity
8
1
62
256
6
ByLayer
370
18
48
1
60
0
100
AcDbSpline
70
4
71
3
72
8
73
4
40
0
40
0
40
0
40
0
40
1
40
1
40
1
40
1
41
1
10
28.25
20
-11.021
30
0
41
1
10
28.4833769086861
20
-11.021
30
0
41
1
10
28.7167108769179
20
-11.021
30
0
41
1
10
28.95
20
-11.021
30
0
0
SPLINE
5
16A
100
AcDbEntity
8
1
62
256
6
ByLayer
370
18
48
1
60
0
100
AcDbSpline
70
4
71
3
72
8
73
4
40
0
40
0
40
0
40
0
40
1
40
1
40
1
40
1
41
1
10
23.2418217614998
20
11.021
30
0
41
1
10
22.8024719501864
20
11.021
30
0
41
1
10
22.363511531413
20
11.021
30
0
41
1
10
21.925
20
11.021
30
0
0
SPLINE
5
16B
100
AcDbEntity
8
1
62
256
6
ByLayer
370
18
48
1
60
0
100
AcDbSpline
70
4
71
3
72
8
73
4
40
0
40
0
40
0
40
0
40
1
40
1
40
1
40
1
41
1
10
18.075
20
11.021
30
0
41
1
10
17.636488468587
20
11.021
30
0
41
1
10
17.1975280498136
20
11.021
30
0
41
1
10
16.7581782385003
20
11.021
30
0
0
SPLINE
5
16C
100
AcDbEntity
8
1
62
256
6
ByLayer
370
18
48
1
60
0
100
AcDbSpline
70
4
71
3
72
8
73
4
40
0
40
0
40
0
40
0
40
1
40
1
40
1
40
1
41
1
10
21.925
20
-11.021
30
0
41
1
10
22.363511531413
20
-11.021
30
0
41
1
10
22.8024719501864
20
-11.021
30
0
41
1
10
23.2418217614998
20
-11.021
30
0
0
SPLINE
5
16D
100
AcDbEntity
8
1
62
256
6
ByLayer
370
18
48
1
60
0
100
AcDbSpline
70
4
71
3
72
55
73
51
40
0
40
0
40
0
40
0
40
0.0624999999999992
40
0.0624999999999992
40
0.124999999999998
40
0.124999999999998
40
0.187499999999998
40
0.187499999999998
40
0.203124999999997
40
0.203124999999997
40
0.218749999999997
40
0.218749999999997
40
0.249999999999997
40
0.249999999999997
40
0.312499999999995
40
0.312499999999995
40
0.374999999999994
40
0.374999999999994
40
0.406249999999994
40
0.406249999999994
40
0.421874999999993
40
0.421874999999993
40
0.437499999999993
40
0.437499999999993
40
0.499999999999992
40
0.499999999999992
40
0.562499999999991
40
0.562499999999991
40
0.62499999999999
40
0.62499999999999
40
0.632812499999991
40
0.632812499999991
40
0.640624999999991
40
0.640624999999991
40
0.656249999999991
40
0.687499999999992
40
0.687499999999992
40
0.749999999999993
40
0.749999999999993
40
0.812499999999995
40
0.812499999999995
40
0.843749999999996
40
0.843749999999996
40
0.859374999999996
40
0.859374999999996
40
0.874999999999997
40
0.874999999999997
40
0.937499999999998
40
0.937499999999998
40
1
40
1
40
1
40
1
41
1
10
14.95
20
11.021
30
0
41
1
10
14.6186180770483
20
11.021
30
0
41
1
10
14.2901293667462
20
11.0045711927872
30
0
41
1
10
13.638723291142
20
10.9400562256138
30
0
41
1
10
13.3158065177085
20
10.8919666612244
30
0
41
1
10
12.6754919299054
20
10.7643661638903
30
0
41
1
10
12.358093938917
20
10.6848563818256
30
0
41
1
10
11.9648592282067
20
10.5654062490788
30
0
41
1
10
11.8863883176173
20
10.5405107376267
30
0
41
1
10
11.7298017686215
20
10.4886884493971
30
0
41
1
10
11.6515991381982
20
10.4617283040525
30
0
41
1
10
11.4187515333456
20
10.3782154453684
30
0
41
1
10
11.2655498884332
20
10.3189373489954
30
0
41
1
10
10.811895150555
20
10.1305188971136
30
0
41
1
10
10.517377974707
20
9.99082036436087
30
0
41
1
10
9.94380215106821
20
9.68378237550539
30
0
41
1
10
9.66474394687691
20
9.51644235821485
30
0
41
1
10
9.25780740131535
20
9.24447624315204
30
0
41
1
10
9.1241071697944
20
9.15032179382399
30
0
41
1
10
8.92651453327986
20
9.00375315015796
30
0
41
1
10
8.86114350809254
20
8.95400700659482
30
0
41
1
10
8.73139739917735
20
8.85271470616544
30
0
41
1
10
8.66727138387006
20
8.80136264181385
30
0
41
1
10
8.3504638548728
20
8.54121741057332
30
0
41
1
10
8.10907647024368
20
8.32218372161557
30
0
41
1
10
7.64966054039306
20
7.86282448264086
30
0
41
1
10
7.43163375382827
20
7.62249758266881
30
0
41
1
10
7.01889930623037
20
7.12044613312091
30
0
41
1
10
6.8241899298157
20
6.85872339583085
30
0
41
1
10
6.61863457130426
20
6.55182584493645
30
0
41
1
10
6.59598297197468
20
6.51755262139244
30
0
41
1
10
6.55105770947227
20
6.44865691847392
30
0
41
1
10
6.52877521323913
20
6.41401992754103
30
0
41
1
10
6.46267533310353
20
6.30986409266976
30
0
41
1
10
6.33330054912724
20
6.10032299193614
30
0
41
1
10
6.21230230261042
20
5.88713055580908
30
0
41
1
10
5.98129593649492
20
5.4559405824487
30
0
41
1
10
5.84191861237483
20
5.16208506636173
30
0
41
1
10
5.59213609509965
20
4.56163768660548
30
0
41
1
10
5.48173027698672
20
4.25504620266597
30
0
41
1
10
5.33828630346613
20
3.78537269792633
30
0
41
1
10
5.29417252865377
20
3.62718093132489
30
0
41
1
10
5.23367267386433
20
3.38738523748583
30
0
41
1
10
5.21443098384967
20
3.30693861804855
30
0
41
1
10
5.17800678971312
20
3.14584543715986
30
0
41
1
10
5.16081455682291
20
3.06517189242359
30
0
41
1
10
5.07992001326323
20
2.66117283308185
30
0
41
1
10
5.03138034853976
20
2.33595764841223
30
0
41
1
10
4.96642087804358
20
1.68151292423911
30
0
41
1
10
4.94999999999999
20
1.35228352660408
30
0
41
1
10
4.94999999999999
20
1.02100000000002
30
0
0
SPLINE
5
16E
100
AcDbEntity
8
1
62
256
6
ByLayer
370
18
48
1
60
0
100
AcDbSpline
70
4
71
3
72
55
73
51
40
0
40
0
40
0
40
0
40
0.0625000000000003
40
0.0625000000000003
40
0.125000000000001
40
0.125000000000001
40
0.187500000000001
40
0.187500000000001
40
0.203125000000001
40
0.203125000000001
40
0.218750000000001
40
0.218750000000001
40
0.250000000000002
40
0.250000000000002
40
0.312500000000002
40
0.312500000000002
40
0.375000000000003
40
0.375000000000003
40
0.406250000000003
40
0.406250000000003
40
0.421875000000003
40
0.421875000000003
40
0.429687500000003
40
0.429687500000003
40
0.437500000000003
40
0.500000000000004
40
0.500000000000004
40
0.562500000000003
40
0.562500000000003
40
0.625000000000003
40
0.625000000000003
40
0.640625000000003
40
0.640625000000003
40
0.656250000000003
40
0.687500000000003
40
0.687500000000003
40
0.750000000000003
40
0.750000000000003
40
0.812500000000003
40
0.812500000000003
40
0.843750000000003
40
0.843750000000003
40
0.851562500000003
40
0.851562500000003
40
0.859375000000003
40
0.875000000000003
40
0.875000000000003
40
0.937500000000001
40
0.937500000000001
40
1
40
1
40
1
40
1
41
1
10
4.94999999999999
20
-1.02099999999999
30
0
41
1
10
4.94999999999999
20
-1.3523079915542
30
0
41
1
10
4.96642134783585
20
-1.68067409887229
30
0
41
1
10
5.03087929999901
20
-2.33174679457287
30
0
41
1
10
5.07891940867376
20
-2.65445276224668
30
0
41
1
10
5.20635268944537
20
-3.29426572456245
30
0
41
1
10
5.28574480986381
20
-3.61137286765143
30
0
41
1
10
5.40498744242313
20
-4.00419904197594
30
0
41
1
10
5.42983842315942
20
-4.08258599739003
30
0
41
1
10
5.48156509690597
20
-4.23900027259739
30
0
41
1
10
5.50847964164046
20
-4.31713183409292
30
0
41
1
10
5.5918899973689
20
-4.54987293038582
30
0
41
1
10
5.65109467221163
20
-4.70300204372802
30
0
41
1
10
5.83927605334895
20
-5.15643547267669
30
0
41
1
10
5.97879417795303
20
-5.4508001141709
30
0
41
1
10
6.28541740613582
20
-6.02406620255456
30
0
41
1
10
6.4525230892929
20
-6.30296717537195
30
0
41
1
10
6.7240890609533
20
-6.70966961558665
30
0
41
1
10
6.8181020070767
20
-6.84329211848563
30
0
41
1
10
6.96444502625468
20
-7.04076946247642
30
0
41
1
10
7.01411373212787
20
-7.1061022749893
30
0
41
1
10
7.08996329600507
20
-7.20335498416847
30
0
41
1
10
7.11547387776457
20
-7.2356511153352
30
0
41
1
10
7.16680433031482
20
-7.29981781967913
30
0
41
1
10
7.39934135356521
20
-7.58684936765701
30
0
41
1
10
7.64568626465802
20
-7.8585833343617
30
0
41
1
10
8.10489484089737
20
-8.31826526580147
30
0
41
1
10
8.34513155185402
20
-8.53640409494648
30
0
41
1
10
8.84696022030755
20
-8.9493347163918
30
0
41
1
10
9.1085504088683
20
-9.14412818546518
30
0
41
1
10
9.44934766744328
20
-9.37262008050175
30
0
41
1
10
9.51822592407589
20
-9.41758351937679
30
0
41
1
10
9.65727468452178
20
-9.50591857030147
30
0
41
1
10
9.86707016214334
20
-9.63558019202677
30
0
41
1
10
10.0804943122016
20
-9.75682082478644
30
0
41
1
10
10.5121139651924
20
-9.98826112294904
30
0
41
1
10
10.8062109677211
20
-10.127860076892
30
0
41
1
10
11.4070327340522
20
-10.3779904860776
30
0
41
1
10
11.7137572119495
20
-10.488522402293
30
0
41
1
10
12.1835333498157
20
-10.6321120183203
30
0
41
1
10
12.3417431598832
20
-10.6762670868699
30
0
41
1
10
12.5415733527485
20
-10.7267292475236
30
0
41
1
10
12.5816428517718
20
-10.7365849456891
30
0
41
1
10
12.6619901753909
20
-10.7558198473806
30
0
41
1
10
12.7828972503331
20
-10.7839728615934
30
0
41
1
10
12.9040786948306
20
-10.8098209298593
30
0
41
1
10
13.3086235808411
20
-10.8908951560489
30
0
41
1
10
13.6341967826629
20
-10.9395167419546
30
0
41
1
10
14.2891915210968
20
-11.0045687317411
30
0
41
1
10
14.6186129503849
20
-11.021
30
0
41
1
10
14.95
20
-11.021
30
0
0
SPLINE
5
16F
100
AcDbEntity
8
1
62
256
6
ByLayer
370
18
48
1
60
0
100
AcDbSpline
70
4
71
3
72
94
73
90
40
0
40
0
40
0
40
0
40
0.0311179546925681
40
0.0311179546925681
40
0.0623722142186144
40
0.0623722142186144
40
0.0701857791001258
40
0.0701857791001258
40
0.0779993439816374
40
0.0779993439816374
40
0.0936264737446605
40
0.0936264737446605
40
0.124880733270707
40
0.156134992796753
40
0.156134992796753
40
0.171762122559776
40
0.171762122559776
40
0.179575687441287
40
0.179575687441287
40
0.187389252322799
40
0.187389252322799
40
0.218643511848845
40
0.249897771374891
40
0.249897771374891
40
0.281152030900938
40
0.281152030900938
40
0.288965595782449
40
0.288965595782449
40
0.29677916066396
40
0.312406290426983
40
0.312406290426983
40
0.343660549953029
40
0.374914809479074
40
0.374914809479074
40
0.390541939242097
40
0.390541939242097
40
0.398355504123608
40
0.398355504123608
40
0.40616906900512
40
0.40616906900512
40
0.437423328531165
40
0.468677588057211
40
0.468677588057211
40
0.499931847583257
40
0.499931847583257
40
0.507745412464768
40
0.507745412464768
40
0.51555897734628
40
0.531186107109302
40
0.531186107109302
40
0.562440366635348
40
0.593694626161393
40
0.593694626161393
40
0.601508191042904
40
0.601508191042904
40
0.609321755924416
40
0.609321755924416
40
0.624948885687439
40
0.624948885687439
40
0.656203145213485
40
0.687457404739532
40
0.687457404739532
40
0.703084534502555
40
0.703084534502555
40
0.710898099384067
40
0.710898099384067
40
0.718711664265578
40
0.718711664265578
40
0.749965923791625
40
0.749965923791625
40
0.781220183317672
40
0.812474442843718
40
0.812474442843718
40
0.82028800772523
40
0.82028800772523
40
0.828101572606742
40
0.828101572606742
40
0.843728702369765
40
0.843728702369765
40
0.874982961895812
40
0.906237221421859
40
0.906237221421859
40
0.921864351184882
40
0.921864351184882
40
0.937491480947906
40
0.937491480947906
40
0.968745740473953
40
0.968745740473953
40
1
40
1
40
1
40
1
41
1
10
1.97750000777802
20
-49.9649999991108
30
0
41
1
10
1.97750953964069
20
-49.9649990246962
30
0
41
1
10
1.98545632950612
20
-49.9641983617187
30
0
41
1
10
2.01724722732342
20
-49.9610177309566
30
0
41
1
10
2.04115992233255
20
-49.9586308152791
30
0
41
1
10
2.08129162068926
20
-49.9546729253147
30
0
41
1
10
2.08983119845442
20
-49.9538326371641
30
0
41
1
10
2.10794835031368
20
-49.9520550811008
30
0
41
1
10
2.11751930921079
20
-49.9511184727661
30
0
41
1
10
2.14762771793312
20
-49.9481815129571
30
0
41
1
10
2.16960599648607
20
-49.9460495083297
30
0
41
1
10
2.24115197110834
20
-49.9391639832848
30
0
41
1
10
2.35148290558954
20
-49.9286784285348
30
0
41
1
10
2.49122428669722
20
-49.9159177578778
30
0
41
1
10
2.60720742921933
20
-49.9056195475719
30
0
41
1
10
2.64773464843901
20
-49.9020655468381
30
0
41
1
10
2.71137475352148
20
-49.8965688059296
30
0
41
1
10
2.73307730245006
20
-49.8947077439422
30
0
41
1
10
2.77738331378703
20
-49.8909382876813
30
0
41
1
10
2.79992333522819
20
-49.8890352780807
30
0
41
1
10
2.91453715737509
20
-49.8794380930142
30
0
41
1
10
3.11013072197537
20
-49.8635617090824
30
0
41
1
10
3.32950267196341
20
-49.8471159052254
30
0
41
1
10
3.56078910500128
20
-49.8306189507428
30
0
41
1
10
3.68238860919033
20
-49.8223445053227
30
0
41
1
10
3.84207090983477
20
-49.8121191993806
30
0
41
1
10
3.87443814538912
20
-49.8100772567124
30
0
41
1
10
3.93965882426463
20
-49.8060272185271
30
0
41
1
10
4.0382421227211
20
-49.800001164638
30
0
41
1
10
4.13905574540769
20
-49.7941370666848
30
0
41
1
10
4.34361047392363
20
-49.7826631778807
30
0
41
1
10
4.62414385817337
20
-49.7680448554114
30
0
41
1
10
4.92011814828717
20
-49.7551864754428
30
0
41
1
10
5.14800327249657
20
-49.7463551339536
30
0
41
1
10
5.22495080454612
20
-49.7435468038677
30
0
41
1
10
5.34188195419261
20
-49.7395572634288
30
0
41
1
10
5.38113273765828
20
-49.738264025278
30
0
41
1
10
5.45970172354154
20
-49.7357687767631
30
0
41
1
10
5.49907237231864
20
-49.7345649128229
30
0
41
1
10
5.69635211383064
20
-49.7287675075731
30
0
41
1
10
6.01472190291227
20
-49.7209134175242
30
0
41
1
10
6.33841570227307
20
-49.7160616455492
30
0
41
1
10
6.66478767023932
20
-49.7127896930666
30
0
41
1
10
6.8293124755898
20
-49.7119434987089
30
0
41
1
10
7.03670161170086
20
-49.7119235732049
30
0
41
1
10
7.07818500894933
20
-49.7119716121354
30
0
41
1
10
7.16089151267801
20
-49.7121704874302
30
0
41
1
10
7.28468511010232
20
-49.7126229641513
30
0
41
1
10
7.40768922605051
20
-49.7135319810613
30
0
41
1
10
7.65266037829241
20
-49.715943396819
30
0
41
1
10
7.97652734228561
20
-49.7207401959277
30
0
41
1
10
8.29491693416145
20
-49.7285395922947
30
0
41
1
10
8.49216312939765
20
-49.7343011878131
30
0
41
1
10
8.53152480372492
20
-49.7354978473571
30
0
41
1
10
8.61007130962133
20
-49.7379785226753
30
0
41
1
10
8.64929678904488
20
-49.7392639286545
30
0
41
1
10
8.76642134246316
20
-49.7432394720436
30
0
41
1
10
8.8434894394633
20
-49.7460389709654
30
0
41
1
10
9.07171369917643
20
-49.7548453350853
30
0
41
1
10
9.36808143142349
20
-49.7676724885507
30
0
41
1
10
9.64891315195442
20
-49.7822647681041
30
0
41
1
10
9.85366457163323
20
-49.7937192494058
30
0
41
1
10
9.92093458026835
20
-49.7976224434852
30
0
41
1
10
10.0203468060376
20
-49.8035854074952
30
0
41
1
10
10.0532352997926
20
-49.805591086346
30
0
41
1
10
10.1185093158849
20
-49.8096351925776
30
0
41
1
10
10.150930159383
20
-49.8116759372703
30
0
41
1
10
10.3109396075499
20
-49.8219000119434
30
0
41
1
10
10.4327775869071
20
-49.8301748316995
30
0
41
1
10
10.6645110074542
20
-49.8466752790785
30
0
41
1
10
10.8842971383039
20
-49.8631257744873
30
0
41
1
10
11.0802740041645
20
-49.8790133403504
30
0
41
1
10
11.1951240327003
20
-49.8886185464077
30
0
41
1
10
11.2177113632257
20
-49.8905233345677
30
0
41
1
10
11.2621120723669
20
-49.894296555528
30
0
41
1
10
11.2839089846801
20
-49.8961636305444
30
0
41
1
10
11.3477792027177
20
-49.9016743524074
30
0
41
1
10
11.3884530168723
20
-49.9052376494133
30
0
41
1
10
11.5048604965918
20
-49.9155640978341
30
0
41
1
10
11.6451268378791
20
-49.9283616954864
30
0
41
1
10
11.7559492883186
20
-49.9388876004249
30
0
41
1
10
11.8278693088857
20
-49.9458053434909
30
0
41
1
10
11.8499731879294
20
-49.9479484513177
30
0
41
1
10
11.8903740459414
20
-49.9518875807619
30
0
41
1
10
11.9086951317471
20
-49.9536860048986
30
0
41
1
10
11.957414776904
20
-49.9584891218553
30
0
41
1
10
11.9817465763237
20
-49.9609172813825
30
0
41
1
10
12.0142890389608
20
-49.9641726761554
30
0
41
1
10
12.0225079604949
20
-49.9650008020738
30
0
41
1
10
12.0225015547839
20
-49.9650001566577
30
0
0
SPLINE
5
170
100
AcDbEntity
8
1
62
256
6
ByLayer
370
13
48
1
60
0
100
AcDbSpline
70
4
71
3
72
47
73
43
40
0
40
0
40
0
40
0
40
0.0329369950919682
40
0.0329369950919682
40
0.0658739901839365
40
0.0658739901839365
40
0.131747980367873
40
0.19762197055181
40
0.19762197055181
40
0.23055896564378
40
0.247027463189763
40
0.247027463189763
40
0.263495960735746
40
0.263495960735746
40
0.329369950919684
40
0.395243941103623
40
0.461117931287562
40
0.461117931287562
40
0.477586428833549
40
0.477586428833549
40
0.494054926379537
40
0.494054926379537
40
0.52699192147151
40
0.52699192147151
40
0.592865911655457
40
0.658739901839405
40
0.658739901839405
40
0.691676896931377
40
0.691676896931377
40
0.724613892023348
40
0.724613892023348
40
0.790487882207291
40
0.856361872391234
40
0.856361872391234
40
0.922235862575177
40
0.922235862575177
40
0.938704360121162
40
0.938704360121162
40
0.955172857667146
40
0.988109852759111
40
0.988109852759111
40
1
40
1
40
1
40
1
41
1
10
47.5
20
19.4336747188519
30
0
41
1
10
47.4488196871585
20
19.4336747188519
30
0
41
1
10
47.3976621063398
20
19.4326627409075
30
0
41
1
10
47.2954366546693
20
19.4286158847225
30
0
41
1
10
47.2445951230436
20
19.4255903124914
30
0
41
1
10
47.0928672822023
20
19.4135669200204
30
0
41
1
10
46.8926844029348
20
19.3896927893246
30
0
41
1
10
46.6966593991322
20
19.3503934001206
30
0
41
1
10
46.5512127435846
20
19.3150559633508
30
0
41
1
10
46.478883122889
20
19.2959188045127
30
0
41
1
10
46.4071529156981
20
19.2745385911622
30
0
41
1
10
46.3594674389514
20
19.2597802698108
30
0
41
1
10
46.3356666777235
20
19.2521402705183
30
0
41
1
10
46.2173024431551
20
19.21276100602
30
0
41
1
10
46.0332042014288
20
19.1426467011808
30
0
41
1
10
45.7724161523277
20
19.0166209921777
30
0
41
1
10
45.6087666386975
20
18.9185934197346
30
0
41
1
10
45.5097600784136
20
18.8527807459337
30
0
41
1
10
45.4901228691134
20
18.8393903868722
30
0
41
1
10
45.4511803481161
20
18.8121475400288
30
0
41
1
10
45.4318541064045
20
18.7982789689188
30
0
41
1
10
45.3746689122752
20
18.7561857211711
30
0
41
1
10
45.337527491012
20
18.7274241360345
30
0
41
1
10
45.2289980535334
20
18.639061999495
30
0
41
1
10
45.0919978426606
20
18.5157159228193
30
0
41
1
10
44.970210982995
20
18.3812885642567
30
0
41
1
10
44.8846692241807
20
18.2761848733134
30
0
41
1
10
44.8571234531067
20
18.2404351673165
30
0
41
1
10
44.804005978867
20
18.1674679452661
30
0
41
1
10
44.7783846057255
20
18.1301644700238
30
0
41
1
10
44.7053037487823
20
18.0171792601767
30
0
41
1
10
44.6174657290078
20
17.8631042568838
30
0
41
1
10
44.548378416668
20
17.7022138638628
30
0
41
1
10
44.4887161323906
20
17.5378473837715
30
0
41
1
10
44.4635965739711
20
17.4539264921194
30
0
41
1
10
44.4382959481094
20
17.3467519249612
30
0
41
1
10
44.433539087301
20
17.3251867902847
30
0
41
1
10
44.4246916643938
20
17.2820700199464
30
0
41
1
10
44.4123987810576
20
17.2173309405732
30
0
41
1
10
44.4030078848119
20
17.1524004399249
30
0
41
1
10
44.3962158852136
20
17.093371393583
30
0
41
1
10
44.3945795714739
20
17.0777032092292
30
0
41
1
10
44.3931082325054
20
17.0620239586172
30
0
0
SPLINE
5
171
100
AcDbEntity
8
1
62
256
6
ByLayer
370
18
48
1
60
0
100
AcDbSpline
70
4
71
3
72
47
73
43
40
0
40
0
40
0
40
0
40
0.0487233051333159
40
0.108178098562486
40
0.108178098562486
40
0.13790549527707
40
0.13790549527707
40
0.167632891991655
40
0.167632891991655
40
0.227087685420823
40
0.286542478849991
40
0.286542478849991
40
0.316269875564575
40
0.331133573921869
40
0.331133573921869
40
0.345997272279162
40
0.345997272279162
40
0.405452065708332
40
0.405452065708332
40
0.464906859137502
40
0.524361652566672
40
0.524361652566672
40
0.539225350923963
40
0.539225350923963
40
0.554089049281255
40
0.554089049281255
40
0.583816445995837
40
0.583816445995837
40
0.643271239425005
40
0.702726032854173
40
0.702726032854173
40
0.732453429568759
40
0.747317127926049
40
0.747317127926049
40
0.76218082628334
40
0.76218082628334
40
0.821635619712505
40
0.821635619712505
40
0.88109041314167
40
0.940545206570835
40
0.940545206570835
40
1
40
1
40
1
40
1
41
1
10
44.3931082343373
20
17.0620239781389
30
0
41
1
10
44.3864280356123
20
16.9908367790044
30
0
41
1
10
44.3791467585478
20
16.8322766632785
30
0
41
1
10
44.3885135415293
20
16.6725900814491
30
0
41
1
10
44.4039368256036
20
16.5404288647011
30
0
41
1
10
44.4103678828372
20
16.496266208105
30
0
41
1
10
44.4258417059755
20
16.4078618386675
30
0
41
1
10
44.4348234481144
20
16.3639608690638
30
0
41
1
10
44.4654177691522
20
16.2331455401316
30
0
41
1
10
44.5159233939286
20
16.0610869714397
30
0
41
1
10
44.5854034377469
20
15.8937089747509
30
0
41
1
10
44.6446706849691
20
15.7699747484833
30
0
41
1
10
44.6760967509868
20
15.7085583729273
30
0
41
1
10
44.7102493014751
20
15.647835150775
30
0
41
1
10
44.7336299625277
20
15.6075095838948
30
0
41
1
10
44.7456443348075
20
15.5873964516781
30
0
41
1
10
44.8069834417649
20
15.4876795916504
30
0
41
1
10
44.8601189604749
20
15.4105475380946
30
0
41
1
10
44.974218467803
20
15.261429966361
30
0
41
1
10
45.0961482272573
20
15.1174599110081
30
0
41
1
10
45.2336148653113
20
14.9838298230029
30
0
41
1
10
45.3244908484206
20
14.90365330163
30
0
41
1
10
45.3429145966941
20
14.8877855174189
30
0
41
1
10
45.3802641850856
20
14.8563894186832
30
0
41
1
10
45.3992117067315
20
14.840844495953
30
0
41
1
10
45.4565128302582
20
14.7949652018711
30
0
41
1
10
45.4953980237725
20
14.7653207675794
30
0
41
1
10
45.614064078141
20
14.6791655977402
30
0
41
1
10
45.7776371728116
20
14.5716874562581
30
0
41
1
10
45.951702860022
20
14.4788281299174
30
0
41
1
10
46.0862223546013
20
14.4147566005784
30
0
41
1
10
46.154476381286
20
14.3841164449134
30
0
41
1
10
46.2242449209358
20
14.3556093456937
30
0
41
1
10
46.2710976185899
20
14.3370847063881
30
0
41
1
10
46.2947140301877
20
14.3280558617456
30
0
41
1
10
46.4129512385064
20
14.2843803405947
30
0
41
1
10
46.5085436563217
20
14.2539194731188
30
0
41
1
10
46.7016530262942
20
14.201633968953
30
0
41
1
10
46.8966874412273
20
14.1579868164278
30
0
41
1
10
47.0955245006577
20
14.1314591526326
30
0
41
1
10
47.2962925707934
20
14.1136422750307
30
0
41
1
10
47.3976418401328
20
14.109088041837
30
0
41
1
10
47.5
20
14.109088041837
30
0
0
SPLINE
5
172
100
AcDbEntity
8
1
62
256
6
ByLayer
370
18
48
1
60
0
100
AcDbSpline
70
4
71
3
72
48
73
44
40
0
40
0
40
0
40
0
40
0.029745085713752
40
0.029745085713752
40
0.059490171427504
40
0.059490171427504
40
0.118980342855008
40
0.178470514282512
40
0.178470514282512
40
0.208215599996266
40
0.223088142853141
40
0.223088142853141
40
0.237960685710016
40
0.237960685710016
40
0.297450857137523
40
0.356941028565031
40
0.416431199992538
40
0.416431199992538
40
0.431303742849416
40
0.431303742849416
40
0.446176285706294
40
0.446176285706294
40
0.475921371420048
40
0.475921371420048
40
0.535411542847555
40
0.594901714275062
40
0.594901714275062
40
0.624646799988815
40
0.624646799988815
40
0.654391885702567
40
0.654391885702567
40
0.713882057130071
40
0.773372228557574
40
0.773372228557574
40
0.832862399985077
40
0.832862399985077
40
0.847734942841953
40
0.847734942841953
40
0.862607485698829
40
0.89235257141258
40
0.89235257141258
40
0.951842742840078
40
1
40
1
40
1
40
1
41
1
10
47.5
20
-14.1090880418369
30
0
41
1
10
47.4488196871585
20
-14.1090880418369
30
0
41
1
10
47.3976621063398
20
-14.110229209684
30
0
41
1
10
47.2954366546693
20
-14.1147916756836
30
0
41
1
10
47.2445951230436
20
-14.1182024759986
30
0
41
1
10
47.0928672822023
20
-14.1317517719819
30
0
41
1
10
46.8926844029348
20
-14.1586475137895
30
0
41
1
10
46.6966593991322
20
-14.2028187103216
30
0
41
1
10
46.5512127435846
20
-14.242457412895
30
0
41
1
10
46.478883122889
20
-14.2639070476507
30
0
41
1
10
46.4071529156981
20
-14.2878335673093
30
0
41
1
10
46.3594674389514
20
-14.3043403686434
30
0
41
1
10
46.3356666777235
20
-14.3128810754177
30
0
41
1
10
46.2173024431551
20
-14.3568769227615
30
0
41
1
10
46.033204612033
20
-14.4350519165021
30
0
41
1
10
45.7724161523277
20
-14.5747826488534
30
0
41
1
10
45.6087666386974
20
-14.6827625677172
30
0
41
1
10
45.5097600784136
20
-14.7549667250283
30
0
41
1
10
45.4901228691134
20
-14.7696439295613
30
0
41
1
10
45.4511803481161
20
-14.7994754027176
30
0
41
1
10
45.4318541064044
20
-14.8146472193682
30
0
41
1
10
45.3746689122752
20
-14.8606493347251
30
0
41
1
10
45.337527491012
20
-14.8920205094467
30
0
41
1
10
45.2289980535334
20
-14.9881940828384
30
0
41
1
10
45.091997915176
20
-15.1219089713307
30
0
41
1
10
44.970210982995
20
-15.2663192329985
30
0
41
1
10
44.8846692241807
20
-15.378655549569
30
0
41
1
10
44.8571234531067
20
-15.4167736589177
30
0
41
1
10
44.804005978867
20
-15.4943737666013
30
0
41
1
10
44.7783846057255
20
-15.5339462997773
30
0
41
1
10
44.7053037487823
20
-15.6534860926516
30
0
41
1
10
44.6174657290078
20
-15.8156661463658
30
0
41
1
10
44.548378416668
20
-15.9831930556234
30
0
41
1
10
44.4887161323906
20
-16.1533629780554
30
0
41
1
10
44.4635965739711
20
-16.2397692282087
30
0
41
1
10
44.4382959481094
20
-16.3494659430042
30
0
41
1
10
44.433539087301
20
-16.3715065086519
30
0
41
1
10
44.4246916643938
20
-16.4155092984927
30
0
41
1
10
44.4123987810576
20
-16.4814822816022
30
0
41
1
10
44.4030078848119
20
-16.5473609259153
30
0
41
1
10
44.3880365050321
20
-16.6789909393321
30
0
41
1
10
44.379153087874
20
-16.8374732245128
30
0
41
1
10
44.3867346973189
20
-16.9953924140617
30
0
41
1
10
44.3934776934308
20
-17.0659267053814
30
0
0
SPLINE
5
173
100
AcDbEntity
8
1
62
256
6
ByLayer
370
13
48
1
60
0
100
AcDbSpline
70
4
71
3
72
46
73
42
40
0
40
0
40
0
40
0
40
0.0125407960769855
40
0.0125407960769855
40
0.0454561028744231
40
0.0454561028744231
40
0.0783714096718606
40
0.0783714096718606
40
0.144202023266737
40
0.210032636861614
40
0.210032636861614
40
0.242947943659052
40
0.259405597057771
40
0.259405597057771
40
0.27586325045649
40
0.27586325045649
40
0.341693864051362
40
0.341693864051362
40
0.407524477646234
40
0.473355091241106
40
0.473355091241106
40
0.489812744639822
40
0.489812744639822
40
0.506270398038538
40
0.506270398038538
40
0.539185704835968
40
0.539185704835968
40
0.605016318430833
40
0.670846932025698
40
0.670846932025698
40
0.703762238823132
40
0.720219892221847
40
0.720219892221847
40
0.736677545620562
40
0.736677545620562
40
0.802508159215421
40
0.802508159215421
40
0.868338772810281
40
0.934169386405141
40
0.934169386405141
40
1
40
1
40
1
40
1
41
1
10
44.3934776844439
20
-17.0659266113746
30
0
41
1
10
44.3950645253868
20
-17.0825255755549
30
0
41
1
10
44.3968369638092
20
-17.0991183044267
30
0
41
1
10
44.4039368256036
20
-17.1592386839337
30
0
41
1
10
44.4103678828372
20
-17.2027522364575
30
0
41
1
10
44.4258417059755
20
-17.2896015209355
30
0
41
1
10
44.4348234481144
20
-17.3326026617505
30
0
41
1
10
44.4654177691522
20
-17.4603697656643
30
0
41
1
10
44.5159233939286
20
-17.627434278681
30
0
41
1
10
44.5854034377469
20
-17.7881432006992
30
0
41
1
10
44.6446706849691
20
-17.9063152093287
30
0
41
1
10
44.6760967509868
20
-17.9648104039624
30
0
41
1
10
44.7102493014751
20
-18.0224153305508
30
0
41
1
10
44.7336299625276
20
-18.0606197096102
30
0
41
1
10
44.7456443348075
20
-18.0796494809831
30
0
41
1
10
44.8069834417649
20
-18.1738725607912
30
0
41
1
10
44.8601189604749
20
-18.2463615373649
30
0
41
1
10
44.974218467803
20
-18.3858466004694
30
0
41
1
10
45.0961482272573
20
-18.5198372863417
30
0
41
1
10
45.2336148653113
20
-18.6430826431752
30
0
41
1
10
45.3244908484206
20
-18.7167329900424
30
0
41
1
10
45.3429145966941
20
-18.7312937754253
30
0
41
1
10
45.3802641850856
20
-18.7600747056973
30
0
41
1
10
45.3992117067314
20
-18.7743100162571
30
0
41
1
10
45.4565128302582
20
-18.8162828009841
30
0
41
1
10
45.4953980237725
20
-18.8433473935331
30
0
41
1
10
45.614064078141
20
-18.9218627647558
30
0
41
1
10
45.7776371728116
20
-19.019420661719
30
0
41
1
10
45.951702860022
20
-19.1031617159022
30
0
41
1
10
46.0862223546013
20
-19.1607953389882
30
0
41
1
10
46.154476381286
20
-19.1883167982221
30
0
41
1
10
46.2242449209357
20
-19.2138748925244
30
0
41
1
10
46.2710976185899
20
-19.2304734417011
30
0
41
1
10
46.2947140301877
20
-19.2385585002581
30
0
41
1
10
46.4129512385064
20
-19.2776470523597
30
0
41
1
10
46.5085436563217
20
-19.3048391127624
30
0
41
1
10
46.7016530262942
20
-19.3514480586668
30
0
41
1
10
46.8966874412273
20
-19.3902795251031
30
0
41
1
10
47.0955245006577
20
-19.4138266420576
30
0
41
1
10
47.2962925707934
20
-19.4296368915781
30
0
41
1
10
47.3976418401328
20
-19.4336747188518
30
0
41
1
10
47.5
20
-19.4336747188518
30
0
0
SPLINE
5
174
100
AcDbEntity
8
1
62
256
6
ByLayer
370
13
48
1
60
0
100
AcDbSpline
70
4
71
3
72
85
73
81
40
0
40
0
40
0
40
0
40
0.0312499999999985
40
0.0312499999999985
40
0.062499999999997
40
0.0937499999999955
40
0.0937499999999955
40
0.109374999999994
40
0.109374999999994
40
0.124999999999992
40
0.124999999999992
40
0.14062499999999
40
0.14062499999999
40
0.156249999999988
40
0.156249999999988
40
0.187499999999985
40
0.218749999999981
40
0.218749999999981
40
0.23437499999998
40
0.23437499999998
40
0.24218749999998
40
0.24218749999998
40
0.249999999999979
40
0.281249999999975
40
0.312499999999971
40
0.312499999999971
40
0.343749999999967
40
0.343749999999967
40
0.351562499999966
40
0.351562499999966
40
0.359374999999965
40
0.374999999999966
40
0.374999999999966
40
0.406249999999969
40
0.437499999999972
40
0.437499999999972
40
0.453124999999974
40
0.453124999999974
40
0.468749999999976
40
0.468749999999976
40
0.499999999999979
40
0.531249999999982
40
0.531249999999982
40
0.546874999999983
40
0.554687499999984
40
0.554687499999984
40
0.562499999999985
40
0.562499999999985
40
0.593749999999987
40
0.593749999999987
40
0.624999999999989
40
0.656249999999992
40
0.656249999999992
40
0.671874999999992
40
0.671874999999992
40
0.687499999999993
40
0.687499999999993
40
0.718749999999996
40
0.749999999999999
40
0.749999999999999
40
0.765625
40
0.765625
40
0.773437500000001
40
0.773437500000001
40
0.781250000000002
40
0.812500000000005
40
0.843750000000008
40
0.87500000000001
40
0.87500000000001
40
0.88281250000001
40
0.88281250000001
40
0.890625000000009
40
0.906250000000008
40
0.906250000000008
40
0.937500000000006
40
0.968750000000004
40
0.968750000000004
40
0.984375000000002
40
0.984375000000002
40
1
40
1
40
1
40
1
41
1
10
47.5
20
13.9986125519229
30
0
41
1
10
47.3910077262519
20
13.9986125519229
30
0
41
1
10
47.28292814498
20
14.0034914052126
30
0
41
1
10
47.0685307842351
20
14.0226608339467
30
0
41
1
10
46.8558956459187
20
14.0512441678272
30
0
41
1
10
46.6467611565585
20
14.0984926386712
30
0
41
1
10
46.4912518933784
20
14.1410600616604
30
0
41
1
10
46.4396008999345
20
14.1564522819556
30
0
41
1
10
46.3369226131682
20
14.1896117857656
30
0
41
1
10
46.286068093515
20
14.2073213114952
30
0
41
1
10
46.18532774563
20
14.2449931645957
30
0
41
1
10
46.1355099633862
20
14.2649344909318
30
0
41
1
10
46.0374721539114
20
14.3067811450518
30
0
41
1
10
45.9891768141987
20
14.3287140497789
30
0
41
1
10
45.8464276425141
20
14.3974845872799
30
0
41
1
10
45.6617837693992
20
14.4970899885268
30
0
41
1
10
45.4884064648637
20
14.6122533251823
30
0
41
1
10
45.3626801498272
20
14.7045264376386
30
0
41
1
10
45.3214904388481
20
14.7362692985117
30
0
41
1
10
45.260807037219
20
14.7853861108678
30
0
41
1
10
45.2407580782285
20
14.8020143684421
30
0
41
1
10
45.2012528360266
20
14.8355846421377
30
0
41
1
10
45.1038308427492
20
14.9204098868597
30
0
41
1
10
44.9403697021262
20
15.0810515766092
30
0
41
1
10
44.8116201709369
20
15.234778067036
30
0
41
1
10
44.6912020926544
20
15.3939448918496
30
0
41
1
10
44.6351578864997
20
15.4762479830743
30
0
41
1
10
44.5705013894618
20
15.5826139568423
30
0
41
1
10
44.5578515481808
20
15.6040461014947
30
0
41
1
10
44.5332343298681
20
15.6470181306022
30
0
41
1
10
44.4972796204996
20
15.7117238444312
30
0
41
1
10
44.4642075157892
20
15.7771606362104
30
0
41
1
10
44.4018526301832
20
15.9089853442861
30
0
41
1
10
44.3288000443831
20
16.087282835479
30
0
41
1
10
44.2757925828312
20
16.2705208658745
30
0
41
1
10
44.2437267755583
20
16.4098191359123
30
0
41
1
10
44.2343219437777
20
16.4565652144949
30
0
41
1
10
44.2181396756649
20
16.550688911945
30
0
41
1
10
44.2114315228511
20
16.5976632519084
30
0
41
1
10
44.1953684738705
20
16.7383257925939
30
0
41
1
10
44.1847617468158
20
16.9251815791207
30
0
41
1
10
44.195344082696
20
17.1106619565893
30
0
41
1
10
44.2112967827248
20
17.2492574483025
30
0
41
1
10
44.2212806891899
20
17.3184264363199
30
0
41
1
10
44.2343227083124
20
17.3874019151069
30
0
41
1
10
44.2437046486834
20
17.4333424836409
30
0
41
1
10
44.2487463349404
20
17.4563192349463
30
0
41
1
10
44.275550820474
20
17.5705120691474
30
0
41
1
10
44.302139646528
20
17.6599750650794
30
0
41
1
10
44.3652710035239
20
17.8352796531727
30
0
41
1
10
44.4383583930365
20
18.0069620024097
30
0
41
1
10
44.5312783618289
20
18.1715284188138
30
0
41
1
10
44.6085962003792
20
18.2922632917962
30
0
41
1
10
44.6357053662187
20
18.3321369502147
30
0
41
1
10
44.6919205950651
20
18.4101617902438
30
0
41
1
10
44.7210770533951
20
18.4484016340786
30
0
41
1
10
44.8116357396003
20
18.5608597064516
30
0
41
1
10
44.9406040687736
20
18.7047839271711
30
0
41
1
10
45.0857828600181
20
18.8369976982701
30
0
41
1
10
45.2008352964572
20
18.9317640927516
30
0
41
1
10
45.2402160071336
20
18.9626192755428
30
0
41
1
10
45.3008605985577
20
19.0077891565612
30
0
41
1
10
45.3213605105818
20
19.0226755130059
30
0
41
1
10
45.3626765721642
20
19.0519247762638
30
0
41
1
10
45.4668578073721
20
19.123814696887
30
0
41
1
10
45.662284766307
20
19.2423137139746
30
0
41
1
10
45.9392990522954
20
19.3778606085987
30
0
41
1
10
46.1349842009641
20
19.4533442679686
30
0
41
1
10
46.2608441571007
20
19.4957562339997
30
0
41
1
10
46.2861611615115
20
19.50398777034
30
0
41
1
10
46.336881617097
20
19.5198880218526
30
0
41
1
10
46.4131803084703
20
19.5429239433311
30
0
41
1
10
46.4901260051543
20
19.5635468638283
30
0
41
1
10
46.6448675205206
20
19.6016318639639
30
0
41
1
10
46.8534526461044
20
19.6439983544859
30
0
41
1
10
47.0665290116467
20
19.6697485374777
30
0
41
1
10
47.2280557812694
20
19.6827186426096
30
0
41
1
10
47.2821851257766
20
19.6859829378095
30
0
41
1
10
47.3910303662298
20
19.6903493834074
30
0
41
1
10
47.4455033352487
20
19.6914413712264
30
0
41
1
10
47.5
20
19.6914413712264
30
0
0
SPLINE
5
175
100
AcDbEntity
8
1
62
256
6
ByLayer
370
18
48
1
60
0
100
AcDbSpline
70
4
71
3
72
46
73
42
40
0
40
0
40
0
40
0
40
0.062518525965119
40
0.062518525965119
40
0.125037051930238
40
0.187555577895357
40
0.187555577895357
40
0.218814840877915
40
0.218814840877915
40
0.250074103860472
40
0.250074103860472
40
0.28133336684303
40
0.28133336684303
40
0.312592629825588
40
0.312592629825588
40
0.375111155790703
40
0.437629681755818
40
0.437629681755818
40
0.468888944738377
40
0.468888944738377
40
0.484518576229657
40
0.484518576229657
40
0.500148207720936
40
0.562666733686052
40
0.625185259651168
40
0.625185259651168
40
0.687703785616284
40
0.687703785616284
40
0.703333417107563
40
0.703333417107563
40
0.718963048598842
40
0.750222311581401
40
0.750222311581401
40
0.812740837546521
40
0.875259363511642
40
0.875259363511642
40
0.906518626494202
40
0.906518626494202
40
0.937777889476762
40
0.937777889476762
40
1
40
1
40
1
40
1
41
1
10
47.5
20
33.6900539231492
30
0
41
1
10
47.3910077262519
20
33.6900539231492
30
0
41
1
10
47.28292814498
20
33.6905753790469
30
0
41
1
10
47.0685307842351
20
33.6926102869876
30
0
41
1
10
46.8558956459187
20
33.695637274646
30
0
41
1
10
46.6467611565585
20
33.7005499528915
30
0
41
1
10
46.4912518933784
20
33.7049039317573
30
0
41
1
10
46.4396008999345
20
33.7064680860255
30
0
41
1
10
46.3369226131682
20
33.7098075464504
30
0
41
1
10
46.286068093515
20
33.7115770348953
30
0
41
1
10
46.18532774563
20
33.7153024794052
30
0
41
1
10
46.1355099633862
20
33.7172562698564
30
0
41
1
10
46.0374721539114
20
33.7213089035691
30
0
41
1
10
45.9891768141987
20
33.7234104859232
30
0
41
1
10
45.8464276425141
20
33.7299149988647
30
0
41
1
10
45.6617837693992
20
33.7391200777018
30
0
41
1
10
45.4884064648637
20
33.7491202416359
30
0
41
1
10
45.3626801498272
20
33.7568163374827
30
0
41
1
10
45.3214904388481
20
33.7594143378291
30
0
41
1
10
45.260807037219
20
33.7633470380661
30
0
41
1
10
45.2407580782285
20
33.7646642594624
30
0
41
1
10
45.2012528360266
20
33.767293410237
30
0
41
1
10
45.1038308427492
20
33.7738622847116
30
0
41
1
10
44.9403697021262
20
33.7855957368511
30
0
41
1
10
44.8116201709369
20
33.7956051791664
30
0
41
1
10
44.6912020926544
20
33.8052602705255
30
0
41
1
10
44.6351578864997
20
33.8099108902605
30
0
41
1
10
44.5705013894618
20
33.8154095002685
30
0
41
1
10
44.5578515481808
20
33.8164925617532
30
0
41
1
10
44.5332343298681
20
33.8186130794744
30
0
41
1
10
44.4972796204996
20
33.8217299380665
30
0
41
1
10
44.4642075157892
20
33.8246484398312
30
0
41
1
10
44.4018526301832
20
33.830203786392
30
0
41
1
10
44.3288000443831
20
33.8368596614176
30
0
41
1
10
44.2757925828312
20
33.8418340757027
30
0
41
1
10
44.2437267755583
20
33.8448659259827
30
0
41
1
10
44.2343219437777
20
33.8457600417197
30
0
41
1
10
44.218139675665
20
33.8473032488554
30
0
41
1
10
44.2114315228511
20
33.8479457113334
30
0
41
1
10
44.1954192464021
20
33.8494820163264
30
0
41
1
10
44.1901155209082
20
33.8499945377096
30
0
41
1
10
44.1900594565319
20
33.8499999589115
30
0
0
SPLINE
5
176
100
AcDbEntity
8
1
62
256
6
ByLayer
370
18
48
1
60
0
100
AcDbSpline
70
4
71
3
72
10
73
6
40
0
40
0
40
0
40
0
40
0.668289412416717
40
0.668289412416717
40
1
40
1
40
1
40
1
41
1
10
44.1905043847325
20
33.8499569975074
30
0
41
1
10
44.1919808637992
20
33.8498144856189
30
0
41
1
10
44.1971301737919
20
33.8493178857774
30
0
41
1
10
44.2103715062029
20
33.8480474028307
30
0
41
1
10
44.2156769264649
20
33.8475391354413
30
0
41
1
10
44.2219071932072
20
33.8469442313414
30
0
0
SPLINE
5
177
100
AcDbEntity
8
1
62
256
6
ByLayer
370
18
48
1
60
0
100
AcDbSpline
70
4
71
3
72
46
73
42
40
0
40
0
40
0
40
0
40
0.0622103507078285
40
0.0622103507078285
40
0.0934700056842349
40
0.109099833172438
40
0.109099833172438
40
0.124729660660641
40
0.124729660660641
40
0.187248970613452
40
0.187248970613452
40
0.249768280566263
40
0.312287590519074
40
0.312287590519074
40
0.343547245495479
40
0.343547245495479
40
0.374806900471885
40
0.374806900471885
40
0.437326210424696
40
0.499845520377507
40
0.499845520377507
40
0.531105175353911
40
0.531105175353911
40
0.546735002842113
40
0.546735002842113
40
0.562364830330315
40
0.624884140283133
40
0.687403450235951
40
0.749922760188769
40
0.749922760188769
40
0.765552587676971
40
0.765552587676971
40
0.781182415165173
40
0.812442070141576
40
0.812442070141576
40
0.874961380094383
40
0.93748069004719
40
0.93748069004719
40
0.968740345023595
40
0.968740345023595
40
1
40
1
40
1
40
1
41
1
10
44.1900594578008
20
-33.8499999683783
30
0
41
1
10
44.190105487376
20
-33.8499955234497
30
0
41
1
10
44.1953966396223
20
-33.8494842153832
30
0
41
1
10
44.2112967827248
20
-33.8479586241485
30
0
41
1
10
44.2212806891899
20
-33.8470023971767
30
0
41
1
10
44.2343227083124
20
-33.8457605958904
30
0
41
1
10
44.2437046486834
20
-33.8448693557843
30
0
41
1
10
44.2487463349404
20
-33.8443913712671
30
0
41
1
10
44.275550820474
20
-33.8418567452411
30
0
41
1
10
44.302139646528
20
-33.8393614192028
30
0
41
1
10
44.3652710035239
20
-33.8335367891115
30
0
41
1
10
44.4383578653525
20
-33.8268778445526
30
0
41
1
10
44.5312783618288
20
-33.8187460747365
30
0
41
1
10
44.6085962003792
20
-33.8121693381804
30
0
41
1
10
44.6357053662187
20
-33.8098924317541
30
0
41
1
10
44.691920595065
20
-33.8052424844296
30
0
41
1
10
44.7210770533951
20
-33.8028650332772
30
0
41
1
10
44.8116357396002
20
-33.7956036725808
30
0
41
1
10
44.9406040687735
20
-33.7855782471699
30
0
41
1
10
45.0857828600181
20
-33.7751583664261
30
0
41
1
10
45.2008352964573
20
-33.7673057421386
30
0
41
1
10
45.2402160071336
20
-33.7646819375125
30
0
41
1
10
45.3008605985577
20
-33.7607510663381
30
0
41
1
10
45.3213605105818
20
-33.7594401949205
30
0
41
1
10
45.3626765721642
20
-33.7568359043409
30
0
41
1
10
45.4668578073721
20
-33.7503621506173
30
0
41
1
10
45.6622850575872
20
-33.7390923831809
30
0
41
1
10
45.9392985690538
20
-33.7252878711619
30
0
41
1
10
46.1349842009641
20
-33.7171642926393
30
0
41
1
10
46.2608441571007
20
-33.7125098137761
30
0
41
1
10
46.2861611615115
20
-33.7116013899274
30
0
41
1
10
46.336881617097
20
-33.7098380545741
30
0
41
1
10
46.4131803084703
20
-33.7072700244367
30
0
41
1
10
46.4901260051543
20
-33.7049375661758
30
0
41
1
10
46.6448675205206
20
-33.7005988318565
30
0
41
1
10
46.8534526461044
20
-33.695683810447
30
0
41
1
10
47.0665290116467
20
-33.6926340976415
30
0
41
1
10
47.2280557812694
20
-33.6910938334903
30
0
41
1
10
47.2821851257766
20
-33.6907049280955
30
0
41
1
10
47.3910303662298
20
-33.6901843640015
30
0
41
1
10
47.4455033352487
20
-33.6900539231492
30
0
41
1
10
47.5
20
-33.6900539231492
30
0
0
SPLINE
5
178
100
AcDbEntity
8
1
62
256
6
ByLayer
370
13
48
1
60
0
100
AcDbSpline
70
4
71
3
72
85
73
81
40
0
40
0
40
0
40
0
40
0.0312500000000047
40
0.0312500000000047
40
0.0625000000000094
40
0.0937500000000141
40
0.0937500000000141
40
0.109375000000016
40
0.109375000000016
40
0.125000000000017
40
0.125000000000017
40
0.140625000000018
40
0.140625000000018
40
0.15625000000002
40
0.15625000000002
40
0.187500000000022
40
0.218750000000024
40
0.218750000000024
40
0.234375000000025
40
0.234375000000025
40
0.242187500000025
40
0.242187500000025
40
0.250000000000026
40
0.281250000000026
40
0.312500000000026
40
0.312500000000026
40
0.343750000000026
40
0.343750000000026
40
0.351562500000026
40
0.351562500000026
40
0.359375000000026
40
0.375000000000027
40
0.375000000000027
40
0.406250000000029
40
0.437500000000031
40
0.437500000000031
40
0.453125000000032
40
0.453125000000032
40
0.468750000000033
40
0.468750000000033
40
0.500000000000035
40
0.531250000000038
40
0.531250000000038
40
0.546875000000038
40
0.554687500000038
40
0.554687500000038
40
0.562500000000037
40
0.562500000000037
40
0.593750000000034
40
0.593750000000034
40
0.625000000000031
40
0.656250000000028
40
0.656250000000028
40
0.671875000000027
40
0.671875000000027
40
0.687500000000026
40
0.687500000000026
40
0.718750000000023
40
0.75000000000002
40
0.75000000000002
40
0.765625000000018
40
0.765625000000018
40
0.773437500000017
40
0.773437500000017
40
0.781250000000016
40
0.812500000000016
40
0.843750000000016
40
0.875000000000016
40
0.875000000000016
40
0.882812500000015
40
0.882812500000015
40
0.890625000000014
40
0.906250000000012
40
0.906250000000012
40
0.937500000000007
40
0.968750000000003
40
0.968750000000003
40
0.984375000000001
40
0.984375000000001
40
1
40
1
40
1
40
1
41
1
10
47.5
20
-19.6914413712263
30
0
41
1
10
47.3910077262519
20
-19.6914413712263
30
0
41
1
10
47.28292814498
20
-19.6870839738343
30
0
41
1
10
47.0685307842351
20
-19.6699494530409
30
0
41
1
10
46.8558956459187
20
-19.6443931068188
30
0
41
1
10
46.6467611565585
20
-19.6020573142203
30
0
41
1
10
46.4912518933784
20
-19.5638438700969
30
0
41
1
10
46.4396008999345
20
-19.5500158040698
30
0
41
1
10
46.3369226131682
20
-19.5201957606847
30
0
41
1
10
46.286068093515
20
-19.5042557234
30
0
41
1
10
46.18532774563
20
-19.4703093148095
30
0
41
1
10
46.1355099633862
20
-19.4523217789246
30
0
41
1
10
46.0374721539114
20
-19.4145277585172
30
0
41
1
10
45.9891768141987
20
-19.3946964361442
30
0
41
1
10
45.8464276425141
20
-19.3324304115848
30
0
41
1
10
45.6617837693992
20
-19.2420300891749
30
0
41
1
10
45.4884064648637
20
-19.1368669164536
30
0
41
1
10
45.3626801498272
20
-19.0522898998441
30
0
41
1
10
45.3214904388481
20
-19.0231450393174
30
0
41
1
10
45.260807037219
20
-18.9779609271983
30
0
41
1
10
45.2407580782285
20
-18.9626498910202
30
0
41
1
10
45.2012528360266
20
-18.9317087680993
30
0
41
1
10
45.1038308427492
20
-18.8534523978518
30
0
41
1
10
44.9403697021262
20
-18.7045441602419
30
0
41
1
10
44.811620170937
20
-18.5608271121304
30
0
41
1
10
44.6912020926544
20
-18.4113153786758
30
0
41
1
10
44.6351578864997
20
-18.3336629071862
30
0
41
1
10
44.5705013894618
20
-18.2327955434261
30
0
41
1
10
44.5578515481808
20
-18.2124464602585
30
0
41
1
10
44.5332343298681
20
-18.1715949488722
30
0
41
1
10
44.4972796204996
20
-18.1100060936353
30
0
41
1
10
44.4642075157892
20
-18.0474878036208
30
0
41
1
10
44.4018526301832
20
-17.9212184421059
30
0
41
1
10
44.3288000443831
20
-17.7495768259385
30
0
41
1
10
44.2757925828312
20
-17.5713132098282
30
0
41
1
10
44.2437267755583
20
-17.4350467900703
30
0
41
1
10
44.2343219437777
20
-17.3891948272247
30
0
41
1
10
44.2181396756649
20
-17.2966143369104
30
0
41
1
10
44.2114315228511
20
-17.2502824594249
30
0
41
1
10
44.1953684738705
20
-17.1111610951256
30
0
41
1
10
44.1847617468158
20
-16.9253303516835
30
0
41
1
10
44.195344082696
20
-16.7388273015401
30
0
41
1
10
44.2112967827248
20
-16.598701175846
30
0
41
1
10
44.2212806891899
20
-16.5285759608568
30
0
41
1
10
44.2343227083123
20
-16.4583586807834
30
0
41
1
10
44.2437046486834
20
-16.4115268721434
30
0
41
1
10
44.2487463349404
20
-16.3880721363207
30
0
41
1
10
44.275550820474
20
-16.2713446760936
30
0
41
1
10
44.302139646528
20
-16.1793863541233
30
0
41
1
10
44.3652710035239
20
-15.9982571359387
30
0
41
1
10
44.4383583930365
20
-15.8199160058294
30
0
41
1
10
44.5312783618289
20
-15.6472176559227
30
0
41
1
10
44.6085962003792
20
-15.5199060463841
30
0
41
1
10
44.6357053662187
20
-15.4777554815394
30
0
41
1
10
44.6919205950651
20
-15.3950806941859
30
0
41
1
10
44.7210770533951
20
-15.3544633991986
30
0
41
1
10
44.8116357396003
20
-15.2347439661292
30
0
41
1
10
44.9406040687736
20
-15.0807943199987
30
0
41
1
10
45.0857828600181
20
-14.9381606681561
30
0
41
1
10
45.2008352964572
20
-14.835541649387
30
0
41
1
10
45.2402160071335
20
-14.8020626619697
30
0
41
1
10
45.3008605985577
20
-14.7529619097769
30
0
41
1
10
45.3213605105818
20
-14.7367646819146
30
0
41
1
10
45.3626765721642
20
-14.7049111280771
30
0
41
1
10
45.4668578073721
20
-14.6265474537302
30
0
41
1
10
45.6622847663071
20
-14.4967788838482
30
0
41
1
10
45.9392990522954
20
-14.3474274823296
30
0
41
1
10
46.1349842009641
20
-14.2638200246706
30
0
41
1
10
46.2608441571007
20
-14.2167535797763
30
0
41
1
10
46.2861611615115
20
-14.2076136195874
30
0
41
1
10
46.336881617097
20
-14.1899500327215
30
0
41
1
10
46.4131803084703
20
-14.1643460811056
30
0
41
1
10
46.4901260051543
20
-14.1413907023475
30
0
41
1
10
46.6448675205206
20
-14.0989669678926
30
0
41
1
10
46.8534526461044
20
-14.0516854559611
30
0
41
1
10
47.0665290116467
20
-14.0228855601638
30
0
41
1
10
47.2280557812694
20
-14.0083751908806
30
0
41
1
10
47.2821851257766
20
-14.004721990286
30
0
41
1
10
47.3910303662298
20
-13.9998349805941
30
0
41
1
10
47.4455033352487
20
-13.9986125519228
30
0
41
1
10
47.5
20
-13.9986125519228
30
0
0
SPLINE
5
179
100
AcDbEntity
8
1
62
256
6
ByLayer
370
18
48
1
60
0
100
AcDbSpline
70
4
71
3
72
8
73
4
40
0
40
0
40
0
40
0
40
1
40
1
40
1
40
1
41
1
10
55.9796406331302
20
13.5349364905389
30
0
41
1
10
55.5596841211549
20
13.7263717626045
30
0
41
1
10
55.1393552680272
20
13.9177522539503
30
0
41
1
10
54.7187225682608
20
14.1090880418369
30
0
0
SPLINE
5
17A
100
AcDbEntity
8
1
62
256
6
ByLayer
370
18
48
1
60
0
100
AcDbSpline
70
4
71
3
72
22
73
18
40
0
40
0
40
0
40
0
40
0.250000000000004
40
0.250000000000004
40
0.312500000000004
40
0.312500000000004
40
0.375000000000005
40
0.375000000000005
40
0.500000000000004
40
0.500000000000004
40
0.625000000000003
40
0.625000000000003
40
0.750000000000002
40
0.750000000000002
40
0.875000000000001
40
0.875000000000001
40
1
40
1
40
1
40
1
41
1
10
54.7187225682608
20
14.1090880418369
30
0
41
1
10
54.7062194512196
20
14.1147754117239
30
0
41
1
10
54.694266129591
20
14.116967548718
30
0
41
1
10
54.6800525484951
20
14.1150547497748
30
0
41
1
10
54.6772378036302
20
14.1144287008353
30
0
41
1
10
54.6717848582514
20
14.1127026196802
30
0
41
1
10
54.6691361462111
20
14.1116028976314
30
0
41
1
10
54.6614247621649
20
14.1075884753372
30
0
41
1
10
54.6565948106336
20
14.103964741994
30
0
41
1
10
54.6476085192513
20
14.0946604879176
30
0
41
1
10
54.6434216271892
20
14.0888979461121
30
0
41
1
10
54.6361654882693
20
14.0756100805072
30
0
41
1
10
54.6330492148127
20
14.0680643321882
30
0
41
1
10
54.6279067324668
20
14.0510495797404
30
0
41
1
10
54.6258745411532
20
14.0414549565806
30
0
41
1
10
54.6231891739723
20
14.0210468725756
30
0
41
1
10
54.6225009252407
20
14.0101789208044
30
0
41
1
10
54.6225009252407
20
13.9986125519229
30
0
0
SPLINE
5
17B
100
AcDbEntity
8
1
62
256
6
ByLayer
370
18
48
1
60
0
100
AcDbSpline
70
4
71
3
72
26
73
22
40
0
40
0
40
0
40
0
40
0.125000000000067
40
0.125000000000067
40
0.187500000000079
40
0.187500000000079
40
0.250000000000092
40
0.250000000000092
40
0.375000000000105
40
0.375000000000105
40
0.437500000000097
40
0.437500000000097
40
0.500000000000089
40
0.500000000000089
40
0.625000000000067
40
0.625000000000067
40
0.750000000000045
40
0.750000000000045
40
0.875000000000022
40
0.875000000000022
40
1
40
1
40
1
40
1
41
1
10
54.6225009252407
20
-13.9986125519228
30
0
41
1
10
54.6225009252407
20
-14.0101299332704
30
0
41
1
10
54.6231833276021
20
-14.020935672591
30
0
41
1
10
54.6251708216861
20
-14.0361393792599
30
0
41
1
10
54.6259951214105
20
-14.0410386008521
30
0
41
1
10
54.6279704790296
20
-14.050496512413
30
0
41
1
10
54.6291199728684
20
-14.0550356804394
30
0
41
1
10
54.6329684782824
20
-14.0678510186907
30
0
41
1
10
54.6360847600015
20
-14.0754370529605
30
0
41
1
10
54.6415387612126
20
-14.0854621543334
30
0
41
1
10
54.6434952591123
20
-14.0885841389937
30
0
41
1
10
54.647592261629
20
-14.0942724396006
30
0
41
1
10
54.6497393940392
20
-14.0968538956556
30
0
41
1
10
54.6564614801868
20
-14.1038514034084
30
0
41
1
10
54.6613294336992
20
-14.107533150984
30
0
41
1
10
54.6717245620117
20
-14.1129560408374
30
0
41
1
10
54.6771519888291
20
-14.1146522735236
30
0
41
1
10
54.6884271081892
20
-14.1161936666663
30
0
41
1
10
54.6942986163695
20
-14.1160326828728
30
0
41
1
10
54.7063538146869
20
-14.1138899307342
30
0
41
1
10
54.7124867338321
20
-14.1119245742658
30
0
41
1
10
54.7187225682608
20
-14.1090880418369
30
0
0
SPLINE
5
17C
100
AcDbEntity
8
1
62
256
6
ByLayer
370
18
48
1
60
0
100
AcDbSpline
70
4
71
3
72
8
73
4
40
0
40
0
40
0
40
0
40
1
40
1
40
1
40
1
41
1
10
54.7187225682608
20
-14.1090880418369
30
0
41
1
10
55.1393552680272
20
-13.9177522539503
30
0
41
1
10
55.5596841211549
20
-13.7263717626044
30
0
41
1
10
55.9796406331302
20
-13.5349364905389
30
0
0
SPLINE
5
17D
100
AcDbEntity
8
1
62
256
6
ByLayer
370
18
48
1
60
0
100
AcDbSpline
70
4
71
3
72
8
73
4
40
0
40
0
40
0
40
0
40
1
40
1
40
1
40
1
41
1
10
55.9796406331302
20
-13.5349364905389
30
0
41
1
10
56.0624202780138
20
-13.583700287737
30
0
41
1
10
56.1448554149218
20
-13.6325030634831
30
0
41
1
10
56.226929831797
20
-13.6813466520527
30
0
0
SPLINE
5
17E
100
AcDbEntity
8
1
62
256
6
ByLayer
370
18
48
1
60
0
100
AcDbSpline
70
4
71
3
72
9
73
5
40
0
40
0
40
0
40
0
40
0.500000000000001
40
1
40
1
40
1
40
1
41
1
10
56.226929831797
20
-13.6813466520527
30
0
41
1
10
56.254244807017
20
-14.2875644347018
30
0
41
1
10
56.2816535778452
20
-15.5
30
0
41
1
10
56.254244807017
20
-16.7124355652982
30
0
41
1
10
56.226929831797
20
-17.3186533479473
30
0
0
SPLINE
5
17F
100
AcDbEntity
8
1
62
256
6
ByLayer
370
18
48
1
60
0
100
AcDbSpline
70
4
71
3
72
8
73
4
40
0
40
0
40
0
40
0
40
1
40
1
40
1
40
1
41
1
10
56.226929831797
20
-17.3186533479473
30
0
41
1
10
56.1448554149218
20
-17.5009401021128
30
0
41
1
10
56.0624202780138
20
-17.6830745407478
30
0
41
1
10
55.9796406331302
20
-17.8650635094611
30
0
0
SPLINE
5
180
100
AcDbEntity
8
1
62
256
6
ByLayer
370
18
48
1
60
0
100
AcDbSpline
70
4
71
3
72
8
73
4
40
0
40
0
40
0
40
0
40
1
40
1
40
1
40
1
41
1
10
55.9796406331302
20
-17.8650635094611
30
0
41
1
10
55.5596841211581
20
-18.388074399101
30
0
41
1
10
55.1393552680302
20
-18.9109356250356
30
0
41
1
10
54.7187225682608
20
-19.4336747188518
30
0
0
SPLINE
5
181
100
AcDbEntity
8
1
62
256
6
ByLayer
370
18
48
1
60
0
100
AcDbSpline
70
4
71
3
72
22
73
18
40
0
40
0
40
0
40
0
40
0.249999999999969
40
0.249999999999969
40
0.312499999999972
40
0.312499999999972
40
0.374999999999976
40
0.374999999999976
40
0.49999999999998
40
0.49999999999998
40
0.624999999999985
40
0.624999999999985
40
0.74999999999999
40
0.74999999999999
40
0.874999999999995
40
0.874999999999995
40
1
40
1
40
1
40
1
41
1
10
54.7187225682608
20
-19.4336747188518
30
0
41
1
10
54.7062194512196
20
-19.4492129023445
30
0
41
1
10
54.694266129591
20
-19.466986776591
30
0
41
1
10
54.6800525484951
20
-19.4921785428611
30
0
41
1
10
54.6772378036302
20
-19.4973892476046
30
0
41
1
10
54.6717848582514
20
-19.507944208181
30
0
41
1
10
54.6691361462111
20
-19.5133055466462
30
0
41
1
10
54.6614247621649
20
-19.5296428890598
30
0
41
1
10
54.6565948106336
20
-19.5408700201818
30
0
41
1
10
54.6476085192513
20
-19.5640521889488
30
0
41
1
10
54.6434216271892
20
-19.5761311288008
30
0
41
1
10
54.6361654882693
20
-19.6000166654047
30
0
41
1
10
54.6330492148127
20
-19.6119192901182
30
0
41
1
10
54.6279067324668
20
-19.635638523493
30
0
41
1
10
54.6258745411532
20
-19.6475772737325
30
0
41
1
10
54.6231891739723
20
-19.6702588708247
30
0
41
1
10
54.6225009252407
20
-19.6811084889255
30
0
41
1
10
54.6225009252407
20
-19.6914413712263
30
0
0
SPLINE
5
182
100
AcDbEntity
8
1
62
256
6
ByLayer
370
18
48
1
60
0
100
AcDbSpline
70
4
71
3
72
26
73
22
40
0
40
0
40
0
40
0
40
0.12499999999998
40
0.12499999999998
40
0.187499999999971
40
0.187499999999971
40
0.249999999999961
40
0.249999999999961
40
0.374999999999937
40
0.374999999999937
40
0.437499999999933
40
0.437499999999933
40
0.49999999999993
40
0.49999999999993
40
0.624999999999947
40
0.624999999999947
40
0.749999999999965
40
0.749999999999965
40
0.874999999999982
40
0.874999999999982
40
1
40
1
40
1
40
1
41
1
10
54.6225009252407
20
-33.6900539231492
30
0
41
1
10
54.6225009252407
20
-33.6912821854918
30
0
41
1
10
54.6231833276021
20
-33.6913035752414
30
0
41
1
10
54.6251708216861
20
-33.6896314857235
30
0
41
1
10
54.6259951214105
20
-33.688788064447
30
0
41
1
10
54.6279704790297
20
-33.6865237448362
30
0
41
1
10
54.6291199728685
20
-33.685103359354
30
0
41
1
10
54.6329684782826
20
-33.6800946052012
30
0
41
1
10
54.6360847600018
20
-33.6757419863959
30
0
41
1
10
54.6415387612132
20
-33.6677803139104
30
0
41
1
10
54.6434952591129
20
-33.6648740922081
30
0
41
1
10
54.6475922616296
20
-33.6586988804854
30
0
41
1
10
54.6497393940398
20
-33.655420527518
30
0
41
1
10
54.6564614801877
20
-33.6450432596459
30
0
41
1
10
54.6613294337003
20
-33.6373831103389
30
0
41
1
10
54.6717245620129
20
-33.6207726988767
30
0
41
1
10
54.6771519888304
20
-33.6119825791395
30
0
41
1
10
54.6884271081907
20
-33.5935186795842
30
0
41
1
10
54.6942986163712
20
-33.5838049273129
30
0
41
1
10
54.7063538146888
20
-33.5636772484747
30
0
41
1
10
54.7124867338341
20
-33.5533488438275
30
0
41
1
10
54.7187225682629
20
-33.5427627606853
30
0
0
SPLINE
5
183
100
AcDbEntity
8
1
62
256
6
ByLayer
370
18
48
1
60
0
100
AcDbSpline
70
4
71
3
72
8
73
4
40
0
40
0
40
0
40
0
40
1
40
1
40
1
40
1
41
1
10
54.7187225682629
20
-33.5427627606853
30
0
41
1
10
55.1393552680286
20
-32.8286878789873
30
0
41
1
10
55.5596841211556
20
-32.1144461617082
30
0
41
1
10
55.9796406331302
20
-31.4
30
0
0
SPLINE
5
184
100
AcDbEntity
8
1
62
256
6
ByLayer
370
18
48
1
60
0
100
AcDbSpline
70
4
71
3
72
8
73
4
40
0
40
0
40
0
40
0
40
1
40
1
40
1
40
1
41
1
10
55.9796406331302
20
-31.4
30
0
41
1
10
56.0624202780143
20
-31.266774828484
30
0
41
1
10
56.1448554149224
20
-31.1334431655951
30
0
41
1
10
56.226929831797
20
-31
30
0
0
SPLINE
5
185
100
AcDbEntity
8
1
62
256
6
ByLayer
370
18
48
1
60
0
100
AcDbSpline
70
4
71
3
72
10
73
6
40
0
40
0
40
0
40
0
40
0.502058881415526
40
0.502058881415526
40
1
40
1
40
1
40
1
41
1
10
56.226929831797
20
-31
30
0
41
1
10
56.2405990043474
20
-31
30
0
41
1
10
56.2508781974504
20
-31
30
0
41
1
10
56.2645003464797
20
-31
30
0
41
1
10
56.2679085898627
20
-31
30
0
41
1
10
56.2679488317971
20
-31
30
0
0
SPLINE
5
186
100
AcDbEntity
8
1
62
256
6
ByLayer
370
18
48
1
60
0
100
AcDbSpline
70
4
71
3
72
10
73
6
40
0
40
0
40
0
40
0
40
0.497941118712854
40
0.497941118712854
40
1
40
1
40
1
40
1
41
1
10
56.2679488317972
20
31
30
0
41
1
10
56.2679085898662
20
31
30
0
41
1
10
56.2645003464832
20
31
30
0
41
1
10
56.2508781974504
20
31
30
0
41
1
10
56.2405990043474
20
31
30
0
41
1
10
56.226929831797
20
31
30
0
0
SPLINE
5
187
100
AcDbEntity
8
1
62
256
6
ByLayer
370
18
48
1
60
0
100
AcDbSpline
70
4
71
3
72
8
73
4
40
0
40
0
40
0
40
0
40
1
40
1
40
1
40
1
41
1
10
56.226929831797
20
31
30
0
41
1
10
56.1448554149223
20
31.1334431655951
30
0
41
1
10
56.0624202780143
20
31.266774828484
30
0
41
1
10
55.9796406331302
20
31.4
30
0
0
SPLINE
5
188
100
AcDbEntity
8
1
62
256
6
ByLayer
370
18
48
1
60
0
100
AcDbSpline
70
4
71
3
72
8
73
4
40
0
40
0
40
0
40
0
40
1
40
1
40
1
40
1
41
1
10
55.9796406331302
20
31.4
30
0
41
1
10
55.5596841211549
20
32.1144461617094
30
0
41
1
10
55.1393552680272
20
32.8286878789897
30
0
41
1
10
54.7187225682608
20
33.5427627606888
30
0
0
SPLINE
5
189
100
AcDbEntity
8
1
62
256
6
ByLayer
370
18
48
1
60
0
100
AcDbSpline
70
4
71
3
72
22
73
18
40
0
40
0
40
0
40
0
40
0.250000000000048
40
0.250000000000048
40
0.312500000000054
40
0.312500000000054
40
0.375000000000061
40
0.375000000000061
40
0.500000000000049
40
0.500000000000049
40
0.625000000000037
40
0.625000000000037
40
0.750000000000024
40
0.750000000000024
40
0.875000000000012
40
0.875000000000012
40
1
40
1
40
1
40
1
41
1
10
54.7187225682608
20
33.5427627606888
30
0
41
1
10
54.7062194512196
20
33.5639883140684
30
0
41
1
10
54.694266129591
20
33.583954325309
30
0
41
1
10
54.6800525484951
20
33.6072332926359
30
0
41
1
10
54.6772378036302
20
33.6118179484399
30
0
41
1
10
54.6717848582514
20
33.6206468278612
30
0
41
1
10
54.6691361462111
20
33.6249084442776
30
0
41
1
10
54.6614247621649
20
33.637231364397
30
0
41
1
10
54.6565948106336
20
33.6448347621758
30
0
41
1
10
54.6476085192513
20
33.6587126768664
30
0
41
1
10
54.6434216271892
20
33.665029074913
30
0
41
1
10
54.6361654882693
20
33.6756267459119
30
0
41
1
10
54.6330492148127
20
33.6799836223065
30
0
41
1
10
54.6279067324668
20
33.6866881032334
30
0
41
1
10
54.6258745411532
20
33.6890322303131
30
0
41
1
10
54.6231891739723
20
33.6913057434003
30
0
41
1
10
54.6225009252407
20
33.6912874097299
30
0
41
1
10
54.6225009252407
20
33.6900539231492
30
0
0
SPLINE
5
18A
100
AcDbEntity
8
1
62
256
6
ByLayer
370
18
48
1
60
0
100
AcDbSpline
70
4
71
3
72
26
73
22
40
0
40
0
40
0
40
0
40
0.124999999999993
40
0.124999999999993
40
0.187499999999977
40
0.187499999999977
40
0.249999999999961
40
0.249999999999961
40
0.374999999999948
40
0.374999999999948
40
0.437499999999952
40
0.437499999999952
40
0.499999999999956
40
0.499999999999956
40
0.624999999999967
40
0.624999999999967
40
0.749999999999978
40
0.749999999999978
40
0.874999999999989
40
0.874999999999989
40
1
40
1
40
1
40
1
41
1
10
54.6225009252407
20
19.6914413712264
30
0
41
1
10
54.6225009252407
20
19.6811522522211
30
0
41
1
10
54.6231833276021
20
19.6703679026498
30
0
41
1
10
54.6251708216862
20
19.6534921064626
30
0
41
1
10
54.6259951214106
20
19.6477494635938
30
0
41
1
10
54.6279704790298
20
19.6360272324218
30
0
41
1
10
54.6291199728687
20
19.6300676789132
30
0
41
1
10
54.6329684782829
20
19.6122435865088
30
0
41
1
10
54.6360847600021
20
19.6003049334334
30
0
41
1
10
54.6415387612136
20
19.5823181595748
30
0
41
1
10
54.6434952591134
20
19.5762899532121
30
0
41
1
10
54.6475922616302
20
19.5644264408824
30
0
41
1
10
54.6497393940404
20
19.55856663186
30
0
41
1
10
54.6564614801884
20
19.541191856235
30
0
41
1
10
54.661329433701
20
19.5298499593523
30
0
41
1
10
54.6717245620139
20
19.5078166580368
30
0
41
1
10
54.6771519888314
20
19.4973303056134
30
0
41
1
10
54.688427108192
20
19.4773250129156
30
0
41
1
10
54.6942986163726
20
19.467772244438
30
0
41
1
10
54.7063538146904
20
19.4497873177388
30
0
41
1
10
54.7124867338357
20
19.4414242695602
30
0
41
1
10
54.7187225682646
20
19.4336747188472
30
0
0
SPLINE
5
18B
100
AcDbEntity
8
1
62
256
6
ByLayer
370
18
48
1
60
0
100
AcDbSpline
70
4
71
3
72
8
73
4
40
0
40
0
40
0
40
0
40
1
40
1
40
1
40
1
41
1
10
54.7187225682646
20
19.4336747188471
30
0
41
1
10
55.1393552680327
20
18.9109356250325
30
0
41
1
10
55.5596841211594
20
18.3880743990994
30
0
41
1
10
55.9796406331302
20
17.8650635094611
30
0
0
SPLINE
5
18C
100
AcDbEntity
8
1
62
256
6
ByLayer
370
18
48
1
60
0
100
AcDbSpline
70
4
71
3
72
8
73
4
40
0
40
0
40
0
40
0
40
1
40
1
40
1
40
1
41
1
10
55.9796406331302
20
17.8650635094611
30
0
41
1
10
56.0624202780138
20
17.6830745407479
30
0
41
1
10
56.1448554149218
20
17.5009401021128
30
0
41
1
10
56.226929831797
20
17.3186533479473
30
0
0
SPLINE
5
18D
100
AcDbEntity
8
1
62
256
6
ByLayer
370
18
48
1
60
0
100
AcDbSpline
70
4
71
3
72
9
73
5
40
0
40
0
40
0
40
0
40
0.5
40
1
40
1
40
1
40
1
41
1
10
56.226929831797
20
17.3186533479473
30
0
41
1
10
56.254244807017
20
16.7124355652982
30
0
41
1
10
56.2816535778452
20
15.5
30
0
41
1
10
56.254244807017
20
14.2875644347018
30
0
41
1
10
56.226929831797
20
13.6813466520527
30
0
0
SPLINE
5
18E
100
AcDbEntity
8
1
62
256
6
ByLayer
370
18
48
1
60
0
100
AcDbSpline
70
4
71
3
72
8
73
4
40
0
40
0
40
0
40
0
40
1
40
1
40
1
40
1
41
1
10
56.226929831797
20
13.6813466520527
30
0
41
1
10
56.1448554149218
20
13.6325030634831
30
0
41
1
10
56.0624202780138
20
13.583700287737
30
0
41
1
10
55.9796406331302
20
13.5349364905389
30
0
0
SPLINE
5
18F
100
AcDbEntity
8
SK1
62
256
6
ByLayer
370
18
48
1
60
0
100
AcDbSpline
70
4
71
3
72
33
73
29
40
0
40
0
40
0
40
0
40
0.143192088981461
40
0.143192088981461
40
0.214788133472192
40
0.214788133472192
40
0.250586155717556
40
0.250586155717556
40
0.28638417796292
40
0.28638417796292
40
0.429576266944374
40
0.429576266944374
40
0.501172311435099
40
0.501172311435099
40
0.519071322557782
40
0.519071322557782
40
0.536970333680465
40
0.536970333680465
40
0.572768355925836
40
0.572768355925836
40
0.71596044490731
40
0.71596044490731
40
0.787556489398047
40
0.787556489398047
40
0.859152533888785
40
0.859152533888785
40
0.930748578379522
40
1
40
1
40
1
40
1
41
1
10
-39.8
20
8.11000000000001
30
0
41
1
10
-39.8
20
8.23319689559852
30
0
41
1
10
-39.8118667916719
20
8.35417457248445
30
0
41
1
10
-39.8465803825738
20
8.53249589382585
30
0
41
1
10
-39.8609912480162
20
8.59140873386497
30
0
41
1
10
-39.8869393805851
20
8.67897985909462
30
0
41
1
10
-39.8963119912343
20
8.70803700905927
30
0
41
1
10
-39.9165318607134
20
8.76588115792384
30
0
41
1
10
-39.9273903818293
20
8.79468376498656
30
0
41
1
10
-39.9848208029507
20
8.9365275467211
30
0
41
1
10
-40.0411076489352
20
9.04432103623853
30
0
41
1
10
-40.1409292539038
20
9.19766645460024
30
0
41
1
10
-40.1767864152033
20
9.2473812207858
30
0
41
1
10
-40.2249698636006
20
9.30771640042951
30
0
41
1
10
-40.2347750725977
20
9.31969280465512
30
0
41
1
10
-40.2547276099737
20
9.34346199298685
30
0
41
1
10
-40.2648863442039
20
9.35526710192224
30
0
41
1
10
-40.2957187398807
20
9.39021856852924
30
0
41
1
10
-40.316788933274
20
9.41295223542141
30
0
41
1
10
-40.4246877217537
20
9.52382343996283
30
0
41
1
10
-40.5190834069945
20
9.60365303760281
30
0
41
1
10
-40.6731649779178
20
9.70984395692813
30
0
41
1
10
-40.7266213756713
20
9.74296612059283
30
0
41
1
10
-40.8379913960703
20
9.80439826016647
30
0
41
1
10
-40.8949278201465
20
9.8321631082388
30
0
41
1
10
-41.0110429545896
20
9.88181409175229
30
0
41
1
10
-41.1275320065346
20
9.92490748121503
30
0
41
1
10
-41.2485409632407
20
9.95662546282708
30
0
41
1
10
-41.3091737143753
20
9.9693694953778
30
0
0
SPLINE
5
190
100
AcDbEntity
8
SK1
62
256
6
ByLayer
370
18
48
1
60
0
100
AcDbSpline
70
4
71
3
72
36
73
32
40
0
40
0
40
0
40
0
40
0.0328987924699672
40
0.101977450150688
40
0.101977450150688
40
0.136516778991048
40
0.136516778991048
40
0.171056107831408
40
0.171056107831408
40
0.309213423192836
40
0.309213423192836
40
0.343752752033196
40
0.343752752033196
40
0.378292080873557
40
0.378292080873557
40
0.447370738554278
40
0.516449396234999
40
0.516449396234999
40
0.550988725075356
40
0.550988725075356
40
0.585528053915714
40
0.585528053915714
40
0.723685369277138
40
0.723685369277138
40
0.792764026957851
40
0.792764026957851
40
0.827303355798208
40
0.827303355798208
40
0.861842684638565
40
0.861842684638565
40
1
40
1
40
1
40
1
41
1
10
-41.408331449312
20
-9.98748103167549
30
0
41
1
10
-41.3783766770785
20
-9.98282739976125
30
0
41
1
10
-41.2859396064745
20
-9.96618825738349
30
0
41
1
10
-41.1947809789536
20
-9.94271877100826
30
0
41
1
10
-41.1030519769239
20
-9.91407293254841
30
0
41
1
10
-41.0726322747058
20
-9.903718457195
30
0
41
1
10
-41.0128138632697
20
-9.88166344995557
30
0
41
1
10
-40.9833218989539
20
-9.86993537212496
30
0
41
1
10
-40.8378957516775
20
-9.8078741114214
30
0
41
1
10
-40.7280022830846
20
-9.74738157881814
30
0
41
1
10
-40.5984896327907
20
-9.65843866061974
30
0
41
1
10
-40.5729176066122
20
-9.6399249472407
30
0
41
1
10
-40.5230012181478
20
-9.60186424757501
30
0
41
1
10
-40.4986408544189
20
-9.58231248889066
30
0
41
1
10
-40.4273036120927
20
-9.52213149198863
30
0
41
1
10
-40.3368284332641
20
-9.43782945531143
30
0
41
1
10
-40.2553380819533
20
-9.34561619017509
30
0
41
1
10
-40.1975802767161
20
-9.27347919268328
30
0
41
1
10
-40.1788886982289
20
-9.24893645024335
30
0
41
1
10
-40.1426386042457
20
-9.19884402605831
30
0
41
1
10
-40.1251406286122
20
-9.17337272151832
30
0
41
1
10
-40.0412615511893
20
-9.04471070963828
30
0
41
1
10
-39.9850618711732
20
-8.93689382639147
30
0
41
1
10
-39.9165371244681
20
-8.76799066715
30
0
41
1
10
-39.8963441090146
20
-8.71048496754932
30
0
41
1
10
-39.8701301158719
20
-8.62236256644641
30
0
41
1
10
-39.8621036923976
20
-8.59277283294423
30
0
41
1
10
-39.8475390636706
20
-8.53346301503353
30
0
41
1
10
-39.8409871302113
20
-8.50369744436819
30
0
41
1
10
-39.8118441262851
20
-8.35431913644254
30
0
41
1
10
-39.8
20
-8.23306832906806
30
0
41
1
10
-39.8
20
-8.11000000000001
30
0
0
SPLINE
5
191
100
AcDbEntity
8
SK1
62
256
6
ByLayer
370
18
48
1
60
0
100
AcDbSpline
70
4
71
3
72
8
73
4
40
0
40
0
40
0
40
0
40
1
40
1
40
1
40
1
41
1
10
-48.0000748840331
20
-15.1575618641729
30
0
41
1
10
-48.0704205135134
20
-15.1479701459217
30
0
41
1
10
-48.1381154484484
20
-15.1287112305897
30
0
41
1
10
-48.2037500000014
20
-15.101921291323
30
0
0
SPLINE
5
192
100
AcDbEntity
8
SK1
62
256
6
ByLayer
370
18
48
1
60
0
100
AcDbSpline
70
4
71
3
72
22
73
18
40
0
40
0
40
0
40
0
40
0.250000000000002
40
0.250000000000002
40
0.375000000000002
40
0.375000000000002
40
0.500000000000002
40
0.500000000000002
40
0.625000000000002
40
0.625000000000002
40
0.750000000000002
40
0.750000000000002
40
0.875000000000003
40
0.875000000000003
40
0.937500000000001
40
0.937500000000001
40
1
40
1
40
1
40
1
41
1
10
-48.20375
20
-15.1019212913179
30
0
41
1
10
-48.2737896568834
20
-15.2420308432048
30
0
41
1
10
-48.3417739186829
20
-15.3802391073468
30
0
41
1
10
-48.4388914764234
20
-15.5858968916662
30
0
41
1
10
-48.4704434350604
20
-15.6541805613641
30
0
41
1
10
-48.531401090616
20
-15.7905514952447
30
0
41
1
10
-48.5608102877274
20
-15.8586361890739
30
0
41
1
10
-48.6167419021676
20
-15.99511626323
30
0
41
1
10
-48.6432690328275
20
-16.0635082821252
30
0
41
1
10
-48.6923318001705
20
-16.2013692932474
30
0
41
1
10
-48.7148712626934
20
-16.2708358902596
30
0
41
1
10
-48.7543493944711
20
-16.4119679515416
30
0
41
1
10
-48.7712829155221
20
-16.4836382818077
30
0
41
1
10
-48.7908820151232
20
-16.5938963424684
30
0
41
1
10
-48.7964443706483
20
-16.6311101972906
30
0
41
1
10
-48.8053459563062
20
-16.7066481300675
30
0
41
1
10
-48.8086824422018
20
-16.745062428689
30
0
41
1
10
-48.810766213284
20
-16.7836440447102
30
0
0
SPLINE
5
193
100
AcDbEntity
8
SK1
62
256
6
ByLayer
370
18
48
1
60
0
100
AcDbSpline
70
4
71
3
72
79
73
75
40
0
40
0
40
0
40
0
40
0.125000000000044
40
0.125000000000044
40
0.187500000000068
40
0.187500000000068
40
0.250000000000091
40
0.250000000000091
40
0.312500000000114
40
0.312500000000114
40
0.343750000000126
40
0.343750000000126
40
0.375000000000137
40
0.375000000000137
40
0.406250000000149
40
0.406250000000149
40
0.421875000000152
40
0.421875000000152
40
0.437500000000156
40
0.437500000000156
40
0.45312500000016
40
0.45312500000016
40
0.460937500000163
40
0.460937500000163
40
0.468750000000166
40
0.468750000000166
40
0.476562500000168
40
0.476562500000168
40
0.484375000000171
40
0.484375000000171
40
0.492187500000174
40
0.492187500000174
40
0.496093750000175
40
0.496093750000175
40
0.500000000000175
40
0.500000000000175
40
0.503906250000176
40
0.503906250000176
40
0.507812500000177
40
0.507812500000177
40
0.511718750000178
40
0.511718750000178
40
0.515625000000179
40
0.51953125000018
40
0.51953125000018
40
0.52343750000018
40
0.52343750000018
40
0.531250000000179
40
0.531250000000179
40
0.539062500000177
40
0.539062500000177
40
0.546875000000175
40
0.546875000000175
40
0.562500000000168
40
0.562500000000168
40
0.578125000000161
40
0.578125000000161
40
0.593750000000154
40
0.593750000000154
40
0.609375000000147
40
0.609375000000147
40
0.62500000000014
40
0.62500000000014
40
0.656250000000128
40
0.656250000000128
40
0.687500000000116
40
0.687500000000116
40
0.750000000000093
40
0.750000000000093
40
0.81250000000007
40
0.81250000000007
40
0.875000000000046
40
0.875000000000046
40
1
40
1
40
1
40
1
41
1
10
-48.8107662132844
20
-16.78364404471
30
0
41
1
10
-48.8207523906185
20
-16.9685409667885
30
0
41
1
10
-48.8347977886098
20
-17.1511425735611
30
0
41
1
10
-48.863237913532
20
-17.4208764178835
30
0
41
1
10
-48.8739567807322
20
-17.5100871965657
30
0
41
1
10
-48.8983160849201
20
-17.686856731432
30
0
41
1
10
-48.9119361518275
20
-17.7743014379767
30
0
41
1
10
-48.942707331959
20
-17.9464331182849
30
0
41
1
10
-48.9598453675251
20
-18.0311898138798
30
0
41
1
10
-48.9892122906687
20
-18.1555907930016
30
0
41
1
10
-48.9996172942046
20
-18.1965975884405
30
0
41
1
10
-49.0219813405054
20
-18.2774502519169
30
0
41
1
10
-49.0339246793493
20
-18.3172512505915
30
0
41
1
10
-49.0597546696232
20
-18.3949053757419
30
0
41
1
10
-49.073637087042
20
-18.4328063101043
30
0
41
1
10
-49.0966115318848
20
-18.4875986998503
30
0
41
1
10
-49.1046321805199
20
-18.5055158026077
30
0
41
1
10
-49.1216148192034
20
-18.5404488475259
30
0
41
1
10
-49.1305700741604
20
-18.5574515384199
30
0
41
1
10
-49.1495989668138
20
-18.5899411565922
30
0
41
1
10
-49.1596796879745
20
-18.6054669645305
30
0
41
1
10
-49.176054788648
20
-18.62716344419
30
0
41
1
10
-49.1817244171715
20
-18.6341273644391
30
0
41
1
10
-49.1936049787255
20
-18.6473679087015
30
0
41
1
10
-49.1998257683411
20
-18.6536519281458
30
0
41
1
10
-49.2128308013286
20
-18.6651655634118
30
0
41
1
10
-49.2196268301044
20
-18.6704154850799
30
0
41
1
10
-49.2340213128811
20
-18.6795295393591
30
0
41
1
10
-49.2416110529625
20
-18.6833766183821
30
0
41
1
10
-49.2575031351019
20
-18.6889472762516
30
0
41
1
10
-49.2658380493685
20
-18.6907070327501
30
0
41
1
10
-49.2791862436771
20
-18.6911159849312
30
0
41
1
10
-49.2837741648609
20
-18.690867368687
30
0
41
1
10
-49.2930003400939
20
-18.6895099395688
30
0
41
1
10
-49.2976697254009
20
-18.6884036564132
30
0
41
1
10
-49.3071329803953
20
-18.6852456585687
30
0
41
1
10
-49.3119684578652
20
-18.6831674656065
30
0
41
1
10
-49.3214736463003
20
-18.6781349241722
30
0
41
1
10
-49.326162183721
20
-18.6751829312236
30
0
41
1
10
-49.3354171762962
20
-18.668448526696
30
0
41
1
10
-49.3400042746418
20
-18.6646466503155
30
0
41
1
10
-49.3489704146131
20
-18.6563337006182
30
0
41
1
10
-49.3576061787898
20
-18.647437117022
30
0
41
1
10
-49.365686905043
20
-18.6375600168368
30
0
41
1
10
-49.3735293784244
20
-18.6272620248831
30
0
41
1
10
-49.3773481206101
20
-18.6218767227387
30
0
41
1
10
-49.388350201165
20
-18.6053899964797
30
0
41
1
10
-49.3950862147046
20
-18.5939828719792
30
0
41
1
10
-49.4077343741284
20
-18.570596210526
30
0
41
1
10
-49.4136422709847
20
-18.5586137214044
30
0
41
1
10
-49.4248380081823
20
-18.5342179360188
30
0
41
1
10
-49.4301027025763
20
-18.5218459068418
30
0
41
1
10
-49.444967871985
20
-18.4847742162963
30
0
41
1
10
-49.4537487107808
20
-18.4599209641362
30
0
41
1
10
-49.4699151336038
20
-18.4100429780577
30
0
41
1
10
-49.477286490078
20
-18.3850164955225
30
0
41
1
10
-49.4910331687122
20
-18.3348411143031
30
0
41
1
10
-49.4974039377011
20
-18.309691656018
30
0
41
1
10
-49.5093887593112
20
-18.2592997363231
30
0
41
1
10
-49.5149900878561
20
-18.2340992840126
30
0
41
1
10
-49.525532410216
20
-18.1839454282598
30
0
41
1
10
-49.5304827245516
20
-18.1589486032538
30
0
41
1
10
-49.5445644756583
20
-18.0841501652783
30
0
41
1
10
-49.5529365392994
20
-18.0345381379896
30
0
41
1
10
-49.5682708760771
20
-17.9356660527958
30
0
41
1
10
-49.5752262670634
20
-17.8864077130936
30
0
41
1
10
-49.5944919615919
20
-17.7390322706654
30
0
41
1
10
-49.60522820112
20
-17.6413081499739
30
0
41
1
10
-49.6239958360568
20
-17.446535202058
30
0
41
1
10
-49.6320044071805
20
-17.3494920731621
30
0
41
1
10
-49.646038202798
20
-17.1559009792182
30
0
41
1
10
-49.6520570014112
20
-17.0593244609469
30
0
41
1
10
-49.6677597109614
20
-16.7705987748151
30
0
41
1
10
-49.6751434128412
20
-16.5793088711667
30
0
41
1
10
-49.6803455045439
20
-16.3888633077079
30
0
0
SPLINE
5
194
100
AcDbEntity
8
SK1
62
256
6
ByLayer
370
18
48
1
60
0
100
AcDbSpline
70
4
71
3
72
26
73
22
40
0
40
0
40
0
40
0
40
0.124999999999988
40
0.124999999999988
40
0.156249999999985
40
0.156249999999985
40
0.187499999999983
40
0.187499999999983
40
0.249999999999981
40
0.249999999999981
40
0.374999999999983
40
0.374999999999983
40
0.499999999999986
40
0.499999999999986
40
0.562499999999988
40
0.562499999999988
40
0.624999999999991
40
0.624999999999991
40
0.749999999999994
40
0.749999999999994
40
1
40
1
40
1
40
1
41
1
10
-49.6803455045439
20
-16.3888633077079
30
0
41
1
10
-49.6826466725058
20
-16.3046188817783
30
0
41
1
10
-49.6885779490543
20
-16.2175770741307
30
0
41
1
10
-49.6993728100179
20
-16.1056987249005
30
0
41
1
10
-49.7016978917135
20
-16.0831698556118
30
0
41
1
10
-49.7066424416954
20
-16.0378177461374
30
0
41
1
10
-49.7092669763272
20
-16.0149526655823
30
0
41
1
10
-49.7174822299178
20
-15.9462740562197
30
0
41
1
10
-49.7234030801494
20
-15.9004378613829
30
0
41
1
10
-49.7420007665263
20
-15.7627573300227
30
0
41
1
10
-49.7554901907109
20
-15.6707406700139
30
0
41
1
10
-49.7826003725113
20
-15.4861418061612
30
0
41
1
10
-49.7962305385269
20
-15.3935596611362
30
0
41
1
10
-49.8156911072294
20
-15.2541895927494
30
0
41
1
10
-49.8220175105965
20
-15.2076501594007
30
0
41
1
10
-49.8342006020737
20
-15.1143942032187
30
0
41
1
10
-49.8400654924927
20
-15.0676068524451
30
0
41
1
10
-49.8566753045913
20
-14.9276480792358
30
0
41
1
10
-49.8664422955215
20
-14.8348187950968
30
0
41
1
10
-49.8906557219728
20
-14.5575231178709
30
0
41
1
10
-49.9
20
-14.3742457791333
30
0
41
1
10
-49.9
20
-14.1920931702398
30
0
0
SPLINE
5
195
100
AcDbEntity
8
SK1
62
256
6
ByLayer
370
18
48
1
60
0
100
AcDbSpline
70
4
71
3
72
26
73
22
40
0
40
0
40
0
40
0
40
0.124999999999994
40
0.124999999999994
40
0.156249999999993
40
0.156249999999993
40
0.187499999999992
40
0.187499999999992
40
0.249999999999994
40
0.249999999999994
40
0.374999999999995
40
0.374999999999995
40
0.499999999999995
40
0.499999999999995
40
0.562499999999995
40
0.562499999999995
40
0.624999999999994
40
0.624999999999994
40
0.749999999999996
40
0.749999999999996
40
1
40
1
40
1
40
1
41
1
10
-49.6803455045439
20
16.388863307708
30
0
41
1
10
-49.6826466725058
20
16.3046188817784
30
0
41
1
10
-49.6885779490542
20
16.2175770741308
30
0
41
1
10
-49.6993728100178
20
16.1056987249006
30
0
41
1
10
-49.7016978917135
20
16.0831698556119
30
0
41
1
10
-49.7066424416954
20
16.0378177461375
30
0
41
1
10
-49.7092669763272
20
16.0149526655824
30
0
41
1
10
-49.7174822299178
20
15.9462740562198
30
0
41
1
10
-49.7234030801493
20
15.900437861383
30
0
41
1
10
-49.7420007665262
20
15.7627573300228
30
0
41
1
10
-49.7554901907109
20
15.670740670014
30
0
41
1
10
-49.7826003725112
20
15.4861418061612
30
0
41
1
10
-49.7962305385269
20
15.3935596611362
30
0
41
1
10
-49.8156911072293
20
15.2541895927495
30
0
41
1
10
-49.8220175105965
20
15.2076501594007
30
0
41
1
10
-49.8342006020737
20
15.1143942032188
30
0
41
1
10
-49.8400654924927
20
15.0676068524452
30
0
41
1
10
-49.8566753045913
20
14.9276480792358
30
0
41
1
10
-49.8664422955215
20
14.8348187950969
30
0
41
1
10
-49.8906557219728
20
14.5575231178709
30
0
41
1
10
-49.9
20
14.3742457791333
30
0
41
1
10
-49.9
20
14.1920931702398
30
0
0
SPLINE
5
196
100
AcDbEntity
8
SK1
62
256
6
ByLayer
370
18
48
1
60
0
100
AcDbSpline
70
4
71
3
72
79
73
75
40
0
40
0
40
0
40
0
40
0.124999999999977
40
0.124999999999977
40
0.187499999999966
40
0.187499999999966
40
0.249999999999954
40
0.249999999999954
40
0.312499999999942
40
0.312499999999942
40
0.343749999999937
40
0.343749999999937
40
0.374999999999932
40
0.374999999999932
40
0.406249999999927
40
0.406249999999927
40
0.421874999999924
40
0.421874999999924
40
0.437499999999921
40
0.437499999999921
40
0.453124999999919
40
0.453124999999919
40
0.460937499999918
40
0.460937499999918
40
0.468749999999917
40
0.468749999999917
40
0.476562499999916
40
0.476562499999916
40
0.484374999999916
40
0.484374999999916
40
0.492187499999915
40
0.492187499999915
40
0.496093749999914
40
0.496093749999914
40
0.499999999999913
40
0.499999999999913
40
0.503906249999911
40
0.503906249999911
40
0.50781249999991
40
0.50781249999991
40
0.511718749999909
40
0.511718749999909
40
0.515624999999908
40
0.519531249999907
40
0.519531249999907
40
0.523437499999906
40
0.523437499999906
40
0.531249999999906
40
0.531249999999906
40
0.539062499999906
40
0.539062499999906
40
0.546874999999907
40
0.546874999999907
40
0.562499999999909
40
0.562499999999909
40
0.578124999999911
40
0.578124999999911
40
0.593749999999913
40
0.593749999999913
40
0.609374999999915
40
0.609374999999915
40
0.624999999999917
40
0.624999999999917
40
0.656249999999924
40
0.656249999999924
40
0.687499999999931
40
0.687499999999931
40
0.749999999999945
40
0.749999999999945
40
0.812499999999958
40
0.812499999999958
40
0.874999999999972
40
0.874999999999972
40
1
40
1
40
1
40
1
41
1
10
-48.8107662132844
20
16.7836440447101
30
0
41
1
10
-48.8207523906186
20
16.9685409667885
30
0
41
1
10
-48.8347977886099
20
17.1511425735611
30
0
41
1
10
-48.8632379135321
20
17.4208764178834
30
0
41
1
10
-48.8739567807322
20
17.5100871965656
30
0
41
1
10
-48.8983160849202
20
17.6868567314319
30
0
41
1
10
-48.9119361518275
20
17.7743014379765
30
0
41
1
10
-48.942707331959
20
17.9464331182846
30
0
41
1
10
-48.9598453675251
20
18.0311898138796
30
0
41
1
10
-48.9892122906687
20
18.1555907930013
30
0
41
1
10
-48.9996172942047
20
18.1965975884403
30
0
41
1
10
-49.0219813405054
20
18.2774502519167
30
0
41
1
10
-49.0339246793494
20
18.3172512505911
30
0
41
1
10
-49.0597546696231
20
18.3949053757415
30
0
41
1
10
-49.073637087042
20
18.432806310104
30
0
41
1
10
-49.0966115318848
20
18.48759869985
30
0
41
1
10
-49.1046321805198
20
18.5055158026073
30
0
41
1
10
-49.1216148192033
20
18.5404488475255
30
0
41
1
10
-49.1305700741602
20
18.5574515384196
30
0
41
1
10
-49.1495989668137
20
18.5899411565919
30
0
41
1
10
-49.1596796879744
20
18.6054669645301
30
0
41
1
10
-49.1760547886479
20
18.6271634441897
30
0
41
1
10
-49.1817244171714
20
18.6341273644388
30
0
41
1
10
-49.1936049787253
20
18.6473679087012
30
0
41
1
10
-49.1998257683409
20
18.6536519281455
30
0
41
1
10
-49.2128308013284
20
18.6651655634115
30
0
41
1
10
-49.2196268301043
20
18.6704154850796
30
0
41
1
10
-49.2340213128809
20
18.6795295393588
30
0
41
1
10
-49.2416110529624
20
18.6833766183819
30
0
41
1
10
-49.2575031351017
20
18.6889472762514
30
0
41
1
10
-49.2658380493683
20
18.6907070327499
30
0
41
1
10
-49.2791862436769
20
18.691115984931
30
0
41
1
10
-49.2837741648607
20
18.6908673686869
30
0
41
1
10
-49.2930003400937
20
18.6895099395687
30
0
41
1
10
-49.2976697254007
20
18.688403656413
30
0
41
1
10
-49.3071329803951
20
18.6852456585686
30
0
41
1
10
-49.311968457865
20
18.6831674656063
30
0
41
1
10
-49.3214736463001
20
18.6781349241721
30
0
41
1
10
-49.3261621837208
20
18.6751829312236
30
0
41
1
10
-49.3354171762959
20
18.668448526696
30
0
41
1
10
-49.3400042746415
20
18.6646466503155
30
0
41
1
10
-49.348970414613
20
18.6563337006182
30
0
41
1
10
-49.3576061787896
20
18.647437117022
30
0
41
1
10
-49.3656869050428
20
18.6375600168369
30
0
41
1
10
-49.3735293784242
20
18.6272620248832
30
0
41
1
10
-49.37734812061
20
18.6218767227387
30
0
41
1
10
-49.3883502011648
20
18.6053899964797
30
0
41
1
10
-49.3950862147044
20
18.5939828719793
30
0
41
1
10
-49.4077343741282
20
18.5705962105261
30
0
41
1
10
-49.4136422709845
20
18.5586137214044
30
0
41
1
10
-49.4248380081821
20
18.5342179360189
30
0
41
1
10
-49.4301027025762
20
18.5218459068419
30
0
41
1
10
-49.4449678719849
20
18.4847742162964
30
0
41
1
10
-49.4537487107807
20
18.4599209641363
30
0
41
1
10
-49.4699151336037
20
18.4100429780578
30
0
41
1
10
-49.4772864900779
20
18.3850164955225
30
0
41
1
10
-49.4910331687121
20
18.3348411143032
30
0
41
1
10
-49.497403937701
20
18.3096916560181
30
0
41
1
10
-49.5093887593112
20
18.2592997363232
30
0
41
1
10
-49.5149900878561
20
18.2340992840126
30
0
41
1
10
-49.5255324102159
20
18.1839454282599
30
0
41
1
10
-49.5304827245516
20
18.1589486032539
30
0
41
1
10
-49.5445644756583
20
18.0841501652784
30
0
41
1
10
-49.5529365392994
20
18.0345381379897
30
0
41
1
10
-49.5682708760771
20
17.9356660527959
30
0
41
1
10
-49.5752262670634
20
17.8864077130937
30
0
41
1
10
-49.5944919615919
20
17.7390322706655
30
0
41
1
10
-49.6052282011199
20
17.641308149974
30
0
41
1
10
-49.6239958360567
20
17.446535202058
30
0
41
1
10
-49.6320044071804
20
17.3494920731622
30
0
41
1
10
-49.6460382027979
20
17.1559009792183
30
0
41
1
10
-49.6520570014112
20
17.059324460947
30
0
41
1
10
-49.6677597109614
20
16.7705987748152
30
0
41
1
10
-49.6751434128412
20
16.5793088711668
30
0
41
1
10
-49.6803455045439
20
16.388863307708
30
0
0
SPLINE
5
197
100
AcDbEntity
8
SK1
62
256
6
ByLayer
370
18
48
1
60
0
100
AcDbSpline
70
4
71
3
72
22
73
18
40
0
40
0
40
0
40
0
40
0.249999999999995
40
0.249999999999995
40
0.374999999999996
40
0.374999999999996
40
0.499999999999996
40
0.499999999999996
40
0.624999999999997
40
0.624999999999997
40
0.749999999999997
40
0.749999999999997
40
0.874999999999998
40
0.874999999999998
40
0.937499999999999
40
0.937499999999999
40
1
40
1
40
1
40
1
41
1
10
-48.20375
20
15.1019212913179
30
0
41
1
10
-48.2737896568834
20
15.2420308432048
30
0
41
1
10
-48.3417739186829
20
15.3802391073468
30
0
41
1
10
-48.4388914764234
20
15.5858968916662
30
0
41
1
10
-48.4704434350605
20
15.6541805613641
30
0
41
1
10
-48.531401090616
20
15.7905514952447
30
0
41
1
10
-48.5608102877275
20
15.8586361890738
30
0
41
1
10
-48.6167419021676
20
15.99511626323
30
0
41
1
10
-48.6432690328275
20
16.0635082821252
30
0
41
1
10
-48.6923318001705
20
16.2013692932474
30
0
41
1
10
-48.7148712626935
20
16.2708358902596
30
0
41
1
10
-48.7543493944711
20
16.4119679515416
30
0
41
1
10
-48.7712829155222
20
16.4836382818077
30
0
41
1
10
-48.7908820151232
20
16.5938963424684
30
0
41
1
10
-48.7964443706483
20
16.6311101972906
30
0
41
1
10
-48.8053459563062
20
16.7066481300675
30
0
41
1
10
-48.8086824422018
20
16.745062428689
30
0
41
1
10
-48.8107662132841
20
16.7836440447102
30
0
0
SPLINE
5
198
100
AcDbEntity
8
SK1
62
256
6
ByLayer
370
18
48
1
60
0
100
AcDbSpline
70
4
71
3
72
8
73
4
40
0
40
0
40
0
40
0
40
1
40
1
40
1
40
1
41
1
10
-48.2037500000014
20
15.1019212913229
30
0
41
1
10
-48.1381154484482
20
15.1287112305897
30
0
41
1
10
-48.0704205135131
20
15.1479701459218
30
0
41
1
10
-48.0000748840326
20
15.157561864173
30
0
0
SPLINE
5
199
100
AcDbEntity
8
SK1
62
256
6
ByLayer
370
18
48
1
60
0
100
AcDbSpline
70
2053
71
3
72
199
73
195
40
0
40
0
40
0
40
0
40
0.015625
40
0.015625
40
0.0312499999999999
40
0.0312499999999999
40
0.0390624999999999
40
0.0390624999999999
40
0.04296875
40
0.04296875
40
0.0468750000000001
40
0.0468750000000001
40
0.0625000000000005
40
0.078125000000001
40
0.078125000000001
40
0.0937500000000014
40
0.0937500000000014
40
0.0976562500000016
40
0.0976562500000016
40
0.101562500000002
40
0.101562500000002
40
0.109375000000002
40
0.109375000000002
40
0.125000000000003
40
0.125000000000003
40
0.140625000000003
40
0.140625000000003
40
0.144531250000003
40
0.144531250000003
40
0.148437500000003
40
0.148437500000003
40
0.156250000000004
40
0.156250000000004
40
0.171875000000004
40
0.171875000000004
40
0.187500000000005
40
0.187500000000005
40
0.191406250000005
40
0.191406250000005
40
0.195312500000005
40
0.195312500000005
40
0.203125000000005
40
0.203125000000005
40
0.218750000000006
40
0.218750000000006
40
0.234375000000006
40
0.234375000000006
40
0.242187500000006
40
0.242187500000006
40
0.246093750000006
40
0.246093750000006
40
0.250000000000007
40
0.250000000000007
40
0.265625000000007
40
0.265625000000007
40
0.281250000000008
40
0.281250000000008
40
0.289062500000008
40
0.289062500000008
40
0.292968750000008
40
0.292968750000008
40
0.296875000000008
40
0.296875000000008
40
0.312500000000008
40
0.312500000000008
40
0.328125000000009
40
0.343750000000009
40
0.343750000000009
40
0.347656250000009
40
0.347656250000009
40
0.351562500000009
40
0.351562500000009
40
0.359375000000009
40
0.359375000000009
40
0.375000000000009
40
0.390625000000009
40
0.390625000000009
40
0.40625000000001
40
0.40625000000001
40
0.41406250000001
40
0.41406250000001
40
0.42187500000001
40
0.42187500000001
40
0.43750000000001
40
0.43750000000001
40
0.45312500000001
40
0.45312500000001
40
0.46093750000001
40
0.46093750000001
40
0.46484375000001
40
0.46484375000001
40
0.46875000000001
40
0.46875000000001
40
0.48437500000001
40
0.500000000000009
40
0.500000000000009
40
0.515625000000009
40
0.515625000000009
40
0.523437500000009
40
0.523437500000009
40
0.527343750000008
40
0.527343750000008
40
0.531250000000008
40
0.531250000000008
40
0.546875000000008
40
0.546875000000008
40
0.562500000000008
40
0.562500000000008
40
0.578125000000007
40
0.578125000000007
40
0.582031250000007
40
0.582031250000007
40
0.585937500000007
40
0.593750000000007
40
0.593750000000007
40
0.609375000000007
40
0.609375000000007
40
0.625000000000007
40
0.625000000000007
40
0.628906250000007
40
0.628906250000007
40
0.632812500000007
40
0.632812500000007
40
0.640625000000007
40
0.640625000000007
40
0.656250000000007
40
0.656250000000007
40
0.671875000000007
40
0.671875000000007
40
0.675781250000007
40
0.675781250000007
40
0.679687500000007
40
0.679687500000007
40
0.687500000000007
40
0.687500000000007
40
0.703125000000007
40
0.703125000000007
40
0.718750000000007
40
0.718750000000007
40
0.722656250000007
40
0.722656250000007
40
0.726562500000007
40
0.726562500000007
40
0.734375000000007
40
0.734375000000007
40
0.750000000000007
40
0.750000000000007
40
0.765625000000007
40
0.765625000000007
40
0.773437500000007
40
0.773437500000007
40
0.777343750000007
40
0.777343750000007
40
0.781250000000007
40
0.781250000000007
40
0.796875000000007
40
0.796875000000007
40
0.812500000000007
40
0.828125000000007
40
0.828125000000007
40
0.832031250000007
40
0.832031250000007
40
0.835937500000007
40
0.843750000000007
40
0.843750000000007
40
0.859375000000006
40
0.875000000000005
40
0.875000000000005
40
0.882812500000005
40
0.882812500000005
40
0.886718750000005
40
0.886718750000005
40
0.890625000000005
40
0.890625000000005
40
0.906250000000004
40
0.921875000000004
40
0.921875000000004
40
0.937500000000003
40
0.937500000000003
40
0.945312500000003
40
0.945312500000003
40
0.949218750000003
40
0.949218750000003
40
0.953125000000003
40
0.953125000000003
40
0.968750000000002
40
0.968750000000002
40
0.984375000000001
40
0.984375000000001
40
0.9921875
40
0.9921875
40
0.99609375
40
0.99609375
40
1
40
1
40
1
40
1
41
1
10
-19.2409013463647
20
-4.68080028297888
30
0
41
1
10
-19.4079621433098
20
-4.54192515802683
30
0
41
1
10
-19.5670665156176
20
-4.3959088125365
30
0
41
1
10
-19.8694655070935
20
-4.08965357791703
30
0
41
1
10
-20.0127608800019
20
-3.92941542119291
30
0
41
1
10
-20.2155634753266
20
-3.67811209595402
30
0
41
1
10
-20.2811371228695
20
-3.5925165438729
30
0
41
1
10
-20.3763842148996
20
-3.46131312171787
30
0
41
1
10
-20.4076140766386
20
-3.41711005267425
30
0
41
1
10
-20.469019912
20
-3.32775219492208
30
0
41
1
10
-20.4992345528522
20
-3.28253591113366
30
0
41
1
10
-20.6469059096212
20
-3.0551645395735
30
0
41
1
10
-20.8621469588936
20
-2.68225303730964
30
0
41
1
10
-21.0359493662655
20
-2.29134285179632
30
0
41
1
10
-21.1887006096658
20
-1.89127361303633
30
0
41
1
10
-21.2545540746264
20
-1.68666097269678
30
0
41
1
10
-21.3230762842395
20
-1.4248854721009
30
0
41
1
10
-21.3360891245397
20
-1.372229079238
30
0
41
1
10
-21.3607076585596
20
-1.2663031177255
30
0
41
1
10
-21.3722793633372
20
-1.21317185000029
30
0
41
1
10
-21.4046753803779
20
-1.05383589651714
30
0
41
1
10
-21.4232362020401
20
-0.947458959524255
30
0
41
1
10
-21.4699539975404
20
-0.627876369739084
30
0
41
1
10
-21.4891691148553
20
-0.414220069648906
30
0
41
1
10
-21.5039397224734
20
0.0142853874746436
30
0
41
1
10
-21.4994960718303
20
0.229134501321511
30
0
41
1
10
-21.4788146901815
20
0.498458475949832
30
0
41
1
10
-21.4739201863398
20
0.552361493605673
30
0
41
1
10
-21.4625984188042
20
0.660244788432323
30
0
41
1
10
-21.456159678233
20
0.714307581104691
30
0
41
1
10
-21.4346038918093
20
0.875966706582147
30
0
41
1
10
-21.4172853236874
20
0.982846594827464
30
0
41
1
10
-21.3567175465797
20
1.30087888542042
30
0
41
1
10
-21.3048787016907
20
1.50943061979979
30
0
41
1
10
-21.1789309579674
20
1.91979865856709
30
0
41
1
10
-21.1048206678252
20
2.12161452986083
30
0
41
1
10
-20.998226662612
20
2.36966972430028
30
0
41
1
10
-20.9762083560189
20
2.41906952452885
30
0
41
1
10
-20.9307649649809
20
2.51744448695058
30
0
41
1
10
-20.9073116441753
20
2.56647622608861
30
0
41
1
10
-20.8350267778472
20
2.71252631781047
30
0
41
1
10
-20.7844346280646
20
2.80818883827374
30
0
41
1
10
-20.6256720613505
20
3.09022486681877
30
0
41
1
10
-20.5105338999628
20
3.27165981222919
30
0
41
1
10
-20.2623510498034
20
3.62186416748872
30
0
41
1
10
-20.129304333472
20
3.79063209878191
30
0
41
1
10
-19.91638920189
20
4.03436613204042
30
0
41
1
10
-19.8431890827454
20
4.11403818660335
30
0
41
1
10
-19.7300188924891
20
4.23117080081329
30
0
41
1
10
-19.6918185387117
20
4.26972937335211
30
0
41
1
10
-19.6146633567857
20
4.34570124507349
30
0
41
1
10
-19.5756796286264
20
4.38314455220441
30
0
41
1
10
-19.3787599051636
20
4.56768879385652
30
0
41
1
10
-19.2148365238777
20
4.70679413172118
30
0
41
1
10
-18.874706095973
20
4.96863291930705
30
0
41
1
10
-18.6984974556378
20
5.09136418851546
30
0
41
1
10
-18.4250584232746
20
5.26332042785435
30
0
41
1
10
-18.3323883185654
20
5.31861205123644
30
0
41
1
10
-18.1910840451221
20
5.39849359616358
30
0
41
1
10
-18.1435992640364
20
5.42461123504353
30
0
41
1
10
-18.0478586633437
20
5.47582211800821
30
0
41
1
10
-17.999653619819
20
5.50088641925819
30
0
41
1
10
-17.7578685588757
20
5.6230644943644
30
0
41
1
10
-17.5611877471659
20
5.71121804724854
30
0
41
1
10
-17.1615918134346
20
5.8691502782554
30
0
41
1
10
-16.7557600995884
20
6.00870330299327
30
0
41
1
10
-16.337639291229
20
6.11204125577314
30
0
41
1
10
-16.0724270604448
20
6.16517491060301
30
0
41
1
10
-16.0191898703303
20
6.17522781030428
30
0
41
1
10
-15.9123231813235
20
6.19417766139989
30
0
41
1
10
-15.8587245631856
20
6.203067400138
30
0
41
1
10
-15.6981171897025
20
6.22788100212605
30
0
41
1
10
-15.591046834799
20
6.24199592509535
30
0
41
1
10
-15.2698405249356
20
6.27720887586469
30
0
41
1
10
-14.8415784063018
20
6.30517583358045
30
0
41
1
10
-14.4133472399135
20
6.29598823689682
30
0
41
1
10
-13.9851301278561
20
6.26814199660083
30
0
41
1
10
-13.7710286107101
20
6.24489117648781
30
0
41
1
10
-13.4498827823393
20
6.19558292923176
30
0
41
1
10
-13.3435218403949
20
6.17684029687007
30
0
41
1
10
-13.1324691999273
20
6.13487617353348
30
0
41
1
10
-13.0277242446182
20
6.11164647440771
30
0
41
1
10
-12.7158020909691
20
6.03529266663705
30
0
41
1
10
-12.5109326313958
20
5.97551883088542
30
0
41
1
10
-12.1073058848507
20
5.83827843950013
30
0
41
1
10
-11.9085482732515
20
5.76081297582147
30
0
41
1
10
-11.6150846181189
20
5.63101285807838
30
0
41
1
10
-11.5180434948078
20
5.5854752238717
30
0
41
1
10
-11.3736757629308
20
5.51368214317216
30
0
41
1
10
-11.3257522711256
20
5.48916972742282
30
0
41
1
10
-11.2303086104433
20
5.43896513930909
30
0
41
1
10
-11.1827930088946
20
5.4132729225787
30
0
41
1
10
-10.947483899805
20
5.28253178013958
30
0
41
1
10
-10.5834454180356
20
5.05773403998504
30
0
41
1
10
-10.2439178705042
20
4.80205373514124
30
0
41
1
10
-9.91680582136416
20
4.53064355144804
30
0
41
1
10
-9.75945564033586
20
4.3870761006535
30
0
41
1
10
-9.53315123438247
20
4.15934037540231
30
0
41
1
10
-9.45933976558806
20
4.08136027368144
30
0
41
1
10
-9.35114147531016
20
3.96117214339367
30
0
41
1
10
-9.31544598229641
20
3.92051324995646
30
0
41
1
10
-9.24528651889091
20
3.83854301172633
30
0
41
1
10
-9.21079474785216
20
3.79720387028814
30
0
41
1
10
-9.04126021025354
20
3.58874534224469
30
0
41
1
10
-8.91496798581713
20
3.41635083929177
30
0
41
1
10
-8.681020496972
20
3.06027753813422
30
0
41
1
10
-8.57336408604837
20
2.87659951523889
30
0
41
1
10
-8.3772359796406
20
2.49758251455469
30
0
41
1
10
-8.28875977321567
20
2.30224633672049
30
0
41
1
10
-8.19090987217126
20
2.05030406807342
30
0
41
1
10
-8.17197900693111
20
1.99952589580772
30
0
41
1
10
-8.13542173547239
20
1.89717238781324
30
0
41
1
10
-8.08283436656745
20
1.743256447974
30
0
41
1
10
-8.03692789472026
20
1.58819780942068
30
0
41
1
10
-7.95392293194837
20
1.27657239565909
30
0
41
1
10
-7.91030798153008
20
1.06681498981709
30
0
41
1
10
-7.84653768425611
20
0.643276893043861
30
0
41
1
10
-7.82638053715212
20
0.429496514254083
30
0
41
1
10
-7.81631631923318
20
0.159674034922233
30
0
41
1
10
-7.81506199719578
20
0.105579369051867
30
0
41
1
10
-7.81409015053268
20
-0.0028737044500815
30
0
41
1
10
-7.81437319675589
20
-0.0572605386668386
30
0
41
1
10
-7.81755880079032
20
-0.220644478088502
30
0
41
1
10
-7.82277525436615
20
-0.328966946848027
30
0
41
1
10
-7.84746296604416
20
-0.652180739570952
30
0
41
1
10
-7.87594923909117
20
-0.865322863127545
30
0
41
1
10
-7.95630800773034
20
-1.28707412641489
30
0
41
1
10
-8.00818184115698
20
-1.49568299869586
30
0
41
1
10
-8.08768460032425
20
-1.75360766738268
30
0
41
1
10
-8.10431994992541
20
-1.80505044550239
30
0
41
1
10
-8.13906849712916
20
-1.90765026113797
30
0
41
1
10
-8.15720475983562
20
-1.95886904859859
30
0
41
1
10
-8.21368300526692
20
-2.11165355512418
30
0
41
1
10
-8.25395728953424
20
-2.2120054090054
30
0
41
1
10
-8.38238961887276
20
-2.50870137214946
30
0
41
1
10
-8.47813666461448
20
-2.70069746193477
30
0
41
1
10
-8.68906036100975
20
-3.0735966156966
30
0
41
1
10
-8.80423942718983
20
-3.25449823277162
30
0
41
1
10
-8.96024185584497
20
-3.47378565984053
30
0
41
1
10
-8.99204524157093
20
-3.51730033983827
30
0
41
1
10
-9.05686074403252
20
-3.60364317626261
30
0
41
1
10
-9.08991768817489
20
-3.64652703806885
30
0
41
1
10
-9.19051180539969
20
-3.77364846806404
30
0
41
1
10
-9.25945819389403
20
-3.85635639181203
30
0
41
1
10
-9.47177037849679
20
-4.09856885828645
30
0
41
1
10
-9.6205948104224
20
-4.25217769035021
30
0
41
1
10
-9.93224667064817
20
-4.54435140462192
30
0
41
1
10
-10.0950759132297
20
-4.68291418891747
30
0
41
1
10
-10.3497347334147
20
-4.87962948373189
30
0
41
1
10
-10.4363601056144
20
-4.94334291066102
30
0
41
1
10
-10.5689249705618
20
-5.03611365641081
30
0
41
1
10
-10.6135694470831
20
-5.06658050998942
30
0
41
1
10
-10.7033041255229
20
-5.1262941769383
30
0
41
1
10
-10.7484460371651
20
-5.15557803486215
30
0
41
1
10
-10.9755105570488
20
-5.29917424650947
30
0
41
1
10
-11.1614877435895
20
-5.40503944836129
30
0
41
1
10
-11.5418075549666
20
-5.59944607084668
30
0
41
1
10
-11.9304952583305
20
-5.77652393738069
30
0
41
1
10
-12.3358330572193
20
-5.9193062647613
30
0
41
1
10
-12.5944902635224
20
-5.99763500488751
30
0
41
1
10
-12.6465006823284
20
-6.01275565688368
30
0
41
1
10
-12.7505568730331
20
-6.04176095321793
30
0
41
1
10
-12.9068793539395
20
-6.08347114466181
30
0
41
1
10
-13.0639092621459
20
-6.11985234853935
30
0
41
1
10
-13.3788999335694
20
-6.18562537471328
30
0
41
1
10
-13.8013660213365
20
-6.25471573448982
30
0
41
1
10
-14.2287510066471
20
-6.28705443285702
30
0
41
1
10
-14.5511647728049
20
-6.29733269095115
30
0
41
1
10
-14.6589489955701
20
-6.29842568749291
30
0
41
1
10
-14.8211029615543
20
-6.2965055096202
30
0
41
1
10
-14.875233920426
20
-6.29527191363249
30
0
41
1
10
-14.9836568702168
20
-6.29160441950287
30
0
41
1
10
-15.0379567849357
20
-6.28916817398755
30
0
41
1
10
-15.3084918208501
20
-6.27404245388863
30
0
41
1
10
-15.7373760840781
20
-6.23098839657214
30
0
41
1
10
-16.1584914183471
20
-6.15107122839825
30
0
41
1
10
-16.5757056676582
20
-6.05265688836914
30
0
41
1
10
-16.7823625609795
20
-5.99420257299732
30
0
41
1
10
-17.0893298051161
20
-5.8922253830761
30
0
41
1
10
-17.1911483452332
20
-5.85584634942441
30
0
41
1
10
-17.3431002898168
20
-5.79760514749483
30
0
41
1
10
-17.3936857023474
20
-5.77755215252313
30
0
41
1
10
-17.4942077951299
20
-5.73636257832334
30
0
41
1
10
-17.5441454968067
20
-5.71522786403494
30
0
41
1
10
-17.7922267431611
20
-5.60686963019111
30
0
41
1
10
-17.9855596649833
20
-5.51161088869549
30
0
41
1
10
-18.3620229637573
20
-5.3040289508109
30
0
41
1
10
-18.5451538355531
20
-5.19170662187332
30
0
41
1
10
-18.8120277617516
20
-5.01012005360133
30
0
41
1
10
-18.8996797132134
20
-4.94740348819258
30
0
41
1
10
-19.0291549192911
20
-4.84997125366343
30
0
41
1
10
-19.0719793706082
20
-4.81693400133184
30
0
41
1
10
-19.1569510136826
20
-4.74972367237314
30
0
41
1
10
-19.1991361471285
20
-4.71551906421689
30
0
41
1
10
-19.2409013463647
20
-4.68080028297888
30
0
0
SPLINE
5
19A
100
AcDbEntity
8
SK1
62
256
6
ByLayer
370
18
48
1
60
0
100
AcDbSpline
70
4
71
3
72
48
73
44
40
0
40
0
40
0
40
0
40
0.0078125000000032
40
0.0078125000000032
40
0.0156250000000064
40
0.0156250000000064
40
0.0234375000000096
40
0.0234375000000096
40
0.0273437500000108
40
0.0273437500000108
40
0.031250000000012
40
0.031250000000012
40
0.046875000000011
40
0.046875000000011
40
0.06250000000001
40
0.06250000000001
40
0.0781250000000091
40
0.0781250000000091
40
0.0937500000000081
40
0.0937500000000081
40
0.125000000000007
40
0.125000000000007
40
0.156250000000005
40
0.156250000000005
40
0.187500000000004
40
0.187500000000004
40
0.250000000000003
40
0.250000000000003
40
0.312500000000003
40
0.312500000000003
40
0.375000000000002
40
0.375000000000002
40
0.437500000000002
40
0.437500000000002
40
0.500000000000002
40
0.500000000000002
40
0.625000000000001
40
0.625000000000001
40
0.750000000000001
40
0.750000000000001
40
0.875000000000001
40
0.875000000000001
40
1
40
1
40
1
40
1
41
1
10
-40.216558266844
20
17.059223638729
30
0
41
1
10
-40.2255137164713
20
17.0414928213137
30
0
41
1
10
-40.2360232406994
20
17.024734639259
30
0
41
1
10
-40.2593029922573
20
16.9926331728007
30
0
41
1
10
-40.2720804381836
20
16.9772944062159
30
0
41
1
10
-40.2993863508484
20
16.9477127888347
30
0
41
1
10
-40.3139180690732
20
16.9334719730028
30
0
41
1
10
-40.3367709283963
20
16.9127712294338
30
0
41
1
10
-40.3445719684935
20
16.9059773658596
30
0
41
1
10
-40.3603555141485
20
16.8927024516855
30
0
41
1
10
-40.3683549864992
20
16.8862055661667
30
0
41
1
10
-40.4088261315397
20
16.8543395329437
30
0
41
1
10
-40.4426888294718
20
16.8307859893159
30
0
41
1
10
-40.5123481174603
20
16.7862031287604
30
0
41
1
10
-40.5481587326132
20
16.7651921171124
30
0
41
1
10
-40.6211874460021
20
16.7250072696351
30
0
41
1
10
-40.6584106043895
20
16.7058400382047
30
0
41
1
10
-40.7339380973458
20
16.6689168682472
30
0
41
1
10
-40.7722695231471
20
16.651155671117
30
0
41
1
10
-40.8877452477218
20
16.5999068760185
30
0
41
1
10
-40.965655850879
20
16.5682722372605
30
0
41
1
10
-41.1226933524388
20
16.5083250680503
30
0
41
1
10
-41.2018286497807
20
16.4800354743394
30
0
41
1
10
-41.3609886301097
20
16.4258856416439
30
0
41
1
10
-41.4410163846208
20
16.4000337907036
30
0
41
1
10
-41.6821282190399
20
16.3252879649916
30
0
41
1
10
-41.8442249466182
20
16.2791602328019
30
0
41
1
10
-42.1701904312219
20
16.1917461714862
30
0
41
1
10
-42.3340718337276
20
16.1504943758749
30
0
41
1
10
-42.6631293631878
20
16.071528736924
30
0
41
1
10
-42.8283060210512
20
16.033830314406
30
0
41
1
10
-43.1589860239044
20
15.9613013872945
30
0
41
1
10
-43.324590035516
20
15.9264524231626
30
0
41
1
10
-43.6562168288383
20
15.8589999841604
30
0
41
1
10
-43.8222401780398
20
15.8263995506818
30
0
41
1
10
-44.3208262630884
20
15.7313656079108
30
0
41
1
10
-44.6538993113537
20
15.6716687738745
30
0
41
1
10
-45.3210244711679
20
15.5575268786883
30
0
41
1
10
-45.6550802301057
20
15.5031013652068
30
0
41
1
10
-46.3239463383711
20
15.3982990923323
30
0
41
1
10
-46.65875825511
20
15.3479307332504
30
0
41
1
10
-47.3289877270329
20
15.2504444926014
30
0
41
1
10
-47.6644060538692
20
15.2033307465867
30
0
41
1
10
-48.0000748840305
20
15.1575618641653
30
0
0
SPLINE
5
19B
100
AcDbEntity
8
SK1
62
256
6
ByLayer
370
18
48
1
60
0
100
AcDbSpline
70
4
71
3
72
34
73
30
40
0
40
0
40
0
40
0
40
0.124999999999992
40
0.124999999999992
40
0.187499999999989
40
0.187499999999989
40
0.249999999999985
40
0.249999999999985
40
0.374999999999982
40
0.374999999999982
40
0.499999999999978
40
0.499999999999978
40
0.624999999999975
40
0.624999999999975
40
0.687499999999975
40
0.687499999999975
40
0.718749999999978
40
0.718749999999978
40
0.749999999999981
40
0.749999999999981
40
0.812499999999987
40
0.812499999999987
40
0.874999999999993
40
0.874999999999993
40
0.906249999999994
40
0.906249999999994
40
0.937499999999994
40
0.937499999999994
40
1
40
1
40
1
40
1
41
1
10
-36.7
20
19.5943714322653
30
0
41
1
10
-36.8711858974658
20
19.5187882816346
30
0
41
1
10
-37.0413761276148
20
19.4410544812258
30
0
41
1
10
-37.2948644625377
20
19.3205722232495
30
0
41
1
10
-37.3790601632171
20
19.2797625803873
30
0
41
1
10
-37.5467865215208
20
19.1967067960703
30
0
41
1
10
-37.6303668864447
20
19.1544341959407
30
0
41
1
10
-37.8793229252197
20
19.0255688660013
30
0
41
1
10
-38.0430828929572
20
18.936869767415
30
0
41
1
10
-38.3651311639746
20
18.7525689434652
30
0
41
1
10
-38.5234281179983
20
18.656978131208
30
0
41
1
10
-38.8330297808163
20
18.4569756333508
30
0
41
1
10
-38.9843528118257
20
18.3525870616341
30
0
41
1
10
-39.204310734814
20
18.1871399617284
30
0
41
1
10
-39.2764508160516
20
18.1305033079847
30
0
41
1
10
-39.3825571315545
20
18.0428943287214
30
0
41
1
10
-39.4175205711071
20
18.0132908248446
30
0
41
1
10
-39.4864156420775
20
17.9533489086636
30
0
41
1
10
-39.5203702139022
20
17.922991733576
30
0
41
1
10
-39.6206319685333
20
17.8306651370866
30
0
41
1
10
-39.6853447054721
20
17.7674465321357
30
0
41
1
10
-39.8097036218329
20
17.6370398802925
30
0
41
1
10
-39.8693539749137
20
17.5698551032924
30
0
41
1
10
-39.954209950325
20
17.4654587047784
30
0
41
1
10
-39.9817772423315
20
17.4299762589511
30
0
41
1
10
-40.0347710714733
20
17.3582459732121
30
0
41
1
10
-40.0602303319981
20
17.3219648769856
30
0
41
1
10
-40.1332638811575
20
17.211781021376
30
0
41
1
10
-40.1775061488117
20
17.1365425901306
30
0
41
1
10
-40.2165582668442
20
17.059223638729
30
0
0
SPLINE
5
19C
100
AcDbEntity
8
SK1
62
256
6
ByLayer
370
18
48
1
60
0
100
AcDbSpline
70
4
71
3
72
48
73
44
40
0
40
0
40
0
40
0
40
0.0156249999999946
40
0.0156249999999946
40
0.0234374999999954
40
0.0234374999999954
40
0.0312499999999962
40
0.0312499999999962
40
0.0468749999999978
40
0.0468749999999978
40
0.0624999999999994
40
0.0624999999999994
40
0.0781250000000009
40
0.0781250000000009
40
0.0937500000000025
40
0.0937500000000025
40
0.109375000000004
40
0.109375000000004
40
0.125000000000006
40
0.125000000000006
40
0.156250000000009
40
0.156250000000009
40
0.187500000000012
40
0.187500000000012
40
0.218750000000015
40
0.218750000000015
40
0.250000000000018
40
0.250000000000018
40
0.312500000000019
40
0.312500000000019
40
0.37500000000002
40
0.37500000000002
40
0.50000000000002
40
0.50000000000002
40
0.625000000000019
40
0.625000000000019
40
0.687500000000017
40
0.687500000000017
40
0.750000000000015
40
0.750000000000015
40
0.875000000000007
40
0.875000000000007
40
1
40
1
40
1
40
1
41
1
10
-36.7
20
19.5943714322652
30
0
41
1
10
-36.6847064927801
20
19.6011239245966
30
0
41
1
10
-36.6689495589213
20
19.606533956745
30
0
41
1
10
-36.6444816853446
20
19.6122393245812
30
0
41
1
10
-36.636186502305
20
19.6137381067647
30
0
41
1
10
-36.6192872519424
20
19.6158417285694
30
0
41
1
10
-36.6107241786977
20
19.6164323671957
30
0
41
1
10
-36.5853785832221
20
19.6167731453971
30
0
41
1
10
-36.56862444355
20
19.6151195095693
30
0
41
1
10
-36.5357346965959
20
19.6083384547155
30
0
41
1
10
-36.5201531284729
20
19.6033537549418
30
0
41
1
10
-36.4903068788372
20
19.5909492448109
30
0
41
1
10
-36.4759522241272
20
19.5834551771552
30
0
41
1
10
-36.4490415344061
20
19.5669979824134
30
0
41
1
10
-36.4363973306272
20
19.5580145214643
30
0
41
1
10
-36.4123113260057
20
19.5389249920634
30
0
41
1
10
-36.4008730260034
20
19.5288156830339
30
0
41
1
10
-36.378944237093
20
19.5077087553173
30
0
41
1
10
-36.3684967164129
20
19.4967450442026
30
0
41
1
10
-36.338702963933
20
19.4632611899644
30
0
41
1
10
-36.3207126617917
20
19.4399996960829
30
0
41
1
10
-36.2871772481909
20
19.3922323109071
30
0
41
1
10
-36.2716508048236
20
19.3677172795265
30
0
41
1
10
-36.2424002313829
20
19.3177553300495
30
0
41
1
10
-36.2286825801916
20
19.2923052426748
30
0
41
1
10
-36.202653893522
20
19.2406650245474
30
0
41
1
10
-36.1903507192283
20
19.2144764267392
30
0
41
1
10
-36.1554101577732
20
19.135614879108
30
0
41
1
10
-36.1345924600216
20
19.0824192067565
30
0
41
1
10
-36.0963204719529
20
18.9751216696352
30
0
41
1
10
-36.0788871273222
20
18.9210153343339
30
0
41
1
10
-36.0304065848838
20
18.7575951619308
30
0
41
1
10
-36.0031175776361
20
18.6471931439649
30
0
41
1
10
-35.9551394416825
20
18.4242023644288
30
0
41
1
10
-35.9345079681282
20
18.3116013530288
30
0
41
1
10
-35.9073321932439
20
18.1413017298616
30
0
41
1
10
-35.898907403912
20
18.0842741447289
30
0
41
1
10
-35.8832202583696
20
17.969946122596
30
0
41
1
10
-35.8759565129337
20
17.9126393974611
30
0
41
1
10
-35.8557366578801
20
17.7403057928126
30
0
41
1
10
-35.8443429695231
20
17.6248663053036
30
0
41
1
10
-35.8251190973012
20
17.3929387252693
30
0
41
1
10
-35.8172926438243
20
17.2764502997123
30
0
41
1
10
-35.8110727855048
20
17.159451795297
30
0
0
SPLINE
5
19D
100
AcDbEntity
8
SK1
62
256
6
ByLayer
370
18
48
1
60
0
100
AcDbSpline
70
4
71
3
72
35
73
31
40
0
40
0
40
0
40
0
40
0.0312500000000014
40
0.0312500000000014
40
0.0625000000000028
40
0.0625000000000028
40
0.125000000000002
40
0.125000000000002
40
0.187500000000002
40
0.250000000000001
40
0.250000000000001
40
0.312500000000001
40
0.312500000000001
40
0.375
40
0.375
40
0.4375
40
0.4375
40
0.499999999999999
40
0.499999999999999
40
0.625
40
0.625
40
0.75
40
0.75
40
0.875
40
0.875
40
0.937499999999999
40
0.937499999999999
40
0.96875
40
0.96875
40
1
40
1
40
1
40
1
41
1
10
-35.8110727855048
20
17.1594517952971
30
0
41
1
10
-35.8087298228675
20
17.1153795495348
30
0
41
1
10
-35.8050508230864
20
17.0710748782621
30
0
41
1
10
-35.7952802677078
20
16.9831258265325
30
0
41
1
10
-35.7891941023362
20
16.939414349657
30
0
41
1
10
-35.7677724345513
20
16.8089604777204
30
0
41
1
10
-35.7492796314845
20
16.7228974439837
30
0
41
1
10
-35.7063448295786
20
16.5519632356002
30
0
41
1
10
-35.6574841798203
20
16.3822146941405
30
0
41
1
10
-35.6011189614965
20
16.2137335629906
30
0
41
1
10
-35.5427113205105
20
16.0454473330699
30
0
41
1
10
-35.5124828131835
20
15.9614025510421
30
0
41
1
10
-35.451273417161
20
15.793173337961
30
0
41
1
10
-35.4202890471679
20
15.7089897726496
30
0
41
1
10
-35.3585507750323
20
15.5402247287571
30
0
41
1
10
-35.3277941195328
20
15.4556439431823
30
0
41
1
10
-35.2672824740689
20
15.285878630315
30
0
41
1
10
-35.2375212676654
20
15.2006809286597
30
0
41
1
10
-35.1507682862352
20
14.9441756141248
30
0
41
1
10
-35.0963122006996
20
14.771892362452
30
0
41
1
10
-34.9982266523963
20
14.423908822598
30
0
41
1
10
-34.954568412715
20
14.2482143036154
30
0
41
1
10
-34.8815423282893
20
13.8926526826871
30
0
41
1
10
-34.8521479202448
20
13.7127911134685
30
0
41
1
10
-34.8215668767947
20
13.4392473053495
30
0
41
1
10
-34.8136291543811
20
13.3474397649972
30
0
41
1
10
-34.8055331814597
20
13.2086935714257
30
0
41
1
10
-34.8034705654414
20
13.1622349451048
30
0
41
1
10
-34.8007057879732
20
13.0693817557498
30
0
41
1
10
-34.8
20
13.0229430006227
30
0
41
1
10
-34.8
20
12.9764932793006
30
0
0
SPLINE
5
19E
100
AcDbEntity
8
SK1
62
256
6
ByLayer
370
18
48
1
60
0
100
AcDbSpline
70
4
71
3
72
35
73
31
40
0
40
0
40
0
40
0
40
0.125
40
0.125
40
0.15625
40
0.15625
40
0.187500000000001
40
0.187500000000001
40
0.250000000000003
40
0.375000000000005
40
0.375000000000005
40
0.500000000000006
40
0.500000000000006
40
0.625000000000008
40
0.625000000000008
40
0.687500000000007
40
0.687500000000007
40
0.750000000000006
40
0.750000000000006
40
0.812500000000004
40
0.812500000000004
40
0.875000000000003
40
0.875000000000003
40
0.937500000000002
40
0.937500000000002
40
0.968750000000001
40
0.968750000000001
40
0.984375000000001
40
0.984375000000001
40
1
40
1
40
1
40
1
41
1
10
-34.8
20
-12.9764932793005
30
0
41
1
10
-34.8
20
-13.1609211825781
30
0
41
1
10
-34.8110844849141
20
-13.344587571555
30
0
41
1
10
-34.83652436556
20
-13.5732554377875
30
0
41
1
10
-34.8421937565924
20
-13.6189432153546
30
0
41
1
10
-34.8546454515358
20
-13.710227972021
30
0
41
1
10
-34.8614337316711
20
-13.7558569499626
30
0
41
1
10
-34.8833094694193
20
-13.8921076189759
30
0
41
1
10
-34.9331485974905
20
-14.1624951870839
30
0
41
1
10
-34.9990633535392
20
-14.4271685375036
30
0
41
1
10
-35.0975593205889
20
-14.7760192988219
30
0
41
1
10
-35.1521415893961
20
-14.9484135341417
30
0
41
1
10
-35.2678766595549
20
-15.2902518874284
30
0
41
1
10
-35.3290769203068
20
-15.4596840930397
30
0
41
1
10
-35.4216546020565
20
-15.7127082175167
30
0
41
1
10
-35.4526298915758
20
-15.7968724231108
30
0
41
1
10
-35.5138018406873
20
-15.9650581671915
30
0
41
1
10
-35.5439986808527
20
-16.0490705034046
30
0
41
1
10
-35.6023033421074
20
-16.2172357800163
30
0
41
1
10
-35.6304140244393
20
-16.3013881146026
30
0
41
1
10
-35.6828368430513
20
-16.470222640282
30
0
41
1
10
-35.7071477628823
20
-16.5549051807191
30
0
41
1
10
-35.7498136477076
20
-16.7252863215812
30
0
41
1
10
-35.7681560611459
20
-16.8109878632258
30
0
41
1
10
-35.7893804543945
20
-16.940707767269
30
0
41
1
10
-35.7954060923489
20
-16.9841424836669
30
0
41
1
10
-35.8026621054137
20
-17.0496323658143
30
0
41
1
10
-35.8047839611487
20
-17.0715185641744
30
0
41
1
10
-35.8084037182345
20
-17.1154099796996
30
0
41
1
10
-35.8099029406847
20
-17.1374464557325
30
0
41
1
10
-35.8110727855048
20
-17.1594517952971
30
0
0
SPLINE
5
19F
100
AcDbEntity
8
SK1
62
256
6
ByLayer
370
18
48
1
60
0
100
AcDbSpline
70
4
71
3
72
53
73
49
40
0
40
0
40
0
40
0
40
0.125000000000004
40
0.125000000000004
40
0.250000000000008
40
0.250000000000008
40
0.375000000000013
40
0.375000000000013
40
0.500000000000019
40
0.500000000000019
40
0.562500000000022
40
0.562500000000022
40
0.625000000000026
40
0.625000000000026
40
0.68750000000003
40
0.68750000000003
40
0.750000000000033
40
0.750000000000033
40
0.781250000000034
40
0.781250000000034
40
0.812500000000036
40
0.812500000000036
40
0.843750000000037
40
0.843750000000037
40
0.859375000000034
40
0.859375000000034
40
0.875000000000031
40
0.875000000000031
40
0.890625000000028
40
0.890625000000028
40
0.906250000000025
40
0.906250000000025
40
0.921875000000022
40
0.921875000000022
40
0.92968750000002
40
0.92968750000002
40
0.937500000000018
40
0.937500000000018
40
0.953125000000014
40
0.953125000000014
40
0.960937500000011
40
0.960937500000011
40
0.968750000000009
40
0.976562500000007
40
0.976562500000007
40
0.984375000000004
40
0.984375000000004
40
1
40
1
40
1
40
1
41
1
10
-35.8110727855048
20
-17.1594517952971
30
0
41
1
10
-35.8173005718243
20
-17.2765994291774
30
0
41
1
10
-35.825139333155
20
-17.3932417035646
30
0
41
1
10
-35.8443993203418
20
-17.6254870770945
30
0
41
1
10
-35.8558167689226
20
-17.7410905024587
30
0
41
1
10
-35.8828403885793
20
-17.9712078217972
30
0
41
1
10
-35.8984464229313
20
-18.0857589250384
30
0
41
1
10
-35.9347884209076
20
-18.3132163356987
30
0
41
1
10
-35.9555086472984
20
-18.4261731973903
30
0
41
1
10
-35.9917551203116
20
-18.5942514027903
30
0
41
1
10
-36.0047084558934
20
-18.6500570529712
30
0
41
1
10
-36.0326760610089
20
-18.7609702262327
30
0
41
1
10
-36.0476910808067
20
-18.8160993765061
30
0
41
1
10
-36.0803203098191
20
-18.9255857512127
30
0
41
1
10
-36.0979425275279
20
-18.9799857663467
30
0
41
1
10
-36.136551205324
20
-19.0875632484609
30
0
41
1
10
-36.1575177703235
20
-19.1407503058783
30
0
41
1
10
-36.1925812950234
20
-19.2192937005193
30
0
41
1
10
-36.2048761480011
20
-19.245258554406
30
0
41
1
10
-36.2308938648005
20
-19.2964733063758
30
0
41
1
10
-36.2446230972401
20
-19.3217464996537
30
0
41
1
10
-36.2739616396511
20
-19.3714373959701
30
0
41
1
10
-36.2895633172475
20
-19.3958583754683
30
0
41
1
10
-36.3149245584605
20
-19.4316139538516
30
0
41
1
10
-36.323718300906
20
-19.4433966696792
30
0
41
1
10
-36.341989197859
20
-19.466452828411
30
0
41
1
10
-36.3514761631869
20
-19.4777427443063
30
0
41
1
10
-36.3713127063351
20
-19.4997414149291
30
0
41
1
10
-36.381660891984
20
-19.5104510893953
30
0
41
1
10
-36.4034528444504
20
-19.5311360208259
30
0
41
1
10
-36.4149474186246
20
-19.5411510547851
30
0
41
1
10
-36.4390421564696
20
-19.5599401940587
30
0
41
1
10
-36.4516463462974
20
-19.5687308429457
30
0
41
1
10
-36.4716485432495
20
-19.5807317589921
30
0
41
1
10
-36.4784997337055
20
-19.5845333301214
30
0
41
1
10
-36.4926332331548
20
-19.5916708709687
30
0
41
1
10
-36.4999475073115
20
-19.5950179575938
30
0
41
1
10
-36.5222662200835
20
-19.6040766012892
30
0
41
1
10
-36.5377125572612
20
-19.6088605110842
30
0
41
1
10
-36.5619497504943
20
-19.6136767513147
30
0
41
1
10
-36.5702587433574
20
-19.6148864880771
30
0
41
1
10
-36.5868023437412
20
-19.6163810659065
30
0
41
1
10
-36.6033560176342
20
-19.6169776785555
30
0
41
1
10
-36.6199298526304
20
-19.6157787597959
30
0
41
1
10
-36.6365137924802
20
-19.6136793178333
30
0
41
1
10
-36.644854239226
20
-19.6121646911544
30
0
41
1
10
-36.669259423473
20
-19.6064364162933
30
0
41
1
10
-36.6848894080014
20
-19.6010431626359
30
0
41
1
10
-36.7
20
-19.5943714322652
30
0
0
SPLINE
5
1A0
100
AcDbEntity
8
SK1
62
256
6
ByLayer
370
18
48
1
60
0
100
AcDbSpline
70
4
71
3
72
35
73
31
40
0
40
0
40
0
40
0
40
0.0156250000000018
40
0.0156250000000018
40
0.0312500000000037
40
0.0625000000000052
40
0.0625000000000052
40
0.125000000000012
40
0.125000000000012
40
0.18750000000002
40
0.18750000000002
40
0.218750000000022
40
0.218750000000022
40
0.250000000000024
40
0.250000000000024
40
0.312500000000023
40
0.312500000000023
40
0.375000000000023
40
0.375000000000023
40
0.50000000000002
40
0.50000000000002
40
0.625000000000016
40
0.625000000000016
40
0.750000000000012
40
0.750000000000012
40
0.81250000000001
40
0.81250000000001
40
0.875000000000008
40
0.875000000000008
40
1
40
1
40
1
40
1
41
1
10
-40.216558266844
20
-17.059223638729
30
0
41
1
10
-40.2065692011606
20
-17.0790009036519
30
0
41
1
10
-40.1962222733362
20
-17.0986727913565
30
0
41
1
10
-40.1749656596159
20
-17.13758981772
30
0
41
1
10
-40.1421891356425
20
-17.1954195519503
30
0
41
1
10
-40.1068855011004
20
-17.2517022862578
30
0
41
1
10
-40.0332442316912
20
-17.3624104565309
30
0
41
1
10
-39.9801176088882
20
-17.4337473967018
30
0
41
1
10
-39.8671970251932
20
-17.5723397890246
30
0
41
1
10
-39.8073980790514
20
-17.6395921893982
30
0
41
1
10
-39.7134700363204
20
-17.7378815770696
30
0
41
1
10
-39.6814534173342
20
-17.7702117419313
30
0
41
1
10
-39.6161114471282
20
-17.8340709161019
30
0
41
1
10
-39.5829412083925
20
-17.8654484067428
30
0
41
1
10
-39.4821531424353
20
-17.9580170166508
30
0
41
1
10
-39.4132293260862
20
-18.0176840834333
30
0
41
1
10
-39.2725141740843
20
-18.1336314835565
30
0
41
1
10
-39.2007207380452
20
-18.1899093361997
30
0
41
1
10
-38.9816980608985
20
-18.3544410109707
30
0
41
1
10
-38.8308583734475
20
-18.4584306527827
30
0
41
1
10
-38.5219544223898
20
-18.6578772253498
30
0
41
1
10
-38.3638725953149
20
-18.753313412466
30
0
41
1
10
-38.0420125158101
20
-18.9374579246669
30
0
41
1
10
-37.8782258183423
20
-19.0261562755932
30
0
41
1
10
-37.6290682003931
20
-19.1550965555141
30
0
41
1
10
-37.5455171787283
20
-19.197343733049
30
0
41
1
10
-37.3779261719413
20
-19.2803156203691
30
0
41
1
10
-37.2938219149035
20
-19.3210735147716
30
0
41
1
10
-37.0406735250402
20
-19.4413767868714
30
0
41
1
10
-36.8707972245172
20
-19.5189598911331
30
0
41
1
10
-36.7
20
-19.5943714322652
30
0
0
SPLINE
5
1A1
100
AcDbEntity
8
SK1
62
256
6
ByLayer
370
18
48
1
60
0
100
AcDbSpline
70
4
71
3
72
50
73
46
40
0
40
0
40
0
40
0
40
0.125000000000001
40
0.125000000000001
40
0.250000000000001
40
0.250000000000001
40
0.375000000000002
40
0.375000000000002
40
0.500000000000003
40
0.500000000000003
40
0.562500000000003
40
0.562500000000003
40
0.625000000000003
40
0.625000000000003
40
0.687500000000004
40
0.687500000000004
40
0.750000000000004
40
0.750000000000004
40
0.812500000000004
40
0.812500000000004
40
0.843750000000006
40
0.843750000000006
40
0.859375000000005
40
0.859375000000005
40
0.875000000000004
40
0.875000000000004
40
0.906250000000003
40
0.906250000000003
40
0.921875000000003
40
0.921875000000003
40
0.937500000000002
40
0.937500000000002
40
0.953125000000001
40
0.953125000000001
40
0.960937500000001
40
0.960937500000001
40
0.96875
40
0.96875
40
0.984375
40
0.984375
40
0.98828125
40
0.98828125
40
0.9921875
40
0.9921875
40
1
40
1
40
1
40
1
41
1
10
-48.0000748840304
20
-15.1575618641633
30
0
41
1
10
-47.6642819462845
20
-15.2033476688156
30
0
41
1
10
-47.3287067417301
20
-15.2504837651172
30
0
41
1
10
-46.658084439127
20
-15.3480303408005
30
0
41
1
10
-46.3230366620363
20
-15.3984366142565
30
0
41
1
10
-45.6536007422565
20
-15.503338210916
30
0
41
1
10
-45.3192112160959
20
-15.5578249650152
30
0
41
1
10
-44.6512919303171
20
-15.6721271177432
30
0
41
1
10
-44.3178713922416
20
-15.7319042753068
30
0
41
1
10
-43.8189238511906
20
-15.8270441188289
30
0
41
1
10
-43.6528043821069
20
-15.859677792755
30
0
41
1
10
-43.3210445239052
20
-15.9271901987712
30
0
41
1
10
-43.1553904474269
20
-15.9620688034591
30
0
41
1
10
-42.8247399939426
20
-16.0346341361586
30
0
41
1
10
-42.6598063089127
20
-16.0723009509185
30
0
41
1
10
-42.3309661740188
20
-16.1512653917218
30
0
41
1
10
-42.167055921612
20
-16.1925495843737
30
0
41
1
10
-41.8406604433061
20
-16.2801540624899
30
0
41
1
10
-41.6781419423617
20
-16.3264497174497
30
0
41
1
10
-41.4366019162269
20
-16.4014407944629
30
0
41
1
10
-41.3564460542775
20
-16.4273783750259
30
0
41
1
10
-41.2369128073697
20
-16.4681278019347
30
0
41
1
10
-41.1971858319494
20
-16.4820199155495
30
0
41
1
10
-41.1180057891183
20
-16.5105247392268
30
0
41
1
10
-41.0785339968349
20
-16.5251446306655
30
0
41
1
10
-40.960890515566
20
-16.5701742819971
30
0
41
1
10
-40.883401634676
20
-16.6017471334622
30
0
41
1
10
-40.7692487389967
20
-16.6525430932039
30
0
41
1
10
-40.7315481294284
20
-16.6700538360687
30
0
41
1
10
-40.657036519262
20
-16.7065448318753
30
0
41
1
10
-40.6202234363673
20
-16.7255216455051
30
0
41
1
10
-40.5477745402602
20
-16.7654199060491
30
0
41
1
10
-40.512133755177
20
-16.7863331409556
30
0
41
1
10
-40.4599191173502
20
-16.8197619998578
30
0
41
1
10
-40.4427238819597
20
-16.8312512377387
30
0
41
1
10
-40.4088519295578
20
-16.8550861812403
30
0
41
1
10
-40.3921720571703
20
-16.8674388738235
30
0
41
1
10
-40.3437315108906
20
-16.9056214367524
30
0
41
1
10
-40.313317939617
20
-16.9326542600772
30
0
41
1
10
-40.2791250486902
20
-16.9696543355769
30
0
41
1
10
-40.2724825605883
20
-16.9772189034225
30
0
41
1
10
-40.2596525181839
20
-16.9927298038496
30
0
41
1
10
-40.2534665699685
20
-17.000677729169
30
0
41
1
10
-40.2358953697256
20
-17.0249180975753
30
0
41
1
10
-40.225419582572
20
-17.0416791962087
30
0
41
1
10
-40.2165582668441
20
-17.059223638729
30
0
0
LINE
5
85
100
AcDbEntity
8
4
62
256
6
ByLayer
370
18
48
0.05
60
0
100
AcDbLine
10
0
20
0
30
0
11
48
21
0
31
0
39
0
210
0
220
0
230
1
0
LINE
5
87
100
AcDbEntity
8
81
62
256
6
ByLayer
370
18
48
1
60
0
100
AcDbLine
10
48
20
0
30
0
11
53
21
0
31
0
39
0
210
0
220
0
230
1
0
LINE
5
88
100
AcDbEntity
8
80
62
256
6
ByLayer
370
18
48
1
60
0
100
AcDbLine
10
0
20
0
30
0
11
-5
21
0
31
0
39
0
210
0
220
0
230
1
0
LINE
5
89
100
AcDbEntity
8
1
62
256
6
ByLayer
370
18
48
1
60
0
100
AcDbLine
10
21.525
20
45.975
30
0
11
18.475
21
45.975
31
0
39
0
210
0
220
0
230
1
0
LINE
5
8A
100
AcDbEntity
8
1
62
256
6
ByLayer
370
18
48
1
60
0
100
AcDbLine
10
40.999884
20
26.375
30
0
11
30.15
21
26.375
31
0
39
0
210
0
220
0
230
1
0
LINE
5
8B
100
AcDbEntity
8
1
62
256
6
ByLayer
370
18
48
1
60
0
100
AcDbLine
10
30.15
20
-26.375
30
0
11
40.999884
21
-26.375
31
0
39
0
210
0
220
0
230
1
0
LINE
5
8C
100
AcDbEntity
8
1
62
256
6
ByLayer
370
18
48
1
60
0
100
AcDbLine
10
18.475
20
-45.975
30
0
11
21.525
21
-45.975
31
0
39
0
210
0
220
0
230
1
0
LINE
5
8D
100
AcDbEntity
8
1
62
256
6
ByLayer
370
18
48
1
60
0
100
AcDbLine
10
28.95
20
49.265
30
0
11
28.25
21
49.965
31
0
39
0
210
0
220
0
230
1
0
LINE
5
8E
100
AcDbEntity
8
1
62
256
6
ByLayer
370
18
48
1
60
0
100
AcDbLine
10
16.758178
20
-49.965
30
0
11
18.075
21
-47.684198
31
0
39
0
210
0
220
0
230
1
0
LINE
5
8F
100
AcDbEntity
8
1
62
256
6
ByLayer
370
18
48
1
60
0
100
AcDbLine
10
28.25
20
-49.965
30
0
11
28.95
21
-49.265
31
0
39
0
210
0
220
0
230
1
0
LINE
5
90
100
AcDbEntity
8
1
62
256
6
ByLayer
370
18
48
1
60
0
100
AcDbLine
10
23.241822
20
49.965
30
0
11
21.925
21
47.684198
31
0
39
0
210
0
220
0
230
1
0
LINE
5
91
100
AcDbEntity
8
1
62
256
6
ByLayer
370
18
48
1
60
0
100
AcDbLine
10
28.25
20
49.965
30
0
11
23.241822
21
49.965
31
0
39
0
210
0
220
0
230
1
0
LINE
5
92
100
AcDbEntity
8
1
62
256
6
ByLayer
370
18
48
1
60
0
100
AcDbLine
10
18.075
20
47.684198
30
0
11
16.758178
21
49.965
31
0
39
0
210
0
220
0
230
1
0
LINE
5
93
100
AcDbEntity
8
1
62
256
6
ByLayer
370
18
48
1
60
0
100
AcDbLine
10
21.925
20
-47.684198
30
0
11
23.241822
21
-49.965
31
0
39
0
210
0
220
0
230
1
0
LINE
5
94
100
AcDbEntity
8
1
62
256
6
ByLayer
370
18
48
1
60
0
100
AcDbLine
10
23.241822
20
-49.965
30
0
11
28.25
21
-49.965
31
0
39
0
210
0
220
0
230
1
0
LINE
5
95
100
AcDbEntity
8
1
62
256
6
ByLayer
370
18
48
1
60
0
100
AcDbLine
10
16.758178
20
49.965
30
0
11
0.7
21
49.965
31
0
39
0
210
0
220
0
230
1
0
LINE
5
96
100
AcDbEntity
8
1
62
256
6
ByLayer
370
18
48
1
60
0
100
AcDbLine
10
0.7
20
-49.965
30
0
11
1.992886
21
-49.965
31
0
39
0
210
0
220
0
230
1
0
LINE
5
97
100
AcDbEntity
8
1
62
256
6
ByLayer
370
18
48
1
60
0
100
AcDbLine
10
12.0225
20
-49.965
30
0
11
16.758178
21
-49.965
31
0
39
0
210
0
220
0
230
1
0
LINE
5
98
100
AcDbEntity
8
1
62
256
6
ByLayer
370
18
48
1
60
0
100
AcDbLine
10
0
20
-49.265
30
0
11
0.7
21
-49.965
31
0
39
0
210
0
220
0
230
1
0
LINE
5
99
100
AcDbEntity
8
1
62
256
6
ByLayer
370
18
48
1
60
0
100
AcDbLine
10
0.7
20
49.965
30
0
11
0
21
49.265
31
0
39
0
210
0
220
0
230
1
0
LINE
5
9A
100
AcDbEntity
8
1
62
256
6
ByLayer
370
18
48
1
60
0
100
AcDbLine
10
47.5
20
-33.690999
30
0
11
54.624178
21
-33.690999
31
0
39
0
210
0
220
0
230
1
0
LINE
5
9B
100
AcDbEntity
8
1
62
256
6
ByLayer
370
18
48
1
60
0
100
AcDbLine
10
54.624036
20
33.690999
30
0
11
47.5
21
33.690999
31
0
39
0
210
0
220
0
230
1
0
LINE
5
9C
100
AcDbEntity
8
1
62
256
6
ByLayer
370
18
48
1
60
0
100
AcDbLine
10
54.690513
20
14.115903
30
0
11
47.5
21
14.115903
31
0
39
0
210
0
220
0
230
1
0
LINE
5
9D
100
AcDbEntity
8
1
62
256
6
ByLayer
370
18
48
1
60
0
100
AcDbLine
10
47.5
20
-14.115903
30
0
11
54.690454
21
-14.115903
31
0
39
0
210
0
220
0
230
1
0
LINE
5
9E
100
AcDbEntity
8
1
62
256
6
ByLayer
370
18
48
1
60
0
100
AcDbLine
10
41
20
-32.85
30
0
11
42
21
-33.85
31
0
39
0
210
0
220
0
230
1
0
LINE
5
9F
100
AcDbEntity
8
1
62
256
6
ByLayer
370
18
48
1
60
0
100
AcDbLine
10
42
20
33.85
30
0
11
41
21
32.85
31
0
39
0
210
0
220
0
230
1
0
LINE
5
A0
100
AcDbEntity
8
1
62
256
6
ByLayer
370
18
48
1
60
0
100
AcDbLine
10
44.194096
20
33.85
30
0
11
42
21
33.85
31
0
39
0
210
0
220
0
230
1
0
LINE
5
A1
100
AcDbEntity
8
1
62
256
6
ByLayer
370
18
48
1
60
0
100
AcDbLine
10
42
20
-33.85
30
0
11
44.194096
21
-33.85
31
0
39
0
210
0
220
0
230
1
0
LINE
5
A2
100
AcDbEntity
8
1
62
256
6
ByLayer
370
18
48
1
60
0
100
AcDbLine
10
58
20
28
30
0
11
56.266996
21
31.001652
31
0
39
0
210
0
220
0
230
1
0
LINE
5
A3
100
AcDbEntity
8
1
62
256
6
ByLayer
370
18
48
1
60
0
100
AcDbLine
10
56.267004
20
-31.001638
30
0
11
58
21
-28
31
0
39
0
210
0
220
0
230
1
0
LINE
5
A4
100
AcDbEntity
8
SK1
62
256
6
ByLayer
370
18
48
1
60
0
100
AcDbLine
10
-0.8
20
37.632252
30
0
11
-2.066987
21
37.632252
31
0
39
0
210
0
220
0
230
1
0
LINE
5
A6
100
AcDbEntity
8
SK1
62
256
6
ByLayer
370
18
48
1
60
0
100
AcDbLine
10
-2.066987
20
-37.632252
30
0
11
-0.8
21
-37.632252
31
0
39
0
210
0
220
0
230
1
0
LINE
5
A7
100
AcDbEntity
8
SK1
62
256
6
ByLayer
370
18
48
1
60
0
100
AcDbLine
10
-2.066987
20
37.632252
30
0
11
-2.5
21
37.882252
31
0
39
0
210
0
220
0
230
1
0
LINE
5
A8
100
AcDbEntity
8
SK1
62
256
6
ByLayer
370
18
48
1
60
0
100
AcDbLine
10
-2.5
20
-37.882252
30
0
11
-2.066987
21
-37.632252
31
0
39
0
210
0
220
0
230
1
0
LINE
5
A9
100
AcDbEntity
8
SK1
62
256
6
ByLayer
370
18
48
1
60
0
100
AcDbLine
10
-48.000075
20
-35.602689
30
0
11
-2.5
21
-37.882252
31
0
39
0
210
0
220
0
230
1
0
LINE
5
AA
100
AcDbEntity
8
SK1
62
256
6
ByLayer
370
18
48
1
60
0
100
AcDbLine
10
-2.5
20
37.882252
30
0
11
-48.000075
21
35.602689
31
0
39
0
210
0
220
0
230
1
0
LINE
5
AB
100
AcDbEntity
8
1
62
256
6
ByLayer
370
13
48
1
60
0
100
AcDbLine
10
30.15
20
26.375
30
0
11
30.15
21
-26.375
31
0
39
0
210
0
220
0
230
1
0
LINE
5
AC
100
AcDbEntity
8
1
62
256
6
ByLayer
370
18
48
1
60
0
100
AcDbLine
10
28.95
20
-11.021
30
0
11
28.95
21
11.021
31
0
39
0
210
0
220
0
230
1
0
LINE
5
AD
100
AcDbEntity
8
1
62
256
6
ByLayer
370
18
48
1
60
0
100
AcDbLine
10
18.475
20
-11.021
30
0
11
21.525
21
-11.021
31
0
39
0
210
0
220
0
230
1
0
LINE
5
AE
100
AcDbEntity
8
1
62
256
6
ByLayer
370
18
48
1
60
0
100
AcDbLine
10
21.525
20
11.021
30
0
11
18.475
21
11.021
31
0
39
0
210
0
220
0
230
1
0
LINE
5
AF
100
AcDbEntity
8
1
62
256
6
ByLayer
370
13
48
1
60
0
100
AcDbLine
10
21.525
20
-45.975
30
0
11
21.525
21
-11.021
31
0
39
0
210
0
220
0
230
1
0
LINE
5
B0
100
AcDbEntity
8
1
62
256
6
ByLayer
370
13
48
1
60
0
100
AcDbLine
10
18.475
20
45.119582
30
0
11
18.475
21
11.021
31
0
39
0
210
0
220
0
230
1
0
LINE
5
B1
100
AcDbEntity
8
1
62
256
6
ByLayer
370
13
48
1
60
0
100
AcDbLine
10
18.475
20
45.417706
30
0
11
18.475
21
45.975
31
0
39
0
210
0
220
0
230
1
0
LINE
5
B2
100
AcDbEntity
8
1
62
256
6
ByLayer
370
13
48
1
60
0
100
AcDbLine
10
18.475
20
-45.975
30
0
11
18.475
21
-11.021
31
0
39
0
210
0
220
0
230
1
0
LINE
5
B3
100
AcDbEntity
8
1
62
256
6
ByLayer
370
13
48
1
60
0
100
AcDbLine
10
21.525
20
45.417706
30
0
11
21.525
21
45.975
31
0
39
0
210
0
220
0
230
1
0
LINE
5
B4
100
AcDbEntity
8
1
62
256
6
ByLayer
370
13
48
1
60
0
100
AcDbLine
10
21.525
20
45.119582
30
0
11
21.525
21
11.021
31
0
39
0
210
0
220
0
230
1
0
LINE
5
B5
100
AcDbEntity
8
1
62
256
6
ByLayer
370
18
48
1
60
0
100
AcDbLine
10
28.95
20
49.265
30
0
11
28.95
21
11.021
31
0
39
0
210
0
220
0
230
1
0
LINE
5
B6
100
AcDbEntity
8
1
62
256
6
ByLayer
370
18
48
1
60
0
100
AcDbLine
10
18.075
20
-47.684198
30
0
11
18.075
21
-11.021
31
0
39
0
210
0
220
0
230
1
0
LINE
5
B7
100
AcDbEntity
8
1
62
256
6
ByLayer
370
18
48
1
60
0
100
AcDbLine
10
28.95
20
-49.265
30
0
11
28.95
21
-11.021
31
0
39
0
210
0
220
0
230
1
0
LINE
5
B8
100
AcDbEntity
8
1
62
256
6
ByLayer
370
18
48
1
60
0
100
AcDbLine
10
21.925
20
47.684198
30
0
11
21.925
21
11.021
31
0
39
0
210
0
220
0
230
1
0
LINE
5
B9
100
AcDbEntity
8
1
62
256
6
ByLayer
370
18
48
1
60
0
100
AcDbLine
10
28.25
20
11.021
30
0
11
23.241822
21
11.021
31
0
39
0
210
0
220
0
230
1
0
LINE
5
BA
100
AcDbEntity
8
1
62
256
6
ByLayer
370
18
48
1
60
0
100
AcDbLine
10
28.25
20
11.021
30
0
11
28.25
21
49.965
31
0
39
0
210
0
220
0
230
1
0
LINE
5
BB
100
AcDbEntity
8
1
62
256
6
ByLayer
370
18
48
1
60
0
100
AcDbLine
10
23.241822
20
49.965
30
0
11
23.241822
21
11.021
31
0
39
0
210
0
220
0
230
1
0
LINE
5
BC
100
AcDbEntity
8
1
62
256
6
ByLayer
370
18
48
1
60
0
100
AcDbLine
10
18.075
20
47.684198
30
0
11
18.075
21
11.021
31
0
39
0
210
0
220
0
230
1
0
LINE
5
BD
100
AcDbEntity
8
1
62
256
6
ByLayer
370
18
48
1
60
0
100
AcDbLine
10
21.925
20
-47.684198
30
0
11
21.925
21
-11.021
31
0
39
0
210
0
220
0
230
1
0
LINE
5
BE
100
AcDbEntity
8
1
62
256
6
ByLayer
370
18
48
1
60
0
100
AcDbLine
10
23.241822
20
-49.965
30
0
11
23.241822
21
-11.021
31
0
39
0
210
0
220
0
230
1
0
LINE
5
BF
100
AcDbEntity
8
1
62
256
6
ByLayer
370
18
48
1
60
0
100
AcDbLine
10
28.25
20
-11.021
30
0
11
28.25
21
-49.965
31
0
39
0
210
0
220
0
230
1
0
LINE
5
C0
100
AcDbEntity
8
1
62
256
6
ByLayer
370
18
48
1
60
0
100
AcDbLine
10
23.241822
20
-11.021
30
0
11
28.25
21
-11.021
31
0
39
0
210
0
220
0
230
1
0
LINE
5
C1
100
AcDbEntity
8
1
62
256
6
ByLayer
370
18
48
1
60
0
100
AcDbLine
10
4.95
20
1.021
30
0
11
4.95
21
-1.021
31
0
39
0
210
0
220
0
230
1
0
LINE
5
C2
100
AcDbEntity
8
1
62
256
6
ByLayer
370
18
48
1
60
0
100
AcDbLine
10
16.758178
20
-11.021
30
0
11
16.758178
21
-49.965
31
0
39
0
210
0
220
0
230
1
0
LINE
5
C3
100
AcDbEntity
8
1
62
256
6
ByLayer
370
18
48
1
60
0
100
AcDbLine
10
14.95
20
-11.021
30
0
11
16.758178
21
-11.021
31
0
39
0
210
0
220
0
230
1
0
LINE
5
C4
100
AcDbEntity
8
1
62
256
6
ByLayer
370
18
48
1
60
0
100
AcDbLine
10
16.758178
20
11.021
30
0
11
14.95
21
11.021
31
0
39
0
210
0
220
0
230
1
0
LINE
5
C5
100
AcDbEntity
8
1
62
256
6
ByLayer
370
18
48
1
60
0
100
AcDbLine
10
16.758178
20
11.021
30
0
11
16.758178
21
49.965
31
0
39
0
210
0
220
0
230
1
0
LINE
5
C6
100
AcDbEntity
8
1
62
256
6
ByLayer
370
18
48
1
60
0
100
AcDbLine
10
0.7
20
-49.965
30
0
11
0.7
21
0
31
0
39
0
210
0
220
0
230
1
0
LINE
5
C7
100
AcDbEntity
8
1
62
256
6
ByLayer
370
18
48
1
60
0
100
AcDbLine
10
0.7
20
0
30
0
11
0.7
21
49.965
31
0
39
0
210
0
220
0
230
1
0
LINE
5
C8
100
AcDbEntity
8
1
62
256
6
ByLayer
370
18
48
1
60
0
100
AcDbLine
10
0
20
49.265
30
0
11
0
21
0
31
0
39
0
210
0
220
0
230
1
0
LINE
5
C9
100
AcDbEntity
8
1
62
256
6
ByLayer
370
18
48
1
60
0
100
AcDbLine
10
0
20
0
30
0
11
0
21
-49.265
31
0
39
0
210
0
220
0
230
1
0
LINE
5
CA
100
AcDbEntity
8
1
62
256
6
ByLayer
370
18
48
1
60
0
100
AcDbLine
10
47.5
20
33.690054
30
0
11
47.5
21
33.690999
31
0
39
0
210
0
220
0
230
1
0
LINE
5
CB
100
AcDbEntity
8
1
62
256
6
ByLayer
370
18
48
1
60
0
100
AcDbLine
10
47.5
20
-33.690054
30
0
11
47.5
21
-33.690999
31
0
39
0
210
0
220
0
230
1
0
LINE
5
CC
100
AcDbEntity
8
1
62
256
6
ByLayer
370
18
48
1
60
0
100
AcDbLine
10
47.5
20
17.865064
30
0
11
55.979641
21
17.865064
31
0
39
0
210
0
220
0
230
1
0
LINE
5
CD
100
AcDbEntity
8
1
62
256
6
ByLayer
370
18
48
1
60
0
100
AcDbLine
10
47.5
20
-17.865064
30
0
11
55.979641
21
-17.865064
31
0
39
0
210
0
220
0
230
1
0
LINE
5
CE
100
AcDbEntity
8
1
62
256
6
ByLayer
370
13
48
1
60
0
100
AcDbLine
10
54.718723
20
19.433675
30
0
11
47.5
21
19.433675
31
0
39
0
210
0
220
0
230
1
0
LINE
5
CF
100
AcDbEntity
8
1
62
256
6
ByLayer
370
13
48
1
60
0
100
AcDbLine
10
47.5
20
-19.433675
30
0
11
54.718723
21
-19.433675
31
0
39
0
210
0
220
0
230
1
0
LINE
5
D0
100
AcDbEntity
8
1
62
256
6
ByLayer
370
18
48
1
60
0
100
AcDbLine
10
47.5
20
17.318653
30
0
11
56.22693
21
17.318653
31
0
39
0
210
0
220
0
230
1
0
LINE
5
D1
100
AcDbEntity
8
1
62
256
6
ByLayer
370
18
48
1
60
0
100
AcDbLine
10
47.5
20
-17.318653
30
0
11
56.22693
21
-17.318653
31
0
39
0
210
0
220
0
230
1
0
LINE
5
D2
100
AcDbEntity
8
1
62
256
6
ByLayer
370
13
48
1
60
0
100
AcDbLine
10
47.5
20
17.865064
30
0
11
47.5
21
17.318653
31
0
39
0
210
0
220
0
230
1
0
LINE
5
D3
100
AcDbEntity
8
1
62
256
6
ByLayer
370
18
48
1
60
0
100
AcDbLine
10
55.658043
20
13.681347
30
0
11
56.22693
21
13.681347
31
0
39
0
210
0
220
0
230
1
0
LINE
5
D4
100
AcDbEntity
8
1
62
256
6
ByLayer
370
18
48
1
60
0
100
AcDbLine
10
55.658043
20
-13.681347
30
0
11
56.22693
21
-13.681347
31
0
39
0
210
0
220
0
230
1
0
LINE
5
D5
100
AcDbEntity
8
1
62
256
6
ByLayer
370
13
48
1
60
0
100
AcDbLine
10
47.5
20
-17.318653
30
0
11
47.5
21
-17.865064
31
0
39
0
210
0
220
0
230
1
0
LINE
5
D6
100
AcDbEntity
8
1
62
256
6
ByLayer
370
13
48
1
60
0
100
AcDbLine
10
47.5
20
19.433675
30
0
11
47.5
21
17.865064
31
0
39
0
210
0
220
0
230
1
0
LINE
5
D7
100
AcDbEntity
8
1
62
256
6
ByLayer
370
13
48
1
60
0
100
AcDbLine
10
47.5
20
-17.865064
30
0
11
47.5
21
-19.433675
31
0
39
0
210
0
220
0
230
1
0
LINE
5
D8
100
AcDbEntity
8
1
62
256
6
ByLayer
370
13
48
1
60
0
100
AcDbLine
10
47.5
20
19.433675
30
0
11
47.5
21
19.691441
31
0
39
0
210
0
220
0
230
1
0
LINE
5
D9
100
AcDbEntity
8
1
62
256
6
ByLayer
370
13
48
1
60
0
100
AcDbLine
10
47.5
20
14.115903
30
0
11
47.5
21
13.998613
31
0
39
0
210
0
220
0
230
1
0
LINE
5
DA
100
AcDbEntity
8
1
62
256
6
ByLayer
370
13
48
1
60
0
100
AcDbLine
10
47.5
20
-14.115903
30
0
11
47.5
21
-13.998613
31
0
39
0
210
0
220
0
230
1
0
LINE
5
DB
100
AcDbEntity
8
1
62
256
6
ByLayer
370
13
48
1
60
0
100
AcDbLine
10
47.5
20
-19.433675
30
0
11
47.5
21
-19.691441
31
0
39
0
210
0
220
0
230
1
0
LINE
5
DC
100
AcDbEntity
8
1
62
256
6
ByLayer
370
18
48
1
60
0
100
AcDbLine
10
41
20
32.85
30
0
11
41
21
0
31
0
39
0
210
0
220
0
230
1
0
LINE
5
DD
100
AcDbEntity
8
1
62
256
6
ByLayer
370
18
48
1
60
0
100
AcDbLine
10
41
20
0
30
0
11
41
21
-32.85
31
0
39
0
210
0
220
0
230
1
0
LINE
5
DE
100
AcDbEntity
8
1
62
256
6
ByLayer
370
18
48
1
60
0
100
AcDbLine
10
42
20
-33.85
30
0
11
42
21
0
31
0
39
0
210
0
220
0
230
1
0
LINE
5
DF
100
AcDbEntity
8
1
62
256
6
ByLayer
370
18
48
1
60
0
100
AcDbLine
10
42
20
0
30
0
11
42
21
33.85
31
0
39
0
210
0
220
0
230
1
0
LINE
5
E0
100
AcDbEntity
8
1
62
256
6
ByLayer
370
13
48
1
60
0
100
AcDbLine
10
54.622501
20
13.998613
30
0
11
47.5
21
13.998613
31
0
39
0
210
0
220
0
230
1
0
LINE
5
E1
100
AcDbEntity
8
1
62
256
6
ByLayer
370
13
48
1
60
0
100
AcDbLine
10
47.5
20
19.691441
30
0
11
54.622501
21
19.691441
31
0
39
0
210
0
220
0
230
1
0
LINE
5
E2
100
AcDbEntity
8
1
62
256
6
ByLayer
370
13
48
1
60
0
100
AcDbLine
10
54.622501
20
33.690054
30
0
11
47.5
21
33.690054
31
0
39
0
210
0
220
0
230
1
0
LINE
5
E3
100
AcDbEntity
8
1
62
256
6
ByLayer
370
13
48
1
60
0
100
AcDbLine
10
47.5
20
-33.690054
30
0
11
54.622501
21
-33.690054
31
0
39
0
210
0
220
0
230
1
0
LINE
5
E4
100
AcDbEntity
8
1
62
256
6
ByLayer
370
13
48
1
60
0
100
AcDbLine
10
54.622501
20
-19.691441
30
0
11
47.5
21
-19.691441
31
0
39
0
210
0
220
0
230
1
0
LINE
5
E5
100
AcDbEntity
8
1
62
256
6
ByLayer
370
13
48
1
60
0
100
AcDbLine
10
47.5
20
-13.998613
30
0
11
54.622501
21
-13.998613
31
0
39
0
210
0
220
0
230
1
0
LINE
5
E6
100
AcDbEntity
8
1
62
256
6
ByLayer
370
18
48
1
60
0
100
AcDbLine
10
58
20
28
30
0
11
58
21
0
31
0
39
0
210
0
220
0
230
1
0
LINE
5
E7
100
AcDbEntity
8
1
62
256
6
ByLayer
370
18
48
1
60
0
100
AcDbLine
10
58
20
0
30
0
11
58
21
-28
31
0
39
0
210
0
220
0
230
1
0
LINE
5
E8
100
AcDbEntity
8
1
62
256
6
ByLayer
370
18
48
1
60
0
100
AcDbLine
10
54.622501
20
-13.998613
30
0
11
54.622501
21
13.998613
31
0
39
0
210
0
220
0
230
1
0
LINE
5
E9
100
AcDbEntity
8
1
62
256
6
ByLayer
370
18
48
1
60
0
100
AcDbLine
10
54.622501
20
-33.690054
30
0
11
54.622501
21
-19.691441
31
0
39
0
210
0
220
0
230
1
0
LINE
5
EA
100
AcDbEntity
8
1
62
256
6
ByLayer
370
18
48
1
60
0
100
AcDbLine
10
54.622501
20
19.691441
30
0
11
54.622501
21
33.690054
31
0
39
0
210
0
220
0
230
1
0
LINE
5
EB
100
AcDbEntity
8
SK1
62
256
6
ByLayer
370
18
48
1
60
0
100
AcDbLine
10
-39.8
20
8.11
30
0
11
-39.8
21
-8.11
31
0
39
0
210
0
220
0
230
1
0
LINE
5
EC
100
AcDbEntity
8
SK1
62
256
6
ByLayer
370
13
48
1
60
0
100
AcDbLine
10
-36.7
20
17.059224
30
0
11
-36.7
21
19.594371
31
0
39
0
210
0
220
0
230
1
0
LINE
5
ED
100
AcDbEntity
8
SK1
62
256
6
ByLayer
370
13
48
1
60
0
100
AcDbLine
10
-36.7
20
-19.594371
30
0
11
-36.7
21
-17.059224
31
0
39
0
210
0
220
0
230
1
0
LINE
5
EE
100
AcDbEntity
8
SK1
62
256
6
ByLayer
370
18
48
1
60
0
100
AcDbLine
10
-49.9
20
-11.66
30
0
11
-48.20375
21
-9.96375
31
0
39
0
210
0
220
0
230
1
0
LINE
5
EF
100
AcDbEntity
8
SK1
62
256
6
ByLayer
370
18
48
1
60
0
100
AcDbLine
10
-49.9
20
-11.66
30
0
11
-49.9
21
-14.192093
31
0
39
0
210
0
220
0
230
1
0
LINE
5
F0
100
AcDbEntity
8
SK1
62
256
6
ByLayer
370
13
48
1
60
0
100
AcDbLine
10
-49.680346
20
-16.388863
30
0
11
-48.810766
21
-16.783644
31
0
39
0
210
0
220
0
230
1
0
LINE
5
F1
100
AcDbEntity
8
SK1
62
256
6
ByLayer
370
13
48
1
60
0
100
AcDbLine
10
-36.7
20
-17.059224
30
0
11
-40.216558
21
-17.059224
31
0
39
0
210
0
220
0
230
1
0
LINE
5
F2
100
AcDbEntity
8
SK1
62
256
6
ByLayer
370
18
48
1
60
0
100
AcDbLine
10
-36.7
20
-9.96375
30
0
11
-48.20375
21
-9.96375
31
0
39
0
210
0
220
0
230
1
0
LINE
5
F3
100
AcDbEntity
8
SK1
62
256
6
ByLayer
370
18
48
1
60
0
100
AcDbLine
10
-48.20375
20
-15.101921
30
0
11
-48.20375
21
-9.96375
31
0
39
0
210
0
220
0
230
1
0
LINE
5
F4
100
AcDbEntity
8
SK1
62
256
6
ByLayer
370
18
48
1
60
0
100
AcDbLine
10
-49.9
20
-14.192093
30
0
11
-49.9
21
-33.605194
31
0
39
0
210
0
220
0
230
1
0
LINE
5
F5
100
AcDbEntity
8
SK1
62
256
6
ByLayer
370
13
48
1
60
0
100
AcDbLine
10
-49.680346
20
16.388863
30
0
11
-48.810766
21
16.783644
31
0
39
0
210
0
220
0
230
1
0
LINE
5
F6
100
AcDbEntity
8
SK1
62
256
6
ByLayer
370
18
48
1
60
0
100
AcDbLine
10
-49.9
20
11.66
30
0
11
-49.9
21
14.192093
31
0
39
0
210
0
220
0
230
1
0
LINE
5
F7
100
AcDbEntity
8
SK1
62
256
6
ByLayer
370
18
48
1
60
0
100
AcDbLine
10
-49.9
20
11.66
30
0
11
-48.20375
21
9.96375
31
0
39
0
210
0
220
0
230
1
0
LINE
5
F8
100
AcDbEntity
8
SK1
62
256
6
ByLayer
370
18
48
1
60
0
100
AcDbLine
10
-48.20375
20
15.101921
30
0
11
-48.20375
21
9.96375
31
0
39
0
210
0
220
0
230
1
0
LINE
5
F9
100
AcDbEntity
8
SK1
62
256
6
ByLayer
370
18
48
1
60
0
100
AcDbLine
10
-36.7
20
9.96375
30
0
11
-48.20375
21
9.96375
31
0
39
0
210
0
220
0
230
1
0
LINE
5
FA
100
AcDbEntity
8
SK1
62
256
6
ByLayer
370
13
48
1
60
0
100
AcDbLine
10
-36.7
20
17.059224
30
0
11
-40.216558
21
17.059224
31
0
39
0
210
0
220
0
230
1
0
LINE
5
FB
100
AcDbEntity
8
SK1
62
256
6
ByLayer
370
18
48
1
60
0
100
AcDbLine
10
-49.9
20
33.605194
30
0
11
-49.9
21
14.192093
31
0
39
0
210
0
220
0
230
1
0
LINE
5
FC
100
AcDbEntity
8
SK1
62
256
6
ByLayer
370
13
48
1
60
0
100
AcDbLine
10
-36.7
20
9.96375
30
0
11
-36.7
21
17.059224
31
0
39
0
210
0
220
0
230
1
0
LINE
5
FD
100
AcDbEntity
8
SK1
62
256
6
ByLayer
370
13
48
1
60
0
100
AcDbLine
10
-36.7
20
-17.059224
30
0
11
-36.7
21
-9.96375
31
0
39
0
210
0
220
0
230
1
0
LINE
5
FE
100
AcDbEntity
8
SK1
62
256
6
ByLayer
370
18
48
1
60
0
100
AcDbLine
10
-2.066987
20
37.632252
30
0
11
-2.066987
21
0
31
0
39
0
210
0
220
0
230
1
0
LINE
5
FF
100
AcDbEntity
8
SK1
62
256
6
ByLayer
370
18
48
1
60
0
100
AcDbLine
10
-2.066987
20
0
30
0
11
-2.066987
21
-37.632252
31
0
39
0
210
0
220
0
230
1
0
LINE
5
100
100
AcDbEntity
8
SK1
62
256
6
ByLayer
370
13
48
1
60
0
100
AcDbLine
10
-0.8
20
37.632252
30
0
11
-0.8
21
0
31
0
39
0
210
0
220
0
230
1
0
LINE
5
101
100
AcDbEntity
8
SK1
62
256
6
ByLayer
370
13
48
1
60
0
100
AcDbLine
10
-0.8
20
0
30
0
11
-0.8
21
-37.632252
31
0
39
0
210
0
220
0
230
1
0
LINE
5
102
100
AcDbEntity
8
SK1
62
256
6
ByLayer
370
18
48
1
60
0
100
AcDbLine
10
-2.5
20
-37.882252
30
0
11
-2.5
21
0
31
0
39
0
210
0
220
0
230
1
0
LINE
5
103
100
AcDbEntity
8
SK1
62
256
6
ByLayer
370
18
48
1
60
0
100
AcDbLine
10
-2.5
20
0
30
0
11
-2.5
21
37.882252
31
0
39
0
210
0
220
0
230
1
0
LINE
5
104
100
AcDbEntity
8
SK1
62
256
6
ByLayer
370
13
48
1
60
0
100
AcDbLine
10
-48.000075
20
15.157562
30
0
11
-48.000075
21
35.602689
31
0
39
0
210
0
220
0
230
1
0
LINE
5
105
100
AcDbEntity
8
SK1
62
256
6
ByLayer
370
18
48
1
60
0
100
AcDbLine
10
-34.8
20
12.976493
30
0
11
-34.8
21
-12.976493
31
0
39
0
210
0
220
0
230
1
0
LINE
5
106
100
AcDbEntity
8
SK1
62
256
6
ByLayer
370
13
48
1
60
0
100
AcDbLine
10
-48.000075
20
-35.602689
30
0
11
-48.000075
21
-15.157562
31
0
39
0
210
0
220
0
230
1
0
LINE
5
107
100
AcDbEntity
8
1
62
256
6
ByLayer
370
13
48
0.05
60
0
100
AcDbLine
10
12
20
0
30
0
11
28
21
0
31
0
39
0
210
0
220
0
230
1
0
LINE
5
108
100
AcDbEntity
8
1
62
256
6
ByLayer
370
13
48
0.05
60
0
100
AcDbLine
10
20
20
-8
30
0
11
20
21
8
31
0
39
0
210
0
220
0
230
1
0
LINE
5
109
100
AcDbEntity
8
1
62
256
6
ByLayer
370
13
48
0.05
60
0
100
AcDbLine
10
-26
20
0
30
0
11
-4
21
0
31
0
39
0
210
0
220
0
230
1
0
LINE
5
10A
100
AcDbEntity
8
1
62
256
6
ByLayer
370
13
48
0.05
60
0
100
AcDbLine
10
-15
20
-11
30
0
11
-15
21
11
31
0
39
0
210
0
220
0
230
1
0
LINE
5
10B
100
AcDbEntity
8
SK2
62
256
6
ByLayer
370
18
48
1
60
0
100
AcDbLine
10
-76.875
20
-49.965
30
0
11
-76.875
21
49.965
31
0
39
0
210
0
220
0
230
1
0
LINE
5
10D
100
AcDbEntity
8
SK2
62
256
6
ByLayer
370
18
48
1
60
0
100
AcDbLine
10
-0.8875
20
49.965
30
0
11
-78.875
21
49.965
31
0
39
0
210
0
220
0
230
1
0
LINE
5
10E
100
AcDbEntity
8
SK2
62
256
6
ByLayer
370
18
48
1
60
0
100
AcDbLine
10
-0.8875
20
-49.965
30
0
11
-78.875
21
-49.965
31
0
39
0
210
0
220
0
230
1
0
LINE
5
10F
100
AcDbEntity
8
1
62
256
6
ByLayer
370
18
48
1
60
1
100
AcDbLine
10
-76.875
20
49.965
30
0
11
-76.414216
21
46.465002
31
0
39
0
210
0
220
0
230
1
0
LINE
5
110
100
AcDbEntity
8
1
62
256
6
ByLayer
370
18
48
1
60
1
100
AcDbLine
10
-76.414216
20
46.465002
30
0
11
-77.335784
21
46.464998
31
0
39
0
210
0
220
0
230
1
0
LINE
5
111
100
AcDbEntity
8
1
62
256
6
ByLayer
370
18
48
1
60
1
100
AcDbLine
10
-77.335784
20
46.464998
30
0
11
-76.875
21
49.965
31
0
39
0
210
0
220
0
230
1
0
LINE
5
112
100
AcDbEntity
8
1
62
256
6
ByLayer
370
18
48
1
60
1
100
AcDbLine
10
-76.875
20
-49.965
30
0
11
-77.335784
21
-46.465002
31
0
39
0
210
0
220
0
230
1
0
LINE
5
113
100
AcDbEntity
8
1
62
256
6
ByLayer
370
18
48
1
60
1
100
AcDbLine
10
-77.335784
20
-46.465002
30
0
11
-76.414216
21
-46.464998
31
0
39
0
210
0
220
0
230
1
0
LINE
5
114
100
AcDbEntity
8
1
62
256
6
ByLayer
370
18
48
1
60
1
100
AcDbLine
10
-76.414216
20
-46.464998
30
0
11
-76.875
21
-49.965
31
0
39
0
210
0
220
0
230
1
0
LINE
5
115
100
AcDbEntity
8
SK2
62
256
6
ByLayer
370
13
48
1
60
0
100
AcDbLine
10
83.725
20
-33.85
30
0
11
83.725
21
33.85
31
0
39
0
210
0
220
0
230
1
0
LINE
5
116
100
AcDbEntity
8
SK2
62
256
6
ByLayer
370
13
48
1
60
0
100
AcDbLine
10
43.5875
20
33.85
30
0
11
85.725
21
33.85
31
0
39
0
210
0
220
0
230
1
0
LINE
5
117
100
AcDbEntity
8
SK2
62
256
6
ByLayer
370
13
48
1
60
0
100
AcDbLine
10
43.5875
20
-33.85
30
0
11
85.725
21
-33.85
31
0
39
0
210
0
220
0
230
1
0
LINE
5
118
100
AcDbEntity
8
1
62
256
6
ByLayer
370
18
48
1
60
1
100
AcDbLine
10
83.725
20
33.85
30
0
11
84.185784
21
30.350002
31
0
39
0
210
0
220
0
230
1
0
LINE
5
119
100
AcDbEntity
8
1
62
256
6
ByLayer
370
18
48
1
60
1
100
AcDbLine
10
84.185784
20
30.350002
30
0
11
83.264216
21
30.349998
31
0
39
0
210
0
220
0
230
1
0
LINE
5
11A
100
AcDbEntity
8
1
62
256
6
ByLayer
370
18
48
1
60
1
100
AcDbLine
10
83.264216
20
30.349998
30
0
11
83.725
21
33.85
31
0
39
0
210
0
220
0
230
1
0
LINE
5
11B
100
AcDbEntity
8
1
62
256
6
ByLayer
370
18
48
1
60
1
100
AcDbLine
10
83.725
20
-33.85
30
0
11
83.264216
21
-30.350002
31
0
39
0
210
0
220
0
230
1
0
LINE
5
11C
100
AcDbEntity
8
1
62
256
6
ByLayer
370
18
48
1
60
1
100
AcDbLine
10
83.264216
20
-30.350002
30
0
11
84.185784
21
-30.349998
31
0
39
0
210
0
220
0
230
1
0
LINE
5
11D
100
AcDbEntity
8
1
62
256
6
ByLayer
370
18
48
1
60
1
100
AcDbLine
10
84.185784
20
-30.349998
30
0
11
83.725
21
-33.85
31
0
39
0
210
0
220
0
230
1
0
LINE
5
11E
100
AcDbEntity
8
SK2
62
256
6
ByLayer
370
18
48
1
60
0
100
AcDbLine
10
-49.9
20
73.167689
30
0
11
0
21
73.167689
31
0
39
0
210
0
220
0
230
1
0
LINE
5
11F
100
AcDbEntity
8
SK2
62
256
6
ByLayer
370
18
48
1
60
0
100
AcDbLine
10
0
20
50.8525
30
0
11
0
21
75.167689
31
0
39
0
210
0
220
0
230
1
0
LINE
5
120
100
AcDbEntity
8
SK2
62
256
6
ByLayer
370
18
48
1
60
0
100
AcDbLine
10
-49.9
20
35.192694
30
0
11
-49.9
21
75.167689
31
0
39
0
210
0
220
0
230
1
0
LINE
5
121
100
AcDbEntity
8
1
62
256
6
ByLayer
370
18
48
1
60
1
100
AcDbLine
10
0
20
73.167689
30
0
11
-3.499998
21
72.706905
31
0
39
0
210
0
220
0
230
1
0
LINE
5
122
100
AcDbEntity
8
1
62
256
6
ByLayer
370
18
48
1
60
1
100
AcDbLine
10
-3.499998
20
72.706905
30
0
11
-3.500002
21
73.628472
31
0
39
0
210
0
220
0
230
1
0
LINE
5
123
100
AcDbEntity
8
1
62
256
6
ByLayer
370
18
48
1
60
1
100
AcDbLine
10
-3.500002
20
73.628472
30
0
11
0
21
73.167689
31
0
39
0
210
0
220
0
230
1
0
LINE
5
124
100
AcDbEntity
8
1
62
256
6
ByLayer
370
18
48
1
60
1
100
AcDbLine
10
-49.9
20
73.167689
30
0
11
-46.400002
21
73.628472
31
0
39
0
210
0
220
0
230
1
0
LINE
5
125
100
AcDbEntity
8
1
62
256
6
ByLayer
370
18
48
1
60
1
100
AcDbLine
10
-46.400002
20
73.628472
30
0
11
-46.399998
21
72.706905
31
0
39
0
210
0
220
0
230
1
0
LINE
5
126
100
AcDbEntity
8
1
62
256
6
ByLayer
370
18
48
1
60
1
100
AcDbLine
10
-46.399998
20
72.706905
30
0
11
-49.9
21
73.167689
31
0
39
0
210
0
220
0
230
1
0
LINE
5
127
100
AcDbEntity
8
SK2
62
256
6
ByLayer
370
18
48
1
60
0
100
AcDbLine
10
0
20
93.167689
30
0
11
58
21
93.167689
31
0
39
0
210
0
220
0
230
1
0
LINE
5
128
100
AcDbEntity
8
SK2
62
256
6
ByLayer
370
18
48
1
60
0
100
AcDbLine
10
58
20
29.5875
30
0
11
58
21
95.167689
31
0
39
0
210
0
220
0
230
1
0
LINE
5
129
100
AcDbEntity
8
SK2
62
256
6
ByLayer
370
18
48
1
60
0
100
AcDbLine
10
0
20
50.8525
30
0
11
0
21
95.167689
31
0
39
0
210
0
220
0
230
1
0
LINE
5
12A
100
AcDbEntity
8
1
62
256
6
ByLayer
370
18
48
1
60
1
100
AcDbLine
10
58
20
93.167689
30
0
11
54.500002
21
92.706905
31
0
39
0
210
0
220
0
230
1
0
LINE
5
12B
100
AcDbEntity
8
1
62
256
6
ByLayer
370
18
48
1
60
1
100
AcDbLine
10
54.500002
20
92.706905
30
0
11
54.499998
21
93.628472
31
0
39
0
210
0
220
0
230
1
0
LINE
5
12C
100
AcDbEntity
8
1
62
256
6
ByLayer
370
18
48
1
60
1
100
AcDbLine
10
54.499998
20
93.628472
30
0
11
58
21
93.167689
31
0
39
0
210
0
220
0
230
1
0
LINE
5
12D
100
AcDbEntity
8
1
62
256
6
ByLayer
370
18
48
1
60
1
100
AcDbLine
10
0
20
93.167689
30
0
11
3.499998
21
93.628472
31
0
39
0
210
0
220
0
230
1
0
LINE
5
12E
100
AcDbEntity
8
1
62
256
6
ByLayer
370
18
48
1
60
1
100
AcDbLine
10
3.499998
20
93.628472
30
0
11
3.500002
21
92.706905
31
0
39
0
210
0
220
0
230
1
0
LINE
5
12F
100
AcDbEntity
8
1
62
256
6
ByLayer
370
18
48
1
60
1
100
AcDbLine
10
3.500002
20
92.706905
30
0
11
0
21
93.167689
31
0
39
0
210
0
220
0
230
1
0
LINE
5
130
100
AcDbEntity
8
SK2
62
256
6
ByLayer
370
18
48
1
60
0
100
AcDbLine
10
0
20
83.167689
30
0
11
41
21
83.167689
31
0
39
0
210
0
220
0
230
1
0
LINE
5
131
100
AcDbEntity
8
SK2
62
256
6
ByLayer
370
18
48
1
60
0
100
AcDbLine
10
41
20
34.4375
30
0
11
41
21
85.167689
31
0
39
0
210
0
220
0
230
1
0
LINE
5
132
100
AcDbEntity
8
SK2
62
256
6
ByLayer
370
18
48
1
60
0
100
AcDbLine
10
0
20
50.8525
30
0
11
0
21
85.167689
31
0
39
0
210
0
220
0
230
1
0
LINE
5
133
100
AcDbEntity
8
1
62
256
6
ByLayer
370
18
48
1
60
1
100
AcDbLine
10
41
20
83.167689
30
0
11
37.500002
21
82.706905
31
0
39
0
210
0
220
0
230
1
0
LINE
5
134
100
AcDbEntity
8
1
62
256
6
ByLayer
370
18
48
1
60
1
100
AcDbLine
10
37.500002
20
82.706905
30
0
11
37.499998
21
83.628472
31
0
39
0
210
0
220
0
230
1
0
LINE
5
135
100
AcDbEntity
8
1
62
256
6
ByLayer
370
18
48
1
60
1
100
AcDbLine
10
37.499998
20
83.628472
30
0
11
41
21
83.167689
31
0
39
0
210
0
220
0
230
1
0
LINE
5
136
100
AcDbEntity
8
1
62
256
6
ByLayer
370
18
48
1
60
1
100
AcDbLine
10
0
20
83.167689
30
0
11
3.499998
21
83.628472
31
0
39
0
210
0
220
0
230
1
0
LINE
5
137
100
AcDbEntity
8
1
62
256
6
ByLayer
370
18
48
1
60
1
100
AcDbLine
10
3.499998
20
83.628472
30
0
11
3.500002
21
82.706905
31
0
39
0
210
0
220
0
230
1
0
LINE
5
138
100
AcDbEntity
8
1
62
256
6
ByLayer
370
18
48
1
60
1
100
AcDbLine
10
3.500002
20
82.706905
30
0
11
0
21
83.167689
31
0
39
0
210
0
220
0
230
1
0
LINE
5
139
100
AcDbEntity
8
SK2
62
256
6
ByLayer
370
18
48
1
60
0
100
AcDbLine
10
58
20
73.167689
30
0
11
41
21
73.167689
31
0
39
0
210
0
220
0
230
1
0
LINE
5
13A
100
AcDbEntity
8
SK2
62
256
6
ByLayer
370
18
48
1
60
0
100
AcDbLine
10
41
20
34.4375
30
0
11
41
21
75.167689
31
0
39
0
210
0
220
0
230
1
0
LINE
5
13B
100
AcDbEntity
8
SK2
62
256
6
ByLayer
370
18
48
1
60
0
100
AcDbLine
10
58
20
29.5875
30
0
11
58
21
75.167689
31
0
39
0
210
0
220
0
230
1
0
LINE
5
13C
100
AcDbEntity
8
1
62
256
6
ByLayer
370
18
48
1
60
1
100
AcDbLine
10
41
20
73.167689
30
0
11
44.499998
21
73.628472
31
0
39
0
210
0
220
0
230
1
0
LINE
5
13D
100
AcDbEntity
8
1
62
256
6
ByLayer
370
18
48
1
60
1
100
AcDbLine
10
44.499998
20
73.628472
30
0
11
44.500002
21
72.706905
31
0
39
0
210
0
220
0
230
1
0
LINE
5
13E
100
AcDbEntity
8
1
62
256
6
ByLayer
370
18
48
1
60
1
100
AcDbLine
10
44.500002
20
72.706905
30
0
11
41
21
73.167689
31
0
39
0
210
0
220
0
230
1
0
LINE
5
13F
100
AcDbEntity
8
1
62
256
6
ByLayer
370
18
48
1
60
1
100
AcDbLine
10
58
20
73.167689
30
0
11
54.500002
21
72.706905
31
0
39
0
210
0
220
0
230
1
0
LINE
5
140
100
AcDbEntity
8
1
62
256
6
ByLayer
370
18
48
1
60
1
100
AcDbLine
10
54.500002
20
72.706905
30
0
11
54.499998
21
73.628472
31
0
39
0
210
0
220
0
230
1
0
LINE
5
141
100
AcDbEntity
8
1
62
256
6
ByLayer
370
18
48
1
60
1
100
AcDbLine
10
54.499998
20
73.628472
30
0
11
58
21
73.167689
31
0
39
0
210
0
220
0
230
1
0
LINE
5
142
100
AcDbEntity
8
2
62
256
6
ByLayer
370
18
48
1
60
0
100
AcDbLine
10
0
20
-69.900089
30
0
11
48
21
-69.900089
31
0
39
0
210
0
220
0
230
1
0
LINE
5
143
100
AcDbEntity
8
2
62
256
6
ByLayer
370
18
48
1
60
0
100
AcDbLine
10
48
20
-1.5875
30
0
11
48
21
-71.900089
31
0
39
0
210
0
220
0
230
1
0
LINE
5
144
100
AcDbEntity
8
2
62
256
6
ByLayer
370
18
48
1
60
0
100
AcDbLine
10
0
20
-50.8525
30
0
11
0
21
-71.900089
31
0
39
0
210
0
220
0
230
1
0
LINE
5
145
100
AcDbEntity
8
1
62
256
6
ByLayer
370
18
48
1
60
1
100
AcDbLine
10
48
20
-69.900089
30
0
11
44.500002
21
-70.360873
31
0
39
0
210
0
220
0
230
1
0
LINE
5
146
100
AcDbEntity
8
1
62
256
6
ByLayer
370
18
48
1
60
1
100
AcDbLine
10
44.500002
20
-70.360873
30
0
11
44.499998
21
-69.439305
31
0
39
0
210
0
220
0
230
1
0
LINE
5
147
100
AcDbEntity
8
1
62
256
6
ByLayer
370
18
48
1
60
1
100
AcDbLine
10
44.499998
20
-69.439305
30
0
11
48
21
-69.900089
31
0
39
0
210
0
220
0
230
1
0
LINE
5
148
100
AcDbEntity
8
1
62
256
6
ByLayer
370
18
48
1
60
1
100
AcDbLine
10
0
20
-69.900089
30
0
11
3.499998
21
-69.439305
31
0
39
0
210
0
220
0
230
1
0
LINE
5
149
100
AcDbEntity
8
1
62
256
6
ByLayer
370
18
48
1
60
1
100
AcDbLine
10
3.499998
20
-69.439305
30
0
11
3.500002
21
-70.360873
31
0
39
0
210
0
220
0
230
1
0
LINE
5
14A
100
AcDbEntity
8
1
62
256
6
ByLayer
370
18
48
1
60
1
100
AcDbLine
10
3.500002
20
-70.360873
30
0
11
0
21
-69.900089
31
0
39
0
210
0
220
0
230
1
0
LINE
5
1A2
100
AcDbEntity
8
1
62
256
6
ByLayer
370
13
48
0.05
60
0
100
AcDbLine
10
20
20
52.422472
30
0
11
20
21
36.200875
31
0
39
0
210
0
220
0
230
1
0
LINE
5
1A3
100
AcDbEntity
8
1
62
256
6
ByLayer
370
13
48
0.05
60
0
100
AcDbLine
10
-54.75
20
0
30
0
11
47.890673
21
0
31
0
39
0
210
0
220
0
230
1
0
LINE
5
1A4
100
AcDbEntity
8
1
62
256
6
ByLayer
370
13
48
0.05
60
0
100
AcDbLine
10
64.5
20
0
30
0
11
34.5
21
0
31
0
39
0
210
0
220
0
230
1
0
LINE
5
1A9
100
AcDbEntity
8
1
62
256
6
ByLayer
370
18
48
1
60
1
100
AcDbLine
10
-76.875
20
49.965
30
0
11
-76.414216
21
46.465002
31
0
39
0
210
0
220
0
230
1
0
LINE
5
1AA
100
AcDbEntity
8
1
62
256
6
ByLayer
370
18
48
1
60
1
100
AcDbLine
10
-76.414216
20
46.465002
30
0
11
-77.335784
21
46.464998
31
0
39
0
210
0
220
0
230
1
0
LINE
5
1AB
100
AcDbEntity
8
1
62
256
6
ByLayer
370
18
48
1
60
1
100
AcDbLine
10
-77.335784
20
46.464998
30
0
11
-76.875
21
49.965
31
0
39
0
210
0
220
0
230
1
0
LINE
5
1AD
100
AcDbEntity
8
1
62
256
6
ByLayer
370
18
48
1
60
1
100
AcDbLine
10
-76.875
20
-49.965
30
0
11
-77.335784
21
-46.465002
31
0
39
0
210
0
220
0
230
1
0
LINE
5
1AE
100
AcDbEntity
8
1
62
256
6
ByLayer
370
18
48
1
60
1
100
AcDbLine
10
-77.335784
20
-46.465002
30
0
11
-76.414216
21
-46.464998
31
0
39
0
210
0
220
0
230
1
0
LINE
5
1AF
100
AcDbEntity
8
1
62
256
6
ByLayer
370
18
48
1
60
1
100
AcDbLine
10
-76.414216
20
-46.464998
30
0
11
-76.875
21
-49.965
31
0
39
0
210
0
220
0
230
1
0
LINE
5
1B3
100
AcDbEntity
8
1
62
256
6
ByLayer
370
18
48
1
60
1
100
AcDbLine
10
83.725
20
33.85
30
0
11
84.185784
21
30.350002
31
0
39
0
210
0
220
0
230
1
0
LINE
5
1B4
100
AcDbEntity
8
1
62
256
6
ByLayer
370
18
48
1
60
1
100
AcDbLine
10
84.185784
20
30.350002
30
0
11
83.264216
21
30.349998
31
0
39
0
210
0
220
0
230
1
0
LINE
5
1B5
100
AcDbEntity
8
1
62
256
6
ByLayer
370
18
48
1
60
1
100
AcDbLine
10
83.264216
20
30.349998
30
0
11
83.725
21
33.85
31
0
39
0
210
0
220
0
230
1
0
LINE
5
1B7
100
AcDbEntity
8
1
62
256
6
ByLayer
370
18
48
1
60
1
100
AcDbLine
10
83.725
20
-33.85
30
0
11
83.264216
21
-30.350002
31
0
39
0
210
0
220
0
230
1
0
LINE
5
1B8
100
AcDbEntity
8
1
62
256
6
ByLayer
370
18
48
1
60
1
100
AcDbLine
10
83.264216
20
-30.350002
30
0
11
84.185784
21
-30.349998
31
0
39
0
210
0
220
0
230
1
0
LINE
5
1B9
100
AcDbEntity
8
1
62
256
6
ByLayer
370
18
48
1
60
1
100
AcDbLine
10
84.185784
20
-30.349998
30
0
11
83.725
21
-33.85
31
0
39
0
210
0
220
0
230
1
0
LINE
5
1BC
100
AcDbEntity
8
1
62
256
6
ByLayer
370
18
48
1
60
1
100
AcDbLine
10
0
20
73.167689
30
0
11
-3.499998
21
72.706905
31
0
39
0
210
0
220
0
230
1
0
LINE
5
1BD
100
AcDbEntity
8
1
62
256
6
ByLayer
370
18
48
1
60
1
100
AcDbLine
10
-3.499998
20
72.706905
30
0
11
-3.500002
21
73.628472
31
0
39
0
210
0
220
0
230
1
0
LINE
5
1BE
100
AcDbEntity
8
1
62
256
6
ByLayer
370
18
48
1
60
1
100
AcDbLine
10
-3.500002
20
73.628472
30
0
11
0
21
73.167689
31
0
39
0
210
0
220
0
230
1
0
LINE
5
1C0
100
AcDbEntity
8
1
62
256
6
ByLayer
370
18
48
1
60
1
100
AcDbLine
10
-49.9
20
73.167689
30
0
11
-46.400002
21
73.628472
31
0
39
0
210
0
220
0
230
1
0
LINE
5
1C1
100
AcDbEntity
8
1
62
256
6
ByLayer
370
18
48
1
60
1
100
AcDbLine
10
-46.400002
20
73.628472
30
0
11
-46.399998
21
72.706905
31
0
39
0
210
0
220
0
230
1
0
LINE
5
1C2
100
AcDbEntity
8
1
62
256
6
ByLayer
370
18
48
1
60
1
100
AcDbLine
10
-46.399998
20
72.706905
30
0
11
-49.9
21
73.167689
31
0
39
0
210
0
220
0
230
1
0
LINE
5
1C5
100
AcDbEntity
8
1
62
256
6
ByLayer
370
18
48
1
60
1
100
AcDbLine
10
58
20
93.167689
30
0
11
54.500002
21
92.706905
31
0
39
0
210
0
220
0
230
1
0
LINE
5
1C6
100
AcDbEntity
8
1
62
256
6
ByLayer
370
18
48
1
60
1
100
AcDbLine
10
54.500002
20
92.706905
30
0
11
54.499998
21
93.628472
31
0
39
0
210
0
220
0
230
1
0
LINE
5
1C7
100
AcDbEntity
8
1
62
256
6
ByLayer
370
18
48
1
60
1
100
AcDbLine
10
54.499998
20
93.628472
30
0
11
58
21
93.167689
31
0
39
0
210
0
220
0
230
1
0
LINE
5
1C9
100
AcDbEntity
8
1
62
256
6
ByLayer
370
18
48
1
60
1
100
AcDbLine
10
0
20
93.167689
30
0
11
3.499998
21
93.628472
31
0
39
0
210
0
220
0
230
1
0
LINE
5
1CA
100
AcDbEntity
8
1
62
256
6
ByLayer
370
18
48
1
60
1
100
AcDbLine
10
3.499998
20
93.628472
30
0
11
3.500002
21
92.706905
31
0
39
0
210
0
220
0
230
1
0
LINE
5
1CB
100
AcDbEntity
8
1
62
256
6
ByLayer
370
18
48
1
60
1
100
AcDbLine
10
3.500002
20
92.706905
30
0
11
0
21
93.167689
31
0
39
0
210
0
220
0
230
1
0
LINE
5
1CE
100
AcDbEntity
8
1
62
256
6
ByLayer
370
18
48
1
60
1
100
AcDbLine
10
41
20
83.167689
30
0
11
37.500002
21
82.706905
31
0
39
0
210
0
220
0
230
1
0
LINE
5
1CF
100
AcDbEntity
8
1
62
256
6
ByLayer
370
18
48
1
60
1
100
AcDbLine
10
37.500002
20
82.706905
30
0
11
37.499998
21
83.628472
31
0
39
0
210
0
220
0
230
1
0
LINE
5
1D0
100
AcDbEntity
8
1
62
256
6
ByLayer
370
18
48
1
60
1
100
AcDbLine
10
37.499998
20
83.628472
30
0
11
41
21
83.167689
31
0
39
0
210
0
220
0
230
1
0
LINE
5
1D2
100
AcDbEntity
8
1
62
256
6
ByLayer
370
18
48
1
60
1
100
AcDbLine
10
0
20
83.167689
30
0
11
3.499998
21
83.628472
31
0
39
0
210
0
220
0
230
1
0
LINE
5
1D3
100
AcDbEntity
8
1
62
256
6
ByLayer
370
18
48
1
60
1
100
AcDbLine
10
3.499998
20
83.628472
30
0
11
3.500002
21
82.706905
31
0
39
0
210
0
220
0
230
1
0
LINE
5
1D4
100
AcDbEntity
8
1
62
256
6
ByLayer
370
18
48
1
60
1
100
AcDbLine
10
3.500002
20
82.706905
30
0
11
0
21
83.167689
31
0
39
0
210
0
220
0
230
1
0
LINE
5
1D7
100
AcDbEntity
8
1
62
256
6
ByLayer
370
18
48
1
60
1
100
AcDbLine
10
41
20
73.167689
30
0
11
44.499998
21
73.628472
31
0
39
0
210
0
220
0
230
1
0
LINE
5
1D8
100
AcDbEntity
8
1
62
256
6
ByLayer
370
18
48
1
60
1
100
AcDbLine
10
44.499998
20
73.628472
30
0
11
44.500002
21
72.706905
31
0
39
0
210
0
220
0
230
1
0
LINE
5
1D9
100
AcDbEntity
8
1
62
256
6
ByLayer
370
18
48
1
60
1
100
AcDbLine
10
44.500002
20
72.706905
30
0
11
41
21
73.167689
31
0
39
0
210
0
220
0
230
1
0
LINE
5
1DB
100
AcDbEntity
8
1
62
256
6
ByLayer
370
18
48
1
60
1
100
AcDbLine
10
58
20
73.167689
30
0
11
54.500002
21
72.706905
31
0
39
0
210
0
220
0
230
1
0
LINE
5
1DC
100
AcDbEntity
8
1
62
256
6
ByLayer
370
18
48
1
60
1
100
AcDbLine
10
54.500002
20
72.706905
30
0
11
54.499998
21
73.628472
31
0
39
0
210
0
220
0
230
1
0
LINE
5
1DD
100
AcDbEntity
8
1
62
256
6
ByLayer
370
18
48
1
60
1
100
AcDbLine
10
54.499998
20
73.628472
30
0
11
58
21
73.167689
31
0
39
0
210
0
220
0
230
1
0
LINE
5
1E0
100
AcDbEntity
8
1
62
256
6
ByLayer
370
18
48
1
60
1
100
AcDbLine
10
48
20
-69.900089
30
0
11
44.500002
21
-70.360873
31
0
39
0
210
0
220
0
230
1
0
LINE
5
1E1
100
AcDbEntity
8
1
62
256
6
ByLayer
370
18
48
1
60
1
100
AcDbLine
10
44.500002
20
-70.360873
30
0
11
44.499998
21
-69.439305
31
0
39
0
210
0
220
0
230
1
0
LINE
5
1E2
100
AcDbEntity
8
1
62
256
6
ByLayer
370
18
48
1
60
1
100
AcDbLine
10
44.499998
20
-69.439305
30
0
11
48
21
-69.900089
31
0
39
0
210
0
220
0
230
1
0
LINE
5
1E4
100
AcDbEntity
8
1
62
256
6
ByLayer
370
18
48
1
60
1
100
AcDbLine
10
0
20
-69.900089
30
0
11
3.499998
21
-69.439305
31
0
39
0
210
0
220
0
230
1
0
LINE
5
1E5
100
AcDbEntity
8
1
62
256
6
ByLayer
370
18
48
1
60
1
100
AcDbLine
10
3.499998
20
-69.439305
30
0
11
3.500002
21
-70.360873
31
0
39
0
210
0
220
0
230
1
0
LINE
5
1E6
100
AcDbEntity
8
1
62
256
6
ByLayer
370
18
48
1
60
1
100
AcDbLine
10
3.500002
20
-70.360873
30
0
11
0
21
-69.900089
31
0
39
0
210
0
220
0
230
1
0
MTEXT
5
1A5
100
AcDbEntity
8
SK2
62
256
6
ByLayer
370
18
48
1
60
0
100
AcDbMText
10
-78.439634
20
-5.400922
30
0
210
0
220
0
230
1
1
%%c
40
3.5
41
0
44
1.084337
50
90
71
7
72
5
7
iso_b_vert
0
MTEXT
5
1A8
100
AcDbEntity
8
SK2
62
256
6
ByLayer
370
18
48
1
60
0
100
AcDbMText
10
-78.439634
20
1.571734
30
0
210
0
220
0
230
1
1
\W0.6217;100
40
3.5
41
0
44
1.084337
50
90
71
7
72
5
7
iso_b_vert
0
MTEXT
5
1B1
100
AcDbEntity
8
SK2
62
256
6
ByLayer
370
18
48
1
60
0
100
AcDbMText
10
82.160366
20
-4.530622
30
0
210
0
220
0
230
1
1
%%c
40
3.5
41
0
44
1.084337
50
90
71
7
72
5
7
iso_b_vert
0
MTEXT
5
1B2
100
AcDbEntity
8
SK2
62
256
6
ByLayer
370
18
48
1
60
0
100
AcDbMText
10
82.160366
20
2.442034
30
0
210
0
220
0
230
1
1
\W0.6740;68
40
3.5
41
0
44
1.084337
50
90
71
7
72
5
7
iso_b_vert
0
MTEXT
5
1BB
100
AcDbEntity
8
SK2
62
256
6
ByLayer
370
18
48
1
60
0
100
AcDbMText
10
-29.055966
20
74.200322
30
0
210
0
220
0
230
1
1
\W0.7756;49.9
40
3.5
41
0
44
1.084337
50
0
71
7
72
5
7
iso_b_vert
0
MTEXT
5
1C4
100
AcDbEntity
8
SK2
62
256
6
ByLayer
370
18
48
1
60
0
100
AcDbMText
10
27.095034
20
94.200322
30
0
210
0
220
0
230
1
1
\W0.6740;58
40
3.5
41
0
44
1.084337
50
0
71
7
72
5
7
iso_b_vert
0
MTEXT
5
1CD
100
AcDbEntity
8
SK2
62
256
6
ByLayer
370
18
48
1
60
0
100
AcDbMText
10
18.8482
20
84.200322
30
0
210
0
220
0
230
1
1
\W0.7092;41
40
3.5
41
0
44
1.084337
50
0
71
7
72
5
7
iso_b_vert
0
MTEXT
5
1D6
100
AcDbEntity
8
SK2
62
256
6
ByLayer
370
18
48
1
60
0
100
AcDbMText
10
48.032467
20
74.200322
30
0
210
0
220
0
230
1
1
\W0.5321;17
40
3.5
41
0
44
1.084337
50
0
71
7
72
5
7
iso_b_vert
0
MTEXT
5
1DF
100
AcDbEntity
8
2
62
256
6
ByLayer
370
18
48
1
60
0
100
AcDbMText
10
21.910767
20
-68.867455
30
0
210
0
220
0
230
1
1
\W0.7361;48
40
3.5
41
0
44
1.084337
50
0
71
7
72
5
7
iso_b_vert
0
MTEXT
5
1E8
100
AcDbEntity
8
SK6
62
256
6
ByLayer
370
18
48
1
60
0
100
AcDbMText
10
-29.36154
20
-86.981086
30
0
210
0
220
0
230
1
1
\W0.7643;HT10-DM32-N-048A
40
3
41
0
44
1.084337
50
0
71
7
72
5
7
iso_b_vert
0
HATCH
5
1AC
100
AcDbEntity
8
SK2
62
256
6
ByLayer
370
13
48
1
60
0
100
AcDbHatch
10
0
20
0
30
0
210
0
220
0
230
1
2
ANSI31
70
0
71
0
91
1
92
5
93
3
72
1
10
-76.875
20
49.965
11
-76.4142162584472
21
46.4650016925532
72
1
10
-76.4142162584472
20
46.4650016925532
11
-77.3357837415528
21
46.4649983074468
72
1
10
-77.3357837415528
20
46.4649983074468
11
-76.875
21
49.965
97
0
75
0
76
1
52
0
41
0.0062
77
0
78
1
53
45
43
0
44
0
45
-0.0139193969876572
46
0.0139193969876572
79
0
47
0
98
1
10
0
20
0
0
HATCH
5
1B0
100
AcDbEntity
8
SK2
62
256
6
ByLayer
370
13
48
1
60
0
100
AcDbHatch
10
0
20
0
30
0
210
0
220
0
230
1
2
ANSI31
70
0
71
0
91
1
92
5
93
3
72
1
10
-76.875
20
-49.965
11
-77.3357837415528
21
-46.4650016925532
72
1
10
-77.3357837415528
20
-46.4650016925532
11
-76.4142162584472
21
-46.4649983074468
72
1
10
-76.4142162584472
20
-46.4649983074468
11
-76.875
21
-49.965
97
0
75
0
76
1
52
0
41
0.0062
77
0
78
1
53
45
43
0
44
0
45
-0.0139193969876572
46
0.0139193969876572
79
0
47
0
98
1
10
0
20
0
0
HATCH
5
1B6
100
AcDbEntity
8
SK2
62
256
6
ByLayer
370
13
48
1
60
0
100
AcDbHatch
10
0
20
0
30
0
210
0
220
0
230
1
2
ANSI31
70
0
71
0
91
1
92
5
93
3
72
1
10
83.725
20
33.85
11
84.1857837415528
21
30.3500016925532
72
1
10
84.1857837415528
20
30.3500016925532
11
83.2642162584472
21
30.3499983074468
72
1
10
83.2642162584472
20
30.3499983074468
11
83.725
21
33.85
97
0
75
0
76
1
52
0
41
0.0062
77
0
78
1
53
45
43
0
44
0
45
-0.0139193969876572
46
0.0139193969876572
79
0
47
0
98
1
10
0
20
0
0
HATCH
5
1BA
100
AcDbEntity
8
SK2
62
256
6
ByLayer
370
13
48
1
60
0
100
AcDbHatch
10
0
20
0
30
0
210
0
220
0
230
1
2
ANSI31
70
0
71
0
91
1
92
5
93
3
72
1
10
83.725
20
-33.85
11
83.2642162584472
21
-30.3500016925532
72
1
10
83.2642162584472
20
-30.3500016925532
11
84.1857837415528
21
-30.3499983074468
72
1
10
84.1857837415528
20
-30.3499983074468
11
83.725
21
-33.85
97
0
75
0
76
1
52
0
41
0.0062
77
0
78
1
53
45
43
0
44
0
45
-0.0139193969876572
46
0.0139193969876572
79
0
47
0
98
1
10
0
20
0
0
HATCH
5
1BF
100
AcDbEntity
8
SK2
62
256
6
ByLayer
370
13
48
1
60
0
100
AcDbHatch
10
0
20
0
30
0
210
0
220
0
230
1
2
ANSI31
70
0
71
0
91
1
92
5
93
3
72
1
10
0
20
73.1676887402722
11
-3.49999830744682
21
72.7069049987194
72
1
10
-3.49999830744682
20
72.7069049987194
11
-3.50000169255318
21
73.6284724818249
72
1
10
-3.50000169255318
20
73.6284724818249
11
0
21
73.1676887402722
97
0
75
0
76
1
52
0
41
0.0062
77
0
78
1
53
45
43
0
44
0
45
-0.0139193969876572
46
0.0139193969876572
79
0
47
0
98
1
10
0
20
0
0
HATCH
5
1C3
100
AcDbEntity
8
SK2
62
256
6
ByLayer
370
13
48
1
60
0
100
AcDbHatch
10
0
20
0
30
0
210
0
220
0
230
1
2
ANSI31
70
0
71
0
91
1
92
5
93
3
72
1
10
-49.9
20
73.1676887402722
11
-46.4000016925532
21
73.6284724818249
72
1
10
-46.4000016925532
20
73.6284724818249
11
-46.3999983074468
21
72.7069049987194
72
1
10
-46.3999983074468
20
72.7069049987194
11
-49.9
21
73.1676887402722
97
0
75
0
76
1
52
0
41
0.0062
77
0
78
1
53
45
43
0
44
0
45
-0.0139193969876572
46
0.0139193969876572
79
0
47
0
98
1
10
0
20
0
0
HATCH
5
1C8
100
AcDbEntity
8
SK2
62
256
6
ByLayer
370
13
48
1
60
0
100
AcDbHatch
10
0
20
0
30
0
210
0
220
0
230
1
2
ANSI31
70
0
71
0
91
1
92
5
93
3
72
1
10
58
20
93.1676887402722
11
54.5000016925532
21
92.7069049987194
72
1
10
54.5000016925532
20
92.7069049987194
11
54.4999983074468
21
93.628472481825
72
1
10
54.4999983074468
20
93.628472481825
11
58
21
93.1676887402722
97
0
75
0
76
1
52
0
41
0.0062
77
0
78
1
53
45
43
0
44
0
45
-0.0139193969876572
46
0.0139193969876572
79
0
47
0
98
1
10
0
20
0
0
HATCH
5
1CC
100
AcDbEntity
8
SK2
62
256
6
ByLayer
370
13
48
1
60
0
100
AcDbHatch
10
0
20
0
30
0
210
0
220
0
230
1
2
ANSI31
70
0
71
0
91
1
92
5
93
3
72
1
10
0
20
93.1676887402722
11
3.49999830744682
21
93.628472481825
72
1
10
3.49999830744682
20
93.628472481825
11
3.50000169255318
21
92.7069049987194
72
1
10
3.50000169255318
20
92.7069049987194
11
0
21
93.1676887402722
97
0
75
0
76
1
52
0
41
0.0062
77
0
78
1
53
45
43
0
44
0
45
-0.0139193969876572
46
0.0139193969876572
79
0
47
0
98
1
10
0
20
0
0
HATCH
5
1D1
100
AcDbEntity
8
SK2
62
256
6
ByLayer
370
13
48
1
60
0
100
AcDbHatch
10
0
20
0
30
0
210
0
220
0
230
1
2
ANSI31
70
0
71
0
91
1
92
5
93
3
72
1
10
41
20
83.1676887402722
11
37.5000016925532
21
82.7069049987194
72
1
10
37.5000016925532
20
82.7069049987194
11
37.4999983074468
21
83.628472481825
72
1
10
37.4999983074468
20
83.628472481825
11
41
21
83.1676887402722
97
0
75
0
76
1
52
0
41
0.0062
77
0
78
1
53
45
43
0
44
0
45
-0.0139193969876572
46
0.0139193969876572
79
0
47
0
98
1
10
0
20
0
0
HATCH
5
1D5
100
AcDbEntity
8
SK2
62
256
6
ByLayer
370
13
48
1
60
0
100
AcDbHatch
10
0
20
0
30
0
210
0
220
0
230
1
2
ANSI31
70
0
71
0
91
1
92
5
93
3
72
1
10
0
20
83.1676887402722
11
3.49999830744682
21
83.628472481825
72
1
10
3.49999830744682
20
83.628472481825
11
3.50000169255318
21
82.7069049987194
72
1
10
3.50000169255318
20
82.7069049987194
11
0
21
83.1676887402722
97
0
75
0
76
1
52
0
41
0.0062
77
0
78
1
53
45
43
0
44
0
45
-0.0139193969876572
46
0.0139193969876572
79
0
47
0
98
1
10
0
20
0
0
HATCH
5
1DA
100
AcDbEntity
8
SK2
62
256
6
ByLayer
370
13
48
1
60
0
100
AcDbHatch
10
0
20
0
30
0
210
0
220
0
230
1
2
ANSI31
70
0
71
0
91
1
92
5
93
3
72
1
10
41
20
73.1676887402722
11
44.4999983074468
21
73.6284724818249
72
1
10
44.4999983074468
20
73.6284724818249
11
44.5000016925532
21
72.7069049987194
72
1
10
44.5000016925532
20
72.7069049987194
11
41
21
73.1676887402722
97
0
75
0
76
1
52
0
41
0.0062
77
0
78
1
53
45
43
0
44
0
45
-0.0139193969876572
46
0.0139193969876572
79
0
47
0
98
1
10
0
20
0
0
HATCH
5
1DE
100
AcDbEntity
8
SK2
62
256
6
ByLayer
370
13
48
1
60
0
100
AcDbHatch
10
0
20
0
30
0
210
0
220
0
230
1
2
ANSI31
70
0
71
0
91
1
92
5
93
3
72
1
10
58
20
73.1676887402722
11
54.5000016925532
21
72.7069049987194
72
1
10
54.5000016925532
20
72.7069049987194
11
54.4999983074468
21
73.6284724818249
72
1
10
54.4999983074468
20
73.6284724818249
11
58
21
73.1676887402722
97
0
75
0
76
1
52
0
41
0.0062
77
0
78
1
53
45
43
0
44
0
45
-0.0139193969876572
46
0.0139193969876572
79
0
47
0
98
1
10
0
20
0
0
HATCH
5
1E3
100
AcDbEntity
8
2
62
256
6
ByLayer
370
13
48
1
60
0
100
AcDbHatch
10
0
20
0
30
0
210
0
220
0
230
1
2
ANSI31
70
0
71
0
91
1
92
5
93
3
72
1
10
48
20
-69.9000889984302
11
44.5000016925532
21
-70.360872739983
72
1
10
44.5000016925532
20
-70.360872739983
11
44.4999983074468
21
-69.4393052568774
72
1
10
44.4999983074468
20
-69.4393052568774
11
48
21
-69.9000889984302
97
0
75
0
76
1
52
0
41
0.0062
77
0
78
1
53
45
43
0
44
0
45
-0.0139193969876572
46
0.0139193969876572
79
0
47
0
98
1
10
0
20
0
0
HATCH
5
1E7
100
AcDbEntity
8
2
62
256
6
ByLayer
370
13
48
1
60
0
100
AcDbHatch
10
0
20
0
30
0
210
0
220
0
230
1
2
ANSI31
70
0
71
0
91
1
92
5
93
3
72
1
10
0
20
-69.9000889984302
11
3.49999830744682
21
-69.4393052568774
72
1
10
3.49999830744682
20
-69.4393052568774
11
3.50000169255318
21
-70.360872739983
72
1
10
3.50000169255318
20
-70.360872739983
11
0
21
-69.9000889984302
97
0
75
0
76
1
52
0
41
0.0062
77
0
78
1
53
45
43
0
44
0
45
-0.0139193969876572
46
0.0139193969876572
79
0
47
0
98
1
10
0
20
0
0
ENDSEC
0
SECTION
2
OBJECTS
0
DICTIONARY
5
256
330
0
100
AcDbDictionary
280
0
281
1
3
ACAD_GROUP
350
257
3
ACAD_MLINESTYLE
350
258
0
DICTIONARY
5
257
330
0
100
AcDbDictionary
280
0
281
1
0
DICTIONARY
5
258
330
0
100
AcDbDictionary
280
0
281
1
3
Standard
350
18
0
MLINESTYLE
5
18
330
258
100
AcDbMlineStyle
2
Standard
70
0
3

62
256
51
90
52
90
71
2
49
-0.5
62
256
6
ByLayer
49
0.5
62
256
6
ByLayer
0
RASTERVARIABLES
5
245
330

100
AcDbRasterVariables
90
0
70
1
71
1
72
1
0
ENDSEC
0
EOF
