0
SECTION
2
HEADER
9
$ACADVER
1
AC1015
9
$DWGCODEPAGE
3
ANSI_1252
9
$HANDSEED
5
279
9
$ANGBASE
50
0
9
$ANGDIR
70
0
9
$ATTMODE
70
1
9
$AUNITS
70
0
9
$AUPREC
70
0
9
$CECOLOR
62
256
9
$CELTSCALE
40
1
9
$CELTYPE
6
ByLayer
9
$CELWEIGHT
370
18
9
$CLAYER
8
0
9
$CMLJUST
70
0
9
$CMLSCALE
40
1
9
$CMLSTYLE
2
Standard
9
$DIMSTYLE
2
Standard
9
$TEXTSIZE
40
0.2
9
$TEXTSTYLE
7
Standard
9
$LUNITS
70
2
9
$LUPREC
70
4
9
$EXTNAMES
290
1
9
$INSUNITS
70
4
9
$LTSCALE
40
1
9
$LWDISPLAY
290
1
9
$PDMODE
70
0
9
$PDSIZE
40
0
9
$PLINEGEN
70
0
0
ENDSEC
0
SECTION
2
CLASSES
0
CLASS
1
RASTERVARIABLES
2
AcDbRasterVariables
3
ISM
90
0
280
0
281
0
0
ENDSEC
0
SECTION
2
TABLES
0
TABLE
2
VPORT
5
26f
100
AcDbSymbolTable
0
VPORT
5
1
100
AcDbSymbolTableRecord
100
AcDbViewportTableRecord
2
*Active
70
0
10
0
20
0
11
1
21
1
12
-1
22
1
13
0
23
0
14
0.5
24
0.5
15
10
25
10
16
0
26
0
36
1
17
0
27
0
37
0
0
ENDTAB
0
TABLE
2
LTYPE
5
270
100
AcDbSymbolTable
0
LTYPE
5
14
100
AcDbSymbolTableRecord
100
AcDbLinetypeTableRecord
70
0
2
ByBlock
3

72
65
73
0
40
0
0
LTYPE
5
15
100
AcDbSymbolTableRecord
100
AcDbLinetypeTableRecord
70
0
2
ByLayer
3

72
65
73
0
40
0
0
LTYPE
5
16
100
AcDbSymbolTableRecord
100
AcDbLinetypeTableRecord
70
0
2
Continuous
3
Solid line
72
65
73
0
40
0
0
LTYPE
5
6E
100
AcDbSymbolTableRecord
100
AcDbLinetypeTableRecord
70
0
2
CENTER
3
____ _ ____ _ ____ _ ____
72
65
73
4
40
47.5
49
22
74
0
49
-8.5
74
0
49
8.5
74
0
49
-8.5
74
0
0
LTYPE
5
6F
100
AcDbSymbolTableRecord
100
AcDbLinetypeTableRecord
70
0
2
DASHED
3
__ __ __ __ __ __ __ __ __
72
65
73
2
40
25.72
49
12.86
74
0
49
-12.86
74
0
0
ENDTAB
0
TABLE
2
LAYER
5
271
100
AcDbSymbolTable
0
LAYER
5
10
100
AcDbSymbolTableRecord
100
AcDbLayerTableRecord
2
0
70
0
62
7
6
Continuous
290
1
370
-3
390
0
0
LAYER
5
71
100
AcDbSymbolTableRecord
100
AcDbLayerTableRecord
2
2
70
0
62
7
6
Continuous
290
1
370
-3
390
0
0
LAYER
5
7B
100
AcDbSymbolTableRecord
100
AcDbLayerTableRecord
2
81
70
0
62
-3
6
Continuous
290
1
370
-3
390
0
0
LAYER
5
7D
100
AcDbSymbolTableRecord
100
AcDbLayerTableRecord
2
80
70
0
62
-6
6
Continuous
290
1
370
-3
390
0
0
LAYER
5
7F
100
AcDbSymbolTableRecord
100
AcDbLayerTableRecord
2
1
70
0
62
4
6
Continuous
290
1
370
-3
390
0
0
LAYER
5
8A
100
AcDbSymbolTableRecord
100
AcDbLayerTableRecord
2
4
70
0
62
-2
6
CENTER
290
1
370
-3
390
0
0
LAYER
5
25c
100
AcDbSymbolTableRecord
100
AcDbLayerTableRecord
2
SK1
70
0
62
4
6
Continuous
290
1
370
-3
390
0
0
LAYER
5
25d
100
AcDbSymbolTableRecord
100
AcDbLayerTableRecord
2
SK2
70
0
62
7
6
Continuous
290
1
370
-3
390
0
0
LAYER
5
25e
100
AcDbSymbolTableRecord
100
AcDbLayerTableRecord
2
SK6
70
0
62
5
6
Continuous
290
1
370
-3
390
0
0
ENDTAB
0
TABLE
2
STYLE
5
272
100
AcDbSymbolTable
0
STYLE
5
11
100
AcDbSymbolTableRecord
100
AcDbTextStyleTableRecord
2
Standard
3
txt
70
0
71
0
40
0
41
1
42
0
50
0
0
STYLE
5
1BC
100
AcDbSymbolTableRecord
100
AcDbTextStyleTableRecord
2
iso_b_vert
3
simplex.shx
70
0
71
0
40
0
41
1
42
0
50
0
0
STYLE
5
1BD
100
AcDbSymbolTableRecord
100
AcDbTextStyleTableRecord
2
DWGDirectTextStyle
3
simplex
70
0
71
0
40
0
41
1
42
0
50
0
0
ENDTAB
0
TABLE
2
DIMSTYLE
5
273
100
AcDbSymbolTable
100
AcDbDimStyleTable
0
DIMSTYLE
105
27
100
AcDbSymbolTableRecord
100
AcDbDimStyleTableRecord
2
Standard
70
0
3
<>
41
0.18
42
0.0625
44
0.18
140
0.18
147
0.09
73
0
74
0
77
1
271
2
275
0
278
52
280
0
340
11
0
ENDTAB
0
TABLE
2
VIEW
5
274
100
AcDbSymbolTable
0
ENDTAB
0
TABLE
2
UCS
5
275
100
AcDbSymbolTable
0
ENDTAB
0
TABLE
2
APPID
5
276
100
AcDbSymbolTable
0
APPID
5
12
100
AcDbSymbolTableRecord
100
AcDbRegAppTableRecord
2
ACAD
70
0
0
APPID
5
258
100
AcDbSymbolTableRecord
100
AcDbRegAppTableRecord
2
ACAD_MLEADERVER
70
0
0
ENDTAB
0
TABLE
2
BLOCK_RECORD
5
277
100
AcDbSymbolTable
0
BLOCK_RECORD
5
1F
100
AcDbSymbolTableRecord
100
AcDbBlockTableRecord
2
*Model_Space
340
0
70
0
0
BLOCK_RECORD
5
1B
100
AcDbSymbolTableRecord
100
AcDbBlockTableRecord
2
*Paper_Space
340
0
70
0
0
BLOCK_RECORD
5
23
100
AcDbSymbolTableRecord
100
AcDbBlockTableRecord
2
*Paper_Space0
340
0
70
0
0
ENDTAB
0
ENDSEC
0
SECTION
2
BLOCKS
0
BLOCK
5
20
100
AcDbEntity
8
0
100
AcDbBlockBegin
2
*Model_Space
70
0
10
0
20
0
30
0
3
*Model_Space
0
ENDBLK
5
21
100
AcDbEntity
8
0
100
AcDbBlockEnd
0
BLOCK
5
1C
100
AcDbEntity
8
0
100
AcDbBlockBegin
2
*Paper_Space
70
0
10
0
20
0
30
0
3
*Paper_Space
0
ENDBLK
5
1D
100
AcDbEntity
8
0
100
AcDbBlockEnd
0
BLOCK
5
24
100
AcDbEntity
8
0
100
AcDbBlockBegin
2
*Paper_Space0
70
0
10
0
20
0
30
0
3
*Paper_Space0
0
ENDBLK
5
25
100
AcDbEntity
8
0
100
AcDbBlockEnd
0
ENDSEC
0
SECTION
2
ENTITIES
0
ARC
5
157
100
AcDbEntity
8
1
62
256
6
ByLayer
370
18
48
1
60
0
100
AcDbCircle
39
0
10
27.15
20
-25.075
30
0
40
1.2
210
0
220
0
230
1
100
AcDbArc
50
90
51
180
0
ARC
5
158
100
AcDbEntity
8
1
62
256
6
ByLayer
370
18
48
1
60
0
100
AcDbCircle
39
0
10
27.15
20
25.075
30
0
40
1.2
210
0
220
0
230
1
100
AcDbArc
50
180
51
270
0
ARC
5
159
100
AcDbEntity
8
1
62
256
6
ByLayer
370
18
48
1
60
0
100
AcDbCircle
39
0
10
19.525
20
-27.875
30
0
40
0.399999999999999
210
0
220
0
230
1
100
AcDbArc
50
0
51
90
0
ARC
5
15A
100
AcDbEntity
8
1
62
256
6
ByLayer
370
18
48
1
60
0
100
AcDbCircle
39
0
10
19.525
20
27.875
30
0
40
0.399999999999999
210
0
220
0
230
1
100
AcDbArc
50
270
51
0
0
ARC
5
15B
100
AcDbEntity
8
1
62
256
6
ByLayer
370
18
48
1
60
0
100
AcDbCircle
39
0
10
16.475
20
27.875
30
0
40
0.400000000000002
210
0
220
0
230
1
100
AcDbArc
50
180
51
270
0
ARC
5
15C
100
AcDbEntity
8
1
62
256
6
ByLayer
370
18
48
1
60
0
100
AcDbCircle
39
0
10
16.475
20
-27.875
30
0
40
0.400000000000002
210
0
220
0
230
1
100
AcDbArc
50
90
51
180
0
ARC
5
15D
100
AcDbEntity
8
SK1
62
256
6
ByLayer
370
18
48
1
60
0
100
AcDbCircle
39
0
10
-30.7
20
-21.58105
30
0
40
1.2
210
0
220
0
230
1
100
AcDbArc
50
180
51
267.131868
0
ARC
5
15E
100
AcDbEntity
8
SK1
62
256
6
ByLayer
370
18
48
1
60
0
100
AcDbCircle
39
0
10
-30.7
20
21.58105
30
0
40
1.2
210
0
220
0
230
1
100
AcDbArc
50
92.868132
51
180
0
ARC
5
15F
100
AcDbEntity
8
SK1
62
256
6
ByLayer
370
18
48
1
60
0
100
AcDbCircle
39
0
10
-0.45
20
24.570431
30
0
40
0.600000000000001
210
0
220
0
230
1
100
AcDbArc
50
270
51
318.590378
0
ARC
5
160
100
AcDbEntity
8
SK1
62
256
6
ByLayer
370
18
48
1
60
0
100
AcDbCircle
39
0
10
-0.45
20
-24.570431
30
0
40
0.600000000000001
210
0
220
0
230
1
100
AcDbArc
50
41.409622
51
90
0
ARC
5
162
100
AcDbEntity
8
SK1
62
256
6
ByLayer
370
18
48
1
60
0
100
AcDbCircle
39
0
10
-23.2
20
-4.82125
30
0
40
1.4
210
0
220
0
230
1
100
AcDbArc
50
270
51
0
0
ARC
5
163
100
AcDbEntity
8
SK1
62
256
6
ByLayer
370
18
48
1
60
0
100
AcDbCircle
39
0
10
-23.2
20
4.82125
30
0
40
1.4
210
0
220
0
230
1
100
AcDbArc
50
0
51
90
0
CIRCLE
5
161
100
AcDbEntity
8
1
62
256
6
ByLayer
370
18
48
1
60
0
100
AcDbCircle
10
18
20
0
30
0
40
1
39
0
210
0
220
0
230
1
0
CIRCLE
5
164
100
AcDbEntity
8
SK1
62
256
6
ByLayer
370
18
48
1
60
0
100
AcDbCircle
10
-9
20
0
30
0
40
3.75
39
0
210
0
220
0
230
1
0
ELLIPSE
5
165
100
AcDbEntity
8
1
62
256
6
ByLayer
370
18
48
1
60
0
100
AcDbEllipse
10
49.5
20
14.25
30
0
11
-2.1
21
2.57167334302699E-16
31
0
210
0
220
0
230
1
40
0.866025
41
-1.5707963267949
42
0.466870322693541
0
ELLIPSE
5
166
100
AcDbEntity
8
1
62
256
6
ByLayer
370
18
48
1
60
0
100
AcDbEllipse
10
49.5
20
-14.25
30
0
11
2.1
21
0
31
0
210
0
220
0
230
1
40
0.866025
41
2.65925997959603
42
-1.5707963267949
0
ELLIPSE
5
167
100
AcDbEntity
8
1
62
256
6
ByLayer
370
18
48
1
60
0
100
AcDbEllipse
10
49.5
20
14.45
30
0
11
-2.5
21
3.06151588455594E-16
31
0
210
0
220
0
230
1
40
0.866025
41
-1.5707963267949
42
0.268262610839661
0
ELLIPSE
5
168
100
AcDbEntity
8
1
62
256
6
ByLayer
370
18
48
1
60
0
100
AcDbEllipse
10
49.5
20
-14.45
30
0
11
2.5
21
0
31
0
210
0
220
0
230
1
40
0.866025
41
2.86586890799862
42
-1.5707963267949
0
ELLIPSE
5
169
100
AcDbEntity
8
SK1
62
256
6
ByLayer
370
13
48
1
60
0
100
AcDbEllipse
10
-23.2
20
-11.044329
30
0
11
1.4
21
0
31
0
210
0
220
0
230
1
40
0.45399
41
1.06803366524436
42
1.5707963267949
0
ELLIPSE
5
16A
100
AcDbEntity
8
SK1
62
256
6
ByLayer
370
13
48
1
60
0
100
AcDbEllipse
10
-23.2
20
11.044329
30
0
11
-1.4
21
1.71444889535133E-16
31
0
210
0
220
0
230
1
40
0.45399
41
1.5707963267949
42
2.07355898834548
0
POINT
5
70
100
AcDbEntity
8
2
62
256
6
ByLayer
370
18
48
1
60
0
100
AcDbPoint
10
50
20
0
30
0
39
0
210
0
220
0
230
1
50
360
0
POINT
5
72
100
AcDbEntity
8
2
62
256
6
ByLayer
370
18
48
1
60
0
100
AcDbPoint
10
50
20
18
30
0
39
0
210
0
220
0
230
1
50
360
0
POINT
5
73
100
AcDbEntity
8
2
62
256
6
ByLayer
370
18
48
1
60
0
100
AcDbPoint
10
50
20
0
30
0
39
0
210
0
220
0
230
1
50
360
0
POINT
5
74
100
AcDbEntity
8
2
62
256
6
ByLayer
370
18
48
1
60
0
100
AcDbPoint
10
50
20
0
30
0
39
0
210
0
220
0
230
1
50
360
0
POINT
5
75
100
AcDbEntity
8
2
62
256
6
ByLayer
370
18
48
1
60
0
100
AcDbPoint
10
0
20
0
30
0
39
0
210
0
220
0
230
1
50
360
0
POINT
5
76
100
AcDbEntity
8
2
62
256
6
ByLayer
370
18
48
1
60
0
100
AcDbPoint
10
50
20
18
30
0
39
0
210
0
220
0
230
1
50
360
0
POINT
5
77
100
AcDbEntity
8
2
62
256
6
ByLayer
370
18
48
1
60
0
100
AcDbPoint
10
50
20
0
30
0
39
0
210
0
220
0
230
1
50
360
0
POINT
5
78
100
AcDbEntity
8
2
62
256
6
ByLayer
370
18
48
1
60
0
100
AcDbPoint
10
50
20
18
30
0
39
0
210
0
220
0
230
1
50
360
0
POINT
5
79
100
AcDbEntity
8
2
62
256
6
ByLayer
370
18
48
1
60
0
100
AcDbPoint
10
33
20
0
30
0
39
0
210
0
220
0
230
1
50
360
0
POINT
5
7A
100
AcDbEntity
8
81
62
256
6
ByLayer
370
18
48
1
60
0
100
AcDbPoint
10
50
20
0
30
0
39
0
210
0
220
0
230
1
50
360
0
POINT
5
7C
100
AcDbEntity
8
80
62
256
6
ByLayer
370
18
48
1
60
0
100
AcDbPoint
10
0
20
0
30
0
39
0
210
0
220
0
230
1
50
360
0
POINT
5
7E
100
AcDbEntity
8
1
62
256
6
ByLayer
370
13
48
1
60
1
100
AcDbPoint
10
18
20
24.234794
30
0
39
0
210
0
220
0
230
1
50
360
0
POINT
5
80
100
AcDbEntity
8
1
62
256
6
ByLayer
370
13
48
1
60
1
100
AcDbPoint
10
18
20
13.969053
30
0
39
0
210
0
220
0
230
1
50
360
0
POINT
5
81
100
AcDbEntity
8
1
62
256
6
ByLayer
370
13
48
1
60
1
100
AcDbPoint
10
18
20
27.635248
30
0
39
0
210
0
220
0
230
1
50
360
0
POINT
5
82
100
AcDbEntity
8
1
62
256
6
ByLayer
370
13
48
1
60
1
100
AcDbPoint
10
18
20
16.474174
30
0
39
0
210
0
220
0
230
1
50
360
0
POINT
5
83
100
AcDbEntity
8
1
62
256
6
ByLayer
370
13
48
1
60
1
100
AcDbPoint
10
18
20
29.144664
30
0
39
0
210
0
220
0
230
1
50
360
0
POINT
5
84
100
AcDbEntity
8
1
62
256
6
ByLayer
370
13
48
1
60
1
100
AcDbPoint
10
18
20
18.424591
30
0
39
0
210
0
220
0
230
1
50
360
0
POINT
5
85
100
AcDbEntity
8
1
62
256
6
ByLayer
370
13
48
1
60
1
100
AcDbPoint
10
-32.260045
20
0
30
0
39
0
210
0
220
0
230
1
50
360
0
POINT
5
86
100
AcDbEntity
8
1
62
256
6
ByLayer
370
13
48
1
60
1
100
AcDbPoint
10
44.890673
20
0
30
0
39
0
210
0
220
0
230
1
50
360
0
POINT
5
87
100
AcDbEntity
8
1
62
256
6
ByLayer
370
13
48
1
60
1
100
AcDbPoint
10
61.5
20
0
30
0
39
0
210
0
220
0
230
1
50
360
0
POINT
5
88
100
AcDbEntity
8
1
62
256
6
ByLayer
370
13
48
1
60
1
100
AcDbPoint
10
41.5
20
0
30
0
39
0
210
0
220
0
230
1
50
360
0
SPLINE
5
16B
100
AcDbEntity
8
1
62
256
6
ByLayer
370
18
48
1
60
0
100
AcDbSpline
70
4
71
3
72
52
73
48
40
0
40
0
40
0
40
0
40
0.0624999999999988
40
0.0624999999999988
40
0.124999999999998
40
0.124999999999998
40
0.156249999999997
40
0.156249999999997
40
0.171874999999996
40
0.171874999999996
40
0.187499999999994
40
0.187499999999994
40
0.249999999999993
40
0.312499999999992
40
0.312499999999992
40
0.328124999999992
40
0.328124999999992
40
0.343749999999991
40
0.374999999999993
40
0.374999999999993
40
0.437499999999999
40
0.437499999999999
40
0.468750000000002
40
0.468750000000002
40
0.484375000000004
40
0.484375000000004
40
0.500000000000005
40
0.500000000000005
40
0.562500000000006
40
0.625000000000006
40
0.625000000000006
40
0.656250000000006
40
0.656250000000006
40
0.687500000000007
40
0.687500000000007
40
0.750000000000007
40
0.750000000000007
40
0.781250000000006
40
0.781250000000006
40
0.812500000000005
40
0.812500000000005
40
0.875000000000004
40
0.937500000000002
40
0.937500000000002
40
0.968750000000001
40
0.968750000000001
40
1
40
1
40
1
40
1
41
1
10
16.475
20
27.1208332690275
30
0
41
1
10
16.5131913232136
20
27.1316974162083
30
0
41
1
10
16.5554551603681
20
27.1417855593491
30
0
41
1
10
16.6478009638929
20
27.1605867016231
30
0
41
1
10
16.6978839475418
20
27.1692991748318
30
0
41
1
10
16.7789435239476
20
27.1814173707329
30
0
41
1
10
16.8069557155953
20
27.1852978728434
30
0
41
1
10
16.8505015589457
20
27.1908862453377
30
0
41
1
10
16.8652488722836
20
27.1927070856398
30
0
41
1
10
16.8950371680023
20
27.1962470452332
30
0
41
1
10
16.9101019245861
20
27.1979692506055
30
0
41
1
10
16.9862682240961
20
27.2063492452916
30
0
41
1
10
17.1135048019649
20
27.2182859500462
30
0
41
1
10
17.2513051323546
20
27.2275603575845
30
0
41
1
10
17.340852835611
20
27.2325593206391
30
0
41
1
10
17.3589510261372
20
27.2335196930482
30
0
41
1
10
17.3952241179028
20
27.2353472612522
30
0
41
1
10
17.4498427753161
20
27.2379542890512
30
0
41
1
10
17.5050795190823
20
27.2401701169256
30
0
41
1
10
17.6163637965048
20
27.2441019585401
30
0
41
1
10
17.691630903465
20
27.2460597735575
30
0
41
1
10
17.8061588831876
20
27.2480315926628
30
0
41
1
10
17.844606956195
20
27.2485272948397
30
0
41
1
10
17.9026967272745
20
27.2490252543333
30
0
41
1
10
17.9221663084688
20
27.2491503511788
30
0
41
1
10
17.9610107977542
20
27.2493166522484
30
0
41
1
10
17.9803927501871
20
27.2493581073743
30
0
41
1
10
18.0771038623368
20
27.2493599844162
30
0
41
1
10
18.2305754564871
20
27.2480562489621
30
0
41
1
10
18.3815722297398
20
27.2441658939821
30
0
41
1
10
18.4938641285014
20
27.2402118091583
30
0
41
1
10
18.53118989199
20
27.2387162896815
30
0
41
1
10
18.6044182748904
20
27.2354116930949
30
0
41
1
10
18.6404572010122
20
27.2335984961412
30
0
41
1
10
18.7468816355557
20
27.2276697523671
30
0
41
1
10
18.8155819965158
20
27.2230678565507
30
0
41
1
10
18.9152578724162
20
27.2151149292204
30
0
41
1
10
18.9479189224545
20
27.2122882535371
30
0
41
1
10
19.012089924821
20
27.206261876742
30
0
41
1
10
19.0436842374209
20
27.2030514711211
30
0
41
1
10
19.1354026811123
20
27.1929673492861
30
0
41
1
10
19.250303463002
20
27.1782579583756
30
0
41
1
10
19.350832367964
20
27.1608439964982
30
0
41
1
10
19.420705897915
20
27.1466492044015
30
0
41
1
10
19.4431211599626
20
27.1417156216417
30
0
41
1
10
19.4857083394232
20
27.1315251263696
30
0
41
1
10
19.5059044140918
20
27.1262653210842
30
0
41
1
10
19.525
20
27.1208332690275
30
0
0
SPLINE
5
16C
100
AcDbEntity
8
1
62
256
6
ByLayer
370
18
48
1
60
0
100
AcDbSpline
70
4
71
3
72
52
73
48
40
0
40
0
40
0
40
0
40
0.0625000000000048
40
0.0625000000000048
40
0.125000000000009
40
0.125000000000009
40
0.15625000000001
40
0.15625000000001
40
0.171875000000011
40
0.171875000000011
40
0.187500000000011
40
0.187500000000011
40
0.250000000000009
40
0.312500000000008
40
0.312500000000008
40
0.328125000000008
40
0.328125000000008
40
0.343750000000007
40
0.375000000000009
40
0.375000000000009
40
0.437500000000014
40
0.437500000000014
40
0.468750000000017
40
0.468750000000017
40
0.484375000000018
40
0.484375000000018
40
0.500000000000019
40
0.500000000000019
40
0.562500000000019
40
0.625000000000019
40
0.625000000000019
40
0.656250000000018
40
0.656250000000018
40
0.687500000000018
40
0.687500000000018
40
0.750000000000015
40
0.750000000000015
40
0.781250000000014
40
0.781250000000014
40
0.812500000000012
40
0.812500000000012
40
0.875000000000007
40
0.937500000000002
40
0.937500000000002
40
0.968750000000001
40
0.968750000000001
40
1
40
1
40
1
40
1
41
1
10
19.525
20
26.7932469531775
30
0
41
1
10
19.4868086767864
20
26.7782190478728
30
0
41
1
10
19.4445448396319
20
26.7636778297996
30
0
41
1
10
19.3521990361071
20
26.7356425269
30
0
41
1
10
19.3021160524582
20
26.7221482366298
30
0
41
1
10
19.2210564760524
20
26.7027937225695
30
0
41
1
10
19.1930442844046
20
26.696490535162
30
0
41
1
10
19.1494984410542
20
26.6872760989359
30
0
41
1
10
19.1347511277164
20
26.6842499023395
30
0
41
1
10
19.1049628319977
20
26.6783234071167
30
0
41
1
10
19.0898980754139
20
26.6754180306102
30
0
41
1
10
19.0137317759039
20
26.6611817241371
30
0
41
1
10
18.8864951980351
20
26.6402572336436
30
0
41
1
10
18.7486948676454
20
26.6232057126545
30
0
41
1
10
18.6591471643889
20
26.6138669592113
30
0
41
1
10
18.6410489738628
20
26.6120640960198
30
0
41
1
10
18.6047758820972
20
26.608619114004
30
0
41
1
10
18.5501572246839
20
26.6036825499449
30
0
41
1
10
18.4949204809177
20
26.5994346655301
30
0
41
1
10
18.3836362034951
20
26.5918553257042
30
0
41
1
10
18.3083690965349
20
26.5880212717788
30
0
41
1
10
18.1938411168124
20
26.5841468956358
30
0
41
1
10
18.155393043805
20
26.5831689747049
30
0
41
1
10
18.0973032727254
20
26.5821857673451
30
0
41
1
10
18.0778336915312
20
26.5819385142023
30
0
41
1
10
18.0389892022457
20
26.5816097525468
30
0
41
1
10
18.0196072498129
20
26.5815277490762
30
0
41
1
10
17.9228961376632
20
26.5815240368116
30
0
41
1
10
17.7694245435129
20
26.584110268167
30
0
41
1
10
17.6184277702601
20
26.5917312694546
30
0
41
1
10
17.5061358714986
20
26.5993546894979
30
0
41
1
10
17.46881010801
20
26.6022219094338
30
0
41
1
10
17.3955817251096
20
26.6085030100581
30
0
41
1
10
17.3595427989878
20
26.6119249030653
30
0
41
1
10
17.2531183644443
20
26.6230027793082
30
0
41
1
10
17.1844180034841
20
26.6314682142538
30
0
41
1
10
17.0847421275837
20
26.6457128953723
30
0
41
1
10
17.0520810775454
20
26.6507195771728
30
0
41
1
10
16.9879100751789
20
26.6612459409822
30
0
41
1
10
16.9563157625791
20
26.6667833943611
30
0
41
1
10
16.8645973188877
20
26.6839169371751
30
0
41
1
10
16.7496965369979
20
26.7082543058536
30
0
41
1
10
16.649167632036
20
26.7352517843549
30
0
41
1
10
16.579294102085
20
26.7564288414743
30
0
41
1
10
16.5568788400374
20
26.7636606478013
30
0
41
1
10
16.5142916605768
20
26.7783102313741
30
0
41
1
10
16.4940955859081
20
26.7857330303118
30
0
41
1
10
16.475
20
26.7932469531775
30
0
0
SPLINE
5
16D
100
AcDbEntity
8
1
62
256
6
ByLayer
370
18
48
1
60
0
100
AcDbSpline
70
4
71
3
72
52
73
48
40
0
40
0
40
0
40
0
40
0.0624999999999989
40
0.0624999999999989
40
0.124999999999998
40
0.124999999999998
40
0.156249999999998
40
0.156249999999998
40
0.171874999999996
40
0.171874999999996
40
0.187499999999994
40
0.187499999999994
40
0.249999999999993
40
0.312499999999991
40
0.312499999999991
40
0.328124999999991
40
0.328124999999991
40
0.343749999999991
40
0.374999999999992
40
0.374999999999992
40
0.437499999999998
40
0.437499999999998
40
0.468750000000001
40
0.468750000000001
40
0.484375000000003
40
0.484375000000003
40
0.500000000000004
40
0.500000000000004
40
0.562500000000004
40
0.625000000000004
40
0.625000000000004
40
0.656250000000004
40
0.656250000000004
40
0.687500000000004
40
0.687500000000004
40
0.750000000000003
40
0.750000000000003
40
0.781250000000003
40
0.781250000000003
40
0.812500000000003
40
0.812500000000003
40
0.875000000000002
40
0.937500000000001
40
0.937500000000001
40
0.968750000000001
40
0.968750000000001
40
1
40
1
40
1
40
1
41
1
10
16.475
20
25.3449590148056
30
0
41
1
10
16.5131913232136
20
25.3711652732471
30
0
41
1
10
16.5554551603681
20
25.3958653042828
30
0
41
1
10
16.6478009638929
20
25.4424811158632
30
0
41
1
10
16.6978839475418
20
25.4643962091644
30
0
41
1
10
16.7789435239476
20
25.4952426863963
30
0
41
1
10
16.8069557155953
20
25.5051861016711
30
0
41
1
10
16.8505015589457
20
25.5195912187657
30
0
41
1
10
16.8652488722836
20
25.524299675429
30
0
41
1
10
16.8950371680023
20
25.5334804477194
30
0
41
1
10
16.9101019245861
20
25.5379607116957
30
0
41
1
10
16.9862682240961
20
25.5598228133552
30
0
41
1
10
17.1135048019649
20
25.5913663185602
30
0
41
1
10
17.2513051323546
20
25.6163692804839
30
0
41
1
10
17.340852835611
20
25.6299381855863
30
0
41
1
10
17.3589510261372
20
25.6325504224434
30
0
41
1
10
17.3952241179028
20
25.6375302849733
30
0
41
1
10
17.4498427753161
20
25.6446479566543
30
0
41
1
10
17.5050795190823
20
25.6507300351839
30
0
41
1
10
17.6163637965048
20
25.6615483012304
30
0
41
1
10
17.691630903465
20
25.6669725279171
30
0
41
1
10
17.8061588831876
20
25.6724435910726
30
0
41
1
10
17.844606956195
20
25.6738214280777
30
0
41
1
10
17.9026967272745
20
25.6752060586707
30
0
41
1
10
17.9221663084688
20
25.6755540616427
30
0
41
1
10
17.9610107977542
20
25.6760167321082
30
0
41
1
10
17.9803927501871
20
25.6761320969868
30
0
41
1
10
18.0771038623368
20
25.6761373201056
30
0
41
1
10
18.2305754564871
20
25.6725046377787
30
0
41
1
10
18.3815722297398
20
25.6617247205932
30
0
41
1
10
18.4938641285014
20
25.6508445041694
30
0
41
1
10
18.53118989199
20
25.6467394195053
30
0
41
1
10
18.6044182748904
20
25.6377025181656
30
0
41
1
10
18.6404572010122
20
25.6327593219671
30
0
41
1
10
18.7468816355557
20
25.6166653236514
30
0
41
1
10
18.8155819965158
20
25.6042561692872
30
0
41
1
10
18.9152578724162
20
25.5830508746831
30
0
41
1
10
18.9479189224545
20
25.575549016392
30
0
41
1
10
19.012089924821
20
25.5596473591563
30
0
41
1
10
19.0436842374209
20
25.5512198917614
30
0
41
1
10
19.1354026811123
20
25.5249106231448
30
0
41
1
10
19.250303463002
20
25.4869421706006
30
0
41
1
10
19.350832367964
20
25.4431234668905
30
0
41
1
10
19.420705897915
20
25.4079221550003
30
0
41
1
10
19.4431211599626
20
25.395767596511
30
0
41
1
10
19.4857083394232
20
25.3708413718896
30
0
41
1
10
19.5059044140918
20
25.3580620920832
30
0
41
1
10
19.525
20
25.3449590148056
30
0
0
SPLINE
5
16E
100
AcDbEntity
8
1
62
256
6
ByLayer
370
18
48
1
60
0
100
AcDbSpline
70
4
71
3
72
52
73
48
40
0
40
0
40
0
40
0
40
0.0625000000000023
40
0.0625000000000023
40
0.125000000000005
40
0.125000000000005
40
0.156250000000005
40
0.156250000000005
40
0.171875000000006
40
0.171875000000006
40
0.187500000000006
40
0.187500000000006
40
0.250000000000004
40
0.312500000000003
40
0.312500000000003
40
0.328125000000002
40
0.328125000000002
40
0.343750000000002
40
0.375000000000004
40
0.375000000000004
40
0.43750000000001
40
0.43750000000001
40
0.468750000000013
40
0.468750000000013
40
0.484375000000015
40
0.484375000000015
40
0.500000000000016
40
0.500000000000016
40
0.562500000000017
40
0.625000000000018
40
0.625000000000018
40
0.656250000000018
40
0.656250000000018
40
0.687500000000018
40
0.687500000000018
40
0.750000000000015
40
0.750000000000015
40
0.781250000000013
40
0.781250000000013
40
0.812500000000012
40
0.812500000000012
40
0.875000000000007
40
0.937500000000003
40
0.937500000000003
40
0.968750000000001
40
0.968750000000001
40
1
40
1
40
1
40
1
41
1
10
19.525
20
24.6330018489415
30
0
41
1
10
19.4868086767864
20
24.6029358169546
30
0
41
1
10
19.4445448396319
20
24.574107817793
30
0
41
1
10
19.3521990361071
20
24.5189320063674
30
0
41
1
10
19.3021160524582
20
24.4925842033738
30
0
41
1
10
19.2210564760524
20
24.4550297117555
30
0
41
1
10
19.1930442844046
20
24.442840484803
30
0
41
1
10
19.1494984410542
20
24.42507403296
30
0
41
1
10
19.1347511277164
20
24.4192482197647
30
0
41
1
10
19.1049628319977
20
24.407855146276
30
0
41
1
10
19.0898980754139
20
24.4022780912499
30
0
41
1
10
19.0137317759039
20
24.37498723109
30
0
41
1
10
18.8864951980351
20
24.3351121137708
30
0
41
1
10
18.7486948676454
20
24.3028998241525
30
0
41
1
10
18.6591471643889
20
24.2853079648736
30
0
41
1
10
18.6410489738628
20
24.281914745179
30
0
41
1
10
18.6047758820972
20
24.2754355517906
30
0
41
1
10
18.5501572246839
20
24.2661584169125
30
0
41
1
10
18.4949204809177
20
24.2581926367261
30
0
41
1
10
18.3836362034951
20
24.2439931663242
30
0
41
1
10
18.3083690965349
20
24.2368296797943
30
0
41
1
10
18.1938411168124
20
24.2295949600805
30
0
41
1
10
18.155393043805
20
24.227770109792
30
0
41
1
10
18.0973032727254
20
24.2259356579508
30
0
41
1
10
18.0778336915312
20
24.2254744169782
30
0
41
1
10
18.0389892022457
20
24.2248611467294
30
0
41
1
10
18.0196072498129
20
24.2247081938296
30
0
41
1
10
17.9228961376632
20
24.2247012694728
30
0
41
1
10
17.7694245064372
20
24.2295227715185
30
0
41
1
10
17.6184277702601
20
24.2437610154095
30
0
41
1
10
17.5061358714986
20
24.2580426789365
30
0
41
1
10
17.46881010801
20
24.2634193199654
30
0
41
1
10
17.3955817251096
20
24.2752154189338
30
0
41
1
10
17.3595427989878
20
24.2816498646922
30
0
41
1
10
17.2531183644443
20
24.3025170714156
30
0
41
1
10
17.1844180034841
20
24.3185076984971
30
0
41
1
10
17.0847421275837
20
24.3455454031746
30
0
41
1
10
17.0520810775454
20
24.3550681113061
30
0
41
1
10
16.9879100751789
20
24.375141223827
30
0
41
1
10
16.9563157625791
20
24.3857258475955
30
0
41
1
10
16.8645973188877
20
24.4185698782696
30
0
41
1
10
16.7496965369979
20
24.4654633962902
30
0
41
1
10
16.649167632036
20
24.518165950319
30
0
41
1
10
16.579294102085
20
24.5598397711828
30
0
41
1
10
16.5568788400374
20
24.5741247662304
30
0
41
1
10
16.5142916605768
20
24.6031845333263
30
0
41
1
10
16.4940955859082
20
24.6179688925416
30
0
41
1
10
16.475
20
24.6330018489415
30
0
0
SPLINE
5
16F
100
AcDbEntity
8
1
62
256
6
ByLayer
370
18
48
1
60
0
100
AcDbSpline
70
4
71
3
72
52
73
48
40
0
40
0
40
0
40
0
40
0.0624999999999905
40
0.0624999999999905
40
0.124999999999981
40
0.124999999999981
40
0.156249999999976
40
0.156249999999976
40
0.171874999999975
40
0.171874999999975
40
0.187499999999973
40
0.187499999999973
40
0.249999999999972
40
0.312499999999972
40
0.312499999999972
40
0.328124999999972
40
0.328124999999972
40
0.343749999999971
40
0.374999999999974
40
0.374999999999974
40
0.437499999999981
40
0.437499999999981
40
0.468749999999984
40
0.468749999999984
40
0.484374999999986
40
0.484374999999986
40
0.499999999999987
40
0.499999999999987
40
0.562499999999988
40
0.624999999999989
40
0.624999999999989
40
0.65624999999999
40
0.65624999999999
40
0.687499999999991
40
0.687499999999991
40
0.749999999999991
40
0.749999999999991
40
0.781249999999992
40
0.781249999999992
40
0.812499999999993
40
0.812499999999993
40
0.874999999999995
40
0.937499999999998
40
0.937499999999998
40
0.968749999999999
40
0.968749999999999
40
1
40
1
40
1
40
1
41
1
10
16.475
20
22.1685182903902
30
0
41
1
10
16.5131913232136
20
22.2086184980789
30
0
41
1
10
16.5554551603681
20
22.246565489362
30
0
41
1
10
16.6478009638929
20
22.3184199730795
30
0
41
1
10
16.6978839475418
20
22.3523266549284
30
0
41
1
10
16.7789435239476
20
22.4001968322483
30
0
41
1
10
16.8069557155953
20
22.4156536859763
30
0
41
1
10
16.8505015589457
20
22.4380795186072
30
0
41
1
10
16.8652488722836
20
22.4454154015669
30
0
41
1
10
16.8950371680023
20
22.4597296556158
30
0
41
1
10
16.9101019245861
20
22.4667203980956
30
0
41
1
10
16.9862682240961
20
22.5008565035102
30
0
41
1
10
17.1135048019649
20
22.5502637100461
30
0
41
1
10
17.2513051323546
20
22.5896135586987
30
0
41
1
10
17.340852835611
20
22.6110025859927
30
0
41
1
10
17.3589510261372
20
22.6151223346733
30
0
41
1
10
17.3952241179028
20
22.6229793035328
30
0
41
1
10
17.4498427753161
20
22.6342142954256
30
0
41
1
10
17.5050795190823
20
22.6438265279825
30
0
41
1
10
17.6163637965048
20
22.660933399357
30
0
41
1
10
17.691630903465
20
22.6695242940827
30
0
41
1
10
17.8061588831876
20
22.6781922694673
30
0
41
1
10
17.844606956195
20
22.6803761018085
30
0
41
1
10
17.9026967272745
20
22.6825708885939
30
0
41
1
10
17.9221663084688
20
22.6831225669927
30
0
41
1
10
17.9610107977542
20
22.6838560396105
30
0
41
1
10
17.9803927501871
20
22.6840389391603
30
0
41
1
10
18.0771038623368
20
22.6840472197256
30
0
41
1
10
18.2305754564871
20
22.6782863331296
30
0
41
1
10
18.3815722297398
20
22.6612125536784
30
0
41
1
10
18.4938641285014
20
22.6440074481464
30
0
41
1
10
18.53118989199
20
22.6375196459272
30
0
41
1
10
18.6044182748904
20
22.6232498204411
30
0
41
1
10
18.6404572010122
20
22.6154497868068
30
0
41
1
10
18.7468816355557
20
22.5900798908586
30
0
41
1
10
18.8155819965158
20
22.5705492097923
30
0
41
1
10
18.9152578724162
20
22.5372633558704
30
0
41
1
10
18.9479189224545
20
22.5255008688547
30
0
41
1
10
19.012089924821
20
22.500602659289
30
0
41
1
10
19.0436842374209
20
22.48742383331
30
0
41
1
10
19.1354026811123
20
22.4463432722842
30
0
41
1
10
19.250303463002
20
22.3872139008386
30
0
41
1
10
19.350832367964
20
22.3194118838389
30
0
41
1
10
19.420705897915
20
22.2651492822547
30
0
41
1
10
19.4431211599626
20
22.2464454108728
30
0
41
1
10
19.4857083394232
20
22.2081608840431
30
0
41
1
10
19.5059044140918
20
22.1885683147524
30
0
41
1
10
19.525
20
22.1685182903902
30
0
0
SPLINE
5
170
100
AcDbEntity
8
1
62
256
6
ByLayer
370
18
48
1
60
0
100
AcDbSpline
70
4
71
3
72
32
73
28
40
0
40
0
40
0
40
0
40
0.124999999999996
40
0.124999999999996
40
0.249999999999991
40
0.249999999999991
40
0.281249999999991
40
0.281249999999991
40
0.31249999999999
40
0.31249999999999
40
0.374999999999989
40
0.374999999999989
40
0.499999999999985
40
0.499999999999985
40
0.562499999999984
40
0.562499999999984
40
0.593749999999984
40
0.593749999999984
40
0.624999999999984
40
0.624999999999984
40
0.74999999999999
40
0.74999999999999
40
0.874999999999995
40
0.874999999999995
40
0.937499999999997
40
0.937499999999997
40
1
40
1
40
1
40
1
41
1
10
19.525
20
27.1208332690275
30
0
41
1
10
19.5622257722493
20
27.1102437886272
30
0
41
1
10
19.5945540477172
20
27.1041708178686
30
0
41
1
10
19.6502751353693
20
27.094841269757
30
0
41
1
10
19.6736593922955
20
27.0916668022928
30
0
41
1
10
19.6973388066952
20
27.0866207506159
30
0
41
1
10
19.7017954531887
20
27.0855586608656
30
0
41
1
10
19.7101445492718
20
27.0832579448407
30
0
41
1
10
19.7140405161275
20
27.0820172954398
30
0
41
1
10
19.7248000309276
20
27.0779555911893
30
0
41
1
10
19.7307633876758
20
27.0747854427417
30
0
41
1
10
19.7450941258959
20
27.0632416237393
30
0
41
1
10
19.7499173582746
20
27.0527432530066
30
0
41
1
10
19.7500397482501
20
27.0314980826331
30
0
41
1
10
19.7488912538172
20
27.0235217432637
30
0
41
1
10
19.7453483394831
20
27.010270042848
30
0
41
1
10
19.7438637724502
20
27.0056398834211
30
0
41
1
10
19.7402785478741
20
26.9959813812545
30
0
41
1
10
19.7381740269327
20
26.9909467221945
30
0
41
1
10
19.7261954023969
20
26.9650961650185
30
0
41
1
10
19.7119380543277
20
26.9420726020338
30
0
41
1
10
19.6743437734414
20
26.8952530799975
30
0
41
1
10
19.6510085472785
20
26.8714513844216
30
0
41
1
10
19.6088439545667
20
26.8386144918302
30
0
41
1
10
19.5936282036746
20
26.8281899190856
30
0
41
1
10
19.561007612055
20
26.8091729540188
30
0
41
1
10
19.5435796738199
20
26.8005578697727
30
0
41
1
10
19.5250000000015
20
26.7932469531759
30
0
0
SPLINE
5
171
100
AcDbEntity
8
1
62
256
6
ByLayer
370
18
48
1
60
0
100
AcDbSpline
70
4
71
3
72
32
73
28
40
0
40
0
40
0
40
0
40
0.125
40
0.125
40
0.25
40
0.25
40
0.28125
40
0.28125
40
0.312499999999999
40
0.312499999999999
40
0.375
40
0.375
40
0.499999999999999
40
0.499999999999999
40
0.562499999999998
40
0.562499999999998
40
0.593749999999999
40
0.593749999999999
40
0.625
40
0.625
40
0.750000000000001
40
0.750000000000001
40
0.875000000000002
40
0.875000000000002
40
0.937500000000001
40
0.937500000000001
40
1
40
1
40
1
40
1
41
1
10
19.525
20
25.3449590148056
30
0
41
1
10
19.5622257722493
20
25.3194153015701
30
0
41
1
10
19.5945540477172
20
25.2977519054731
30
0
41
1
10
19.6502751353693
20
25.2563279975244
30
0
41
1
10
19.6736593922955
20
25.2366451013006
30
0
41
1
10
19.6973388066952
20
25.2105249010716
30
0
41
1
10
19.7017954531887
20
25.2052258559486
30
0
41
1
10
19.7101445492718
20
25.1944097009008
30
0
41
1
10
19.7140405161275
20
25.1888853169808
30
0
41
1
10
19.7248000309276
20
25.1720025972996
30
0
41
1
10
19.7307633876759
20
25.1603009475975
30
0
41
1
10
19.7450941258959
20
25.1232531489136
30
0
41
1
10
19.7499173582746
20
25.0958789625443
30
0
41
1
10
19.7500397482501
20
25.0495945521474
30
0
41
1
10
19.7488912538173
20
25.0333160878797
30
0
41
1
10
19.7453483394831
20
25.0076736324579
30
0
41
1
10
19.7438637724502
20
24.9989235192026
30
0
41
1
10
19.7402785478741
20
24.9810437943411
30
0
41
1
10
19.7381740269327
20
24.9719034684447
30
0
41
1
10
19.7261954023969
20
24.9257319427237
30
0
41
1
10
19.7119380543277
20
24.886987279408
30
0
41
1
10
19.6743437734414
20
24.8093740986208
30
0
41
1
10
19.6510085472785
20
24.770500332777
30
0
41
1
10
19.6088439545667
20
24.7152064692375
30
0
41
1
10
19.5936282036746
20
24.6973444447343
30
0
41
1
10
19.561007612055
20
24.6635730532899
30
0
41
1
10
19.5435796738199
20
24.6476286547252
30
0
41
1
10
19.5250000000015
20
24.6330018489398
30
0
0
SPLINE
5
172
100
AcDbEntity
8
1
62
256
6
ByLayer
370
18
48
1
60
0
100
AcDbSpline
70
4
71
3
72
32
73
28
40
0
40
0
40
0
40
0
40
0.125
40
0.125
40
0.250000000000001
40
0.250000000000001
40
0.281250000000001
40
0.281250000000001
40
0.312500000000001
40
0.312500000000001
40
0.375000000000002
40
0.375000000000002
40
0.499999999999997
40
0.499999999999997
40
0.562499999999994
40
0.562499999999994
40
0.593749999999995
40
0.593749999999995
40
0.624999999999996
40
0.624999999999996
40
0.749999999999997
40
0.749999999999997
40
0.874999999999999
40
0.874999999999999
40
0.937499999999999
40
0.937499999999999
40
1
40
1
40
1
40
1
41
1
10
19.525
20
22.1685182903902
30
0
41
1
10
19.5622257722493
20
22.1294318939796
30
0
41
1
10
19.5945540477172
20
22.0933751952614
30
0
41
1
10
19.6502751353693
20
22.0221460192238
30
0
41
1
10
19.6736593922955
20
21.9870423742194
30
0
41
1
10
19.6973388066952
20
21.9412914318613
30
0
41
1
10
19.7017954531887
20
21.9320482574428
30
0
41
1
10
19.7101445492717
20
21.9133143658221
30
0
41
1
10
19.7140405161275
20
21.9038115257178
30
0
41
1
10
19.7248000309276
20
21.8750407323834
30
0
41
1
10
19.7307633876758
20
21.8554542164522
30
0
41
1
10
19.7450941258959
20
21.7949497053402
30
0
41
1
10
19.7499173582746
20
21.7522124052313
30
0
41
1
10
19.7500397482501
20
21.6834464386982
30
0
41
1
10
19.7488912538173
20
21.6597654000592
30
0
41
1
10
19.7453483394831
20
21.6231491958002
30
0
41
1
10
19.7438637724502
20
21.6107626613683
30
0
41
1
10
19.7402785478741
20
21.5856497502541
30
0
41
1
10
19.7381740269327
20
21.5729088533856
30
0
41
1
10
19.7261954023969
20
21.5089678049817
30
0
41
1
10
19.7119380543277
20
21.4566430775981
30
0
41
1
10
19.6743437734414
20
21.3525251547867
30
0
41
1
10
19.6510085472785
20
21.3007274891644
30
0
41
1
10
19.6088439545667
20
21.226032202379
30
0
41
1
10
19.5936282036746
20
21.2017197844351
30
0
41
1
10
19.561007612055
20
21.1550601790806
30
0
41
1
10
19.5435796738199
20
21.1326675562007
30
0
41
1
10
19.5250000000015
20
21.111533140843
30
0
0
SPLINE
5
173
100
AcDbEntity
8
1
62
256
6
ByLayer
370
18
48
1
60
0
100
AcDbSpline
70
4
71
3
72
41
73
37
40
0
40
0
40
0
40
0
40
0.0156250000000062
40
0.0156250000000062
40
0.0234375000000093
40
0.0234375000000093
40
0.0312500000000124
40
0.0468750000000121
40
0.0468750000000121
40
0.0625000000000118
40
0.0625000000000118
40
0.0937500000000111
40
0.0937500000000111
40
0.109375000000011
40
0.109375000000011
40
0.12500000000001
40
0.12500000000001
40
0.18750000000001
40
0.18750000000001
40
0.25000000000001
40
0.25000000000001
40
0.31250000000001
40
0.31250000000001
40
0.37500000000001
40
0.37500000000001
40
0.500000000000008
40
0.500000000000008
40
0.625000000000006
40
0.625000000000006
40
0.750000000000004
40
0.750000000000004
40
0.875000000000002
40
0.875000000000002
40
0.937500000000001
40
0.937500000000001
40
1
40
1
40
1
40
1
41
1
10
19.5249999999999
20
-7.61023159962957
30
0
41
1
10
19.5327024693616
20
-7.61023159962957
30
0
41
1
10
19.5403499375636
20
-7.61103410581498
30
0
41
1
10
19.5517417352149
20
-7.61339643564895
30
0
41
1
10
19.5555389622455
20
-7.61438303764569
30
0
41
1
10
19.5629467216247
20
-7.61667947511052
30
0
41
1
10
19.5738357169481
20
-7.62061761781715
30
0
41
1
10
19.5841291181375
20
-7.62587588595312
30
0
41
1
10
19.5974172425026
20
-7.63385420755566
30
0
41
1
10
19.6038132044863
20
-7.63831659750599
30
0
41
1
10
19.6220238572668
20
-7.65253689560294
30
0
41
1
10
19.6330616978773
20
-7.66321812538723
30
0
41
1
10
19.6485474404334
20
-7.68040660586607
30
0
41
1
10
19.6535386937919
20
-7.68635312220977
30
0
41
1
10
19.6631054971761
20
-7.69844289168751
30
0
41
1
10
19.6676931737667
20
-7.70459789849571
30
0
41
1
10
19.6898281317934
20
-7.73582496865617
30
0
41
1
10
19.7050613891478
20
-7.76219898622028
30
0
41
1
10
19.7327804518613
20
-7.81649283788752
30
0
41
1
10
19.7452338963722
20
-7.84449196198281
30
0
41
1
10
19.7681114975808
20
-7.90136811316489
30
0
41
1
10
19.778450296592
20
-7.93005011121824
30
0
41
1
10
19.7975412774733
20
-7.98776593550619
30
0
41
1
10
19.8062863087924
20
-8.01680134735662
30
0
41
1
10
19.8306324142891
20
-8.1043264611346
30
0
41
1
10
19.8443712784708
20
-8.16322910323458
30
0
41
1
10
19.8682330833853
20
-8.28183620895624
30
0
41
1
10
19.8783333135742
20
-8.34154570858132
30
0
41
1
10
19.8954778619715
20
-8.4616423482818
30
0
41
1
10
19.9025205311075
20
-8.52209474896756
30
0
41
1
10
19.9137604894845
20
-8.64331563626854
30
0
41
1
10
19.9179523889072
20
-8.70401289008936
30
0
41
1
10
19.9221674874787
20
-8.79518476926535
30
0
41
1
10
19.9232255222331
20
-8.82559648899198
30
0
41
1
10
19.9246418186499
20
-8.88646246628016
30
0
41
1
10
19.925
20
-8.91695840044605
30
0
41
1
10
19.925
20
-8.94738090169409
30
0
0
SPLINE
5
174
100
AcDbEntity
8
1
62
256
6
ByLayer
370
18
48
1
60
0
100
AcDbSpline
70
4
71
3
72
32
73
28
40
0
40
0
40
0
40
0
40
0.250000000000007
40
0.250000000000007
40
0.375000000000011
40
0.375000000000011
40
0.500000000000015
40
0.500000000000015
40
0.562500000000015
40
0.562500000000015
40
0.625000000000014
40
0.625000000000014
40
0.687500000000014
40
0.687500000000014
40
0.750000000000013
40
0.750000000000013
40
0.812500000000012
40
0.812500000000012
40
0.875000000000012
40
0.875000000000012
40
0.906250000000009
40
0.906250000000009
40
0.937500000000006
40
0.937500000000006
40
0.968750000000003
40
0.968750000000003
40
1
40
1
40
1
40
1
41
1
10
19.925
20
8.94738090169409
30
0
41
1
10
19.925
20
8.82590112311172
30
0
41
1
10
19.9194176880974
20
8.70490826221709
30
0
41
1
10
19.9027368669201
20
8.52414358056055
30
0
41
1
10
19.8957723681701
20
8.46401117033659
30
0
41
1
10
19.8787281897428
20
8.34401807184202
30
0
41
1
10
19.8686570848438
20
8.2841566356355
30
0
41
1
10
19.8507055228471
20
8.19461262840483
30
0
41
1
10
19.8442344836365
20
8.1647666924946
30
0
41
1
10
19.8302256509177
20
8.10536010678604
30
0
41
1
10
19.8227032010589
20
8.07585475839369
30
0
41
1
10
19.8064372623681
20
8.0173106297033
30
0
41
1
10
19.7976959923051
20
7.9882710015971
30
0
41
1
10
19.7787004633519
20
7.9307698696945
30
0
41
1
10
19.7684515593262
20
7.90230631976453
30
0
41
1
10
19.7459364641737
20
7.84615004034433
30
0
41
1
10
19.7336864060722
20
7.81845114630494
30
0
41
1
10
19.7061726787183
20
7.76420488151274
30
0
41
1
10
19.6909725350734
20
7.7376189539678
30
0
41
1
10
19.6640406321409
20
7.69936185644173
30
0
41
1
10
19.6545107395917
20
7.68711376313928
30
0
41
1
10
19.6338830913967
20
7.66404834447607
30
0
41
1
10
19.6228019250377
20
7.65321588040831
30
0
41
1
10
19.598147986261
20
7.63382469038132
30
0
41
1
10
19.5849441081097
20
7.62554992982001
30
0
41
1
10
19.5558575509739
20
7.61356706972239
30
0
41
1
10
19.5407541033155
20
7.61023159962957
30
0
41
1
10
19.5249999999999
20
7.61023159962957
30
0
0
SPLINE
5
175
100
AcDbEntity
8
1
62
256
6
ByLayer
370
18
48
1
60
0
100
AcDbSpline
70
4
71
3
72
52
73
48
40
0
40
0
40
0
40
0
40
0.0625000000000076
40
0.0625000000000076
40
0.125000000000015
40
0.125000000000015
40
0.156250000000017
40
0.156250000000017
40
0.171875000000018
40
0.171875000000018
40
0.187500000000018
40
0.187500000000018
40
0.250000000000022
40
0.312500000000026
40
0.312500000000026
40
0.328125000000028
40
0.328125000000028
40
0.343750000000029
40
0.375000000000028
40
0.375000000000028
40
0.437500000000029
40
0.437500000000029
40
0.468750000000029
40
0.468750000000029
40
0.48437500000003
40
0.48437500000003
40
0.50000000000003
40
0.50000000000003
40
0.562500000000025
40
0.62500000000002
40
0.62500000000002
40
0.656250000000017
40
0.656250000000017
40
0.687500000000015
40
0.687500000000015
40
0.750000000000012
40
0.750000000000012
40
0.781250000000011
40
0.781250000000011
40
0.81250000000001
40
0.81250000000001
40
0.875000000000005
40
0.937500000000001
40
0.937500000000001
40
0.968750000000001
40
0.968750000000001
40
1
40
1
40
1
40
1
41
1
10
19.525
20
21.1115331408446
30
0
41
1
10
19.4868086767864
20
21.0680904358896
30
0
41
1
10
19.4445448396319
20
21.0265686954631
30
0
41
1
10
19.3521990361071
20
20.947301399635
30
0
41
1
10
19.3021160524582
20
20.9095560677061
30
0
41
1
10
19.2210564760524
20
20.8558768657156
30
0
41
1
10
19.1930442844047
20
20.83847517784
30
0
41
1
10
19.1494984410542
20
20.8131384873375
30
0
41
1
10
19.1347511277164
20
20.804834992908
30
0
41
1
10
19.1049628319977
20
20.788604924208
30
0
41
1
10
19.0898980754139
20
20.7806643796111
30
0
41
1
10
19.0137317759039
20
20.7418270630417
30
0
41
1
10
18.8864951980351
20
20.685204824228
30
0
41
1
10
18.7486948676454
20
20.6396118222332
30
0
41
1
10
18.6591471643889
20
20.6147389860631
30
0
41
1
10
18.6410489738628
20
20.6099429197259
30
0
41
1
10
18.6047758820972
20
20.6007875562231
30
0
41
1
10
18.5501572246839
20
20.5876825064764
30
0
41
1
10
18.4949204809177
20
20.5764390207995
30
0
41
1
10
18.3836362034951
20
20.5564040848168
30
0
41
1
10
18.3083690965349
20
20.5463070210884
30
0
41
1
10
18.1938411168124
20
20.5361117495671
30
0
41
1
10
18.155393043805
20
20.5335408114385
30
0
41
1
10
18.0973032727254
20
20.5309564872165
30
0
41
1
10
18.0778336915312
20
20.5303067466639
30
0
41
1
10
18.0389892022457
20
20.5294428572332
30
0
41
1
10
18.0196072498129
20
20.5292274071059
30
0
41
1
10
17.9228961376632
20
20.5292176532978
30
0
41
1
10
17.7694245435129
20
20.5360080759322
30
0
41
1
10
17.6184277702601
20
20.5560766679334
30
0
41
1
10
17.5061358714986
20
20.5762273679438
30
0
41
1
10
17.46881010801
20
20.5838163160265
30
0
41
1
10
17.3955817251096
20
20.6004755590322
30
0
41
1
10
17.3595427989878
20
20.6095669890447
30
0
41
1
10
17.2531183644443
20
20.639070401083
30
0
41
1
10
17.1844180034841
20
20.6617025757021
30
0
41
1
10
17.0847421275837
20
20.7000391960735
30
0
41
1
10
17.0520810775454
20
20.7135517041687
30
0
41
1
10
16.9879100751789
20
20.7420623220073
30
0
41
1
10
16.9563157625791
20
20.757109208171
30
0
41
1
10
16.8645973188877
20
20.803848760341
30
0
41
1
10
16.7496965369979
20
20.8707070844324
30
0
41
1
10
16.649167632036
20
20.9462023624627
30
0
41
1
10
16.579294102085
20
21.0060700450952
30
0
41
1
10
16.5568788400374
20
21.0266188377626
30
0
41
1
10
16.5142916605768
20
21.0684829410257
30
0
41
1
10
16.4940955859081
20
21.0898118744745
30
0
41
1
10
16.475
20
21.1115331408446
30
0
0
SPLINE
5
176
100
AcDbEntity
8
1
62
256
6
ByLayer
370
18
48
1
60
0
100
AcDbSpline
70
4
71
3
72
40
73
36
40
0
40
0
40
0
40
0
40
0.0156250000000026
40
0.0156250000000026
40
0.0312500000000053
40
0.0312500000000053
40
0.0468750000000079
40
0.0468750000000079
40
0.0625000000000106
40
0.0625000000000106
40
0.0781250000000132
40
0.0781250000000132
40
0.0937500000000159
40
0.0937500000000159
40
0.125000000000018
40
0.125000000000018
40
0.15625000000002
40
0.15625000000002
40
0.187500000000022
40
0.187500000000022
40
0.25000000000002
40
0.25000000000002
40
0.312500000000019
40
0.312500000000019
40
0.375000000000018
40
0.375000000000018
40
0.437500000000017
40
0.437500000000017
40
0.500000000000016
40
0.500000000000016
40
0.625000000000012
40
0.625000000000012
40
0.750000000000008
40
0.750000000000008
40
1
40
1
40
1
40
1
41
1
10
16.475
20
7.61023159962977
30
0
41
1
10
16.4673226919548
20
7.61023159962977
30
0
41
1
10
16.4596313914732
20
7.61103358484917
30
0
41
1
10
16.4443522436319
20
7.61421086120183
30
0
41
1
10
16.4369772923286
20
7.61653378190147
30
0
41
1
10
16.4226671530005
20
7.62239989121716
30
0
41
1
10
16.4156891178927
20
7.62597509035177
30
0
41
1
10
16.4024395960546
20
7.63395033809326
30
0
41
1
10
16.3961337977332
20
7.63835570952759
30
0
41
1
10
16.3840205954806
20
7.64781920304401
30
0
41
1
10
16.3782140529183
20
7.65287845326691
30
0
41
1
10
16.367007662028
20
7.6635296040196
30
0
41
1
10
16.36160864823
20
7.66912552665155
30
0
41
1
10
16.3461431413254
20
7.68631676763442
30
0
41
1
10
16.336700018815
20
7.69839665021536
30
0
41
1
10
16.3189863257432
20
7.72339343283409
30
0
41
1
10
16.3107230075455
20
7.73631550991763
30
0
41
1
10
16.2950782779869
20
7.76278920669765
30
0
41
1
10
16.2876895460749
20
7.77636712554124
30
0
41
1
10
16.2667934397999
20
7.81739135615533
30
0
41
1
10
16.2544360687867
20
7.84527283073442
30
0
41
1
10
16.2317610364964
20
7.90172544761282
30
0
41
1
10
16.2214615373228
20
7.93030273089204
30
0
41
1
10
16.2023941560713
20
7.98797516862197
30
0
41
1
10
16.1936321375888
20
8.01707230567459
30
0
41
1
10
16.1773412140386
20
8.0756835207311
30
0
41
1
10
16.1698146974544
20
8.10519840633023
30
0
41
1
10
16.1558069562402
20
8.16458161218941
30
0
41
1
10
16.1493205605639
20
8.19448609819008
30
0
41
1
10
16.1313301316801
20
8.28421326012079
30
0
41
1
10
16.1212477874993
20
8.3441620344669
30
0
41
1
10
16.104194130089
20
8.46427227216242
30
0
41
1
10
16.0972316710736
20
8.5244343408398
30
0
41
1
10
16.080563853804
20
8.70520902164992
30
0
41
1
10
16.075
20
8.82610477222377
30
0
41
1
10
16.075
20
8.94738090169409
30
0
0
SPLINE
5
177
100
AcDbEntity
8
1
62
256
6
ByLayer
370
18
48
1
60
0
100
AcDbSpline
70
4
71
3
72
32
73
28
40
0
40
0
40
0
40
0
40
0.125000000000002
40
0.125000000000002
40
0.250000000000004
40
0.250000000000004
40
0.281250000000004
40
0.281250000000004
40
0.312500000000004
40
0.312500000000004
40
0.375
40
0.375
40
0.499999999999992
40
0.499999999999992
40
0.56249999999999
40
0.56249999999999
40
0.593749999999991
40
0.593749999999991
40
0.624999999999992
40
0.624999999999992
40
0.749999999999994
40
0.749999999999994
40
0.874999999999996
40
0.874999999999996
40
0.937499999999998
40
0.937499999999998
40
1
40
1
40
1
40
1
41
1
10
16.475
20
21.1115331408446
30
0
41
1
10
16.4377742277507
20
21.1538775296866
30
0
41
1
10
16.4054459522828
20
21.200838332596
30
0
41
1
10
16.3497248646307
20
21.2993093819061
30
0
41
1
10
16.3263406077045
20
21.3508806922864
30
0
41
1
10
16.3026611933048
20
21.4161519086275
30
0
41
1
10
16.2982045468113
20
21.4292477138106
30
0
41
1
10
16.2898554507283
20
21.455473532548
30
0
41
1
10
16.2859594838725
20
21.4686193751549
30
0
41
1
10
16.2751999690725
20
21.5077667562005
30
0
41
1
10
16.2692366123242
20
21.5335517665318
30
0
41
1
10
16.2549058741041
20
21.6094617601546
30
0
41
1
10
16.2500826417254
20
21.6580701023619
30
0
41
1
10
16.24996025175
20
21.7269795525294
30
0
41
1
10
16.2511087461828
20
21.7492991797791
30
0
41
1
10
16.2546516605169
20
21.7818472878892
30
0
41
1
10
16.2561362275498
20
21.79254269297
30
0
41
1
10
16.2597214521259
20
21.8136474324661
30
0
41
1
10
16.2618259730673
20
21.824067405485
30
0
41
1
10
16.2738045976031
20
21.8751130477693
30
0
41
1
10
16.2880619456723
20
21.9128898476825
30
0
41
1
10
16.3256562265586
20
21.9859090225324
30
0
41
1
10
16.3489914527215
20
22.0211465682343
30
0
41
1
10
16.3911560454333
20
22.0751383411964
30
0
41
1
10
16.4063717963254
20
22.0932750563104
30
0
41
1
10
16.438992387945
20
22.1301973514886
30
0
41
1
10
16.4564203261801
20
22.1490099645129
30
0
41
1
10
16.4749999999985
20
22.1685182903894
30
0
0
SPLINE
5
178
100
AcDbEntity
8
1
62
256
6
ByLayer
370
18
48
1
60
0
100
AcDbSpline
70
4
71
3
72
32
73
28
40
0
40
0
40
0
40
0
40
0.125000000000005
40
0.125000000000005
40
0.250000000000011
40
0.250000000000011
40
0.281250000000011
40
0.281250000000011
40
0.312500000000011
40
0.312500000000011
40
0.375000000000008
40
0.375000000000008
40
0.500000000000003
40
0.500000000000003
40
0.562500000000001
40
0.562500000000001
40
0.593750000000001
40
0.593750000000001
40
0.625
40
0.625
40
0.750000000000001
40
0.750000000000001
40
0.875000000000001
40
0.875000000000001
40
0.9375
40
0.9375
40
1
40
1
40
1
40
1
41
1
10
16.475
20
24.6330018489415
30
0
41
1
10
16.4377742277507
20
24.6623077531367
30
0
41
1
10
16.4054459522828
20
24.6965627445414
30
0
41
1
10
16.3497248646307
20
24.7694444079974
30
0
41
1
10
16.3263406077045
20
24.8081434631318
30
0
41
1
10
16.3026611933048
20
24.8568048447345
30
0
41
1
10
16.2982045468113
20
24.8665527438494
30
0
41
1
10
16.2898554507283
20
24.8860202573832
30
0
41
1
10
16.2859594838725
20
24.8957514255025
30
0
41
1
10
16.2751999690725
20
24.9246165869179
30
0
41
1
10
16.2692366123242
20
24.9434759940694
30
0
41
1
10
16.2549058741041
20
24.9983133881108
30
0
41
1
10
16.2500826417254
20
25.0324672039518
30
0
41
1
10
16.24996025175
20
25.0789173031414
30
0
41
1
10
16.2511087461828
20
25.093623667495
30
0
41
1
10
16.2546516605169
20
25.1145684586721
30
0
41
1
10
16.2561362275498
20
25.1213657277478
30
0
41
1
10
16.2597214521259
20
25.1346169866617
30
0
41
1
10
16.2618259730673
20
25.1410772085035
30
0
41
1
10
16.2738045976031
20
25.172357668224
30
0
41
1
10
16.2880619456723
20
25.1943030042349
30
0
41
1
10
16.3256562265586
20
25.2360046748196
30
0
41
1
10
16.3489914527215
20
25.255755519181
30
0
41
1
10
16.3911560454333
20
25.2871418463524
30
0
41
1
10
16.4063717963254
20
25.2978724321412
30
0
41
1
10
16.438992387945
20
25.3203995923332
30
0
41
1
10
16.4564203261801
20
25.3322099479255
30
0
41
1
10
16.4749999999985
20
25.3449590148044
30
0
0
SPLINE
5
179
100
AcDbEntity
8
1
62
256
6
ByLayer
370
18
48
1
60
0
100
AcDbSpline
70
4
71
3
72
32
73
28
40
0
40
0
40
0
40
0
40
0.124999999999998
40
0.124999999999998
40
0.249999999999996
40
0.249999999999996
40
0.281249999999998
40
0.281249999999998
40
0.312499999999999
40
0.312499999999999
40
0.374999999999999
40
0.374999999999999
40
0.499999999999999
40
0.499999999999999
40
0.562499999999999
40
0.562499999999999
40
0.59375
40
0.59375
40
0.625
40
0.625
40
0.750000000000001
40
0.750000000000001
40
0.875000000000001
40
0.875000000000001
40
0.937500000000001
40
0.937500000000001
40
1
40
1
40
1
40
1
41
1
10
16.475
20
26.7932469531775
30
0
41
1
10
16.4377742277507
20
26.8078949237945
30
0
41
1
10
16.4054459522828
20
26.827551167416
30
0
41
1
10
16.3497248646307
20
26.8708159926922
30
0
41
1
10
16.3263406077045
20
26.8945042766329
30
0
41
1
10
16.3026611933048
20
26.9238667878026
30
0
41
1
10
16.2982045468113
20
26.9297281103922
30
0
41
1
10
16.2898554507283
20
26.9413615408255
30
0
41
1
10
16.2859594838725
20
26.9471402885575
30
0
41
1
10
16.2751999690725
20
26.9641281369275
30
0
41
1
10
16.2692366123242
20
26.9750197670575
30
0
41
1
10
16.2549058741041
20
27.0057542383923
30
0
41
1
10
16.2500826417254
20
27.0235661825663
30
0
41
1
10
16.24996025175
20
27.0449900909016
30
0
41
1
10
16.2511087461828
20
27.0512705163237
30
0
41
1
10
16.2546516605169
20
27.0594545780727
30
0
41
1
10
16.2561362275498
20
27.0619780929721
30
0
41
1
10
16.2597214521259
20
27.0666436046266
30
0
41
1
10
16.2618259730673
20
27.0687870824038
30
0
41
1
10
16.2738045976031
20
27.0785737963763
30
0
41
1
10
16.2880619456723
20
27.0834749657232
30
0
41
1
10
16.3256562265586
20
27.0915546910871
30
0
41
1
10
16.3489914527215
20
27.0947273993041
30
0
41
1
10
16.3911560454333
20
27.1017738672485
30
0
41
1
10
16.4063717963254
20
27.104505349833
30
0
41
1
10
16.438992387945
20
27.1113925205802
30
0
41
1
10
16.4564203261801
20
27.1155479766103
30
0
41
1
10
16.4749999999985
20
27.1208332690261
30
0
0
SPLINE
5
17A
100
AcDbEntity
8
1
62
256
6
ByLayer
370
18
48
1
60
0
100
AcDbSpline
70
4
71
3
72
43
73
39
40
0
40
0
40
0
40
0
40
0.0312500000000019
40
0.0468750000000028
40
0.0468750000000028
40
0.0625000000000037
40
0.0625000000000037
40
0.125
40
0.125
40
0.249999999999997
40
0.249999999999997
40
0.374999999999994
40
0.374999999999994
40
0.499999999999991
40
0.499999999999991
40
0.562499999999991
40
0.562499999999991
40
0.624999999999991
40
0.624999999999991
40
0.687499999999991
40
0.687499999999991
40
0.749999999999992
40
0.749999999999992
40
0.812499999999992
40
0.812499999999992
40
0.874999999999994
40
0.874999999999994
40
0.906249999999995
40
0.906249999999995
40
0.937499999999997
40
0.937499999999997
40
0.953124999999998
40
0.953124999999998
40
0.968749999999998
40
0.968749999999998
40
0.984374999999999
40
0.984374999999999
40
1
40
1
40
1
40
1
41
1
10
16.075
20
-8.94738090169409
30
0
41
1
10
16.075
20
-8.93202653026455
30
0
41
1
10
16.0751365849994
20
-8.9089905780553
30
0
41
1
10
16.0754758626392
20
-8.88594810355355
30
0
41
1
10
16.075746932848
20
-8.87058500956167
30
0
41
1
10
16.0759038171723
20
-8.86296042153916
30
0
41
1
10
16.0767949927214
20
-8.82493954363983
30
0
41
1
10
16.0778568492287
20
-8.79456790066482
30
0
41
1
10
16.0820758084386
20
-8.70358642464188
30
0
41
1
10
16.0862603584563
20
-8.64310927709255
30
0
41
1
10
16.0974385364549
20
-8.52251774892571
30
0
41
1
10
16.1044294596705
20
-8.4624030190123
30
0
41
1
10
16.1215043578533
20
-8.34257299875554
30
0
41
1
10
16.1315802635743
20
-8.2828566663423
30
0
41
1
10
16.149500500301
20
-8.19364458599722
30
0
41
1
10
16.1559450263736
20
-8.16396806595893
30
0
41
1
10
16.1699258291671
20
-8.10475601557295
30
0
41
1
10
16.177476711478
20
-8.07516461587494
30
0
41
1
10
16.1938123009322
20
-8.01645614452735
30
0
41
1
10
16.2025867216863
20
-7.9873593183479
30
0
41
1
10
16.2216379573908
20
-7.92980317660201
30
0
41
1
10
16.2319096812842
20
-7.90134170074845
30
0
41
1
10
16.2544451397652
20
-7.84526401851989
30
0
41
1
10
16.266693779869
20
-7.81764140710573
30
0
41
1
10
16.2941410840467
20
-7.76364796732767
30
0
41
1
10
16.3092748695163
20
-7.7372496090392
30
0
41
1
10
16.3359747367858
20
-7.6993490466607
30
0
41
1
10
16.3455942657686
20
-7.6869879140435
30
0
41
1
10
16.3661741450819
20
-7.66399284471717
30
0
41
1
10
16.3771818775179
20
-7.6532545283018
30
0
41
1
10
16.3953646244701
20
-7.6389146477801
30
0
41
1
10
16.4017075287816
20
-7.63443295047963
30
0
41
1
10
16.4151449121746
20
-7.6262645057534
30
0
41
1
10
16.4221338200381
20
-7.62265111554476
30
0
41
1
10
16.4365565353214
20
-7.61667575179195
30
0
41
1
10
16.4440715350419
20
-7.61428448761549
30
0
41
1
10
16.4594812495918
20
-7.611049973755
30
0
41
1
10
16.4672221589506
20
-7.61023159962963
30
0
41
1
10
16.475
20
-7.61023159962963
30
0
0
SPLINE
5
17B
100
AcDbEntity
8
1
62
256
6
ByLayer
370
18
48
1
60
0
100
AcDbSpline
70
4
71
3
72
8
73
4
40
0
40
0
40
0
40
0
40
1
40
1
40
1
40
1
41
1
10
16.075
20
9.01749999999998
30
0
41
1
10
15.5933771502786
20
9.01749999999998
30
0
41
1
10
15.1100404143128
20
9.01749999999998
30
0
41
1
10
14.6253876765867
20
9.01749999999998
30
0
0
SPLINE
5
17C
100
AcDbEntity
8
1
62
256
6
ByLayer
370
18
48
1
60
0
100
AcDbSpline
70
4
71
3
72
8
73
4
40
0
40
0
40
0
40
0
40
1
40
1
40
1
40
1
41
1
10
21.3746123234134
20
9.01749999999998
30
0
41
1
10
20.8899595856872
20
9.01749999999998
30
0
41
1
10
20.4066228497214
20
9.01749999999998
30
0
41
1
10
19.925
20
9.01749999999998
30
0
0
SPLINE
5
17D
100
AcDbEntity
8
1
62
256
6
ByLayer
370
18
48
1
60
0
100
AcDbSpline
70
4
71
3
72
8
73
4
40
0
40
0
40
0
40
0
40
1
40
1
40
1
40
1
41
1
10
25.45
20
-9.01749999999998
30
0
41
1
10
25.6167293283391
20
-9.01749999999998
30
0
41
1
10
25.7833972320879
20
-9.01749999999998
30
0
41
1
10
25.95
20
-9.01749999999998
30
0
0
SPLINE
5
17E
100
AcDbEntity
8
1
62
256
6
ByLayer
370
18
48
1
60
0
100
AcDbSpline
70
4
71
3
72
8
73
4
40
0
40
0
40
0
40
0
40
1
40
1
40
1
40
1
41
1
10
25.95
20
9.01749999999998
30
0
41
1
10
25.7833972320879
20
9.01749999999998
30
0
41
1
10
25.6167293283391
20
9.01749999999998
30
0
41
1
10
25.45
20
9.01749999999998
30
0
0
SPLINE
5
17F
100
AcDbEntity
8
1
62
256
6
ByLayer
370
18
48
1
60
0
100
AcDbSpline
70
4
71
3
72
8
73
4
40
0
40
0
40
0
40
0
40
1
40
1
40
1
40
1
41
1
10
14.6253876765866
20
-9.01749999999998
30
0
41
1
10
15.1100404143128
20
-9.01749999999998
30
0
41
1
10
15.5933771502786
20
-9.01749999999998
30
0
41
1
10
16.075
20
-9.01749999999998
30
0
0
SPLINE
5
180
100
AcDbEntity
8
1
62
256
6
ByLayer
370
18
48
1
60
0
100
AcDbSpline
70
4
71
3
72
8
73
4
40
0
40
0
40
0
40
0
40
1
40
1
40
1
40
1
41
1
10
19.925
20
-9.01749999999998
30
0
41
1
10
20.4066228497214
20
-9.01749999999998
30
0
41
1
10
20.8899595856872
20
-9.01749999999998
30
0
41
1
10
21.3746123234134
20
-9.01749999999998
30
0
0
SPLINE
5
181
100
AcDbEntity
8
1
62
256
6
ByLayer
370
18
48
1
60
0
100
AcDbSpline
70
4
71
3
72
53
73
49
40
0
40
0
40
0
40
0
40
0.0624999999999989
40
0.0624999999999989
40
0.124999999999998
40
0.124999999999998
40
0.187499999999997
40
0.187499999999997
40
0.203124999999996
40
0.203124999999996
40
0.218749999999996
40
0.218749999999996
40
0.249999999999996
40
0.249999999999996
40
0.312499999999996
40
0.312499999999996
40
0.374999999999995
40
0.374999999999995
40
0.406249999999995
40
0.406249999999995
40
0.421874999999995
40
0.421874999999995
40
0.437499999999995
40
0.437499999999995
40
0.499999999999996
40
0.499999999999996
40
0.562499999999997
40
0.562499999999997
40
0.624999999999997
40
0.624999999999997
40
0.640624999999997
40
0.640624999999997
40
0.656249999999997
40
0.687499999999998
40
0.687499999999998
40
0.749999999999998
40
0.749999999999998
40
0.812499999999998
40
0.812499999999998
40
0.843749999999998
40
0.843749999999998
40
0.859374999999998
40
0.859374999999998
40
0.874999999999999
40
0.874999999999999
40
0.937499999999999
40
0.937499999999999
40
1
40
1
40
1
40
1
41
1
10
12.95
20
9.01749999999998
30
0
41
1
10
12.6841313593866
20
9.01749999999998
30
0
41
1
10
12.420647498405
20
9.00428156970125
30
0
41
1
10
11.8982638705435
20
8.95240674343816
30
0
41
1
10
11.6393646026072
20
8.91374750647225
30
0
41
1
10
11.1260959657865
20
8.81120668567581
30
0
41
1
10
10.8717264718107
20
8.74732597816791
30
0
41
1
10
10.5566391253124
20
8.65138257248142
30
0
41
1
10
10.4937656966583
20
8.63138737236397
30
0
41
1
10
10.3683093033381
20
8.58976789137341
30
0
41
1
10
10.3057219374419
20
8.56813881087706
30
0
41
1
10
10.1194618268704
20
8.5011799335789
30
0
41
1
10
9.99692951457195
20
8.45366383802914
30
0
41
1
10
9.63413312205708
20
8.30266702069591
30
0
41
1
10
9.39865793344254
20
8.19075902287267
30
0
41
1
10
8.94013129968297
20
7.94488251355753
30
0
41
1
10
8.7170802774682
20
7.81091356129224
30
0
41
1
10
8.39183435684626
20
7.59322393486906
30
0
41
1
10
8.28497698908882
20
7.51786612484557
30
0
41
1
10
8.1270559476547
20
7.40056435266712
30
0
41
1
10
8.07474052483525
20
7.36069734775228
30
0
41
1
10
7.97132476718412
20
7.27985582419754
30
0
41
1
10
7.92022166488195
20
7.23888285633782
30
0
41
1
10
7.66769106088228
20
7.0312848482161
30
0
41
1
10
7.47519443651623
20
6.85648182027413
30
0
41
1
10
7.10865483934171
20
6.4897839262504
30
0
41
1
10
6.93461315369413
20
6.29788822220127
30
0
41
1
10
6.60496316861745
20
5.89683256668064
30
0
41
1
10
6.44935329682477
20
5.68767442292131
30
0
41
1
10
6.26671018689765
20
5.41499312879887
30
0
41
1
10
6.23077961689893
20
5.35989299353488
30
0
41
1
10
6.16050409576215
20
5.24917163581006
30
0
41
1
10
6.05731623933841
20
5.08208211556715
30
0
41
1
10
5.9607330741635
20
4.91199460890078
30
0
41
1
10
5.7762484438189
20
4.56785917726438
30
0
41
1
10
5.66481288123555
20
4.33316429088495
30
0
41
1
10
5.46492163805172
20
3.85319796712466
30
0
41
1
10
5.37646500709747
20
3.60792711119188
30
0
41
1
10
5.26144287268465
20
3.23183410459839
30
0
41
1
10
5.22605148530559
20
3.10510288766176
30
0
41
1
10
5.17749558495797
20
2.91290015213357
30
0
41
1
10
5.16207042207299
20
2.84848838315375
30
0
41
1
10
5.13289039673245
20
2.71960546691344
30
0
41
1
10
5.11911462028144
20
2.65505406706944
30
0
41
1
10
5.05428379043076
20
2.33174958961254
30
0
41
1
10
5.0153430130141
20
2.07135768861204
30
0
41
1
10
4.96320171145763
20
1.54707589362408
30
0
41
1
10
4.94999999999999
20
1.28318616959129
30
0
41
1
10
4.94999999999999
20
1.01750000000001
30
0
0
SPLINE
5
182
100
AcDbEntity
8
1
62
256
6
ByLayer
370
18
48
1
60
0
100
AcDbSpline
70
4
71
3
72
54
73
50
40
0
40
0
40
0
40
0
40
0.0624999999999994
40
0.0624999999999994
40
0.124999999999999
40
0.187499999999998
40
0.187499999999998
40
0.203124999999998
40
0.203124999999998
40
0.218749999999998
40
0.218749999999998
40
0.249999999999998
40
0.249999999999998
40
0.312499999999997
40
0.312499999999997
40
0.374999999999996
40
0.374999999999996
40
0.406249999999996
40
0.406249999999996
40
0.421874999999995
40
0.421874999999995
40
0.437499999999995
40
0.437499999999995
40
0.499999999999994
40
0.499999999999994
40
0.562499999999993
40
0.562499999999993
40
0.624999999999993
40
0.624999999999993
40
0.632812499999993
40
0.632812499999993
40
0.640624999999993
40
0.640624999999993
40
0.656249999999993
40
0.687499999999994
40
0.687499999999994
40
0.749999999999995
40
0.749999999999995
40
0.812499999999996
40
0.812499999999996
40
0.843749999999997
40
0.843749999999997
40
0.859374999999997
40
0.859374999999997
40
0.874999999999998
40
0.874999999999998
40
0.937499999999999
40
0.937499999999999
40
1
40
1
40
1
40
1
41
1
10
4.94999999999999
20
-1.01749999999998
30
0
41
1
10
4.94999999999999
20
-1.28321855847429
30
0
41
1
10
4.96320332389666
20
-1.54647828246479
30
0
41
1
10
5.0149762347682
20
-2.06827924129732
30
0
41
1
10
5.09212212659659
20
-2.58536053825858
30
0
41
1
10
5.21948587240465
20
-3.09313699258192
30
0
41
1
10
5.31508247467499
20
-3.40755318593651
30
0
41
1
10
5.33500338384488
20
-3.47028890645566
30
0
41
1
10
5.37646363542584
20
-3.59546311419675
30
0
41
1
10
5.39802901009426
20
-3.65796920082073
30
0
41
1
10
5.4648193209535
20
-3.844060442211
30
0
41
1
10
5.5122151193039
20
-3.96647828372355
30
0
41
1
10
5.66282464693495
20
-4.32892609327459
30
0
41
1
10
5.77443936590146
20
-4.56416189269126
30
0
41
1
10
6.0196425271485
20
-5.02220052478143
30
0
41
1
10
6.15323143214724
20
-5.2450028861164
30
0
41
1
10
6.37027058357381
20
-5.56987539213148
30
0
41
1
10
6.44539813617322
20
-5.67660825317353
30
0
41
1
10
6.56233213376078
20
-5.83434367724729
30
0
41
1
10
6.60201833431029
20
-5.88652893035422
30
0
41
1
10
6.6828189562687
20
-5.99010049849716
30
0
41
1
10
6.7237706850573
20
-6.04127832596558
30
0
41
1
10
6.93125749590902
20
-6.29416761133785
30
0
41
1
10
7.10595541319907
20
-6.4869033638542
30
0
41
1
10
7.47238623578693
20
-6.85384969301535
30
0
41
1
10
7.66412003569914
20
-7.02805892704066
30
0
41
1
10
8.06477337455669
20
-7.35799733305558
30
0
41
1
10
8.27369116965085
20
-7.51372802161063
30
0
41
1
10
8.51877817503413
20
-7.67823185216687
30
0
41
1
10
8.54615008531209
20
-7.69636114193926
30
0
41
1
10
8.60117596137886
20
-7.73232015436852
30
0
41
1
10
8.62884835323041
20
-7.75016141959912
30
0
41
1
10
8.71208932669376
20
-7.80310524245471
30
0
41
1
10
8.8795670698747
20
-7.90674236584749
30
0
41
1
10
9.05000565221562
20
-8.00370512017483
30
0
41
1
10
9.39478841653238
20
-8.1888696162174
30
0
41
1
10
9.62984181097744
20
-8.30065288803254
30
0
41
1
10
10.1103513205057
20
-8.50109283817849
30
0
41
1
10
10.3558070141257
20
-8.58975020852355
30
0
41
1
10
10.7320238627841
20
-8.70500833962814
30
0
41
1
10
10.8587707514647
20
-8.74046753265898
30
0
41
1
10
11.0509551214302
20
-8.78911472084704
30
0
41
1
10
11.1154358596218
20
-8.80458980929043
30
0
41
1
10
11.2447145247582
20
-8.83391828020004
30
0
41
1
10
11.3094560341208
20
-8.84776115965207
30
0
41
1
10
11.6336717540774
20
-8.91289544712026
30
0
41
1
10
11.8946670010514
20
-8.95197672780171
30
0
41
1
10
12.4198900458876
20
-9.00427858208477
30
0
41
1
10
12.6841177347867
20
-9.01749999999998
30
0
41
1
10
12.95
20
-9.01749999999998
30
0
0
SPLINE
5
183
100
AcDbEntity
8
1
62
256
6
ByLayer
370
18
48
1
60
0
100
AcDbSpline
70
4
71
3
72
92
73
88
40
0
40
0
40
0
40
0
40
0.0310092715408742
40
0.0310092715408742
40
0.0622670369750399
40
0.0622670369750399
40
0.0700814783335813
40
0.0700814783335813
40
0.077895919692123
40
0.0935248024092058
40
0.0935248024092058
40
0.124782567843371
40
0.156040333277537
40
0.156040333277537
40
0.17166921599462
40
0.17166921599462
40
0.179483657353162
40
0.179483657353162
40
0.187298098711703
40
0.187298098711703
40
0.218555864145869
40
0.249813629580034
40
0.249813629580034
40
0.281071395014199
40
0.281071395014199
40
0.288885836372741
40
0.288885836372741
40
0.296700277731282
40
0.312329160448365
40
0.312329160448365
40
0.343586925882531
40
0.374844691316697
40
0.374844691316697
40
0.39047357403378
40
0.39047357403378
40
0.406102456750863
40
0.406102456750863
40
0.437360222185029
40
0.468617987619195
40
0.468617987619195
40
0.484246870336278
40
0.484246870336278
40
0.492061311694819
40
0.492061311694819
40
0.499875753053361
40
0.499875753053361
40
0.531133518487527
40
0.531133518487527
40
0.562391283921694
40
0.59364904935586
40
0.59364904935586
40
0.601463490714401
40
0.601463490714401
40
0.609277932072943
40
0.609277932072943
40
0.624906814790025
40
0.624906814790025
40
0.65616458022419
40
0.687422345658355
40
0.687422345658355
40
0.703051228375437
40
0.703051228375437
40
0.710865669733978
40
0.710865669733978
40
0.718680111092519
40
0.718680111092519
40
0.749937876526683
40
0.781195641960848
40
0.781195641960848
40
0.812453407395012
40
0.812453407395012
40
0.820267848753553
40
0.820267848753553
40
0.828082290112094
40
0.843711172829176
40
0.843711172829176
40
0.874968938263341
40
0.906226703697505
40
0.906226703697505
40
0.921855586414588
40
0.921855586414588
40
0.929670027773129
40
0.929670027773129
40
0.93748446913167
40
0.93748446913167
40
0.968742234565835
40
1
40
1
40
1
40
1
41
1
10
1.97750037954614
20
-31.4699999388693
30
0
41
1
10
1.97756363612146
20
-31.4699897974233
30
0
41
1
10
1.98551509179794
20
-31.4687179317071
30
0
41
1
10
2.01730937280206
20
-31.4636671626933
30
0
41
1
10
2.04127795135659
20
-31.4598681862222
30
0
41
1
10
2.08153601650164
20
-31.453562889898
30
0
41
1
10
2.09011165266981
20
-31.4522227654335
30
0
41
1
10
2.10827168240198
20
-31.4493929592187
30
0
41
1
10
2.13696000586685
20
-31.4449341796747
30
0
41
1
10
2.16993698319737
20
-31.4398528407364
30
0
41
1
10
2.24150765554458
20
-31.4289101170974
30
0
41
1
10
2.35188687819709
20
-31.4122426878448
30
0
41
1
10
2.49176593374276
20
-31.3919367374494
30
0
41
1
10
2.60791227551187
20
-31.3755375942001
30
0
41
1
10
2.64850394072769
20
-31.3698763022901
30
0
41
1
10
2.71225980213762
20
-31.3611171139302
30
0
41
1
10
2.73400711866773
20
-31.3581506018445
30
0
41
1
10
2.77822476648203
20
-31.3521657948335
30
0
41
1
10
2.80072129528506
20
-31.3491438667888
30
0
41
1
10
2.91512268842069
20
-31.3339010395864
30
0
41
1
10
3.110410493823
20
-31.3086675680832
30
0
41
1
10
3.32963542839082
20
-31.2824834550234
30
0
41
1
10
3.5609060914995
20
-31.2561923774597
30
0
41
1
10
3.68256306876467
20
-31.2429927112997
30
0
41
1
10
3.84243907564686
20
-31.2266644551091
30
0
41
1
10
3.87472487556389
20
-31.2234157545487
30
0
41
1
10
3.93975854023157
20
-31.2169733353643
30
0
41
1
10
4.0380749178203
20
-31.2073847672348
30
0
41
1
10
4.13866541037291
20
-31.1980453648337
30
0
41
1
10
4.34284019785648
20
-31.1797607166675
30
0
41
1
10
4.62304460804577
20
-31.1564353752979
30
0
41
1
10
4.9191359297362
20
-31.1358689791426
30
0
41
1
10
5.14731741056485
20
-31.1217297646122
30
0
41
1
10
5.22445333435138
20
-31.1172280774846
30
0
41
1
10
5.38058952085885
20
-31.1087095130006
30
0
41
1
10
5.45903364297612
20
-31.1047226852131
30
0
41
1
10
5.69547230984654
20
-31.0936067835141
30
0
41
1
10
6.01366846567373
20
-31.0810392971748
30
0
41
1
10
6.3376537235001
20
-31.0732583643421
30
0
41
1
10
6.58283766472411
20
-31.0693215314281
30
0
41
1
10
6.66493211259382
20
-31.0683257337552
30
0
41
1
10
6.78863246663741
20
-31.0673199664703
30
0
41
1
10
6.82995907463112
20
-31.0670660348637
30
0
41
1
10
6.91280063734555
20
-31.0667230622595
30
0
41
1
10
6.9543753438125
20
-31.0666340943484
30
0
41
1
10
7.16182456343196
20
-31.066606483899
30
0
41
1
10
7.32644490609971
20
-31.0679141759137
30
0
41
1
10
7.65309721813617
20
-31.0730634495985
30
0
41
1
10
7.9771601916089
20
-31.0807462591924
30
0
41
1
10
8.29607400826683
20
-31.0932508442756
30
0
41
1
10
8.49374875802542
20
-31.1024937827678
30
0
41
1
10
8.53320120061892
20
-31.1044137335573
30
0
41
1
10
8.61193936183878
20
-31.1083943059261
30
0
41
1
10
8.65119518825313
20
-31.1104536486322
30
0
41
1
10
8.76806259088482
20
-31.1168023223985
30
0
41
1
10
8.84498475347803
20
-31.1212727187844
30
0
41
1
10
9.07284302572177
20
-31.1353354903533
30
0
41
1
10
9.36891313137437
20
-31.155819863118
30
0
41
1
10
9.64979023957287
20
-31.179131978018
30
0
41
1
10
9.85469305689946
20
-31.1974364076416
30
0
41
1
10
9.92203311435605
20
-31.2036745837146
30
0
41
1
10
10.0215784679151
20
-31.2132061674463
30
0
41
1
10
10.0545503640593
20
-31.2164158165903
30
0
41
1
10
10.1198393490693
20
-31.222872002295
30
0
41
1
10
10.1521018977693
20
-31.2261130150734
30
0
41
1
10
10.3115268280287
20
-31.2423678749674
30
0
41
1
10
10.5545609571191
20
-31.2686864633103
30
0
41
1
10
10.7741766920927
20
-31.2948744051435
30
0
41
1
10
10.9820729655368
20
-31.3206267407507
30
0
41
1
10
11.0801623345576
20
-31.3332857459614
30
0
41
1
10
11.1952227769773
20
-31.3486007299242
30
0
41
1
10
11.2178835339078
20
-31.3516419476272
30
0
41
1
10
11.2622202024702
20
-31.3576375074302
30
0
41
1
10
11.3273032083542
20
-31.366507914615
30
0
41
1
10
11.3881706482481
20
-31.3749894809689
30
0
41
1
10
11.504372722589
20
-31.3913827547872
30
0
41
1
10
11.6445789767551
20
-31.4117179426263
30
0
41
1
10
11.7556008881709
20
-31.4284723936981
30
0
41
1
10
11.827702498995
20
-31.4394901521919
30
0
41
1
10
11.8498721974364
20
-31.4429046565356
30
0
41
1
10
11.8802705099091
20
-31.4476125292449
30
0
41
1
10
11.8899278316337
20
-31.44911296944
30
0
41
1
10
11.9081934090391
20
-31.451958204642
30
0
41
1
10
11.9168144080131
20
-31.453304968996
30
0
41
1
10
11.9573777187122
20
-31.4596561495609
30
0
41
1
10
12.0060441892134
20
-31.4673675972862
30
0
41
1
10
12.0225079003572
20
-31.4700012637862
30
0
41
1
10
12.022501543038
20
-31.4700002468367
30
0
0
SPLINE
5
184
100
AcDbEntity
8
1
62
256
6
ByLayer
370
13
48
1
60
0
100
AcDbSpline
70
4
71
3
72
46
73
42
40
0
40
0
40
0
40
0
40
0.0329359079659199
40
0.0329359079659199
40
0.0658718159318399
40
0.0658718159318399
40
0.131743631863675
40
0.197615447795511
40
0.197615447795511
40
0.230551355761431
40
0.230551355761431
40
0.263487263727351
40
0.263487263727351
40
0.329359079659192
40
0.395230895591034
40
0.461102711522875
40
0.461102711522875
40
0.477570665505836
40
0.477570665505836
40
0.494038619488797
40
0.494038619488797
40
0.52697452745472
40
0.52697452745472
40
0.59284634338656
40
0.6587181593184
40
0.6587181593184
40
0.691654067284318
40
0.691654067284318
40
0.724589975250236
40
0.724589975250236
40
0.790461791182068
40
0.856333607113902
40
0.856333607113902
40
0.922205423045735
40
0.922205423045735
40
0.938673377028694
40
0.938673377028694
40
0.955141331011652
40
0.98807723897757
40
0.98807723897757
40
1
40
1
40
1
40
1
41
1
10
49.5
20
18.174541197026
30
0
41
1
10
49.4488425059472
20
18.174541197026
30
0
41
1
10
49.397715905822
20
18.1735366743511
30
0
41
1
10
49.2955244912419
20
18.169518047195
30
0
41
1
10
49.244688240491
20
18.1665127228656
30
0
41
1
10
49.0930007258548
20
18.1545708282766
30
0
41
1
10
48.8928839501817
20
18.1308586215812
30
0
41
1
10
48.6969472651321
20
18.0918282464726
30
0
41
1
10
48.5515744098775
20
18.0567333863446
30
0
41
1
10
48.503380524305
20
18.0440629473586
30
0
41
1
10
48.4075279425321
20
18.0167421609143
30
0
41
1
10
48.3598304555005
20
18.0020789906986
30
0
41
1
10
48.21780148854
20
17.9551222250044
30
0
41
1
10
48.0337219171346
20
17.885444979152
30
0
41
1
10
47.7729774640925
20
17.760181097585
30
0
41
1
10
47.6093626817142
20
17.6627251874375
30
0
41
1
10
47.5103781469386
20
17.5972877417737
30
0
41
1
10
47.4907453584643
20
17.5839733261887
30
0
41
1
10
47.4518116728523
20
17.5568841159723
30
0
41
1
10
47.4324862553472
20
17.5430908684655
30
0
41
1
10
47.3752828940993
20
17.5012088888253
30
0
41
1
10
47.3381296004014
20
17.4725889663809
30
0
41
1
10
47.2295649468597
20
17.3846530848906
30
0
41
1
10
47.0925188237034
20
17.2618787246396
30
0
41
1
10
46.9706855593538
20
17.1280174419812
30
0
41
1
10
46.8851081550728
20
17.0233315010578
30
0
41
1
10
46.8575503642568
20
16.9877199079185
30
0
41
1
10
46.8044084965305
20
16.9150258204418
30
0
41
1
10
46.7787703571097
20
16.8778517548015
30
0
41
1
10
46.7056255943257
20
16.7652191970721
30
0
41
1
10
46.6177081057349
20
16.6115862280178
30
0
41
1
10
46.5485535440856
20
16.45107236252
30
0
41
1
10
46.4888311532385
20
16.2870449348158
30
0
41
1
10
46.4636851059814
20
16.203274842195
30
0
41
1
10
46.4383569602603
20
16.0962621609444
30
0
41
1
10
46.4335944796086
20
16.0747263668082
30
0
41
1
10
46.4247364241455
20
16.0316641933451
30
0
41
1
10
46.4124288972177
20
15.9670032306802
30
0
41
1
10
46.4030271879727
20
15.9021394993601
30
0
41
1
10
46.3962226196651
20
15.8431207305715
30
0
41
1
10
46.3945804328513
20
15.8274226415286
30
0
41
1
10
46.3931043556914
20
15.8117127616193
30
0
0
SPLINE
5
185
100
AcDbEntity
8
1
62
256
6
ByLayer
370
18
48
1
60
0
100
AcDbSpline
70
4
71
3
72
47
73
43
40
0
40
0
40
0
40
0
40
0.0486948336891422
40
0.108151406583579
40
0.108151406583579
40
0.137879693030798
40
0.137879693030798
40
0.167607979478018
40
0.167607979478018
40
0.227064552372456
40
0.286521125266895
40
0.286521125266895
40
0.316249411714114
40
0.331113554937722
40
0.331113554937722
40
0.345977698161331
40
0.345977698161331
40
0.40543427105577
40
0.40543427105577
40
0.464890843950209
40
0.524347416844648
40
0.524347416844648
40
0.539211560068255
40
0.539211560068255
40
0.554075703291863
40
0.554075703291863
40
0.583803989739075
40
0.583803989739075
40
0.643260562633495
40
0.702717135527914
40
0.702717135527914
40
0.732445421975124
40
0.747309565198729
40
0.747309565198729
40
0.762173708422335
40
0.762173708422335
40
0.821630281316751
40
0.821630281316751
40
0.881086854211167
40
0.940543427105584
40
0.940543427105584
40
1
40
1
40
1
40
1
41
1
10
46.3931043007564
20
15.8117121769451
30
0
41
1
10
46.3864252666862
20
15.740627059631
30
0
41
1
10
46.3791447383173
20
15.5822105748247
30
0
41
1
10
46.3885240104903
20
15.4226010166495
30
0
41
1
10
46.4039701059944
20
15.290436189688
30
0
41
1
10
46.4104109841801
20
15.2462643098525
30
0
41
1
10
46.4259058036736
20
15.1578434717047
30
0
41
1
10
46.434899269638
20
15.1139307105193
30
0
41
1
10
46.4655317725771
20
14.9830697773312
30
0
41
1
10
46.5160958698633
20
14.8109230741587
30
0
41
1
10
46.5856456005301
20
14.6434073496814
30
0
41
1
10
46.6449671238616
20
14.5195531341117
30
0
41
1
10
46.6764209127754
20
14.4580726011801
30
0
41
1
10
46.7106018109317
20
14.3972793746452
30
0
41
1
10
46.7340014835892
20
14.3569058853759
30
0
41
1
10
46.7460254121333
20
14.3367681941972
30
0
41
1
10
46.807407212012
20
14.2369340474884
30
0
41
1
10
46.8605742660337
20
14.1597030350263
30
0
41
1
10
46.9747292329085
20
14.0103799400392
30
0
41
1
10
47.0967071000377
20
13.8661970310186
30
0
41
1
10
47.2342022985095
20
13.7323442835594
30
0
41
1
10
47.325089140797
20
13.6520279215953
30
0
41
1
10
47.3435147034564
20
13.6361321276486
30
0
41
1
10
47.3808671741051
20
13.6046799805938
30
0
41
1
10
47.399815921484
20
13.5891068547198
30
0
41
1
10
47.4571202159189
20
13.543142936094
30
0
41
1
10
47.4960060654178
20
13.5134425896725
30
0
41
1
10
47.6146696962147
20
13.4271217514905
30
0
41
1
10
47.7782276961502
20
13.3194281015245
30
0
41
1
10
47.9522548233438
20
13.2263705757024
30
0
41
1
10
48.0867360015726
20
13.1621589590668
30
0
41
1
10
48.1549685472607
20
13.1314509242551
30
0
41
1
10
48.2247120099667
20
13.1028796121179
30
0
41
1
10
48.2715471741959
20
13.0843130248626
30
0
41
1
10
48.2951561010811
20
13.0752629530607
30
0
41
1
10
48.4133599729924
20
13.0314823577997
30
0
41
1
10
48.5089231483452
20
13.0009460347642
30
0
41
1
10
48.7019692772282
20
12.9485292216529
30
0
41
1
10
48.8969357018671
20
12.9047704297883
30
0
41
1
10
49.0956955425683
20
12.8781738558553
30
0
41
1
10
49.2963817056173
20
12.8603108641173
30
0
41
1
10
49.3976876751201
20
12.8557449408227
30
0
41
1
10
49.5
20
12.8557449408227
30
0
0
SPLINE
5
186
100
AcDbEntity
8
1
62
256
6
ByLayer
370
18
48
1
60
0
100
AcDbSpline
70
4
71
3
72
47
73
43
40
0
40
0
40
0
40
0
40
0.0297441979852314
40
0.0297441979852314
40
0.0594883959704627
40
0.0594883959704627
40
0.118976791940922
40
0.17846518791138
40
0.17846518791138
40
0.208209385896608
40
0.208209385896608
40
0.237953583881836
40
0.237953583881836
40
0.297441979852291
40
0.356930375822745
40
0.4164187717932
40
0.4164187717932
40
0.431290870785814
40
0.431290870785814
40
0.446162969778428
40
0.446162969778428
40
0.475907167763654
40
0.475907167763654
40
0.535395563734105
40
0.594883959704556
40
0.594883959704556
40
0.62462815768978
40
0.62462815768978
40
0.654372355675004
40
0.654372355675004
40
0.71386075164545
40
0.773349147615897
40
0.773349147615897
40
0.832837543586344
40
0.832837543586344
40
0.847709642578956
40
0.847709642578956
40
0.862581741571567
40
0.892325939556791
40
0.892325939556791
40
0.951814335527238
40
1
40
1
40
1
40
1
41
1
10
49.5
20
-12.8557449408226
30
0
41
1
10
49.4488425059472
20
-12.8557449408226
30
0
41
1
10
49.397715905822
20
-12.8568887008864
30
0
41
1
10
49.2955244912419
20
-12.8614632503387
30
0
41
1
10
49.244688240491
20
-12.8648840381257
30
0
41
1
10
49.0930007258548
20
-12.8784714217672
30
0
41
1
10
48.8928839501817
20
-12.9054419699147
30
0
41
1
10
48.696947265132
20
-12.9497248023595
30
0
41
1
10
48.5515744098775
20
-12.9894564094669
30
0
41
1
10
48.503380524305
20
-13.0037886580158
30
0
41
1
10
48.407527942532
20
-13.0346569009829
30
0
41
1
10
48.3598304555005
20
-13.0512073586653
30
0
41
1
10
48.21780148854
20
-13.1041381624101
30
0
41
1
10
48.033722336417
20
-13.1825074315375
30
0
41
1
10
47.7729771645168
20
-13.3225478242578
30
0
41
1
10
47.6093626817142
20
-13.4307333972172
30
0
41
1
10
47.5103781469386
20
-13.5030609087143
30
0
41
1
10
47.4907453584643
20
-13.5177625336987
30
0
41
1
10
47.4518116728523
20
-13.5476422249726
30
0
41
1
10
47.4324862553472
20
-13.5628405785737
30
0
41
1
10
47.3752828940993
20
-13.608938453114
30
0
41
1
10
47.3381296004014
20
-13.6403729181405
30
0
41
1
10
47.2295649468597
20
-13.7367336790967
30
0
41
1
10
47.0925188237034
20
-13.8706910356647
30
0
41
1
10
46.9706855593538
20
-14.0153188701254
30
0
41
1
10
46.8851081550728
20
-14.1278053036951
30
0
41
1
10
46.8575503642568
20
-14.1659712668257
30
0
41
1
10
46.8044084965305
20
-14.2436620614384
30
0
41
1
10
46.7787703571097
20
-14.2832838103055
30
0
41
1
10
46.7056255943257
20
-14.4029884606788
30
0
41
1
10
46.6177085462878
20
-14.5653667299733
30
0
41
1
10
46.5485535440856
20
-14.7330412061098
30
0
41
1
10
46.4888311532385
20
-14.9033307260455
30
0
41
1
10
46.4636851059814
20
-14.9897826813229
30
0
41
1
10
46.4383569602603
20
-15.0995169954901
30
0
41
1
10
46.4335944796086
20
-15.1215658708067
30
0
41
1
10
46.4247364241455
20
-15.1655842472385
30
0
41
1
10
46.4124288972177
20
-15.2315768372201
30
0
41
1
10
46.4030271879727
20
-15.297463758113
30
0
41
1
10
46.3880391394695
20
-15.4290951843919
30
0
41
1
10
46.3791450682327
20
-15.5875865777716
30
0
41
1
10
46.3867463974217
20
-15.7454480895077
30
0
41
1
10
46.3935079731855
20
-15.8159672362343
30
0
0
SPLINE
5
187
100
AcDbEntity
8
1
62
256
6
ByLayer
370
13
48
1
60
0
100
AcDbSpline
70
4
71
3
72
46
73
42
40
0
40
0
40
0
40
0
40
0.012508269027721
40
0.012508269027721
40
0.0454246600601303
40
0.0454246600601303
40
0.0783410510925397
40
0.0783410510925397
40
0.14417383315736
40
0.210006615222181
40
0.210006615222181
40
0.24292300625459
40
0.259381201770793
40
0.259381201770793
40
0.275839397286996
40
0.275839397286996
40
0.341672179351816
40
0.341672179351816
40
0.407504961416635
40
0.473337743481454
40
0.473337743481454
40
0.489795938997659
40
0.489795938997659
40
0.506254134513863
40
0.506254134513863
40
0.539170525546275
40
0.539170525546275
40
0.605003307611095
40
0.670836089675915
40
0.670836089675915
40
0.703752480708326
40
0.720210676224531
40
0.720210676224531
40
0.736668871740736
40
0.736668871740736
40
0.802501653805552
40
0.802501653805552
40
0.868334435870368
40
0.934167217935184
40
0.934167217935184
40
1
40
1
40
1
40
1
41
1
10
46.3935079309725
20
-15.8159667959793
30
0
41
1
10
46.3950939793576
20
-15.8325083559407
30
0
41
1
10
46.3968648957377
20
-15.849042976939
30
0
41
1
10
46.4039701059944
20
-15.909064420053
30
0
41
1
10
46.4104109841801
20
-15.9525355592644
30
0
41
1
10
46.4259058036736
20
-16.0392778847862
30
0
41
1
10
46.434899269638
20
-16.0822194456546
30
0
41
1
10
46.4655317725771
20
-16.2097905523888
30
0
41
1
10
46.5160958698633
20
-16.3765479569769
30
0
41
1
10
46.58564560053
20
-16.5368674516488
30
0
41
1
10
46.6449671238616
20
-16.6547202979178
30
0
41
1
10
46.6764209127755
20
-16.7130490981839
30
0
41
1
10
46.7106018109317
20
-16.7704780491555
30
0
41
1
10
46.7340014835892
20
-16.8085630529646
30
0
41
1
10
46.7460254121334
20
-16.8275319548532
30
0
41
1
10
46.807407212012
20
-16.9214396641305
30
0
41
1
10
46.8605742660337
20
-16.9936623663747
30
0
41
1
10
46.9747292329085
20
-17.1325960471856
30
0
41
1
10
47.0967071000377
20
-17.266016457816
30
0
41
1
10
47.2342022985095
20
-17.3886704003674
30
0
41
1
10
47.325089140797
20
-17.4619495268369
30
0
41
1
10
47.3435147034564
20
-17.4764359901161
30
0
41
1
10
47.3808671741051
20
-17.5050682490919
30
0
41
1
10
47.399815921484
20
-17.5192292502024
30
0
41
1
10
47.4571202159188
20
-17.5609808734268
30
0
41
1
10
47.4960060654178
20
-17.5878995019105
30
0
41
1
10
47.6146696962147
20
-17.6659828783096
30
0
41
1
10
47.7782276961502
20
-17.7629808846279
30
0
41
1
10
47.9522548233438
20
-17.8462075997003
30
0
41
1
10
48.0867360015726
20
-17.9034785481861
30
0
41
1
10
48.1549685472607
20
-17.930824377805
30
0
41
1
10
48.2247120099667
20
-17.9562164753641
30
0
41
1
10
48.2715471741959
20
-17.9727066248388
30
0
41
1
10
48.2951561010811
20
-17.9807391701412
30
0
41
1
10
48.4133599729924
20
-18.0195742066343
30
0
41
1
10
48.5089231483452
20
-18.0465861725198
30
0
41
1
10
48.7019692772282
20
-18.0928826585455
30
0
41
1
10
48.8969357018671
20
-18.1314494035105
30
0
41
1
10
49.0956955425683
20
-18.1548324198407
30
0
41
1
10
49.2963817056173
20
-18.1705320030228
30
0
41
1
10
49.3976876751201
20
-18.1745411970259
30
0
41
1
10
49.5
20
-18.1745411970259
30
0
0
SPLINE
5
188
100
AcDbEntity
8
1
62
256
6
ByLayer
370
13
48
1
60
0
100
AcDbSpline
70
4
71
3
72
84
73
80
40
0
40
0
40
0
40
0
40
0.0312499999999983
40
0.0312499999999983
40
0.0624999999999966
40
0.0937499999999948
40
0.0937499999999948
40
0.109374999999994
40
0.109374999999994
40
0.124999999999993
40
0.124999999999993
40
0.140624999999992
40
0.140624999999992
40
0.156249999999991
40
0.156249999999991
40
0.18749999999999
40
0.218749999999988
40
0.218749999999988
40
0.234374999999988
40
0.234374999999988
40
0.242187499999989
40
0.242187499999989
40
0.249999999999989
40
0.281249999999995
40
0.312500000000002
40
0.312500000000002
40
0.343750000000008
40
0.343750000000008
40
0.351562500000009
40
0.351562500000009
40
0.359375000000011
40
0.375000000000014
40
0.375000000000014
40
0.406250000000017
40
0.437500000000021
40
0.437500000000021
40
0.453125000000023
40
0.453125000000023
40
0.468750000000026
40
0.468750000000026
40
0.500000000000031
40
0.531250000000035
40
0.531250000000035
40
0.546875000000038
40
0.554687500000038
40
0.554687500000038
40
0.562500000000039
40
0.562500000000039
40
0.593750000000038
40
0.593750000000038
40
0.625000000000037
40
0.656250000000037
40
0.656250000000037
40
0.671875000000036
40
0.671875000000036
40
0.687500000000035
40
0.687500000000035
40
0.718750000000033
40
0.750000000000031
40
0.750000000000031
40
0.765625000000031
40
0.765625000000031
40
0.773437500000031
40
0.773437500000031
40
0.78125000000003
40
0.812500000000027
40
0.843750000000024
40
0.875000000000021
40
0.875000000000021
40
0.890625000000018
40
0.890625000000018
40
0.906250000000015
40
0.906250000000015
40
0.93750000000001
40
0.968750000000005
40
0.968750000000005
40
0.984375000000003
40
0.984375000000003
40
1
40
1
40
1
40
1
41
1
10
49.5
20
12.7438603198703
30
0
41
1
10
49.3910277895851
20
12.7438603198703
30
0
41
1
10
49.2829683176315
20
12.7487555965887
30
0
41
1
10
49.0686111958715
20
12.7679888317246
30
0
41
1
10
48.8560163162584
20
12.7966669315657
30
0
41
1
10
48.6469218113347
20
12.8440677972707
30
0
41
1
10
48.4914422486485
20
12.8867692570368
30
0
41
1
10
48.4398015922309
20
12.902209324424
30
0
41
1
10
48.3371415834527
20
12.9354713087652
30
0
41
1
10
48.2862957744966
20
12.9532350563848
30
0
41
1
10
48.1855719426216
20
12.9910208580744
30
0
41
1
10
48.1357667214591
20
13.01101994233
30
0
41
1
10
48.037749443259
20
13.0529872503281
30
0
41
1
10
47.9894634627267
20
13.0749826607275
30
0
41
1
10
47.8467396689234
20
13.1439464950295
30
0
41
1
10
47.6621224462916
20
13.2438250277781
30
0
41
1
10
47.488757315247
20
13.35928449196
30
0
41
1
10
47.3630345781332
20
13.4517854815597
30
0
41
1
10
47.3218451337646
20
13.483605265815
30
0
41
1
10
47.2611607247417
20
13.5328385603939
30
0
41
1
10
47.2411120776896
20
13.5495051123269
30
0
41
1
10
47.2016071308455
20
13.5831516281828
30
0
41
1
10
47.1041846255335
20
13.6681673054247
30
0
41
1
10
46.9407116572216
20
13.8291486730303
30
0
41
1
10
46.8119380178846
20
13.9831647766707
30
0
41
1
10
46.6914901236595
20
14.1426113662724
30
0
41
1
10
46.635428147294
20
14.2250494177431
30
0
41
1
10
46.5707467515514
20
14.3315757508041
30
0
41
1
10
46.5580910457176
20
14.3530408012346
30
0
41
1
10
46.5334624978658
20
14.3960765767624
30
0
41
1
10
46.4974908294378
20
14.4608757912132
30
0
41
1
10
46.4644019443515
20
14.526399510887
30
0
41
1
10
46.4020139513639
20
14.6583887587887
30
0
41
1
10
46.3289184157978
20
14.8368807825232
30
0
41
1
10
46.2758730988778
20
15.0202580408279
30
0
41
1
10
46.2437821600305
20
15.1596379473712
30
0
41
1
10
46.234369677985
20
15.2064063956376
30
0
41
1
10
46.2181727697276
20
15.3005710816181
30
0
41
1
10
46.2114577475758
20
15.3475645107089
30
0
41
1
10
46.1953781757751
20
15.4882635263602
30
0
41
1
10
46.1847580381555
20
15.6751272558668
30
0
41
1
10
46.195342413125
20
15.8605347208539
30
0
41
1
10
46.2113029950842
20
15.9990453531606
30
0
41
1
10
46.2212923805165
20
16.0681643693032
30
0
41
1
10
46.2343422583516
20
16.1370785911196
30
0
41
1
10
46.2437299786952
20
16.1829758169143
30
0
41
1
10
46.2487746663626
20
16.2059287797845
30
0
41
1
10
46.2755933785983
20
16.3199896126336
30
0
41
1
10
46.3021962572156
20
16.4093274044309
30
0
41
1
10
46.3653604069472
20
16.5843469286923
30
0
41
1
10
46.4384847517613
20
16.7557096249098
30
0
41
1
10
46.5314518236979
20
16.9198955374766
30
0
41
1
10
46.6088082875778
20
17.0403255729164
30
0
41
1
10
46.6359260820255
20
17.0800865858508
30
0
41
1
10
46.692149912223
20
17.1578721624162
30
0
41
1
10
46.7213107167656
20
17.195991126056
30
0
41
1
10
46.8118828910546
20
17.3080838606679
30
0
41
1
10
46.9408703880906
20
17.4515137812605
30
0
41
1
10
47.0860744319131
20
17.5832298206905
30
0
41
1
10
47.2011498529412
20
17.6776257456652
30
0
41
1
10
47.2405389037824
20
17.7083579107749
30
0
41
1
10
47.3011972957952
20
17.7533444988402
30
0
41
1
10
47.3216961141418
20
17.7681655325259
30
0
41
1
10
47.3630011385891
20
17.7972795200312
30
0
41
1
10
47.467155543863
20
17.8688353854683
30
0
41
1
10
47.6625420775973
20
17.9867710022546
30
0
41
1
10
47.9395276966393
20
18.1216548783468
30
0
41
1
10
48.1352166266668
20
18.1967607415985
30
0
41
1
10
48.2862627178955
20
18.2473979564306
30
0
41
1
10
48.3370145845608
20
18.2632195974981
30
0
41
1
10
48.4389948768955
20
18.2926962360084
30
0
41
1
10
48.4902742493767
20
18.3063683448341
30
0
41
1
10
48.6449677232767
20
18.3442420095438
30
0
41
1
10
48.8535027387047
20
18.3863751572562
30
0
41
1
10
49.0665591937807
20
18.4119861793827
30
0
41
1
10
49.2280835013795
20
18.4248863976175
30
0
41
1
10
49.28222023603
20
18.4281333883234
30
0
41
1
10
49.3910599214033
20
18.4324755914175
30
0
41
1
10
49.4455132277062
20
18.4335610287257
30
0
41
1
10
49.5
20
18.4335610287257
30
0
0
SPLINE
5
189
100
AcDbEntity
8
1
62
256
6
ByLayer
370
18
48
1
60
0
100
AcDbSpline
70
4
71
3
72
46
73
42
40
0
40
0
40
0
40
0
40
0.0625024851077678
40
0.0625024851077678
40
0.125004970215536
40
0.187507455323303
40
0.187507455323303
40
0.218758697877187
40
0.218758697877187
40
0.250009940431071
40
0.250009940431071
40
0.281261182984955
40
0.281261182984955
40
0.312512425538839
40
0.312512425538839
40
0.375014910646607
40
0.437517395754374
40
0.437517395754374
40
0.46876863830826
40
0.46876863830826
40
0.484394259585204
40
0.484394259585204
40
0.500019880862148
40
0.562522365969925
40
0.625024851077702
40
0.625024851077702
40
0.687527336185478
40
0.687527336185478
40
0.703152957462424
40
0.703152957462424
40
0.718778578739369
40
0.750029821293258
40
0.750029821293258
40
0.812532306401036
40
0.875034791508814
40
0.875034791508814
40
0.906286034062704
40
0.906286034062704
40
0.937537276616593
40
0.937537276616593
40
1
40
1
40
1
40
1
41
1
10
49.5
20
31.1774213485959
30
0
41
1
10
49.391027789585
20
31.1774213485959
30
0
41
1
10
49.2829683176315
20
31.1779840115233
30
0
41
1
10
49.0686111958715
20
31.180179687428
30
0
41
1
10
48.8560163162584
20
31.1834458031701
30
0
41
1
10
48.6469218113347
20
31.1887463949427
30
0
41
1
10
48.4914422486485
20
31.1934440497001
30
0
41
1
10
48.4398015922309
20
31.19513163411
30
0
41
1
10
48.3371415834528
20
31.1987346513811
30
0
41
1
10
48.2862957744966
20
31.2006437818572
30
0
41
1
10
48.1855719426216
20
31.2046632030637
30
0
41
1
10
48.1357667214591
20
31.2067709565181
30
0
41
1
10
48.0377494432591
20
31.2111430474951
30
0
41
1
10
47.9894634627267
20
31.213410289189
30
0
41
1
10
47.8467396689234
20
31.220427529414
30
0
41
1
10
47.6621222935159
20
31.2303584495983
30
0
41
1
10
47.488757315247
20
31.2411467916772
30
0
41
1
10
47.3630345781332
20
31.2494497535047
30
0
41
1
10
47.3218451337646
20
31.2522526335495
30
0
41
1
10
47.2611607247417
20
31.2564955048239
30
0
41
1
10
47.2411120776896
20
31.257916558858
30
0
41
1
10
47.2016071308455
20
31.2607529571609
30
0
41
1
10
47.1041846255335
20
31.2678396670988
30
0
41
1
10
46.9407116572216
20
31.2804984078464
30
0
41
1
10
46.8119380178846
20
31.2912978146065
30
0
41
1
10
46.6914901236595
20
31.301715305826
30
0
41
1
10
46.635428147294
20
31.3067333638651
30
0
41
1
10
46.5707467515515
20
31.3126667092077
30
0
41
1
10
46.5580910457176
20
31.3138354859213
30
0
41
1
10
46.5334624978658
20
31.3161238074615
30
0
41
1
10
46.4974908294378
20
31.3194873360645
30
0
41
1
10
46.4644019443515
20
31.3226368788048
30
0
41
1
10
46.4020139513639
20
31.3286321075737
30
0
41
1
10
46.3289180186214
20
31.3358154438207
30
0
41
1
10
46.2758730988778
20
31.3411843356748
30
0
41
1
10
46.2437821600305
20
31.3444569262333
30
0
41
1
10
46.234369677985
20
31.3454220625508
30
0
41
1
10
46.2181727697276
20
31.3470879971547
30
0
41
1
10
46.2114577475758
20
31.3477816337083
30
0
41
1
10
46.1953849952533
20
31.3494448702684
30
0
41
1
10
46.1900748652857
20
31.3499983570377
30
0
41
1
10
46.1900591898021
20
31.3499999937769
30
0
0
SPLINE
5
18A
100
AcDbEntity
8
1
62
256
6
ByLayer
370
18
48
1
60
0
100
AcDbSpline
70
4
71
3
72
10
73
6
40
0
40
0
40
0
40
0
40
0.66922883504605
40
0.66922883504605
40
1
40
1
40
1
40
1
41
1
10
46.190500800332
20
31.349954002287
30
0
41
1
10
46.1919724966309
20
31.3498007913789
30
0
41
1
10
46.197124108708
20
31.349264935635
30
0
41
1
10
46.210361273525
20
31.3478950833174
30
0
41
1
10
46.215646938341
20
31.3473489275858
30
0
41
1
10
46.2218514025258
20
31.3467099328412
30
0
0
SPLINE
5
18B
100
AcDbEntity
8
1
62
256
6
ByLayer
370
18
48
1
60
0
100
AcDbSpline
70
4
71
3
72
45
73
41
40
0
40
0
40
0
40
0
40
0.0622534511403408
40
0.0622534511403408
40
0.0935116694356664
40
0.109140778583329
40
0.109140778583329
40
0.124769887730992
40
0.124769887730992
40
0.18728632432164
40
0.18728632432164
40
0.249802760912288
40
0.312319197502936
40
0.312319197502936
40
0.34357741579826
40
0.34357741579826
40
0.374835634093584
40
0.374835634093584
40
0.437352070684232
40
0.49986850727488
40
0.49986850727488
40
0.531126725570205
40
0.531126725570205
40
0.546755834717867
40
0.546755834717867
40
0.562384943865528
40
0.624901380456169
40
0.68741781704681
40
0.749934253637451
40
0.749934253637451
40
0.78119247193277
40
0.78119247193277
40
0.812450690228089
40
0.812450690228089
40
0.874967126818726
40
0.937483563409363
40
0.937483563409363
40
0.968741781704682
40
0.968741781704682
40
1
40
1
40
1
40
1
41
1
10
46.1900591871369
20
-31.349999983846
30
0
41
1
10
46.1900946986268
20
-31.3499962854489
30
0
41
1
10
46.1953871736293
20
-31.349444682928
30
0
41
1
10
46.2113029950842
20
-31.3477976289548
30
0
41
1
10
46.2212923805165
20
-31.3467657189659
30
0
41
1
10
46.2343422583516
20
-31.3454255524183
30
0
41
1
10
46.2437299786952
20
-31.3444637005699
30
0
41
1
10
46.2487746663626
20
-31.3439478557845
30
0
41
1
10
46.2755933785982
20
-31.3412126358011
30
0
41
1
10
46.3021962572155
20
-31.3385198110808
30
0
41
1
10
46.3653604069472
20
-31.3322341321617
30
0
41
1
10
46.4384847517613
20
-31.3250480594014
30
0
41
1
10
46.5314518236979
20
-31.3162723746436
30
0
41
1
10
46.6088082875778
20
-31.3091747294258
30
0
41
1
10
46.6359260820254
20
-31.3067179108997
30
0
41
1
10
46.692149912223
20
-31.3017012879225
30
0
41
1
10
46.7213107167656
20
-31.2991363355306
30
0
41
1
10
46.8118828910546
20
-31.2913021823649
30
0
41
1
10
46.9408703880905
20
-31.2804856252589
30
0
41
1
10
47.0860744319131
20
-31.2692425536043
30
0
41
1
10
47.2011498529412
20
-31.2607691414826
30
0
41
1
10
47.2405389037824
20
-31.2579378442408
30
0
41
1
10
47.3011972957952
20
-31.2536960103476
30
0
41
1
10
47.3216961141419
20
-31.2522818339185
30
0
41
1
10
47.3630011385891
20
-31.2494728672647
30
0
41
1
10
47.467155543863
20
-31.242490181865
30
0
41
1
10
47.6625420775973
20
-31.2303333227784
30
0
41
1
10
47.9395276966393
20
-31.2154392307928
30
0
41
1
10
48.1352166266668
20
-31.2066727132548
30
0
41
1
10
48.2862627178955
20
-31.200645069521
30
0
41
1
10
48.3370145845608
20
-31.1987398627151
30
0
41
1
10
48.4389948768955
20
-31.1951591998441
30
0
41
1
10
48.4902742493767
20
-31.1934816982983
30
0
41
1
10
48.6449677232767
20
-31.1888008150697
30
0
41
1
10
48.8535027387047
20
-31.1834974424503
30
0
41
1
10
49.0665591937807
20
-31.1802060089224
30
0
41
1
10
49.2280835013795
20
-31.1785436061792
30
0
41
1
10
49.28222023603
20
-31.1781238164017
30
0
41
1
10
49.3910599214033
20
-31.1775620518015
30
0
41
1
10
49.4455132277062
20
-31.1774213485959
30
0
41
1
10
49.5
20
-31.1774213485959
30
0
0
SPLINE
5
18C
100
AcDbEntity
8
1
62
256
6
ByLayer
370
13
48
1
60
0
100
AcDbSpline
70
4
71
3
72
84
73
80
40
0
40
0
40
0
40
0
40
0.0312499999999998
40
0.0312499999999998
40
0.0624999999999997
40
0.0937499999999995
40
0.0937499999999995
40
0.109375
40
0.109375
40
0.125
40
0.125
40
0.140625
40
0.140625
40
0.15625
40
0.15625
40
0.1875
40
0.21875
40
0.21875
40
0.234375000000001
40
0.234375000000001
40
0.242187500000001
40
0.242187500000001
40
0.250000000000001
40
0.281250000000004
40
0.312500000000006
40
0.312500000000006
40
0.343750000000009
40
0.343750000000009
40
0.35156250000001
40
0.35156250000001
40
0.359375000000012
40
0.375000000000014
40
0.375000000000014
40
0.406250000000018
40
0.437500000000021
40
0.437500000000021
40
0.453125000000023
40
0.453125000000023
40
0.468750000000024
40
0.468750000000024
40
0.500000000000026
40
0.531250000000028
40
0.531250000000028
40
0.546875000000029
40
0.554687500000029
40
0.554687500000029
40
0.562500000000029
40
0.562500000000029
40
0.593750000000026
40
0.593750000000026
40
0.625000000000022
40
0.656250000000019
40
0.656250000000019
40
0.671875000000018
40
0.671875000000018
40
0.687500000000016
40
0.687500000000016
40
0.718750000000013
40
0.75000000000001
40
0.75000000000001
40
0.765625000000009
40
0.765625000000009
40
0.773437500000007
40
0.773437500000007
40
0.781250000000006
40
0.812500000000004
40
0.843750000000002
40
0.875
40
0.875
40
0.890625
40
0.890625
40
0.90625
40
0.90625
40
0.9375
40
0.96875
40
0.96875
40
0.984375
40
0.984375
40
1
40
1
40
1
40
1
41
1
10
49.5
20
-18.4335610287256
30
0
41
1
10
49.3910277895851
20
-18.4335610287256
30
0
41
1
10
49.2829683176315
20
-18.4292284149346
30
0
41
1
10
49.0686111958715
20
-18.4121908557034
30
0
41
1
10
48.8560163162583
20
-18.3867788716044
30
0
41
1
10
48.6469218113347
20
-18.3446785976719
30
0
41
1
10
48.4914422486485
20
-18.3066747926632
30
0
41
1
10
48.4398015922309
20
-18.2929223096861
30
0
41
1
10
48.3371415834528
20
-18.2632633426159
30
0
41
1
10
48.2862957744966
20
-18.2474087254724
30
0
41
1
10
48.1855719426216
20
-18.2136423449893
30
0
41
1
10
48.1357667214591
20
-18.1957510141881
30
0
41
1
10
48.0377494432591
20
-18.158155797167
30
0
41
1
10
47.9894634627267
20
-18.1384276284615
30
0
41
1
10
47.8467396689234
20
-18.0764810343844
30
0
41
1
10
47.6621224462916
20
-17.9865331890753
30
0
41
1
10
47.488757315247
20
-17.8818622997172
30
0
41
1
10
47.3630345781332
20
-17.797664271945
30
0
41
1
10
47.3218451337646
20
-17.7686473677346
30
0
41
1
10
47.2611607247417
20
-17.72365694443
30
0
41
1
10
47.2411120776896
20
-17.708411446531
30
0
41
1
10
47.2016071308454
20
-17.677601328978
30
0
41
1
10
47.1041846255335
20
-17.5996723616741
30
0
41
1
10
46.940711952502
20
-17.4513496784743
30
0
41
1
10
46.8119380178846
20
-17.3081330379358
30
0
41
1
10
46.6914901236595
20
-17.1591039395536
30
0
41
1
10
46.635428147294
20
-17.0816839461219
30
0
41
1
10
46.5707467515514
20
-16.9810909584035
30
0
41
1
10
46.5580910457176
20
-16.9607946846867
30
0
41
1
10
46.5334624978658
20
-16.9200472306991
30
0
41
1
10
46.4974908294379
20
-16.8586115448512
30
0
41
1
10
46.4644019443515
20
-16.7962373679178
30
0
41
1
10
46.4020139513639
20
-16.670243348785
30
0
41
1
10
46.3289184157979
20
-16.4989344996121
30
0
41
1
10
46.2758730988778
20
-16.3209262948469
30
0
41
1
10
46.2437821600305
20
-16.1848189788621
30
0
41
1
10
46.234369677985
20
-16.1390156669132
30
0
41
1
10
46.2181727697276
20
-16.0465169155366
30
0
41
1
10
46.2114577475758
20
-16.0002171229993
30
0
41
1
10
46.1953781757751
20
-15.8611820495997
30
0
41
1
10
46.1847577426107
20
-15.6754252914165
30
0
41
1
10
46.1953424131251
20
-15.4889145941294
30
0
41
1
10
46.2113029950842
20
-15.3487522757941
30
0
41
1
10
46.2212923805165
20
-15.2786013496627
30
0
41
1
10
46.2343422583516
20
-15.2083469612987
30
0
41
1
10
46.2437299786952
20
-15.1614878836556
30
0
41
1
10
46.2487746663626
20
-15.1380190759999
30
0
41
1
10
46.2755933785982
20
-15.0212230231675
30
0
41
1
10
46.3021962572155
20
-14.9291924066499
30
0
41
1
10
46.3653604069472
20
-14.7478872034694
30
0
41
1
10
46.4384847517613
20
-14.5693384344916
30
0
41
1
10
46.5314518236979
20
-14.396376837167
30
0
41
1
10
46.6088082875778
20
-14.2688491565094
30
0
41
1
10
46.6359260820254
20
-14.2266313250489
30
0
41
1
10
46.692149912223
20
-14.1438291255063
30
0
41
1
10
46.7213107167656
20
-14.1031452094746
30
0
41
1
10
46.8118828910546
20
-13.983218321697
30
0
41
1
10
46.9408703880906
20
-13.8289718439983
30
0
41
1
10
47.0860744319131
20
-13.6860127329138
30
0
41
1
10
47.2011498529412
20
-13.5831433958174
30
0
41
1
10
47.2405389037824
20
-13.5495799334659
30
0
41
1
10
47.3011972957952
20
-13.5003515115074
30
0
41
1
10
47.3216961141418
20
-13.4841163013925
30
0
41
1
10
47.3630011385891
20
-13.4521933472335
30
0
41
1
10
47.467155543863
20
-13.3736547963967
30
0
41
1
10
47.6625420775973
20
-13.2435623205238
30
0
41
1
10
47.9395276966392
20
-13.093784352446
30
0
41
1
10
48.1352166266668
20
-13.0099119716562
30
0
41
1
10
48.2862627178955
20
-12.9532471130904
30
0
41
1
10
48.3370145845608
20
-12.9355202652169
30
0
41
1
10
48.4389948768955
20
-12.9024629638356
30
0
41
1
10
48.4902742493767
20
-12.8871133534642
30
0
41
1
10
48.6449677232766
20
-12.8445588055259
30
0
41
1
10
48.8535027387047
20
-12.7971222851942
30
0
41
1
10
49.0665591937807
20
-12.7682198295397
30
0
41
1
10
49.2280835013795
20
-12.7536572085617
30
0
41
1
10
49.28222023603
20
-12.7499904280782
30
0
41
1
10
49.3910599214033
20
-12.7450864603841
30
0
41
1
10
49.4455132277062
20
-12.7438603198702
30
0
41
1
10
49.5
20
-12.7438603198702
30
0
0
SPLINE
5
18D
100
AcDbEntity
8
1
62
256
6
ByLayer
370
18
48
1
60
0
100
AcDbSpline
70
4
71
3
72
8
73
4
40
0
40
0
40
0
40
0
40
1
40
1
40
1
40
1
41
1
10
57.6860205643162
20
12.2849364905389
30
0
41
1
10
57.2679929009607
20
12.4752569078868
30
0
41
1
10
56.8495951965157
20
12.6655228158405
30
0
41
1
10
56.430900268102
20
12.8557449408227
30
0
0
SPLINE
5
18E
100
AcDbEntity
8
1
62
256
6
ByLayer
370
18
48
1
60
0
100
AcDbSpline
70
4
71
3
72
22
73
18
40
0
40
0
40
0
40
0
40
0.25000000000004
40
0.25000000000004
40
0.312500000000034
40
0.312500000000034
40
0.375000000000028
40
0.375000000000028
40
0.500000000000023
40
0.500000000000023
40
0.625000000000017
40
0.625000000000017
40
0.750000000000011
40
0.750000000000011
40
0.875000000000006
40
0.875000000000006
40
1
40
1
40
1
40
1
41
1
10
56.430900268102
20
12.8557449408227
30
0
41
1
10
56.4183113183022
20
12.8614643718922
30
0
41
1
10
56.4062673447919
20
12.8636484666459
30
0
41
1
10
56.3919333755018
20
12.8616745465239
30
0
41
1
10
56.3890948379474
20
12.86103359986
30
0
41
1
10
56.3835959558139
20
12.8592734887554
30
0
41
1
10
56.3809243408046
20
12.8581544012235
30
0
41
1
10
56.3731445069834
20
12.8540745226782
30
0
41
1
10
56.3682692374296
20
12.8503974933158
30
0
41
1
10
56.359193840728
20
12.8409626473365
30
0
41
1
10
56.3549655547183
20
12.8351243868178
30
0
41
1
10
56.3476380914065
20
12.8216765995846
30
0
41
1
10
56.3444888104471
20
12.8140418442878
30
0
41
1
10
56.3392890654833
20
12.7968240608871
30
0
41
1
10
56.3372347514673
20
12.787119310656
30
0
41
1
10
56.3345218443924
20
12.7665085664592
30
0
41
1
10
56.3338257906459
20
12.7555361064609
30
0
41
1
10
56.3338257906459
20
12.7438603198703
30
0
0
SPLINE
5
18F
100
AcDbEntity
8
1
62
256
6
ByLayer
370
18
48
1
60
0
100
AcDbSpline
70
4
71
3
72
26
73
22
40
0
40
0
40
0
40
0
40
0.12500000000002
40
0.12500000000002
40
0.187500000000034
40
0.187500000000034
40
0.250000000000048
40
0.250000000000048
40
0.375000000000061
40
0.375000000000061
40
0.437500000000064
40
0.437500000000064
40
0.500000000000067
40
0.500000000000067
40
0.625000000000051
40
0.625000000000051
40
0.750000000000034
40
0.750000000000034
40
0.875000000000017
40
0.875000000000017
40
1
40
1
40
1
40
1
41
1
10
56.3338257906459
20
-12.7438603198702
30
0
41
1
10
56.3338257906459
20
-12.7554857906014
30
0
41
1
10
56.3345158475981
20
-12.7663990294076
30
0
41
1
10
56.3365256400762
20
-12.7817631739716
30
0
41
1
10
56.3373592013186
20
-12.7867157257181
30
0
41
1
10
56.3393569349258
20
-12.7962798423341
30
0
41
1
10
56.340518544117
20
-12.8008676026233
30
0
41
1
10
56.3444078078807
20
-12.8138265300739
30
0
41
1
10
56.3475568343522
20
-12.8215031616635
30
0
41
1
10
56.3530688689656
20
-12.8316552886521
30
0
41
1
10
56.3550450451563
20
-12.8348159831741
30
0
41
1
10
56.3591811971537
20
-12.8405751584742
30
0
41
1
10
56.3613487975152
20
-12.8431901942374
30
0
41
1
10
56.36813508168
20
-12.8502825530318
30
0
41
1
10
56.3730555946771
20
-12.854022772714
30
0
41
1
10
56.3835369746844
20
-12.8595296002699
30
0
41
1
10
56.3890094038366
20
-12.861259699274
30
0
41
1
10
56.4003790713045
20
-12.8628495612708
30
0
41
1
10
56.4063051729193
20
-12.8627019542113
30
0
41
1
10
56.4184464568222
20
-12.8605676961272
30
0
41
1
10
56.4246219994773
20
-12.8585972934976
30
0
41
1
10
56.4309002681039
20
-12.8557449408218
30
0
0
SPLINE
5
190
100
AcDbEntity
8
1
62
256
6
ByLayer
370
18
48
1
60
0
100
AcDbSpline
70
4
71
3
72
8
73
4
40
0
40
0
40
0
40
0
40
1
40
1
40
1
40
1
41
1
10
56.430900268104
20
-12.8557449408217
30
0
41
1
10
56.8495951965171
20
-12.6655228158398
30
0
41
1
10
57.2679929009614
20
-12.4752569078864
30
0
41
1
10
57.6860205643162
20
-12.2849364905389
30
0
0
SPLINE
5
191
100
AcDbEntity
8
1
62
256
6
ByLayer
370
18
48
1
60
0
100
AcDbSpline
70
4
71
3
72
8
73
4
40
0
40
0
40
0
40
0
40
1
40
1
40
1
40
1
41
1
10
57.6860205643162
20
-12.2849364905389
30
0
41
1
10
57.7692759939077
20
-12.3336973679481
30
0
41
1
10
57.8521640525735
20
-12.3825000386159
30
0
41
1
10
57.934665845695
20
-12.4313466520527
30
0
0
SPLINE
5
192
100
AcDbEntity
8
1
62
256
6
ByLayer
370
18
48
1
60
0
100
AcDbSpline
70
4
71
3
72
9
73
5
40
0
40
0
40
0
40
0
40
0.5
40
1
40
1
40
1
40
1
41
1
10
57.934665845695
20
-12.4313466520527
30
0
41
1
10
57.9643644517238
20
-13.0375644347018
30
0
41
1
10
57.9941836639488
20
-14.25
30
0
41
1
10
57.9643644517238
20
-15.4624355652982
30
0
41
1
10
57.934665845695
20
-16.0686533479473
30
0
0
SPLINE
5
193
100
AcDbEntity
8
1
62
256
6
ByLayer
370
18
48
1
60
0
100
AcDbSpline
70
4
71
3
72
8
73
4
40
0
40
0
40
0
40
0
40
1
40
1
40
1
40
1
41
1
10
57.934665845695
20
-16.0686533479473
30
0
41
1
10
57.8521640525735
20
-16.2509513910711
30
0
41
1
10
57.7692759939077
20
-16.4330854375481
30
0
41
1
10
57.6860205643162
20
-16.6150635094611
30
0
0
SPLINE
5
194
100
AcDbEntity
8
1
62
256
6
ByLayer
370
18
48
1
60
0
100
AcDbSpline
70
4
71
3
72
8
73
4
40
0
40
0
40
0
40
0
40
1
40
1
40
1
40
1
41
1
10
57.6860205643162
20
-16.6150635094611
30
0
41
1
10
57.2679929009639
20
-17.1350285593692
30
0
41
1
10
56.8495951965187
20
-17.6548446868472
30
0
41
1
10
56.430900268102
20
-18.174541197026
30
0
0
SPLINE
5
195
100
AcDbEntity
8
1
62
256
6
ByLayer
370
18
48
1
60
0
100
AcDbSpline
70
4
71
3
72
22
73
18
40
0
40
0
40
0
40
0
40
0.250000000000122
40
0.250000000000122
40
0.312500000000137
40
0.312500000000137
40
0.375000000000151
40
0.375000000000151
40
0.500000000000121
40
0.500000000000121
40
0.625000000000091
40
0.625000000000091
40
0.75000000000006
40
0.75000000000006
40
0.87500000000003
40
0.87500000000003
40
1
40
1
40
1
40
1
41
1
10
56.430900268102
20
-18.174541197026
30
0
41
1
10
56.4183113183022
20
-18.1901669732982
30
0
41
1
10
56.4062673447919
20
-18.2080486856832
30
0
41
1
10
56.3919333755018
20
-18.2334005751538
30
0
41
1
10
56.3890948379474
20
-18.238643494064
30
0
41
1
10
56.3835959558138
20
-18.249261229482
30
0
41
1
10
56.3809243408046
20
-18.2546545303792
30
0
41
1
10
56.3731445069834
20
-18.271089579192
30
0
41
1
10
56.3682692374296
20
-18.2823842261479
30
0
41
1
10
56.3591938407279
20
-18.3057076020253
30
0
41
1
10
56.3549655547183
20
-18.3178540776047
30
0
41
1
10
56.3476380914065
20
-18.3418551266413
30
0
41
1
10
56.3444888104471
20
-18.3538146491607
30
0
41
1
10
56.3392890654833
20
-18.3776455431202
30
0
41
1
10
56.3372347514673
20
-18.3896310441453
30
0
41
1
10
56.3345218443924
20
-18.4123600687689
30
0
41
1
10
56.3338257906458
20
-18.4232242950635
30
0
41
1
10
56.3338257906458
20
-18.4335610287256
30
0
0
SPLINE
5
196
100
AcDbEntity
8
1
62
256
6
ByLayer
370
18
48
1
60
0
100
AcDbSpline
70
4
71
3
72
26
73
22
40
0
40
0
40
0
40
0
40
0.124999999999973
40
0.124999999999973
40
0.187499999999964
40
0.187499999999964
40
0.249999999999954
40
0.249999999999954
40
0.374999999999943
40
0.374999999999943
40
0.437499999999945
40
0.437499999999945
40
0.499999999999947
40
0.499999999999947
40
0.624999999999961
40
0.624999999999961
40
0.749999999999974
40
0.749999999999974
40
0.874999999999987
40
0.874999999999987
40
1
40
1
40
1
40
1
41
1
10
56.3338257906459
20
-31.1774213485959
30
0
41
1
10
56.3338257906459
20
-31.178754630984
30
0
41
1
10
56.3345158475981
20
-31.1788659830434
30
0
41
1
10
56.3365256400762
20
-31.1773076156792
30
0
41
1
10
56.3373592013186
20
-31.1764985174816
30
0
41
1
10
56.3393569349258
20
-31.1742953453821
30
0
41
1
10
56.340518544117
20
-31.172902779072
30
0
41
1
10
56.3444078078807
20
-31.1679655641895
30
0
41
1
10
56.3475568343522
20
-31.1636459911536
30
0
41
1
10
56.3530688689656
20
-31.155711478606
30
0
41
1
10
56.3550450451564
20
-31.1528123231803
30
0
41
1
10
56.3591811971537
20
-31.1466474161296
30
0
41
1
10
56.3613487975153
20
-31.1433709740955
30
0
41
1
10
56.36813508168
20
-31.1329897886384
30
0
41
1
10
56.3730555946771
20
-31.1253047328646
30
0
41
1
10
56.3835369746844
20
-31.108660369355
30
0
41
1
10
56.3890094038367
20
-31.0998426271596
30
0
41
1
10
56.4003790713045
20
-31.081301942318
30
0
41
1
10
56.4063051729194
20
-31.0715306667093
30
0
41
1
10
56.4184464568223
20
-31.0513118129774
30
0
41
1
10
56.4246219994774
20
-31.040931262952
30
0
41
1
10
56.430900268104
20
-31.0302861378452
30
0
0
SPLINE
5
197
100
AcDbEntity
8
1
62
256
6
ByLayer
370
18
48
1
60
0
100
AcDbSpline
70
4
71
3
72
8
73
4
40
0
40
0
40
0
40
0
40
1
40
1
40
1
40
1
41
1
10
56.430900268104
20
-31.0302861378451
30
0
41
1
10
56.8495951965172
20
-30.3203675026889
30
0
41
1
10
57.2679929009614
20
-29.6102854672587
30
0
41
1
10
57.6860205643162
20
-28.9
30
0
0
SPLINE
5
198
100
AcDbEntity
8
1
62
256
6
ByLayer
370
18
48
1
60
0
100
AcDbSpline
70
4
71
3
72
8
73
4
40
0
40
0
40
0
40
0
40
1
40
1
40
1
40
1
41
1
10
57.6860205643162
20
-28.9
30
0
41
1
10
57.7692759939084
20
-28.7667828054952
30
0
41
1
10
57.8521640525742
20
-28.6334514296859
30
0
41
1
10
57.934665845695
20
-28.5
30
0
0
SPLINE
5
199
100
AcDbEntity
8
1
62
256
6
ByLayer
370
18
48
1
60
0
100
AcDbSpline
70
4
71
3
72
10
73
6
40
0
40
0
40
0
40
0
40
0.50178566856258
40
0.50178566856258
40
1
40
1
40
1
40
1
41
1
10
57.934665845695
20
-28.5
30
0
41
1
10
57.9495307892792
20
-28.5
30
0
41
1
10
57.96071465784
20
-28.5
30
0
41
1
10
57.975537594248
20
-28.5
30
0
41
1
10
57.9792416208123
20
-28.5
30
0
41
1
10
57.979273845695
20
-28.5
30
0
0
SPLINE
5
19A
100
AcDbEntity
8
1
62
256
6
ByLayer
370
18
48
1
60
0
100
AcDbSpline
70
4
71
3
72
10
73
6
40
0
40
0
40
0
40
0
40
0.498214331389787
40
0.498214331389787
40
1
40
1
40
1
40
1
41
1
10
57.979273845695
20
28.4999999999999
30
0
41
1
10
57.979241620811
20
28.4999999999999
30
0
41
1
10
57.9755375942467
20
28.5
30
0
41
1
10
57.96071465784
20
28.5
30
0
41
1
10
57.9495307892792
20
28.5
30
0
41
1
10
57.934665845695
20
28.5
30
0
0
SPLINE
5
19B
100
AcDbEntity
8
1
62
256
6
ByLayer
370
18
48
1
60
0
100
AcDbSpline
70
4
71
3
72
8
73
4
40
0
40
0
40
0
40
0
40
1
40
1
40
1
40
1
41
1
10
57.934665845695
20
28.5
30
0
41
1
10
57.8521640525742
20
28.6334514296859
30
0
41
1
10
57.7692759939084
20
28.7667828054952
30
0
41
1
10
57.6860205643162
20
28.9
30
0
0
SPLINE
5
19C
100
AcDbEntity
8
1
62
256
6
ByLayer
370
18
48
1
60
0
100
AcDbSpline
70
4
71
3
72
8
73
4
40
0
40
0
40
0
40
0
40
1
40
1
40
1
40
1
41
1
10
57.6860205643162
20
28.9
30
0
41
1
10
57.2679929009607
20
29.6102854672599
30
0
41
1
10
56.8495951965158
20
30.3203675026913
30
0
41
1
10
56.430900268102
20
31.0302861378486
30
0
0
SPLINE
5
19D
100
AcDbEntity
8
1
62
256
6
ByLayer
370
18
48
1
60
0
100
AcDbSpline
70
4
71
3
72
22
73
18
40
0
40
0
40
0
40
0
40
0.250000000000055
40
0.250000000000055
40
0.312500000000071
40
0.312500000000071
40
0.375000000000086
40
0.375000000000086
40
0.500000000000069
40
0.500000000000069
40
0.625000000000052
40
0.625000000000052
40
0.750000000000035
40
0.750000000000035
40
0.875000000000017
40
0.875000000000017
40
1
40
1
40
1
40
1
41
1
10
56.430900268102
20
31.0302861378486
30
0
41
1
10
56.4183113183022
20
31.0516313451904
30
0
41
1
10
56.4062673447918
20
31.0716971523291
30
0
41
1
10
56.3919333755018
20
31.0950751216777
30
0
41
1
10
56.3890948379474
20
31.0996770939241
30
0
41
1
10
56.3835959558139
20
31.1085347182373
30
0
41
1
10
56.3809243408046
20
31.1128089316027
30
0
41
1
10
56.3731445069834
20
31.1251641018702
30
0
41
1
10
56.3682692374296
20
31.1327817194638
30
0
41
1
10
56.359193840728
20
31.1466702493618
30
0
41
1
10
56.3549655547183
20
31.1529784644226
30
0
41
1
10
56.3476380914065
20
31.163531726226
30
0
41
1
10
56.3444888104471
20
31.1678564934485
30
0
41
1
10
56.3392890654832
20
31.1744696040073
30
0
41
1
10
56.3372347514673
20
31.1767503548013
30
0
41
1
10
56.3345218443924
20
31.1788686352281
30
0
41
1
10
56.3338257906458
20
31.1787604015245
30
0
41
1
10
56.3338257906459
20
31.1774213485959
30
0
0
SPLINE
5
19E
100
AcDbEntity
8
1
62
256
6
ByLayer
370
18
48
1
60
0
100
AcDbSpline
70
4
71
3
72
26
73
22
40
0
40
0
40
0
40
0
40
0.125000000000006
40
0.125000000000006
40
0.187500000000005
40
0.187500000000005
40
0.250000000000004
40
0.250000000000004
40
0.374999999999989
40
0.374999999999989
40
0.437499999999976
40
0.437499999999976
40
0.499999999999962
40
0.499999999999962
40
0.624999999999972
40
0.624999999999972
40
0.749999999999981
40
0.749999999999981
40
0.874999999999991
40
0.874999999999991
40
1
40
1
40
1
40
1
41
1
10
56.3338257906459
20
18.4335610287257
30
0
41
1
10
56.3338257906459
20
18.4232688403826
30
0
41
1
10
56.3345158475981
20
18.4124669536358
30
0
41
1
10
56.3365256400762
20
18.3955444417075
30
0
41
1
10
56.3373592013186
20
18.3897827917633
30
0
41
1
10
56.3393569349258
20
18.3780155030478
30
0
41
1
10
56.3405185441171
20
18.3720351764486
30
0
41
1
10
56.3444078078807
20
18.3541390341154
30
0
41
1
10
56.3475568343523
20
18.3421428294899
30
0
41
1
10
56.3530688689657
20
18.3240561899538
30
0
41
1
10
56.3550450451564
20
18.317996340006
30
0
41
1
10
56.3591811971537
20
18.3060722576552
30
0
41
1
10
56.3613487975153
20
18.3001807798578
30
0
41
1
10
56.36813508168
20
18.2827072356064
30
0
41
1
10
56.3730555946772
20
18.2712819601504
30
0
41
1
10
56.3835369746846
20
18.2491307690849
30
0
41
1
10
56.3890094038368
20
18.2385829278853
30
0
41
1
10
56.4003790713047
20
18.2184523810469
30
0
41
1
10
56.4063051729195
20
18.2088287124978
30
0
41
1
10
56.4184464568224
20
18.19074411685
30
0
41
1
10
56.4246219994776
20
18.1823339694542
30
0
41
1
10
56.4309002681042
20
18.1745411970232
30
0
0
SPLINE
5
19F
100
AcDbEntity
8
1
62
256
6
ByLayer
370
18
48
1
60
0
100
AcDbSpline
70
4
71
3
72
8
73
4
40
0
40
0
40
0
40
0
40
1
40
1
40
1
40
1
41
1
10
56.4309002681042
20
18.1745411970232
30
0
41
1
10
56.8495951965202
20
17.6548446868453
30
0
41
1
10
57.2679929009646
20
17.1350285593683
30
0
41
1
10
57.6860205643162
20
16.6150635094611
30
0
0
SPLINE
5
1A0
100
AcDbEntity
8
1
62
256
6
ByLayer
370
18
48
1
60
0
100
AcDbSpline
70
4
71
3
72
8
73
4
40
0
40
0
40
0
40
0
40
1
40
1
40
1
40
1
41
1
10
57.6860205643162
20
16.6150635094611
30
0
41
1
10
57.7692759939077
20
16.4330854375481
30
0
41
1
10
57.8521640525735
20
16.2509513910711
30
0
41
1
10
57.934665845695
20
16.0686533479473
30
0
0
SPLINE
5
1A1
100
AcDbEntity
8
1
62
256
6
ByLayer
370
18
48
1
60
0
100
AcDbSpline
70
4
71
3
72
9
73
5
40
0
40
0
40
0
40
0
40
0.5
40
1
40
1
40
1
40
1
41
1
10
57.934665845695
20
16.0686533479473
30
0
41
1
10
57.9643644517238
20
15.4624355652982
30
0
41
1
10
57.9941836639488
20
14.25
30
0
41
1
10
57.9643644517238
20
13.0375644347018
30
0
41
1
10
57.934665845695
20
12.4313466520527
30
0
0
SPLINE
5
1A2
100
AcDbEntity
8
1
62
256
6
ByLayer
370
18
48
1
60
0
100
AcDbSpline
70
4
71
3
72
8
73
4
40
0
40
0
40
0
40
0
40
1
40
1
40
1
40
1
41
1
10
57.934665845695
20
12.4313466520527
30
0
41
1
10
57.8521640525735
20
12.3825000386159
30
0
41
1
10
57.7692759939077
20
12.3336973679481
30
0
41
1
10
57.6860205643162
20
12.2849364905389
30
0
0
SPLINE
5
1A3
100
AcDbEntity
8
SK1
62
256
6
ByLayer
370
18
48
1
60
0
100
AcDbSpline
70
4
71
3
72
32
73
28
40
0
40
0
40
0
40
0
40
0.145515379716424
40
0.145515379716424
40
0.218273069574637
40
0.218273069574637
40
0.254651914503745
40
0.254651914503745
40
0.291030759432853
40
0.291030759432853
40
0.436546139149284
40
0.436546139149284
40
0.509303829007499
40
0.509303829007499
40
0.545682673936607
40
0.545682673936607
40
0.582061518865714
40
0.582061518865714
40
0.727576898582132
40
0.727576898582132
40
0.763955743511238
40
0.763955743511238
40
0.800334588440344
40
0.800334588440344
40
0.873092278298563
40
0.873092278298563
40
1
40
1
40
1
40
1
41
1
10
-25.8
20
4.87000000000001
30
0
41
1
10
-25.8
20
4.96109765262787
30
0
41
1
10
-25.808805133659
20
5.05052271863863
30
0
41
1
10
-25.8345421175813
20
5.18229420961694
30
0
41
1
10
-25.8452248710048
20
5.22582112057597
30
0
41
1
10
-25.8644566393579
20
5.29051160726263
30
0
41
1
10
-25.8714027751051
20
5.31197497069167
30
0
41
1
10
-25.8863868212075
20
5.35469874893482
30
0
41
1
10
-25.8944258684405
20
5.37595107760106
30
0
41
1
10
-25.9369337216554
20
5.48059681564635
30
0
41
1
10
-25.9785739382998
20
5.56008586410093
30
0
41
1
10
-26.0523851123406
20
5.6731220957183
30
0
41
1
10
-26.0788940750744
20
5.7097607983649
30
0
41
1
10
-26.1216325695387
20
5.7631085366649
30
0
41
1
10
-26.1364189020971
20
5.78066926556747
30
0
41
1
10
-26.1667379961542
20
5.81493010031119
30
0
41
1
10
-26.182276268388
20
5.83164305169831
30
0
41
1
10
-26.2618408925655
20
5.91314943003459
30
0
41
1
10
-26.3314306915815
20
5.97182929293479
30
0
41
1
10
-26.4260798692421
20
6.03686552710718
30
0
41
1
10
-26.4453963830412
20
6.04945319032993
30
0
41
1
10
-26.4848239392125
20
6.07376893504662
30
0
41
1
10
-26.504971424652
20
6.08551694290551
30
0
41
1
10
-26.5664067913667
20
6.11929751546066
30
0
41
1
10
-26.6082346736958
20
6.13963255719543
30
0
41
1
10
-26.7253678696553
20
6.18957370175946
30
0
41
1
10
-26.8023998881992
20
6.21486701036721
30
0
41
1
10
-26.8821365484886
20
6.23344164737375
30
0
0
SPLINE
5
1A4
100
AcDbEntity
8
SK1
62
256
6
ByLayer
370
18
48
1
60
0
100
AcDbSpline
70
4
71
3
72
34
73
30
40
0
40
0
40
0
40
0
40
0.0588234914222992
40
0.0588234914222992
40
0.0950225879060575
40
0.0950225879060575
40
0.131221684389816
40
0.131221684389816
40
0.276018070324856
40
0.276018070324856
40
0.312217166808615
40
0.312217166808615
40
0.348416263292373
40
0.420814456259887
40
0.493212649227401
40
0.493212649227401
40
0.529411745711158
40
0.529411745711158
40
0.565610842194914
40
0.565610842194914
40
0.710407228129941
40
0.710407228129941
40
0.782805421097455
40
0.782805421097455
40
0.819004517581212
40
0.819004517581212
40
0.855203614064969
40
0.855203614064969
40
1
40
1
40
1
40
1
41
1
10
-26.894216790076
20
-6.23619830777241
30
0
41
1
10
-26.8571252462002
20
-6.2278974267432
30
0
41
1
10
-26.8203171472726
20
-6.21807417520432
30
0
41
1
10
-26.761322502954
20
-6.19970527147035
30
0
41
1
10
-26.738947688458
20
-6.19211204993346
30
0
41
1
10
-26.6949437415086
20
-6.17593555825553
30
0
41
1
10
-26.6732468453112
20
-6.16733263475393
30
0
41
1
10
-26.5662494419288
20
-6.12180423744758
30
0
41
1
10
-26.4853661913642
20
-6.0774132385242
30
0
41
1
10
-26.3900055054556
20
-6.01212222720284
30
0
41
1
10
-26.3711749208065
20
-5.99853151564082
30
0
41
1
10
-26.3343680365871
20
-5.97055245109567
30
0
41
1
10
-26.28047676743
20
-5.92742786007696
30
0
41
1
10
-26.1970518628438
20
-5.84993064475213
30
0
41
1
10
-26.1369121823778
20
-5.7820880332628
30
0
41
1
10
-26.0942760389608
20
-5.72900500236227
30
0
41
1
10
-26.080476186897
20
-5.71094314490745
30
0
41
1
10
-26.0537090705115
20
-5.67407465203428
30
0
41
1
10
-26.0407575610831
20
-5.65528401183443
30
0
41
1
10
-25.9787088304242
20
-5.56041441321568
30
0
41
1
10
-25.9371254458849
20
-5.48089463840466
30
0
41
1
10
-25.886403252699
20
-5.35628662859068
30
0
41
1
10
-25.8714524612521
20
-5.31385636180505
30
0
41
1
10
-25.8520377264494
20
-5.24882643419036
30
0
41
1
10
-25.8460784474988
20
-5.22694001875655
30
0
41
1
10
-25.8352728670703
20
-5.18309679008678
30
0
41
1
10
-25.8304118763048
20
-5.16109256669171
30
0
41
1
10
-25.8087897410636
20
-5.05066042906955
30
0
41
1
10
-25.8
20
-4.96100935186118
30
0
41
1
10
-25.8
20
-4.87000000000001
30
0
0
SPLINE
5
1A5
100
AcDbEntity
8
SK1
62
256
6
ByLayer
370
18
48
1
60
0
100
AcDbSpline
70
4
71
3
72
85
73
81
40
0
40
0
40
0
40
0
40
0.0625000000000059
40
0.0625000000000059
40
0.125000000000012
40
0.125000000000012
40
0.187500000000018
40
0.187500000000018
40
0.250000000000023
40
0.250000000000023
40
0.281250000000027
40
0.281250000000027
40
0.31250000000003
40
0.31250000000003
40
0.343750000000034
40
0.343750000000034
40
0.375000000000037
40
0.375000000000037
40
0.406250000000041
40
0.406250000000041
40
0.421875000000043
40
0.421875000000043
40
0.437500000000044
40
0.437500000000044
40
0.453125000000046
40
0.453125000000046
40
0.468750000000048
40
0.468750000000048
40
0.476562500000047
40
0.476562500000047
40
0.484375000000047
40
0.484375000000047
40
0.492187500000047
40
0.492187500000047
40
0.496093750000047
40
0.496093750000047
40
0.500000000000046
40
0.500000000000046
40
0.501953125000046
40
0.501953125000046
40
0.503906250000046
40
0.505859375000047
40
0.505859375000047
40
0.507812500000047
40
0.507812500000047
40
0.511718750000046
40
0.511718750000046
40
0.515625000000046
40
0.515625000000046
40
0.519531250000045
40
0.519531250000045
40
0.523437500000044
40
0.523437500000044
40
0.531250000000044
40
0.531250000000044
40
0.539062500000043
40
0.539062500000043
40
0.546875000000043
40
0.546875000000043
40
0.562500000000042
40
0.562500000000042
40
0.578125000000041
40
0.578125000000041
40
0.593750000000041
40
0.593750000000041
40
0.625000000000037
40
0.625000000000037
40
0.656250000000034
40
0.656250000000034
40
0.687500000000031
40
0.687500000000031
40
0.750000000000025
40
0.750000000000025
40
0.812500000000019
40
0.812500000000019
40
0.875000000000012
40
0.875000000000012
40
0.937500000000006
40
0.937500000000006
40
1
40
1
40
1
40
1
41
1
10
-30.9697797028104
20
-10.2868327052761
30
0
41
1
10
-30.9693805484014
20
-10.4203933493107
30
0
41
1
10
-30.9708959030155
20
-10.5529402613861
30
0
41
1
10
-30.9777953092696
20
-10.815985611611
30
0
41
1
10
-30.9831782641179
20
-10.9464846305112
30
0
41
1
10
-30.9980277307872
20
-11.2053204261075
30
0
41
1
10
-31.0074909213459
20
-11.333658961411
30
0
41
1
10
-31.0309520383002
20
-11.5879348907391
30
0
41
1
10
-31.0449413593767
20
-11.7138768412776
30
0
41
1
10
-31.0699640521917
20
-11.9006512707046
30
0
41
1
10
-31.0789925010703
20
-11.9626149191855
30
0
41
1
10
-31.0985197922663
20
-12.0853536939826
30
0
41
1
10
-31.1090149799109
20
-12.1461251829244
30
0
41
1
10
-31.1316836456084
20
-12.2662964730838
30
0
41
1
10
-31.1438549479183
20
-12.3256980525633
30
0
41
1
10
-31.1702012624288
20
-12.4428635543883
30
0
41
1
10
-31.1843712421239
20
-12.5006315898635
30
0
41
1
10
-31.215251732803
20
-12.6140912528426
30
0
41
1
10
-31.2319480136138
20
-12.6697945108449
30
0
41
1
10
-31.2596496194289
20
-12.7511776476688
30
0
41
1
10
-31.269330732714
20
-12.7779398212772
30
0
41
1
10
-31.2898206204752
20
-12.8305425169104
30
0
41
1
10
-31.3006256953053
20
-12.8563860627019
30
0
41
1
10
-31.3237443497553
20
-12.9068402344688
30
0
41
1
10
-31.3359968749228
20
-12.9313248552683
30
0
41
1
10
-31.3623030742785
20
-12.9778980463947
30
0
41
1
10
-31.3763538144416
20
-13.0000511107364
30
0
41
1
10
-31.3996123195163
20
-13.0305248013842
30
0
41
1
10
-31.4077338006011
20
-13.0402171757938
30
0
41
1
10
-31.4250044752431
20
-13.0583041398167
30
0
41
1
10
-31.4342063227092
20
-13.0667443009983
30
0
41
1
10
-31.4537358335999
20
-13.0813350568201
30
0
41
1
10
-31.4640680013394
20
-13.0875366165719
30
0
41
1
10
-31.4809347945916
20
-13.0942007763157
30
0
41
1
10
-31.4867689754925
20
-13.0959592346265
30
0
41
1
10
-31.4987695265093
20
-13.0982520756002
30
0
41
1
10
-31.5049588926807
20
-13.0987987727474
30
0
41
1
10
-31.5146084609661
20
-13.0984595317592
30
0
41
1
10
-31.5179009844923
20
-13.0981484520927
30
0
41
1
10
-31.5245047171155
20
-13.0971010373452
30
0
41
1
10
-31.5311452766929
20
-13.0956310095051
30
0
41
1
10
-31.5378642934663
20
-13.0932606346502
30
0
41
1
10
-31.5446253008473
20
-13.0904083904436
30
0
41
1
10
-31.5480480136681
20
-13.0887288115278
30
0
41
1
10
-31.5582177001601
20
-13.0830096250475
30
0
41
1
10
-31.5648179679005
20
-13.0783319471613
30
0
41
1
10
-31.577687455399
20
-13.0673817057353
30
0
41
1
10
-31.5839965957658
20
-13.0610473246906
30
0
41
1
10
-31.5958275050373
20
-13.0475041881128
30
0
41
1
10
-31.6014172059611
20
-13.0402503508104
30
0
41
1
10
-31.6120792030089
20
-13.024976673262
30
0
41
1
10
-31.6171684198044
20
-13.0169187898782
30
0
41
1
10
-31.6314755580393
20
-12.9923884568231
30
0
41
1
10
-31.6398873844074
20
-12.975399608373
30
0
41
1
10
-31.6553235899368
20
-12.9406392937118
30
0
41
1
10
-31.6623480733508
20
-12.9228042668225
30
0
41
1
10
-31.6751712230682
20
-12.8872936487409
30
0
41
1
10
-31.6810118139046
20
-12.8695168620474
30
0
41
1
10
-31.6973298182025
20
-12.8161412220391
30
0
41
1
10
-31.7066261909751
20
-12.7804979436955
30
0
41
1
10
-31.7233527311735
20
-12.7091411894047
30
0
41
1
10
-31.7307660688537
20
-12.6733888683792
30
0
41
1
10
-31.7442620339321
20
-12.6019987408077
30
0
41
1
10
-31.7503106880221
20
-12.5665196382702
30
0
41
1
10
-31.7669652168291
20
-12.4605429037016
30
0
41
1
10
-31.7761076686093
20
-12.3904971947183
30
0
41
1
10
-31.7920763347651
20
-12.251121059423
30
0
41
1
10
-31.798874912481
20
-12.1817991676523
30
0
41
1
10
-31.8108834227722
20
-12.0436459773194
30
0
41
1
10
-31.8160848263626
20
-11.9748173126129
30
0
41
1
10
-31.8299579674628
20
-11.768865894153
30
0
41
1
10
-31.8369326384218
20
-11.6322672154765
30
0
41
1
10
-31.8482528452256
20
-11.3598817674658
30
0
41
1
10
-31.8525686835723
20
-11.2241249656685
30
0
41
1
10
-31.8594677308272
20
-10.9534617543825
30
0
41
1
10
-31.8620435345824
20
-10.8185064429026
30
0
41
1
10
-31.8659662688388
20
-10.5491250717629
30
0
41
1
10
-31.8673094050546
20
-10.4147006462281
30
0
41
1
10
-31.8690154340586
20
-10.1462739669458
30
0
41
1
10
-31.869376997654
20
-10.0122722856559
30
0
41
1
10
-31.8692807746814
20
-9.87846776414111
30
0
0
SPLINE
5
1A6
100
AcDbEntity
8
SK1
62
256
6
ByLayer
370
18
48
1
60
0
100
AcDbSpline
70
4
71
3
72
85
73
81
40
0
40
0
40
0
40
0
40
0.0624999999999939
40
0.0624999999999939
40
0.124999999999988
40
0.124999999999988
40
0.187499999999982
40
0.187499999999982
40
0.249999999999976
40
0.249999999999976
40
0.281249999999973
40
0.281249999999973
40
0.31249999999997
40
0.31249999999997
40
0.343749999999968
40
0.343749999999968
40
0.374999999999965
40
0.374999999999965
40
0.406249999999962
40
0.406249999999962
40
0.421874999999961
40
0.421874999999961
40
0.437499999999961
40
0.437499999999961
40
0.45312499999996
40
0.45312499999996
40
0.468749999999959
40
0.468749999999959
40
0.476562499999958
40
0.476562499999958
40
0.484374999999957
40
0.484374999999957
40
0.492187499999955
40
0.492187499999955
40
0.496093749999955
40
0.496093749999955
40
0.499999999999955
40
0.499999999999955
40
0.501953124999955
40
0.501953124999955
40
0.503906249999955
40
0.505859374999956
40
0.505859374999956
40
0.507812499999956
40
0.507812499999956
40
0.511718749999956
40
0.511718749999956
40
0.515624999999955
40
0.515624999999955
40
0.519531249999955
40
0.519531249999955
40
0.523437499999954
40
0.523437499999954
40
0.531249999999954
40
0.531249999999954
40
0.539062499999955
40
0.539062499999955
40
0.546874999999955
40
0.546874999999955
40
0.562499999999956
40
0.562499999999956
40
0.578124999999957
40
0.578124999999957
40
0.593749999999958
40
0.593749999999958
40
0.624999999999961
40
0.624999999999961
40
0.656249999999964
40
0.656249999999964
40
0.687499999999967
40
0.687499999999967
40
0.749999999999974
40
0.749999999999974
40
0.81249999999998
40
0.81249999999998
40
0.874999999999987
40
0.874999999999987
40
0.937499999999994
40
0.937499999999994
40
1
40
1
40
1
40
1
41
1
10
-30.9697797028104
20
10.2868327052761
30
0
41
1
10
-30.9693805484014
20
10.4203933493107
30
0
41
1
10
-30.9708959030155
20
10.5529402613861
30
0
41
1
10
-30.9777953092696
20
10.815985611611
30
0
41
1
10
-30.9831782641179
20
10.9464846305112
30
0
41
1
10
-30.9980277307872
20
11.2053204261074
30
0
41
1
10
-31.0074909213458
20
11.3336589614109
30
0
41
1
10
-31.0309520383002
20
11.587934890739
30
0
41
1
10
-31.0449413593767
20
11.7138768412776
30
0
41
1
10
-31.0699640521917
20
11.9006512707045
30
0
41
1
10
-31.0789925010703
20
11.9626149191855
30
0
41
1
10
-31.0985197922663
20
12.0853536939825
30
0
41
1
10
-31.1090149799109
20
12.1461251829244
30
0
41
1
10
-31.1316836456084
20
12.2662964730837
30
0
41
1
10
-31.1438549479183
20
12.3256980525632
30
0
41
1
10
-31.1702012624288
20
12.4428635543883
30
0
41
1
10
-31.1843712421239
20
12.5006315898635
30
0
41
1
10
-31.2152517328029
20
12.6140912528426
30
0
41
1
10
-31.2319480136137
20
12.6697945108448
30
0
41
1
10
-31.2596496194289
20
12.7511776476687
30
0
41
1
10
-31.269330732714
20
12.7779398212771
30
0
41
1
10
-31.2898206204752
20
12.8305425169103
30
0
41
1
10
-31.3006256953053
20
12.8563860627019
30
0
41
1
10
-31.3237443497552
20
12.9068402344687
30
0
41
1
10
-31.3359968749228
20
12.9313248552682
30
0
41
1
10
-31.3623030742785
20
12.9778980463947
30
0
41
1
10
-31.3763538144415
20
13.0000511107364
30
0
41
1
10
-31.3996123195163
20
13.0305248013841
30
0
41
1
10
-31.407733800601
20
13.0402171757938
30
0
41
1
10
-31.425004475243
20
13.0583041398166
30
0
41
1
10
-31.4342063227091
20
13.0667443009983
30
0
41
1
10
-31.4537358335998
20
13.0813350568201
30
0
41
1
10
-31.4640680013393
20
13.0875366165718
30
0
41
1
10
-31.4809347945915
20
13.0942007763157
30
0
41
1
10
-31.4867689754925
20
13.0959592346265
30
0
41
1
10
-31.4987695265092
20
13.0982520756002
30
0
41
1
10
-31.5049588926806
20
13.0987987727474
30
0
41
1
10
-31.5146084609661
20
13.0984595317592
30
0
41
1
10
-31.5179009844922
20
13.0981484520927
30
0
41
1
10
-31.5245047171153
20
13.0971010373453
30
0
41
1
10
-31.5311452766927
20
13.0956310095051
30
0
41
1
10
-31.5378642934662
20
13.0932606346503
30
0
41
1
10
-31.5446253008471
20
13.0904083904437
30
0
41
1
10
-31.5480480136679
20
13.0887288115278
30
0
41
1
10
-31.55821770016
20
13.0830096250475
30
0
41
1
10
-31.5648179679004
20
13.0783319471614
30
0
41
1
10
-31.5776874553989
20
13.0673817057354
30
0
41
1
10
-31.5839965957657
20
13.0610473246907
30
0
41
1
10
-31.5958275050372
20
13.0475041881129
30
0
41
1
10
-31.601417205961
20
13.0402503508105
30
0
41
1
10
-31.6120792030089
20
13.0249766732622
30
0
41
1
10
-31.6171684198044
20
13.0169187898783
30
0
41
1
10
-31.6314755580392
20
12.9923884568232
30
0
41
1
10
-31.6398873844074
20
12.9753996083732
30
0
41
1
10
-31.6553235899367
20
12.940639293712
30
0
41
1
10
-31.6623480733508
20
12.9228042668227
30
0
41
1
10
-31.6751712230682
20
12.887293648741
30
0
41
1
10
-31.6810118139046
20
12.8695168620476
30
0
41
1
10
-31.6973298182025
20
12.8161412220393
30
0
41
1
10
-31.7066261909751
20
12.7804979436957
30
0
41
1
10
-31.7233527311735
20
12.7091411894048
30
0
41
1
10
-31.7307660688537
20
12.6733888683794
30
0
41
1
10
-31.744262033932
20
12.6019987408078
30
0
41
1
10
-31.750310688022
20
12.5665196382704
30
0
41
1
10
-31.7669652168291
20
12.4605429037017
30
0
41
1
10
-31.7761076686093
20
12.3904971947184
30
0
41
1
10
-31.7920763347651
20
12.2511210594231
30
0
41
1
10
-31.798874912481
20
12.1817991676524
30
0
41
1
10
-31.8108834227722
20
12.0436459773195
30
0
41
1
10
-31.8160848263625
20
11.974817312613
30
0
41
1
10
-31.8299579674628
20
11.7688658941531
30
0
41
1
10
-31.8369326384218
20
11.6322672154766
30
0
41
1
10
-31.8482528452256
20
11.3598817674659
30
0
41
1
10
-31.8525686835723
20
11.2241249656685
30
0
41
1
10
-31.8594677308272
20
10.9534617543825
30
0
41
1
10
-31.8620435345824
20
10.8185064429027
30
0
41
1
10
-31.8659662688388
20
10.5491250717629
30
0
41
1
10
-31.8673094050546
20
10.4147006462281
30
0
41
1
10
-31.8690154340586
20
10.1462739669458
30
0
41
1
10
-31.869376997654
20
10.012272285656
30
0
41
1
10
-31.8692807746814
20
9.87846776414111
30
0
0
SPLINE
5
1A7
100
AcDbEntity
8
SK1
62
256
6
ByLayer
370
18
48
1
60
0
100
AcDbSpline
70
4
71
3
72
21
73
17
40
0
40
0
40
0
40
0
40
0.249999999999995
40
0.249999999999995
40
0.312499999999994
40
0.312499999999994
40
0.374999999999993
40
0.499999999999996
40
0.499999999999996
40
0.749999999999995
40
0.749999999999995
40
0.812499999999996
40
0.812499999999996
40
0.874999999999997
40
0.874999999999997
40
1
40
1
40
1
40
1
41
1
10
-31.8692807746814
20
9.87846776414111
30
0
41
1
10
-31.8692299147198
20
9.80774356339532
30
0
41
1
10
-31.8707678265068
20
9.73390897762897
30
0
41
1
10
-31.8742083558994
20
9.63782326557526
30
0
41
1
10
-31.8749676630486
20
9.61845651934684
30
0
41
1
10
-31.87658886101
20
9.57971643372329
30
0
41
1
10
-31.8791786747931
20
9.52147183361953
30
0
41
1
10
-31.882101951808
20
9.46284067673682
30
0
41
1
10
-31.8880002377309
20
9.34509904355173
30
0
41
1
10
-31.891999405525
20
9.26596769873353
30
0
41
1
10
-31.8957563161762
20
9.16633792063703
30
0
41
1
10
-31.8964456824745
20
9.14637601383598
30
0
41
1
10
-31.8976676502273
20
9.10638170014417
30
0
41
1
10
-31.8982008064945
20
9.08632050783882
30
0
41
1
10
-31.8995113892774
20
9.02627681714088
30
0
41
1
10
-31.9
20
8.98645648434862
30
0
41
1
10
-31.9
20
8.94683005895271
30
0
0
SPLINE
5
1A8
100
AcDbEntity
8
SK1
62
256
6
ByLayer
370
18
48
1
60
0
100
AcDbSpline
70
4
71
3
72
14
73
10
40
0
40
0
40
0
40
0
40
0.25
40
0.25
40
0.5
40
0.5
40
0.75
40
0.75
40
1
40
1
40
1
40
1
41
1
10
-30.7600449304182
20
9.34174801463021
30
0
41
1
10
-30.7900404769229
20
9.4199095564764
30
0
41
1
10
-30.8180896999408
20
9.49767682896677
30
0
41
1
10
-30.8687458608594
20
9.65314598350403
30
0
41
1
10
-30.8913498391749
20
9.73084941234231
30
0
41
1
10
-30.9290751655626
20
9.88712385607934
30
0
41
1
10
-30.9441756135538
20
9.96570568126734
30
0
41
1
10
-30.9646688220374
20
10.1247204904456
30
0
41
1
10
-30.9700237499846
20
10.2051723327198
30
0
41
1
10
-30.9697797028104
20
10.286832705276
30
0
0
SPLINE
5
1A9
100
AcDbEntity
8
SK1
62
256
6
ByLayer
370
18
48
1
60
0
100
AcDbSpline
70
4
71
3
72
14
73
10
40
0
40
0
40
0
40
0
40
0.25
40
0.25
40
0.5
40
0.5
40
0.75
40
0.75
40
1
40
1
40
1
40
1
41
1
10
-30.7600449304182
20
-9.34174801463021
30
0
41
1
10
-30.7900404769229
20
-9.4199095564764
30
0
41
1
10
-30.8180896999408
20
-9.49767682896677
30
0
41
1
10
-30.8687458608594
20
-9.65314598350403
30
0
41
1
10
-30.8913498391749
20
-9.73084941234231
30
0
41
1
10
-30.9290751655626
20
-9.88712385607937
30
0
41
1
10
-30.9441756135538
20
-9.96570568126734
30
0
41
1
10
-30.9646688220374
20
-10.1247204904456
30
0
41
1
10
-30.9700237499846
20
-10.2051723327198
30
0
41
1
10
-30.9697797028104
20
-10.2868327052761
30
0
0
SPLINE
5
1AA
100
AcDbEntity
8
SK1
62
256
6
ByLayer
370
18
48
1
60
0
100
AcDbSpline
70
4
71
3
72
21
73
17
40
0
40
0
40
0
40
0
40
0.250000000000009
40
0.250000000000009
40
0.312500000000011
40
0.312500000000011
40
0.375000000000014
40
0.500000000000013
40
0.500000000000013
40
0.750000000000003
40
0.750000000000003
40
0.812500000000001
40
0.812500000000001
40
0.874999999999999
40
0.874999999999999
40
1
40
1
40
1
40
1
41
1
10
-31.8692807746814
20
-9.87846776414111
30
0
41
1
10
-31.8692299147198
20
-9.80774356339535
30
0
41
1
10
-31.8707678265068
20
-9.73390897762897
30
0
41
1
10
-31.8742083558994
20
-9.63782326557526
30
0
41
1
10
-31.8749676630486
20
-9.61845651934684
30
0
41
1
10
-31.87658886101
20
-9.57971643372329
30
0
41
1
10
-31.8791786747931
20
-9.52147183361953
30
0
41
1
10
-31.882101951808
20
-9.46284067673682
30
0
41
1
10
-31.8880002377309
20
-9.34509904355173
30
0
41
1
10
-31.891999405525
20
-9.26596769873353
30
0
41
1
10
-31.8957563161762
20
-9.16633792063703
30
0
41
1
10
-31.8964456824745
20
-9.14637601383598
30
0
41
1
10
-31.8976676502273
20
-9.10638170014417
30
0
41
1
10
-31.8982008064945
20
-9.08632050783882
30
0
41
1
10
-31.8995113892774
20
-9.02627681714088
30
0
41
1
10
-31.9
20
-8.98645648434862
30
0
41
1
10
-31.9
20
-8.94683005895271
30
0
0
SPLINE
5
1AB
100
AcDbEntity
8
SK1
62
256
6
ByLayer
370
18
48
1
60
0
100
AcDbSpline
70
2053
71
3
72
183
73
179
40
0
40
0
40
0
40
0
40
0.0156249999999996
40
0.0312499999999991
40
0.0312499999999991
40
0.039062499999999
40
0.0429687499999989
40
0.0429687499999989
40
0.0468749999999987
40
0.0468749999999987
40
0.0624999999999983
40
0.0781249999999978
40
0.0781249999999978
40
0.0937499999999973
40
0.0937499999999973
40
0.0976562499999971
40
0.0976562499999971
40
0.101562499999997
40
0.101562499999997
40
0.109374999999997
40
0.109374999999997
40
0.124999999999996
40
0.140624999999996
40
0.140624999999996
40
0.148437499999996
40
0.148437499999996
40
0.152343749999995
40
0.152343749999995
40
0.156249999999995
40
0.156249999999995
40
0.171874999999995
40
0.171874999999995
40
0.187499999999994
40
0.187499999999994
40
0.195312499999994
40
0.195312499999994
40
0.199218749999994
40
0.199218749999994
40
0.203124999999994
40
0.203124999999994
40
0.218749999999994
40
0.218749999999994
40
0.234374999999993
40
0.234374999999993
40
0.242187499999993
40
0.242187499999993
40
0.246093749999993
40
0.246093749999993
40
0.249999999999993
40
0.249999999999993
40
0.265624999999993
40
0.265624999999993
40
0.281249999999993
40
0.281249999999993
40
0.289062499999993
40
0.292968749999993
40
0.292968749999993
40
0.296874999999993
40
0.296874999999993
40
0.312499999999993
40
0.312499999999993
40
0.328124999999993
40
0.343749999999993
40
0.343749999999993
40
0.351562499999993
40
0.351562499999993
40
0.359374999999993
40
0.359374999999993
40
0.374999999999993
40
0.390624999999994
40
0.390624999999994
40
0.398437499999994
40
0.402343749999994
40
0.402343749999994
40
0.406249999999994
40
0.406249999999994
40
0.421874999999995
40
0.437499999999995
40
0.453124999999995
40
0.453124999999995
40
0.460937499999995
40
0.460937499999995
40
0.468749999999995
40
0.468749999999995
40
0.484374999999995
40
0.499999999999996
40
0.499999999999996
40
0.515624999999996
40
0.515624999999996
40
0.523437499999996
40
0.523437499999996
40
0.527343749999996
40
0.527343749999996
40
0.531249999999996
40
0.546874999999996
40
0.562499999999996
40
0.562499999999996
40
0.578124999999996
40
0.578124999999996
40
0.582031249999996
40
0.582031249999996
40
0.585937499999996
40
0.585937499999996
40
0.593749999999996
40
0.593749999999996
40
0.609374999999996
40
0.609374999999996
40
0.624999999999996
40
0.624999999999996
40
0.632812499999996
40
0.632812499999996
40
0.636718749999996
40
0.636718749999996
40
0.640624999999996
40
0.640624999999996
40
0.656249999999996
40
0.671874999999997
40
0.671874999999997
40
0.679687499999997
40
0.679687499999997
40
0.683593749999997
40
0.683593749999997
40
0.687499999999997
40
0.687499999999997
40
0.703124999999997
40
0.703124999999997
40
0.718749999999997
40
0.718749999999997
40
0.726562499999997
40
0.726562499999997
40
0.730468749999997
40
0.730468749999997
40
0.734374999999997
40
0.734374999999997
40
0.749999999999997
40
0.749999999999997
40
0.765624999999997
40
0.765624999999997
40
0.773437499999997
40
0.773437499999997
40
0.777343749999997
40
0.777343749999997
40
0.781249999999997
40
0.781249999999997
40
0.796874999999997
40
0.796874999999997
40
0.812499999999997
40
0.828124999999998
40
0.828124999999998
40
0.832031249999998
40
0.832031249999998
40
0.835937499999998
40
0.843749999999998
40
0.843749999999998
40
0.859374999999998
40
0.874999999999998
40
0.874999999999998
40
0.882812499999998
40
0.882812499999998
40
0.890624999999998
40
0.890624999999998
40
0.906249999999998
40
0.921874999999998
40
0.921874999999998
40
0.937499999999998
40
0.937499999999998
40
0.945312499999998
40
0.945312499999998
40
0.949218749999998
40
0.949218749999998
40
0.953124999999998
40
0.968749999999999
40
0.984374999999999
40
0.984374999999999
40
0.9921875
40
0.99609375
40
0.99609375
40
1
40
1
40
1
40
1
41
1
10
-11.4681204191151
20
-3.28721445789113
30
0
41
1
10
-11.5847957657171
20
-3.20636378886243
30
0
41
1
10
-11.8088242734413
20
-3.03464223444419
30
0
41
1
10
-12.0143326430346
20
-2.84296924999623
30
0
41
1
10
-12.1613551672144
20
-2.69153884007201
30
0
41
1
10
-12.2330862614078
20
-2.6139014956477
30
0
41
1
10
-12.3020831061896
20
-2.53330851338322
30
0
41
1
10
-12.3474642847756
20
-2.47891283669298
30
0
41
1
10
-12.3698708944452
20
-2.45134933313901
30
0
41
1
10
-12.479782568463
20
-2.31254823861389
30
0
41
1
10
-12.6427933961222
20
-2.08340154785208
30
0
41
1
10
-12.7804409846279
20
-1.84027568412353
30
0
41
1
10
-12.905179237126
20
-1.5900200564096
30
0
41
1
10
-12.9610959363317
20
-1.46132861640237
30
0
41
1
10
-13.022516565245
20
-1.29577545026493
30
0
41
1
10
-13.0343757721356
20
-1.26242973795351
30
0
41
1
10
-13.0572292156026
20
-1.19525960752847
30
0
41
1
10
-13.0682245613352
20
-1.16142481082432
30
0
41
1
10
-13.0996857195727
20
-1.0598787010135
30
0
41
1
10
-13.1187066177624
20
-0.99190174683298
30
0
41
1
10
-13.1699966571392
20
-0.787144176920094
30
0
41
1
10
-13.2230148165891
20
-0.51193306298083
30
0
41
1
10
-13.2454889136976
20
-0.232343719943259
30
0
41
1
10
-13.2505982867545
20
-0.0209673670418624
30
0
41
1
10
-13.2503399093062
20
0.0497726781011636
30
0
41
1
10
-13.2469365039879
20
0.156315184739981
30
0
41
1
10
-13.2452991642846
20
0.191848461785952
30
0
41
1
10
-13.2410429449998
20
0.26260576929343
30
0
41
1
10
-13.238422655649
20
0.29788055730657
30
0
41
1
10
-13.2228904369507
20
0.473741570914569
30
0
41
1
10
-13.2027059118386
20
0.612793118018203
30
0
41
1
10
-13.1472632100579
20
0.887717475546907
30
0
41
1
10
-13.112004059108
20
1.02359007716612
30
0
41
1
10
-13.0477814830663
20
1.22501166377558
30
0
41
1
10
-13.0244813481594
20
1.29175355220838
30
0
41
1
10
-12.9866550651022
20
1.39126105134059
30
0
41
1
10
-12.9735673760034
20
1.42432226200259
30
0
41
1
10
-12.9465940156617
20
1.48984873967109
30
0
41
1
10
-12.9326897576672
20
1.52236409955998
30
0
41
1
10
-12.8611124023998
20
1.6837209157087
30
0
41
1
10
-12.7972883829372
20
1.80891261083696
30
0
41
1
10
-12.6570409007133
20
2.05183433442196
30
0
41
1
10
-12.5806158295878
20
2.16956338663476
30
0
41
1
10
-12.456614037022
20
2.34062360706454
30
0
41
1
10
-12.4137163910493
20
2.39671968054481
30
0
41
1
10
-12.3470080832682
20
2.47946985072323
30
0
41
1
10
-12.3243587430964
20
2.50684198941997
30
0
41
1
10
-12.2785103065266
20
2.56083928769198
30
0
41
1
10
-12.2552856904668
20
2.58749731720516
30
0
41
1
10
-12.1376841190669
20
2.7191119186831
30
0
41
1
10
-12.0388838172259
20
2.81905564230189
30
0
41
1
10
-11.8322424541654
20
3.00872015529549
30
0
41
1
10
-11.7244000562005
20
3.09843939257857
30
0
41
1
10
-11.5559397289975
20
3.22546261607789
30
0
41
1
10
-11.4700325268677
20
3.28708208116035
30
0
41
1
10
-11.3815971444373
20
3.34585217732871
30
0
41
1
10
-11.3220754526997
20
3.38439605897176
30
0
41
1
10
-11.292040288245
20
3.40334311576908
30
0
41
1
10
-11.1412090975778
20
3.49602533210225
30
0
41
1
10
-11.0178624240849
20
3.56400450490753
30
0
41
1
10
-10.7660399087142
20
3.68817940401553
30
0
41
1
10
-10.5090870676334
20
3.80056820619214
30
0
41
1
10
-10.2420386902451
20
3.88978307614644
30
0
41
1
10
-10.0379253701214
20
3.94791534242634
30
0
41
1
10
-9.96909745915056
20
3.96585824226258
30
0
41
1
10
-9.83135291982148
20
3.99849996722389
30
0
41
1
10
-9.76234395534394
20
4.01323252928683
30
0
41
1
10
-9.55491657989552
20
4.05276667806274
30
0
41
1
10
-9.27728095010187
20
4.09306602794717
30
0
41
1
10
-8.99756793694371
20
4.10909818487875
30
0
41
1
10
-8.78700252968957
20
4.11199303272582
30
0
41
1
10
-8.68152435641588
20
4.11115479473293
30
0
41
1
10
-8.57574943133045
20
4.10684733502725
30
0
41
1
10
-8.50516629236202
20
4.10319823461512
30
0
41
1
10
-8.46980183964931
20
4.10098187757546
30
0
41
1
10
-8.29331585260809
20
4.08797492768474
30
0
41
1
10
-8.01401881209091
20
4.05498113360133
30
0
41
1
10
-7.60401258929522
20
3.97004848933153
30
0
41
1
10
-7.33658355744123
20
3.88990547023428
30
0
41
1
10
-7.13826597722021
20
3.82077406868677
30
0
41
1
10
-7.07253642101864
20
3.79622368633017
30
0
41
1
10
-6.94184416469395
20
3.74404261833914
30
0
41
1
10
-6.87677097778638
20
3.71635464186531
30
0
41
1
10
-6.68462051554101
20
3.62943113113022
30
0
41
1
10
-6.43547363472479
20
3.50286058308376
30
0
41
1
10
-6.20019551432108
20
3.35519532315166
30
0
41
1
10
-5.97193167710211
20
3.19679929975951
30
0
41
1
10
-5.86130586018859
20
3.11223762034933
30
0
41
1
10
-5.70084746445252
20
2.976960518319
30
0
41
1
10
-5.64827648052716
20
2.93045963401406
30
0
41
1
10
-5.57083822625771
20
2.85851887399454
30
0
41
1
10
-5.54527212997712
20
2.83418073743806
30
0
41
1
10
-5.49491518416582
20
2.78505654772476
30
0
41
1
10
-5.37077964737091
20
2.66094633260135
30
0
41
1
10
-5.16297868868602
20
2.42595959782511
30
0
41
1
10
-5.00050606880197
20
2.20052579380771
30
0
41
1
10
-4.84949796142115
20
1.96651765590468
30
0
41
1
10
-4.77972332880711
20
1.84522860126069
30
0
41
1
10
-4.700133460562
20
1.68788889345916
30
0
41
1
10
-4.68459802487297
20
1.65613369721737
30
0
41
1
10
-4.65430866683164
20
1.59203591940047
30
0
41
1
10
-4.63961951812664
20
1.55982931719768
30
0
41
1
10
-4.59697075937379
20
1.46287124767929
30
0
41
1
10
-4.57040176631844
20
1.39772438763279
30
0
41
1
10
-4.49623484469882
20
1.20077091984024
30
0
41
1
10
-4.45416284893426
20
1.06745519319733
30
0
41
1
10
-4.38483973098332
20
0.796766705688356
30
0
41
1
10
-4.3575871714846
20
0.659394347137265
30
0
41
1
10
-4.32823260598516
20
0.450176351386972
30
0
41
1
10
-4.32037224999971
20
0.379909429312818
30
0
41
1
10
-4.3115575089962
20
0.273692890960888
30
0
41
1
10
-4.30911679194932
20
0.238135875832171
30
0
41
1
10
-4.30526526658653
20
0.16724966843708
30
0
41
1
10
-4.3038485515705
20
0.131858516368624
30
0
41
1
10
-4.29928105665195
20
-0.0448404413604351
30
0
41
1
10
-4.30803508602503
20
-0.325919299754872
30
0
41
1
10
-4.34808834866413
20
-0.603804167887773
30
0
41
1
10
-4.38992362484706
20
-0.811015490754897
30
0
41
1
10
-4.40583834464758
20
-0.879885172994932
30
0
41
1
10
-4.43270705638068
20
-0.982884526717726
30
0
41
1
10
-4.44217032644491
20
-1.01718590861154
30
0
41
1
10
-4.46197488601172
20
-1.08525827353964
30
0
41
1
10
-4.47232916662631
20
-1.11908206240855
30
0
41
1
10
-4.5263240712415
20
-1.28715681124945
30
0
41
1
10
-4.57661619545104
20
-1.41828396944325
30
0
41
1
10
-4.69077786428738
20
-1.67418013668302
30
0
41
1
10
-4.7546492840998
20
-1.79894823810969
30
0
41
1
10
-4.86051605570705
20
-1.9814064307725
30
0
41
1
10
-4.89748488130371
20
-2.0414419878403
30
0
41
1
10
-4.95547186109607
20
-2.1303154752336
30
0
41
1
10
-4.97518021274971
20
-2.1596756517269
30
0
41
1
10
-5.01523978740315
20
-2.217721162483
30
0
41
1
10
-5.03560698791506
20
-2.24643108036469
30
0
41
1
10
-5.13910252836226
20
-2.38844383924379
30
0
41
1
10
-5.22719533278763
20
-2.49714930138438
30
0
41
1
10
-5.41350735624911
20
-2.70522982093635
30
0
41
1
10
-5.51172813427723
20
-2.80460335382807
30
0
41
1
10
-5.66655415949984
20
-2.94679456592945
30
0
41
1
10
-5.71941439629157
20
-2.99304456512115
30
0
41
1
10
-5.80059087070436
20
-3.06069559037783
30
0
41
1
10
-5.82799317936011
20
-3.08298061083815
30
0
41
1
10
-5.88318202724082
20
-3.12678008067562
30
0
41
1
10
-5.91098923808764
20
-3.14831291582721
30
0
41
1
10
-6.0510739235954
20
-3.25417181988109
30
0
41
1
10
-6.16648897178851
20
-3.33309671162854
30
0
41
1
10
-6.40376177839866
20
-3.4799237142162
30
0
41
1
10
-6.6474790977706
20
-3.61572496141656
30
0
41
1
10
-6.90397104300809
20
-3.72979522464124
30
0
41
1
10
-7.06834851829942
20
-3.79420120928529
30
0
41
1
10
-7.10138315716435
20
-3.80671878486652
30
0
41
1
10
-7.1675615058642
20
-3.83095549389327
30
0
41
1
10
-7.26708520507506
20
-3.86614831884387
30
0
41
1
10
-7.36736914889528
20
-3.89789807262144
30
0
41
1
10
-7.56893622146873
20
-3.95688640216028
30
0
41
1
10
-7.84035247995467
20
-4.02352885778007
30
0
41
1
10
-8.11704065087486
20
-4.06649285805167
30
0
41
1
10
-8.32656566210039
20
-4.08972391593824
30
0
41
1
10
-8.39674266334194
20
-4.09596647403572
30
0
41
1
10
-8.5377791390604
20
-4.10539963226083
30
0
41
1
10
-8.60876511922163
20
-4.10858710179377
30
0
41
1
10
-8.82076408550674
20
-4.11345352733886
30
0
41
1
10
-9.10197722702191
20
-4.10756122538092
30
0
41
1
10
-9.38034954873871
20
-4.07745248182755
30
0
41
1
10
-9.6572941955375
20
-4.03519051548733
30
0
41
1
10
-9.79505279470982
20
-4.00798382236931
30
0
41
1
10
-10.0005846008154
20
-3.95778205961514
30
0
41
1
10
-10.0689105328774
20
-3.93948024155713
30
0
41
1
10
-10.1711148277304
20
-3.90961523742931
30
0
41
1
10
-10.2051251598403
20
-3.89925968500816
30
0
41
1
10
-10.2727097036818
20
-3.87784645157393
30
0
41
1
10
-10.4407902593359
20
-3.8224901810967
30
0
41
1
10
-10.7354909469787
20
-3.7066087702992
30
0
41
1
10
-10.9863587203157
20
-3.58062525866876
30
0
41
1
10
-11.1702603297196
20
-3.4773225114707
30
0
41
1
10
-11.261147174977
20
-3.42346390779153
30
0
41
1
10
-11.3504025722982
20
-3.36621876428424
30
0
41
1
10
-11.4095385806372
20
-3.32729206098463
30
0
41
1
10
-11.4389515824646
20
-3.30742712514831
30
0
41
1
10
-11.4681204191151
20
-3.28721445789113
30
0
0
SPLINE
5
1AC
100
AcDbEntity
8
SK1
62
256
6
ByLayer
370
18
48
1
60
0
100
AcDbSpline
70
4
71
3
72
8
73
4
40
0
40
0
40
0
40
0
40
1
40
1
40
1
40
1
41
1
10
-30.7600449304182
20
9.34174801463021
30
0
41
1
10
-30.7414872158135
20
9.29339084979495
30
0
41
1
10
-30.7218522549563
20
9.24533982137714
30
0
41
1
10
-30.70125
20
9.19755885599326
30
0
0
SPLINE
5
1AD
100
AcDbEntity
8
SK1
62
256
6
ByLayer
370
18
48
1
60
0
100
AcDbSpline
70
4
71
3
72
44
73
40
40
0
40
0
40
0
40
0
40
0.0078125000000004
40
0.0078125000000004
40
0.0156250000000008
40
0.0156250000000008
40
0.0234375000000011
40
0.0234375000000011
40
0.0312500000000015
40
0.0312500000000015
40
0.0468750000000029
40
0.0468750000000029
40
0.0546875000000034
40
0.0546875000000034
40
0.0625000000000038
40
0.0625000000000038
40
0.0781250000000042
40
0.0781250000000042
40
0.0937500000000045
40
0.0937500000000045
40
0.125000000000005
40
0.125000000000005
40
0.156250000000006
40
0.156250000000006
40
0.187500000000007
40
0.187500000000007
40
0.250000000000006
40
0.250000000000006
40
0.312500000000005
40
0.312500000000005
40
0.375000000000005
40
0.375000000000005
40
0.500000000000003
40
0.500000000000003
40
0.625000000000002
40
0.625000000000002
40
0.750000000000001
40
0.750000000000001
40
1
40
1
40
1
40
1
41
1
10
-25.9833434997484
20
10.4087426392499
30
0
41
1
10
-25.9828031618322
20
10.3968448251537
30
0
41
1
10
-25.9838914660093
20
10.3851042535958
30
0
41
1
10
-25.9890236323278
20
10.3619084659698
30
0
41
1
10
-25.9931333824195
20
10.3503660360948
30
0
41
1
10
-26.0035108983183
20
10.3284793808975
30
0
41
1
10
-26.0097833008974
20
10.3180112117335
30
0
41
1
10
-26.0240019197853
20
10.297808816648
30
0
41
1
10
-26.0319777000089
20
10.288060206512
30
0
41
1
10
-26.0572642628517
20
10.2603472770828
30
0
41
1
10
-26.0760833795908
20
10.2435924197252
30
0
41
1
10
-26.1060653331202
20
10.2199980348718
30
0
41
1
10
-26.1163855034072
20
10.2123831199457
30
0
41
1
10
-26.1374112205773
20
10.1976642104272
30
0
41
1
10
-26.1480862607682
20
10.1905795389156
30
0
41
1
10
-26.1805020443379
20
10.1699874282922
30
0
41
1
10
-26.2026285707414
20
10.1571336252841
30
0
41
1
10
-26.2475993651115
20
10.1326421220294
30
0
41
1
10
-26.2704469285868
20
10.1210100051506
30
0
41
1
10
-26.3398016510718
20
10.0874895508003
30
0
41
1
10
-26.3871071994478
20
10.0669539958183
30
0
41
1
10
-26.4830721960951
20
10.0281770530914
30
0
41
1
10
-26.5318115234254
20
10.0099337406444
30
0
41
1
10
-26.6296273769646
20
9.97531073880612
30
0
41
1
10
-26.6787817533781
20
9.95890522298876
30
0
41
1
10
-26.8267903169712
20
9.91169386546738
30
0
41
1
10
-26.926180450836
20
9.88285834016619
30
0
41
1
10
-27.1258560688841
20
9.82847924952515
30
0
41
1
10
-27.2261500148117
20
9.80296678681466
30
0
41
1
10
-27.4273774831828
20
9.75429368700415
30
0
41
1
10
-27.5283138087648
20
9.73114335332059
30
0
41
1
10
-27.8318508313425
20
9.66436984604073
30
0
41
1
10
-28.0351676379407
20
9.62338029285485
30
0
41
1
10
-28.4430293749969
20
9.5459192303648
30
0
41
1
10
-28.6476200301024
20
9.50947976699214
30
0
41
1
10
-29.0571977039526
20
9.43995789482196
30
0
41
1
10
-29.2622565030359
20
9.40687476603708
30
0
41
1
10
-29.8780477589523
20
9.31144728367443
30
0
41
1
10
-30.2893853411834
20
9.25286437069164
30
0
41
1
10
-30.7012499999992
20
9.19755885598815
30
0
0
SPLINE
5
1AE
100
AcDbEntity
8
SK1
62
256
6
ByLayer
370
18
48
1
60
0
100
AcDbSpline
70
4
71
3
72
40
73
36
40
0
40
0
40
0
40
0
40
0.125000000000006
40
0.125000000000006
40
0.250000000000011
40
0.250000000000011
40
0.312500000000013
40
0.312500000000013
40
0.375000000000014
40
0.375000000000014
40
0.500000000000015
40
0.500000000000015
40
0.562500000000015
40
0.562500000000015
40
0.625000000000015
40
0.625000000000015
40
0.656250000000014
40
0.656250000000014
40
0.687500000000013
40
0.687500000000013
40
0.750000000000011
40
0.750000000000011
40
0.78125000000001
40
0.78125000000001
40
0.812500000000009
40
0.812500000000009
40
0.875000000000009
40
0.875000000000009
40
0.906250000000008
40
0.906250000000008
40
0.921875000000007
40
0.921875000000007
40
0.937500000000007
40
0.937500000000007
40
1
40
1
40
1
40
1
41
1
10
-23.2
20
12.7116897284782
30
0
41
1
10
-23.3511498698863
20
12.650123192385
30
0
41
1
10
-23.5011417738728
20
12.5865607807969
30
0
41
1
10
-23.7982575980832
20
12.4544926872604
30
0
41
1
10
-23.9453860922001
20
12.3859948888956
30
0
41
1
10
-24.1633277841841
20
12.2785064699669
30
0
41
1
10
-24.2355141475595
20
12.2418826439598
30
0
41
1
10
-24.3788251046806
20
12.1668049207963
30
0
41
1
10
-24.4498886068506
20
12.128381513928
30
0
41
1
10
-24.6605180310533
20
12.0103267290447
30
0
41
1
10
-24.7977509432142
20
11.9278665996181
30
0
41
1
10
-24.9969552111743
20
11.7963422169375
30
0
41
1
10
-25.0622401051568
20
11.7511844333778
30
0
41
1
10
-25.1900960100751
20
11.6576693552558
30
0
41
1
10
-25.2526702413816
20
11.609315857324
30
0
41
1
10
-25.3439908091237
20
11.5337901788166
30
0
41
1
10
-25.374005721696
20
11.5081135760673
30
0
41
1
10
-25.4330711781515
20
11.4556234357123
30
0
41
1
10
-25.4621594165359
20
11.4287708120819
30
0
41
1
10
-25.5471770614402
20
11.3468460346437
30
0
41
1
10
-25.6010398129091
20
11.2902862858341
30
0
41
1
10
-25.6764945943256
20
11.2017617320436
30
0
41
1
10
-25.7007521766219
20
11.1716365485715
30
0
41
1
10
-25.7472269417682
20
11.1099780071789
30
0
41
1
10
-25.7694641654583
20
11.0784152628229
30
0
41
1
10
-25.8325202493385
20
10.9814738917701
30
0
41
1
10
-25.8690266895949
20
10.9149004002389
30
0
41
1
10
-25.9137039563343
20
10.8114929526911
30
0
41
1
10
-25.9269103792575
20
10.776430631461
30
0
41
1
10
-25.943903925382
20
10.7228463871544
30
0
41
1
10
-25.9490985759968
20
10.7048196635162
30
0
41
1
10
-25.958493297034
20
10.6684163008152
30
0
41
1
10
-25.9626968383489
20
10.650009603911
30
0
41
1
10
-25.9809200317924
20
10.5579692927412
30
0
41
1
10
-25.9867474411683
20
10.4836947403972
30
0
41
1
10
-25.9833434997534
20
10.4087426392502
30
0
0
SPLINE
5
1AF
100
AcDbEntity
8
SK1
62
256
6
ByLayer
370
18
48
1
60
0
100
AcDbSpline
70
4
71
3
72
49
73
45
40
0
40
0
40
0
40
0
40
0.0156250000000044
40
0.0156250000000044
40
0.0234375000000065
40
0.0234375000000065
40
0.0312500000000086
40
0.0390625000000106
40
0.0390625000000106
40
0.0468750000000127
40
0.0468750000000127
40
0.0625000000000149
40
0.0625000000000149
40
0.0703125000000155
40
0.0703125000000155
40
0.0781250000000162
40
0.0781250000000162
40
0.0937500000000148
40
0.0937500000000148
40
0.125000000000014
40
0.125000000000014
40
0.156250000000014
40
0.156250000000014
40
0.187500000000014
40
0.187500000000014
40
0.218750000000013
40
0.218750000000013
40
0.250000000000013
40
0.250000000000013
40
0.312500000000011
40
0.312500000000011
40
0.375000000000008
40
0.375000000000008
40
0.500000000000005
40
0.500000000000005
40
0.625000000000002
40
0.625000000000002
40
0.687500000000001
40
0.687500000000001
40
0.75
40
0.75
40
0.875
40
0.875
40
1
40
1
40
1
40
1
41
1
10
-23.2
20
12.7116897284782
30
0
41
1
10
-23.1861263738958
20
12.717340749567
30
0
41
1
10
-23.1718181484693
20
12.7215852807745
30
0
41
1
10
-23.1495705820266
20
12.7254130871728
30
0
41
1
10
-23.1419558829897
20
12.7262661039696
30
0
41
1
10
-23.1267710245218
20
12.7270131657634
30
0
41
1
10
-23.1117483110011
20
12.726814044429
30
0
41
1
10
-23.0970313418169
20
12.7248305189462
30
0
41
1
10
-23.0824594197307
20
12.7219999808117
30
0
41
1
10
-23.0751972475898
20
12.7201424802591
30
0
41
1
10
-23.0541683727243
20
12.7135490191578
30
0
41
1
10
-23.0410262338589
20
12.7078076749796
30
0
41
1
10
-23.0222759824085
20
12.6977143399288
30
0
41
1
10
-23.0161653761048
20
12.6940841789243
30
0
41
1
10
-23.0043574985133
20
12.6864683517972
30
0
41
1
10
-22.9986643953669
20
12.6824889718798
30
0
41
1
10
-22.9821128438073
20
12.6701206075409
30
0
41
1
10
-22.9717769671596
20
12.6613055755216
30
0
41
1
10
-22.9423174354007
20
12.6335912696757
30
0
41
1
10
-22.9246416181742
20
12.6133226736246
30
0
41
1
10
-22.892600097543
20
12.5716725243324
30
0
41
1
10
-22.8781266650963
20
12.5501665830583
30
0
41
1
10
-22.851228655901
20
12.5062309802182
30
0
41
1
10
-22.8388186769919
20
12.483795167677
30
0
41
1
10
-22.8155229034175
20
12.4382186345104
30
0
41
1
10
-22.8046422524309
20
12.4150757491969
30
0
41
1
10
-22.7840801449199
20
12.3682200798539
30
0
41
1
10
-22.7743855330712
20
12.3444641525157
30
0
41
1
10
-22.7469250060528
20
12.2728798445079
30
0
41
1
10
-22.7307289881771
20
12.2246986376881
30
0
41
1
10
-22.7012516700928
20
12.1276303410173
30
0
41
1
10
-22.6879871624016
20
12.078740514427
30
0
41
1
10
-22.6515479659095
20
11.9311750213956
30
0
41
1
10
-22.6316754243823
20
11.8316117899703
30
0
41
1
10
-22.5979028786882
20
11.6305659892212
30
0
41
1
10
-22.5840501695142
20
11.5290757663779
30
0
41
1
10
-22.5668031549043
20
11.3755455465696
30
0
41
1
10
-22.5616502875565
20
11.3241517798417
30
0
41
1
10
-22.5524349659652
20
11.2209451416354
30
0
41
1
10
-22.548371267677
20
11.1691073267332
30
0
41
1
10
-22.5377232568456
20
11.0132146065448
30
0
41
1
10
-22.5326683781548
20
10.9087666551973
30
0
41
1
10
-22.5262727782788
20
10.6988473663372
30
0
41
1
10
-22.5249342246094
20
10.5933759366048
30
0
41
1
10
-22.5254125626117
20
10.4873934907615
30
0
0
SPLINE
5
1B0
100
AcDbEntity
8
SK1
62
256
6
ByLayer
370
18
48
1
60
0
100
AcDbSpline
70
4
71
3
72
34
73
30
40
0
40
0
40
0
40
0
40
0.0156250000000011
40
0.0156250000000011
40
0.0312500000000021
40
0.0312500000000021
40
0.062500000000003
40
0.062500000000003
40
0.125000000000003
40
0.125000000000003
40
0.187500000000004
40
0.187500000000004
40
0.250000000000004
40
0.250000000000004
40
0.312500000000005
40
0.312500000000005
40
0.375000000000005
40
0.375000000000005
40
0.500000000000004
40
0.500000000000004
40
0.625000000000004
40
0.625000000000004
40
0.750000000000003
40
0.750000000000003
40
0.875000000000003
40
0.875000000000003
40
0.937500000000002
40
0.937500000000002
40
1
40
1
40
1
40
1
41
1
10
-22.5254125626117
20
10.4873934907615
30
0
41
1
10
-22.5254818561565
20
10.4720405409045
30
0
41
1
10
-22.5252982329915
20
10.4566523100548
30
0
41
1
10
-22.524420671904
20
10.4258045933059
30
0
41
1
10
-22.5237250932908
20
10.4103337956464
30
0
41
1
10
-22.5209000969644
20
10.3641437533752
30
0
41
1
10
-22.5180297482889
20
10.3335405000039
30
0
41
1
10
-22.5067325290341
20
10.2422423976997
30
0
41
1
10
-22.4956150185209
20
10.182060449636
30
0
41
1
10
-22.4680447309115
20
10.0626613415911
30
0
41
1
10
-22.4516075368503
20
10.003440607954
30
0
41
1
10
-22.4152303797028
20
9.88555603960228
30
0
41
1
10
-22.3952943205214
20
9.82689125901831
30
0
41
1
10
-22.3534119707754
20
9.70978271703689
30
0
41
1
10
-22.3314622748996
20
9.65133410882191
30
0
41
1
10
-22.2867010042882
20
9.53442203758678
30
0
41
1
10
-22.26389101687
20
9.47596958620366
30
0
41
1
10
-22.1954619614247
20
9.30029965106854
30
0
41
1
10
-22.1499039898424
20
9.18275521967502
30
0
41
1
10
-22.06361977863
20
8.94559904227222
30
0
41
1
10
-22.0228509469915
20
8.82599775081906
30
0
41
1
10
-21.9492920327111
20
8.58389251377861
30
0
41
1
10
-21.9164767448842
20
8.46139491928034
30
0
41
1
10
-21.8615121435874
20
8.21275872493501
30
0
41
1
10
-21.8393398492877
20
8.08662615408559
30
0
41
1
10
-21.8162516997397
20
7.89408681522914
30
0
41
1
10
-21.8102527530668
20
7.82932630472772
30
0
41
1
10
-21.8021075898157
20
7.6986556428611
30
0
41
1
10
-21.7999999999999
20
7.63335487465483
30
0
41
1
10
-21.8
20
7.56809977683884
30
0
0
SPLINE
5
1B1
100
AcDbEntity
8
SK1
62
256
6
ByLayer
370
18
48
1
60
0
100
AcDbSpline
70
4
71
3
72
32
73
28
40
0
40
0
40
0
40
0
40
0.124999999999999
40
0.124999999999999
40
0.249999999999999
40
0.249999999999999
40
0.312499999999998
40
0.312499999999998
40
0.374999999999998
40
0.374999999999998
40
0.499999999999997
40
0.499999999999997
40
0.624999999999996
40
0.624999999999996
40
0.687499999999996
40
0.687499999999996
40
0.749999999999997
40
0.749999999999997
40
0.812499999999997
40
0.812499999999997
40
0.874999999999998
40
0.874999999999998
40
0.906249999999998
40
0.906249999999998
40
0.937499999999998
40
0.937499999999998
40
1
40
1
40
1
40
1
41
1
10
-21.8
20
-7.56809977683895
30
0
41
1
10
-21.8
20
-7.69718498703716
30
0
41
1
10
-21.8082123204439
20
-7.82504889973322
30
0
41
1
10
-21.8381551467128
20
-8.07864306075217
30
0
41
1
10
-21.8599105028113
20
-8.20437082176429
30
0
41
1
10
-21.9009213644209
20
-8.3915477554371
30
0
41
1
10
-21.9160122746849
20
-8.45378278006862
30
0
41
1
10
-21.9485237180609
20
-8.57722909593068
30
0
41
1
10
-21.9659503128705
20
-8.63848434035012
30
0
41
1
10
-22.0212038675345
20
-8.82101701558099
30
0
41
1
10
-22.062032124433
20
-8.9410541764268
30
0
41
1
10
-22.148412252694
20
-9.17882990438665
30
0
41
1
10
-22.1940067248057
20
-9.2965563859162
30
0
41
1
10
-22.2625143076408
20
-9.47243886272136
30
0
41
1
10
-22.2853551459998
20
-9.53095240294397
30
0
41
1
10
-22.3302010209482
20
-9.64799680860966
30
0
41
1
10
-22.3522091087777
20
-9.70652683549699
30
0
41
1
10
-22.3942699583296
20
-9.82392508939239
30
0
41
1
10
-22.4143250840326
20
-9.88279269823559
30
0
41
1
10
-22.4509936727354
20
-10.0012878607497
30
0
41
1
10
-22.4676047716027
20
-10.0609161727845
30
0
41
1
10
-22.488535481288
20
-10.1513232104236
30
0
41
1
10
-22.4948451475709
20
-10.1816204277979
30
0
41
1
10
-22.5058766597353
20
-10.2426084061982
30
0
41
1
10
-22.5106063441628
20
-10.2733924516832
30
0
41
1
10
-22.5219388481118
20
-10.365451393833
30
0
41
1
10
-22.5256871369425
20
-10.4265577240028
30
0
41
1
10
-22.5254125626117
20
-10.4873934907615
30
0
0
SPLINE
5
1B2
100
AcDbEntity
8
SK1
62
256
6
ByLayer
370
18
48
1
60
0
100
AcDbSpline
70
4
71
3
72
49
73
45
40
0
40
0
40
0
40
0
40
0.125000000000003
40
0.125000000000003
40
0.250000000000006
40
0.250000000000006
40
0.375000000000009
40
0.375000000000009
40
0.500000000000012
40
0.500000000000012
40
0.562500000000013
40
0.562500000000013
40
0.625000000000013
40
0.625000000000013
40
0.687500000000014
40
0.687500000000014
40
0.750000000000015
40
0.750000000000015
40
0.781250000000014
40
0.781250000000014
40
0.812500000000013
40
0.812500000000013
40
0.843750000000012
40
0.843750000000012
40
0.875000000000012
40
0.875000000000012
40
0.906250000000011
40
0.906250000000011
40
0.921875000000009
40
0.921875000000009
40
0.937500000000007
40
0.937500000000007
40
0.953125000000006
40
0.953125000000006
40
0.960937500000005
40
0.960937500000005
40
0.968750000000004
40
0.976562500000003
40
0.976562500000003
40
0.984375000000002
40
0.984375000000002
40
0.992187500000001
40
0.992187500000001
40
1
40
1
40
1
40
1
41
1
10
-22.5254125626117
20
-10.4873934907615
30
0
41
1
10
-22.524933808019
20
-10.5934682380186
30
0
41
1
10
-22.5262751478894
20
-10.6990205610863
30
0
41
1
10
-22.5326808100257
20
-10.9090790605723
30
0
41
1
10
-22.5377429839122
20
-11.0135853362539
30
0
41
1
10
-22.5519578973343
20
-11.2215353085894
30
0
41
1
10
-22.5611119763531
20
-11.3250264298555
30
0
41
1
10
-22.5842152608137
20
-11.5304011349296
30
0
41
1
10
-22.5981500559934
20
-11.6323364531228
30
0
41
1
10
-22.6237015081944
20
-11.7839887912774
30
0
41
1
10
-22.6330033754949
20
-11.8343434817701
30
0
41
1
10
-22.6534382911092
20
-11.9344262765135
30
0
41
1
10
-22.6645712051838
20
-11.984172814295
30
0
41
1
10
-22.6891071294003
20
-12.0829956070989
30
0
41
1
10
-22.7025153688913
20
-12.1321084754578
30
0
41
1
10
-22.732243597417
20
-12.2293383142836
30
0
41
1
10
-22.7485434421077
20
-12.277446823165
30
0
41
1
10
-22.7760533432812
20
-12.3486131520639
30
0
41
1
10
-22.7857441771079
20
-12.3721784795266
30
0
41
1
10
-22.8063395401305
20
-12.4187472897739
30
0
41
1
10
-22.8172475832644
20
-12.4417684383611
30
0
41
1
10
-22.8406386251635
20
-12.4871513534895
30
0
41
1
10
-22.8531158065026
20
-12.5095153276387
30
0
41
1
10
-22.8802277314148
20
-12.5533645625088
30
0
41
1
10
-22.8948406627662
20
-12.5748195937577
30
0
41
1
10
-22.9268226041828
20
-12.6158882157764
30
0
41
1
10
-22.9441868001887
20
-12.635578739245
30
0
41
1
10
-22.973723722088
20
-12.66300496429
30
0
41
1
10
-22.9841053728532
20
-12.6717274096473
30
0
41
1
10
-23.0060849258503
20
-12.6878932682054
30
0
41
1
10
-23.0177291365879
20
-12.6953794991053
30
0
41
1
10
-23.0426800591108
20
-12.7085689224172
30
0
41
1
10
-23.0557296234281
20
-12.7141368791732
30
0
41
1
10
-23.0764336995276
20
-12.7204734364068
30
0
41
1
10
-23.0835648951233
20
-12.7222546393716
30
0
41
1
10
-23.0980867420292
20
-12.7249891829505
30
0
41
1
10
-23.1127180579136
20
-12.7268754214497
30
0
41
1
10
-23.1275767488497
20
-12.7270007347821
30
0
41
1
10
-23.1425541535116
20
-12.7262067854459
30
0
41
1
10
-23.1500537120161
20
-12.7253452873054
30
0
41
1
10
-23.16470997021
20
-12.7227921039091
30
0
41
1
10
-23.1719220561325
20
-12.7210984800414
30
0
41
1
10
-23.1861335170224
20
-12.7169465514806
30
0
41
1
10
-23.1931549751917
20
-12.7144778517454
30
0
41
1
10
-23.2
20
-12.7116897284924
30
0
0
SPLINE
5
1B3
100
AcDbEntity
8
SK1
62
256
6
ByLayer
370
18
48
1
60
0
100
AcDbSpline
70
4
71
3
72
40
73
36
40
0
40
0
40
0
40
0
40
0.0625000000000006
40
0.0625000000000006
40
0.0937500000000003
40
0.0937500000000003
40
0.109375000000001
40
0.109375000000001
40
0.125000000000002
40
0.125000000000002
40
0.187500000000001
40
0.187500000000001
40
0.21875
40
0.21875
40
0.234374999999999
40
0.234374999999999
40
0.249999999999999
40
0.249999999999999
40
0.312499999999998
40
0.312499999999998
40
0.374999999999996
40
0.374999999999996
40
0.437499999999995
40
0.437499999999995
40
0.468749999999994
40
0.468749999999994
40
0.499999999999993
40
0.499999999999993
40
0.624999999999995
40
0.624999999999995
40
0.749999999999997
40
0.749999999999997
40
0.874999999999998
40
0.874999999999998
40
1
40
1
40
1
40
1
41
1
10
-25.9833434997484
20
-10.4087426392499
30
0
41
1
10
-25.986759086565
20
-10.483951162943
30
0
41
1
10
-25.9808649552934
20
-10.5580012311999
30
0
41
1
10
-25.9592603157293
20
-10.6674881136855
30
0
41
1
10
-25.9499296725475
20
-10.7037188068855
30
0
41
1
10
-25.9328748787559
20
-10.7576842210777
30
0
41
1
10
-25.9266620033919
20
-10.7756557558361
30
0
41
1
10
-25.9133334387925
20
-10.8112258065152
30
0
41
1
10
-25.9062286144158
20
-10.8288049776206
30
0
41
1
10
-25.8686467672698
20
-10.9157393098785
30
0
41
1
10
-25.8320436116168
20
-10.98223188319
30
0
41
1
10
-25.7694731655851
20
-11.0783887484534
30
0
41
1
10
-25.7473293420913
20
-11.1098396503308
30
0
41
1
10
-25.7123828498496
20
-11.1562072639241
30
0
41
1
10
-25.7004451747535
20
-11.1715281654213
30
0
41
1
10
-25.6760212751046
20
-11.2019136450492
30
0
41
1
10
-25.6635403502051
20
-11.2169700680376
30
0
41
1
10
-25.6002100030161
20
-11.2912178863428
30
0
41
1
10
-25.5463234796767
20
-11.3476964863944
30
0
41
1
10
-25.4336507840261
20
-11.4562141482214
30
0
41
1
10
-25.3748543671227
20
-11.5082439274423
30
0
41
1
10
-25.2533587070522
20
-11.6087671618166
30
0
41
1
10
-25.190654372894
20
-11.6572560040578
30
0
41
1
10
-25.0941966691443
20
-11.7278135543178
30
0
41
1
10
-25.0616419960415
20
-11.7509683929908
30
0
41
1
10
-24.995798350562
20
-11.7966127268089
30
0
41
1
10
-24.9625188336835
20
-11.8190942664031
30
0
41
1
10
-24.7951134553133
20
-11.9295443176593
30
0
41
1
10
-24.6574679298291
20
-12.0121120954876
30
0
41
1
10
-24.3769846721398
20
-12.1691657303592
30
0
41
1
10
-24.2341238595366
20
-12.2436156616471
30
0
41
1
10
-23.9444826691423
20
-12.3864145315117
30
0
41
1
10
-23.797692711436
20
-12.4547485584872
30
0
41
1
10
-23.5010237947648
20
-12.5866084326374
30
0
41
1
10
-23.3511402342021
20
-12.6501271172029
30
0
41
1
10
-23.1999999999925
20
-12.7116897284814
30
0
0
SPLINE
5
1B4
100
AcDbEntity
8
SK1
62
256
6
ByLayer
370
18
48
1
60
0
100
AcDbSpline
70
4
71
3
72
49
73
45
40
0
40
0
40
0
40
0
40
0.249999999999995
40
0.249999999999995
40
0.374999999999994
40
0.374999999999994
40
0.499999999999992
40
0.499999999999992
40
0.624999999999991
40
0.624999999999991
40
0.687499999999991
40
0.687499999999991
40
0.749999999999992
40
0.749999999999992
40
0.812499999999992
40
0.812499999999992
40
0.843749999999992
40
0.843749999999992
40
0.874999999999993
40
0.874999999999993
40
0.890624999999994
40
0.890624999999994
40
0.906249999999995
40
0.906249999999995
40
0.921874999999996
40
0.921874999999996
40
0.937499999999997
40
0.937499999999997
40
0.953124999999998
40
0.953124999999998
40
0.960937499999999
40
0.960937499999999
40
0.96875
40
0.96875
40
0.976562500000001
40
0.976562500000001
40
0.984375000000002
40
0.984375000000002
40
0.988281250000001
40
0.988281250000001
40
0.992187500000001
40
0.996093750000001
40
0.996093750000001
40
1
40
1
40
1
40
1
41
1
10
-30.7012499999997
20
-9.19755885599096
30
0
41
1
10
-30.2890238578836
20
-9.25291291096028
30
0
41
1
10
-29.8772997291749
20
-9.31155314568554
30
0
41
1
10
-29.2608719501305
20
-9.40709437701
30
0
41
1
10
-29.0555718359932
20
-9.44022365496545
30
0
41
1
10
-28.6456301203552
20
-9.50982784083629
30
0
41
1
10
-28.4409787773184
20
-9.54629015395031
30
0
41
1
10
-28.0325762779766
20
-9.6238911811414
30
0
41
1
10
-27.8288136850715
20
-9.66499351529259
30
0
41
1
10
-27.5245226403674
20
-9.73200016732363
30
0
41
1
10
-27.4233063998765
20
-9.75524199071754
30
0
41
1
10
-27.2214752006611
20
-9.80413556100086
30
0
41
1
10
-27.1209171940336
20
-9.82976262011982
30
0
41
1
10
-26.9208211490663
20
-9.88438279932825
30
0
41
1
10
-26.8212194755092
20
-9.91336404248824
30
0
41
1
10
-26.6733285210693
20
-9.96070265810363
30
0
41
1
10
-26.6242814966098
20
-9.97713599239353
30
0
41
1
10
-26.5268597111619
20
-10.0117609271124
30
0
41
1
10
-26.4784854755874
20
-10.0299453793895
30
0
41
1
10
-26.4068518073802
20
-10.0590243269832
30
0
41
1
10
-26.3831230780509
20
-10.0690228646205
30
0
41
1
10
-26.3360362268513
20
-10.089779110677
30
0
41
1
10
-26.3126563155834
20
-10.1005464334156
30
0
41
1
10
-26.2665288503813
20
-10.1229784875404
30
0
41
1
10
-26.2437713201136
20
-10.1346440784269
30
0
41
1
10
-26.1990696963757
20
-10.1591695106372
30
0
41
1
10
-26.1771222055622
20
-10.1720243644858
30
0
41
1
10
-26.134374030834
20
-10.1994177239145
30
0
41
1
10
-26.1135045921754
20
-10.2139997920699
30
0
41
1
10
-26.0839712409112
20
-10.2374700379426
30
0
41
1
10
-26.0744126301924
20
-10.2455689398094
30
0
41
1
10
-26.0560251765374
20
-10.2624700722622
30
0
41
1
10
-26.0471616391337
20
-10.2713122273389
30
0
41
1
10
-26.0306670986853
20
-10.2896247790117
30
0
41
1
10
-26.0230135625696
20
-10.299107480284
30
0
41
1
10
-26.0092325080985
20
-10.3189118546734
30
0
41
1
10
-26.0031007889301
20
-10.3292312182942
30
0
41
1
10
-25.9954431012559
20
-10.3455568568877
30
0
41
1
10
-25.9931526373207
20
-10.3511468536362
30
0
41
1
10
-25.9892675363405
20
-10.3623717222656
30
0
41
1
10
-25.9860459102167
20
-10.3737044246611
30
0
41
1
10
-25.9842454587826
20
-10.385268107663
30
0
41
1
10
-25.9832087617187
20
-10.3969559217474
30
0
41
1
10
-25.9830766650774
20
-10.4028671505712
30
0
41
1
10
-25.9833434997483
20
-10.4087426392499
30
0
0
SPLINE
5
1B5
100
AcDbEntity
8
SK1
62
256
6
ByLayer
370
18
48
1
60
0
100
AcDbSpline
70
4
71
3
72
8
73
4
40
0
40
0
40
0
40
0
40
1
40
1
40
1
40
1
41
1
10
-30.7600449304182
20
-9.34174801463021
30
0
41
1
10
-30.7414872158135
20
-9.29339084979495
30
0
41
1
10
-30.7218522549563
20
-9.24533982137714
30
0
41
1
10
-30.70125
20
-9.19755885599326
30
0
0
LINE
5
89
100
AcDbEntity
8
4
62
256
6
ByLayer
370
18
48
0.05
60
0
100
AcDbLine
10
0
20
0
30
0
11
50
21
0
31
0
39
0
210
0
220
0
230
1
0
LINE
5
8B
100
AcDbEntity
8
81
62
256
6
ByLayer
370
18
48
1
60
0
100
AcDbLine
10
50
20
0
30
0
11
55
21
0
31
0
39
0
210
0
220
0
230
1
0
LINE
5
8C
100
AcDbEntity
8
80
62
256
6
ByLayer
370
18
48
1
60
0
100
AcDbLine
10
0
20
0
30
0
11
-5
21
0
31
0
39
0
210
0
220
0
230
1
0
LINE
5
8D
100
AcDbEntity
8
1
62
256
6
ByLayer
370
18
48
1
60
0
100
AcDbLine
10
19.525
20
27.475
30
0
11
16.475
21
27.475
31
0
39
0
210
0
220
0
230
1
0
LINE
5
8E
100
AcDbEntity
8
1
62
256
6
ByLayer
370
18
48
1
60
0
100
AcDbLine
10
42.999882
20
23.875
30
0
11
27.15
21
23.875
31
0
39
0
210
0
220
0
230
1
0
LINE
5
8F
100
AcDbEntity
8
1
62
256
6
ByLayer
370
18
48
1
60
0
100
AcDbLine
10
27.15
20
-23.875
30
0
11
42.999882
21
-23.875
31
0
39
0
210
0
220
0
230
1
0
LINE
5
90
100
AcDbEntity
8
1
62
256
6
ByLayer
370
18
48
1
60
0
100
AcDbLine
10
16.475
20
-27.475
30
0
11
19.525
21
-27.475
31
0
39
0
210
0
220
0
230
1
0
LINE
5
91
100
AcDbEntity
8
1
62
256
6
ByLayer
370
18
48
1
60
0
100
AcDbLine
10
16.075
20
28.959198
30
0
11
14.625388
21
31.47
31
0
39
0
210
0
220
0
230
1
0
LINE
5
92
100
AcDbEntity
8
1
62
256
6
ByLayer
370
18
48
1
60
0
100
AcDbLine
10
21.374612
20
31.47
30
0
11
19.925
21
28.959198
31
0
39
0
210
0
220
0
230
1
0
LINE
5
93
100
AcDbEntity
8
1
62
256
6
ByLayer
370
18
48
1
60
0
100
AcDbLine
10
25.45
20
-31.47
30
0
11
25.95
21
-30.97
31
0
39
0
210
0
220
0
230
1
0
LINE
5
94
100
AcDbEntity
8
1
62
256
6
ByLayer
370
18
48
1
60
0
100
AcDbLine
10
25.45
20
31.47
30
0
11
21.374612
21
31.47
31
0
39
0
210
0
220
0
230
1
0
LINE
5
95
100
AcDbEntity
8
1
62
256
6
ByLayer
370
18
48
1
60
0
100
AcDbLine
10
25.95
20
30.97
30
0
11
25.45
21
31.47
31
0
39
0
210
0
220
0
230
1
0
LINE
5
96
100
AcDbEntity
8
1
62
256
6
ByLayer
370
18
48
1
60
0
100
AcDbLine
10
14.625388
20
-31.47
30
0
11
16.075
21
-28.959198
31
0
39
0
210
0
220
0
230
1
0
LINE
5
97
100
AcDbEntity
8
1
62
256
6
ByLayer
370
18
48
1
60
0
100
AcDbLine
10
19.925
20
-28.959198
30
0
11
21.374612
21
-31.47
31
0
39
0
210
0
220
0
230
1
0
LINE
5
98
100
AcDbEntity
8
1
62
256
6
ByLayer
370
18
48
1
60
0
100
AcDbLine
10
21.374612
20
-31.47
30
0
11
25.45
21
-31.47
31
0
39
0
210
0
220
0
230
1
0
LINE
5
99
100
AcDbEntity
8
1
62
256
6
ByLayer
370
18
48
1
60
0
100
AcDbLine
10
14.625388
20
31.47
30
0
11
0.5
21
31.47
31
0
39
0
210
0
220
0
230
1
0
LINE
5
9A
100
AcDbEntity
8
1
62
256
6
ByLayer
370
18
48
1
60
0
100
AcDbLine
10
0.5
20
-31.47
30
0
11
1.991532
21
-31.47
31
0
39
0
210
0
220
0
230
1
0
LINE
5
9B
100
AcDbEntity
8
1
62
256
6
ByLayer
370
18
48
1
60
0
100
AcDbLine
10
12.0225
20
-31.47
30
0
11
14.625388
21
-31.47
31
0
39
0
210
0
220
0
230
1
0
LINE
5
9C
100
AcDbEntity
8
1
62
256
6
ByLayer
370
18
48
1
60
0
100
AcDbLine
10
0
20
-30.97
30
0
11
0.5
21
-31.47
31
0
39
0
210
0
220
0
230
1
0
LINE
5
9D
100
AcDbEntity
8
1
62
256
6
ByLayer
370
18
48
1
60
0
100
AcDbLine
10
0.5
20
31.47
30
0
11
0
21
30.97
31
0
39
0
210
0
220
0
230
1
0
LINE
5
9E
100
AcDbEntity
8
1
62
256
6
ByLayer
370
18
48
1
60
0
100
AcDbLine
10
49.5
20
-31.178522
30
0
11
56.335636
21
-31.178522
31
0
39
0
210
0
220
0
230
1
0
LINE
5
9F
100
AcDbEntity
8
1
62
256
6
ByLayer
370
18
48
1
60
0
100
AcDbLine
10
56.335518
20
31.178522
30
0
11
49.5
21
31.178522
31
0
39
0
210
0
220
0
230
1
0
LINE
5
A0
100
AcDbEntity
8
1
62
256
6
ByLayer
370
18
48
1
60
0
100
AcDbLine
10
56.402618
20
12.86256
30
0
11
49.5
21
12.86256
31
0
39
0
210
0
220
0
230
1
0
LINE
5
A1
100
AcDbEntity
8
1
62
256
6
ByLayer
370
18
48
1
60
0
100
AcDbLine
10
49.5
20
-12.86256
30
0
11
56.402527
21
-12.86256
31
0
39
0
210
0
220
0
230
1
0
LINE
5
A2
100
AcDbEntity
8
1
62
256
6
ByLayer
370
18
48
1
60
0
100
AcDbLine
10
46.194076
20
31.35
30
0
11
44
21
31.35
31
0
39
0
210
0
220
0
230
1
0
LINE
5
A3
100
AcDbEntity
8
1
62
256
6
ByLayer
370
18
48
1
60
0
100
AcDbLine
10
44
20
-31.35
30
0
11
46.194076
21
-31.35
31
0
39
0
210
0
220
0
230
1
0
LINE
5
A4
100
AcDbEntity
8
1
62
256
6
ByLayer
370
18
48
1
60
0
100
AcDbLine
10
60
20
25
30
0
11
57.978233
21
28.501804
31
0
39
0
210
0
220
0
230
1
0
LINE
5
A5
100
AcDbEntity
8
1
62
256
6
ByLayer
370
18
48
1
60
0
100
AcDbLine
10
57.978243
20
-28.501786
30
0
11
60
21
-25
31
0
39
0
210
0
220
0
230
1
0
LINE
5
A6
100
AcDbEntity
8
1
62
256
6
ByLayer
370
18
48
1
60
0
100
AcDbLine
10
43
20
-30.35
30
0
11
44
21
-31.35
31
0
39
0
210
0
220
0
230
1
0
LINE
5
A7
100
AcDbEntity
8
1
62
256
6
ByLayer
370
18
48
1
60
0
100
AcDbLine
10
44
20
31.35
30
0
11
43
21
30.35
31
0
39
0
210
0
220
0
230
1
0
LINE
5
A8
100
AcDbEntity
8
SK1
62
256
6
ByLayer
370
18
48
1
60
0
100
AcDbLine
10
-0.45
20
23.970431
30
0
11
-1.566987
21
23.970431
31
0
39
0
210
0
220
0
230
1
0
LINE
5
AA
100
AcDbEntity
8
SK1
62
256
6
ByLayer
370
18
48
1
60
0
100
AcDbLine
10
-1.566987
20
-23.970431
30
0
11
-0.45
21
-23.970431
31
0
39
0
210
0
220
0
230
1
0
LINE
5
AB
100
AcDbEntity
8
SK1
62
256
6
ByLayer
370
18
48
1
60
0
100
AcDbLine
10
-1.566987
20
23.970431
30
0
11
-2
21
24.220431
31
0
39
0
210
0
220
0
230
1
0
LINE
5
AC
100
AcDbEntity
8
SK1
62
256
6
ByLayer
370
18
48
1
60
0
100
AcDbLine
10
-2
20
-24.220431
30
0
11
-1.566987
21
-23.970431
31
0
39
0
210
0
220
0
230
1
0
LINE
5
AD
100
AcDbEntity
8
SK1
62
256
6
ByLayer
370
18
48
1
60
0
100
AcDbLine
10
-30.760045
20
-22.779547
30
0
11
-2
21
-24.220431
31
0
39
0
210
0
220
0
230
1
0
LINE
5
AE
100
AcDbEntity
8
SK1
62
256
6
ByLayer
370
18
48
1
60
0
100
AcDbLine
10
-2
20
24.220431
30
0
11
-30.760045
21
22.779547
31
0
39
0
210
0
220
0
230
1
0
LINE
5
AF
100
AcDbEntity
8
1
62
256
6
ByLayer
370
13
48
1
60
0
100
AcDbLine
10
27.15
20
23.875
30
0
11
27.15
21
-23.875
31
0
39
0
210
0
220
0
230
1
0
LINE
5
B0
100
AcDbEntity
8
1
62
256
6
ByLayer
370
13
48
1
60
0
100
AcDbLine
10
19.525
20
-7.610232
30
0
11
19.525
21
-27.475
31
0
39
0
210
0
220
0
230
1
0
LINE
5
B1
100
AcDbEntity
8
1
62
256
6
ByLayer
370
13
48
1
60
0
100
AcDbLine
10
19.525
20
27.120833
30
0
11
19.525
21
27.475
31
0
39
0
210
0
220
0
230
1
0
LINE
5
B2
100
AcDbEntity
8
1
62
256
6
ByLayer
370
13
48
1
60
0
100
AcDbLine
10
19.525
20
26.793247
30
0
11
19.525
21
25.344959
31
0
39
0
210
0
220
0
230
1
0
LINE
5
B3
100
AcDbEntity
8
1
62
256
6
ByLayer
370
13
48
1
60
0
100
AcDbLine
10
19.525
20
24.633002
30
0
11
19.525
21
22.168518
31
0
39
0
210
0
220
0
230
1
0
LINE
5
B4
100
AcDbEntity
8
1
62
256
6
ByLayer
370
18
48
1
60
0
100
AcDbLine
10
25.95
20
-9.0175
30
0
11
25.95
21
9.0175
31
0
39
0
210
0
220
0
230
1
0
LINE
5
B5
100
AcDbEntity
8
1
62
256
6
ByLayer
370
18
48
1
60
0
100
AcDbLine
10
16.075
20
-9.0175
30
0
11
16.075
21
-8.947381
31
0
39
0
210
0
220
0
230
1
0
LINE
5
B6
100
AcDbEntity
8
1
62
256
6
ByLayer
370
18
48
1
60
0
100
AcDbLine
10
16.075
20
8.947381
30
0
11
16.075
21
9.0175
31
0
39
0
210
0
220
0
230
1
0
LINE
5
B7
100
AcDbEntity
8
1
62
256
6
ByLayer
370
18
48
1
60
0
100
AcDbLine
10
19.925
20
-8.947381
30
0
11
19.925
21
-9.0175
31
0
39
0
210
0
220
0
230
1
0
LINE
5
B8
100
AcDbEntity
8
1
62
256
6
ByLayer
370
18
48
1
60
0
100
AcDbLine
10
19.925
20
9.0175
30
0
11
19.925
21
8.947381
31
0
39
0
210
0
220
0
230
1
0
LINE
5
B9
100
AcDbEntity
8
1
62
256
6
ByLayer
370
18
48
1
60
0
100
AcDbLine
10
16.475
20
-7.610232
30
0
11
19.525
21
-7.610232
31
0
39
0
210
0
220
0
230
1
0
LINE
5
BA
100
AcDbEntity
8
1
62
256
6
ByLayer
370
18
48
1
60
0
100
AcDbLine
10
19.525
20
7.610232
30
0
11
16.475
21
7.610232
31
0
39
0
210
0
220
0
230
1
0
LINE
5
BB
100
AcDbEntity
8
1
62
256
6
ByLayer
370
13
48
1
60
0
100
AcDbLine
10
19.525
20
21.111533
30
0
11
19.525
21
7.610232
31
0
39
0
210
0
220
0
230
1
0
LINE
5
BC
100
AcDbEntity
8
1
62
256
6
ByLayer
370
13
48
1
60
0
100
AcDbLine
10
16.475
20
21.111533
30
0
11
16.475
21
7.610232
31
0
39
0
210
0
220
0
230
1
0
LINE
5
BD
100
AcDbEntity
8
1
62
256
6
ByLayer
370
13
48
1
60
0
100
AcDbLine
10
16.475
20
24.633002
30
0
11
16.475
21
22.168518
31
0
39
0
210
0
220
0
230
1
0
LINE
5
BE
100
AcDbEntity
8
1
62
256
6
ByLayer
370
13
48
1
60
0
100
AcDbLine
10
16.475
20
26.793247
30
0
11
16.475
21
25.344959
31
0
39
0
210
0
220
0
230
1
0
LINE
5
BF
100
AcDbEntity
8
1
62
256
6
ByLayer
370
13
48
1
60
0
100
AcDbLine
10
16.475
20
27.120833
30
0
11
16.475
21
27.475
31
0
39
0
210
0
220
0
230
1
0
LINE
5
C0
100
AcDbEntity
8
1
62
256
6
ByLayer
370
13
48
1
60
0
100
AcDbLine
10
16.475
20
-7.610232
30
0
11
16.475
21
-27.475
31
0
39
0
210
0
220
0
230
1
0
LINE
5
C1
100
AcDbEntity
8
1
62
256
6
ByLayer
370
18
48
1
60
0
100
AcDbLine
10
16.075
20
28.959198
30
0
11
16.075
21
9.0175
31
0
39
0
210
0
220
0
230
1
0
LINE
5
C2
100
AcDbEntity
8
1
62
256
6
ByLayer
370
18
48
1
60
0
100
AcDbLine
10
19.925
20
28.959198
30
0
11
19.925
21
9.0175
31
0
39
0
210
0
220
0
230
1
0
LINE
5
C3
100
AcDbEntity
8
1
62
256
6
ByLayer
370
18
48
1
60
0
100
AcDbLine
10
25.95
20
-30.97
30
0
11
25.95
21
-9.0175
31
0
39
0
210
0
220
0
230
1
0
LINE
5
C4
100
AcDbEntity
8
1
62
256
6
ByLayer
370
18
48
1
60
0
100
AcDbLine
10
25.45
20
9.0175
30
0
11
21.374612
21
9.0175
31
0
39
0
210
0
220
0
230
1
0
LINE
5
C5
100
AcDbEntity
8
1
62
256
6
ByLayer
370
18
48
1
60
0
100
AcDbLine
10
21.374612
20
31.47
30
0
11
21.374612
21
9.0175
31
0
39
0
210
0
220
0
230
1
0
LINE
5
C6
100
AcDbEntity
8
1
62
256
6
ByLayer
370
18
48
1
60
0
100
AcDbLine
10
25.95
20
30.97
30
0
11
25.95
21
9.0175
31
0
39
0
210
0
220
0
230
1
0
LINE
5
C7
100
AcDbEntity
8
1
62
256
6
ByLayer
370
18
48
1
60
0
100
AcDbLine
10
25.45
20
9.0175
30
0
11
25.45
21
31.47
31
0
39
0
210
0
220
0
230
1
0
LINE
5
C8
100
AcDbEntity
8
1
62
256
6
ByLayer
370
18
48
1
60
0
100
AcDbLine
10
16.075
20
-28.959198
30
0
11
16.075
21
-9.0175
31
0
39
0
210
0
220
0
230
1
0
LINE
5
C9
100
AcDbEntity
8
1
62
256
6
ByLayer
370
18
48
1
60
0
100
AcDbLine
10
19.925
20
-28.959198
30
0
11
19.925
21
-9.0175
31
0
39
0
210
0
220
0
230
1
0
LINE
5
CA
100
AcDbEntity
8
1
62
256
6
ByLayer
370
18
48
1
60
0
100
AcDbLine
10
21.374612
20
-31.47
30
0
11
21.374612
21
-9.0175
31
0
39
0
210
0
220
0
230
1
0
LINE
5
CB
100
AcDbEntity
8
1
62
256
6
ByLayer
370
18
48
1
60
0
100
AcDbLine
10
25.45
20
-9.0175
30
0
11
25.45
21
-31.47
31
0
39
0
210
0
220
0
230
1
0
LINE
5
CC
100
AcDbEntity
8
1
62
256
6
ByLayer
370
18
48
1
60
0
100
AcDbLine
10
21.374612
20
-9.0175
30
0
11
25.45
21
-9.0175
31
0
39
0
210
0
220
0
230
1
0
LINE
5
CD
100
AcDbEntity
8
1
62
256
6
ByLayer
370
18
48
1
60
0
100
AcDbLine
10
14.625388
20
-9.0175
30
0
11
14.625388
21
-31.47
31
0
39
0
210
0
220
0
230
1
0
LINE
5
CE
100
AcDbEntity
8
1
62
256
6
ByLayer
370
18
48
1
60
0
100
AcDbLine
10
12.95
20
-9.0175
30
0
11
14.625388
21
-9.0175
31
0
39
0
210
0
220
0
230
1
0
LINE
5
CF
100
AcDbEntity
8
1
62
256
6
ByLayer
370
18
48
1
60
0
100
AcDbLine
10
4.95
20
1.0175
30
0
11
4.95
21
-1.0175
31
0
39
0
210
0
220
0
230
1
0
LINE
5
D0
100
AcDbEntity
8
1
62
256
6
ByLayer
370
18
48
1
60
0
100
AcDbLine
10
14.625388
20
9.0175
30
0
11
12.95
21
9.0175
31
0
39
0
210
0
220
0
230
1
0
LINE
5
D1
100
AcDbEntity
8
1
62
256
6
ByLayer
370
18
48
1
60
0
100
AcDbLine
10
14.625388
20
9.0175
30
0
11
14.625388
21
31.47
31
0
39
0
210
0
220
0
230
1
0
LINE
5
D2
100
AcDbEntity
8
1
62
256
6
ByLayer
370
18
48
1
60
0
100
AcDbLine
10
0.5
20
-31.47
30
0
11
0.5
21
0
31
0
39
0
210
0
220
0
230
1
0
LINE
5
D3
100
AcDbEntity
8
1
62
256
6
ByLayer
370
18
48
1
60
0
100
AcDbLine
10
0.5
20
0
30
0
11
0.5
21
31.47
31
0
39
0
210
0
220
0
230
1
0
LINE
5
D4
100
AcDbEntity
8
1
62
256
6
ByLayer
370
18
48
1
60
0
100
AcDbLine
10
0
20
30.97
30
0
11
0
21
0
31
0
39
0
210
0
220
0
230
1
0
LINE
5
D5
100
AcDbEntity
8
1
62
256
6
ByLayer
370
18
48
1
60
0
100
AcDbLine
10
0
20
0
30
0
11
0
21
-30.97
31
0
39
0
210
0
220
0
230
1
0
LINE
5
D6
100
AcDbEntity
8
1
62
256
6
ByLayer
370
18
48
1
60
0
100
AcDbLine
10
49.5
20
31.177421
30
0
11
49.5
21
31.178522
31
0
39
0
210
0
220
0
230
1
0
LINE
5
D7
100
AcDbEntity
8
1
62
256
6
ByLayer
370
18
48
1
60
0
100
AcDbLine
10
49.5
20
-31.177421
30
0
11
49.5
21
-31.178522
31
0
39
0
210
0
220
0
230
1
0
LINE
5
D8
100
AcDbEntity
8
1
62
256
6
ByLayer
370
18
48
1
60
0
100
AcDbLine
10
49.5
20
16.615064
30
0
11
57.686021
21
16.615064
31
0
39
0
210
0
220
0
230
1
0
LINE
5
D9
100
AcDbEntity
8
1
62
256
6
ByLayer
370
18
48
1
60
0
100
AcDbLine
10
49.5
20
-16.615064
30
0
11
57.686021
21
-16.615064
31
0
39
0
210
0
220
0
230
1
0
LINE
5
DA
100
AcDbEntity
8
1
62
256
6
ByLayer
370
13
48
1
60
0
100
AcDbLine
10
56.4309
20
18.174541
30
0
11
49.5
21
18.174541
31
0
39
0
210
0
220
0
230
1
0
LINE
5
DB
100
AcDbEntity
8
1
62
256
6
ByLayer
370
13
48
1
60
0
100
AcDbLine
10
49.5
20
-18.174541
30
0
11
56.4309
21
-18.174541
31
0
39
0
210
0
220
0
230
1
0
LINE
5
DC
100
AcDbEntity
8
1
62
256
6
ByLayer
370
18
48
1
60
0
100
AcDbLine
10
49.5
20
16.068653
30
0
11
57.934666
21
16.068653
31
0
39
0
210
0
220
0
230
1
0
LINE
5
DD
100
AcDbEntity
8
1
62
256
6
ByLayer
370
18
48
1
60
0
100
AcDbLine
10
49.5
20
-16.068653
30
0
11
57.934666
21
-16.068653
31
0
39
0
210
0
220
0
230
1
0
LINE
5
DE
100
AcDbEntity
8
1
62
256
6
ByLayer
370
13
48
1
60
0
100
AcDbLine
10
49.5
20
16.615064
30
0
11
49.5
21
16.068653
31
0
39
0
210
0
220
0
230
1
0
LINE
5
DF
100
AcDbEntity
8
1
62
256
6
ByLayer
370
18
48
1
60
0
100
AcDbLine
10
57.364008
20
12.431347
30
0
11
57.934666
21
12.431347
31
0
39
0
210
0
220
0
230
1
0
LINE
5
E0
100
AcDbEntity
8
1
62
256
6
ByLayer
370
18
48
1
60
0
100
AcDbLine
10
57.364008
20
-12.431347
30
0
11
57.934666
21
-12.431347
31
0
39
0
210
0
220
0
230
1
0
LINE
5
E1
100
AcDbEntity
8
1
62
256
6
ByLayer
370
13
48
1
60
0
100
AcDbLine
10
49.5
20
-16.068653
30
0
11
49.5
21
-16.615064
31
0
39
0
210
0
220
0
230
1
0
LINE
5
E2
100
AcDbEntity
8
1
62
256
6
ByLayer
370
13
48
1
60
0
100
AcDbLine
10
49.5
20
18.174541
30
0
11
49.5
21
16.615064
31
0
39
0
210
0
220
0
230
1
0
LINE
5
E3
100
AcDbEntity
8
1
62
256
6
ByLayer
370
13
48
1
60
0
100
AcDbLine
10
49.5
20
-16.615064
30
0
11
49.5
21
-18.174541
31
0
39
0
210
0
220
0
230
1
0
LINE
5
E4
100
AcDbEntity
8
1
62
256
6
ByLayer
370
13
48
1
60
0
100
AcDbLine
10
49.5
20
18.174541
30
0
11
49.5
21
18.433561
31
0
39
0
210
0
220
0
230
1
0
LINE
5
E5
100
AcDbEntity
8
1
62
256
6
ByLayer
370
13
48
1
60
0
100
AcDbLine
10
49.5
20
12.86256
30
0
11
49.5
21
12.74386
31
0
39
0
210
0
220
0
230
1
0
LINE
5
E6
100
AcDbEntity
8
1
62
256
6
ByLayer
370
13
48
1
60
0
100
AcDbLine
10
49.5
20
-12.86256
30
0
11
49.5
21
-12.74386
31
0
39
0
210
0
220
0
230
1
0
LINE
5
E7
100
AcDbEntity
8
1
62
256
6
ByLayer
370
13
48
1
60
0
100
AcDbLine
10
49.5
20
-18.174541
30
0
11
49.5
21
-18.433561
31
0
39
0
210
0
220
0
230
1
0
LINE
5
E8
100
AcDbEntity
8
1
62
256
6
ByLayer
370
13
48
1
60
0
100
AcDbLine
10
56.333826
20
12.74386
30
0
11
49.5
21
12.74386
31
0
39
0
210
0
220
0
230
1
0
LINE
5
E9
100
AcDbEntity
8
1
62
256
6
ByLayer
370
13
48
1
60
0
100
AcDbLine
10
49.5
20
18.433561
30
0
11
56.333826
21
18.433561
31
0
39
0
210
0
220
0
230
1
0
LINE
5
EA
100
AcDbEntity
8
1
62
256
6
ByLayer
370
13
48
1
60
0
100
AcDbLine
10
56.333826
20
31.177421
30
0
11
49.5
21
31.177421
31
0
39
0
210
0
220
0
230
1
0
LINE
5
EB
100
AcDbEntity
8
1
62
256
6
ByLayer
370
13
48
1
60
0
100
AcDbLine
10
49.5
20
-31.177421
30
0
11
56.333826
21
-31.177421
31
0
39
0
210
0
220
0
230
1
0
LINE
5
EC
100
AcDbEntity
8
1
62
256
6
ByLayer
370
13
48
1
60
0
100
AcDbLine
10
56.333826
20
-18.433561
30
0
11
49.5
21
-18.433561
31
0
39
0
210
0
220
0
230
1
0
LINE
5
ED
100
AcDbEntity
8
1
62
256
6
ByLayer
370
13
48
1
60
0
100
AcDbLine
10
49.5
20
-12.74386
30
0
11
56.333826
21
-12.74386
31
0
39
0
210
0
220
0
230
1
0
LINE
5
EE
100
AcDbEntity
8
1
62
256
6
ByLayer
370
18
48
1
60
0
100
AcDbLine
10
60
20
25
30
0
11
60
21
0
31
0
39
0
210
0
220
0
230
1
0
LINE
5
EF
100
AcDbEntity
8
1
62
256
6
ByLayer
370
18
48
1
60
0
100
AcDbLine
10
60
20
0
30
0
11
60
21
-25
31
0
39
0
210
0
220
0
230
1
0
LINE
5
F0
100
AcDbEntity
8
1
62
256
6
ByLayer
370
18
48
1
60
0
100
AcDbLine
10
56.333826
20
-12.74386
30
0
11
56.333826
21
12.74386
31
0
39
0
210
0
220
0
230
1
0
LINE
5
F1
100
AcDbEntity
8
1
62
256
6
ByLayer
370
18
48
1
60
0
100
AcDbLine
10
56.333826
20
-31.177421
30
0
11
56.333826
21
-18.433561
31
0
39
0
210
0
220
0
230
1
0
LINE
5
F2
100
AcDbEntity
8
1
62
256
6
ByLayer
370
18
48
1
60
0
100
AcDbLine
10
56.333826
20
18.433561
30
0
11
56.333826
21
31.177421
31
0
39
0
210
0
220
0
230
1
0
LINE
5
F3
100
AcDbEntity
8
1
62
256
6
ByLayer
370
18
48
1
60
0
100
AcDbLine
10
44
20
-31.35
30
0
11
44
21
0
31
0
39
0
210
0
220
0
230
1
0
LINE
5
F4
100
AcDbEntity
8
1
62
256
6
ByLayer
370
18
48
1
60
0
100
AcDbLine
10
44
20
0
30
0
11
44
21
31.35
31
0
39
0
210
0
220
0
230
1
0
LINE
5
F5
100
AcDbEntity
8
1
62
256
6
ByLayer
370
18
48
1
60
0
100
AcDbLine
10
43
20
30.35
30
0
11
43
21
0
31
0
39
0
210
0
220
0
230
1
0
LINE
5
F6
100
AcDbEntity
8
1
62
256
6
ByLayer
370
18
48
1
60
0
100
AcDbLine
10
43
20
0
30
0
11
43
21
-30.35
31
0
39
0
210
0
220
0
230
1
0
LINE
5
F7
100
AcDbEntity
8
SK1
62
256
6
ByLayer
370
18
48
1
60
0
100
AcDbLine
10
-25.8
20
4.87
30
0
11
-25.8
21
-4.87
31
0
39
0
210
0
220
0
230
1
0
LINE
5
F8
100
AcDbEntity
8
SK1
62
256
6
ByLayer
370
18
48
1
60
0
100
AcDbLine
10
-31.9
20
-8.94683
30
0
11
-31.9
21
-21.58105
31
0
39
0
210
0
220
0
230
1
0
LINE
5
F9
100
AcDbEntity
8
SK1
62
256
6
ByLayer
370
18
48
1
60
0
100
AcDbLine
10
-31.9
20
21.58105
30
0
11
-31.9
21
8.94683
31
0
39
0
210
0
220
0
230
1
0
LINE
5
FA
100
AcDbEntity
8
SK1
62
256
6
ByLayer
370
13
48
1
60
0
100
AcDbLine
10
-23.2
20
-12.71169
30
0
11
-23.2
21
-10.408743
31
0
39
0
210
0
220
0
230
1
0
LINE
5
FB
100
AcDbEntity
8
SK1
62
256
6
ByLayer
370
18
48
1
60
0
100
AcDbLine
10
-23.2
20
6.22125
30
0
11
-30.70125
21
6.22125
31
0
39
0
210
0
220
0
230
1
0
LINE
5
FC
100
AcDbEntity
8
SK1
62
256
6
ByLayer
370
13
48
1
60
0
100
AcDbLine
10
-23.2
20
10.408743
30
0
11
-25.983343
21
10.408743
31
0
39
0
210
0
220
0
230
1
0
LINE
5
FD
100
AcDbEntity
8
SK1
62
256
6
ByLayer
370
18
48
1
60
0
100
AcDbLine
10
-31.9
20
7.42
30
0
11
-31.9
21
8.94683
31
0
39
0
210
0
220
0
230
1
0
LINE
5
FE
100
AcDbEntity
8
SK1
62
256
6
ByLayer
370
18
48
1
60
0
100
AcDbLine
10
-31.9
20
7.42
30
0
11
-30.70125
21
6.22125
31
0
39
0
210
0
220
0
230
1
0
LINE
5
FF
100
AcDbEntity
8
SK1
62
256
6
ByLayer
370
18
48
1
60
0
100
AcDbLine
10
-30.70125
20
9.197559
30
0
11
-30.70125
21
6.22125
31
0
39
0
210
0
220
0
230
1
0
LINE
5
100
100
AcDbEntity
8
SK1
62
256
6
ByLayer
370
13
48
1
60
0
100
AcDbLine
10
-31.869281
20
9.878468
30
0
11
-30.96978
21
10.286833
31
0
39
0
210
0
220
0
230
1
0
LINE
5
101
100
AcDbEntity
8
SK1
62
256
6
ByLayer
370
13
48
1
60
0
100
AcDbLine
10
-23.2
20
-10.408743
30
0
11
-25.983343
21
-10.408743
31
0
39
0
210
0
220
0
230
1
0
LINE
5
102
100
AcDbEntity
8
SK1
62
256
6
ByLayer
370
18
48
1
60
0
100
AcDbLine
10
-23.2
20
-6.22125
30
0
11
-30.70125
21
-6.22125
31
0
39
0
210
0
220
0
230
1
0
LINE
5
103
100
AcDbEntity
8
SK1
62
256
6
ByLayer
370
13
48
1
60
0
100
AcDbLine
10
-31.869281
20
-9.878468
30
0
11
-30.96978
21
-10.286833
31
0
39
0
210
0
220
0
230
1
0
LINE
5
104
100
AcDbEntity
8
SK1
62
256
6
ByLayer
370
18
48
1
60
0
100
AcDbLine
10
-30.70125
20
-9.197559
30
0
11
-30.70125
21
-6.22125
31
0
39
0
210
0
220
0
230
1
0
LINE
5
105
100
AcDbEntity
8
SK1
62
256
6
ByLayer
370
18
48
1
60
0
100
AcDbLine
10
-31.9
20
-7.42
30
0
11
-30.70125
21
-6.22125
31
0
39
0
210
0
220
0
230
1
0
LINE
5
106
100
AcDbEntity
8
SK1
62
256
6
ByLayer
370
18
48
1
60
0
100
AcDbLine
10
-31.9
20
-7.42
30
0
11
-31.9
21
-8.94683
31
0
39
0
210
0
220
0
230
1
0
LINE
5
107
100
AcDbEntity
8
SK1
62
256
6
ByLayer
370
13
48
1
60
0
100
AcDbLine
10
-23.2
20
10.408743
30
0
11
-23.2
21
12.71169
31
0
39
0
210
0
220
0
230
1
0
LINE
5
108
100
AcDbEntity
8
SK1
62
256
6
ByLayer
370
13
48
1
60
0
100
AcDbLine
10
-23.2
20
-10.408743
30
0
11
-23.2
21
-6.22125
31
0
39
0
210
0
220
0
230
1
0
LINE
5
109
100
AcDbEntity
8
SK1
62
256
6
ByLayer
370
13
48
1
60
0
100
AcDbLine
10
-23.2
20
6.22125
30
0
11
-23.2
21
10.408743
31
0
39
0
210
0
220
0
230
1
0
LINE
5
10A
100
AcDbEntity
8
SK1
62
256
6
ByLayer
370
13
48
1
60
0
100
AcDbLine
10
-0.45
20
23.970431
30
0
11
-0.45
21
0
31
0
39
0
210
0
220
0
230
1
0
LINE
5
10B
100
AcDbEntity
8
SK1
62
256
6
ByLayer
370
13
48
1
60
0
100
AcDbLine
10
-0.45
20
0
30
0
11
-0.45
21
-23.970431
31
0
39
0
210
0
220
0
230
1
0
LINE
5
10C
100
AcDbEntity
8
SK1
62
256
6
ByLayer
370
18
48
1
60
0
100
AcDbLine
10
-1.566987
20
23.970431
30
0
11
-1.566987
21
0
31
0
39
0
210
0
220
0
230
1
0
LINE
5
10D
100
AcDbEntity
8
SK1
62
256
6
ByLayer
370
18
48
1
60
0
100
AcDbLine
10
-1.566987
20
0
30
0
11
-1.566987
21
-23.970431
31
0
39
0
210
0
220
0
230
1
0
LINE
5
10E
100
AcDbEntity
8
SK1
62
256
6
ByLayer
370
18
48
1
60
0
100
AcDbLine
10
-2
20
-24.220431
30
0
11
-2
21
0
31
0
39
0
210
0
220
0
230
1
0
LINE
5
10F
100
AcDbEntity
8
SK1
62
256
6
ByLayer
370
18
48
1
60
0
100
AcDbLine
10
-2
20
0
30
0
11
-2
21
24.220431
31
0
39
0
210
0
220
0
230
1
0
LINE
5
110
100
AcDbEntity
8
SK1
62
256
6
ByLayer
370
13
48
1
60
0
100
AcDbLine
10
-30.760045
20
9.341748
30
0
11
-30.760045
21
22.779547
31
0
39
0
210
0
220
0
230
1
0
LINE
5
111
100
AcDbEntity
8
SK1
62
256
6
ByLayer
370
18
48
1
60
0
100
AcDbLine
10
-21.8
20
7.5681
30
0
11
-21.8
21
-7.5681
31
0
39
0
210
0
220
0
230
1
0
LINE
5
112
100
AcDbEntity
8
SK1
62
256
6
ByLayer
370
13
48
1
60
0
100
AcDbLine
10
-30.760045
20
-22.779547
30
0
11
-30.760045
21
-9.341748
31
0
39
0
210
0
220
0
230
1
0
LINE
5
113
100
AcDbEntity
8
1
62
256
6
ByLayer
370
13
48
0.05
60
0
100
AcDbLine
10
10
20
0
30
0
11
26
21
0
31
0
39
0
210
0
220
0
230
1
0
LINE
5
114
100
AcDbEntity
8
1
62
256
6
ByLayer
370
13
48
0.05
60
0
100
AcDbLine
10
18
20
-8
30
0
11
18
21
8
31
0
39
0
210
0
220
0
230
1
0
LINE
5
115
100
AcDbEntity
8
1
62
256
6
ByLayer
370
13
48
0.05
60
0
100
AcDbLine
10
-17.75
20
0
30
0
11
-0.25
21
0
31
0
39
0
210
0
220
0
230
1
0
LINE
5
116
100
AcDbEntity
8
1
62
256
6
ByLayer
370
13
48
0.05
60
0
100
AcDbLine
10
-9
20
-8.75
30
0
11
-9
21
8.75
31
0
39
0
210
0
220
0
230
1
0
LINE
5
117
100
AcDbEntity
8
SK2
62
256
6
ByLayer
370
18
48
1
60
0
100
AcDbLine
10
-58.875
20
-31.47
30
0
11
-58.875
21
31.47
31
0
39
0
210
0
220
0
230
1
0
LINE
5
119
100
AcDbEntity
8
SK2
62
256
6
ByLayer
370
18
48
1
60
0
100
AcDbLine
10
-1.0875
20
31.47
30
0
11
-60.875
21
31.47
31
0
39
0
210
0
220
0
230
1
0
LINE
5
11A
100
AcDbEntity
8
SK2
62
256
6
ByLayer
370
18
48
1
60
0
100
AcDbLine
10
-1.0875
20
-31.47
30
0
11
-60.875
21
-31.47
31
0
39
0
210
0
220
0
230
1
0
LINE
5
11B
100
AcDbEntity
8
1
62
256
6
ByLayer
370
18
48
1
60
1
100
AcDbLine
10
-58.875
20
31.47
30
0
11
-58.414216
21
27.970002
31
0
39
0
210
0
220
0
230
1
0
LINE
5
11C
100
AcDbEntity
8
1
62
256
6
ByLayer
370
18
48
1
60
1
100
AcDbLine
10
-58.414216
20
27.970002
30
0
11
-59.335784
21
27.969998
31
0
39
0
210
0
220
0
230
1
0
LINE
5
11D
100
AcDbEntity
8
1
62
256
6
ByLayer
370
18
48
1
60
1
100
AcDbLine
10
-59.335784
20
27.969998
30
0
11
-58.875
21
31.47
31
0
39
0
210
0
220
0
230
1
0
LINE
5
11E
100
AcDbEntity
8
1
62
256
6
ByLayer
370
18
48
1
60
1
100
AcDbLine
10
-58.875
20
-31.47
30
0
11
-59.335784
21
-27.970002
31
0
39
0
210
0
220
0
230
1
0
LINE
5
11F
100
AcDbEntity
8
1
62
256
6
ByLayer
370
18
48
1
60
1
100
AcDbLine
10
-59.335784
20
-27.970002
30
0
11
-58.414216
21
-27.969998
31
0
39
0
210
0
220
0
230
1
0
LINE
5
120
100
AcDbEntity
8
1
62
256
6
ByLayer
370
18
48
1
60
1
100
AcDbLine
10
-58.414216
20
-27.969998
30
0
11
-58.875
21
-31.47
31
0
39
0
210
0
220
0
230
1
0
LINE
5
121
100
AcDbEntity
8
SK2
62
256
6
ByLayer
370
13
48
1
60
0
100
AcDbLine
10
85.725
20
-31.35
30
0
11
85.725
21
31.35
31
0
39
0
210
0
220
0
230
1
0
LINE
5
122
100
AcDbEntity
8
SK2
62
256
6
ByLayer
370
13
48
1
60
0
100
AcDbLine
10
45.5875
20
31.35
30
0
11
87.725
21
31.35
31
0
39
0
210
0
220
0
230
1
0
LINE
5
123
100
AcDbEntity
8
SK2
62
256
6
ByLayer
370
13
48
1
60
0
100
AcDbLine
10
45.5875
20
-31.35
30
0
11
87.725
21
-31.35
31
0
39
0
210
0
220
0
230
1
0
LINE
5
124
100
AcDbEntity
8
1
62
256
6
ByLayer
370
18
48
1
60
1
100
AcDbLine
10
85.725
20
31.35
30
0
11
86.185784
21
27.850002
31
0
39
0
210
0
220
0
230
1
0
LINE
5
125
100
AcDbEntity
8
1
62
256
6
ByLayer
370
18
48
1
60
1
100
AcDbLine
10
86.185784
20
27.850002
30
0
11
85.264216
21
27.849998
31
0
39
0
210
0
220
0
230
1
0
LINE
5
126
100
AcDbEntity
8
1
62
256
6
ByLayer
370
18
48
1
60
1
100
AcDbLine
10
85.264216
20
27.849998
30
0
11
85.725
21
31.35
31
0
39
0
210
0
220
0
230
1
0
LINE
5
127
100
AcDbEntity
8
1
62
256
6
ByLayer
370
18
48
1
60
1
100
AcDbLine
10
85.725
20
-31.35
30
0
11
85.264216
21
-27.850002
31
0
39
0
210
0
220
0
230
1
0
LINE
5
128
100
AcDbEntity
8
1
62
256
6
ByLayer
370
18
48
1
60
1
100
AcDbLine
10
85.264216
20
-27.850002
30
0
11
86.185784
21
-27.849998
31
0
39
0
210
0
220
0
230
1
0
LINE
5
129
100
AcDbEntity
8
1
62
256
6
ByLayer
370
18
48
1
60
1
100
AcDbLine
10
86.185784
20
-27.849998
30
0
11
85.725
21
-31.35
31
0
39
0
210
0
220
0
230
1
0
LINE
5
12A
100
AcDbEntity
8
SK2
62
256
6
ByLayer
370
18
48
1
60
0
100
AcDbLine
10
-31.9
20
54.482416
30
0
11
0
21
54.482416
31
0
39
0
210
0
220
0
230
1
0
LINE
5
12B
100
AcDbEntity
8
SK2
62
256
6
ByLayer
370
18
48
1
60
0
100
AcDbLine
10
0
20
32.5575
30
0
11
0
21
56.482416
31
0
39
0
210
0
220
0
230
1
0
LINE
5
12C
100
AcDbEntity
8
SK2
62
256
6
ByLayer
370
18
48
1
60
0
100
AcDbLine
10
-31.9
20
23.16855
30
0
11
-31.9
21
56.482416
31
0
39
0
210
0
220
0
230
1
0
LINE
5
12D
100
AcDbEntity
8
1
62
256
6
ByLayer
370
18
48
1
60
1
100
AcDbLine
10
0
20
54.482416
30
0
11
-3.499998
21
54.021632
31
0
39
0
210
0
220
0
230
1
0
LINE
5
12E
100
AcDbEntity
8
1
62
256
6
ByLayer
370
18
48
1
60
1
100
AcDbLine
10
-3.499998
20
54.021632
30
0
11
-3.500002
21
54.9432
31
0
39
0
210
0
220
0
230
1
0
LINE
5
12F
100
AcDbEntity
8
1
62
256
6
ByLayer
370
18
48
1
60
1
100
AcDbLine
10
-3.500002
20
54.9432
30
0
11
0
21
54.482416
31
0
39
0
210
0
220
0
230
1
0
LINE
5
130
100
AcDbEntity
8
1
62
256
6
ByLayer
370
18
48
1
60
1
100
AcDbLine
10
-31.9
20
54.482416
30
0
11
-28.400002
21
54.9432
31
0
39
0
210
0
220
0
230
1
0
LINE
5
131
100
AcDbEntity
8
1
62
256
6
ByLayer
370
18
48
1
60
1
100
AcDbLine
10
-28.400002
20
54.9432
30
0
11
-28.399998
21
54.021632
31
0
39
0
210
0
220
0
230
1
0
LINE
5
132
100
AcDbEntity
8
1
62
256
6
ByLayer
370
18
48
1
60
1
100
AcDbLine
10
-28.399998
20
54.021632
30
0
11
-31.9
21
54.482416
31
0
39
0
210
0
220
0
230
1
0
LINE
5
133
100
AcDbEntity
8
SK2
62
256
6
ByLayer
370
18
48
1
60
0
100
AcDbLine
10
0
20
74.482416
30
0
11
60
21
74.482416
31
0
39
0
210
0
220
0
230
1
0
LINE
5
134
100
AcDbEntity
8
SK2
62
256
6
ByLayer
370
18
48
1
60
0
100
AcDbLine
10
60
20
26.5875
30
0
11
60
21
76.482416
31
0
39
0
210
0
220
0
230
1
0
LINE
5
135
100
AcDbEntity
8
SK2
62
256
6
ByLayer
370
18
48
1
60
0
100
AcDbLine
10
0
20
32.5575
30
0
11
0
21
76.482416
31
0
39
0
210
0
220
0
230
1
0
LINE
5
136
100
AcDbEntity
8
1
62
256
6
ByLayer
370
18
48
1
60
1
100
AcDbLine
10
60
20
74.482416
30
0
11
56.500002
21
74.021632
31
0
39
0
210
0
220
0
230
1
0
LINE
5
137
100
AcDbEntity
8
1
62
256
6
ByLayer
370
18
48
1
60
1
100
AcDbLine
10
56.500002
20
74.021632
30
0
11
56.499998
21
74.9432
31
0
39
0
210
0
220
0
230
1
0
LINE
5
138
100
AcDbEntity
8
1
62
256
6
ByLayer
370
18
48
1
60
1
100
AcDbLine
10
56.499998
20
74.9432
30
0
11
60
21
74.482416
31
0
39
0
210
0
220
0
230
1
0
LINE
5
139
100
AcDbEntity
8
1
62
256
6
ByLayer
370
18
48
1
60
1
100
AcDbLine
10
0
20
74.482416
30
0
11
3.499998
21
74.9432
31
0
39
0
210
0
220
0
230
1
0
LINE
5
13A
100
AcDbEntity
8
1
62
256
6
ByLayer
370
18
48
1
60
1
100
AcDbLine
10
3.499998
20
74.9432
30
0
11
3.500002
21
74.021632
31
0
39
0
210
0
220
0
230
1
0
LINE
5
13B
100
AcDbEntity
8
1
62
256
6
ByLayer
370
18
48
1
60
1
100
AcDbLine
10
3.500002
20
74.021632
30
0
11
0
21
74.482416
31
0
39
0
210
0
220
0
230
1
0
LINE
5
13C
100
AcDbEntity
8
SK2
62
256
6
ByLayer
370
18
48
1
60
0
100
AcDbLine
10
0
20
64.482416
30
0
11
43
21
64.482416
31
0
39
0
210
0
220
0
230
1
0
LINE
5
13D
100
AcDbEntity
8
SK2
62
256
6
ByLayer
370
18
48
1
60
0
100
AcDbLine
10
43
20
31.9375
30
0
11
43
21
66.482416
31
0
39
0
210
0
220
0
230
1
0
LINE
5
13E
100
AcDbEntity
8
SK2
62
256
6
ByLayer
370
18
48
1
60
0
100
AcDbLine
10
0
20
32.5575
30
0
11
0
21
66.482416
31
0
39
0
210
0
220
0
230
1
0
LINE
5
13F
100
AcDbEntity
8
1
62
256
6
ByLayer
370
18
48
1
60
1
100
AcDbLine
10
43
20
64.482416
30
0
11
39.500002
21
64.021632
31
0
39
0
210
0
220
0
230
1
0
LINE
5
140
100
AcDbEntity
8
1
62
256
6
ByLayer
370
18
48
1
60
1
100
AcDbLine
10
39.500002
20
64.021632
30
0
11
39.499998
21
64.9432
31
0
39
0
210
0
220
0
230
1
0
LINE
5
141
100
AcDbEntity
8
1
62
256
6
ByLayer
370
18
48
1
60
1
100
AcDbLine
10
39.499998
20
64.9432
30
0
11
43
21
64.482416
31
0
39
0
210
0
220
0
230
1
0
LINE
5
142
100
AcDbEntity
8
1
62
256
6
ByLayer
370
18
48
1
60
1
100
AcDbLine
10
0
20
64.482416
30
0
11
3.499998
21
64.9432
31
0
39
0
210
0
220
0
230
1
0
LINE
5
143
100
AcDbEntity
8
1
62
256
6
ByLayer
370
18
48
1
60
1
100
AcDbLine
10
3.499998
20
64.9432
30
0
11
3.500002
21
64.021632
31
0
39
0
210
0
220
0
230
1
0
LINE
5
144
100
AcDbEntity
8
1
62
256
6
ByLayer
370
18
48
1
60
1
100
AcDbLine
10
3.500002
20
64.021632
30
0
11
0
21
64.482416
31
0
39
0
210
0
220
0
230
1
0
LINE
5
145
100
AcDbEntity
8
SK2
62
256
6
ByLayer
370
18
48
1
60
0
100
AcDbLine
10
60
20
54.482416
30
0
11
43
21
54.482416
31
0
39
0
210
0
220
0
230
1
0
LINE
5
146
100
AcDbEntity
8
SK2
62
256
6
ByLayer
370
18
48
1
60
0
100
AcDbLine
10
43
20
31.9375
30
0
11
43
21
56.482416
31
0
39
0
210
0
220
0
230
1
0
LINE
5
147
100
AcDbEntity
8
SK2
62
256
6
ByLayer
370
18
48
1
60
0
100
AcDbLine
10
60
20
26.5875
30
0
11
60
21
56.482416
31
0
39
0
210
0
220
0
230
1
0
LINE
5
148
100
AcDbEntity
8
1
62
256
6
ByLayer
370
18
48
1
60
1
100
AcDbLine
10
43
20
54.482416
30
0
11
46.499998
21
54.9432
31
0
39
0
210
0
220
0
230
1
0
LINE
5
149
100
AcDbEntity
8
1
62
256
6
ByLayer
370
18
48
1
60
1
100
AcDbLine
10
46.499998
20
54.9432
30
0
11
46.500002
21
54.021632
31
0
39
0
210
0
220
0
230
1
0
LINE
5
14A
100
AcDbEntity
8
1
62
256
6
ByLayer
370
18
48
1
60
1
100
AcDbLine
10
46.500002
20
54.021632
30
0
11
43
21
54.482416
31
0
39
0
210
0
220
0
230
1
0
LINE
5
14B
100
AcDbEntity
8
1
62
256
6
ByLayer
370
18
48
1
60
1
100
AcDbLine
10
60
20
54.482416
30
0
11
56.500002
21
54.021632
31
0
39
0
210
0
220
0
230
1
0
LINE
5
14C
100
AcDbEntity
8
1
62
256
6
ByLayer
370
18
48
1
60
1
100
AcDbLine
10
56.500002
20
54.021632
30
0
11
56.499998
21
54.9432
31
0
39
0
210
0
220
0
230
1
0
LINE
5
14D
100
AcDbEntity
8
1
62
256
6
ByLayer
370
18
48
1
60
1
100
AcDbLine
10
56.499998
20
54.9432
30
0
11
60
21
54.482416
31
0
39
0
210
0
220
0
230
1
0
LINE
5
14E
100
AcDbEntity
8
2
62
256
6
ByLayer
370
18
48
1
60
0
100
AcDbLine
10
0
20
-51.400644
30
0
11
50
21
-51.400644
31
0
39
0
210
0
220
0
230
1
0
LINE
5
14F
100
AcDbEntity
8
2
62
256
6
ByLayer
370
18
48
1
60
0
100
AcDbLine
10
50
20
-1.5875
30
0
11
50
21
-53.400644
31
0
39
0
210
0
220
0
230
1
0
LINE
5
150
100
AcDbEntity
8
2
62
256
6
ByLayer
370
18
48
1
60
0
100
AcDbLine
10
0
20
-32.5575
30
0
11
0
21
-53.400644
31
0
39
0
210
0
220
0
230
1
0
LINE
5
151
100
AcDbEntity
8
1
62
256
6
ByLayer
370
18
48
1
60
1
100
AcDbLine
10
50
20
-51.400644
30
0
11
46.500002
21
-51.861428
31
0
39
0
210
0
220
0
230
1
0
LINE
5
152
100
AcDbEntity
8
1
62
256
6
ByLayer
370
18
48
1
60
1
100
AcDbLine
10
46.500002
20
-51.861428
30
0
11
46.499998
21
-50.939861
31
0
39
0
210
0
220
0
230
1
0
LINE
5
153
100
AcDbEntity
8
1
62
256
6
ByLayer
370
18
48
1
60
1
100
AcDbLine
10
46.499998
20
-50.939861
30
0
11
50
21
-51.400644
31
0
39
0
210
0
220
0
230
1
0
LINE
5
154
100
AcDbEntity
8
1
62
256
6
ByLayer
370
18
48
1
60
1
100
AcDbLine
10
0
20
-51.400644
30
0
11
3.499998
21
-50.939861
31
0
39
0
210
0
220
0
230
1
0
LINE
5
155
100
AcDbEntity
8
1
62
256
6
ByLayer
370
18
48
1
60
1
100
AcDbLine
10
3.499998
20
-50.939861
30
0
11
3.500002
21
-51.861428
31
0
39
0
210
0
220
0
230
1
0
LINE
5
156
100
AcDbEntity
8
1
62
256
6
ByLayer
370
18
48
1
60
1
100
AcDbLine
10
3.500002
20
-51.861428
30
0
11
0
21
-51.400644
31
0
39
0
210
0
220
0
230
1
0
LINE
5
1B6
100
AcDbEntity
8
1
62
256
6
ByLayer
370
13
48
0.05
60
0
100
AcDbLine
10
18
20
29.234794
30
0
11
18
21
8.969053
31
0
39
0
210
0
220
0
230
1
0
LINE
5
1B7
100
AcDbEntity
8
1
62
256
6
ByLayer
370
13
48
0.05
60
0
100
AcDbLine
10
18
20
32.635248
30
0
11
18
21
11.474174
31
0
39
0
210
0
220
0
230
1
0
LINE
5
1B8
100
AcDbEntity
8
1
62
256
6
ByLayer
370
13
48
0.05
60
0
100
AcDbLine
10
18
20
34.144664
30
0
11
18
21
13.424591
31
0
39
0
210
0
220
0
230
1
0
LINE
5
1B9
100
AcDbEntity
8
1
62
256
6
ByLayer
370
13
48
0.05
60
0
100
AcDbLine
10
-37.260045
20
0
30
0
11
49.890673
21
0
31
0
39
0
210
0
220
0
230
1
0
LINE
5
1BA
100
AcDbEntity
8
1
62
256
6
ByLayer
370
13
48
0.05
60
0
100
AcDbLine
10
66.5
20
0
30
0
11
36.5
21
0
31
0
39
0
210
0
220
0
230
1
0
LINE
5
1BF
100
AcDbEntity
8
1
62
256
6
ByLayer
370
18
48
1
60
1
100
AcDbLine
10
-58.875
20
31.47
30
0
11
-58.414216
21
27.970002
31
0
39
0
210
0
220
0
230
1
0
LINE
5
1C0
100
AcDbEntity
8
1
62
256
6
ByLayer
370
18
48
1
60
1
100
AcDbLine
10
-58.414216
20
27.970002
30
0
11
-59.335784
21
27.969998
31
0
39
0
210
0
220
0
230
1
0
LINE
5
1C1
100
AcDbEntity
8
1
62
256
6
ByLayer
370
18
48
1
60
1
100
AcDbLine
10
-59.335784
20
27.969998
30
0
11
-58.875
21
31.47
31
0
39
0
210
0
220
0
230
1
0
LINE
5
1C3
100
AcDbEntity
8
1
62
256
6
ByLayer
370
18
48
1
60
1
100
AcDbLine
10
-58.875
20
-31.47
30
0
11
-59.335784
21
-27.970002
31
0
39
0
210
0
220
0
230
1
0
LINE
5
1C4
100
AcDbEntity
8
1
62
256
6
ByLayer
370
18
48
1
60
1
100
AcDbLine
10
-59.335784
20
-27.970002
30
0
11
-58.414216
21
-27.969998
31
0
39
0
210
0
220
0
230
1
0
LINE
5
1C5
100
AcDbEntity
8
1
62
256
6
ByLayer
370
18
48
1
60
1
100
AcDbLine
10
-58.414216
20
-27.969998
30
0
11
-58.875
21
-31.47
31
0
39
0
210
0
220
0
230
1
0
LINE
5
1C9
100
AcDbEntity
8
1
62
256
6
ByLayer
370
18
48
1
60
1
100
AcDbLine
10
85.725
20
31.35
30
0
11
86.185784
21
27.850002
31
0
39
0
210
0
220
0
230
1
0
LINE
5
1CA
100
AcDbEntity
8
1
62
256
6
ByLayer
370
18
48
1
60
1
100
AcDbLine
10
86.185784
20
27.850002
30
0
11
85.264216
21
27.849998
31
0
39
0
210
0
220
0
230
1
0
LINE
5
1CB
100
AcDbEntity
8
1
62
256
6
ByLayer
370
18
48
1
60
1
100
AcDbLine
10
85.264216
20
27.849998
30
0
11
85.725
21
31.35
31
0
39
0
210
0
220
0
230
1
0
LINE
5
1CD
100
AcDbEntity
8
1
62
256
6
ByLayer
370
18
48
1
60
1
100
AcDbLine
10
85.725
20
-31.35
30
0
11
85.264216
21
-27.850002
31
0
39
0
210
0
220
0
230
1
0
LINE
5
1CE
100
AcDbEntity
8
1
62
256
6
ByLayer
370
18
48
1
60
1
100
AcDbLine
10
85.264216
20
-27.850002
30
0
11
86.185784
21
-27.849998
31
0
39
0
210
0
220
0
230
1
0
LINE
5
1CF
100
AcDbEntity
8
1
62
256
6
ByLayer
370
18
48
1
60
1
100
AcDbLine
10
86.185784
20
-27.849998
30
0
11
85.725
21
-31.35
31
0
39
0
210
0
220
0
230
1
0
LINE
5
1D2
100
AcDbEntity
8
1
62
256
6
ByLayer
370
18
48
1
60
1
100
AcDbLine
10
0
20
54.482416
30
0
11
-3.499998
21
54.021632
31
0
39
0
210
0
220
0
230
1
0
LINE
5
1D3
100
AcDbEntity
8
1
62
256
6
ByLayer
370
18
48
1
60
1
100
AcDbLine
10
-3.499998
20
54.021632
30
0
11
-3.500002
21
54.9432
31
0
39
0
210
0
220
0
230
1
0
LINE
5
1D4
100
AcDbEntity
8
1
62
256
6
ByLayer
370
18
48
1
60
1
100
AcDbLine
10
-3.500002
20
54.9432
30
0
11
0
21
54.482416
31
0
39
0
210
0
220
0
230
1
0
LINE
5
1D6
100
AcDbEntity
8
1
62
256
6
ByLayer
370
18
48
1
60
1
100
AcDbLine
10
-31.9
20
54.482416
30
0
11
-28.400002
21
54.9432
31
0
39
0
210
0
220
0
230
1
0
LINE
5
1D7
100
AcDbEntity
8
1
62
256
6
ByLayer
370
18
48
1
60
1
100
AcDbLine
10
-28.400002
20
54.9432
30
0
11
-28.399998
21
54.021632
31
0
39
0
210
0
220
0
230
1
0
LINE
5
1D8
100
AcDbEntity
8
1
62
256
6
ByLayer
370
18
48
1
60
1
100
AcDbLine
10
-28.399998
20
54.021632
30
0
11
-31.9
21
54.482416
31
0
39
0
210
0
220
0
230
1
0
LINE
5
1DB
100
AcDbEntity
8
1
62
256
6
ByLayer
370
18
48
1
60
1
100
AcDbLine
10
60
20
74.482416
30
0
11
56.500002
21
74.021632
31
0
39
0
210
0
220
0
230
1
0
LINE
5
1DC
100
AcDbEntity
8
1
62
256
6
ByLayer
370
18
48
1
60
1
100
AcDbLine
10
56.500002
20
74.021632
30
0
11
56.499998
21
74.9432
31
0
39
0
210
0
220
0
230
1
0
LINE
5
1DD
100
AcDbEntity
8
1
62
256
6
ByLayer
370
18
48
1
60
1
100
AcDbLine
10
56.499998
20
74.9432
30
0
11
60
21
74.482416
31
0
39
0
210
0
220
0
230
1
0
LINE
5
1DF
100
AcDbEntity
8
1
62
256
6
ByLayer
370
18
48
1
60
1
100
AcDbLine
10
0
20
74.482416
30
0
11
3.499998
21
74.9432
31
0
39
0
210
0
220
0
230
1
0
LINE
5
1E0
100
AcDbEntity
8
1
62
256
6
ByLayer
370
18
48
1
60
1
100
AcDbLine
10
3.499998
20
74.9432
30
0
11
3.500002
21
74.021632
31
0
39
0
210
0
220
0
230
1
0
LINE
5
1E1
100
AcDbEntity
8
1
62
256
6
ByLayer
370
18
48
1
60
1
100
AcDbLine
10
3.500002
20
74.021632
30
0
11
0
21
74.482416
31
0
39
0
210
0
220
0
230
1
0
LINE
5
1E4
100
AcDbEntity
8
1
62
256
6
ByLayer
370
18
48
1
60
1
100
AcDbLine
10
43
20
64.482416
30
0
11
39.500002
21
64.021632
31
0
39
0
210
0
220
0
230
1
0
LINE
5
1E5
100
AcDbEntity
8
1
62
256
6
ByLayer
370
18
48
1
60
1
100
AcDbLine
10
39.500002
20
64.021632
30
0
11
39.499998
21
64.9432
31
0
39
0
210
0
220
0
230
1
0
LINE
5
1E6
100
AcDbEntity
8
1
62
256
6
ByLayer
370
18
48
1
60
1
100
AcDbLine
10
39.499998
20
64.9432
30
0
11
43
21
64.482416
31
0
39
0
210
0
220
0
230
1
0
LINE
5
1E8
100
AcDbEntity
8
1
62
256
6
ByLayer
370
18
48
1
60
1
100
AcDbLine
10
0
20
64.482416
30
0
11
3.499998
21
64.9432
31
0
39
0
210
0
220
0
230
1
0
LINE
5
1E9
100
AcDbEntity
8
1
62
256
6
ByLayer
370
18
48
1
60
1
100
AcDbLine
10
3.499998
20
64.9432
30
0
11
3.500002
21
64.021632
31
0
39
0
210
0
220
0
230
1
0
LINE
5
1EA
100
AcDbEntity
8
1
62
256
6
ByLayer
370
18
48
1
60
1
100
AcDbLine
10
3.500002
20
64.021632
30
0
11
0
21
64.482416
31
0
39
0
210
0
220
0
230
1
0
LINE
5
1ED
100
AcDbEntity
8
1
62
256
6
ByLayer
370
18
48
1
60
1
100
AcDbLine
10
43
20
54.482416
30
0
11
46.499998
21
54.9432
31
0
39
0
210
0
220
0
230
1
0
LINE
5
1EE
100
AcDbEntity
8
1
62
256
6
ByLayer
370
18
48
1
60
1
100
AcDbLine
10
46.499998
20
54.9432
30
0
11
46.500002
21
54.021632
31
0
39
0
210
0
220
0
230
1
0
LINE
5
1EF
100
AcDbEntity
8
1
62
256
6
ByLayer
370
18
48
1
60
1
100
AcDbLine
10
46.500002
20
54.021632
30
0
11
43
21
54.482416
31
0
39
0
210
0
220
0
230
1
0
LINE
5
1F1
100
AcDbEntity
8
1
62
256
6
ByLayer
370
18
48
1
60
1
100
AcDbLine
10
60
20
54.482416
30
0
11
56.500002
21
54.021632
31
0
39
0
210
0
220
0
230
1
0
LINE
5
1F2
100
AcDbEntity
8
1
62
256
6
ByLayer
370
18
48
1
60
1
100
AcDbLine
10
56.500002
20
54.021632
30
0
11
56.499998
21
54.9432
31
0
39
0
210
0
220
0
230
1
0
LINE
5
1F3
100
AcDbEntity
8
1
62
256
6
ByLayer
370
18
48
1
60
1
100
AcDbLine
10
56.499998
20
54.9432
30
0
11
60
21
54.482416
31
0
39
0
210
0
220
0
230
1
0
LINE
5
1F6
100
AcDbEntity
8
1
62
256
6
ByLayer
370
18
48
1
60
1
100
AcDbLine
10
50
20
-51.400644
30
0
11
46.500002
21
-51.861428
31
0
39
0
210
0
220
0
230
1
0
LINE
5
1F7
100
AcDbEntity
8
1
62
256
6
ByLayer
370
18
48
1
60
1
100
AcDbLine
10
46.500002
20
-51.861428
30
0
11
46.499998
21
-50.939861
31
0
39
0
210
0
220
0
230
1
0
LINE
5
1F8
100
AcDbEntity
8
1
62
256
6
ByLayer
370
18
48
1
60
1
100
AcDbLine
10
46.499998
20
-50.939861
30
0
11
50
21
-51.400644
31
0
39
0
210
0
220
0
230
1
0
LINE
5
1FA
100
AcDbEntity
8
1
62
256
6
ByLayer
370
18
48
1
60
1
100
AcDbLine
10
0
20
-51.400644
30
0
11
3.499998
21
-50.939861
31
0
39
0
210
0
220
0
230
1
0
LINE
5
1FB
100
AcDbEntity
8
1
62
256
6
ByLayer
370
18
48
1
60
1
100
AcDbLine
10
3.499998
20
-50.939861
30
0
11
3.500002
21
-51.861428
31
0
39
0
210
0
220
0
230
1
0
LINE
5
1FC
100
AcDbEntity
8
1
62
256
6
ByLayer
370
18
48
1
60
1
100
AcDbLine
10
3.500002
20
-51.861428
30
0
11
0
21
-51.400644
31
0
39
0
210
0
220
0
230
1
0
MTEXT
5
1BB
100
AcDbEntity
8
SK2
62
256
6
ByLayer
370
18
48
1
60
0
100
AcDbMText
10
-60.439634
20
-4.530622
30
0
210
0
220
0
230
1
1
%%c
40
3.5
41
0
44
1.084337
50
90
71
7
72
5
7
iso_b_vert
0
MTEXT
5
1BE
100
AcDbEntity
8
SK2
62
256
6
ByLayer
370
18
48
1
60
0
100
AcDbMText
10
-60.439634
20
2.442034
30
0
210
0
220
0
230
1
1
\W0.6740;63
40
3.5
41
0
44
1.084337
50
90
71
7
72
5
7
iso_b_vert
0
MTEXT
5
1C7
100
AcDbEntity
8
SK2
62
256
6
ByLayer
370
18
48
1
60
0
100
AcDbMText
10
84.160366
20
-4.530622
30
0
210
0
220
0
230
1
1
%%c
40
3.5
41
0
44
1.084337
50
90
71
7
72
5
7
iso_b_vert
0
MTEXT
5
1C8
100
AcDbEntity
8
SK2
62
256
6
ByLayer
370
18
48
1
60
0
100
AcDbMText
10
84.160366
20
2.442034
30
0
210
0
220
0
230
1
1
\W0.6740;63
40
3.5
41
0
44
1.084337
50
90
71
7
72
5
7
iso_b_vert
0
MTEXT
5
1D1
100
AcDbEntity
8
SK2
62
256
6
ByLayer
370
18
48
1
60
0
100
AcDbMText
10
-19.434266
20
55.51505
30
0
210
0
220
0
230
1
1
\W0.6662;31.9
40
3.5
41
0
44
1.084337
50
0
71
7
72
5
7
iso_b_vert
0
MTEXT
5
1DA
100
AcDbEntity
8
SK2
62
256
6
ByLayer
370
18
48
1
60
0
100
AcDbMText
10
28.095034
20
75.51505
30
0
210
0
220
0
230
1
1
\W0.6740;60
40
3.5
41
0
44
1.084337
50
0
71
7
72
5
7
iso_b_vert
0
MTEXT
5
1E3
100
AcDbEntity
8
SK2
62
256
6
ByLayer
370
18
48
1
60
0
100
AcDbMText
10
19.410767
20
65.51505
30
0
210
0
220
0
230
1
1
\W0.7361;43
40
3.5
41
0
44
1.084337
50
0
71
7
72
5
7
iso_b_vert
0
MTEXT
5
1EC
100
AcDbEntity
8
SK2
62
256
6
ByLayer
370
18
48
1
60
0
100
AcDbMText
10
50.032467
20
55.51505
30
0
210
0
220
0
230
1
1
\W0.5321;17
40
3.5
41
0
44
1.084337
50
0
71
7
72
5
7
iso_b_vert
0
MTEXT
5
1F5
100
AcDbEntity
8
2
62
256
6
ByLayer
370
18
48
1
60
0
100
AcDbMText
10
23.095034
20
-50.368011
30
0
210
0
220
0
230
1
1
\W0.6740;50
40
3.5
41
0
44
1.084337
50
0
71
7
72
5
7
iso_b_vert
0
MTEXT
5
1FE
100
AcDbEntity
8
SK6
62
256
6
ByLayer
370
18
48
1
60
0
100
AcDbMText
10
-19.57854
20
-87.074
30
0
210
0
220
0
230
1
1
\W0.7730;HT06-DM25-N-050A
40
3
41
0
44
1.084337
50
0
71
7
72
5
7
iso_b_vert
0
HATCH
5
1C2
100
AcDbEntity
8
SK2
62
256
6
ByLayer
370
13
48
1
60
0
100
AcDbHatch
10
0
20
0
30
0
210
0
220
0
230
1
2
ANSI31
70
0
71
0
91
1
92
5
93
3
72
1
10
-58.875
20
31.47
11
-58.4142162584472
21
27.9700016925532
72
1
10
-58.4142162584472
20
27.9700016925532
11
-59.3357837415528
21
27.9699983074468
72
1
10
-59.3357837415528
20
27.9699983074468
11
-58.875
21
31.47
97
0
75
0
76
1
52
0
41
0.0062
77
0
78
1
53
45
43
0
44
0
45
-0.0139193969876572
46
0.0139193969876572
79
0
47
0
98
1
10
0
20
0
0
HATCH
5
1C6
100
AcDbEntity
8
SK2
62
256
6
ByLayer
370
13
48
1
60
0
100
AcDbHatch
10
0
20
0
30
0
210
0
220
0
230
1
2
ANSI31
70
0
71
0
91
1
92
5
93
3
72
1
10
-58.875
20
-31.47
11
-59.3357837415528
21
-27.9700016925532
72
1
10
-59.3357837415528
20
-27.9700016925532
11
-58.4142162584472
21
-27.9699983074468
72
1
10
-58.4142162584472
20
-27.9699983074468
11
-58.875
21
-31.47
97
0
75
0
76
1
52
0
41
0.0062
77
0
78
1
53
45
43
0
44
0
45
-0.0139193969876572
46
0.0139193969876572
79
0
47
0
98
1
10
0
20
0
0
HATCH
5
1CC
100
AcDbEntity
8
SK2
62
256
6
ByLayer
370
13
48
1
60
0
100
AcDbHatch
10
0
20
0
30
0
210
0
220
0
230
1
2
ANSI31
70
0
71
0
91
1
92
5
93
3
72
1
10
85.725
20
31.35
11
86.1857837415528
21
27.8500016925532
72
1
10
86.1857837415528
20
27.8500016925532
11
85.2642162584472
21
27.8499983074468
72
1
10
85.2642162584472
20
27.8499983074468
11
85.725
21
31.35
97
0
75
0
76
1
52
0
41
0.0062
77
0
78
1
53
45
43
0
44
0
45
-0.0139193969876572
46
0.0139193969876572
79
0
47
0
98
1
10
0
20
0
0
HATCH
5
1D0
100
AcDbEntity
8
SK2
62
256
6
ByLayer
370
13
48
1
60
0
100
AcDbHatch
10
0
20
0
30
0
210
0
220
0
230
1
2
ANSI31
70
0
71
0
91
1
92
5
93
3
72
1
10
85.725
20
-31.35
11
85.2642162584472
21
-27.8500016925532
72
1
10
85.2642162584472
20
-27.8500016925532
11
86.1857837415528
21
-27.8499983074468
72
1
10
86.1857837415528
20
-27.8499983074468
11
85.725
21
-31.35
97
0
75
0
76
1
52
0
41
0.0062
77
0
78
1
53
45
43
0
44
0
45
-0.0139193969876572
46
0.0139193969876572
79
0
47
0
98
1
10
0
20
0
0
HATCH
5
1D5
100
AcDbEntity
8
SK2
62
256
6
ByLayer
370
13
48
1
60
0
100
AcDbHatch
10
0
20
0
30
0
210
0
220
0
230
1
2
ANSI31
70
0
71
0
91
1
92
5
93
3
72
1
10
0
20
54.4824160886823
11
-3.49999830744682
21
54.0216323471295
72
1
10
-3.49999830744682
20
54.0216323471295
11
-3.50000169255318
21
54.9431998302351
72
1
10
-3.50000169255318
20
54.9431998302351
11
0
21
54.4824160886823
97
0
75
0
76
1
52
0
41
0.0062
77
0
78
1
53
45
43
0
44
0
45
-0.0139193969876572
46
0.0139193969876572
79
0
47
0
98
1
10
0
20
0
0
HATCH
5
1D9
100
AcDbEntity
8
SK2
62
256
6
ByLayer
370
13
48
1
60
0
100
AcDbHatch
10
0
20
0
30
0
210
0
220
0
230
1
2
ANSI31
70
0
71
0
91
1
92
5
93
3
72
1
10
-31.9
20
54.4824160886823
11
-28.4000016925532
21
54.9431998302351
72
1
10
-28.4000016925532
20
54.9431998302351
11
-28.3999983074468
21
54.0216323471295
72
1
10
-28.3999983074468
20
54.0216323471295
11
-31.9
21
54.4824160886823
97
0
75
0
76
1
52
0
41
0.0062
77
0
78
1
53
45
43
0
44
0
45
-0.0139193969876572
46
0.0139193969876572
79
0
47
0
98
1
10
0
20
0
0
HATCH
5
1DE
100
AcDbEntity
8
SK2
62
256
6
ByLayer
370
13
48
1
60
0
100
AcDbHatch
10
0
20
0
30
0
210
0
220
0
230
1
2
ANSI31
70
0
71
0
91
1
92
5
93
3
72
1
10
60
20
74.4824160886823
11
56.5000016925532
21
74.0216323471296
72
1
10
56.5000016925532
20
74.0216323471296
11
56.4999983074468
21
74.9431998302351
72
1
10
56.4999983074468
20
74.9431998302351
11
60
21
74.4824160886823
97
0
75
0
76
1
52
0
41
0.0062
77
0
78
1
53
45
43
0
44
0
45
-0.0139193969876572
46
0.0139193969876572
79
0
47
0
98
1
10
0
20
0
0
HATCH
5
1E2
100
AcDbEntity
8
SK2
62
256
6
ByLayer
370
13
48
1
60
0
100
AcDbHatch
10
0
20
0
30
0
210
0
220
0
230
1
2
ANSI31
70
0
71
0
91
1
92
5
93
3
72
1
10
0
20
74.4824160886823
11
3.49999830744682
21
74.9431998302351
72
1
10
3.49999830744682
20
74.9431998302351
11
3.50000169255318
21
74.0216323471296
72
1
10
3.50000169255318
20
74.0216323471296
11
0
21
74.4824160886823
97
0
75
0
76
1
52
0
41
0.0062
77
0
78
1
53
45
43
0
44
0
45
-0.0139193969876572
46
0.0139193969876572
79
0
47
0
98
1
10
0
20
0
0
HATCH
5
1E7
100
AcDbEntity
8
SK2
62
256
6
ByLayer
370
13
48
1
60
0
100
AcDbHatch
10
0
20
0
30
0
210
0
220
0
230
1
2
ANSI31
70
0
71
0
91
1
92
5
93
3
72
1
10
43
20
64.4824160886823
11
39.5000016925532
21
64.0216323471296
72
1
10
39.5000016925532
20
64.0216323471296
11
39.4999983074468
21
64.9431998302351
72
1
10
39.4999983074468
20
64.9431998302351
11
43
21
64.4824160886823
97
0
75
0
76
1
52
0
41
0.0062
77
0
78
1
53
45
43
0
44
0
45
-0.0139193969876572
46
0.0139193969876572
79
0
47
0
98
1
10
0
20
0
0
HATCH
5
1EB
100
AcDbEntity
8
SK2
62
256
6
ByLayer
370
13
48
1
60
0
100
AcDbHatch
10
0
20
0
30
0
210
0
220
0
230
1
2
ANSI31
70
0
71
0
91
1
92
5
93
3
72
1
10
0
20
64.4824160886823
11
3.49999830744682
21
64.9431998302351
72
1
10
3.49999830744682
20
64.9431998302351
11
3.50000169255318
21
64.0216323471296
72
1
10
3.50000169255318
20
64.0216323471296
11
0
21
64.4824160886823
97
0
75
0
76
1
52
0
41
0.0062
77
0
78
1
53
45
43
0
44
0
45
-0.0139193969876572
46
0.0139193969876572
79
0
47
0
98
1
10
0
20
0
0
HATCH
5
1F0
100
AcDbEntity
8
SK2
62
256
6
ByLayer
370
13
48
1
60
0
100
AcDbHatch
10
0
20
0
30
0
210
0
220
0
230
1
2
ANSI31
70
0
71
0
91
1
92
5
93
3
72
1
10
43
20
54.4824160886823
11
46.4999983074468
21
54.9431998302351
72
1
10
46.4999983074468
20
54.9431998302351
11
46.5000016925532
21
54.0216323471295
72
1
10
46.5000016925532
20
54.0216323471295
11
43
21
54.4824160886823
97
0
75
0
76
1
52
0
41
0.0062
77
0
78
1
53
45
43
0
44
0
45
-0.0139193969876572
46
0.0139193969876572
79
0
47
0
98
1
10
0
20
0
0
HATCH
5
1F4
100
AcDbEntity
8
SK2
62
256
6
ByLayer
370
13
48
1
60
0
100
AcDbHatch
10
0
20
0
30
0
210
0
220
0
230
1
2
ANSI31
70
0
71
0
91
1
92
5
93
3
72
1
10
60
20
54.4824160886823
11
56.5000016925532
21
54.0216323471295
72
1
10
56.5000016925532
20
54.0216323471295
11
56.4999983074468
21
54.9431998302351
72
1
10
56.4999983074468
20
54.9431998302351
11
60
21
54.4824160886823
97
0
75
0
76
1
52
0
41
0.0062
77
0
78
1
53
45
43
0
44
0
45
-0.0139193969876572
46
0.0139193969876572
79
0
47
0
98
1
10
0
20
0
0
HATCH
5
1F9
100
AcDbEntity
8
2
62
256
6
ByLayer
370
13
48
1
60
0
100
AcDbHatch
10
0
20
0
30
0
210
0
220
0
230
1
2
ANSI31
70
0
71
0
91
1
92
5
93
3
72
1
10
50
20
-51.4006444766206
11
46.5000016925532
21
-51.8614282181733
72
1
10
46.5000016925532
20
-51.8614282181733
11
46.4999983074468
21
-50.9398607350678
72
1
10
46.4999983074468
20
-50.9398607350678
11
50
21
-51.4006444766206
97
0
75
0
76
1
52
0
41
0.0062
77
0
78
1
53
45
43
0
44
0
45
-0.0139193969876572
46
0.0139193969876572
79
0
47
0
98
1
10
0
20
0
0
HATCH
5
1FD
100
AcDbEntity
8
2
62
256
6
ByLayer
370
13
48
1
60
0
100
AcDbHatch
10
0
20
0
30
0
210
0
220
0
230
1
2
ANSI31
70
0
71
0
91
1
92
5
93
3
72
1
10
0
20
-51.4006444766206
11
3.49999830744682
21
-50.9398607350678
72
1
10
3.49999830744682
20
-50.9398607350678
11
3.50000169255318
21
-51.8614282181733
72
1
10
3.50000169255318
20
-51.8614282181733
11
0
21
-51.4006444766206
97
0
75
0
76
1
52
0
41
0.0062
77
0
78
1
53
45
43
0
44
0
45
-0.0139193969876572
46
0.0139193969876572
79
0
47
0
98
1
10
0
20
0
0
ENDSEC
0
SECTION
2
OBJECTS
0
DICTIONARY
5
26c
330
0
100
AcDbDictionary
280
0
281
1
3
ACAD_GROUP
350
26d
3
ACAD_MLINESTYLE
350
26e
0
DICTIONARY
5
26d
330
0
100
AcDbDictionary
280
0
281
1
0
DICTIONARY
5
26e
330
0
100
AcDbDictionary
280
0
281
1
3
Standard
350
18
0
MLINESTYLE
5
18
330
26e
100
AcDbMlineStyle
2
Standard
70
0
3

62
256
51
90
52
90
71
2
49
-0.5
62
256
6
ByLayer
49
0.5
62
256
6
ByLayer
0
RASTERVARIABLES
5
25b
330

100
AcDbRasterVariables
90
0
70
1
71
1
72
1
0
ENDSEC
0
EOF
