0
SECTION
2
HEADER
9
$ACADVER
1
AC1015
9
$DWGCODEPAGE
3
ANSI_1252
9
$HANDSEED
5
262
9
$ANGBASE
50
0
9
$ANGDIR
70
0
9
$ATTMODE
70
1
9
$AUNITS
70
0
9
$AUPREC
70
0
9
$CECOLOR
62
256
9
$CELTSCALE
40
1
9
$CELTYPE
6
ByLayer
9
$CELWEIGHT
370
18
9
$CLAYER
8
0
9
$CMLJUST
70
0
9
$CMLSCALE
40
1
9
$CMLSTYLE
2
Standard
9
$DIMSTYLE
2
Standard
9
$TEXTSIZE
40
0.2
9
$TEXTSTYLE
7
Standard
9
$LUNITS
70
2
9
$LUPREC
70
4
9
$EXTNAMES
290
1
9
$INSUNITS
70
4
9
$LTSCALE
40
1
9
$LWDISPLAY
290
1
9
$PDMODE
70
0
9
$PDSIZE
40
0
9
$PLINEGEN
70
0
0
ENDSEC
0
SECTION
2
CLASSES
0
CLASS
1
RASTERVARIABLES
2
AcDbRasterVariables
3
ISM
90
0
280
0
281
0
0
ENDSEC
0
SECTION
2
TABLES
0
TABLE
2
VPORT
5
258
100
AcDbSymbolTable
0
VPORT
5
1
100
AcDbSymbolTableRecord
100
AcDbViewportTableRecord
2
*Active
70
0
10
0
20
0
11
1
21
1
12
-1
22
1
13
0
23
0
14
0.5
24
0.5
15
10
25
10
16
0
26
0
36
1
17
0
27
0
37
0
0
ENDTAB
0
TABLE
2
LTYPE
5
259
100
AcDbSymbolTable
0
LTYPE
5
14
100
AcDbSymbolTableRecord
100
AcDbLinetypeTableRecord
70
0
2
ByBlock
3

72
65
73
0
40
0
0
LTYPE
5
15
100
AcDbSymbolTableRecord
100
AcDbLinetypeTableRecord
70
0
2
ByLayer
3

72
65
73
0
40
0
0
LTYPE
5
16
100
AcDbSymbolTableRecord
100
AcDbLinetypeTableRecord
70
0
2
Continuous
3
Solid line
72
65
73
0
40
0
0
LTYPE
5
6E
100
AcDbSymbolTableRecord
100
AcDbLinetypeTableRecord
70
0
2
CENTER
3
____ _ ____ _ ____ _ ____
72
65
73
4
40
47.5
49
22
74
0
49
-8.5
74
0
49
8.5
74
0
49
-8.5
74
0
0
LTYPE
5
6F
100
AcDbSymbolTableRecord
100
AcDbLinetypeTableRecord
70
0
2
DASHED
3
__ __ __ __ __ __ __ __ __
72
65
73
2
40
25.72
49
12.86
74
0
49
-12.86
74
0
0
ENDTAB
0
TABLE
2
LAYER
5
25a
100
AcDbSymbolTable
0
LAYER
5
10
100
AcDbSymbolTableRecord
100
AcDbLayerTableRecord
2
0
70
0
62
7
6
Continuous
290
1
370
-3
390
0
0
LAYER
5
71
100
AcDbSymbolTableRecord
100
AcDbLayerTableRecord
2
2
70
0
62
7
6
Continuous
290
1
370
-3
390
0
0
LAYER
5
7B
100
AcDbSymbolTableRecord
100
AcDbLayerTableRecord
2
81
70
0
62
-3
6
Continuous
290
1
370
-3
390
0
0
LAYER
5
7D
100
AcDbSymbolTableRecord
100
AcDbLayerTableRecord
2
80
70
0
62
-6
6
Continuous
290
1
370
-3
390
0
0
LAYER
5
7F
100
AcDbSymbolTableRecord
100
AcDbLayerTableRecord
2
1
70
0
62
4
6
Continuous
290
1
370
-3
390
0
0
LAYER
5
86
100
AcDbSymbolTableRecord
100
AcDbLayerTableRecord
2
4
70
0
62
-2
6
CENTER
290
1
370
-3
390
0
0
LAYER
5
245
100
AcDbSymbolTableRecord
100
AcDbLayerTableRecord
2
SK1
70
0
62
4
6
Continuous
290
1
370
-3
390
0
0
LAYER
5
246
100
AcDbSymbolTableRecord
100
AcDbLayerTableRecord
2
SK2
70
0
62
7
6
Continuous
290
1
370
-3
390
0
0
LAYER
5
247
100
AcDbSymbolTableRecord
100
AcDbLayerTableRecord
2
SK6
70
0
62
5
6
Continuous
290
1
370
-3
390
0
0
ENDTAB
0
TABLE
2
STYLE
5
25b
100
AcDbSymbolTable
0
STYLE
5
11
100
AcDbSymbolTableRecord
100
AcDbTextStyleTableRecord
2
Standard
3
txt
70
0
71
0
40
0
41
1
42
0
50
0
0
STYLE
5
1A5
100
AcDbSymbolTableRecord
100
AcDbTextStyleTableRecord
2
iso_b_vert
3
simplex.shx
70
0
71
0
40
0
41
1
42
0
50
0
0
STYLE
5
1A6
100
AcDbSymbolTableRecord
100
AcDbTextStyleTableRecord
2
DWGDirectTextStyle
3
simplex
70
0
71
0
40
0
41
1
42
0
50
0
0
ENDTAB
0
TABLE
2
DIMSTYLE
5
25c
100
AcDbSymbolTable
100
AcDbDimStyleTable
0
DIMSTYLE
105
27
100
AcDbSymbolTableRecord
100
AcDbDimStyleTableRecord
2
Standard
70
0
3
<>
41
0.18
42
0.0625
44
0.18
140
0.18
147
0.09
73
0
74
0
77
1
271
2
275
0
278
52
280
0
340
11
0
ENDTAB
0
TABLE
2
VIEW
5
25d
100
AcDbSymbolTable
0
ENDTAB
0
TABLE
2
UCS
5
25e
100
AcDbSymbolTable
0
ENDTAB
0
TABLE
2
APPID
5
25f
100
AcDbSymbolTable
0
APPID
5
12
100
AcDbSymbolTableRecord
100
AcDbRegAppTableRecord
2
ACAD
70
0
0
APPID
5
241
100
AcDbSymbolTableRecord
100
AcDbRegAppTableRecord
2
ACAD_MLEADERVER
70
0
0
ENDTAB
0
TABLE
2
BLOCK_RECORD
5
260
100
AcDbSymbolTable
0
BLOCK_RECORD
5
1F
100
AcDbSymbolTableRecord
100
AcDbBlockTableRecord
2
*Model_Space
340
0
70
0
0
BLOCK_RECORD
5
1B
100
AcDbSymbolTableRecord
100
AcDbBlockTableRecord
2
*Paper_Space
340
0
70
0
0
BLOCK_RECORD
5
23
100
AcDbSymbolTableRecord
100
AcDbBlockTableRecord
2
*Paper_Space0
340
0
70
0
0
ENDTAB
0
ENDSEC
0
SECTION
2
BLOCKS
0
BLOCK
5
20
100
AcDbEntity
8
0
100
AcDbBlockBegin
2
*Model_Space
70
0
10
0
20
0
30
0
3
*Model_Space
0
ENDBLK
5
21
100
AcDbEntity
8
0
100
AcDbBlockEnd
0
BLOCK
5
1C
100
AcDbEntity
8
0
100
AcDbBlockBegin
2
*Paper_Space
70
0
10
0
20
0
30
0
3
*Paper_Space
0
ENDBLK
5
1D
100
AcDbEntity
8
0
100
AcDbBlockEnd
0
BLOCK
5
24
100
AcDbEntity
8
0
100
AcDbBlockBegin
2
*Paper_Space0
70
0
10
0
20
0
30
0
3
*Paper_Space0
0
ENDBLK
5
25
100
AcDbEntity
8
0
100
AcDbBlockEnd
0
ENDSEC
0
SECTION
2
ENTITIES
0
ARC
5
14B
100
AcDbEntity
8
1
62
256
6
ByLayer
370
18
48
1
60
0
100
AcDbCircle
39
0
10
30.15
20
-34.075
30
0
40
1.2
210
0
220
0
230
1
100
AcDbArc
50
90
51
180
0
ARC
5
14C
100
AcDbEntity
8
1
62
256
6
ByLayer
370
18
48
1
60
0
100
AcDbCircle
39
0
10
30.15
20
34.075
30
0
40
1.2
210
0
220
0
230
1
100
AcDbArc
50
180
51
270
0
ARC
5
14D
100
AcDbEntity
8
1
62
256
6
ByLayer
370
18
48
1
60
0
100
AcDbCircle
39
0
10
21.525
20
-46.375
30
0
40
0.399999999999999
210
0
220
0
230
1
100
AcDbArc
50
0
51
90
0
ARC
5
14E
100
AcDbEntity
8
1
62
256
6
ByLayer
370
18
48
1
60
0
100
AcDbCircle
39
0
10
18.475
20
46.375
30
0
40
0.399999999999999
210
0
220
0
230
1
100
AcDbArc
50
180
51
270
0
ARC
5
14F
100
AcDbEntity
8
1
62
256
6
ByLayer
370
18
48
1
60
0
100
AcDbCircle
39
0
10
18.475
20
-46.375
30
0
40
0.399999999999999
210
0
220
0
230
1
100
AcDbArc
50
90
51
180
0
ARC
5
150
100
AcDbEntity
8
1
62
256
6
ByLayer
370
18
48
1
60
0
100
AcDbCircle
39
0
10
21.525
20
46.375
30
0
40
0.399999999999999
210
0
220
0
230
1
100
AcDbArc
50
270
51
0
0
ARC
5
151
100
AcDbEntity
8
SK1
62
256
6
ByLayer
370
18
48
1
60
0
100
AcDbCircle
39
0
10
-47.9
20
-33.605194
30
0
40
2
210
0
220
0
230
1
100
AcDbArc
50
180
51
267.131868
0
ARC
5
152
100
AcDbEntity
8
SK1
62
256
6
ByLayer
370
18
48
1
60
0
100
AcDbCircle
39
0
10
-47.9
20
33.605194
30
0
40
2
210
0
220
0
230
1
100
AcDbArc
50
92.868132
51
180
0
ARC
5
153
100
AcDbEntity
8
SK1
62
256
6
ByLayer
370
18
48
1
60
0
100
AcDbCircle
39
0
10
-0.8
20
38.632252
30
0
40
1
210
0
220
0
230
1
100
AcDbArc
50
270
51
323.130102
0
ARC
5
154
100
AcDbEntity
8
SK1
62
256
6
ByLayer
370
18
48
1
60
0
100
AcDbCircle
39
0
10
-0.8
20
-38.632252
30
0
40
1
210
0
220
0
230
1
100
AcDbArc
50
36.869898
51
90
0
ARC
5
156
100
AcDbEntity
8
SK1
62
256
6
ByLayer
370
18
48
1
60
0
100
AcDbCircle
39
0
10
-36.7
20
8.06375
30
0
40
1.9
210
0
220
0
230
1
100
AcDbArc
50
0
51
90
0
ARC
5
157
100
AcDbEntity
8
SK1
62
256
6
ByLayer
370
18
48
1
60
0
100
AcDbCircle
39
0
10
-36.7
20
-8.06375
30
0
40
1.9
210
0
220
0
230
1
100
AcDbArc
50
270
51
0
0
CIRCLE
5
155
100
AcDbEntity
8
1
62
256
6
ByLayer
370
18
48
1
60
0
100
AcDbCircle
10
20
20
0
30
0
40
1.00000000000001
39
0
210
0
220
0
230
1
0
CIRCLE
5
158
100
AcDbEntity
8
SK1
62
256
6
ByLayer
370
18
48
1
60
0
100
AcDbCircle
10
-15
20
0
30
0
40
5.99999999999999
39
0
210
0
220
0
230
1
0
ELLIPSE
5
159
100
AcDbEntity
8
1
62
256
6
ByLayer
370
18
48
1
60
0
100
AcDbEllipse
10
50
20
18.125
30
0
11
-3.7
21
4.5310435091428E-16
31
0
210
0
220
0
230
1
40
0.866025
41
-1.5707963267949
42
0.491659168954695
0
ELLIPSE
5
15A
100
AcDbEntity
8
1
62
256
6
ByLayer
370
18
48
1
60
0
100
AcDbEllipse
10
50
20
-18.125
30
0
11
3.7
21
0
31
0
210
0
220
0
230
1
40
0.866025
41
2.63903603971002
42
-1.5707963267949
0
ELLIPSE
5
15B
100
AcDbEntity
8
1
62
256
6
ByLayer
370
18
48
1
60
0
100
AcDbEllipse
10
50
20
18.3375
30
0
11
-4.125
21
5.05150120951731E-16
31
0
210
0
220
0
230
1
40
0.866025
41
-1.5707963267949
42
0.321915057408601
0
ELLIPSE
5
15C
100
AcDbEntity
8
1
62
256
6
ByLayer
370
18
48
1
60
0
100
AcDbEllipse
10
50
20
-18.3375
30
0
11
4.125
21
0
31
0
210
0
220
0
230
1
40
0.866025
41
2.82704059669568
42
-1.5707963267949
0
ELLIPSE
5
15D
100
AcDbEntity
8
SK1
62
256
6
ByLayer
370
13
48
1
60
0
100
AcDbEllipse
10
-36.7
20
17.921806
30
0
11
-1.9
21
2.32675207226252E-16
31
0
210
0
220
0
230
1
40
0.45399
41
1.5707963267949
42
2.057660152551
0
ELLIPSE
5
15E
100
AcDbEntity
8
SK1
62
256
6
ByLayer
370
13
48
1
60
0
100
AcDbEllipse
10
-36.7
20
-17.921806
30
0
11
1.9
21
0
31
0
210
0
220
0
230
1
40
0.45399
41
1.08393250103923
42
1.5707963267949
0
POINT
5
70
100
AcDbEntity
8
2
62
256
6
ByLayer
370
18
48
1
60
0
100
AcDbPoint
10
48
20
0
30
0
39
0
210
0
220
0
230
1
50
360
0
POINT
5
72
100
AcDbEntity
8
2
62
256
6
ByLayer
370
18
48
1
60
0
100
AcDbPoint
10
48
20
27
30
0
39
0
210
0
220
0
230
1
50
360
0
POINT
5
73
100
AcDbEntity
8
2
62
256
6
ByLayer
370
18
48
1
60
0
100
AcDbPoint
10
48
20
0
30
0
39
0
210
0
220
0
230
1
50
360
0
POINT
5
74
100
AcDbEntity
8
2
62
256
6
ByLayer
370
18
48
1
60
0
100
AcDbPoint
10
48
20
0
30
0
39
0
210
0
220
0
230
1
50
360
0
POINT
5
75
100
AcDbEntity
8
2
62
256
6
ByLayer
370
18
48
1
60
0
100
AcDbPoint
10
0
20
0
30
0
39
0
210
0
220
0
230
1
50
360
0
POINT
5
76
100
AcDbEntity
8
2
62
256
6
ByLayer
370
18
48
1
60
0
100
AcDbPoint
10
48
20
27
30
0
39
0
210
0
220
0
230
1
50
360
0
POINT
5
77
100
AcDbEntity
8
2
62
256
6
ByLayer
370
18
48
1
60
0
100
AcDbPoint
10
48
20
0
30
0
39
0
210
0
220
0
230
1
50
360
0
POINT
5
78
100
AcDbEntity
8
2
62
256
6
ByLayer
370
18
48
1
60
0
100
AcDbPoint
10
48
20
27
30
0
39
0
210
0
220
0
230
1
50
360
0
POINT
5
79
100
AcDbEntity
8
2
62
256
6
ByLayer
370
18
48
1
60
0
100
AcDbPoint
10
31
20
0
30
0
39
0
210
0
220
0
230
1
50
360
0
POINT
5
7A
100
AcDbEntity
8
81
62
256
6
ByLayer
370
18
48
1
60
0
100
AcDbPoint
10
48
20
0
30
0
39
0
210
0
220
0
230
1
50
360
0
POINT
5
7C
100
AcDbEntity
8
80
62
256
6
ByLayer
370
18
48
1
60
0
100
AcDbPoint
10
0
20
0
30
0
39
0
210
0
220
0
230
1
50
360
0
POINT
5
7E
100
AcDbEntity
8
1
62
256
6
ByLayer
370
13
48
1
60
1
100
AcDbPoint
10
20
20
47.422472
30
0
39
0
210
0
220
0
230
1
50
360
0
POINT
5
80
100
AcDbEntity
8
1
62
256
6
ByLayer
370
13
48
1
60
1
100
AcDbPoint
10
20
20
41.200875
30
0
39
0
210
0
220
0
230
1
50
360
0
POINT
5
81
100
AcDbEntity
8
1
62
256
6
ByLayer
370
13
48
1
60
1
100
AcDbPoint
10
-49.75
20
0
30
0
39
0
210
0
220
0
230
1
50
360
0
POINT
5
82
100
AcDbEntity
8
1
62
256
6
ByLayer
370
13
48
1
60
1
100
AcDbPoint
10
40.890673
20
0
30
0
39
0
210
0
220
0
230
1
50
360
0
POINT
5
83
100
AcDbEntity
8
1
62
256
6
ByLayer
370
13
48
1
60
1
100
AcDbPoint
10
61.5
20
0
30
0
39
0
210
0
220
0
230
1
50
360
0
POINT
5
84
100
AcDbEntity
8
1
62
256
6
ByLayer
370
13
48
1
60
1
100
AcDbPoint
10
37.5
20
0
30
0
39
0
210
0
220
0
230
1
50
360
0
SPLINE
5
15F
100
AcDbEntity
8
1
62
256
6
ByLayer
370
18
48
1
60
0
100
AcDbSpline
70
4
71
3
72
52
73
48
40
0
40
0
40
0
40
0
40
0.0624999999999964
40
0.0624999999999964
40
0.124999999999993
40
0.124999999999993
40
0.15624999999999
40
0.15624999999999
40
0.171874999999988
40
0.171874999999988
40
0.187499999999986
40
0.187499999999986
40
0.249999999999979
40
0.312499999999973
40
0.312499999999973
40
0.328124999999972
40
0.328124999999972
40
0.343749999999971
40
0.37499999999997
40
0.37499999999997
40
0.437499999999967
40
0.437499999999967
40
0.468749999999966
40
0.468749999999966
40
0.484374999999967
40
0.484374999999967
40
0.499999999999968
40
0.499999999999968
40
0.562499999999973
40
0.624999999999979
40
0.624999999999979
40
0.656249999999982
40
0.656249999999982
40
0.687499999999984
40
0.687499999999984
40
0.749999999999989
40
0.749999999999989
40
0.781249999999991
40
0.781249999999991
40
0.812499999999992
40
0.812499999999992
40
0.874999999999994
40
0.937499999999996
40
0.937499999999996
40
0.968749999999998
40
0.968749999999998
40
1
40
1
40
1
40
1
41
1
10
18.4750000000001
20
45.4177057068928
30
0
41
1
10
18.5131930808129
20
45.4282401035344
30
0
41
1
10
18.5554606478648
20
45.4381136869635
30
0
41
1
10
18.6478179474985
20
45.4566607629005
30
0
41
1
10
18.6979086926175
20
45.4653338936089
30
0
41
1
10
18.778982371423
20
45.4774884886754
30
0
41
1
10
18.8069996678944
20
45.4813970665735
30
0
41
1
10
18.8505536464381
20
45.4870471981333
30
0
41
1
10
18.86530294384
20
45.4888917756284
30
0
41
1
10
18.8950955856764
20
45.4924846390733
30
0
41
1
10
18.9101625115517
20
45.4942360168509
30
0
41
1
10
18.9863395554147
20
45.5027733570547
30
0
41
1
10
19.1135926887498
20
45.5150344539884
30
0
41
1
10
19.2514036903978
20
45.5246838080133
30
0
41
1
10
19.3409544661049
20
45.5299076460753
30
0
41
1
10
19.3590520089525
20
45.5309125077375
30
0
41
1
10
19.3953229586331
20
45.5328269057902
30
0
41
1
10
19.449938166759
20
45.5355612565281
30
0
41
1
10
19.5051707053841
20
45.5378933746879
30
0
41
1
10
19.6164454423368
20
45.5420380112818
30
0
41
1
10
19.691704682221
20
45.5441110444607
30
0
41
1
10
19.8062181220338
20
45.5462007902096
30
0
41
1
10
19.8446608919082
20
45.546726719729
30
0
41
1
10
19.902741962189
20
45.5472551242484
30
0
41
1
10
19.9222082263659
20
45.5473878923171
30
0
41
1
10
19.9610432866326
20
45.5475643683662
30
0
41
1
10
19.9804206757318
20
45.5476083511067
30
0
41
1
10
20.0771097084013
20
45.5476101677026
30
0
41
1
10
20.2305507204109
20
45.5462245146832
30
0
41
1
10
20.3815254793059
20
45.5421044575915
30
0
41
1
10
20.4938039217153
20
45.5379360085788
30
0
41
1
10
20.5311267422993
20
45.5363618734392
30
0
41
1
10
20.6043513378545
20
45.532891944917
30
0
41
1
10
20.6403890093399
20
45.530991817569
30
0
41
1
10
20.7468111863414
20
45.5247960222789
30
0
41
1
10
20.8155120434475
20
45.5200074806351
30
0
41
1
10
20.9151902047725
20
45.5117918402699
30
0
41
1
10
20.9478522755728
20
45.5088805298285
30
0
41
1
10
21.0120256139637
20
45.5026966909818
30
0
41
1
10
21.0436243918521
20
45.4994130173258
30
0
41
1
10
21.1353630867131
20
45.4891382328376
30
0
41
1
10
21.2502847567808
20
45.4742530695365
30
0
41
1
10
21.3508223253874
20
45.4569143091999
30
0
41
1
10
21.4206978904475
20
45.4429109582394
30
0
41
1
10
21.4431137195574
20
45.4380639570225
30
0
41
1
10
21.4857057869269
20
45.4280961070812
30
0
41
1
10
21.5059034870286
20
45.4229728976465
30
0
41
1
10
21.5250000000002
20
45.4177057068927
30
0
0
SPLINE
5
160
100
AcDbEntity
8
1
62
256
6
ByLayer
370
18
48
1
60
0
100
AcDbSpline
70
4
71
3
72
52
73
48
40
0
40
0
40
0
40
0
40
0.0625000000000091
40
0.0625000000000091
40
0.125000000000018
40
0.125000000000018
40
0.156250000000022
40
0.156250000000022
40
0.171875000000023
40
0.171875000000023
40
0.187500000000023
40
0.187500000000023
40
0.250000000000024
40
0.312500000000025
40
0.312500000000025
40
0.328125000000026
40
0.328125000000026
40
0.343750000000027
40
0.375000000000031
40
0.375000000000031
40
0.437500000000041
40
0.437500000000041
40
0.468750000000044
40
0.468750000000044
40
0.484375000000044
40
0.484375000000044
40
0.500000000000044
40
0.500000000000044
40
0.562500000000037
40
0.625000000000029
40
0.625000000000029
40
0.656250000000025
40
0.656250000000025
40
0.687500000000022
40
0.687500000000022
40
0.750000000000016
40
0.750000000000016
40
0.781250000000014
40
0.781250000000014
40
0.812500000000011
40
0.812500000000011
40
0.875000000000007
40
0.937500000000003
40
0.937500000000003
40
0.968750000000001
40
0.968750000000001
40
1
40
1
40
1
40
1
41
1
10
21.5250000000002
20
45.1195815714781
30
0
41
1
10
21.4868069191874
20
45.1065514886977
30
0
41
1
10
21.4445393521355
20
45.0940088833776
30
0
41
1
10
21.3521820525019
20
45.0699274918839
30
0
41
1
10
21.3020913073828
20
45.0583886309091
30
0
41
1
10
21.2210176285774
20
45.0418976939086
30
0
41
1
10
21.193000332106
20
45.0365373889624
30
0
41
1
10
21.1494463535624
20
45.0287145425449
30
0
41
1
10
21.1346970561604
20
45.0261477798033
30
0
41
1
10
21.104904414324
20
45.0211250502974
30
0
41
1
10
21.0898374884487
20
45.0186648082821
30
0
41
1
10
21.0136604445857
20
45.0066189187686
30
0
41
1
10
20.8864073112507
20
44.9889738319142
30
0
41
1
10
20.7485963096027
20
44.9746669075076
30
0
41
1
10
20.6590455338957
20
44.9668443642354
30
0
41
1
10
20.640947991048
20
44.9653350596848
30
0
41
1
10
20.6046770413674
20
44.962452270241
30
0
41
1
10
20.5500618332415
20
44.9583231937532
30
0
41
1
10
20.4948292946165
20
44.9547745416958
30
0
41
1
10
20.3835545576637
20
44.9484463392982
30
0
41
1
10
20.3082953177795
20
44.9452502276733
30
0
41
1
10
20.1937818779668
20
44.9420217394222
30
0
41
1
10
20.1553391080923
20
44.9412072085839
30
0
41
1
10
20.0972580378116
20
44.9403884186257
30
0
41
1
10
20.0777917736347
20
44.9401825584009
30
0
41
1
10
20.0389567133679
20
44.9399088928259
30
0
41
1
10
20.0195793242688
20
44.9398406619296
30
0
41
1
10
19.9228902915992
20
44.9398378441799
30
0
41
1
10
19.7694493182331
20
44.9419913092671
30
0
41
1
10
19.6184745206946
20
44.9483444791322
30
0
41
1
10
19.5061960782852
20
44.9547096445997
30
0
41
1
10
19.4688732577013
20
44.9571050212856
30
0
41
1
10
19.395648662146
20
44.9623571116746
30
0
41
1
10
19.3596109906606
20
44.9652204792959
30
0
41
1
10
19.2531888136592
20
44.9744995933726
30
0
41
1
10
19.184487956553
20
44.98160184958
30
0
41
1
10
19.084809795228
20
44.9935857902298
30
0
41
1
10
19.0521477244277
20
44.9978028298076
30
0
41
1
10
18.9879743860368
20
45.0066821072471
30
0
41
1
10
18.9563756081483
20
45.0113598577862
30
0
41
1
10
18.8646369132873
20
45.02585836291
30
0
41
1
10
18.7497151339961
20
45.0465128233415
30
0
41
1
10
18.649177674613
20
45.069594390286
30
0
41
1
10
18.5793021095528
20
45.0877820305388
30
0
41
1
10
18.5568862804429
20
45.0940063501908
30
0
41
1
10
18.5142942130734
20
45.1066468703864
30
0
41
1
10
18.4940965129717
20
45.1130665394475
30
0
41
1
10
18.4750000000001
20
45.119581571478
30
0
0
SPLINE
5
161
100
AcDbEntity
8
1
62
256
6
ByLayer
370
18
48
1
60
0
100
AcDbSpline
70
4
71
3
72
30
73
26
40
0
40
0
40
0
40
0
40
0.125000000000033
40
0.125000000000033
40
0.187500000000042
40
0.187500000000042
40
0.250000000000051
40
0.312500000000059
40
0.312500000000059
40
0.375000000000068
40
0.375000000000068
40
0.500000000000072
40
0.500000000000072
40
0.562500000000068
40
0.562500000000068
40
0.625000000000064
40
0.625000000000064
40
0.750000000000046
40
0.750000000000046
40
0.812500000000035
40
0.812500000000035
40
0.875000000000023
40
0.937500000000012
40
0.937500000000012
40
1
40
1
40
1
40
1
41
1
10
21.5249999999982
20
-11.021
30
0
41
1
10
21.5514658257388
20
-11.021
30
0
41
1
10
21.5778123376985
20
-11.021
30
0
41
1
10
21.6171472985982
20
-11.021
30
0
41
1
10
21.6300776915161
20
-11.021
30
0
41
1
10
21.655361637766
20
-11.021
30
0
41
1
10
21.6801433404142
20
-11.021
30
0
41
1
10
21.7039336034374
20
-11.021
30
0
41
1
10
21.7272199704534
20
-11.021
30
0
41
1
10
21.7386238958465
20
-11.021
30
0
41
1
10
21.7713302338266
20
-11.021
30
0
41
1
10
21.7914054108744
20
-11.021
30
0
41
1
10
21.8189753761473
20
-11.021
30
0
41
1
10
21.8277813540116
20
-11.021
30
0
41
1
10
21.8442700953322
20
-11.021
30
0
41
1
10
21.8519480792141
20
-11.021
30
0
41
1
10
21.8733390297165
20
-11.021
30
0
41
1
10
21.8854242332153
20
-11.021
30
0
41
1
10
21.9002268661626
20
-11.021
30
0
41
1
10
21.9045542912653
20
-11.021
30
0
41
1
10
21.9119490720266
20
-11.021
30
0
41
1
10
21.9181144875678
20
-11.021
30
0
41
1
10
21.9218542195073
20
-11.021
30
0
41
1
10
21.9243633939713
20
-11.021
30
0
41
1
10
21.9250110011002
20
-11.021
30
0
41
1
10
21.9249952495252
20
-11.021
30
0
0
SPLINE
5
162
100
AcDbEntity
8
1
62
256
6
ByLayer
370
18
48
1
60
0
100
AcDbSpline
70
4
71
3
72
30
73
26
40
0
40
0
40
0
40
0
40
0.124999999999956
40
0.124999999999956
40
0.187499999999946
40
0.187499999999946
40
0.249999999999935
40
0.312499999999925
40
0.312499999999925
40
0.374999999999914
40
0.374999999999914
40
0.499999999999898
40
0.499999999999898
40
0.562499999999902
40
0.562499999999902
40
0.624999999999906
40
0.624999999999906
40
0.749999999999941
40
0.749999999999941
40
0.812499999999956
40
0.812499999999956
40
0.874999999999971
40
0.937499999999985
40
0.937499999999985
40
1
40
1
40
1
40
1
41
1
10
18.4750000000001
20
11.021
30
0
41
1
10
18.4485341742597
20
11.021
30
0
41
1
10
18.4221876623
20
11.021
30
0
41
1
10
18.3828527014005
20
11.021
30
0
41
1
10
18.3699223084827
20
11.021
30
0
41
1
10
18.3446383622328
20
11.021
30
0
41
1
10
18.3198566554285
20
11.021
30
0
41
1
10
18.2960663965617
20
11.021
30
0
41
1
10
18.2727800295458
20
11.021
30
0
41
1
10
18.2613761041527
20
11.021
30
0
41
1
10
18.2286697661728
20
11.021
30
0
41
1
10
18.2085945891251
20
11.021
30
0
41
1
10
18.1810246238524
20
11.021
30
0
41
1
10
18.1722186459881
20
11.021
30
0
41
1
10
18.1557299046676
20
11.021
30
0
41
1
10
18.1480519207858
20
11.021
30
0
41
1
10
18.1266609702835
20
11.021
30
0
41
1
10
18.1145757667848
20
11.021
30
0
41
1
10
18.0997731338375
20
11.021
30
0
41
1
10
18.0954457087348
20
11.021
30
0
41
1
10
18.0880509279736
20
11.021
30
0
41
1
10
18.0818855098978
20
11.021
30
0
41
1
10
18.0781457804929
20
11.021
30
0
41
1
10
18.075636606029
20
11.021
30
0
41
1
10
18.0749889989001
20
11.0210000000001
30
0
41
1
10
18.0750047504751
20
11.0209999999999
30
0
0
SPLINE
5
163
100
AcDbEntity
8
1
62
256
6
ByLayer
370
18
48
1
60
0
100
AcDbSpline
70
4
71
3
72
32
73
28
40
0
40
0
40
0
40
0
40
0.125000000000013
40
0.125000000000013
40
0.250000000000026
40
0.250000000000026
40
0.281250000000029
40
0.281250000000029
40
0.312500000000031
40
0.312500000000031
40
0.375000000000031
40
0.375000000000031
40
0.500000000000034
40
0.500000000000034
40
0.562500000000033
40
0.562500000000033
40
0.593750000000031
40
0.593750000000031
40
0.62500000000003
40
0.62500000000003
40
0.75000000000002
40
0.75000000000002
40
0.87500000000001
40
0.87500000000001
40
0.937500000000005
40
0.937500000000005
40
1
40
1
40
1
40
1
41
1
10
18.4750000000001
20
45.119581571478
30
0
41
1
10
18.4377864466612
20
45.1322774752972
30
0
41
1
10
18.4054492427889
20
45.1500575939043
30
0
41
1
10
18.3497108149511
20
45.189719781936
30
0
41
1
10
18.3263174295068
20
45.2116806655758
30
0
41
1
10
18.3026347247877
20
45.2389668848321
30
0
41
1
10
18.2981777768654
20
45.2444170977807
30
0
41
1
10
18.2898288157941
20
45.2552364221602
30
0
41
1
10
18.2859353635674
20
45.2606089114671
30
0
41
1
10
18.2751840579966
20
45.2763970731349
30
0
41
1
10
18.2692244159246
20
45.2865162769309
30
0
41
1
10
18.2549017237893
20
45.3150139016756
30
0
41
1
10
18.250079691989
20
45.3314415856494
30
0
41
1
10
18.2499616171529
20
45.3509443897011
30
0
41
1
10
18.251111974268
20
45.3566103770955
30
0
41
1
10
18.2546595041354
20
45.3639119298485
30
0
41
1
10
18.2561459141042
20
45.36614780851
30
0
41
1
10
18.2597356429362
20
45.3702512724835
30
0
41
1
10
18.261839368491
20
45.3721167479223
30
0
41
1
10
18.2738091220134
20
45.3805615004973
30
0
41
1
10
18.2880551680473
20
45.3845321627459
30
0
41
1
10
18.3256409102619
20
45.3909978487505
30
0
41
1
10
18.3489787734403
20
45.3934875945267
30
0
41
1
10
18.3911622507964
20
45.3996902864256
30
0
41
1
10
18.4063797715673
20
45.4021708108457
30
0
41
1
10
18.4390017274135
20
45.4086176655123
30
0
41
1
10
18.4564279174876
20
45.4125831642876
30
0
41
1
10
18.4749999999985
20
45.4177057068913
30
0
0
SPLINE
5
164
100
AcDbEntity
8
1
62
256
6
ByLayer
370
18
48
1
60
0
100
AcDbSpline
70
4
71
3
72
31
73
27
40
0
40
0
40
0
40
0
40
0.0598617438831082
40
0.0598617438831082
40
0.122537627624271
40
0.122537627624271
40
0.247889395106562
40
0.247889395106562
40
0.310565278847692
40
0.310565278847692
40
0.373241162588822
40
0.373241162588822
40
0.498592930071083
40
0.498592930071083
40
0.561268813812195
40
0.561268813812195
40
0.623944697553308
40
0.686620581294421
40
0.686620581294421
40
0.749296465035533
40
0.749296465035533
40
0.874648232517759
40
0.874648232517759
40
0.937324116258879
40
0.937324116258879
40
1
40
1
40
1
40
1
41
1
10
18.0750000000028
20
-11.0209999999999
30
0
41
1
10
18.0750613851027
20
-11.021
30
0
41
1
10
18.0756748279925
20
-11.021
30
0
41
1
10
18.0781273604824
20
-11.021
30
0
41
1
10
18.0800214434278
20
-11.021
30
0
41
1
10
18.0874930358665
20
-11.021
30
0
41
1
10
18.0948638931354
20
-11.021
30
0
41
1
10
18.1095281633045
20
-11.021
30
0
41
1
10
18.115047321914
20
-11.021
30
0
41
1
10
18.1272345767073
20
-11.021
30
0
41
1
10
18.1338543031811
20
-11.021
30
0
41
1
10
18.1552543785188
20
-11.021
30
0
41
1
10
18.1715607229501
20
-11.021
30
0
41
1
10
18.1991984075215
20
-11.021
30
0
41
1
10
18.2089726767832
20
-11.021
30
0
41
1
10
18.2291643079732
20
-11.021
30
0
41
1
10
18.2500967411406
20
-11.021
30
0
41
1
10
18.2724948657075
20
-11.021
30
0
41
1
10
18.2956393797901
20
-11.021
30
0
41
1
10
18.3076255402957
20
-11.021
30
0
41
1
10
18.3444895086937
20
-11.021
30
0
41
1
10
18.369738280819
20
-11.021
30
0
41
1
10
18.4085946056629
20
-11.021
30
0
41
1
10
18.4217117815292
20
-11.021
30
0
41
1
10
18.4482868577837
20
-11.021
30
0
41
1
10
18.4617141931378
20
-11.021
30
0
41
1
10
18.4750000000001
20
-11.021
30
0
0
SPLINE
5
165
100
AcDbEntity
8
1
62
256
6
ByLayer
370
18
48
1
60
0
100
AcDbSpline
70
4
71
3
72
31
73
27
40
0
40
0
40
0
40
0
40
0.0598617454256696
40
0.0598617454256696
40
0.122537629063991
40
0.122537629063991
40
0.247889396340638
40
0.247889396340638
40
0.310565279978943
40
0.310565279978943
40
0.373241163617247
40
0.373241163617247
40
0.49859293089383
40
0.49859293089383
40
0.561268814532103
40
0.561268814532103
40
0.623944698170377
40
0.686620581808651
40
0.686620581808651
40
0.749296465446924
40
0.749296465446924
40
0.874648232723473
40
0.874648232723473
40
0.937324116361737
40
0.937324116361737
40
1
40
1
40
1
40
1
41
1
10
21.9250000000025
20
11.0209999999999
30
0
41
1
10
21.9249386149313
20
11.0209999999999
30
0
41
1
10
21.9243251720407
20
11.021
30
0
41
1
10
21.9218726395179
20
11.021
30
0
41
1
10
21.9199785565727
20
11.021
30
0
41
1
10
21.912506964134
20
11.021
30
0
41
1
10
21.9051361068652
20
11.021
30
0
41
1
10
21.8904718366961
20
11.021
30
0
41
1
10
21.8849526780866
20
11.021
30
0
41
1
10
21.8727654232933
20
11.021
30
0
41
1
10
21.8661456968196
20
11.021
30
0
41
1
10
21.8447456214819
20
11.021
30
0
41
1
10
21.8284392770505
20
11.021
30
0
41
1
10
21.8008015924792
20
11.021
30
0
41
1
10
21.7910273232174
20
11.021
30
0
41
1
10
21.7708356920275
20
11.021
30
0
41
1
10
21.7499032721752
20
11.021
30
0
41
1
10
21.7275051342931
20
11.021
30
0
41
1
10
21.7043606202104
20
11.021
30
0
41
1
10
21.6923744597048
20
11.021
30
0
41
1
10
21.6555104913068
20
11.021
30
0
41
1
10
21.6302617191815
20
11.021
30
0
41
1
10
21.5914053943375
20
11.021
30
0
41
1
10
21.5782882184712
20
11.021
30
0
41
1
10
21.5517131422166
20
11.021
30
0
41
1
10
21.5382858068625
20
11.021
30
0
41
1
10
21.5250000000002
20
11.021
30
0
0
SPLINE
5
166
100
AcDbEntity
8
1
62
256
6
ByLayer
370
18
48
1
60
0
100
AcDbSpline
70
4
71
3
72
32
73
28
40
0
40
0
40
0
40
0
40
0.124999999999994
40
0.124999999999994
40
0.249999999999989
40
0.249999999999989
40
0.281249999999987
40
0.281249999999987
40
0.312499999999986
40
0.312499999999986
40
0.374999999999981
40
0.374999999999981
40
0.499999999999974
40
0.499999999999974
40
0.56249999999997
40
0.56249999999997
40
0.593749999999971
40
0.593749999999971
40
0.624999999999972
40
0.624999999999972
40
0.749999999999983
40
0.749999999999983
40
0.874999999999994
40
0.874999999999994
40
0.937499999999997
40
0.937499999999997
40
1
40
1
40
1
40
1
41
1
10
21.5250000000002
20
45.4177057068927
30
0
41
1
10
21.562213553339
20
45.407441483034
30
0
41
1
10
21.5945507572114
20
45.4018022521571
30
0
41
1
10
21.650289185049
20
45.3935842298266
30
0
41
1
10
21.6736825704932
20
45.3910862233466
30
0
41
1
10
21.6973652752124
20
45.3870467324894
30
0
41
1
10
21.7018222231347
20
45.3861940248329
30
0
41
1
10
21.710171184206
20
45.3843286087976
30
0
41
1
10
21.7140646364327
20
45.3833146819361
30
0
41
1
10
21.7248159420035
20
45.3799545391365
30
0
41
1
10
21.7307755840754
20
45.3772808340348
30
0
41
1
10
21.7450982762107
20
45.3673113440865
30
0
41
1
10
21.749920308011
20
45.3579756530297
30
0
41
1
10
21.7500383828471
20
45.3386399072616
30
0
41
1
10
21.7488880257321
20
45.3313276433921
30
0
41
1
10
21.7453404958646
20
45.3191136630103
30
0
41
1
10
21.7438540858958
20
45.3148363523192
30
0
41
1
10
21.7402643570638
20
45.3058975686556
30
0
41
1
10
21.738160631509
20
45.3012381872404
30
0
41
1
10
21.7261908779867
20
45.2772881975344
30
0
41
1
10
21.7119448319527
20
45.2558586824519
30
0
41
1
10
21.6743590897382
20
45.2123688518471
30
0
41
1
10
21.6510212265598
20
45.1903033128275
30
0
41
1
10
21.6088377492038
20
45.1601933693725
30
0
41
1
10
21.5936202284329
20
45.150700294795
30
0
41
1
10
21.5609982725868
20
45.1335724616284
30
0
41
1
10
21.5435720825126
20
45.1259176870076
30
0
41
1
10
21.5250000000018
20
45.1195815714764
30
0
0
SPLINE
5
167
100
AcDbEntity
8
1
62
256
6
ByLayer
370
18
48
1
60
0
100
AcDbSpline
70
4
71
3
72
8
73
4
40
0
40
0
40
0
40
0
40
1
40
1
40
1
40
1
41
1
10
28.25
20
-11.021
30
0
41
1
10
28.4833769086861
20
-11.021
30
0
41
1
10
28.7167108769179
20
-11.021
30
0
41
1
10
28.95
20
-11.021
30
0
0
SPLINE
5
168
100
AcDbEntity
8
1
62
256
6
ByLayer
370
18
48
1
60
0
100
AcDbSpline
70
4
71
3
72
8
73
4
40
0
40
0
40
0
40
0
40
1
40
1
40
1
40
1
41
1
10
23.2418217614998
20
11.021
30
0
41
1
10
22.8024719501864
20
11.021
30
0
41
1
10
22.3635115314131
20
11.021
30
0
41
1
10
21.9250000000001
20
11.021
30
0
0
SPLINE
5
169
100
AcDbEntity
8
1
62
256
6
ByLayer
370
18
48
1
60
0
100
AcDbSpline
70
4
71
3
72
8
73
4
40
0
40
0
40
0
40
0
40
1
40
1
40
1
40
1
41
1
10
28.95
20
11.021
30
0
41
1
10
28.7167108769179
20
11.021
30
0
41
1
10
28.4833769086861
20
11.021
30
0
41
1
10
28.25
20
11.021
30
0
0
SPLINE
5
16A
100
AcDbEntity
8
1
62
256
6
ByLayer
370
18
48
1
60
0
100
AcDbSpline
70
4
71
3
72
8
73
4
40
0
40
0
40
0
40
0
40
1
40
1
40
1
40
1
41
1
10
16.7581782385005
20
-11.021
30
0
41
1
10
17.1975280498139
20
-11.021
30
0
41
1
10
17.6364884685872
20
-11.021
30
0
41
1
10
18.0750000000001
20
-11.021
30
0
0
SPLINE
5
16B
100
AcDbEntity
8
1
62
256
6
ByLayer
370
18
48
1
60
0
100
AcDbSpline
70
4
71
3
72
8
73
4
40
0
40
0
40
0
40
0
40
1
40
1
40
1
40
1
41
1
10
18.0750000000001
20
11.021
30
0
41
1
10
17.6364884685872
20
11.021
30
0
41
1
10
17.1975280498139
20
11.021
30
0
41
1
10
16.7581782385005
20
11.021
30
0
0
SPLINE
5
16C
100
AcDbEntity
8
1
62
256
6
ByLayer
370
18
48
1
60
0
100
AcDbSpline
70
4
71
3
72
8
73
4
40
0
40
0
40
0
40
0
40
1
40
1
40
1
40
1
41
1
10
21.9250000000001
20
-11.021
30
0
41
1
10
22.3635115314131
20
-11.021
30
0
41
1
10
22.8024719501864
20
-11.021
30
0
41
1
10
23.2418217614998
20
-11.021
30
0
0
SPLINE
5
16D
100
AcDbEntity
8
1
62
256
6
ByLayer
370
18
48
1
60
0
100
AcDbSpline
70
4
71
3
72
55
73
51
40
0
40
0
40
0
40
0
40
0.0625000000000003
40
0.0625000000000003
40
0.125000000000001
40
0.125000000000001
40
0.187500000000001
40
0.187500000000001
40
0.203125000000001
40
0.203125000000001
40
0.218750000000001
40
0.218750000000001
40
0.250000000000002
40
0.250000000000002
40
0.312500000000002
40
0.312500000000002
40
0.375000000000003
40
0.375000000000003
40
0.406250000000003
40
0.406250000000003
40
0.421875000000003
40
0.421875000000003
40
0.429687500000003
40
0.429687500000003
40
0.437500000000003
40
0.500000000000004
40
0.500000000000004
40
0.562500000000003
40
0.562500000000003
40
0.625000000000003
40
0.625000000000003
40
0.640625000000003
40
0.640625000000003
40
0.656250000000003
40
0.687500000000003
40
0.687500000000003
40
0.750000000000003
40
0.750000000000003
40
0.812500000000003
40
0.812500000000003
40
0.843750000000003
40
0.843750000000003
40
0.851562500000003
40
0.851562500000003
40
0.859375000000003
40
0.875000000000003
40
0.875000000000003
40
0.937500000000001
40
0.937500000000001
40
1
40
1
40
1
40
1
41
1
10
4.94999999999999
20
-1.02099999999999
30
0
41
1
10
4.94999999999999
20
-1.3523079915542
30
0
41
1
10
4.96642134783585
20
-1.68067409887229
30
0
41
1
10
5.03087929999901
20
-2.33174679457287
30
0
41
1
10
5.07891940867376
20
-2.65445276224668
30
0
41
1
10
5.20635268944537
20
-3.29426572456245
30
0
41
1
10
5.28574480986381
20
-3.61137286765143
30
0
41
1
10
5.40498744242313
20
-4.00419904197594
30
0
41
1
10
5.42983842315942
20
-4.08258599739003
30
0
41
1
10
5.48156509690597
20
-4.23900027259739
30
0
41
1
10
5.50847964164046
20
-4.31713183409292
30
0
41
1
10
5.5918899973689
20
-4.54987293038582
30
0
41
1
10
5.65109467221163
20
-4.70300204372802
30
0
41
1
10
5.83927605334895
20
-5.15643547267669
30
0
41
1
10
5.97879417795303
20
-5.4508001141709
30
0
41
1
10
6.28541740613582
20
-6.02406620255456
30
0
41
1
10
6.4525230892929
20
-6.30296717537195
30
0
41
1
10
6.7240890609533
20
-6.70966961558665
30
0
41
1
10
6.8181020070767
20
-6.84329211848563
30
0
41
1
10
6.96444502625468
20
-7.04076946247642
30
0
41
1
10
7.01411373212787
20
-7.1061022749893
30
0
41
1
10
7.08996329600507
20
-7.20335498416847
30
0
41
1
10
7.11547387776457
20
-7.2356511153352
30
0
41
1
10
7.16680433031482
20
-7.29981781967913
30
0
41
1
10
7.39934135356521
20
-7.58684936765701
30
0
41
1
10
7.64568626465802
20
-7.8585833343617
30
0
41
1
10
8.10489484089737
20
-8.31826526580147
30
0
41
1
10
8.34513155185402
20
-8.53640409494648
30
0
41
1
10
8.84696022030755
20
-8.9493347163918
30
0
41
1
10
9.1085504088683
20
-9.14412818546518
30
0
41
1
10
9.44934766744328
20
-9.37262008050175
30
0
41
1
10
9.51822592407589
20
-9.41758351937679
30
0
41
1
10
9.65727468452178
20
-9.50591857030147
30
0
41
1
10
9.86707016214334
20
-9.63558019202677
30
0
41
1
10
10.0804943122016
20
-9.75682082478644
30
0
41
1
10
10.5121139651924
20
-9.98826112294904
30
0
41
1
10
10.8062109677211
20
-10.127860076892
30
0
41
1
10
11.4070327340522
20
-10.3779904860776
30
0
41
1
10
11.7137572119495
20
-10.488522402293
30
0
41
1
10
12.1835333498157
20
-10.6321120183203
30
0
41
1
10
12.3417431598832
20
-10.6762670868699
30
0
41
1
10
12.5415733527485
20
-10.7267292475236
30
0
41
1
10
12.5816428517718
20
-10.7365849456891
30
0
41
1
10
12.6619901753909
20
-10.7558198473806
30
0
41
1
10
12.7828972503331
20
-10.7839728615934
30
0
41
1
10
12.9040786948306
20
-10.8098209298593
30
0
41
1
10
13.3086235808411
20
-10.8908951560489
30
0
41
1
10
13.6341967826629
20
-10.9395167419546
30
0
41
1
10
14.2891915210968
20
-11.0045687317411
30
0
41
1
10
14.6186129503849
20
-11.021
30
0
41
1
10
14.95
20
-11.021
30
0
0
SPLINE
5
16E
100
AcDbEntity
8
1
62
256
6
ByLayer
370
18
48
1
60
0
100
AcDbSpline
70
4
71
3
72
55
73
51
40
0
40
0
40
0
40
0
40
0.0624999999999992
40
0.0624999999999992
40
0.124999999999998
40
0.124999999999998
40
0.187499999999998
40
0.187499999999998
40
0.203124999999997
40
0.203124999999997
40
0.218749999999997
40
0.218749999999997
40
0.249999999999997
40
0.249999999999997
40
0.312499999999995
40
0.312499999999995
40
0.374999999999994
40
0.374999999999994
40
0.406249999999994
40
0.406249999999994
40
0.421874999999993
40
0.421874999999993
40
0.437499999999993
40
0.437499999999993
40
0.499999999999992
40
0.499999999999992
40
0.562499999999991
40
0.562499999999991
40
0.62499999999999
40
0.62499999999999
40
0.632812499999991
40
0.632812499999991
40
0.640624999999991
40
0.640624999999991
40
0.656249999999991
40
0.687499999999992
40
0.687499999999992
40
0.749999999999993
40
0.749999999999993
40
0.812499999999995
40
0.812499999999995
40
0.843749999999996
40
0.843749999999996
40
0.859374999999996
40
0.859374999999996
40
0.874999999999997
40
0.874999999999997
40
0.937499999999998
40
0.937499999999998
40
1
40
1
40
1
40
1
41
1
10
14.95
20
11.021
30
0
41
1
10
14.6186180770483
20
11.021
30
0
41
1
10
14.2901293667462
20
11.0045711927872
30
0
41
1
10
13.638723291142
20
10.9400562256138
30
0
41
1
10
13.3158065177085
20
10.8919666612244
30
0
41
1
10
12.6754919299054
20
10.7643661638903
30
0
41
1
10
12.358093938917
20
10.6848563818256
30
0
41
1
10
11.9648592282067
20
10.5654062490788
30
0
41
1
10
11.8863883176173
20
10.5405107376267
30
0
41
1
10
11.7298017686215
20
10.4886884493971
30
0
41
1
10
11.6515991381982
20
10.4617283040525
30
0
41
1
10
11.4187515333456
20
10.3782154453684
30
0
41
1
10
11.2655498884332
20
10.3189373489954
30
0
41
1
10
10.811895150555
20
10.1305188971136
30
0
41
1
10
10.517377974707
20
9.99082036436087
30
0
41
1
10
9.94380215106821
20
9.68378237550539
30
0
41
1
10
9.66474394687691
20
9.51644235821485
30
0
41
1
10
9.25780740131535
20
9.24447624315204
30
0
41
1
10
9.1241071697944
20
9.15032179382399
30
0
41
1
10
8.92651453327986
20
9.00375315015796
30
0
41
1
10
8.86114350809254
20
8.95400700659482
30
0
41
1
10
8.73139739917735
20
8.85271470616544
30
0
41
1
10
8.66727138387006
20
8.80136264181385
30
0
41
1
10
8.3504638548728
20
8.54121741057332
30
0
41
1
10
8.10907647024368
20
8.32218372161557
30
0
41
1
10
7.64966054039306
20
7.86282448264086
30
0
41
1
10
7.43163375382827
20
7.62249758266881
30
0
41
1
10
7.01889930623037
20
7.12044613312091
30
0
41
1
10
6.8241899298157
20
6.85872339583085
30
0
41
1
10
6.61863457130426
20
6.55182584493645
30
0
41
1
10
6.59598297197468
20
6.51755262139244
30
0
41
1
10
6.55105770947227
20
6.44865691847392
30
0
41
1
10
6.52877521323913
20
6.41401992754103
30
0
41
1
10
6.46267533310353
20
6.30986409266976
30
0
41
1
10
6.33330054912724
20
6.10032299193614
30
0
41
1
10
6.21230230261042
20
5.88713055580908
30
0
41
1
10
5.98129593649492
20
5.4559405824487
30
0
41
1
10
5.84191861237483
20
5.16208506636173
30
0
41
1
10
5.59213609509965
20
4.56163768660548
30
0
41
1
10
5.48173027698672
20
4.25504620266597
30
0
41
1
10
5.33828630346613
20
3.78537269792633
30
0
41
1
10
5.29417252865377
20
3.62718093132489
30
0
41
1
10
5.23367267386433
20
3.38738523748583
30
0
41
1
10
5.21443098384967
20
3.30693861804855
30
0
41
1
10
5.17800678971312
20
3.14584543715986
30
0
41
1
10
5.16081455682291
20
3.06517189242359
30
0
41
1
10
5.07992001326323
20
2.66117283308185
30
0
41
1
10
5.03138034853976
20
2.33595764841223
30
0
41
1
10
4.96642087804358
20
1.68151292423911
30
0
41
1
10
4.94999999999999
20
1.35228352660408
30
0
41
1
10
4.94999999999999
20
1.02100000000002
30
0
0
SPLINE
5
16F
100
AcDbEntity
8
1
62
256
6
ByLayer
370
18
48
1
60
0
100
AcDbSpline
70
4
71
3
72
94
73
90
40
0
40
0
40
0
40
0
40
0.0311184001906765
40
0.0311184001906765
40
0.0623726453458161
40
0.0623726453458161
40
0.0701862066346008
40
0.0701862066346008
40
0.0779997679233857
40
0.0779997679233857
40
0.0936268905009555
40
0.0936268905009555
40
0.124881135656095
40
0.156135380811234
40
0.156135380811234
40
0.171762503388804
40
0.171762503388804
40
0.179576064677589
40
0.179576064677589
40
0.187389625966374
40
0.187389625966374
40
0.218643871121513
40
0.249898116276653
40
0.249898116276653
40
0.281152361431792
40
0.281152361431792
40
0.288965922720577
40
0.288965922720577
40
0.296779484009361
40
0.312406606586931
40
0.312406606586931
40
0.34366085174207
40
0.374915096897209
40
0.374915096897209
40
0.390542219474778
40
0.390542219474778
40
0.398355780763563
40
0.398355780763563
40
0.406169342052347
40
0.406169342052347
40
0.437423587207486
40
0.468677832362625
40
0.468677832362625
40
0.499932077517764
40
0.499932077517764
40
0.507745638806549
40
0.507745638806549
40
0.515559200095334
40
0.531186322672903
40
0.531186322672903
40
0.562440567828042
40
0.59369481298318
40
0.59369481298318
40
0.601508374271965
40
0.601508374271965
40
0.60932193556075
40
0.60932193556075
40
0.624949058138319
40
0.624949058138319
40
0.656203303293459
40
0.687457548448599
40
0.687457548448599
40
0.703084671026169
40
0.703084671026169
40
0.710898232314954
40
0.710898232314954
40
0.718711793603739
40
0.718711793603739
40
0.749966038758878
40
0.749966038758878
40
0.781220283914019
40
0.812474529069158
40
0.812474529069158
40
0.820288090357943
40
0.820288090357943
40
0.828101651646729
40
0.828101651646729
40
0.843728774224299
40
0.843728774224299
40
0.874983019379439
40
0.906237264534579
40
0.906237264534579
40
0.921864387112149
40
0.921864387112149
40
0.937491509689719
40
0.937491509689719
40
0.96874575484486
40
0.96874575484486
40
1
40
1
40
1
40
1
41
1
10
1.97750000736065
20
-49.9649999991535
30
0
41
1
10
1.97750930479498
20
-49.9649990483576
30
0
41
1
10
1.98545609514429
20
-49.9641983851662
30
0
41
1
10
2.01724722732342
20
-49.9610177309566
30
0
41
1
10
2.04115992233255
20
-49.9586308152791
30
0
41
1
10
2.08129162068926
20
-49.9546729253147
30
0
41
1
10
2.08983119845442
20
-49.9538326371641
30
0
41
1
10
2.10794835031368
20
-49.9520550811008
30
0
41
1
10
2.11751930921079
20
-49.9511184727661
30
0
41
1
10
2.14762771793312
20
-49.9481815129571
30
0
41
1
10
2.16960599648607
20
-49.9460495083297
30
0
41
1
10
2.24115197110834
20
-49.9391639832848
30
0
41
1
10
2.35148290558954
20
-49.9286784285348
30
0
41
1
10
2.49122428669722
20
-49.9159177578778
30
0
41
1
10
2.60720742921933
20
-49.9056195475719
30
0
41
1
10
2.64773464843901
20
-49.9020655468381
30
0
41
1
10
2.71137475352148
20
-49.8965688059296
30
0
41
1
10
2.73307730245006
20
-49.8947077439422
30
0
41
1
10
2.77738331378703
20
-49.8909382876813
30
0
41
1
10
2.79992333522819
20
-49.8890352780807
30
0
41
1
10
2.91453715737509
20
-49.8794380930142
30
0
41
1
10
3.11013072197537
20
-49.8635617090824
30
0
41
1
10
3.32950267196341
20
-49.8471159052254
30
0
41
1
10
3.56078910500128
20
-49.8306189507428
30
0
41
1
10
3.68238860919033
20
-49.8223445053227
30
0
41
1
10
3.84207090983477
20
-49.8121191993806
30
0
41
1
10
3.87443814538912
20
-49.8100772567124
30
0
41
1
10
3.93965882426463
20
-49.8060272185271
30
0
41
1
10
4.0382421227211
20
-49.800001164638
30
0
41
1
10
4.13905574540769
20
-49.7941370666848
30
0
41
1
10
4.34361047392363
20
-49.7826631778807
30
0
41
1
10
4.62414385817337
20
-49.7680448554114
30
0
41
1
10
4.92011814828717
20
-49.7551864754428
30
0
41
1
10
5.14800327249657
20
-49.7463551339536
30
0
41
1
10
5.22495080454612
20
-49.7435468038677
30
0
41
1
10
5.34188195419261
20
-49.7395572634288
30
0
41
1
10
5.38113273765828
20
-49.738264025278
30
0
41
1
10
5.45970172354154
20
-49.7357687767631
30
0
41
1
10
5.49907237231864
20
-49.7345649128229
30
0
41
1
10
5.69635211383064
20
-49.7287675075731
30
0
41
1
10
6.01472190291227
20
-49.7209134175242
30
0
41
1
10
6.33841570227307
20
-49.7160616455492
30
0
41
1
10
6.66478767023932
20
-49.7127896930666
30
0
41
1
10
6.8293124755898
20
-49.7119434987089
30
0
41
1
10
7.03670161170086
20
-49.7119235732049
30
0
41
1
10
7.07818500894933
20
-49.7119716121354
30
0
41
1
10
7.16089151267801
20
-49.7121704874302
30
0
41
1
10
7.28468511010232
20
-49.7126229641513
30
0
41
1
10
7.40768922605051
20
-49.7135319810613
30
0
41
1
10
7.65266037829241
20
-49.715943396819
30
0
41
1
10
7.97652734228561
20
-49.7207401959277
30
0
41
1
10
8.29491693416145
20
-49.7285395922947
30
0
41
1
10
8.49216312939765
20
-49.7343011878131
30
0
41
1
10
8.53152480372492
20
-49.7354978473571
30
0
41
1
10
8.61007130962133
20
-49.7379785226753
30
0
41
1
10
8.64929678904488
20
-49.7392639286545
30
0
41
1
10
8.76642134246316
20
-49.7432394720436
30
0
41
1
10
8.8434894394633
20
-49.7460389709654
30
0
41
1
10
9.07171369917643
20
-49.7548453350853
30
0
41
1
10
9.36808143142349
20
-49.7676724885507
30
0
41
1
10
9.64891315195442
20
-49.7822647681041
30
0
41
1
10
9.85366457163323
20
-49.7937192494058
30
0
41
1
10
9.92093458026835
20
-49.7976224434852
30
0
41
1
10
10.0203468060376
20
-49.8035854074952
30
0
41
1
10
10.0532352997926
20
-49.805591086346
30
0
41
1
10
10.1185093158849
20
-49.8096351925776
30
0
41
1
10
10.150930159383
20
-49.8116759372703
30
0
41
1
10
10.3109396075499
20
-49.8219000119434
30
0
41
1
10
10.4327775869071
20
-49.8301748316995
30
0
41
1
10
10.6645110074542
20
-49.8466752790785
30
0
41
1
10
10.8842971383039
20
-49.8631257744873
30
0
41
1
10
11.0802740041645
20
-49.8790133403504
30
0
41
1
10
11.1951240327003
20
-49.8886185464077
30
0
41
1
10
11.2177113632257
20
-49.8905233345677
30
0
41
1
10
11.2621120723669
20
-49.894296555528
30
0
41
1
10
11.2839089846801
20
-49.8961636305444
30
0
41
1
10
11.3477792027177
20
-49.9016743524074
30
0
41
1
10
11.3884530168723
20
-49.9052376494133
30
0
41
1
10
11.5048604965918
20
-49.9155640978341
30
0
41
1
10
11.6451268378791
20
-49.9283616954864
30
0
41
1
10
11.7559492883186
20
-49.9388876004249
30
0
41
1
10
11.8278693088857
20
-49.9458053434909
30
0
41
1
10
11.8499731879294
20
-49.9479484513177
30
0
41
1
10
11.8903740459414
20
-49.9518875807619
30
0
41
1
10
11.9086951317471
20
-49.9536860048986
30
0
41
1
10
11.957414776904
20
-49.9584891218553
30
0
41
1
10
11.9817465763237
20
-49.9609172813825
30
0
41
1
10
12.0142890389608
20
-49.9641726761554
30
0
41
1
10
12.0225079604949
20
-49.9650008020738
30
0
41
1
10
12.0225015547839
20
-49.9650001566577
30
0
0
SPLINE
5
170
100
AcDbEntity
8
1
62
256
6
ByLayer
370
13
48
1
60
0
100
AcDbSpline
70
4
71
3
72
52
73
48
40
0
40
0
40
0
40
0
40
0.0328839187434611
40
0.0328839187434611
40
0.049325878115193
40
0.049325878115193
40
0.0657678374869249
40
0.0657678374869249
40
0.131535674973852
40
0.19730351246078
40
0.19730351246078
40
0.263071349947708
40
0.263071349947708
40
0.27951330931944
40
0.27951330931944
40
0.295955268691172
40
0.328839187434635
40
0.328839187434635
40
0.394607024921563
40
0.394607024921563
40
0.46037486240849
40
0.46037486240849
40
0.476816821780223
40
0.476816821780223
40
0.493258781151955
40
0.493258781151955
40
0.526142699895419
40
0.526142699895419
40
0.591910537382348
40
0.657678374869276
40
0.657678374869276
40
0.69056229361274
40
0.707004252984471
40
0.707004252984471
40
0.723446212356201
40
0.723446212356201
40
0.789214049843125
40
0.854981887330049
40
0.854981887330049
40
0.920749724816973
40
0.920749724816973
40
0.937191684188704
40
0.937191684188704
40
0.953633643560435
40
0.986517562303897
40
0.986517562303897
40
1
40
1
40
1
40
1
41
1
10
50
20
23.8898777831615
30
0
41
1
10
49.9190709605078
20
23.8898777831615
30
0
41
1
10
49.8381950580861
20
23.8883156338803
30
0
41
1
10
49.7169608798675
20
23.8836291963268
30
0
41
1
10
49.6765910828518
20
23.8816768006323
30
0
41
1
10
49.5961252322014
20
23.8770072516262
30
0
41
1
10
49.5560012757145
20
23.8742891000774
30
0
41
1
10
49.3559209193472
20
23.858799278308
30
0
41
1
10
49.0392368446479
20
23.8218915830321
30
0
41
1
10
48.7292920999569
20
23.7611581424508
30
0
41
1
10
48.4227374238559
20
23.6883542451694
30
0
41
1
10
48.2711547691814
20
23.6459185498552
30
0
41
1
10
48.0838693776645
20
23.5849918228616
30
0
41
1
10
48.04661715027
20
23.5724415676385
30
0
41
1
10
47.9726894028671
20
23.5466729515046
30
0
41
1
10
47.8625816598172
20
23.5069911623168
30
0
41
1
10
47.7548018969208
20
23.4642443113689
30
0
41
1
10
47.5423052555296
20
23.3746911319458
30
0
41
1
10
47.4047174605548
20
23.309586483232
30
0
41
1
10
47.1376551555407
20
23.1684691010416
30
0
41
1
10
47.0081802138985
20
23.0924572278441
30
0
41
1
10
46.8515301966592
20
22.9903517099937
30
0
41
1
10
46.8204604827907
20
22.9695752044395
30
0
41
1
10
46.7588472283343
20
22.9273009280571
30
0
41
1
10
46.7282683711807
20
22.9057774634453
30
0
41
1
10
46.6375905199184
20
22.8402956209264
30
0
41
1
10
46.5786968285436
20
22.795538693854
30
0
41
1
10
46.4066066158232
20
22.6579875144225
30
0
41
1
10
46.1893731996338
20
22.4658536986971
30
0
41
1
10
45.9962452944885
20
22.2561547170747
30
0
41
1
10
45.8605809462482
20
22.0920661884613
30
0
41
1
10
45.7950483472997
20
22.008315291756
30
0
41
1
10
45.7330316996314
20
21.9219325599358
30
0
41
1
10
45.6924789873803
20
21.8637490123349
30
0
41
1
10
45.6726246433589
20
21.8343950796271
30
0
41
1
10
45.5758646422747
20
21.6869270375472
30
0
41
1
10
45.4362949696197
20
21.4453941768788
30
0
41
1
10
45.3264970183004
20
21.1927063383837
30
0
41
1
10
45.2316679100067
20
20.9343062768671
30
0
41
1
10
45.1917362730166
20
20.8022508112105
30
0
41
1
10
45.1515124233913
20
20.6334337798777
30
0
41
1
10
45.1439470518138
20
20.5994462273717
30
0
41
1
10
45.1298741988469
20
20.5314651855827
30
0
41
1
10
45.1103218169855
20
20.4293711857714
30
0
41
1
10
45.0953877028462
20
20.3269103599719
30
0
41
1
10
45.0841994421469
20
20.2303674892981
30
0
41
1
10
45.0812852673171
20
20.2022673276821
30
0
41
1
10
45.0787096527977
20
20.1741397850106
30
0
0
SPLINE
5
171
100
AcDbEntity
8
1
62
256
6
ByLayer
370
18
48
1
60
0
100
AcDbSpline
70
4
71
3
72
50
73
46
40
0
40
0
40
0
40
0
40
0.0473355306762781
40
0.106877060009019
40
0.106877060009019
40
0.121762442342203
40
0.121762442342203
40
0.136647824675386
40
0.136647824675386
40
0.166418589341755
40
0.166418589341755
40
0.225960118674489
40
0.285501648007223
40
0.285501648007223
40
0.315272412673592
40
0.315272412673592
40
0.330157795006775
40
0.330157795006775
40
0.345043177339958
40
0.345043177339958
40
0.404584706672691
40
0.404584706672691
40
0.464126236005424
40
0.523667765338157
40
0.523667765338157
40
0.53855314767134
40
0.53855314767134
40
0.553438530004523
40
0.553438530004523
40
0.583209294670887
40
0.583209294670887
40
0.642750824003616
40
0.702292353336345
40
0.702292353336345
40
0.732063118002711
40
0.746948500335895
40
0.746948500335895
40
0.761833882669078
40
0.761833882669078
40
0.821375412001808
40
0.821375412001808
40
0.880916941334539
40
0.94045847066727
40
0.94045847066727
40
1
40
1
40
1
40
1
41
1
10
45.0787096799752
20
20.1741400818086
30
0
41
1
10
45.0687213318326
20
20.0650603166621
30
0
41
1
10
45.0576653281515
20
19.8178435798584
30
0
41
1
10
45.072389705033
20
19.5685231481463
30
0
41
1
10
45.0928561347334
20
19.3940781019356
30
0
41
1
10
45.0974612522679
20
19.3591478910163
30
0
41
1
10
45.1077053618272
20
19.2892047894044
30
0
41
1
10
45.1133487344723
20
19.2541671783428
30
0
41
1
10
45.1318197803915
20
19.1490900392951
30
0
41
1
10
45.1461122181815
20
19.0794958555445
30
0
41
1
10
45.1947856212642
20
18.8720620491736
30
0
41
1
10
45.2751113781734
20
18.59907230913
30
0
41
1
10
45.3855445797452
20
18.3332188469974
30
0
41
1
10
45.4797168056414
20
18.1365855908861
30
0
41
1
10
45.5130020988589
20
18.071501627494
30
0
41
1
10
45.5658106629306
20
17.9745857948045
30
0
41
1
10
45.5838938488922
20
17.942398936793
30
0
41
1
10
45.6210301760192
20
17.8782661432555
30
0
41
1
10
45.6401115456524
20
17.8462754517153
30
0
41
1
10
45.7374955025985
20
17.6876989105695
30
0
41
1
10
45.8218233661931
20
17.5649928443793
30
0
41
1
10
46.0028320634086
20
17.3276893970493
30
0
41
1
10
46.1961970308852
20
17.0984966418877
30
0
41
1
10
46.4140558086587
20
16.8856269522675
30
0
41
1
10
46.5580306762391
20
16.757871919977
30
0
41
1
10
46.5872172193685
20
16.7325859735136
30
0
41
1
10
46.6463811742137
20
16.6825515131507
30
0
41
1
10
46.6763939079918
20
16.6577756845908
30
0
41
1
10
46.7671559860083
20
16.5846440132644
30
0
41
1
10
46.8287397389412
20
16.5373837515965
30
0
41
1
10
47.0166502502063
20
16.4000139313298
30
0
41
1
10
47.2756068977783
20
16.2285960257806
30
0
41
1
10
47.5510485898531
20
16.0804238439382
30
0
41
1
10
47.7638661801758
20
15.9781682336253
30
0
41
1
10
47.8718368099402
20
15.9292625982353
30
0
41
1
10
47.9821862584023
20
15.8837553689693
30
0
41
1
10
48.0562870918575
20
15.8541823085271
30
0
41
1
10
48.0936452734629
20
15.8397642395865
30
0
41
1
10
48.2807093547623
20
15.7700040519615
30
0
41
1
10
48.4319346823219
20
15.7213383061687
30
0
41
1
10
48.7374079284297
20
15.6377939982583
30
0
41
1
10
49.0459045778
20
15.5680403200805
30
0
41
1
10
49.3603749163626
20
15.5256396946623
30
0
41
1
10
49.6778788240735
20
15.4971626088902
30
0
41
1
10
49.8381471383109
20
15.48988392474
30
0
41
1
10
50
20
15.48988392474
30
0
0
SPLINE
5
172
100
AcDbEntity
8
1
62
256
6
ByLayer
370
18
48
1
60
0
100
AcDbSpline
70
4
71
3
72
52
73
48
40
0
40
0
40
0
40
0
40
0.0297557046793843
40
0.0297557046793843
40
0.0446335570190752
40
0.0446335570190752
40
0.0595114093587661
40
0.0595114093587661
40
0.11902281871753
40
0.178534228076293
40
0.178534228076293
40
0.238045637435057
40
0.238045637435057
40
0.252923489774747
40
0.252923489774747
40
0.267801342114438
40
0.29755704679382
40
0.29755704679382
40
0.357068456152583
40
0.416579865511346
40
0.416579865511346
40
0.431457717851037
40
0.431457717851037
40
0.446335570190729
40
0.446335570190729
40
0.476091274870113
40
0.476091274870113
40
0.535602684228883
40
0.595114093587653
40
0.595114093587653
40
0.624869798267037
40
0.639747650606729
40
0.639747650606729
40
0.654625502946422
40
0.654625502946422
40
0.714136912305192
40
0.773648321663961
40
0.773648321663961
40
0.833159731022731
40
0.833159731022731
40
0.848037583362424
40
0.848037583362424
40
0.862915435702117
40
0.892671140381504
40
0.892671140381504
40
0.95218254974028
40
1
40
1
40
1
40
1
41
1
10
50
20
-15.48988392474
30
0
41
1
10
49.9190709605078
20
-15.48988392474
30
0
41
1
10
49.8381950580861
20
-15.4917072065165
30
0
41
1
10
49.7169608798675
20
-15.4971754679502
30
0
41
1
10
49.6765910828518
20
-15.4994534111415
30
0
41
1
10
49.5961252322014
20
-15.50490066381
30
0
41
1
10
49.5560012757145
20
-15.5080711378706
30
0
41
1
10
49.3559209193472
20
-15.5261347387993
30
0
41
1
10
49.0392368446479
20
-15.5691578390148
30
0
41
1
10
48.7292920999569
20
-15.6397434953977
30
0
41
1
10
48.4227374238559
20
-15.7241394836231
30
0
41
1
10
48.2711547691814
20
-15.7732413619127
30
0
41
1
10
48.0838693776645
20
-15.8435049933662
30
0
41
1
10
48.04661715027
20
-15.8579681631894
30
0
41
1
10
47.9726894028671
20
-15.8876406687382
30
0
41
1
10
47.8625816598172
20
-15.9332994395159
30
0
41
1
10
47.7548018969208
20
-15.9823671036746
30
0
41
1
10
47.5423052555296
20
-16.0849692908193
30
0
41
1
10
47.2671300971829
20
-16.2336639666606
30
0
41
1
10
47.0081802138985
20
-16.4058120981787
30
0
41
1
10
46.8515301966592
20
-16.5208387849746
30
0
41
1
10
46.8204604827907
20
-16.5442166687268
30
0
41
1
10
46.7588472283343
20
-16.59172362425
30
0
41
1
10
46.7282683711807
20
-16.6158814868228
30
0
41
1
10
46.6375905199184
20
-16.6892820050041
30
0
41
1
10
46.5786968285436
20
-16.7393253644831
30
0
41
1
10
46.4066066158232
20
-16.8927003737556
30
0
41
1
10
46.1893731996338
20
-17.1058376888852
30
0
41
1
10
45.9962452944885
20
-17.3357575662161
30
0
41
1
10
45.8605809462482
20
-17.5144967738177
30
0
41
1
10
45.7950483472997
20
-17.6054441026278
30
0
41
1
10
45.7330316996314
20
-17.6987868307852
30
0
41
1
10
45.6924789873804
20
-17.7615528894535
30
0
41
1
10
45.672624643359
20
-17.7931664075505
30
0
41
1
10
45.5758646422746
20
-17.9517175905241
30
0
41
1
10
45.4362956704199
20
-18.2096974922378
30
0
41
1
10
45.3264970183004
20
-18.4758536432263
30
0
41
1
10
45.2316679100067
20
-18.7460327099808
30
0
41
1
10
45.1917362730166
20
-18.8831331924946
30
0
41
1
10
45.1515124233913
20
-19.0570704156393
30
0
41
1
10
45.1439470518138
20
-19.0920234820071
30
0
41
1
10
45.1298741988468
20
-19.1618040950928
30
0
41
1
10
45.1103218169855
20
-19.2664041253778
30
0
41
1
10
45.0953877028462
20
-19.3707902674876
30
0
41
1
10
45.0715829087691
20
-19.5792748310847
30
0
41
1
10
45.057515894825
20
-19.8292505812844
30
0
41
1
10
45.0694747975459
20
-20.0779649749224
30
0
41
1
10
45.0800560003148
20
-20.188522305082
30
0
0
SPLINE
5
173
100
AcDbEntity
8
1
62
256
6
ByLayer
370
13
48
1
60
0
100
AcDbSpline
70
4
71
3
72
49
73
45
40
0
40
0
40
0
40
0
40
0.0129306286566418
40
0.0129306286566418
40
0.0293817848456983
40
0.0293817848456983
40
0.0458329410347547
40
0.0458329410347547
40
0.0787352534128679
40
0.0787352534128679
40
0.144539878169097
40
0.210344502925325
40
0.210344502925325
40
0.24324681530344
40
0.24324681530344
40
0.259697971492496
40
0.259697971492496
40
0.276149127681551
40
0.276149127681551
40
0.341953752437775
40
0.341953752437775
40
0.407758377193998
40
0.473563001950221
40
0.473563001950221
40
0.490014158139277
40
0.490014158139277
40
0.506465314328333
40
0.506465314328333
40
0.539367626706444
40
0.539367626706444
40
0.605172251462665
40
0.670976876218887
40
0.670976876218887
40
0.703879188596998
40
0.720330344786054
40
0.720330344786054
40
0.73678150097511
40
0.73678150097511
40
0.802586125731332
40
0.802586125731332
40
0.868390750487555
40
0.934195375243777
40
0.934195375243777
40
1
40
1
40
1
40
1
41
1
10
45.0800559665716
20
-20.188521952517
30
0
41
1
10
45.0826436528443
20
-20.2155593314609
30
0
41
1
10
45.085545521095
20
-20.2425817230525
30
0
41
1
10
45.0928561347334
20
-20.3039496320867
30
0
41
1
10
45.0974612522679
20
-20.3382858927998
30
0
41
1
10
45.1077053618272
20
-20.406909976725
30
0
41
1
10
45.1133487344723
20
-20.4412219578333
30
0
41
1
10
45.1318197803915
20
-20.5439288319543
30
0
41
1
10
45.1461122181815
20
-20.611694683714
30
0
41
1
10
45.1947856212642
20
-20.8129362169739
30
0
41
1
10
45.2751113781734
20
-21.0757839965456
30
0
41
1
10
45.3855445797452
20
-21.328101938362
30
0
41
1
10
45.4797168056414
20
-21.5134491619638
30
0
41
1
10
45.5130020988589
20
-21.5745820878873
30
0
41
1
10
45.5658106629306
20
-21.6653054688288
30
0
41
1
10
45.5838938488922
20
-21.6953838640371
30
0
41
1
10
45.6210301760192
20
-21.7552141066315
30
0
41
1
10
45.6401115456524
20
-21.7850075001205
30
0
41
1
10
45.7374955025985
20
-21.9324453622487
30
0
41
1
10
45.8218233661931
20
-22.0457408422753
30
0
41
1
10
46.0028320634086
20
-22.2635274616843
30
0
41
1
10
46.1961967055772
20
-22.4725071215254
30
0
41
1
10
46.4140558086587
20
-22.6643529986993
30
0
41
1
10
46.558030676239
20
-22.7788991720643
30
0
41
1
10
46.5872172193685
20
-22.8015399283003
30
0
41
1
10
46.6463811742137
20
-22.8462819327877
30
0
41
1
10
46.6763939079918
20
-22.8684074882894
30
0
41
1
10
46.7671559860083
20
-22.9336335806401
30
0
41
1
10
46.8287397389412
20
-22.9756735589301
30
0
41
1
10
47.0166502502063
20
-23.0975856822579
30
0
41
1
10
47.2756071798871
20
-23.2489352858071
30
0
41
1
10
47.5510485898531
20
-23.3786671954499
30
0
41
1
10
47.7638661801758
20
-23.4679043850458
30
0
41
1
10
47.8718368099402
20
-23.5105039114988
30
0
41
1
10
47.9821862584023
20
-23.5500485800446
30
0
41
1
10
48.0562870918575
20
-23.5757273837282
30
0
41
1
10
48.093645273463
20
-23.5882368322259
30
0
41
1
10
48.2807093547623
20
-23.6487193012608
30
0
41
1
10
48.4319346823219
20
-23.6907735843207
30
0
41
1
10
48.7374079284297
20
-23.7628367852193
30
0
41
1
10
49.0459045675732
20
-23.8228509206983
30
0
41
1
10
49.3603749163625
20
-23.8592239061875
30
0
41
1
10
49.6778788240735
20
-23.8836432130169
30
0
41
1
10
49.838147138311
20
-23.8898777831614
30
0
41
1
10
50
20
-23.8898777831614
30
0
0
SPLINE
5
174
100
AcDbEntity
8
1
62
256
6
ByLayer
370
13
48
1
60
0
100
AcDbSpline
70
4
71
3
72
90
73
86
40
0
40
0
40
0
40
0
40
0.0312499999999986
40
0.0312499999999986
40
0.0624999999999971
40
0.0937499999999957
40
0.0937499999999957
40
0.124999999999994
40
0.124999999999994
40
0.132812499999994
40
0.132812499999994
40
0.140624999999995
40
0.156249999999995
40
0.156249999999995
40
0.187499999999995
40
0.218749999999995
40
0.218749999999995
40
0.234374999999996
40
0.234374999999996
40
0.242187499999996
40
0.242187499999996
40
0.249999999999996
40
0.249999999999996
40
0.281249999999995
40
0.312499999999995
40
0.312499999999995
40
0.343749999999995
40
0.343749999999995
40
0.351562499999995
40
0.351562499999995
40
0.359374999999995
40
0.374999999999996
40
0.374999999999996
40
0.406249999999996
40
0.437499999999995
40
0.437499999999995
40
0.453124999999995
40
0.453124999999995
40
0.468749999999995
40
0.468749999999995
40
0.499999999999994
40
0.531249999999994
40
0.531249999999994
40
0.546874999999994
40
0.546874999999994
40
0.554687499999994
40
0.554687499999994
40
0.562499999999994
40
0.562499999999994
40
0.593749999999994
40
0.593749999999994
40
0.624999999999995
40
0.656249999999995
40
0.656249999999995
40
0.664062499999995
40
0.664062499999995
40
0.671874999999995
40
0.687499999999995
40
0.687499999999995
40
0.718749999999995
40
0.749999999999995
40
0.749999999999995
40
0.765624999999995
40
0.765624999999995
40
0.773437499999995
40
0.773437499999995
40
0.781249999999995
40
0.781249999999995
40
0.812499999999996
40
0.843749999999997
40
0.843749999999997
40
0.859374999999997
40
0.859374999999997
40
0.874999999999998
40
0.874999999999998
40
0.906249999999999
40
0.906249999999999
40
0.9375
40
0.968750000000001
40
0.968750000000001
40
0.976562500000001
40
0.976562500000001
40
0.984375000000001
40
0.984375000000001
40
1
40
1
40
1
40
1
41
1
10
50
20
15.3738573913081
30
0
41
1
10
49.8313360092613
20
15.3738573913081
30
0
41
1
10
49.664345813956
20
15.381485686201
30
0
41
1
10
49.3335667614454
20
15.4113208700824
30
0
41
1
10
49.0059899505086
20
15.4557386246393
30
0
41
1
10
48.6847160161951
20
15.5287925884162
30
0
41
1
10
48.3666310608336
20
15.6162806829896
30
0
41
1
10
48.2091826528255
20
15.6672400603204
30
0
41
1
10
48.0144471139267
20
15.7402834968464
30
0
41
1
10
47.9755631816378
20
15.7553781178138
30
0
41
1
10
47.8984533874075
20
15.7863321072967
30
0
41
1
10
47.7836322305999
20
15.8339612523832
30
0
41
1
10
47.6713129549497
20
15.8851375107111
30
0
41
1
10
47.4499578151327
20
15.992126693742
30
0
41
1
10
47.1635579188107
20
16.1471222276889
30
0
41
1
10
46.8944678864775
20
16.3263492605519
30
0
41
1
10
46.6992662989937
20
16.4699424242817
30
0
41
1
10
46.6353037691388
20
16.519338319762
30
0
41
1
10
46.5410516912839
20
16.5957658023218
30
0
41
1
10
46.5098947340946
20
16.6216509307591
30
0
41
1
10
46.4484889268267
20
16.6739146916444
30
0
41
1
10
46.4181991966628
20
16.7003254783509
30
0
41
1
10
46.2687955806663
20
16.8337546713836
30
0
41
1
10
46.0428074623429
20
17.0560219636445
30
0
41
1
10
45.8423719704507
20
17.2952131125183
30
0
41
1
10
45.6548103578799
20
17.5428058701876
30
0
41
1
10
45.5674648272577
20
17.6708020460177
30
0
41
1
10
45.4666330984231
20
17.8361717580817
30
0
41
1
10
45.4468838573016
20
17.8695212695572
30
0
41
1
10
45.4084505707711
20
17.9363744719075
30
0
41
1
10
45.3523101221575
20
18.0370282105658
30
0
41
1
10
45.3006506373091
20
18.1387838117624
30
0
41
1
10
45.2032232513212
20
18.3437239123797
30
0
41
1
10
45.0890034119805
20
18.6207797009774
30
0
41
1
10
45.0059662426793
20
18.9052164675983
30
0
41
1
10
44.9556603280179
20
19.1213265366526
30
0
41
1
10
44.9408906590065
20
19.1938279970658
30
0
41
1
10
44.9154428105746
20
19.3397759300354
30
0
41
1
10
44.9048618760988
20
19.4126810242126
30
0
41
1
10
44.8794859694026
20
19.6307565965614
30
0
41
1
10
44.8625319684917
20
19.9201988293821
30
0
41
1
10
44.8786491296573
20
20.207014317364
30
0
41
1
10
44.9032449173033
20
20.4211434630857
30
0
41
1
10
44.9135319045278
20
20.4923560359976
30
0
41
1
10
44.9321433065302
20
20.598928913487
30
0
41
1
10
44.9388775124909
20
20.6344122048325
30
0
41
1
10
44.9534179334472
20
20.7052966889106
30
0
41
1
10
44.9612349387983
20
20.7407390538787
30
0
41
1
10
45.0028036624174
20
20.9168171220355
30
0
41
1
10
45.0440797121632
20
21.0546117948096
30
0
41
1
10
45.1421338856009
20
21.3243489199117
30
0
41
1
10
45.2556938609068
20
21.5882324415744
30
0
41
1
10
45.4001202992609
20
21.8406686155741
30
0
41
1
10
45.5002754507272
20
21.994854464623
30
0
41
1
10
45.5208245833269
20
22.0255443199001
30
0
41
1
10
45.5628194824465
20
22.0864108860954
30
0
41
1
10
45.6270479558293
20
22.1767889026833
30
0
41
1
10
45.6949374875082
20
22.2644474591965
30
0
41
1
10
45.8355089108377
20
22.4362341403429
30
0
41
1
10
46.0356940310394
20
22.6558853110367
30
0
41
1
10
46.2610303721839
20
22.8573328765285
30
0
41
1
10
46.439607357131
20
23.0016180589841
30
0
41
1
10
46.5007316899723
20
23.0485776974005
30
0
41
1
10
46.594861490359
20
23.1172984479795
30
0
41
1
10
46.6266220317888
20
23.1398998411279
30
0
41
1
10
46.6906144998279
20
23.18429059612
30
0
41
1
10
46.7228866600329
20
23.2061096260823
30
0
41
1
10
46.8856127657617
20
23.3133495669265
30
0
41
1
10
47.1546917430922
20
23.4730898508375
30
0
41
1
10
47.4408097690958
20
23.6100175649073
30
0
41
1
10
47.6618261426761
20
23.7042251996871
30
0
41
1
10
47.7365714749948
20
23.7342104100116
30
0
41
1
10
47.8882384294386
20
23.7913248795584
30
0
41
1
10
47.9652055258023
20
23.8184691318685
30
0
41
1
10
48.1991600651394
20
23.8954594746049
30
0
41
1
10
48.3569796426247
20
23.9401558705017
30
0
41
1
10
48.6761936632373
20
24.0168506732462
30
0
41
1
10
48.9989834068205
20
24.0808440550854
30
0
41
1
10
49.3288838467794
20
24.1197493578388
30
0
41
1
10
49.5373444975605
20
24.1360795799299
30
0
41
1
10
49.5791505280989
20
24.1389453637063
30
0
41
1
10
49.6629927181184
20
24.1438687315064
30
0
41
1
10
49.7050579837967
20
24.1459273721269
30
0
41
1
10
49.8313895584037
20
24.1508690251367
30
0
41
1
10
49.9156667145556
20
24.1525162851209
30
0
41
1
10
50
20
24.1525162851209
30
0
0
SPLINE
5
175
100
AcDbEntity
8
1
62
256
6
ByLayer
370
18
48
1
60
0
100
AcDbSpline
70
4
71
3
72
47
73
43
40
0
40
0
40
0
40
0
40
0.0624371382070202
40
0.0624371382070202
40
0.12487427641404
40
0.18731141462106
40
0.18731141462106
40
0.249748552828081
40
0.249748552828081
40
0.265357837379835
40
0.265357837379835
40
0.28096712193159
40
0.312185691035099
40
0.312185691035099
40
0.374622829242114
40
0.43705996744913
40
0.43705996744913
40
0.46827853655264
40
0.46827853655264
40
0.483887821104394
40
0.483887821104394
40
0.499497105656149
40
0.499497105656149
40
0.561934243863166
40
0.624371382070183
40
0.624371382070183
40
0.6868085202772
40
0.6868085202772
40
0.702417804828954
40
0.702417804828954
40
0.718027089380708
40
0.749245658484216
40
0.749245658484216
40
0.811682796691232
40
0.874119934898247
40
0.874119934898247
40
0.905338504001755
40
0.905338504001755
40
0.936557073105262
40
0.936557073105262
40
0.998994211312277
40
1
40
1
40
1
40
1
41
1
10
50
20
39.526373676429
30
0
41
1
10
49.8313360092613
20
39.526373676429
30
0
41
1
10
49.664345813956
20
39.5274275754994
30
0
41
1
10
49.3335667614455
20
39.5315219782232
30
0
41
1
10
49.0059899505086
20
39.5376031960465
30
0
41
1
10
48.6847160161951
20
39.5474266622375
30
0
41
1
10
48.3666310608336
20
39.5590049287495
30
0
41
1
10
48.2091826528254
20
39.5656716499995
30
0
41
1
10
48.0144471139267
20
39.5750257753774
30
0
41
1
10
47.9755631816378
20
39.576949827727
30
0
41
1
10
47.8984533874075
20
39.5808746638448
30
0
41
1
10
47.7836322305999
20
39.5868835774884
30
0
41
1
10
47.6713129549497
20
39.5932372279597
30
0
41
1
10
47.4499578151327
20
39.6063516738045
30
0
41
1
10
47.1635579188107
20
39.6249231115567
30
0
41
1
10
46.8944678864776
20
39.6451201520325
30
0
41
1
10
46.6992662989937
20
39.6606723522528
30
0
41
1
10
46.6353037691388
20
39.6659237151467
30
0
41
1
10
46.5410516912839
20
39.6738750224695
30
0
41
1
10
46.5098947340946
20
39.6765397995046
30
0
41
1
10
46.4484889268267
20
39.6818599948936
30
0
41
1
10
46.4181991966628
20
39.6845188043186
30
0
41
1
10
46.2687955806663
20
39.6977944580641
30
0
41
1
10
46.0428074623429
20
39.7189168405542
30
0
41
1
10
45.8423719704507
20
39.7392097091218
30
0
41
1
10
45.6548103578799
20
39.7587964318265
30
0
41
1
10
45.5674648272577
20
39.7682369926975
30
0
41
1
10
45.4666330984231
20
39.7794068610103
30
0
41
1
10
45.4468838573016
20
39.7816094545117
30
0
41
1
10
45.408450570771
20
39.7859220328602
30
0
41
1
10
45.3523101221576
20
39.7922617844363
30
0
41
1
10
45.3006506373091
20
39.7982006982112
30
0
41
1
10
45.2032232513212
20
39.8095089523556
30
0
41
1
10
45.0890034119805
20
39.8230674370542
30
0
41
1
10
45.0059662426793
20
39.8332212398039
30
0
41
1
10
44.9556603280178
20
39.8394194074159
30
0
41
1
10
44.9408906590065
20
39.841249210633
30
0
41
1
10
44.9154428105746
20
39.8444117813036
30
0
41
1
10
44.9048618760988
20
39.845732425828
30
0
41
1
10
44.8794859694026
20
39.8489054794835
30
0
41
1
10
44.8708726641753
20
39.8499903968697
30
0
41
1
10
44.8707944176441
20
39.8500001989271
30
0
41
1
10
44.8707963664335
20
39.8499999525358
30
0
0
SPLINE
5
176
100
AcDbEntity
8
1
62
256
6
ByLayer
370
18
48
1
60
0
100
AcDbSpline
70
4
71
3
72
51
73
47
40
0
40
0
40
0
40
0
40
0.061845643384401
40
0.061845643384401
40
0.0931174552715874
40
0.0931174552715874
40
0.10875336121518
40
0.10875336121518
40
0.124389267158774
40
0.124389267158774
40
0.186932890933147
40
0.186932890933147
40
0.249476514707521
40
0.312020138481895
40
0.312020138481895
40
0.327656044425489
40
0.327656044425489
40
0.343291950369083
40
0.374563762256268
40
0.374563762256268
40
0.437107386030639
40
0.49965100980501
40
0.49965100980501
40
0.530922821692195
40
0.530922821692195
40
0.546558727635789
40
0.546558727635789
40
0.562194633579382
40
0.562194633579382
40
0.624738257353755
40
0.687281881128129
40
0.687281881128129
40
0.718553693015316
40
0.718553693015316
40
0.749825504902502
40
0.749825504902502
40
0.812369128676878
40
0.812369128676878
40
0.874912752451254
40
0.937456376225629
40
0.937456376225629
40
0.953092282169222
40
0.953092282169222
40
0.968728188112815
40
0.968728188112815
40
1
40
1
40
1
40
1
41
1
10
44.870795843919
20
-39.8499999980253
30
0
41
1
10
44.8707714534488
20
-39.850003019765
30
0
41
1
10
44.878832120626
20
-39.848987790315
30
0
41
1
10
44.9032449173033
20
-39.8459343676982
30
0
41
1
10
44.9135319045279
20
-39.8446499879161
30
0
41
1
10
44.9321433065302
20
-39.8423360281348
30
0
41
1
10
44.9388775124909
20
-39.8415001430018
30
0
41
1
10
44.9534179334472
20
-39.8396994117
30
0
41
1
10
44.9612349387983
20
-39.838733239689
30
0
41
1
10
45.0028036624174
20
-39.833608690309
30
0
41
1
10
45.0440797121632
20
-39.8285581979074
30
0
41
1
10
45.1421338856009
20
-39.8167624712227
30
0
41
1
10
45.2556938609068
20
-39.8032716404226
30
0
41
1
10
45.4001202992609
20
-39.7867882141418
30
0
41
1
10
45.5002754507272
20
-39.7756773911444
30
0
41
1
10
45.5208245833269
20
-39.7734123555699
30
0
41
1
10
45.5628194824465
20
-39.7688162638943
30
0
41
1
10
45.6270479558293
20
-39.7618349414928
30
0
41
1
10
45.6949374875082
20
-39.7546143202362
30
0
41
1
10
45.8355089108377
20
-39.7399115032346
30
0
41
1
10
46.0356940310393
20
-39.7196110376545
30
0
41
1
10
46.261030372184
20
-39.6985092065221
30
0
41
1
10
46.4396073571311
20
-39.6826053917681
30
0
41
1
10
46.5007316899723
20
-39.6772912613028
30
0
41
1
10
46.594861490359
20
-39.6693296126338
30
0
41
1
10
46.6266220317888
20
-39.666679436384
30
0
41
1
10
46.6906144998279
20
-39.6614155975214
30
0
41
1
10
46.7228866600329
20
-39.658798513019
30
0
41
1
10
46.8856127657617
20
-39.6457982897864
30
0
41
1
10
47.1546917430922
20
-39.6255444980805
30
0
41
1
10
47.4408097690958
20
-39.6069286731837
30
0
41
1
10
47.6618261426761
20
-39.593783398119
30
0
41
1
10
47.7365714749949
20
-39.5895377513672
30
0
41
1
10
47.8882384294386
20
-39.5813531388401
30
0
41
1
10
47.9652055258023
20
-39.5774119650862
30
0
41
1
10
48.1991600651394
20
-39.5661151914564
30
0
41
1
10
48.3569796426247
20
-39.5593930141324
30
0
41
1
10
48.6761936632373
20
-39.5477021363865
30
0
41
1
10
48.9989834068205
20
-39.5377645187912
30
0
41
1
10
49.3288838467794
20
-39.5315936881552
30
0
41
1
10
49.5373444975605
20
-39.5289963377072
30
0
41
1
10
49.5791505280988
20
-39.5285398496574
30
0
41
1
10
49.6629927181184
20
-39.5277549542337
30
0
41
1
10
49.7050579837967
20
-39.5274263783251
30
0
41
1
10
49.8313895584037
20
-39.5266372523617
30
0
41
1
10
49.9156667145556
20
-39.526373676429
30
0
41
1
10
50
20
-39.526373676429
30
0
0
SPLINE
5
177
100
AcDbEntity
8
1
62
256
6
ByLayer
370
13
48
1
60
0
100
AcDbSpline
70
4
71
3
72
90
73
86
40
0
40
0
40
0
40
0
40
0.0312500000000039
40
0.0312500000000039
40
0.0625000000000077
40
0.0937500000000116
40
0.0937500000000116
40
0.125000000000015
40
0.125000000000015
40
0.132812500000016
40
0.132812500000016
40
0.140625000000017
40
0.156250000000018
40
0.156250000000018
40
0.187500000000022
40
0.218750000000026
40
0.218750000000026
40
0.234375000000029
40
0.234375000000029
40
0.24218750000003
40
0.24218750000003
40
0.250000000000032
40
0.250000000000032
40
0.281250000000036
40
0.31250000000004
40
0.31250000000004
40
0.343750000000044
40
0.343750000000044
40
0.351562500000045
40
0.351562500000045
40
0.359375000000046
40
0.375000000000046
40
0.375000000000046
40
0.406250000000047
40
0.437500000000048
40
0.437500000000048
40
0.453125000000048
40
0.453125000000048
40
0.468750000000048
40
0.468750000000048
40
0.500000000000048
40
0.531250000000047
40
0.531250000000047
40
0.546875000000047
40
0.546875000000047
40
0.554687500000047
40
0.554687500000047
40
0.562500000000046
40
0.562500000000046
40
0.593750000000044
40
0.593750000000044
40
0.625000000000041
40
0.656250000000039
40
0.656250000000039
40
0.664062500000038
40
0.664062500000038
40
0.671875000000037
40
0.687500000000035
40
0.687500000000035
40
0.71875000000003
40
0.750000000000026
40
0.750000000000026
40
0.765625000000023
40
0.765625000000023
40
0.773437500000023
40
0.773437500000023
40
0.781250000000022
40
0.781250000000022
40
0.812500000000019
40
0.843750000000017
40
0.843750000000017
40
0.859375000000016
40
0.859375000000016
40
0.875000000000015
40
0.875000000000015
40
0.906250000000012
40
0.906250000000012
40
0.937500000000009
40
0.968750000000006
40
0.968750000000006
40
0.976562500000004
40
0.976562500000004
40
0.984375000000003
40
0.984375000000003
40
1
40
1
40
1
40
1
41
1
10
50
20
-24.1525162851208
30
0
41
1
10
49.8313360092613
20
-24.1525162851208
30
0
41
1
10
49.664345813956
20
-24.1459418892985
30
0
41
1
10
49.3335667614455
20
-24.1202011081408
30
0
41
1
10
49.0059899505086
20
-24.0818645714071
30
0
41
1
10
48.6847160161951
20
-24.0186340738213
30
0
41
1
10
48.3666310608336
20
-23.9427242457599
30
0
41
1
10
48.2091826528254
20
-23.898431589679
30
0
41
1
10
48.0144471139267
20
-23.8347422785309
30
0
41
1
10
47.9755631816378
20
-23.8215717099131
30
0
41
1
10
47.8984533874075
20
-23.7945425565481
30
0
41
1
10
47.7836322305999
20
-23.7529223251052
30
0
41
1
10
47.6713129549497
20
-23.7080997172486
30
0
41
1
10
47.4499578151327
20
-23.6142249800625
30
0
41
1
10
47.1635579188107
20
-23.4778008838678
30
0
41
1
10
46.8944678864775
20
-23.3187708914805
30
0
41
1
10
46.6992662989937
20
-23.190729927971
30
0
41
1
10
46.6353037691388
20
-23.1465853953846
30
0
41
1
10
46.5410516912838
20
-23.0781092201477
30
0
41
1
10
46.5098947340946
20
-23.0548888687455
30
0
41
1
10
46.4484889268266
20
-23.0079453032492
30
0
41
1
10
46.4181991966628
20
-22.9841933259676
30
0
41
1
10
46.2687955806663
20
-22.8640397866806
30
0
41
1
10
46.0428070413192
20
-22.6628948856408
30
0
41
1
10
45.8423719704507
20
-22.4439965966035
30
0
41
1
10
45.6548103578799
20
-22.2159905616389
30
0
41
1
10
45.5674648272577
20
-22.0974349466798
30
0
41
1
10
45.4666330984231
20
-21.9432351029286
30
0
41
1
10
45.4468838573016
20
-21.9120881849544
30
0
41
1
10
45.408450570771
20
-21.8495475609527
30
0
41
1
10
45.3523101221576
20
-21.7552335738704
30
0
41
1
10
45.3006506373091
20
-21.6594168864488
30
0
41
1
10
45.2032232513212
20
-21.4657850399759
30
0
41
1
10
45.0890034119804
20
-21.2022877360768
30
0
41
1
10
45.0059662426793
20
-20.9280047722056
30
0
41
1
10
44.9556603280179
20
-20.7180928707632
30
0
41
1
10
44.9408906590065
20
-20.6474212135672
30
0
41
1
10
44.9154428105746
20
-20.5046358512682
30
0
41
1
10
44.9048618760988
20
-20.4330514016154
30
0
41
1
10
44.8794859694026
20
-20.2181488829221
30
0
41
1
10
44.8625319684917
20
-19.9308421051983
30
0
41
1
10
44.8786491296573
20
-19.641996360487
30
0
41
1
10
44.9032449173033
20
-19.4247909046125
30
0
41
1
10
44.9135319045279
20
-19.3522939519185
30
0
41
1
10
44.9321433065302
20
-19.2434071146478
30
0
41
1
10
44.9388775124909
20
-19.2070879381692
30
0
41
1
10
44.9534179334471
20
-19.1344027227894
30
0
41
1
10
44.9612349387983
20
-19.0979941858102
30
0
41
1
10
45.0028036624174
20
-18.9167915682736
30
0
41
1
10
45.0440797121632
20
-18.7739464030977
30
0
41
1
10
45.1421338856009
20
-18.492413551311
30
0
41
1
10
45.2556938609068
20
-18.2150391988482
30
0
41
1
10
45.4001202992609
20
-17.9461195985676
30
0
41
1
10
45.5002754507272
20
-17.7808229265214
30
0
41
1
10
45.5208245833269
20
-17.7478680356698
30
0
41
1
10
45.5628194824465
20
-17.6824053777989
30
0
41
1
10
45.6270479558293
20
-17.5850460388095
30
0
41
1
10
45.6949374875082
20
-17.4901668610397
30
0
41
1
10
45.8355089108377
20
-17.3036773628916
30
0
41
1
10
46.0356940310394
20
-17.0637257266178
30
0
41
1
10
46.2610303721839
20
-16.8411763299936
30
0
41
1
10
46.439607357131
20
-16.6809873327842
30
0
41
1
10
46.5007316899723
20
-16.6287135639023
30
0
41
1
10
46.594861490359
20
-16.5520311646542
30
0
41
1
10
46.6266220317888
20
-16.5267795952561
30
0
41
1
10
46.6906144998279
20
-16.4771250014013
30
0
41
1
10
46.7228866600329
20
-16.4526888869368
30
0
41
1
10
46.8856127657617
20
-16.3324487228599
30
0
41
1
10
47.1546917430922
20
-16.152454647243
30
0
41
1
10
47.4408097690958
20
-15.9969111082764
30
0
41
1
10
47.6618261426761
20
-15.8895581984319
30
0
41
1
10
47.7365714749949
20
-15.8553273413556
30
0
41
1
10
47.8882384294386
20
-15.7900282592816
30
0
41
1
10
47.9652055258023
20
-15.7589428332177
30
0
41
1
10
48.1991600651394
20
-15.6706557168514
30
0
41
1
10
48.3569796426247
20
-15.6192371436306
30
0
41
1
10
48.6761936632373
20
-15.5308514631403
30
0
41
1
10
48.9989834068205
20
-15.4569204637059
30
0
41
1
10
49.3288838467794
20
-15.4118443303164
30
0
41
1
10
49.5373444975605
20
-15.3929167577773
30
0
41
1
10
49.5791505280989
20
-15.3895944859512
30
0
41
1
10
49.6629927181184
20
-15.3838862227273
30
0
41
1
10
49.7050579837966
20
-15.3814990061981
30
0
41
1
10
49.8313895584037
20
-15.375768227225
30
0
41
1
10
49.9156667145556
20
-15.373857391308
30
0
41
1
10
50
20
-15.373857391308
30
0
0
SPLINE
5
178
100
AcDbEntity
8
1
62
256
6
ByLayer
370
18
48
1
60
0
100
AcDbSpline
70
4
71
3
72
8
73
4
40
0
40
0
40
0
40
0
40
1
40
1
40
1
40
1
41
1
10
56.7222277785939
20
15.489883924739
30
0
41
1
10
57.2558074866651
20
15.2483482643276
30
0
41
1
10
57.7891126711243
20
15.0067720073388
30
0
41
1
10
58.3220760857087
20
14.7651452093892
30
0
0
SPLINE
5
179
100
AcDbEntity
8
1
62
256
6
ByLayer
370
18
48
1
60
0
100
AcDbSpline
70
4
71
3
72
22
73
18
40
0
40
0
40
0
40
0
40
0.250000000000022
40
0.250000000000022
40
0.31250000000002
40
0.31250000000002
40
0.375000000000018
40
0.375000000000018
40
0.500000000000015
40
0.500000000000015
40
0.625000000000011
40
0.625000000000011
40
0.750000000000007
40
0.750000000000007
40
0.875000000000004
40
0.875000000000004
40
1
40
1
40
1
40
1
41
1
10
56.7222277786011
20
15.48988392474
30
0
41
1
10
56.7093839203455
20
15.4956979572811
30
0
41
1
10
56.6970656435746
20
15.4978563837266
30
0
41
1
10
56.6823624461219
20
15.4957006105013
30
0
41
1
10
56.6794509995493
20
15.495015570414
30
0
41
1
10
56.6738099040938
20
15.4931547717609
30
0
41
1
10
56.6710671579387
20
15.491978461571
30
0
41
1
10
56.6630741428232
20
15.4877053748986
30
0
41
1
10
56.658056942438
20
15.4838712934387
30
0
41
1
10
56.6487012908158
20
15.4740517454909
30
0
41
1
10
56.6443431450282
20
15.4679928811385
30
0
41
1
10
56.6367876018763
20
15.4540746421974
30
0
41
1
10
56.6335325365777
20
15.4461778540923
30
0
41
1
10
56.6281490927009
20
15.4283608117288
30
0
41
1
10
56.626024796867
20
15.4183383799912
30
0
41
1
10
56.6232223158824
20
15.3971330920484
30
0
41
1
10
56.6225009252407
20
15.385854146671
30
0
41
1
10
56.6225009252407
20
15.3738573913082
30
0
0
SPLINE
5
17A
100
AcDbEntity
8
1
62
256
6
ByLayer
370
18
48
1
60
0
100
AcDbSpline
70
4
71
3
72
25
73
21
40
0
40
0
40
0
40
0
40
0.124999999999995
40
0.124999999999995
40
0.249999999999989
40
0.249999999999989
40
0.374999999999984
40
0.374999999999984
40
0.437500000000002
40
0.437500000000002
40
0.50000000000002
40
0.562500000000039
40
0.562500000000039
40
0.625000000000057
40
0.625000000000057
40
0.750000000000038
40
0.750000000000038
40
0.875000000000019
40
0.875000000000019
40
1
40
1
40
1
40
1
41
1
10
56.6225009252407
20
-15.373857391308
30
0
41
1
10
56.6225009252407
20
-15.3857996377688
30
0
41
1
10
56.6232158259957
20
-15.3970284345974
30
0
41
1
10
56.6259917367161
20
-15.4181429935683
30
0
41
1
10
56.6280914763132
20
-15.4281197626241
30
0
41
1
10
56.6334520917128
20
-15.4459606977252
30
0
41
1
10
56.6367062366884
20
-15.4539037974567
30
0
41
1
10
56.6424035219666
20
-15.4644300870956
30
0
41
1
10
56.6444408817371
20
-15.4677020629501
30
0
41
1
10
56.6487014594722
20
-15.4736692503593
30
0
41
1
10
56.6531664398974
20
-15.479096780527
30
0
41
1
10
56.6580205679534
20
-15.4834977616312
30
0
41
1
10
56.6630645292674
20
-15.4873984024665
30
0
41
1
10
56.665693005618
20
-15.4891038039639
30
0
41
1
10
56.6737563889751
20
-15.4934193552256
30
0
41
1
10
56.6793688344988
20
-15.4952497373404
30
0
41
1
10
56.6910308625779
20
-15.4969833101535
30
0
41
1
10
56.6971193450159
20
-15.4968757018865
30
0
41
1
10
56.7095203967993
20
-15.494767611376
30
0
41
1
10
56.71582355718
20
-15.4927829252543
30
0
41
1
10
56.7222277785916
20
-15.48988392474
30
0
0
SPLINE
5
17B
100
AcDbEntity
8
1
62
256
6
ByLayer
370
18
48
1
60
0
100
AcDbSpline
70
4
71
3
72
8
73
4
40
0
40
0
40
0
40
0
40
1
40
1
40
1
40
1
41
1
10
58.3220760857087
20
-14.7651452093892
30
0
41
1
10
57.7891126711235
20
-15.0067720073391
30
0
41
1
10
57.2558074866636
20
-15.2483482643282
30
0
41
1
10
56.7222277785916
20
-15.48988392474
30
0
0
SPLINE
5
17C
100
AcDbEntity
8
1
62
256
6
ByLayer
370
18
48
1
60
0
100
AcDbSpline
70
4
71
3
72
8
73
4
40
0
40
0
40
0
40
0
40
1
40
1
40
1
40
1
41
1
10
58.592224710792
20
-14.9207060059975
30
0
41
1
10
58.5024880325915
20
-14.8688160114389
30
0
41
1
10
58.4124340940212
20
-14.816962924062
30
0
41
1
10
58.3220760857087
20
-14.7651452093892
30
0
0
SPLINE
5
17D
100
AcDbEntity
8
1
62
256
6
ByLayer
370
18
48
1
60
0
100
AcDbSpline
70
4
71
3
72
9
73
5
40
0
40
0
40
0
40
0
40
0.5
40
1
40
1
40
1
40
1
41
1
10
58.592224710792
20
-21.3292939940024
30
0
41
1
10
58.6645288236961
20
-20.2611959960016
30
0
41
1
10
58.7373949649506
20
-18.125
30
0
41
1
10
58.6645288236961
20
-15.9888040039984
30
0
41
1
10
58.592224710792
20
-14.9207060059975
30
0
0
SPLINE
5
17E
100
AcDbEntity
8
1
62
256
6
ByLayer
370
18
48
1
60
0
100
AcDbSpline
70
4
71
3
72
8
73
4
40
0
40
0
40
0
40
0
40
1
40
1
40
1
40
1
41
1
10
58.3220760857087
20
-21.9098547906108
30
0
41
1
10
58.4124340940212
20
-21.7164684467199
30
0
41
1
10
58.5024880325915
20
-21.5229500900997
30
0
41
1
10
58.592224710792
20
-21.3292939940024
30
0
0
SPLINE
5
17F
100
AcDbEntity
8
1
62
256
6
ByLayer
370
18
48
1
60
0
100
AcDbSpline
70
4
71
3
72
8
73
4
40
0
40
0
40
0
40
0
40
1
40
1
40
1
40
1
41
1
10
56.7222277785938
20
-23.8898777831588
30
0
41
1
10
57.2558074866666
20
-23.2299900870732
30
0
41
1
10
57.7891126711258
20
-22.5699914790774
30
0
41
1
10
58.3220760857087
20
-21.9098547906108
30
0
0
SPLINE
5
180
100
AcDbEntity
8
1
62
256
6
ByLayer
370
18
48
1
60
0
100
AcDbSpline
70
4
71
3
72
22
73
18
40
0
40
0
40
0
40
0
40
0.250000000000101
40
0.250000000000101
40
0.3125000000001
40
0.3125000000001
40
0.375000000000098
40
0.375000000000098
40
0.500000000000079
40
0.500000000000079
40
0.625000000000059
40
0.625000000000059
40
0.750000000000039
40
0.750000000000039
40
0.87500000000002
40
0.87500000000002
40
1
40
1
40
1
40
1
41
1
10
56.7222277786002
20
-23.8898777831615
30
0
41
1
10
56.7093839203447
20
-23.9057620154605
30
0
41
1
10
56.6970656435745
20
-23.9239603561066
30
0
41
1
10
56.6823624461219
20
-23.949779365559
30
0
41
1
10
56.6794509995491
20
-23.9551154133782
30
0
41
1
10
56.6738099040937
20
-23.9659159265894
30
0
41
1
10
56.6710671579386
20
-23.9714022063555
30
0
41
1
10
56.6630741428231
20
-23.988121277039
30
0
41
1
10
56.6580569424379
20
-23.9996119078169
30
0
41
1
10
56.6487012908157
20
-24.023344994286
30
0
41
1
10
56.6443431450282
20
-24.0356829315231
30
0
41
1
10
56.6367876018763
20
-24.0600189967504
30
0
41
1
10
56.6335325365776
20
-24.0721434653559
30
0
41
1
10
56.6281490927008
20
-24.0962980011109
30
0
41
1
10
56.626024796867
20
-24.1084094955686
30
0
41
1
10
56.6232223158824
20
-24.131270479332
30
0
41
1
10
56.6225009252407
20
-24.142173381187
30
0
41
1
10
56.6225009252407
20
-24.1525162851208
30
0
0
SPLINE
5
181
100
AcDbEntity
8
1
62
256
6
ByLayer
370
18
48
1
60
0
100
AcDbSpline
70
4
71
3
72
25
73
21
40
0
40
0
40
0
40
0
40
0.125000000000051
40
0.125000000000051
40
0.250000000000101
40
0.250000000000101
40
0.375000000000152
40
0.375000000000152
40
0.43750000000015
40
0.43750000000015
40
0.500000000000148
40
0.562500000000146
40
0.562500000000146
40
0.625000000000144
40
0.625000000000144
40
0.750000000000096
40
0.750000000000096
40
0.875000000000048
40
0.875000000000048
40
1
40
1
40
1
40
1
41
1
10
56.6225009252407
20
-39.5263736764289
30
0
41
1
10
56.6225009252407
20
-39.5280200133574
30
0
41
1
10
56.6232158259957
20
-39.5283997493843
30
0
41
1
10
56.6259917367161
20
-39.5267749555163
30
0
41
1
10
56.6280914763132
20
-39.5247197104581
30
0
41
1
10
56.6334520917128
20
-39.5184227743344
30
0
41
1
10
56.6367062366884
20
-39.5142029549452
30
0
41
1
10
56.6424035219666
20
-39.5063516296194
30
0
41
1
10
56.6444408817371
20
-39.5034765102603
30
0
41
1
10
56.6487014594722
20
-39.4973443503071
30
0
41
1
10
56.6531664398974
20
-39.4908051025746
30
0
41
1
10
56.6580205679534
20
-39.4834916045596
30
0
41
1
10
56.6630645292673
20
-39.4758007972375
30
0
41
1
10
56.665693005618
20
-39.4717485816063
30
0
41
1
10
56.6737563889751
20
-39.4591936820642
30
0
41
1
10
56.6793688344988
20
-39.4502962718148
30
0
41
1
10
56.6910308625779
20
-39.4315306558974
30
0
41
1
10
56.6971193450159
20
-39.4215976255404
30
0
41
1
10
56.7095203967993
20
-39.4011140409225
30
0
41
1
10
56.71582355718
20
-39.3905809251118
30
0
41
1
10
56.7222277785916
20
-39.3797617079015
30
0
0
SPLINE
5
182
100
AcDbEntity
8
1
62
256
6
ByLayer
370
18
48
1
60
0
100
AcDbSpline
70
4
71
3
72
8
73
4
40
0
40
0
40
0
40
0
40
1
40
1
40
1
40
1
41
1
10
58.3220760857087
20
-36.675
30
0
41
1
10
57.7891126711235
20
-37.5767634864195
30
0
41
1
10
57.2558074866636
20
-38.4783383514051
30
0
41
1
10
56.7222277785916
20
-39.3797617079015
30
0
0
SPLINE
5
183
100
AcDbEntity
8
1
62
256
6
ByLayer
370
18
48
1
60
0
100
AcDbSpline
70
4
71
3
72
8
73
4
40
0
40
0
40
0
40
0
40
1
40
1
40
1
40
1
41
1
10
58.592224710792
20
-36.25
30
0
41
1
10
58.5024880325919
20
-36.3917661015381
30
0
41
1
10
58.4124340940215
20
-36.5334313707813
30
0
41
1
10
58.3220760857087
20
-36.675
30
0
0
SPLINE
5
184
100
AcDbEntity
8
1
62
256
6
ByLayer
370
18
48
1
60
0
100
AcDbSpline
70
4
71
3
72
12
73
8
40
0
40
0
40
0
40
0
40
0.498241052333526
40
0.498241052333526
40
0.749120526166763
40
0.749120526166763
40
1
40
1
40
1
40
1
41
1
10
58.7009617107915
20
-36.2499999999999
30
0
41
1
10
58.7009149088474
20
-36.2499999999999
30
0
41
1
10
58.6919001515929
20
-36.25
30
0
41
1
10
58.6648158646798
20
-36.25
30
0
41
1
10
58.6534638119138
20
-36.25
30
0
41
1
10
58.626208288726
20
-36.25
30
0
41
1
10
58.6103275308572
20
-36.25
30
0
41
1
10
58.592224710792
20
-36.25
30
0
0
SPLINE
5
185
100
AcDbEntity
8
1
62
256
6
ByLayer
370
18
48
1
60
0
100
AcDbSpline
70
4
71
3
72
12
73
8
40
0
40
0
40
0
40
0
40
0.250879472837048
40
0.250879472837048
40
0.501758945674097
40
0.501758945674097
40
1
40
1
40
1
40
1
41
1
10
58.592224710792
20
36.25
30
0
41
1
10
58.6103275308571
20
36.25
30
0
41
1
10
58.626208288726
20
36.25
30
0
41
1
10
58.6534638119138
20
36.25
30
0
41
1
10
58.6648158646797
20
36.25
30
0
41
1
10
58.6919001517364
20
36.25
30
0
41
1
10
58.7009149089912
20
36.25
30
0
41
1
10
58.7009617107926
20
36.25
30
0
0
SPLINE
5
186
100
AcDbEntity
8
1
62
256
6
ByLayer
370
18
48
1
60
0
100
AcDbSpline
70
4
71
3
72
8
73
4
40
0
40
0
40
0
40
0
40
1
40
1
40
1
40
1
41
1
10
58.3220760857087
20
36.675
30
0
41
1
10
58.4124340940215
20
36.5334313707813
30
0
41
1
10
58.5024880325919
20
36.3917661015381
30
0
41
1
10
58.592224710792
20
36.25
30
0
0
SPLINE
5
187
100
AcDbEntity
8
1
62
256
6
ByLayer
370
18
48
1
60
0
100
AcDbSpline
70
4
71
3
72
8
73
4
40
0
40
0
40
0
40
0
40
1
40
1
40
1
40
1
41
1
10
56.7222277785937
20
39.379761707898
30
0
41
1
10
57.255807486665
20
38.4783383514028
30
0
41
1
10
57.7891126711241
20
37.5767634864184
30
0
41
1
10
58.3220760857087
20
36.675
30
0
0
SPLINE
5
188
100
AcDbEntity
8
1
62
256
6
ByLayer
370
18
48
1
60
0
100
AcDbSpline
70
4
71
3
72
22
73
18
40
0
40
0
40
0
40
0
40
0.250000000000088
40
0.250000000000088
40
0.31250000000006
40
0.31250000000006
40
0.375000000000032
40
0.375000000000032
40
0.500000000000025
40
0.500000000000025
40
0.625000000000019
40
0.625000000000019
40
0.750000000000013
40
0.750000000000013
40
0.875000000000006
40
0.875000000000006
40
1
40
1
40
1
40
1
41
1
10
56.7222277786
20
39.3797617079015
30
0
41
1
10
56.7093839203445
20
39.4014599727416
30
0
41
1
10
56.6970656435744
20
39.4218167398333
30
0
41
1
10
56.6823624461218
20
39.4454799760603
30
0
41
1
10
56.6794509995491
20
39.4501309837923
30
0
41
1
10
56.6738099040937
20
39.4590706983503
30
0
41
1
10
56.6710671579386
20
39.4633806679265
30
0
41
1
10
56.6630741428231
20
39.4758266519376
30
0
41
1
10
56.6580569424379
20
39.4834832012556
30
0
41
1
10
56.6487012908157
20
39.4973967397768
30
0
41
1
10
56.6443431450281
20
39.5036758126616
30
0
41
1
10
56.6367876018763
20
39.5140936389477
30
0
41
1
10
56.6335325365776
20
39.5183213194482
30
0
41
1
10
56.6281490927008
20
39.5246588128397
30
0
41
1
10
56.626024796867
20
39.5267478755598
30
0
41
1
10
56.6232223158824
20
39.5284035713804
30
0
41
1
10
56.6225009252407
20
39.528027527858
30
0
41
1
10
56.6225009252407
20
39.526373676429
30
0
0
SPLINE
5
189
100
AcDbEntity
8
1
62
256
6
ByLayer
370
18
48
1
60
0
100
AcDbSpline
70
4
71
3
72
25
73
21
40
0
40
0
40
0
40
0
40
0.125000000000011
40
0.125000000000011
40
0.250000000000022
40
0.250000000000022
40
0.375000000000033
40
0.375000000000033
40
0.437500000000026
40
0.437500000000026
40
0.500000000000019
40
0.562500000000011
40
0.562500000000011
40
0.625000000000004
40
0.625000000000004
40
0.750000000000003
40
0.750000000000003
40
0.875000000000001
40
0.875000000000001
40
1
40
1
40
1
40
1
41
1
10
56.6225009252407
20
24.1525162851209
30
0
41
1
10
56.6225009252407
20
24.1422203755886
30
0
41
1
10
56.6232158259957
20
24.1313713147869
30
0
41
1
10
56.6259917367161
20
24.108631961948
30
0
41
1
10
56.6280914763132
20
24.096599947834
30
0
41
1
10
56.6334520917128
20
24.0724620766092
30
0
41
1
10
56.6367062366884
20
24.0602991574885
30
0
41
1
10
56.6424035219666
20
24.0419215425238
30
0
41
1
10
56.6444408817371
20
24.0357744473102
30
0
41
1
10
56.6487014594722
20
24.0236750999478
30
0
41
1
10
56.6531664398974
20
24.0117083220477
30
0
41
1
10
56.6580205679534
20
23.9999938429284
30
0
41
1
10
56.6630645292673
20
23.988402394771
30
0
41
1
10
56.665693005618
20
23.9826447776423
30
0
41
1
10
56.6737563889752
20
23.9657743268386
30
0
41
1
10
56.6793688344988
20
23.9550465344743
30
0
41
1
10
56.6910308625779
20
23.9345473457439
30
0
41
1
10
56.6971193450159
20
23.9247219236539
30
0
41
1
10
56.7095203967993
20
23.9063464295465
30
0
41
1
10
56.71582355718
20
23.8977979998575
30
0
41
1
10
56.7222277785916
20
23.8898777831615
30
0
0
SPLINE
5
18A
100
AcDbEntity
8
1
62
256
6
ByLayer
370
18
48
1
60
0
100
AcDbSpline
70
4
71
3
72
8
73
4
40
0
40
0
40
0
40
0
40
1
40
1
40
1
40
1
41
1
10
58.3220760857087
20
21.9098547906108
30
0
41
1
10
57.7891126711252
20
22.5699914790783
30
0
41
1
10
57.2558074866652
20
23.2299900870749
30
0
41
1
10
56.7222277785916
20
23.8898777831615
30
0
0
SPLINE
5
18B
100
AcDbEntity
8
1
62
256
6
ByLayer
370
18
48
1
60
0
100
AcDbSpline
70
4
71
3
72
8
73
4
40
0
40
0
40
0
40
0
40
1
40
1
40
1
40
1
41
1
10
58.592224710792
20
21.3292939940024
30
0
41
1
10
58.5024880325915
20
21.5229500900997
30
0
41
1
10
58.4124340940212
20
21.7164684467199
30
0
41
1
10
58.3220760857087
20
21.9098547906108
30
0
0
SPLINE
5
18C
100
AcDbEntity
8
1
62
256
6
ByLayer
370
18
48
1
60
0
100
AcDbSpline
70
4
71
3
72
9
73
5
40
0
40
0
40
0
40
0
40
0.5
40
1
40
1
40
1
40
1
41
1
10
58.592224710792
20
14.9207060059976
30
0
41
1
10
58.6645288236961
20
15.9888040039984
30
0
41
1
10
58.7373949649506
20
18.125
30
0
41
1
10
58.6645288236961
20
20.2611959960016
30
0
41
1
10
58.592224710792
20
21.3292939940024
30
0
0
SPLINE
5
18D
100
AcDbEntity
8
1
62
256
6
ByLayer
370
18
48
1
60
0
100
AcDbSpline
70
4
71
3
72
8
73
4
40
0
40
0
40
0
40
0
40
1
40
1
40
1
40
1
41
1
10
58.3220760857087
20
14.7651452093892
30
0
41
1
10
58.4124340940212
20
14.816962924062
30
0
41
1
10
58.5024880325915
20
14.868816011439
30
0
41
1
10
58.592224710792
20
14.9207060059976
30
0
0
SPLINE
5
18E
100
AcDbEntity
8
SK1
62
256
6
ByLayer
370
18
48
1
60
0
100
AcDbSpline
70
4
71
3
72
33
73
29
40
0
40
0
40
0
40
0
40
0.143192088981461
40
0.143192088981461
40
0.214788133472192
40
0.214788133472192
40
0.250586155717556
40
0.250586155717556
40
0.28638417796292
40
0.28638417796292
40
0.429576266944374
40
0.429576266944374
40
0.501172311435099
40
0.501172311435099
40
0.519071322557782
40
0.519071322557782
40
0.536970333680465
40
0.536970333680465
40
0.572768355925836
40
0.572768355925836
40
0.71596044490731
40
0.71596044490731
40
0.787556489398047
40
0.787556489398047
40
0.859152533888785
40
0.859152533888785
40
0.930748578379522
40
1
40
1
40
1
40
1
41
1
10
-39.8
20
8.11000000000001
30
0
41
1
10
-39.8
20
8.23319689559852
30
0
41
1
10
-39.8118667916719
20
8.35417457248445
30
0
41
1
10
-39.8465803825738
20
8.53249589382585
30
0
41
1
10
-39.8609912480162
20
8.59140873386497
30
0
41
1
10
-39.8869393805851
20
8.67897985909462
30
0
41
1
10
-39.8963119912343
20
8.70803700905927
30
0
41
1
10
-39.9165318607134
20
8.76588115792384
30
0
41
1
10
-39.9273903818293
20
8.79468376498656
30
0
41
1
10
-39.9848208029507
20
8.9365275467211
30
0
41
1
10
-40.0411076489352
20
9.04432103623853
30
0
41
1
10
-40.1409292539038
20
9.19766645460024
30
0
41
1
10
-40.1767864152033
20
9.2473812207858
30
0
41
1
10
-40.2249698636006
20
9.30771640042951
30
0
41
1
10
-40.2347750725977
20
9.31969280465512
30
0
41
1
10
-40.2547276099737
20
9.34346199298685
30
0
41
1
10
-40.2648863442039
20
9.35526710192224
30
0
41
1
10
-40.2957187398807
20
9.39021856852924
30
0
41
1
10
-40.316788933274
20
9.41295223542141
30
0
41
1
10
-40.4246877217537
20
9.52382343996283
30
0
41
1
10
-40.5190834069945
20
9.60365303760281
30
0
41
1
10
-40.6731649779178
20
9.70984395692813
30
0
41
1
10
-40.7266213756713
20
9.74296612059283
30
0
41
1
10
-40.8379913960703
20
9.80439826016647
30
0
41
1
10
-40.8949278201465
20
9.8321631082388
30
0
41
1
10
-41.0110429545896
20
9.88181409175229
30
0
41
1
10
-41.1275320065346
20
9.92490748121503
30
0
41
1
10
-41.2485409632406
20
9.95662546282708
30
0
41
1
10
-41.3091737143753
20
9.9693694953778
30
0
0
SPLINE
5
18F
100
AcDbEntity
8
SK1
62
256
6
ByLayer
370
18
48
1
60
0
100
AcDbSpline
70
4
71
3
72
36
73
32
40
0
40
0
40
0
40
0
40
0.0328987924827207
40
0.101977450162523
40
0.101977450162523
40
0.136516779002423
40
0.136516779002423
40
0.171056107842323
40
0.171056107842323
40
0.309213423201914
40
0.309213423201914
40
0.343752752041816
40
0.343752752041816
40
0.378292080881718
40
0.378292080881718
40
0.44737073856152
40
0.516449396241323
40
0.516449396241323
40
0.550988725081226
40
0.550988725081226
40
0.585528053921129
40
0.585528053921129
40
0.72368536928075
40
0.72368536928075
40
0.79276402696056
40
0.79276402696056
40
0.827303355800466
40
0.827303355800466
40
0.861842684640371
40
0.861842684640371
40
1
40
1
40
1
40
1
41
1
10
-41.4083314493481
20
-9.98748103168103
30
0
41
1
10
-41.3783766771024
20
-9.98282739976551
30
0
41
1
10
-41.2859396064863
20
-9.96618825738648
30
0
41
1
10
-41.1947809789536
20
-9.94271877100826
30
0
41
1
10
-41.1030519769239
20
-9.91407293254841
30
0
41
1
10
-41.0726322747058
20
-9.903718457195
30
0
41
1
10
-41.0128138632697
20
-9.88166344995557
30
0
41
1
10
-40.9833218989539
20
-9.86993537212496
30
0
41
1
10
-40.8378957516775
20
-9.8078741114214
30
0
41
1
10
-40.7280022830846
20
-9.74738157881811
30
0
41
1
10
-40.5984896327907
20
-9.65843866061974
30
0
41
1
10
-40.5729176066122
20
-9.6399249472407
30
0
41
1
10
-40.5230012181478
20
-9.60186424757501
30
0
41
1
10
-40.4986408544189
20
-9.58231248889066
30
0
41
1
10
-40.4273036120927
20
-9.5221314919886
30
0
41
1
10
-40.3368284332642
20
-9.43782945531143
30
0
41
1
10
-40.2553380819533
20
-9.34561619017506
30
0
41
1
10
-40.1975802767161
20
-9.27347919268325
30
0
41
1
10
-40.1788886982289
20
-9.24893645024335
30
0
41
1
10
-40.1426386042457
20
-9.19884402605831
30
0
41
1
10
-40.1251406286122
20
-9.17337272151832
30
0
41
1
10
-40.0412615511893
20
-9.04471070963828
30
0
41
1
10
-39.9850618711732
20
-8.93689382639147
30
0
41
1
10
-39.9165371244681
20
-8.76799066715
30
0
41
1
10
-39.8963441090146
20
-8.71048496754932
30
0
41
1
10
-39.8701301158719
20
-8.62236256644641
30
0
41
1
10
-39.8621036923976
20
-8.59277283294423
30
0
41
1
10
-39.8475390636706
20
-8.53346301503353
30
0
41
1
10
-39.8409871302113
20
-8.50369744436819
30
0
41
1
10
-39.8118441262851
20
-8.35431913644254
30
0
41
1
10
-39.8
20
-8.23306832906806
30
0
41
1
10
-39.8
20
-8.10999999999999
30
0
0
SPLINE
5
190
100
AcDbEntity
8
SK1
62
256
6
ByLayer
370
18
48
1
60
0
100
AcDbSpline
70
4
71
3
72
8
73
4
40
0
40
0
40
0
40
0
40
1
40
1
40
1
40
1
41
1
10
-48.0000748840331
20
-15.1575618641729
30
0
41
1
10
-48.0704205135134
20
-15.1479701459217
30
0
41
1
10
-48.1381154484484
20
-15.1287112305897
30
0
41
1
10
-48.2037500000014
20
-15.1019212913229
30
0
0
SPLINE
5
191
100
AcDbEntity
8
SK1
62
256
6
ByLayer
370
18
48
1
60
0
100
AcDbSpline
70
4
71
3
72
22
73
18
40
0
40
0
40
0
40
0
40
0.250000000000003
40
0.250000000000003
40
0.375000000000002
40
0.375000000000002
40
0.5
40
0.5
40
0.624999999999999
40
0.624999999999999
40
0.749999999999997
40
0.749999999999997
40
0.874999999999996
40
0.874999999999996
40
0.937499999999998
40
0.937499999999998
40
1
40
1
40
1
40
1
41
1
10
-48.20375
20
-15.1019212913179
30
0
41
1
10
-48.2737896568834
20
-15.2420308432048
30
0
41
1
10
-48.3417739186829
20
-15.3802391073468
30
0
41
1
10
-48.4388914764234
20
-15.5858968916662
30
0
41
1
10
-48.4704434350604
20
-15.6541805613641
30
0
41
1
10
-48.531401090616
20
-15.7905514952447
30
0
41
1
10
-48.5608102877275
20
-15.8586361890738
30
0
41
1
10
-48.6167419021676
20
-15.99511626323
30
0
41
1
10
-48.6432690328275
20
-16.0635082821252
30
0
41
1
10
-48.6923318001705
20
-16.2013692932474
30
0
41
1
10
-48.7148712626935
20
-16.2708358902596
30
0
41
1
10
-48.7543493944711
20
-16.4119679515415
30
0
41
1
10
-48.7712829155222
20
-16.4836382818077
30
0
41
1
10
-48.7908820151232
20
-16.5938963424684
30
0
41
1
10
-48.7964443706483
20
-16.6311101972906
30
0
41
1
10
-48.8053459563062
20
-16.7066481300675
30
0
41
1
10
-48.8086824422018
20
-16.745062428689
30
0
41
1
10
-48.8107662132841
20
-16.7836440447101
30
0
0
SPLINE
5
192
100
AcDbEntity
8
SK1
62
256
6
ByLayer
370
18
48
1
60
0
100
AcDbSpline
70
4
71
3
72
79
73
75
40
0
40
0
40
0
40
0
40
0.124999999999996
40
0.124999999999996
40
0.187499999999994
40
0.187499999999994
40
0.249999999999992
40
0.249999999999992
40
0.31249999999999
40
0.31249999999999
40
0.343749999999988
40
0.343749999999988
40
0.374999999999987
40
0.374999999999987
40
0.406249999999985
40
0.406249999999985
40
0.421874999999985
40
0.421874999999985
40
0.437499999999984
40
0.437499999999984
40
0.453124999999983
40
0.453124999999983
40
0.460937499999984
40
0.460937499999984
40
0.468749999999984
40
0.468749999999984
40
0.476562499999984
40
0.476562499999984
40
0.484374999999985
40
0.484374999999985
40
0.492187499999985
40
0.492187499999985
40
0.496093749999985
40
0.496093749999985
40
0.499999999999986
40
0.499999999999986
40
0.503906249999986
40
0.503906249999986
40
0.507812499999986
40
0.507812499999986
40
0.511718749999986
40
0.511718749999986
40
0.515624999999986
40
0.519531249999987
40
0.519531249999987
40
0.523437499999987
40
0.523437499999987
40
0.531249999999987
40
0.531249999999987
40
0.539062499999988
40
0.539062499999988
40
0.546874999999988
40
0.546874999999988
40
0.562499999999987
40
0.562499999999987
40
0.578124999999986
40
0.578124999999986
40
0.593749999999985
40
0.593749999999985
40
0.609374999999984
40
0.609374999999984
40
0.624999999999983
40
0.624999999999983
40
0.656249999999984
40
0.656249999999984
40
0.687499999999985
40
0.687499999999985
40
0.749999999999989
40
0.749999999999989
40
0.812499999999992
40
0.812499999999992
40
0.874999999999996
40
0.874999999999996
40
1
40
1
40
1
40
1
41
1
10
-48.8107662132844
20
-16.78364404471
30
0
41
1
10
-48.8207523906186
20
-16.9685409667885
30
0
41
1
10
-48.8347977886099
20
-17.1511425735611
30
0
41
1
10
-48.8632379135321
20
-17.4208764178835
30
0
41
1
10
-48.8739567807322
20
-17.5100871965657
30
0
41
1
10
-48.8983160849202
20
-17.686856731432
30
0
41
1
10
-48.9119361518275
20
-17.7743014379767
30
0
41
1
10
-48.9427073319591
20
-17.9464331182848
30
0
41
1
10
-48.9598453675251
20
-18.0311898138798
30
0
41
1
10
-48.9892122906688
20
-18.1555907930016
30
0
41
1
10
-48.9996172942047
20
-18.1965975884405
30
0
41
1
10
-49.0219813405054
20
-18.2774502519169
30
0
41
1
10
-49.0339246793494
20
-18.3172512505914
30
0
41
1
10
-49.0597546696232
20
-18.3949053757418
30
0
41
1
10
-49.0736370870421
20
-18.4328063101043
30
0
41
1
10
-49.096611531885
20
-18.4875986998502
30
0
41
1
10
-49.10463218052
20
-18.5055158026076
30
0
41
1
10
-49.1216148192035
20
-18.5404488475258
30
0
41
1
10
-49.1305700741604
20
-18.5574515384199
30
0
41
1
10
-49.1495989668139
20
-18.5899411565921
30
0
41
1
10
-49.1596796879746
20
-18.6054669645304
30
0
41
1
10
-49.1760547886481
20
-18.6271634441899
30
0
41
1
10
-49.1817244171716
20
-18.634127364439
30
0
41
1
10
-49.1936049787256
20
-18.6473679087015
30
0
41
1
10
-49.1998257683412
20
-18.6536519281457
30
0
41
1
10
-49.2128308013287
20
-18.6651655634118
30
0
41
1
10
-49.2196268301045
20
-18.6704154850799
30
0
41
1
10
-49.2340213128812
20
-18.679529539359
30
0
41
1
10
-49.2416110529627
20
-18.683376618382
30
0
41
1
10
-49.2575031351021
20
-18.6889472762515
30
0
41
1
10
-49.2658380493687
20
-18.6907070327499
30
0
41
1
10
-49.2791862436772
20
-18.691115984931
30
0
41
1
10
-49.2837741648611
20
-18.6908673686869
30
0
41
1
10
-49.293000340094
20
-18.6895099395686
30
0
41
1
10
-49.297669725401
20
-18.688403656413
30
0
41
1
10
-49.3071329803955
20
-18.6852456585685
30
0
41
1
10
-49.3119684578654
20
-18.6831674656062
30
0
41
1
10
-49.3214736463005
20
-18.6781349241719
30
0
41
1
10
-49.3261621837212
20
-18.6751829312233
30
0
41
1
10
-49.3354171762964
20
-18.6684485266957
30
0
41
1
10
-49.3400042746419
20
-18.6646466503151
30
0
41
1
10
-49.3489704146133
20
-18.6563337006179
30
0
41
1
10
-49.3576063578988
20
-18.647437433431
30
0
41
1
10
-49.3656869050432
20
-18.6375600168365
30
0
41
1
10
-49.3735293784245
20
-18.6272620248828
30
0
41
1
10
-49.3773481206102
20
-18.6218767227383
30
0
41
1
10
-49.3883502011651
20
-18.6053899964793
30
0
41
1
10
-49.3950862147047
20
-18.5939828719788
30
0
41
1
10
-49.4077343741285
20
-18.5705962105257
30
0
41
1
10
-49.4136422709847
20
-18.558613721404
30
0
41
1
10
-49.4248380081823
20
-18.5342179360184
30
0
41
1
10
-49.4301027025764
20
-18.5218459068414
30
0
41
1
10
-49.444967871985
20
-18.4847742162959
30
0
41
1
10
-49.4537487107809
20
-18.4599209641359
30
0
41
1
10
-49.4699151336038
20
-18.4100429780573
30
0
41
1
10
-49.477286490078
20
-18.3850164955221
30
0
41
1
10
-49.4910331687122
20
-18.3348411143027
30
0
41
1
10
-49.4974039377011
20
-18.3096916560177
30
0
41
1
10
-49.5093887593113
20
-18.2592997363228
30
0
41
1
10
-49.5149900878562
20
-18.2340992840122
30
0
41
1
10
-49.525532410216
20
-18.1839454282595
30
0
41
1
10
-49.5304827245517
20
-18.1589486032535
30
0
41
1
10
-49.5445644756584
20
-18.084150165278
30
0
41
1
10
-49.5529365392994
20
-18.0345381379893
30
0
41
1
10
-49.5682708760771
20
-17.9356660527955
30
0
41
1
10
-49.5752262670634
20
-17.8864077130934
30
0
41
1
10
-49.5944919615919
20
-17.7390322706651
30
0
41
1
10
-49.60522820112
20
-17.6413081499737
30
0
41
1
10
-49.6239958360567
20
-17.4465352020578
30
0
41
1
10
-49.6320044071804
20
-17.3494920731619
30
0
41
1
10
-49.6460382027979
20
-17.1559009792181
30
0
41
1
10
-49.6520570014112
20
-17.0593244609468
30
0
41
1
10
-49.6677597109614
20
-16.7705987748151
30
0
41
1
10
-49.6751434128412
20
-16.5793088711667
30
0
41
1
10
-49.6803455045439
20
-16.3888633077079
30
0
0
SPLINE
5
193
100
AcDbEntity
8
SK1
62
256
6
ByLayer
370
18
48
1
60
0
100
AcDbSpline
70
4
71
3
72
26
73
22
40
0
40
0
40
0
40
0
40
0.124999999999998
40
0.124999999999998
40
0.156249999999997
40
0.156249999999997
40
0.187499999999996
40
0.187499999999996
40
0.249999999999998
40
0.249999999999998
40
0.375000000000003
40
0.375000000000003
40
0.500000000000007
40
0.500000000000007
40
0.562500000000008
40
0.562500000000008
40
0.625000000000008
40
0.625000000000008
40
0.750000000000006
40
0.750000000000006
40
1
40
1
40
1
40
1
41
1
10
-49.6803455045439
20
-16.3888633077079
30
0
41
1
10
-49.6826466725058
20
-16.3046188817783
30
0
41
1
10
-49.6885779490543
20
-16.2175770741307
30
0
41
1
10
-49.6993728100179
20
-16.1056987249005
30
0
41
1
10
-49.7016978917135
20
-16.0831698556118
30
0
41
1
10
-49.7066424416954
20
-16.0378177461374
30
0
41
1
10
-49.7092669763272
20
-16.0149526655823
30
0
41
1
10
-49.7174822299178
20
-15.9462740562197
30
0
41
1
10
-49.7234030801493
20
-15.9004378613829
30
0
41
1
10
-49.7420007665262
20
-15.7627573300227
30
0
41
1
10
-49.7554901907109
20
-15.6707406700139
30
0
41
1
10
-49.7826003725113
20
-15.4861418061612
30
0
41
1
10
-49.7962305385269
20
-15.3935596611362
30
0
41
1
10
-49.8156911072293
20
-15.2541895927494
30
0
41
1
10
-49.8220175105965
20
-15.2076501594007
30
0
41
1
10
-49.8342006020737
20
-15.1143942032187
30
0
41
1
10
-49.8400654924927
20
-15.0676068524451
30
0
41
1
10
-49.8566753045913
20
-14.9276480792358
30
0
41
1
10
-49.8664422955215
20
-14.8348187950968
30
0
41
1
10
-49.8906557219728
20
-14.5575231178709
30
0
41
1
10
-49.9
20
-14.3742457791333
30
0
41
1
10
-49.9
20
-14.1920931702398
30
0
0
SPLINE
5
194
100
AcDbEntity
8
SK1
62
256
6
ByLayer
370
18
48
1
60
0
100
AcDbSpline
70
4
71
3
72
79
73
75
40
0
40
0
40
0
40
0
40
0.124999999999977
40
0.124999999999977
40
0.187499999999966
40
0.187499999999966
40
0.249999999999954
40
0.249999999999954
40
0.312499999999942
40
0.312499999999942
40
0.343749999999937
40
0.343749999999937
40
0.374999999999932
40
0.374999999999932
40
0.406249999999927
40
0.406249999999927
40
0.421874999999924
40
0.421874999999924
40
0.437499999999921
40
0.437499999999921
40
0.453124999999919
40
0.453124999999919
40
0.460937499999918
40
0.460937499999918
40
0.468749999999917
40
0.468749999999917
40
0.476562499999916
40
0.476562499999916
40
0.484374999999916
40
0.484374999999916
40
0.492187499999915
40
0.492187499999915
40
0.496093749999914
40
0.496093749999914
40
0.499999999999913
40
0.499999999999913
40
0.503906249999911
40
0.503906249999911
40
0.50781249999991
40
0.50781249999991
40
0.511718749999909
40
0.511718749999909
40
0.515624999999908
40
0.519531249999907
40
0.519531249999907
40
0.523437499999906
40
0.523437499999906
40
0.531249999999906
40
0.531249999999906
40
0.539062499999906
40
0.539062499999906
40
0.546874999999907
40
0.546874999999907
40
0.562499999999909
40
0.562499999999909
40
0.578124999999911
40
0.578124999999911
40
0.593749999999913
40
0.593749999999913
40
0.609374999999915
40
0.609374999999915
40
0.624999999999917
40
0.624999999999917
40
0.656249999999924
40
0.656249999999924
40
0.687499999999931
40
0.687499999999931
40
0.749999999999945
40
0.749999999999945
40
0.812499999999958
40
0.812499999999958
40
0.874999999999972
40
0.874999999999972
40
1
40
1
40
1
40
1
41
1
10
-48.8107662132844
20
16.7836440447101
30
0
41
1
10
-48.8207523906186
20
16.9685409667885
30
0
41
1
10
-48.8347977886099
20
17.1511425735611
30
0
41
1
10
-48.8632379135321
20
17.4208764178834
30
0
41
1
10
-48.8739567807322
20
17.5100871965656
30
0
41
1
10
-48.8983160849202
20
17.6868567314319
30
0
41
1
10
-48.9119361518275
20
17.7743014379765
30
0
41
1
10
-48.942707331959
20
17.9464331182846
30
0
41
1
10
-48.9598453675251
20
18.0311898138796
30
0
41
1
10
-48.9892122906687
20
18.1555907930013
30
0
41
1
10
-48.9996172942047
20
18.1965975884403
30
0
41
1
10
-49.0219813405054
20
18.2774502519167
30
0
41
1
10
-49.0339246793494
20
18.3172512505911
30
0
41
1
10
-49.0597546696231
20
18.3949053757415
30
0
41
1
10
-49.073637087042
20
18.432806310104
30
0
41
1
10
-49.0966115318848
20
18.48759869985
30
0
41
1
10
-49.1046321805198
20
18.5055158026073
30
0
41
1
10
-49.1216148192033
20
18.5404488475255
30
0
41
1
10
-49.1305700741602
20
18.5574515384196
30
0
41
1
10
-49.1495989668137
20
18.5899411565919
30
0
41
1
10
-49.1596796879744
20
18.6054669645301
30
0
41
1
10
-49.1760547886479
20
18.6271634441897
30
0
41
1
10
-49.1817244171714
20
18.6341273644388
30
0
41
1
10
-49.1936049787253
20
18.6473679087012
30
0
41
1
10
-49.1998257683409
20
18.6536519281455
30
0
41
1
10
-49.2128308013284
20
18.6651655634115
30
0
41
1
10
-49.2196268301043
20
18.6704154850796
30
0
41
1
10
-49.2340213128809
20
18.6795295393588
30
0
41
1
10
-49.2416110529624
20
18.6833766183819
30
0
41
1
10
-49.2575031351017
20
18.6889472762514
30
0
41
1
10
-49.2658380493683
20
18.6907070327499
30
0
41
1
10
-49.2791862436769
20
18.691115984931
30
0
41
1
10
-49.2837741648607
20
18.6908673686869
30
0
41
1
10
-49.2930003400937
20
18.6895099395687
30
0
41
1
10
-49.2976697254007
20
18.688403656413
30
0
41
1
10
-49.3071329803951
20
18.6852456585686
30
0
41
1
10
-49.311968457865
20
18.6831674656063
30
0
41
1
10
-49.3214736463001
20
18.6781349241721
30
0
41
1
10
-49.3261621837208
20
18.6751829312236
30
0
41
1
10
-49.3354171762959
20
18.668448526696
30
0
41
1
10
-49.3400042746415
20
18.6646466503155
30
0
41
1
10
-49.348970414613
20
18.6563337006182
30
0
41
1
10
-49.3576061787896
20
18.647437117022
30
0
41
1
10
-49.3656869050428
20
18.6375600168369
30
0
41
1
10
-49.3735293784242
20
18.6272620248832
30
0
41
1
10
-49.37734812061
20
18.6218767227387
30
0
41
1
10
-49.3883502011648
20
18.6053899964797
30
0
41
1
10
-49.3950862147044
20
18.5939828719793
30
0
41
1
10
-49.4077343741282
20
18.5705962105261
30
0
41
1
10
-49.4136422709845
20
18.5586137214044
30
0
41
1
10
-49.4248380081821
20
18.5342179360189
30
0
41
1
10
-49.4301027025762
20
18.5218459068419
30
0
41
1
10
-49.4449678719849
20
18.4847742162964
30
0
41
1
10
-49.4537487107807
20
18.4599209641363
30
0
41
1
10
-49.4699151336037
20
18.4100429780578
30
0
41
1
10
-49.4772864900779
20
18.3850164955225
30
0
41
1
10
-49.4910331687121
20
18.3348411143032
30
0
41
1
10
-49.497403937701
20
18.3096916560181
30
0
41
1
10
-49.5093887593112
20
18.2592997363232
30
0
41
1
10
-49.5149900878561
20
18.2340992840126
30
0
41
1
10
-49.5255324102159
20
18.1839454282599
30
0
41
1
10
-49.5304827245516
20
18.1589486032539
30
0
41
1
10
-49.5445644756583
20
18.0841501652784
30
0
41
1
10
-49.5529365392994
20
18.0345381379897
30
0
41
1
10
-49.5682708760771
20
17.9356660527959
30
0
41
1
10
-49.5752262670634
20
17.8864077130937
30
0
41
1
10
-49.5944919615919
20
17.7390322706655
30
0
41
1
10
-49.6052282011199
20
17.641308149974
30
0
41
1
10
-49.6239958360567
20
17.446535202058
30
0
41
1
10
-49.6320044071804
20
17.3494920731622
30
0
41
1
10
-49.6460382027979
20
17.1559009792183
30
0
41
1
10
-49.6520570014112
20
17.059324460947
30
0
41
1
10
-49.6677597109614
20
16.7705987748152
30
0
41
1
10
-49.6751434128412
20
16.5793088711668
30
0
41
1
10
-49.6803455045439
20
16.388863307708
30
0
0
SPLINE
5
195
100
AcDbEntity
8
SK1
62
256
6
ByLayer
370
18
48
1
60
0
100
AcDbSpline
70
4
71
3
72
8
73
4
40
0
40
0
40
0
40
0
40
1
40
1
40
1
40
1
41
1
10
-48.2037500000014
20
15.1019212913229
30
0
41
1
10
-48.1381154484482
20
15.1287112305897
30
0
41
1
10
-48.0704205135131
20
15.1479701459218
30
0
41
1
10
-48.0000748840326
20
15.157561864173
30
0
0
SPLINE
5
196
100
AcDbEntity
8
SK1
62
256
6
ByLayer
370
18
48
1
60
0
100
AcDbSpline
70
4
71
3
72
22
73
18
40
0
40
0
40
0
40
0
40
0.249999999999995
40
0.249999999999995
40
0.374999999999996
40
0.374999999999996
40
0.499999999999996
40
0.499999999999996
40
0.624999999999997
40
0.624999999999997
40
0.749999999999997
40
0.749999999999997
40
0.874999999999998
40
0.874999999999998
40
0.937499999999999
40
0.937499999999999
40
1
40
1
40
1
40
1
41
1
10
-48.20375
20
15.1019212913179
30
0
41
1
10
-48.2737896568834
20
15.2420308432048
30
0
41
1
10
-48.3417739186829
20
15.3802391073468
30
0
41
1
10
-48.4388914764234
20
15.5858968916662
30
0
41
1
10
-48.4704434350605
20
15.6541805613641
30
0
41
1
10
-48.531401090616
20
15.7905514952447
30
0
41
1
10
-48.5608102877275
20
15.8586361890738
30
0
41
1
10
-48.6167419021676
20
15.99511626323
30
0
41
1
10
-48.6432690328275
20
16.0635082821252
30
0
41
1
10
-48.6923318001705
20
16.2013692932474
30
0
41
1
10
-48.7148712626935
20
16.2708358902596
30
0
41
1
10
-48.7543493944711
20
16.4119679515416
30
0
41
1
10
-48.7712829155222
20
16.4836382818077
30
0
41
1
10
-48.7908820151232
20
16.5938963424684
30
0
41
1
10
-48.7964443706483
20
16.6311101972906
30
0
41
1
10
-48.8053459563062
20
16.7066481300675
30
0
41
1
10
-48.8086824422018
20
16.745062428689
30
0
41
1
10
-48.8107662132841
20
16.7836440447102
30
0
0
SPLINE
5
197
100
AcDbEntity
8
SK1
62
256
6
ByLayer
370
18
48
1
60
0
100
AcDbSpline
70
4
71
3
72
26
73
22
40
0
40
0
40
0
40
0
40
0.124999999999994
40
0.124999999999994
40
0.156249999999993
40
0.156249999999993
40
0.187499999999992
40
0.187499999999992
40
0.249999999999994
40
0.249999999999994
40
0.374999999999995
40
0.374999999999995
40
0.499999999999995
40
0.499999999999995
40
0.562499999999995
40
0.562499999999995
40
0.624999999999994
40
0.624999999999994
40
0.749999999999996
40
0.749999999999996
40
1
40
1
40
1
40
1
41
1
10
-49.6803455045439
20
16.388863307708
30
0
41
1
10
-49.6826466725058
20
16.3046188817784
30
0
41
1
10
-49.6885779490542
20
16.2175770741308
30
0
41
1
10
-49.6993728100178
20
16.1056987249006
30
0
41
1
10
-49.7016978917135
20
16.0831698556119
30
0
41
1
10
-49.7066424416954
20
16.0378177461375
30
0
41
1
10
-49.7092669763272
20
16.0149526655824
30
0
41
1
10
-49.7174822299178
20
15.9462740562198
30
0
41
1
10
-49.7234030801493
20
15.900437861383
30
0
41
1
10
-49.7420007665262
20
15.7627573300228
30
0
41
1
10
-49.7554901907109
20
15.670740670014
30
0
41
1
10
-49.7826003725112
20
15.4861418061612
30
0
41
1
10
-49.7962305385269
20
15.3935596611362
30
0
41
1
10
-49.8156911072293
20
15.2541895927495
30
0
41
1
10
-49.8220175105965
20
15.2076501594007
30
0
41
1
10
-49.8342006020737
20
15.1143942032188
30
0
41
1
10
-49.8400654924927
20
15.0676068524452
30
0
41
1
10
-49.8566753045913
20
14.9276480792358
30
0
41
1
10
-49.8664422955215
20
14.8348187950969
30
0
41
1
10
-49.8906557219728
20
14.5575231178709
30
0
41
1
10
-49.9
20
14.3742457791333
30
0
41
1
10
-49.9
20
14.1920931702398
30
0
0
SPLINE
5
198
100
AcDbEntity
8
SK1
62
256
6
ByLayer
370
18
48
1
60
0
100
AcDbSpline
70
4
71
3
72
48
73
44
40
0
40
0
40
0
40
0
40
0.0078125000000032
40
0.0078125000000032
40
0.0156250000000064
40
0.0156250000000064
40
0.0234375000000096
40
0.0234375000000096
40
0.0273437500000108
40
0.0273437500000108
40
0.031250000000012
40
0.031250000000012
40
0.046875000000011
40
0.046875000000011
40
0.06250000000001
40
0.06250000000001
40
0.0781250000000091
40
0.0781250000000091
40
0.0937500000000081
40
0.0937500000000081
40
0.125000000000007
40
0.125000000000007
40
0.156250000000005
40
0.156250000000005
40
0.187500000000004
40
0.187500000000004
40
0.250000000000003
40
0.250000000000003
40
0.312500000000003
40
0.312500000000003
40
0.375000000000002
40
0.375000000000002
40
0.437500000000002
40
0.437500000000002
40
0.500000000000002
40
0.500000000000002
40
0.625000000000001
40
0.625000000000001
40
0.750000000000001
40
0.750000000000001
40
0.875000000000001
40
0.875000000000001
40
1
40
1
40
1
40
1
41
1
10
-40.216558266844
20
17.059223638729
30
0
41
1
10
-40.2255137164713
20
17.0414928213137
30
0
41
1
10
-40.2360232406994
20
17.024734639259
30
0
41
1
10
-40.2593029922573
20
16.9926331728007
30
0
41
1
10
-40.2720804381836
20
16.9772944062159
30
0
41
1
10
-40.2993863508484
20
16.9477127888347
30
0
41
1
10
-40.3139180690732
20
16.9334719730028
30
0
41
1
10
-40.3367709283963
20
16.9127712294338
30
0
41
1
10
-40.3445719684935
20
16.9059773658596
30
0
41
1
10
-40.3603555141485
20
16.8927024516855
30
0
41
1
10
-40.3683549864992
20
16.8862055661667
30
0
41
1
10
-40.4088261315397
20
16.8543395329437
30
0
41
1
10
-40.4426888294718
20
16.8307859893159
30
0
41
1
10
-40.5123481174603
20
16.7862031287604
30
0
41
1
10
-40.5481587326132
20
16.7651921171124
30
0
41
1
10
-40.6211874460021
20
16.7250072696351
30
0
41
1
10
-40.6584106043895
20
16.7058400382047
30
0
41
1
10
-40.7339380973458
20
16.6689168682472
30
0
41
1
10
-40.7722695231471
20
16.651155671117
30
0
41
1
10
-40.8877452477218
20
16.5999068760185
30
0
41
1
10
-40.965655850879
20
16.5682722372605
30
0
41
1
10
-41.1226933524388
20
16.5083250680503
30
0
41
1
10
-41.2018286497807
20
16.4800354743394
30
0
41
1
10
-41.3609886301097
20
16.4258856416439
30
0
41
1
10
-41.4410163846208
20
16.4000337907036
30
0
41
1
10
-41.6821282190399
20
16.3252879649916
30
0
41
1
10
-41.8442249466182
20
16.2791602328019
30
0
41
1
10
-42.1701904312219
20
16.1917461714862
30
0
41
1
10
-42.3340718337276
20
16.1504943758749
30
0
41
1
10
-42.6631293631878
20
16.071528736924
30
0
41
1
10
-42.8283060210512
20
16.033830314406
30
0
41
1
10
-43.1589860239044
20
15.9613013872945
30
0
41
1
10
-43.324590035516
20
15.9264524231626
30
0
41
1
10
-43.6562168288383
20
15.8589999841604
30
0
41
1
10
-43.8222401780398
20
15.8263995506818
30
0
41
1
10
-44.3208262630884
20
15.7313656079108
30
0
41
1
10
-44.6538993113537
20
15.6716687738745
30
0
41
1
10
-45.3210244711679
20
15.5575268786883
30
0
41
1
10
-45.6550802301057
20
15.5031013652068
30
0
41
1
10
-46.3239463383711
20
15.3982990923323
30
0
41
1
10
-46.65875825511
20
15.3479307332504
30
0
41
1
10
-47.3289877270329
20
15.2504444926014
30
0
41
1
10
-47.6644060538692
20
15.2033307465867
30
0
41
1
10
-48.0000748840305
20
15.1575618641653
30
0
0
SPLINE
5
199
100
AcDbEntity
8
SK1
62
256
6
ByLayer
370
18
48
1
60
0
100
AcDbSpline
70
4
71
3
72
34
73
30
40
0
40
0
40
0
40
0
40
0.124999999999992
40
0.124999999999992
40
0.187499999999989
40
0.187499999999989
40
0.249999999999985
40
0.249999999999985
40
0.374999999999982
40
0.374999999999982
40
0.499999999999978
40
0.499999999999978
40
0.624999999999975
40
0.624999999999975
40
0.687499999999975
40
0.687499999999975
40
0.718749999999978
40
0.718749999999978
40
0.749999999999981
40
0.749999999999981
40
0.812499999999987
40
0.812499999999987
40
0.874999999999993
40
0.874999999999993
40
0.906249999999994
40
0.906249999999994
40
0.937499999999994
40
0.937499999999994
40
1
40
1
40
1
40
1
41
1
10
-36.7
20
19.5943714322653
30
0
41
1
10
-36.8711858974658
20
19.5187882816346
30
0
41
1
10
-37.0413761276148
20
19.4410544812258
30
0
41
1
10
-37.2948644625377
20
19.3205722232495
30
0
41
1
10
-37.3790601632171
20
19.2797625803873
30
0
41
1
10
-37.5467865215208
20
19.1967067960703
30
0
41
1
10
-37.6303668864447
20
19.1544341959407
30
0
41
1
10
-37.8793229252197
20
19.0255688660013
30
0
41
1
10
-38.0430828929572
20
18.936869767415
30
0
41
1
10
-38.3651311639746
20
18.7525689434652
30
0
41
1
10
-38.5234281179983
20
18.656978131208
30
0
41
1
10
-38.8330297808163
20
18.4569756333508
30
0
41
1
10
-38.9843528118257
20
18.3525870616341
30
0
41
1
10
-39.204310734814
20
18.1871399617284
30
0
41
1
10
-39.2764508160516
20
18.1305033079847
30
0
41
1
10
-39.3825571315545
20
18.0428943287214
30
0
41
1
10
-39.4175205711071
20
18.0132908248446
30
0
41
1
10
-39.4864156420775
20
17.9533489086636
30
0
41
1
10
-39.5203702139022
20
17.922991733576
30
0
41
1
10
-39.6206319685333
20
17.8306651370866
30
0
41
1
10
-39.6853447054721
20
17.7674465321357
30
0
41
1
10
-39.8097036218329
20
17.6370398802925
30
0
41
1
10
-39.8693539749137
20
17.5698551032924
30
0
41
1
10
-39.954209950325
20
17.4654587047784
30
0
41
1
10
-39.9817772423315
20
17.4299762589511
30
0
41
1
10
-40.0347710714733
20
17.3582459732121
30
0
41
1
10
-40.0602303319981
20
17.3219648769856
30
0
41
1
10
-40.1332638811575
20
17.211781021376
30
0
41
1
10
-40.1775061488117
20
17.1365425901306
30
0
41
1
10
-40.2165582668442
20
17.059223638729
30
0
0
SPLINE
5
19A
100
AcDbEntity
8
SK1
62
256
6
ByLayer
370
18
48
1
60
0
100
AcDbSpline
70
4
71
3
72
48
73
44
40
0
40
0
40
0
40
0
40
0.0156249999999946
40
0.0156249999999946
40
0.0234374999999954
40
0.0234374999999954
40
0.0312499999999962
40
0.0312499999999962
40
0.0468749999999978
40
0.0468749999999978
40
0.0624999999999994
40
0.0624999999999994
40
0.0781250000000009
40
0.0781250000000009
40
0.0937500000000025
40
0.0937500000000025
40
0.109375000000004
40
0.109375000000004
40
0.125000000000006
40
0.125000000000006
40
0.156250000000009
40
0.156250000000009
40
0.187500000000012
40
0.187500000000012
40
0.218750000000015
40
0.218750000000015
40
0.250000000000018
40
0.250000000000018
40
0.312500000000019
40
0.312500000000019
40
0.37500000000002
40
0.37500000000002
40
0.50000000000002
40
0.50000000000002
40
0.625000000000019
40
0.625000000000019
40
0.687500000000017
40
0.687500000000017
40
0.750000000000015
40
0.750000000000015
40
0.875000000000007
40
0.875000000000007
40
1
40
1
40
1
40
1
41
1
10
-36.7
20
19.5943714322652
30
0
41
1
10
-36.6847064927801
20
19.6011239245966
30
0
41
1
10
-36.6689495589213
20
19.606533956745
30
0
41
1
10
-36.6444816853446
20
19.6122393245812
30
0
41
1
10
-36.636186502305
20
19.6137381067647
30
0
41
1
10
-36.6192872519424
20
19.6158417285694
30
0
41
1
10
-36.6107241786977
20
19.6164323671957
30
0
41
1
10
-36.5853785832221
20
19.6167731453971
30
0
41
1
10
-36.56862444355
20
19.6151195095693
30
0
41
1
10
-36.5357346965959
20
19.6083384547155
30
0
41
1
10
-36.5201531284729
20
19.6033537549418
30
0
41
1
10
-36.4903068788372
20
19.5909492448109
30
0
41
1
10
-36.4759522241272
20
19.5834551771552
30
0
41
1
10
-36.4490415344061
20
19.5669979824134
30
0
41
1
10
-36.4363973306272
20
19.5580145214643
30
0
41
1
10
-36.4123113260057
20
19.5389249920634
30
0
41
1
10
-36.4008730260034
20
19.5288156830339
30
0
41
1
10
-36.378944237093
20
19.5077087553173
30
0
41
1
10
-36.3684967164129
20
19.4967450442026
30
0
41
1
10
-36.338702963933
20
19.4632611899644
30
0
41
1
10
-36.3207126617917
20
19.4399996960829
30
0
41
1
10
-36.2871772481909
20
19.3922323109071
30
0
41
1
10
-36.2716508048236
20
19.3677172795265
30
0
41
1
10
-36.2424002313829
20
19.3177553300495
30
0
41
1
10
-36.2286825801916
20
19.2923052426748
30
0
41
1
10
-36.202653893522
20
19.2406650245474
30
0
41
1
10
-36.1903507192283
20
19.2144764267392
30
0
41
1
10
-36.1554101577732
20
19.135614879108
30
0
41
1
10
-36.1345924600216
20
19.0824192067565
30
0
41
1
10
-36.0963204719529
20
18.9751216696352
30
0
41
1
10
-36.0788871273222
20
18.9210153343339
30
0
41
1
10
-36.0304065848838
20
18.7575951619308
30
0
41
1
10
-36.0031175776361
20
18.6471931439649
30
0
41
1
10
-35.9551394416825
20
18.4242023644288
30
0
41
1
10
-35.9345079681282
20
18.3116013530288
30
0
41
1
10
-35.9073321932439
20
18.1413017298616
30
0
41
1
10
-35.898907403912
20
18.0842741447289
30
0
41
1
10
-35.8832202583696
20
17.969946122596
30
0
41
1
10
-35.8759565129337
20
17.9126393974611
30
0
41
1
10
-35.8557366578801
20
17.7403057928126
30
0
41
1
10
-35.8443429695231
20
17.6248663053036
30
0
41
1
10
-35.8251190973012
20
17.3929387252693
30
0
41
1
10
-35.8172926438243
20
17.2764502997123
30
0
41
1
10
-35.8110727855048
20
17.159451795297
30
0
0
SPLINE
5
19B
100
AcDbEntity
8
SK1
62
256
6
ByLayer
370
18
48
1
60
0
100
AcDbSpline
70
4
71
3
72
35
73
31
40
0
40
0
40
0
40
0
40
0.0312500000000014
40
0.0312500000000014
40
0.0625000000000028
40
0.0625000000000028
40
0.125000000000002
40
0.125000000000002
40
0.187500000000002
40
0.250000000000001
40
0.250000000000001
40
0.312500000000001
40
0.312500000000001
40
0.375
40
0.375
40
0.4375
40
0.4375
40
0.499999999999999
40
0.499999999999999
40
0.625
40
0.625
40
0.75
40
0.75
40
0.875
40
0.875
40
0.937499999999999
40
0.937499999999999
40
0.96875
40
0.96875
40
1
40
1
40
1
40
1
41
1
10
-35.8110727855048
20
17.1594517952971
30
0
41
1
10
-35.8087298228675
20
17.1153795495348
30
0
41
1
10
-35.8050508230864
20
17.0710748782621
30
0
41
1
10
-35.7952802677078
20
16.9831258265325
30
0
41
1
10
-35.7891941023362
20
16.939414349657
30
0
41
1
10
-35.7677724345513
20
16.8089604777204
30
0
41
1
10
-35.7492796314845
20
16.7228974439837
30
0
41
1
10
-35.7063448295786
20
16.5519632356002
30
0
41
1
10
-35.6574841798203
20
16.3822146941405
30
0
41
1
10
-35.6011189614965
20
16.2137335629906
30
0
41
1
10
-35.5427113205105
20
16.0454473330699
30
0
41
1
10
-35.5124828131835
20
15.9614025510421
30
0
41
1
10
-35.451273417161
20
15.793173337961
30
0
41
1
10
-35.4202890471679
20
15.7089897726496
30
0
41
1
10
-35.3585507750323
20
15.5402247287571
30
0
41
1
10
-35.3277941195328
20
15.4556439431823
30
0
41
1
10
-35.2672824740689
20
15.285878630315
30
0
41
1
10
-35.2375212676654
20
15.2006809286597
30
0
41
1
10
-35.1507682862352
20
14.9441756141248
30
0
41
1
10
-35.0963122006996
20
14.771892362452
30
0
41
1
10
-34.9982266523963
20
14.423908822598
30
0
41
1
10
-34.954568412715
20
14.2482143036154
30
0
41
1
10
-34.8815423282893
20
13.8926526826871
30
0
41
1
10
-34.8521479202448
20
13.7127911134685
30
0
41
1
10
-34.8215668767947
20
13.4392473053495
30
0
41
1
10
-34.8136291543811
20
13.3474397649972
30
0
41
1
10
-34.8055331814597
20
13.2086935714257
30
0
41
1
10
-34.8034705654414
20
13.1622349451048
30
0
41
1
10
-34.8007057879732
20
13.0693817557498
30
0
41
1
10
-34.8
20
13.0229430006227
30
0
41
1
10
-34.8
20
12.9764932793006
30
0
0
SPLINE
5
19C
100
AcDbEntity
8
SK1
62
256
6
ByLayer
370
18
48
1
60
0
100
AcDbSpline
70
4
71
3
72
35
73
31
40
0
40
0
40
0
40
0
40
0.125
40
0.125
40
0.15625
40
0.15625
40
0.187500000000001
40
0.187500000000001
40
0.250000000000003
40
0.375000000000005
40
0.375000000000005
40
0.500000000000006
40
0.500000000000006
40
0.625000000000008
40
0.625000000000008
40
0.687500000000007
40
0.687500000000007
40
0.750000000000006
40
0.750000000000006
40
0.812500000000004
40
0.812500000000004
40
0.875000000000003
40
0.875000000000003
40
0.937500000000002
40
0.937500000000002
40
0.968750000000001
40
0.968750000000001
40
0.984375000000001
40
0.984375000000001
40
1
40
1
40
1
40
1
41
1
10
-34.8
20
-12.9764932793005
30
0
41
1
10
-34.8
20
-13.1609211825781
30
0
41
1
10
-34.8110844849141
20
-13.344587571555
30
0
41
1
10
-34.83652436556
20
-13.5732554377875
30
0
41
1
10
-34.8421937565924
20
-13.6189432153546
30
0
41
1
10
-34.8546454515358
20
-13.710227972021
30
0
41
1
10
-34.8614337316711
20
-13.7558569499626
30
0
41
1
10
-34.8833094694193
20
-13.8921076189759
30
0
41
1
10
-34.9331485974905
20
-14.1624951870839
30
0
41
1
10
-34.9990633535392
20
-14.4271685375036
30
0
41
1
10
-35.0975593205889
20
-14.7760192988219
30
0
41
1
10
-35.1521415893961
20
-14.9484135341417
30
0
41
1
10
-35.2678766595549
20
-15.2902518874284
30
0
41
1
10
-35.3290769203068
20
-15.4596840930397
30
0
41
1
10
-35.4216546020565
20
-15.7127082175167
30
0
41
1
10
-35.4526298915758
20
-15.7968724231108
30
0
41
1
10
-35.5138018406873
20
-15.9650581671915
30
0
41
1
10
-35.5439986808527
20
-16.0490705034046
30
0
41
1
10
-35.6023033421074
20
-16.2172357800163
30
0
41
1
10
-35.6304140244393
20
-16.3013881146026
30
0
41
1
10
-35.6828368430513
20
-16.470222640282
30
0
41
1
10
-35.7071477628823
20
-16.5549051807191
30
0
41
1
10
-35.7498136477076
20
-16.7252863215812
30
0
41
1
10
-35.7681560611459
20
-16.8109878632258
30
0
41
1
10
-35.7893804543945
20
-16.940707767269
30
0
41
1
10
-35.7954060923489
20
-16.9841424836669
30
0
41
1
10
-35.8026621054137
20
-17.0496323658143
30
0
41
1
10
-35.8047839611487
20
-17.0715185641744
30
0
41
1
10
-35.8084037182345
20
-17.1154099796996
30
0
41
1
10
-35.8099029406847
20
-17.1374464557325
30
0
41
1
10
-35.8110727855048
20
-17.1594517952971
30
0
0
SPLINE
5
19D
100
AcDbEntity
8
SK1
62
256
6
ByLayer
370
18
48
1
60
0
100
AcDbSpline
70
4
71
3
72
53
73
49
40
0
40
0
40
0
40
0
40
0.125000000000004
40
0.125000000000004
40
0.250000000000008
40
0.250000000000008
40
0.375000000000013
40
0.375000000000013
40
0.500000000000019
40
0.500000000000019
40
0.562500000000022
40
0.562500000000022
40
0.625000000000026
40
0.625000000000026
40
0.68750000000003
40
0.68750000000003
40
0.750000000000033
40
0.750000000000033
40
0.781250000000034
40
0.781250000000034
40
0.812500000000036
40
0.812500000000036
40
0.843750000000037
40
0.843750000000037
40
0.859375000000034
40
0.859375000000034
40
0.875000000000031
40
0.875000000000031
40
0.890625000000028
40
0.890625000000028
40
0.906250000000025
40
0.906250000000025
40
0.921875000000022
40
0.921875000000022
40
0.92968750000002
40
0.92968750000002
40
0.937500000000018
40
0.937500000000018
40
0.953125000000014
40
0.953125000000014
40
0.960937500000011
40
0.960937500000011
40
0.968750000000009
40
0.976562500000007
40
0.976562500000007
40
0.984375000000004
40
0.984375000000004
40
1
40
1
40
1
40
1
41
1
10
-35.8110727855048
20
-17.1594517952971
30
0
41
1
10
-35.8173005718243
20
-17.2765994291774
30
0
41
1
10
-35.825139333155
20
-17.3932417035646
30
0
41
1
10
-35.8443993203418
20
-17.6254870770945
30
0
41
1
10
-35.8558167689226
20
-17.7410905024587
30
0
41
1
10
-35.8828403885793
20
-17.9712078217972
30
0
41
1
10
-35.8984464229313
20
-18.0857589250384
30
0
41
1
10
-35.9347884209076
20
-18.3132163356987
30
0
41
1
10
-35.9555086472984
20
-18.4261731973903
30
0
41
1
10
-35.9917551203116
20
-18.5942514027903
30
0
41
1
10
-36.0047084558934
20
-18.6500570529712
30
0
41
1
10
-36.0326760610089
20
-18.7609702262327
30
0
41
1
10
-36.0476910808067
20
-18.8160993765061
30
0
41
1
10
-36.0803203098191
20
-18.9255857512127
30
0
41
1
10
-36.0979425275279
20
-18.9799857663467
30
0
41
1
10
-36.136551205324
20
-19.0875632484609
30
0
41
1
10
-36.1575177703235
20
-19.1407503058783
30
0
41
1
10
-36.1925812950234
20
-19.2192937005193
30
0
41
1
10
-36.2048761480011
20
-19.245258554406
30
0
41
1
10
-36.2308938648005
20
-19.2964733063758
30
0
41
1
10
-36.2446230972401
20
-19.3217464996537
30
0
41
1
10
-36.2739616396511
20
-19.3714373959701
30
0
41
1
10
-36.2895633172475
20
-19.3958583754683
30
0
41
1
10
-36.3149245584605
20
-19.4316139538516
30
0
41
1
10
-36.323718300906
20
-19.4433966696792
30
0
41
1
10
-36.341989197859
20
-19.466452828411
30
0
41
1
10
-36.3514761631869
20
-19.4777427443063
30
0
41
1
10
-36.3713127063351
20
-19.4997414149291
30
0
41
1
10
-36.381660891984
20
-19.5104510893953
30
0
41
1
10
-36.4034528444504
20
-19.5311360208259
30
0
41
1
10
-36.4149474186246
20
-19.5411510547851
30
0
41
1
10
-36.4390421564696
20
-19.5599401940587
30
0
41
1
10
-36.4516463462974
20
-19.5687308429457
30
0
41
1
10
-36.4716485432495
20
-19.5807317589921
30
0
41
1
10
-36.4784997337055
20
-19.5845333301214
30
0
41
1
10
-36.4926332331548
20
-19.5916708709687
30
0
41
1
10
-36.4999475073115
20
-19.5950179575938
30
0
41
1
10
-36.5222662200835
20
-19.6040766012892
30
0
41
1
10
-36.5377125572612
20
-19.6088605110842
30
0
41
1
10
-36.5619497504943
20
-19.6136767513147
30
0
41
1
10
-36.5702587433574
20
-19.6148864880771
30
0
41
1
10
-36.5868023437412
20
-19.6163810659065
30
0
41
1
10
-36.6033560176342
20
-19.6169776785555
30
0
41
1
10
-36.6199298526304
20
-19.6157787597959
30
0
41
1
10
-36.6365137924802
20
-19.6136793178333
30
0
41
1
10
-36.644854239226
20
-19.6121646911544
30
0
41
1
10
-36.669259423473
20
-19.6064364162933
30
0
41
1
10
-36.6848894080014
20
-19.6010431626359
30
0
41
1
10
-36.7
20
-19.5943714322652
30
0
0
SPLINE
5
19E
100
AcDbEntity
8
SK1
62
256
6
ByLayer
370
18
48
1
60
0
100
AcDbSpline
70
4
71
3
72
35
73
31
40
0
40
0
40
0
40
0
40
0.0156250000000018
40
0.0156250000000018
40
0.0312500000000037
40
0.0625000000000052
40
0.0625000000000052
40
0.125000000000012
40
0.125000000000012
40
0.18750000000002
40
0.18750000000002
40
0.218750000000022
40
0.218750000000022
40
0.250000000000024
40
0.250000000000024
40
0.312500000000023
40
0.312500000000023
40
0.375000000000023
40
0.375000000000023
40
0.50000000000002
40
0.50000000000002
40
0.625000000000016
40
0.625000000000016
40
0.750000000000012
40
0.750000000000012
40
0.81250000000001
40
0.81250000000001
40
0.875000000000008
40
0.875000000000008
40
1
40
1
40
1
40
1
41
1
10
-40.216558266844
20
-17.059223638729
30
0
41
1
10
-40.2065692011606
20
-17.0790009036519
30
0
41
1
10
-40.1962222733362
20
-17.0986727913565
30
0
41
1
10
-40.1749656596159
20
-17.13758981772
30
0
41
1
10
-40.1421891356425
20
-17.1954195519503
30
0
41
1
10
-40.1068855011004
20
-17.2517022862578
30
0
41
1
10
-40.0332442316912
20
-17.3624104565309
30
0
41
1
10
-39.9801176088882
20
-17.4337473967018
30
0
41
1
10
-39.8671970251932
20
-17.5723397890246
30
0
41
1
10
-39.8073980790514
20
-17.6395921893982
30
0
41
1
10
-39.7134700363204
20
-17.7378815770696
30
0
41
1
10
-39.6814534173342
20
-17.7702117419313
30
0
41
1
10
-39.6161114471282
20
-17.8340709161019
30
0
41
1
10
-39.5829412083925
20
-17.8654484067428
30
0
41
1
10
-39.4821531424353
20
-17.9580170166508
30
0
41
1
10
-39.4132293260862
20
-18.0176840834333
30
0
41
1
10
-39.2725141740843
20
-18.1336314835565
30
0
41
1
10
-39.2007207380452
20
-18.1899093361997
30
0
41
1
10
-38.9816980608985
20
-18.3544410109707
30
0
41
1
10
-38.8308583734475
20
-18.4584306527827
30
0
41
1
10
-38.5219544223898
20
-18.6578772253498
30
0
41
1
10
-38.3638725953149
20
-18.753313412466
30
0
41
1
10
-38.0420125158101
20
-18.9374579246669
30
0
41
1
10
-37.8782258183423
20
-19.0261562755932
30
0
41
1
10
-37.6290682003931
20
-19.1550965555141
30
0
41
1
10
-37.5455171787283
20
-19.197343733049
30
0
41
1
10
-37.3779261719413
20
-19.2803156203691
30
0
41
1
10
-37.2938219149035
20
-19.3210735147716
30
0
41
1
10
-37.0406735250402
20
-19.4413767868714
30
0
41
1
10
-36.8707972245172
20
-19.5189598911331
30
0
41
1
10
-36.7
20
-19.5943714322652
30
0
0
SPLINE
5
19F
100
AcDbEntity
8
SK1
62
256
6
ByLayer
370
18
48
1
60
0
100
AcDbSpline
70
4
71
3
72
50
73
46
40
0
40
0
40
0
40
0
40
0.125000000000001
40
0.125000000000001
40
0.250000000000001
40
0.250000000000001
40
0.375000000000002
40
0.375000000000002
40
0.500000000000003
40
0.500000000000003
40
0.562500000000003
40
0.562500000000003
40
0.625000000000003
40
0.625000000000003
40
0.687500000000004
40
0.687500000000004
40
0.750000000000004
40
0.750000000000004
40
0.812500000000004
40
0.812500000000004
40
0.843750000000006
40
0.843750000000006
40
0.859375000000005
40
0.859375000000005
40
0.875000000000004
40
0.875000000000004
40
0.906250000000003
40
0.906250000000003
40
0.921875000000003
40
0.921875000000003
40
0.937500000000002
40
0.937500000000002
40
0.953125000000001
40
0.953125000000001
40
0.960937500000001
40
0.960937500000001
40
0.96875
40
0.96875
40
0.984375
40
0.984375
40
0.98828125
40
0.98828125
40
0.9921875
40
0.9921875
40
1
40
1
40
1
40
1
41
1
10
-48.0000748840304
20
-15.1575618641633
30
0
41
1
10
-47.6642819462845
20
-15.2033476688156
30
0
41
1
10
-47.3287067417301
20
-15.2504837651172
30
0
41
1
10
-46.658084439127
20
-15.3480303408005
30
0
41
1
10
-46.3230366620363
20
-15.3984366142565
30
0
41
1
10
-45.6536007422565
20
-15.503338210916
30
0
41
1
10
-45.3192112160959
20
-15.5578249650152
30
0
41
1
10
-44.6512919303171
20
-15.6721271177432
30
0
41
1
10
-44.3178713922416
20
-15.7319042753068
30
0
41
1
10
-43.8189238511906
20
-15.8270441188289
30
0
41
1
10
-43.6528043821069
20
-15.859677792755
30
0
41
1
10
-43.3210445239052
20
-15.9271901987712
30
0
41
1
10
-43.1553904474269
20
-15.9620688034591
30
0
41
1
10
-42.8247399939426
20
-16.0346341361586
30
0
41
1
10
-42.6598063089127
20
-16.0723009509185
30
0
41
1
10
-42.3309661740188
20
-16.1512653917218
30
0
41
1
10
-42.167055921612
20
-16.1925495843737
30
0
41
1
10
-41.8406604433061
20
-16.2801540624899
30
0
41
1
10
-41.6781419423617
20
-16.3264497174497
30
0
41
1
10
-41.4366019162269
20
-16.4014407944629
30
0
41
1
10
-41.3564460542775
20
-16.4273783750259
30
0
41
1
10
-41.2369128073697
20
-16.4681278019347
30
0
41
1
10
-41.1971858319494
20
-16.4820199155495
30
0
41
1
10
-41.1180057891183
20
-16.5105247392268
30
0
41
1
10
-41.0785339968349
20
-16.5251446306655
30
0
41
1
10
-40.960890515566
20
-16.5701742819971
30
0
41
1
10
-40.883401634676
20
-16.6017471334622
30
0
41
1
10
-40.7692487389967
20
-16.6525430932039
30
0
41
1
10
-40.7315481294284
20
-16.6700538360687
30
0
41
1
10
-40.657036519262
20
-16.7065448318753
30
0
41
1
10
-40.6202234363673
20
-16.7255216455051
30
0
41
1
10
-40.5477745402602
20
-16.7654199060491
30
0
41
1
10
-40.512133755177
20
-16.7863331409556
30
0
41
1
10
-40.4599191173502
20
-16.8197619998578
30
0
41
1
10
-40.4427238819597
20
-16.8312512377387
30
0
41
1
10
-40.4088519295578
20
-16.8550861812403
30
0
41
1
10
-40.3921720571703
20
-16.8674388738235
30
0
41
1
10
-40.3437315108906
20
-16.9056214367524
30
0
41
1
10
-40.313317939617
20
-16.9326542600772
30
0
41
1
10
-40.2791250486902
20
-16.9696543355769
30
0
41
1
10
-40.2724825605883
20
-16.9772189034225
30
0
41
1
10
-40.2596525181839
20
-16.9927298038496
30
0
41
1
10
-40.2534665699685
20
-17.000677729169
30
0
41
1
10
-40.2358953697256
20
-17.0249180975753
30
0
41
1
10
-40.225419582572
20
-17.0416791962087
30
0
41
1
10
-40.2165582668441
20
-17.059223638729
30
0
0
SPLINE
5
1A0
100
AcDbEntity
8
SK1
62
256
6
ByLayer
370
18
48
1
60
0
100
AcDbSpline
70
2053
71
3
72
199
73
195
40
0
40
0
40
0
40
0
40
0.015625
40
0.015625
40
0.0312499999999999
40
0.0312499999999999
40
0.0390624999999999
40
0.0390624999999999
40
0.04296875
40
0.04296875
40
0.0468750000000001
40
0.0468750000000001
40
0.0625000000000005
40
0.078125000000001
40
0.078125000000001
40
0.0937500000000014
40
0.0937500000000014
40
0.0976562500000016
40
0.0976562500000016
40
0.101562500000002
40
0.101562500000002
40
0.109375000000002
40
0.109375000000002
40
0.125000000000003
40
0.125000000000003
40
0.140625000000003
40
0.140625000000003
40
0.144531250000003
40
0.144531250000003
40
0.148437500000003
40
0.148437500000003
40
0.156250000000004
40
0.156250000000004
40
0.171875000000004
40
0.171875000000004
40
0.187500000000005
40
0.187500000000005
40
0.191406250000005
40
0.191406250000005
40
0.195312500000005
40
0.195312500000005
40
0.203125000000005
40
0.203125000000005
40
0.218750000000006
40
0.218750000000006
40
0.234375000000006
40
0.234375000000006
40
0.242187500000006
40
0.242187500000006
40
0.246093750000006
40
0.246093750000006
40
0.250000000000007
40
0.250000000000007
40
0.265625000000007
40
0.265625000000007
40
0.281250000000008
40
0.281250000000008
40
0.289062500000008
40
0.289062500000008
40
0.292968750000008
40
0.292968750000008
40
0.296875000000008
40
0.296875000000008
40
0.312500000000008
40
0.312500000000008
40
0.328125000000009
40
0.343750000000009
40
0.343750000000009
40
0.347656250000009
40
0.347656250000009
40
0.351562500000009
40
0.351562500000009
40
0.359375000000009
40
0.359375000000009
40
0.375000000000009
40
0.390625000000009
40
0.390625000000009
40
0.40625000000001
40
0.40625000000001
40
0.41406250000001
40
0.41406250000001
40
0.42187500000001
40
0.42187500000001
40
0.43750000000001
40
0.43750000000001
40
0.45312500000001
40
0.45312500000001
40
0.46093750000001
40
0.46093750000001
40
0.46484375000001
40
0.46484375000001
40
0.46875000000001
40
0.46875000000001
40
0.48437500000001
40
0.500000000000009
40
0.500000000000009
40
0.515625000000009
40
0.515625000000009
40
0.523437500000009
40
0.523437500000009
40
0.527343750000008
40
0.527343750000008
40
0.531250000000008
40
0.531250000000008
40
0.546875000000008
40
0.546875000000008
40
0.562500000000008
40
0.562500000000008
40
0.578125000000007
40
0.578125000000007
40
0.582031250000007
40
0.582031250000007
40
0.585937500000007
40
0.593750000000007
40
0.593750000000007
40
0.609375000000007
40
0.609375000000007
40
0.625000000000007
40
0.625000000000007
40
0.628906250000007
40
0.628906250000007
40
0.632812500000007
40
0.632812500000007
40
0.640625000000007
40
0.640625000000007
40
0.656250000000007
40
0.656250000000007
40
0.671875000000007
40
0.671875000000007
40
0.675781250000007
40
0.675781250000007
40
0.679687500000007
40
0.679687500000007
40
0.687500000000007
40
0.687500000000007
40
0.703125000000007
40
0.703125000000007
40
0.718750000000007
40
0.718750000000007
40
0.722656250000007
40
0.722656250000007
40
0.726562500000007
40
0.726562500000007
40
0.734375000000007
40
0.734375000000007
40
0.750000000000007
40
0.750000000000007
40
0.765625000000007
40
0.765625000000007
40
0.773437500000007
40
0.773437500000007
40
0.777343750000007
40
0.777343750000007
40
0.781250000000007
40
0.781250000000007
40
0.796875000000007
40
0.796875000000007
40
0.812500000000007
40
0.828125000000007
40
0.828125000000007
40
0.832031250000007
40
0.832031250000007
40
0.835937500000007
40
0.843750000000007
40
0.843750000000007
40
0.859375000000006
40
0.875000000000005
40
0.875000000000005
40
0.882812500000005
40
0.882812500000005
40
0.886718750000005
40
0.886718750000005
40
0.890625000000005
40
0.890625000000005
40
0.906250000000004
40
0.921875000000004
40
0.921875000000004
40
0.937500000000003
40
0.937500000000003
40
0.945312500000003
40
0.945312500000003
40
0.949218750000003
40
0.949218750000003
40
0.953125000000003
40
0.953125000000003
40
0.968750000000002
40
0.968750000000002
40
0.984375000000001
40
0.984375000000001
40
0.9921875
40
0.9921875
40
0.99609375
40
0.99609375
40
1
40
1
40
1
40
1
41
1
10
-19.2409013463647
20
-4.68080028297888
30
0
41
1
10
-19.4079621433098
20
-4.54192515802683
30
0
41
1
10
-19.5670665156176
20
-4.3959088125365
30
0
41
1
10
-19.8694655070935
20
-4.08965357791703
30
0
41
1
10
-20.0127608800019
20
-3.92941542119291
30
0
41
1
10
-20.2155634753266
20
-3.67811209595402
30
0
41
1
10
-20.2811371228695
20
-3.5925165438729
30
0
41
1
10
-20.3763842148996
20
-3.46131312171787
30
0
41
1
10
-20.4076140766386
20
-3.41711005267425
30
0
41
1
10
-20.469019912
20
-3.32775219492208
30
0
41
1
10
-20.4992345528522
20
-3.28253591113366
30
0
41
1
10
-20.6469059096212
20
-3.0551645395735
30
0
41
1
10
-20.8621469588936
20
-2.68225303730964
30
0
41
1
10
-21.0359493662655
20
-2.29134285179632
30
0
41
1
10
-21.1887006096658
20
-1.89127361303633
30
0
41
1
10
-21.2545540746264
20
-1.68666097269678
30
0
41
1
10
-21.3230762842395
20
-1.4248854721009
30
0
41
1
10
-21.3360891245397
20
-1.372229079238
30
0
41
1
10
-21.3607076585596
20
-1.2663031177255
30
0
41
1
10
-21.3722793633372
20
-1.21317185000029
30
0
41
1
10
-21.4046753803779
20
-1.05383589651714
30
0
41
1
10
-21.4232362020401
20
-0.947458959524255
30
0
41
1
10
-21.4699539975404
20
-0.627876369739084
30
0
41
1
10
-21.4891691148553
20
-0.414220069648906
30
0
41
1
10
-21.5039397224734
20
0.0142853874746436
30
0
41
1
10
-21.4994960718303
20
0.229134501321511
30
0
41
1
10
-21.4788146901815
20
0.498458475949832
30
0
41
1
10
-21.4739201863398
20
0.552361493605673
30
0
41
1
10
-21.4625984188042
20
0.660244788432323
30
0
41
1
10
-21.456159678233
20
0.714307581104691
30
0
41
1
10
-21.4346038918093
20
0.875966706582147
30
0
41
1
10
-21.4172853236874
20
0.982846594827464
30
0
41
1
10
-21.3567175465797
20
1.30087888542042
30
0
41
1
10
-21.3048787016907
20
1.50943061979979
30
0
41
1
10
-21.1789309579674
20
1.91979865856709
30
0
41
1
10
-21.1048206678252
20
2.12161452986083
30
0
41
1
10
-20.998226662612
20
2.36966972430028
30
0
41
1
10
-20.9762083560189
20
2.41906952452885
30
0
41
1
10
-20.9307649649809
20
2.51744448695058
30
0
41
1
10
-20.9073116441753
20
2.56647622608861
30
0
41
1
10
-20.8350267778472
20
2.71252631781047
30
0
41
1
10
-20.7844346280646
20
2.80818883827374
30
0
41
1
10
-20.6256720613505
20
3.09022486681877
30
0
41
1
10
-20.5105338999628
20
3.27165981222919
30
0
41
1
10
-20.2623510498034
20
3.62186416748872
30
0
41
1
10
-20.129304333472
20
3.79063209878191
30
0
41
1
10
-19.91638920189
20
4.03436613204042
30
0
41
1
10
-19.8431890827454
20
4.11403818660335
30
0
41
1
10
-19.7300188924891
20
4.23117080081329
30
0
41
1
10
-19.6918185387117
20
4.26972937335211
30
0
41
1
10
-19.6146633567857
20
4.34570124507349
30
0
41
1
10
-19.5756796286264
20
4.38314455220441
30
0
41
1
10
-19.3787599051636
20
4.56768879385652
30
0
41
1
10
-19.2148365238777
20
4.70679413172118
30
0
41
1
10
-18.874706095973
20
4.96863291930705
30
0
41
1
10
-18.6984974556378
20
5.09136418851546
30
0
41
1
10
-18.4250584232746
20
5.26332042785435
30
0
41
1
10
-18.3323883185654
20
5.31861205123644
30
0
41
1
10
-18.1910840451221
20
5.39849359616358
30
0
41
1
10
-18.1435992640364
20
5.42461123504353
30
0
41
1
10
-18.0478586633437
20
5.47582211800821
30
0
41
1
10
-17.999653619819
20
5.50088641925819
30
0
41
1
10
-17.7578685588757
20
5.6230644943644
30
0
41
1
10
-17.5611877471659
20
5.71121804724854
30
0
41
1
10
-17.1615918134346
20
5.8691502782554
30
0
41
1
10
-16.7557600995884
20
6.00870330299327
30
0
41
1
10
-16.337639291229
20
6.11204125577314
30
0
41
1
10
-16.0724270604448
20
6.16517491060301
30
0
41
1
10
-16.0191898703303
20
6.17522781030428
30
0
41
1
10
-15.9123231813235
20
6.19417766139989
30
0
41
1
10
-15.8587245631856
20
6.203067400138
30
0
41
1
10
-15.6981171897025
20
6.22788100212605
30
0
41
1
10
-15.591046834799
20
6.24199592509535
30
0
41
1
10
-15.2698405249356
20
6.27720887586469
30
0
41
1
10
-14.8415784063018
20
6.30517583358045
30
0
41
1
10
-14.4133472399135
20
6.29598823689682
30
0
41
1
10
-13.9851301278561
20
6.26814199660083
30
0
41
1
10
-13.7710286107101
20
6.24489117648781
30
0
41
1
10
-13.4498827823393
20
6.19558292923176
30
0
41
1
10
-13.3435218403949
20
6.17684029687007
30
0
41
1
10
-13.1324691999273
20
6.13487617353348
30
0
41
1
10
-13.0277242446182
20
6.11164647440771
30
0
41
1
10
-12.7158020909691
20
6.03529266663705
30
0
41
1
10
-12.5109326313958
20
5.97551883088542
30
0
41
1
10
-12.1073058848507
20
5.83827843950013
30
0
41
1
10
-11.9085482732515
20
5.76081297582147
30
0
41
1
10
-11.6150846181189
20
5.63101285807838
30
0
41
1
10
-11.5180434948078
20
5.5854752238717
30
0
41
1
10
-11.3736757629308
20
5.51368214317216
30
0
41
1
10
-11.3257522711256
20
5.48916972742282
30
0
41
1
10
-11.2303086104433
20
5.43896513930909
30
0
41
1
10
-11.1827930088946
20
5.4132729225787
30
0
41
1
10
-10.947483899805
20
5.28253178013958
30
0
41
1
10
-10.5834454180356
20
5.05773403998504
30
0
41
1
10
-10.2439178705042
20
4.80205373514124
30
0
41
1
10
-9.91680582136416
20
4.53064355144804
30
0
41
1
10
-9.75945564033586
20
4.3870761006535
30
0
41
1
10
-9.53315123438247
20
4.15934037540231
30
0
41
1
10
-9.45933976558806
20
4.08136027368144
30
0
41
1
10
-9.35114147531016
20
3.96117214339367
30
0
41
1
10
-9.31544598229641
20
3.92051324995646
30
0
41
1
10
-9.24528651889091
20
3.83854301172633
30
0
41
1
10
-9.21079474785216
20
3.79720387028814
30
0
41
1
10
-9.04126021025354
20
3.58874534224469
30
0
41
1
10
-8.91496798581713
20
3.41635083929177
30
0
41
1
10
-8.681020496972
20
3.06027753813422
30
0
41
1
10
-8.57336408604837
20
2.87659951523889
30
0
41
1
10
-8.3772359796406
20
2.49758251455469
30
0
41
1
10
-8.28875977321567
20
2.30224633672049
30
0
41
1
10
-8.19090987217126
20
2.05030406807342
30
0
41
1
10
-8.17197900693111
20
1.99952589580772
30
0
41
1
10
-8.13542173547239
20
1.89717238781324
30
0
41
1
10
-8.08283436656745
20
1.743256447974
30
0
41
1
10
-8.03692789472026
20
1.58819780942068
30
0
41
1
10
-7.95392293194837
20
1.27657239565909
30
0
41
1
10
-7.91030798153008
20
1.06681498981709
30
0
41
1
10
-7.84653768425611
20
0.643276893043861
30
0
41
1
10
-7.82638053715212
20
0.429496514254083
30
0
41
1
10
-7.81631631923318
20
0.159674034922233
30
0
41
1
10
-7.81506199719578
20
0.105579369051867
30
0
41
1
10
-7.81409015053268
20
-0.0028737044500815
30
0
41
1
10
-7.81437319675589
20
-0.0572605386668386
30
0
41
1
10
-7.81755880079032
20
-0.220644478088502
30
0
41
1
10
-7.82277525436615
20
-0.328966946848027
30
0
41
1
10
-7.84746296604416
20
-0.652180739570952
30
0
41
1
10
-7.87594923909117
20
-0.865322863127545
30
0
41
1
10
-7.95630800773034
20
-1.28707412641489
30
0
41
1
10
-8.00818184115698
20
-1.49568299869586
30
0
41
1
10
-8.08768460032425
20
-1.75360766738268
30
0
41
1
10
-8.10431994992541
20
-1.80505044550239
30
0
41
1
10
-8.13906849712916
20
-1.90765026113797
30
0
41
1
10
-8.15720475983562
20
-1.95886904859859
30
0
41
1
10
-8.21368300526692
20
-2.11165355512418
30
0
41
1
10
-8.25395728953424
20
-2.2120054090054
30
0
41
1
10
-8.38238961887276
20
-2.50870137214946
30
0
41
1
10
-8.47813666461448
20
-2.70069746193477
30
0
41
1
10
-8.68906036100975
20
-3.0735966156966
30
0
41
1
10
-8.80423942718983
20
-3.25449823277162
30
0
41
1
10
-8.96024185584497
20
-3.47378565984053
30
0
41
1
10
-8.99204524157093
20
-3.51730033983827
30
0
41
1
10
-9.05686074403252
20
-3.60364317626261
30
0
41
1
10
-9.08991768817489
20
-3.64652703806885
30
0
41
1
10
-9.19051180539969
20
-3.77364846806404
30
0
41
1
10
-9.25945819389403
20
-3.85635639181203
30
0
41
1
10
-9.47177037849679
20
-4.09856885828645
30
0
41
1
10
-9.6205948104224
20
-4.25217769035021
30
0
41
1
10
-9.93224667064817
20
-4.54435140462192
30
0
41
1
10
-10.0950759132297
20
-4.68291418891747
30
0
41
1
10
-10.3497347334147
20
-4.87962948373189
30
0
41
1
10
-10.4363601056144
20
-4.94334291066102
30
0
41
1
10
-10.5689249705618
20
-5.03611365641081
30
0
41
1
10
-10.6135694470831
20
-5.06658050998942
30
0
41
1
10
-10.7033041255229
20
-5.1262941769383
30
0
41
1
10
-10.7484460371651
20
-5.15557803486215
30
0
41
1
10
-10.9755105570488
20
-5.29917424650947
30
0
41
1
10
-11.1614877435895
20
-5.40503944836129
30
0
41
1
10
-11.5418075549666
20
-5.59944607084668
30
0
41
1
10
-11.9304952583305
20
-5.77652393738069
30
0
41
1
10
-12.3358330572193
20
-5.9193062647613
30
0
41
1
10
-12.5944902635224
20
-5.99763500488751
30
0
41
1
10
-12.6465006823284
20
-6.01275565688368
30
0
41
1
10
-12.7505568730331
20
-6.04176095321793
30
0
41
1
10
-12.9068793539395
20
-6.08347114466181
30
0
41
1
10
-13.0639092621459
20
-6.11985234853935
30
0
41
1
10
-13.3788999335694
20
-6.18562537471328
30
0
41
1
10
-13.8013660213365
20
-6.25471573448982
30
0
41
1
10
-14.2287510066471
20
-6.28705443285702
30
0
41
1
10
-14.5511647728049
20
-6.29733269095115
30
0
41
1
10
-14.6589489955701
20
-6.29842568749291
30
0
41
1
10
-14.8211029615543
20
-6.2965055096202
30
0
41
1
10
-14.875233920426
20
-6.29527191363249
30
0
41
1
10
-14.9836568702168
20
-6.29160441950287
30
0
41
1
10
-15.0379567849357
20
-6.28916817398755
30
0
41
1
10
-15.3084918208501
20
-6.27404245388863
30
0
41
1
10
-15.7373760840781
20
-6.23098839657214
30
0
41
1
10
-16.1584914183471
20
-6.15107122839825
30
0
41
1
10
-16.5757056676582
20
-6.05265688836914
30
0
41
1
10
-16.7823625609795
20
-5.99420257299732
30
0
41
1
10
-17.0893298051161
20
-5.8922253830761
30
0
41
1
10
-17.1911483452332
20
-5.85584634942441
30
0
41
1
10
-17.3431002898168
20
-5.79760514749483
30
0
41
1
10
-17.3936857023474
20
-5.77755215252313
30
0
41
1
10
-17.4942077951299
20
-5.73636257832334
30
0
41
1
10
-17.5441454968067
20
-5.71522786403494
30
0
41
1
10
-17.7922267431611
20
-5.60686963019111
30
0
41
1
10
-17.9855596649833
20
-5.51161088869549
30
0
41
1
10
-18.3620229637573
20
-5.3040289508109
30
0
41
1
10
-18.5451538355531
20
-5.19170662187332
30
0
41
1
10
-18.8120277617516
20
-5.01012005360133
30
0
41
1
10
-18.8996797132134
20
-4.94740348819258
30
0
41
1
10
-19.0291549192911
20
-4.84997125366343
30
0
41
1
10
-19.0719793706082
20
-4.81693400133184
30
0
41
1
10
-19.1569510136826
20
-4.74972367237314
30
0
41
1
10
-19.1991361471285
20
-4.71551906421689
30
0
41
1
10
-19.2409013463647
20
-4.68080028297888
30
0
0
LINE
5
85
100
AcDbEntity
8
4
62
256
6
ByLayer
370
18
48
0.05
60
0
100
AcDbLine
10
0
20
0
30
0
11
48
21
0
31
0
39
0
210
0
220
0
230
1
0
LINE
5
87
100
AcDbEntity
8
81
62
256
6
ByLayer
370
18
48
1
60
0
100
AcDbLine
10
48
20
0
30
0
11
53
21
0
31
0
39
0
210
0
220
0
230
1
0
LINE
5
88
100
AcDbEntity
8
80
62
256
6
ByLayer
370
18
48
1
60
0
100
AcDbLine
10
0
20
0
30
0
11
-5
21
0
31
0
39
0
210
0
220
0
230
1
0
LINE
5
89
100
AcDbEntity
8
1
62
256
6
ByLayer
370
18
48
1
60
0
100
AcDbLine
10
21.525
20
45.975
30
0
11
18.475
21
45.975
31
0
39
0
210
0
220
0
230
1
0
LINE
5
8A
100
AcDbEntity
8
1
62
256
6
ByLayer
370
18
48
1
60
0
100
AcDbLine
10
38.999966
20
32.875
30
0
11
30.15
21
32.875
31
0
39
0
210
0
220
0
230
1
0
LINE
5
8B
100
AcDbEntity
8
1
62
256
6
ByLayer
370
18
48
1
60
0
100
AcDbLine
10
30.15
20
-32.875
30
0
11
38.999966
21
-32.875
31
0
39
0
210
0
220
0
230
1
0
LINE
5
8C
100
AcDbEntity
8
1
62
256
6
ByLayer
370
18
48
1
60
0
100
AcDbLine
10
18.475
20
-45.975
30
0
11
21.525
21
-45.975
31
0
39
0
210
0
220
0
230
1
0
LINE
5
8D
100
AcDbEntity
8
1
62
256
6
ByLayer
370
18
48
1
60
0
100
AcDbLine
10
28.25
20
-49.965
30
0
11
28.95
21
-49.265
31
0
39
0
210
0
220
0
230
1
0
LINE
5
8E
100
AcDbEntity
8
1
62
256
6
ByLayer
370
18
48
1
60
0
100
AcDbLine
10
28.25
20
49.965
30
0
11
23.241822
21
49.965
31
0
39
0
210
0
220
0
230
1
0
LINE
5
8F
100
AcDbEntity
8
1
62
256
6
ByLayer
370
18
48
1
60
0
100
AcDbLine
10
23.241822
20
49.965
30
0
11
21.925
21
47.684198
31
0
39
0
210
0
220
0
230
1
0
LINE
5
90
100
AcDbEntity
8
1
62
256
6
ByLayer
370
18
48
1
60
0
100
AcDbLine
10
28.95
20
49.265
30
0
11
28.25
21
49.965
31
0
39
0
210
0
220
0
230
1
0
LINE
5
91
100
AcDbEntity
8
1
62
256
6
ByLayer
370
18
48
1
60
0
100
AcDbLine
10
16.758178
20
-49.965
30
0
11
18.075
21
-47.684198
31
0
39
0
210
0
220
0
230
1
0
LINE
5
92
100
AcDbEntity
8
1
62
256
6
ByLayer
370
18
48
1
60
0
100
AcDbLine
10
18.075
20
47.684198
30
0
11
16.758178
21
49.965
31
0
39
0
210
0
220
0
230
1
0
LINE
5
93
100
AcDbEntity
8
1
62
256
6
ByLayer
370
18
48
1
60
0
100
AcDbLine
10
21.925
20
-47.684198
30
0
11
23.241822
21
-49.965
31
0
39
0
210
0
220
0
230
1
0
LINE
5
94
100
AcDbEntity
8
1
62
256
6
ByLayer
370
18
48
1
60
0
100
AcDbLine
10
23.241822
20
-49.965
30
0
11
28.25
21
-49.965
31
0
39
0
210
0
220
0
230
1
0
LINE
5
95
100
AcDbEntity
8
1
62
256
6
ByLayer
370
18
48
1
60
0
100
AcDbLine
10
16.758178
20
49.965
30
0
11
0.7
21
49.965
31
0
39
0
210
0
220
0
230
1
0
LINE
5
96
100
AcDbEntity
8
1
62
256
6
ByLayer
370
18
48
1
60
0
100
AcDbLine
10
0.7
20
-49.965
30
0
11
1.992886
21
-49.965
31
0
39
0
210
0
220
0
230
1
0
LINE
5
97
100
AcDbEntity
8
1
62
256
6
ByLayer
370
18
48
1
60
0
100
AcDbLine
10
12.0225
20
-49.965
30
0
11
16.758178
21
-49.965
31
0
39
0
210
0
220
0
230
1
0
LINE
5
98
100
AcDbEntity
8
1
62
256
6
ByLayer
370
18
48
1
60
0
100
AcDbLine
10
0
20
-49.265
30
0
11
0.7
21
-49.965
31
0
39
0
210
0
220
0
230
1
0
LINE
5
99
100
AcDbEntity
8
1
62
256
6
ByLayer
370
18
48
1
60
0
100
AcDbLine
10
0.7
20
49.965
30
0
11
0
21
49.265
31
0
39
0
210
0
220
0
230
1
0
LINE
5
9A
100
AcDbEntity
8
1
62
256
6
ByLayer
370
18
48
1
60
0
100
AcDbLine
10
50
20
-39.527998
30
0
11
56.624704
21
-39.527998
31
0
39
0
210
0
220
0
230
1
0
LINE
5
9B
100
AcDbEntity
8
1
62
256
6
ByLayer
370
18
48
1
60
0
100
AcDbLine
10
56.624685
20
39.527998
30
0
11
50
21
39.527998
31
0
39
0
210
0
220
0
230
1
0
LINE
5
9C
100
AcDbEntity
8
1
62
256
6
ByLayer
370
18
48
1
60
0
100
AcDbLine
10
56.693718
20
15.496699
30
0
11
50
21
15.496699
31
0
39
0
210
0
220
0
230
1
0
LINE
5
9D
100
AcDbEntity
8
1
62
256
6
ByLayer
370
18
48
1
60
0
100
AcDbLine
10
50
20
-15.496699
30
0
11
56.693516
21
-15.496699
31
0
39
0
210
0
220
0
230
1
0
LINE
5
9E
100
AcDbEntity
8
1
62
256
6
ByLayer
370
18
48
1
60
0
100
AcDbLine
10
39
20
-38.85
30
0
11
40
21
-39.85
31
0
39
0
210
0
220
0
230
1
0
LINE
5
9F
100
AcDbEntity
8
1
62
256
6
ByLayer
370
18
48
1
60
0
100
AcDbLine
10
40
20
39.85
30
0
11
39
21
38.85
31
0
39
0
210
0
220
0
230
1
0
LINE
5
A0
100
AcDbEntity
8
1
62
256
6
ByLayer
370
18
48
1
60
0
100
AcDbLine
10
44.876895
20
39.85
30
0
11
40
21
39.85
31
0
39
0
210
0
220
0
230
1
0
LINE
5
A1
100
AcDbEntity
8
1
62
256
6
ByLayer
370
18
48
1
60
0
100
AcDbLine
10
40
20
-39.85
30
0
11
44.876895
21
-39.85
31
0
39
0
210
0
220
0
230
1
0
LINE
5
A2
100
AcDbEntity
8
1
62
256
6
ByLayer
370
18
48
1
60
0
100
AcDbLine
10
60
20
34
30
0
11
58.698389
21
36.254456
31
0
39
0
210
0
220
0
230
1
0
LINE
5
A3
100
AcDbEntity
8
1
62
256
6
ByLayer
370
18
48
1
60
0
100
AcDbLine
10
58.698343
20
-36.254536
30
0
11
60
21
-34
31
0
39
0
210
0
220
0
230
1
0
LINE
5
A4
100
AcDbEntity
8
SK1
62
256
6
ByLayer
370
18
48
1
60
0
100
AcDbLine
10
-0.8
20
37.632252
30
0
11
-2.066987
21
37.632252
31
0
39
0
210
0
220
0
230
1
0
LINE
5
A6
100
AcDbEntity
8
SK1
62
256
6
ByLayer
370
18
48
1
60
0
100
AcDbLine
10
-2.066987
20
-37.632252
30
0
11
-0.8
21
-37.632252
31
0
39
0
210
0
220
0
230
1
0
LINE
5
A7
100
AcDbEntity
8
SK1
62
256
6
ByLayer
370
18
48
1
60
0
100
AcDbLine
10
-2.066987
20
37.632252
30
0
11
-2.5
21
37.882252
31
0
39
0
210
0
220
0
230
1
0
LINE
5
A8
100
AcDbEntity
8
SK1
62
256
6
ByLayer
370
18
48
1
60
0
100
AcDbLine
10
-2.5
20
-37.882252
30
0
11
-2.066987
21
-37.632252
31
0
39
0
210
0
220
0
230
1
0
LINE
5
A9
100
AcDbEntity
8
SK1
62
256
6
ByLayer
370
18
48
1
60
0
100
AcDbLine
10
-48.000075
20
-35.602689
30
0
11
-2.5
21
-37.882252
31
0
39
0
210
0
220
0
230
1
0
LINE
5
AA
100
AcDbEntity
8
SK1
62
256
6
ByLayer
370
18
48
1
60
0
100
AcDbLine
10
-2.5
20
37.882252
30
0
11
-48.000075
21
35.602689
31
0
39
0
210
0
220
0
230
1
0
LINE
5
AB
100
AcDbEntity
8
1
62
256
6
ByLayer
370
13
48
1
60
0
100
AcDbLine
10
30.15
20
32.875
30
0
11
30.15
21
-32.875
31
0
39
0
210
0
220
0
230
1
0
LINE
5
AC
100
AcDbEntity
8
1
62
256
6
ByLayer
370
18
48
1
60
0
100
AcDbLine
10
28.95
20
-11.021
30
0
11
28.95
21
11.021
31
0
39
0
210
0
220
0
230
1
0
LINE
5
AD
100
AcDbEntity
8
1
62
256
6
ByLayer
370
18
48
1
60
0
100
AcDbLine
10
21.525
20
11.021
30
0
11
18.475
21
11.021
31
0
39
0
210
0
220
0
230
1
0
LINE
5
AE
100
AcDbEntity
8
1
62
256
6
ByLayer
370
18
48
1
60
0
100
AcDbLine
10
18.475
20
-11.021
30
0
11
21.525
21
-11.021
31
0
39
0
210
0
220
0
230
1
0
LINE
5
AF
100
AcDbEntity
8
1
62
256
6
ByLayer
370
13
48
1
60
0
100
AcDbLine
10
21.525
20
-45.975
30
0
11
21.525
21
-11.021
31
0
39
0
210
0
220
0
230
1
0
LINE
5
B0
100
AcDbEntity
8
1
62
256
6
ByLayer
370
13
48
1
60
0
100
AcDbLine
10
18.475
20
45.119582
30
0
11
18.475
21
11.021
31
0
39
0
210
0
220
0
230
1
0
LINE
5
B1
100
AcDbEntity
8
1
62
256
6
ByLayer
370
13
48
1
60
0
100
AcDbLine
10
18.475
20
45.417706
30
0
11
18.475
21
45.975
31
0
39
0
210
0
220
0
230
1
0
LINE
5
B2
100
AcDbEntity
8
1
62
256
6
ByLayer
370
13
48
1
60
0
100
AcDbLine
10
18.475
20
-45.975
30
0
11
18.475
21
-11.021
31
0
39
0
210
0
220
0
230
1
0
LINE
5
B3
100
AcDbEntity
8
1
62
256
6
ByLayer
370
13
48
1
60
0
100
AcDbLine
10
21.525
20
45.417706
30
0
11
21.525
21
45.975
31
0
39
0
210
0
220
0
230
1
0
LINE
5
B4
100
AcDbEntity
8
1
62
256
6
ByLayer
370
13
48
1
60
0
100
AcDbLine
10
21.525
20
45.119582
30
0
11
21.525
21
11.021
31
0
39
0
210
0
220
0
230
1
0
LINE
5
B5
100
AcDbEntity
8
1
62
256
6
ByLayer
370
18
48
1
60
0
100
AcDbLine
10
28.95
20
-49.265
30
0
11
28.95
21
-11.021
31
0
39
0
210
0
220
0
230
1
0
LINE
5
B6
100
AcDbEntity
8
1
62
256
6
ByLayer
370
18
48
1
60
0
100
AcDbLine
10
28.25
20
11.021
30
0
11
23.241822
21
11.021
31
0
39
0
210
0
220
0
230
1
0
LINE
5
B7
100
AcDbEntity
8
1
62
256
6
ByLayer
370
18
48
1
60
0
100
AcDbLine
10
23.241822
20
49.965
30
0
11
23.241822
21
11.021
31
0
39
0
210
0
220
0
230
1
0
LINE
5
B8
100
AcDbEntity
8
1
62
256
6
ByLayer
370
18
48
1
60
0
100
AcDbLine
10
21.925
20
47.684198
30
0
11
21.925
21
11.021
31
0
39
0
210
0
220
0
230
1
0
LINE
5
B9
100
AcDbEntity
8
1
62
256
6
ByLayer
370
18
48
1
60
0
100
AcDbLine
10
28.95
20
49.265
30
0
11
28.95
21
11.021
31
0
39
0
210
0
220
0
230
1
0
LINE
5
BA
100
AcDbEntity
8
1
62
256
6
ByLayer
370
18
48
1
60
0
100
AcDbLine
10
28.25
20
11.021
30
0
11
28.25
21
49.965
31
0
39
0
210
0
220
0
230
1
0
LINE
5
BB
100
AcDbEntity
8
1
62
256
6
ByLayer
370
18
48
1
60
0
100
AcDbLine
10
18.075
20
-47.684198
30
0
11
18.075
21
-11.021
31
0
39
0
210
0
220
0
230
1
0
LINE
5
BC
100
AcDbEntity
8
1
62
256
6
ByLayer
370
18
48
1
60
0
100
AcDbLine
10
18.075
20
47.684198
30
0
11
18.075
21
11.021
31
0
39
0
210
0
220
0
230
1
0
LINE
5
BD
100
AcDbEntity
8
1
62
256
6
ByLayer
370
18
48
1
60
0
100
AcDbLine
10
21.925
20
-47.684198
30
0
11
21.925
21
-11.021
31
0
39
0
210
0
220
0
230
1
0
LINE
5
BE
100
AcDbEntity
8
1
62
256
6
ByLayer
370
18
48
1
60
0
100
AcDbLine
10
23.241822
20
-11.021
30
0
11
28.25
21
-11.021
31
0
39
0
210
0
220
0
230
1
0
LINE
5
BF
100
AcDbEntity
8
1
62
256
6
ByLayer
370
18
48
1
60
0
100
AcDbLine
10
23.241822
20
-49.965
30
0
11
23.241822
21
-11.021
31
0
39
0
210
0
220
0
230
1
0
LINE
5
C0
100
AcDbEntity
8
1
62
256
6
ByLayer
370
18
48
1
60
0
100
AcDbLine
10
28.25
20
-11.021
30
0
11
28.25
21
-49.965
31
0
39
0
210
0
220
0
230
1
0
LINE
5
C1
100
AcDbEntity
8
1
62
256
6
ByLayer
370
18
48
1
60
0
100
AcDbLine
10
16.758178
20
-11.021
30
0
11
16.758178
21
-49.965
31
0
39
0
210
0
220
0
230
1
0
LINE
5
C2
100
AcDbEntity
8
1
62
256
6
ByLayer
370
18
48
1
60
0
100
AcDbLine
10
14.95
20
-11.021
30
0
11
16.758178
21
-11.021
31
0
39
0
210
0
220
0
230
1
0
LINE
5
C3
100
AcDbEntity
8
1
62
256
6
ByLayer
370
18
48
1
60
0
100
AcDbLine
10
4.95
20
1.021
30
0
11
4.95
21
-1.021
31
0
39
0
210
0
220
0
230
1
0
LINE
5
C4
100
AcDbEntity
8
1
62
256
6
ByLayer
370
18
48
1
60
0
100
AcDbLine
10
16.758178
20
11.021
30
0
11
14.95
21
11.021
31
0
39
0
210
0
220
0
230
1
0
LINE
5
C5
100
AcDbEntity
8
1
62
256
6
ByLayer
370
18
48
1
60
0
100
AcDbLine
10
16.758178
20
11.021
30
0
11
16.758178
21
49.965
31
0
39
0
210
0
220
0
230
1
0
LINE
5
C6
100
AcDbEntity
8
1
62
256
6
ByLayer
370
18
48
1
60
0
100
AcDbLine
10
0.7
20
-49.965
30
0
11
0.7
21
0
31
0
39
0
210
0
220
0
230
1
0
LINE
5
C7
100
AcDbEntity
8
1
62
256
6
ByLayer
370
18
48
1
60
0
100
AcDbLine
10
0.7
20
0
30
0
11
0.7
21
49.965
31
0
39
0
210
0
220
0
230
1
0
LINE
5
C8
100
AcDbEntity
8
1
62
256
6
ByLayer
370
18
48
1
60
0
100
AcDbLine
10
0
20
49.265
30
0
11
0
21
0
31
0
39
0
210
0
220
0
230
1
0
LINE
5
C9
100
AcDbEntity
8
1
62
256
6
ByLayer
370
18
48
1
60
0
100
AcDbLine
10
0
20
0
30
0
11
0
21
-49.265
31
0
39
0
210
0
220
0
230
1
0
LINE
5
CA
100
AcDbEntity
8
1
62
256
6
ByLayer
370
18
48
1
60
0
100
AcDbLine
10
50
20
39.526374
30
0
11
50
21
39.527998
31
0
39
0
210
0
220
0
230
1
0
LINE
5
CB
100
AcDbEntity
8
1
62
256
6
ByLayer
370
18
48
1
60
0
100
AcDbLine
10
50
20
-39.526374
30
0
11
50
21
-39.527998
31
0
39
0
210
0
220
0
230
1
0
LINE
5
CC
100
AcDbEntity
8
1
62
256
6
ByLayer
370
18
48
1
60
0
100
AcDbLine
10
50
20
21.909855
30
0
11
58.322076
21
21.909855
31
0
39
0
210
0
220
0
230
1
0
LINE
5
CD
100
AcDbEntity
8
1
62
256
6
ByLayer
370
18
48
1
60
0
100
AcDbLine
10
50
20
-21.909855
30
0
11
58.322076
21
-21.909855
31
0
39
0
210
0
220
0
230
1
0
LINE
5
CE
100
AcDbEntity
8
1
62
256
6
ByLayer
370
13
48
1
60
0
100
AcDbLine
10
56.722228
20
23.889878
30
0
11
50
21
23.889878
31
0
39
0
210
0
220
0
230
1
0
LINE
5
CF
100
AcDbEntity
8
1
62
256
6
ByLayer
370
13
48
1
60
0
100
AcDbLine
10
50
20
-23.889878
30
0
11
56.722228
21
-23.889878
31
0
39
0
210
0
220
0
230
1
0
LINE
5
D0
100
AcDbEntity
8
1
62
256
6
ByLayer
370
18
48
1
60
0
100
AcDbLine
10
50
20
21.329294
30
0
11
58.592225
21
21.329294
31
0
39
0
210
0
220
0
230
1
0
LINE
5
D1
100
AcDbEntity
8
1
62
256
6
ByLayer
370
18
48
1
60
0
100
AcDbLine
10
50
20
-21.329294
30
0
11
58.592225
21
-21.329294
31
0
39
0
210
0
220
0
230
1
0
LINE
5
D2
100
AcDbEntity
8
1
62
256
6
ByLayer
370
13
48
1
60
0
100
AcDbLine
10
50
20
21.329294
30
0
11
50
21
21.909855
31
0
39
0
210
0
220
0
230
1
0
LINE
5
D3
100
AcDbEntity
8
1
62
256
6
ByLayer
370
18
48
1
60
0
100
AcDbLine
10
57.978552
20
14.920706
30
0
11
58.592225
21
14.920706
31
0
39
0
210
0
220
0
230
1
0
LINE
5
D4
100
AcDbEntity
8
1
62
256
6
ByLayer
370
18
48
1
60
0
100
AcDbLine
10
57.978552
20
-14.920706
30
0
11
58.592225
21
-14.920706
31
0
39
0
210
0
220
0
230
1
0
LINE
5
D5
100
AcDbEntity
8
1
62
256
6
ByLayer
370
13
48
1
60
0
100
AcDbLine
10
50
20
-21.909855
30
0
11
50
21
-21.329294
31
0
39
0
210
0
220
0
230
1
0
LINE
5
D6
100
AcDbEntity
8
1
62
256
6
ByLayer
370
13
48
1
60
0
100
AcDbLine
10
50
20
21.909855
30
0
11
50
21
23.889878
31
0
39
0
210
0
220
0
230
1
0
LINE
5
D7
100
AcDbEntity
8
1
62
256
6
ByLayer
370
13
48
1
60
0
100
AcDbLine
10
50
20
-23.889878
30
0
11
50
21
-21.909855
31
0
39
0
210
0
220
0
230
1
0
LINE
5
D8
100
AcDbEntity
8
1
62
256
6
ByLayer
370
13
48
1
60
0
100
AcDbLine
10
50
20
23.889878
30
0
11
50
21
24.152516
31
0
39
0
210
0
220
0
230
1
0
LINE
5
D9
100
AcDbEntity
8
1
62
256
6
ByLayer
370
13
48
1
60
0
100
AcDbLine
10
50
20
15.496699
30
0
11
50
21
15.373857
31
0
39
0
210
0
220
0
230
1
0
LINE
5
DA
100
AcDbEntity
8
1
62
256
6
ByLayer
370
13
48
1
60
0
100
AcDbLine
10
50
20
-15.496699
30
0
11
50
21
-15.373857
31
0
39
0
210
0
220
0
230
1
0
LINE
5
DB
100
AcDbEntity
8
1
62
256
6
ByLayer
370
13
48
1
60
0
100
AcDbLine
10
50
20
-23.889878
30
0
11
50
21
-24.152516
31
0
39
0
210
0
220
0
230
1
0
LINE
5
DC
100
AcDbEntity
8
1
62
256
6
ByLayer
370
18
48
1
60
0
100
AcDbLine
10
39
20
38.85
30
0
11
39
21
0
31
0
39
0
210
0
220
0
230
1
0
LINE
5
DD
100
AcDbEntity
8
1
62
256
6
ByLayer
370
18
48
1
60
0
100
AcDbLine
10
39
20
0
30
0
11
39
21
-38.85
31
0
39
0
210
0
220
0
230
1
0
LINE
5
DE
100
AcDbEntity
8
1
62
256
6
ByLayer
370
13
48
1
60
0
100
AcDbLine
10
56.622501
20
15.373857
30
0
11
50
21
15.373857
31
0
39
0
210
0
220
0
230
1
0
LINE
5
DF
100
AcDbEntity
8
1
62
256
6
ByLayer
370
13
48
1
60
0
100
AcDbLine
10
50
20
24.152516
30
0
11
56.622501
21
24.152516
31
0
39
0
210
0
220
0
230
1
0
LINE
5
E0
100
AcDbEntity
8
1
62
256
6
ByLayer
370
13
48
1
60
0
100
AcDbLine
10
56.622501
20
39.526374
30
0
11
50
21
39.526374
31
0
39
0
210
0
220
0
230
1
0
LINE
5
E1
100
AcDbEntity
8
1
62
256
6
ByLayer
370
13
48
1
60
0
100
AcDbLine
10
50
20
-39.526374
30
0
11
56.622501
21
-39.526374
31
0
39
0
210
0
220
0
230
1
0
LINE
5
E2
100
AcDbEntity
8
1
62
256
6
ByLayer
370
13
48
1
60
0
100
AcDbLine
10
56.622501
20
-24.152516
30
0
11
50
21
-24.152516
31
0
39
0
210
0
220
0
230
1
0
LINE
5
E3
100
AcDbEntity
8
1
62
256
6
ByLayer
370
13
48
1
60
0
100
AcDbLine
10
50
20
-15.373857
30
0
11
56.622501
21
-15.373857
31
0
39
0
210
0
220
0
230
1
0
LINE
5
E4
100
AcDbEntity
8
1
62
256
6
ByLayer
370
18
48
1
60
0
100
AcDbLine
10
40
20
-39.85
30
0
11
40
21
0
31
0
39
0
210
0
220
0
230
1
0
LINE
5
E5
100
AcDbEntity
8
1
62
256
6
ByLayer
370
18
48
1
60
0
100
AcDbLine
10
40
20
0
30
0
11
40
21
39.85
31
0
39
0
210
0
220
0
230
1
0
LINE
5
E6
100
AcDbEntity
8
1
62
256
6
ByLayer
370
18
48
1
60
0
100
AcDbLine
10
56.622501
20
-15.373857
30
0
11
56.622501
21
15.373857
31
0
39
0
210
0
220
0
230
1
0
LINE
5
E7
100
AcDbEntity
8
1
62
256
6
ByLayer
370
18
48
1
60
0
100
AcDbLine
10
56.622501
20
-39.526374
30
0
11
56.622501
21
-24.152516
31
0
39
0
210
0
220
0
230
1
0
LINE
5
E8
100
AcDbEntity
8
1
62
256
6
ByLayer
370
18
48
1
60
0
100
AcDbLine
10
56.622501
20
24.152516
30
0
11
56.622501
21
39.526374
31
0
39
0
210
0
220
0
230
1
0
LINE
5
E9
100
AcDbEntity
8
1
62
256
6
ByLayer
370
18
48
1
60
0
100
AcDbLine
10
60
20
34
30
0
11
60
21
0
31
0
39
0
210
0
220
0
230
1
0
LINE
5
EA
100
AcDbEntity
8
1
62
256
6
ByLayer
370
18
48
1
60
0
100
AcDbLine
10
60
20
0
30
0
11
60
21
-34
31
0
39
0
210
0
220
0
230
1
0
LINE
5
EB
100
AcDbEntity
8
SK1
62
256
6
ByLayer
370
18
48
1
60
0
100
AcDbLine
10
-39.8
20
8.11
30
0
11
-39.8
21
-8.11
31
0
39
0
210
0
220
0
230
1
0
LINE
5
EC
100
AcDbEntity
8
SK1
62
256
6
ByLayer
370
13
48
1
60
0
100
AcDbLine
10
-36.7
20
17.059224
30
0
11
-36.7
21
19.594371
31
0
39
0
210
0
220
0
230
1
0
LINE
5
ED
100
AcDbEntity
8
SK1
62
256
6
ByLayer
370
13
48
1
60
0
100
AcDbLine
10
-36.7
20
-19.594371
30
0
11
-36.7
21
-17.059224
31
0
39
0
210
0
220
0
230
1
0
LINE
5
EE
100
AcDbEntity
8
SK1
62
256
6
ByLayer
370
18
48
1
60
0
100
AcDbLine
10
-49.9
20
-11.66
30
0
11
-48.20375
21
-9.96375
31
0
39
0
210
0
220
0
230
1
0
LINE
5
EF
100
AcDbEntity
8
SK1
62
256
6
ByLayer
370
18
48
1
60
0
100
AcDbLine
10
-49.9
20
-11.66
30
0
11
-49.9
21
-14.192093
31
0
39
0
210
0
220
0
230
1
0
LINE
5
F0
100
AcDbEntity
8
SK1
62
256
6
ByLayer
370
13
48
1
60
0
100
AcDbLine
10
-49.680346
20
-16.388863
30
0
11
-48.810766
21
-16.783644
31
0
39
0
210
0
220
0
230
1
0
LINE
5
F1
100
AcDbEntity
8
SK1
62
256
6
ByLayer
370
13
48
1
60
0
100
AcDbLine
10
-36.7
20
-17.059224
30
0
11
-40.216558
21
-17.059224
31
0
39
0
210
0
220
0
230
1
0
LINE
5
F2
100
AcDbEntity
8
SK1
62
256
6
ByLayer
370
18
48
1
60
0
100
AcDbLine
10
-36.7
20
-9.96375
30
0
11
-48.20375
21
-9.96375
31
0
39
0
210
0
220
0
230
1
0
LINE
5
F3
100
AcDbEntity
8
SK1
62
256
6
ByLayer
370
18
48
1
60
0
100
AcDbLine
10
-48.20375
20
-15.101921
30
0
11
-48.20375
21
-9.96375
31
0
39
0
210
0
220
0
230
1
0
LINE
5
F4
100
AcDbEntity
8
SK1
62
256
6
ByLayer
370
18
48
1
60
0
100
AcDbLine
10
-49.9
20
-14.192093
30
0
11
-49.9
21
-33.605194
31
0
39
0
210
0
220
0
230
1
0
LINE
5
F5
100
AcDbEntity
8
SK1
62
256
6
ByLayer
370
18
48
1
60
0
100
AcDbLine
10
-49.9
20
33.605194
30
0
11
-49.9
21
14.192093
31
0
39
0
210
0
220
0
230
1
0
LINE
5
F6
100
AcDbEntity
8
SK1
62
256
6
ByLayer
370
18
48
1
60
0
100
AcDbLine
10
-36.7
20
9.96375
30
0
11
-48.20375
21
9.96375
31
0
39
0
210
0
220
0
230
1
0
LINE
5
F7
100
AcDbEntity
8
SK1
62
256
6
ByLayer
370
13
48
1
60
0
100
AcDbLine
10
-36.7
20
17.059224
30
0
11
-40.216558
21
17.059224
31
0
39
0
210
0
220
0
230
1
0
LINE
5
F8
100
AcDbEntity
8
SK1
62
256
6
ByLayer
370
13
48
1
60
0
100
AcDbLine
10
-49.680346
20
16.388863
30
0
11
-48.810766
21
16.783644
31
0
39
0
210
0
220
0
230
1
0
LINE
5
F9
100
AcDbEntity
8
SK1
62
256
6
ByLayer
370
18
48
1
60
0
100
AcDbLine
10
-49.9
20
11.66
30
0
11
-49.9
21
14.192093
31
0
39
0
210
0
220
0
230
1
0
LINE
5
FA
100
AcDbEntity
8
SK1
62
256
6
ByLayer
370
18
48
1
60
0
100
AcDbLine
10
-49.9
20
11.66
30
0
11
-48.20375
21
9.96375
31
0
39
0
210
0
220
0
230
1
0
LINE
5
FB
100
AcDbEntity
8
SK1
62
256
6
ByLayer
370
18
48
1
60
0
100
AcDbLine
10
-48.20375
20
15.101921
30
0
11
-48.20375
21
9.96375
31
0
39
0
210
0
220
0
230
1
0
LINE
5
FC
100
AcDbEntity
8
SK1
62
256
6
ByLayer
370
13
48
1
60
0
100
AcDbLine
10
-36.7
20
9.96375
30
0
11
-36.7
21
17.059224
31
0
39
0
210
0
220
0
230
1
0
LINE
5
FD
100
AcDbEntity
8
SK1
62
256
6
ByLayer
370
13
48
1
60
0
100
AcDbLine
10
-36.7
20
-17.059224
30
0
11
-36.7
21
-9.96375
31
0
39
0
210
0
220
0
230
1
0
LINE
5
FE
100
AcDbEntity
8
SK1
62
256
6
ByLayer
370
18
48
1
60
0
100
AcDbLine
10
-2.066987
20
37.632252
30
0
11
-2.066987
21
0
31
0
39
0
210
0
220
0
230
1
0
LINE
5
FF
100
AcDbEntity
8
SK1
62
256
6
ByLayer
370
18
48
1
60
0
100
AcDbLine
10
-2.066987
20
0
30
0
11
-2.066987
21
-37.632252
31
0
39
0
210
0
220
0
230
1
0
LINE
5
100
100
AcDbEntity
8
SK1
62
256
6
ByLayer
370
13
48
1
60
0
100
AcDbLine
10
-0.8
20
37.632252
30
0
11
-0.8
21
0
31
0
39
0
210
0
220
0
230
1
0
LINE
5
101
100
AcDbEntity
8
SK1
62
256
6
ByLayer
370
13
48
1
60
0
100
AcDbLine
10
-0.8
20
0
30
0
11
-0.8
21
-37.632252
31
0
39
0
210
0
220
0
230
1
0
LINE
5
102
100
AcDbEntity
8
SK1
62
256
6
ByLayer
370
18
48
1
60
0
100
AcDbLine
10
-2.5
20
-37.882252
30
0
11
-2.5
21
0
31
0
39
0
210
0
220
0
230
1
0
LINE
5
103
100
AcDbEntity
8
SK1
62
256
6
ByLayer
370
18
48
1
60
0
100
AcDbLine
10
-2.5
20
0
30
0
11
-2.5
21
37.882252
31
0
39
0
210
0
220
0
230
1
0
LINE
5
104
100
AcDbEntity
8
SK1
62
256
6
ByLayer
370
13
48
1
60
0
100
AcDbLine
10
-48.000075
20
15.157562
30
0
11
-48.000075
21
35.602689
31
0
39
0
210
0
220
0
230
1
0
LINE
5
105
100
AcDbEntity
8
SK1
62
256
6
ByLayer
370
18
48
1
60
0
100
AcDbLine
10
-34.8
20
12.976493
30
0
11
-34.8
21
-12.976493
31
0
39
0
210
0
220
0
230
1
0
LINE
5
106
100
AcDbEntity
8
SK1
62
256
6
ByLayer
370
13
48
1
60
0
100
AcDbLine
10
-48.000075
20
-35.602689
30
0
11
-48.000075
21
-15.157562
31
0
39
0
210
0
220
0
230
1
0
LINE
5
107
100
AcDbEntity
8
1
62
256
6
ByLayer
370
13
48
0.05
60
0
100
AcDbLine
10
12
20
0
30
0
11
28
21
0
31
0
39
0
210
0
220
0
230
1
0
LINE
5
108
100
AcDbEntity
8
1
62
256
6
ByLayer
370
13
48
0.05
60
0
100
AcDbLine
10
20
20
-8
30
0
11
20
21
8
31
0
39
0
210
0
220
0
230
1
0
LINE
5
109
100
AcDbEntity
8
1
62
256
6
ByLayer
370
13
48
0.05
60
0
100
AcDbLine
10
-26
20
0
30
0
11
-4
21
0
31
0
39
0
210
0
220
0
230
1
0
LINE
5
10A
100
AcDbEntity
8
1
62
256
6
ByLayer
370
13
48
0.05
60
0
100
AcDbLine
10
-15
20
-11
30
0
11
-15
21
11
31
0
39
0
210
0
220
0
230
1
0
LINE
5
10B
100
AcDbEntity
8
SK2
62
256
6
ByLayer
370
18
48
1
60
0
100
AcDbLine
10
-76.875
20
-49.965
30
0
11
-76.875
21
49.965
31
0
39
0
210
0
220
0
230
1
0
LINE
5
10D
100
AcDbEntity
8
SK2
62
256
6
ByLayer
370
18
48
1
60
0
100
AcDbLine
10
-0.8875
20
49.965
30
0
11
-78.875
21
49.965
31
0
39
0
210
0
220
0
230
1
0
LINE
5
10E
100
AcDbEntity
8
SK2
62
256
6
ByLayer
370
18
48
1
60
0
100
AcDbLine
10
-0.8875
20
-49.965
30
0
11
-78.875
21
-49.965
31
0
39
0
210
0
220
0
230
1
0
LINE
5
10F
100
AcDbEntity
8
1
62
256
6
ByLayer
370
18
48
1
60
1
100
AcDbLine
10
-76.875
20
49.965
30
0
11
-76.414216
21
46.465002
31
0
39
0
210
0
220
0
230
1
0
LINE
5
110
100
AcDbEntity
8
1
62
256
6
ByLayer
370
18
48
1
60
1
100
AcDbLine
10
-76.414216
20
46.465002
30
0
11
-77.335784
21
46.464998
31
0
39
0
210
0
220
0
230
1
0
LINE
5
111
100
AcDbEntity
8
1
62
256
6
ByLayer
370
18
48
1
60
1
100
AcDbLine
10
-77.335784
20
46.464998
30
0
11
-76.875
21
49.965
31
0
39
0
210
0
220
0
230
1
0
LINE
5
112
100
AcDbEntity
8
1
62
256
6
ByLayer
370
18
48
1
60
1
100
AcDbLine
10
-76.875
20
-49.965
30
0
11
-77.335784
21
-46.465002
31
0
39
0
210
0
220
0
230
1
0
LINE
5
113
100
AcDbEntity
8
1
62
256
6
ByLayer
370
18
48
1
60
1
100
AcDbLine
10
-77.335784
20
-46.465002
30
0
11
-76.414216
21
-46.464998
31
0
39
0
210
0
220
0
230
1
0
LINE
5
114
100
AcDbEntity
8
1
62
256
6
ByLayer
370
18
48
1
60
1
100
AcDbLine
10
-76.414216
20
-46.464998
30
0
11
-76.875
21
-49.965
31
0
39
0
210
0
220
0
230
1
0
LINE
5
115
100
AcDbEntity
8
SK2
62
256
6
ByLayer
370
13
48
1
60
0
100
AcDbLine
10
85.725
20
-39.85
30
0
11
85.725
21
39.85
31
0
39
0
210
0
220
0
230
1
0
LINE
5
116
100
AcDbEntity
8
SK2
62
256
6
ByLayer
370
13
48
1
60
0
100
AcDbLine
10
41.5875
20
39.85
30
0
11
87.725
21
39.85
31
0
39
0
210
0
220
0
230
1
0
LINE
5
117
100
AcDbEntity
8
SK2
62
256
6
ByLayer
370
13
48
1
60
0
100
AcDbLine
10
41.5875
20
-39.85
30
0
11
87.725
21
-39.85
31
0
39
0
210
0
220
0
230
1
0
LINE
5
118
100
AcDbEntity
8
1
62
256
6
ByLayer
370
18
48
1
60
1
100
AcDbLine
10
85.725
20
39.85
30
0
11
86.185784
21
36.350002
31
0
39
0
210
0
220
0
230
1
0
LINE
5
119
100
AcDbEntity
8
1
62
256
6
ByLayer
370
18
48
1
60
1
100
AcDbLine
10
86.185784
20
36.350002
30
0
11
85.264216
21
36.349998
31
0
39
0
210
0
220
0
230
1
0
LINE
5
11A
100
AcDbEntity
8
1
62
256
6
ByLayer
370
18
48
1
60
1
100
AcDbLine
10
85.264216
20
36.349998
30
0
11
85.725
21
39.85
31
0
39
0
210
0
220
0
230
1
0
LINE
5
11B
100
AcDbEntity
8
1
62
256
6
ByLayer
370
18
48
1
60
1
100
AcDbLine
10
85.725
20
-39.85
30
0
11
85.264216
21
-36.350002
31
0
39
0
210
0
220
0
230
1
0
LINE
5
11C
100
AcDbEntity
8
1
62
256
6
ByLayer
370
18
48
1
60
1
100
AcDbLine
10
85.264216
20
-36.350002
30
0
11
86.185784
21
-36.349998
31
0
39
0
210
0
220
0
230
1
0
LINE
5
11D
100
AcDbEntity
8
1
62
256
6
ByLayer
370
18
48
1
60
1
100
AcDbLine
10
86.185784
20
-36.349998
30
0
11
85.725
21
-39.85
31
0
39
0
210
0
220
0
230
1
0
LINE
5
11E
100
AcDbEntity
8
SK2
62
256
6
ByLayer
370
18
48
1
60
0
100
AcDbLine
10
-49.9
20
73.167689
30
0
11
0
21
73.167689
31
0
39
0
210
0
220
0
230
1
0
LINE
5
11F
100
AcDbEntity
8
SK2
62
256
6
ByLayer
370
18
48
1
60
0
100
AcDbLine
10
0
20
50.8525
30
0
11
0
21
75.167689
31
0
39
0
210
0
220
0
230
1
0
LINE
5
120
100
AcDbEntity
8
SK2
62
256
6
ByLayer
370
18
48
1
60
0
100
AcDbLine
10
-49.9
20
35.192694
30
0
11
-49.9
21
75.167689
31
0
39
0
210
0
220
0
230
1
0
LINE
5
121
100
AcDbEntity
8
1
62
256
6
ByLayer
370
18
48
1
60
1
100
AcDbLine
10
0
20
73.167689
30
0
11
-3.499998
21
72.706905
31
0
39
0
210
0
220
0
230
1
0
LINE
5
122
100
AcDbEntity
8
1
62
256
6
ByLayer
370
18
48
1
60
1
100
AcDbLine
10
-3.499998
20
72.706905
30
0
11
-3.500002
21
73.628472
31
0
39
0
210
0
220
0
230
1
0
LINE
5
123
100
AcDbEntity
8
1
62
256
6
ByLayer
370
18
48
1
60
1
100
AcDbLine
10
-3.500002
20
73.628472
30
0
11
0
21
73.167689
31
0
39
0
210
0
220
0
230
1
0
LINE
5
124
100
AcDbEntity
8
1
62
256
6
ByLayer
370
18
48
1
60
1
100
AcDbLine
10
-49.9
20
73.167689
30
0
11
-46.400002
21
73.628472
31
0
39
0
210
0
220
0
230
1
0
LINE
5
125
100
AcDbEntity
8
1
62
256
6
ByLayer
370
18
48
1
60
1
100
AcDbLine
10
-46.400002
20
73.628472
30
0
11
-46.399998
21
72.706905
31
0
39
0
210
0
220
0
230
1
0
LINE
5
126
100
AcDbEntity
8
1
62
256
6
ByLayer
370
18
48
1
60
1
100
AcDbLine
10
-46.399998
20
72.706905
30
0
11
-49.9
21
73.167689
31
0
39
0
210
0
220
0
230
1
0
LINE
5
127
100
AcDbEntity
8
SK2
62
256
6
ByLayer
370
18
48
1
60
0
100
AcDbLine
10
0
20
93.167689
30
0
11
60
21
93.167689
31
0
39
0
210
0
220
0
230
1
0
LINE
5
128
100
AcDbEntity
8
SK2
62
256
6
ByLayer
370
18
48
1
60
0
100
AcDbLine
10
60
20
35.5875
30
0
11
60
21
95.167689
31
0
39
0
210
0
220
0
230
1
0
LINE
5
129
100
AcDbEntity
8
SK2
62
256
6
ByLayer
370
18
48
1
60
0
100
AcDbLine
10
0
20
50.8525
30
0
11
0
21
95.167689
31
0
39
0
210
0
220
0
230
1
0
LINE
5
12A
100
AcDbEntity
8
1
62
256
6
ByLayer
370
18
48
1
60
1
100
AcDbLine
10
60
20
93.167689
30
0
11
56.500002
21
92.706905
31
0
39
0
210
0
220
0
230
1
0
LINE
5
12B
100
AcDbEntity
8
1
62
256
6
ByLayer
370
18
48
1
60
1
100
AcDbLine
10
56.500002
20
92.706905
30
0
11
56.499998
21
93.628472
31
0
39
0
210
0
220
0
230
1
0
LINE
5
12C
100
AcDbEntity
8
1
62
256
6
ByLayer
370
18
48
1
60
1
100
AcDbLine
10
56.499998
20
93.628472
30
0
11
60
21
93.167689
31
0
39
0
210
0
220
0
230
1
0
LINE
5
12D
100
AcDbEntity
8
1
62
256
6
ByLayer
370
18
48
1
60
1
100
AcDbLine
10
0
20
93.167689
30
0
11
3.499998
21
93.628472
31
0
39
0
210
0
220
0
230
1
0
LINE
5
12E
100
AcDbEntity
8
1
62
256
6
ByLayer
370
18
48
1
60
1
100
AcDbLine
10
3.499998
20
93.628472
30
0
11
3.500002
21
92.706905
31
0
39
0
210
0
220
0
230
1
0
LINE
5
12F
100
AcDbEntity
8
1
62
256
6
ByLayer
370
18
48
1
60
1
100
AcDbLine
10
3.500002
20
92.706905
30
0
11
0
21
93.167689
31
0
39
0
210
0
220
0
230
1
0
LINE
5
130
100
AcDbEntity
8
SK2
62
256
6
ByLayer
370
18
48
1
60
0
100
AcDbLine
10
0
20
83.167689
30
0
11
39
21
83.167689
31
0
39
0
210
0
220
0
230
1
0
LINE
5
131
100
AcDbEntity
8
SK2
62
256
6
ByLayer
370
18
48
1
60
0
100
AcDbLine
10
39
20
40.4375
30
0
11
39
21
85.167689
31
0
39
0
210
0
220
0
230
1
0
LINE
5
132
100
AcDbEntity
8
SK2
62
256
6
ByLayer
370
18
48
1
60
0
100
AcDbLine
10
0
20
50.8525
30
0
11
0
21
85.167689
31
0
39
0
210
0
220
0
230
1
0
LINE
5
133
100
AcDbEntity
8
1
62
256
6
ByLayer
370
18
48
1
60
1
100
AcDbLine
10
39
20
83.167689
30
0
11
35.500002
21
82.706905
31
0
39
0
210
0
220
0
230
1
0
LINE
5
134
100
AcDbEntity
8
1
62
256
6
ByLayer
370
18
48
1
60
1
100
AcDbLine
10
35.500002
20
82.706905
30
0
11
35.499998
21
83.628472
31
0
39
0
210
0
220
0
230
1
0
LINE
5
135
100
AcDbEntity
8
1
62
256
6
ByLayer
370
18
48
1
60
1
100
AcDbLine
10
35.499998
20
83.628472
30
0
11
39
21
83.167689
31
0
39
0
210
0
220
0
230
1
0
LINE
5
136
100
AcDbEntity
8
1
62
256
6
ByLayer
370
18
48
1
60
1
100
AcDbLine
10
0
20
83.167689
30
0
11
3.499998
21
83.628472
31
0
39
0
210
0
220
0
230
1
0
LINE
5
137
100
AcDbEntity
8
1
62
256
6
ByLayer
370
18
48
1
60
1
100
AcDbLine
10
3.499998
20
83.628472
30
0
11
3.500002
21
82.706905
31
0
39
0
210
0
220
0
230
1
0
LINE
5
138
100
AcDbEntity
8
1
62
256
6
ByLayer
370
18
48
1
60
1
100
AcDbLine
10
3.500002
20
82.706905
30
0
11
0
21
83.167689
31
0
39
0
210
0
220
0
230
1
0
LINE
5
139
100
AcDbEntity
8
SK2
62
256
6
ByLayer
370
18
48
1
60
0
100
AcDbLine
10
60
20
73.167689
30
0
11
39
21
73.167689
31
0
39
0
210
0
220
0
230
1
0
LINE
5
13A
100
AcDbEntity
8
SK2
62
256
6
ByLayer
370
18
48
1
60
0
100
AcDbLine
10
39
20
40.4375
30
0
11
39
21
75.167689
31
0
39
0
210
0
220
0
230
1
0
LINE
5
13B
100
AcDbEntity
8
SK2
62
256
6
ByLayer
370
18
48
1
60
0
100
AcDbLine
10
60
20
35.5875
30
0
11
60
21
75.167689
31
0
39
0
210
0
220
0
230
1
0
LINE
5
13C
100
AcDbEntity
8
1
62
256
6
ByLayer
370
18
48
1
60
1
100
AcDbLine
10
39
20
73.167689
30
0
11
42.499998
21
73.628472
31
0
39
0
210
0
220
0
230
1
0
LINE
5
13D
100
AcDbEntity
8
1
62
256
6
ByLayer
370
18
48
1
60
1
100
AcDbLine
10
42.499998
20
73.628472
30
0
11
42.500002
21
72.706905
31
0
39
0
210
0
220
0
230
1
0
LINE
5
13E
100
AcDbEntity
8
1
62
256
6
ByLayer
370
18
48
1
60
1
100
AcDbLine
10
42.500002
20
72.706905
30
0
11
39
21
73.167689
31
0
39
0
210
0
220
0
230
1
0
LINE
5
13F
100
AcDbEntity
8
1
62
256
6
ByLayer
370
18
48
1
60
1
100
AcDbLine
10
60
20
73.167689
30
0
11
56.500002
21
72.706905
31
0
39
0
210
0
220
0
230
1
0
LINE
5
140
100
AcDbEntity
8
1
62
256
6
ByLayer
370
18
48
1
60
1
100
AcDbLine
10
56.500002
20
72.706905
30
0
11
56.499998
21
73.628472
31
0
39
0
210
0
220
0
230
1
0
LINE
5
141
100
AcDbEntity
8
1
62
256
6
ByLayer
370
18
48
1
60
1
100
AcDbLine
10
56.499998
20
73.628472
30
0
11
60
21
73.167689
31
0
39
0
210
0
220
0
230
1
0
LINE
5
142
100
AcDbEntity
8
2
62
256
6
ByLayer
370
18
48
1
60
0
100
AcDbLine
10
0
20
-69.900089
30
0
11
48
21
-69.900089
31
0
39
0
210
0
220
0
230
1
0
LINE
5
143
100
AcDbEntity
8
2
62
256
6
ByLayer
370
18
48
1
60
0
100
AcDbLine
10
48
20
-1.5875
30
0
11
48
21
-71.900089
31
0
39
0
210
0
220
0
230
1
0
LINE
5
144
100
AcDbEntity
8
2
62
256
6
ByLayer
370
18
48
1
60
0
100
AcDbLine
10
0
20
-50.8525
30
0
11
0
21
-71.900089
31
0
39
0
210
0
220
0
230
1
0
LINE
5
145
100
AcDbEntity
8
1
62
256
6
ByLayer
370
18
48
1
60
1
100
AcDbLine
10
48
20
-69.900089
30
0
11
44.500002
21
-70.360873
31
0
39
0
210
0
220
0
230
1
0
LINE
5
146
100
AcDbEntity
8
1
62
256
6
ByLayer
370
18
48
1
60
1
100
AcDbLine
10
44.500002
20
-70.360873
30
0
11
44.499998
21
-69.439305
31
0
39
0
210
0
220
0
230
1
0
LINE
5
147
100
AcDbEntity
8
1
62
256
6
ByLayer
370
18
48
1
60
1
100
AcDbLine
10
44.499998
20
-69.439305
30
0
11
48
21
-69.900089
31
0
39
0
210
0
220
0
230
1
0
LINE
5
148
100
AcDbEntity
8
1
62
256
6
ByLayer
370
18
48
1
60
1
100
AcDbLine
10
0
20
-69.900089
30
0
11
3.499998
21
-69.439305
31
0
39
0
210
0
220
0
230
1
0
LINE
5
149
100
AcDbEntity
8
1
62
256
6
ByLayer
370
18
48
1
60
1
100
AcDbLine
10
3.499998
20
-69.439305
30
0
11
3.500002
21
-70.360873
31
0
39
0
210
0
220
0
230
1
0
LINE
5
14A
100
AcDbEntity
8
1
62
256
6
ByLayer
370
18
48
1
60
1
100
AcDbLine
10
3.500002
20
-70.360873
30
0
11
0
21
-69.900089
31
0
39
0
210
0
220
0
230
1
0
LINE
5
1A1
100
AcDbEntity
8
1
62
256
6
ByLayer
370
13
48
0.05
60
0
100
AcDbLine
10
20
20
52.422472
30
0
11
20
21
36.200875
31
0
39
0
210
0
220
0
230
1
0
LINE
5
1A2
100
AcDbEntity
8
1
62
256
6
ByLayer
370
13
48
0.05
60
0
100
AcDbLine
10
-54.75
20
0
30
0
11
45.890673
21
0
31
0
39
0
210
0
220
0
230
1
0
LINE
5
1A3
100
AcDbEntity
8
1
62
256
6
ByLayer
370
13
48
0.05
60
0
100
AcDbLine
10
66.5
20
0
30
0
11
32.5
21
0
31
0
39
0
210
0
220
0
230
1
0
LINE
5
1A8
100
AcDbEntity
8
1
62
256
6
ByLayer
370
18
48
1
60
1
100
AcDbLine
10
-76.875
20
49.965
30
0
11
-76.414216
21
46.465002
31
0
39
0
210
0
220
0
230
1
0
LINE
5
1A9
100
AcDbEntity
8
1
62
256
6
ByLayer
370
18
48
1
60
1
100
AcDbLine
10
-76.414216
20
46.465002
30
0
11
-77.335784
21
46.464998
31
0
39
0
210
0
220
0
230
1
0
LINE
5
1AA
100
AcDbEntity
8
1
62
256
6
ByLayer
370
18
48
1
60
1
100
AcDbLine
10
-77.335784
20
46.464998
30
0
11
-76.875
21
49.965
31
0
39
0
210
0
220
0
230
1
0
LINE
5
1AC
100
AcDbEntity
8
1
62
256
6
ByLayer
370
18
48
1
60
1
100
AcDbLine
10
-76.875
20
-49.965
30
0
11
-77.335784
21
-46.465002
31
0
39
0
210
0
220
0
230
1
0
LINE
5
1AD
100
AcDbEntity
8
1
62
256
6
ByLayer
370
18
48
1
60
1
100
AcDbLine
10
-77.335784
20
-46.465002
30
0
11
-76.414216
21
-46.464998
31
0
39
0
210
0
220
0
230
1
0
LINE
5
1AE
100
AcDbEntity
8
1
62
256
6
ByLayer
370
18
48
1
60
1
100
AcDbLine
10
-76.414216
20
-46.464998
30
0
11
-76.875
21
-49.965
31
0
39
0
210
0
220
0
230
1
0
LINE
5
1B2
100
AcDbEntity
8
1
62
256
6
ByLayer
370
18
48
1
60
1
100
AcDbLine
10
85.725
20
39.85
30
0
11
86.185784
21
36.350002
31
0
39
0
210
0
220
0
230
1
0
LINE
5
1B3
100
AcDbEntity
8
1
62
256
6
ByLayer
370
18
48
1
60
1
100
AcDbLine
10
86.185784
20
36.350002
30
0
11
85.264216
21
36.349998
31
0
39
0
210
0
220
0
230
1
0
LINE
5
1B4
100
AcDbEntity
8
1
62
256
6
ByLayer
370
18
48
1
60
1
100
AcDbLine
10
85.264216
20
36.349998
30
0
11
85.725
21
39.85
31
0
39
0
210
0
220
0
230
1
0
LINE
5
1B6
100
AcDbEntity
8
1
62
256
6
ByLayer
370
18
48
1
60
1
100
AcDbLine
10
85.725
20
-39.85
30
0
11
85.264216
21
-36.350002
31
0
39
0
210
0
220
0
230
1
0
LINE
5
1B7
100
AcDbEntity
8
1
62
256
6
ByLayer
370
18
48
1
60
1
100
AcDbLine
10
85.264216
20
-36.350002
30
0
11
86.185784
21
-36.349998
31
0
39
0
210
0
220
0
230
1
0
LINE
5
1B8
100
AcDbEntity
8
1
62
256
6
ByLayer
370
18
48
1
60
1
100
AcDbLine
10
86.185784
20
-36.349998
30
0
11
85.725
21
-39.85
31
0
39
0
210
0
220
0
230
1
0
LINE
5
1BB
100
AcDbEntity
8
1
62
256
6
ByLayer
370
18
48
1
60
1
100
AcDbLine
10
0
20
73.167689
30
0
11
-3.499998
21
72.706905
31
0
39
0
210
0
220
0
230
1
0
LINE
5
1BC
100
AcDbEntity
8
1
62
256
6
ByLayer
370
18
48
1
60
1
100
AcDbLine
10
-3.499998
20
72.706905
30
0
11
-3.500002
21
73.628472
31
0
39
0
210
0
220
0
230
1
0
LINE
5
1BD
100
AcDbEntity
8
1
62
256
6
ByLayer
370
18
48
1
60
1
100
AcDbLine
10
-3.500002
20
73.628472
30
0
11
0
21
73.167689
31
0
39
0
210
0
220
0
230
1
0
LINE
5
1BF
100
AcDbEntity
8
1
62
256
6
ByLayer
370
18
48
1
60
1
100
AcDbLine
10
-49.9
20
73.167689
30
0
11
-46.400002
21
73.628472
31
0
39
0
210
0
220
0
230
1
0
LINE
5
1C0
100
AcDbEntity
8
1
62
256
6
ByLayer
370
18
48
1
60
1
100
AcDbLine
10
-46.400002
20
73.628472
30
0
11
-46.399998
21
72.706905
31
0
39
0
210
0
220
0
230
1
0
LINE
5
1C1
100
AcDbEntity
8
1
62
256
6
ByLayer
370
18
48
1
60
1
100
AcDbLine
10
-46.399998
20
72.706905
30
0
11
-49.9
21
73.167689
31
0
39
0
210
0
220
0
230
1
0
LINE
5
1C4
100
AcDbEntity
8
1
62
256
6
ByLayer
370
18
48
1
60
1
100
AcDbLine
10
60
20
93.167689
30
0
11
56.500002
21
92.706905
31
0
39
0
210
0
220
0
230
1
0
LINE
5
1C5
100
AcDbEntity
8
1
62
256
6
ByLayer
370
18
48
1
60
1
100
AcDbLine
10
56.500002
20
92.706905
30
0
11
56.499998
21
93.628472
31
0
39
0
210
0
220
0
230
1
0
LINE
5
1C6
100
AcDbEntity
8
1
62
256
6
ByLayer
370
18
48
1
60
1
100
AcDbLine
10
56.499998
20
93.628472
30
0
11
60
21
93.167689
31
0
39
0
210
0
220
0
230
1
0
LINE
5
1C8
100
AcDbEntity
8
1
62
256
6
ByLayer
370
18
48
1
60
1
100
AcDbLine
10
0
20
93.167689
30
0
11
3.499998
21
93.628472
31
0
39
0
210
0
220
0
230
1
0
LINE
5
1C9
100
AcDbEntity
8
1
62
256
6
ByLayer
370
18
48
1
60
1
100
AcDbLine
10
3.499998
20
93.628472
30
0
11
3.500002
21
92.706905
31
0
39
0
210
0
220
0
230
1
0
LINE
5
1CA
100
AcDbEntity
8
1
62
256
6
ByLayer
370
18
48
1
60
1
100
AcDbLine
10
3.500002
20
92.706905
30
0
11
0
21
93.167689
31
0
39
0
210
0
220
0
230
1
0
LINE
5
1CD
100
AcDbEntity
8
1
62
256
6
ByLayer
370
18
48
1
60
1
100
AcDbLine
10
39
20
83.167689
30
0
11
35.500002
21
82.706905
31
0
39
0
210
0
220
0
230
1
0
LINE
5
1CE
100
AcDbEntity
8
1
62
256
6
ByLayer
370
18
48
1
60
1
100
AcDbLine
10
35.500002
20
82.706905
30
0
11
35.499998
21
83.628472
31
0
39
0
210
0
220
0
230
1
0
LINE
5
1CF
100
AcDbEntity
8
1
62
256
6
ByLayer
370
18
48
1
60
1
100
AcDbLine
10
35.499998
20
83.628472
30
0
11
39
21
83.167689
31
0
39
0
210
0
220
0
230
1
0
LINE
5
1D1
100
AcDbEntity
8
1
62
256
6
ByLayer
370
18
48
1
60
1
100
AcDbLine
10
0
20
83.167689
30
0
11
3.499998
21
83.628472
31
0
39
0
210
0
220
0
230
1
0
LINE
5
1D2
100
AcDbEntity
8
1
62
256
6
ByLayer
370
18
48
1
60
1
100
AcDbLine
10
3.499998
20
83.628472
30
0
11
3.500002
21
82.706905
31
0
39
0
210
0
220
0
230
1
0
LINE
5
1D3
100
AcDbEntity
8
1
62
256
6
ByLayer
370
18
48
1
60
1
100
AcDbLine
10
3.500002
20
82.706905
30
0
11
0
21
83.167689
31
0
39
0
210
0
220
0
230
1
0
LINE
5
1D6
100
AcDbEntity
8
1
62
256
6
ByLayer
370
18
48
1
60
1
100
AcDbLine
10
39
20
73.167689
30
0
11
42.499998
21
73.628472
31
0
39
0
210
0
220
0
230
1
0
LINE
5
1D7
100
AcDbEntity
8
1
62
256
6
ByLayer
370
18
48
1
60
1
100
AcDbLine
10
42.499998
20
73.628472
30
0
11
42.500002
21
72.706905
31
0
39
0
210
0
220
0
230
1
0
LINE
5
1D8
100
AcDbEntity
8
1
62
256
6
ByLayer
370
18
48
1
60
1
100
AcDbLine
10
42.500002
20
72.706905
30
0
11
39
21
73.167689
31
0
39
0
210
0
220
0
230
1
0
LINE
5
1DA
100
AcDbEntity
8
1
62
256
6
ByLayer
370
18
48
1
60
1
100
AcDbLine
10
60
20
73.167689
30
0
11
56.500002
21
72.706905
31
0
39
0
210
0
220
0
230
1
0
LINE
5
1DB
100
AcDbEntity
8
1
62
256
6
ByLayer
370
18
48
1
60
1
100
AcDbLine
10
56.500002
20
72.706905
30
0
11
56.499998
21
73.628472
31
0
39
0
210
0
220
0
230
1
0
LINE
5
1DC
100
AcDbEntity
8
1
62
256
6
ByLayer
370
18
48
1
60
1
100
AcDbLine
10
56.499998
20
73.628472
30
0
11
60
21
73.167689
31
0
39
0
210
0
220
0
230
1
0
LINE
5
1DF
100
AcDbEntity
8
1
62
256
6
ByLayer
370
18
48
1
60
1
100
AcDbLine
10
48
20
-69.900089
30
0
11
44.500002
21
-70.360873
31
0
39
0
210
0
220
0
230
1
0
LINE
5
1E0
100
AcDbEntity
8
1
62
256
6
ByLayer
370
18
48
1
60
1
100
AcDbLine
10
44.500002
20
-70.360873
30
0
11
44.499998
21
-69.439305
31
0
39
0
210
0
220
0
230
1
0
LINE
5
1E1
100
AcDbEntity
8
1
62
256
6
ByLayer
370
18
48
1
60
1
100
AcDbLine
10
44.499998
20
-69.439305
30
0
11
48
21
-69.900089
31
0
39
0
210
0
220
0
230
1
0
LINE
5
1E3
100
AcDbEntity
8
1
62
256
6
ByLayer
370
18
48
1
60
1
100
AcDbLine
10
0
20
-69.900089
30
0
11
3.499998
21
-69.439305
31
0
39
0
210
0
220
0
230
1
0
LINE
5
1E4
100
AcDbEntity
8
1
62
256
6
ByLayer
370
18
48
1
60
1
100
AcDbLine
10
3.499998
20
-69.439305
30
0
11
3.500002
21
-70.360873
31
0
39
0
210
0
220
0
230
1
0
LINE
5
1E5
100
AcDbEntity
8
1
62
256
6
ByLayer
370
18
48
1
60
1
100
AcDbLine
10
3.500002
20
-70.360873
30
0
11
0
21
-69.900089
31
0
39
0
210
0
220
0
230
1
0
MTEXT
5
1A4
100
AcDbEntity
8
SK2
62
256
6
ByLayer
370
18
48
1
60
0
100
AcDbMText
10
-78.439634
20
-5.400922
30
0
210
0
220
0
230
1
1
%%c
40
3.5
41
0
44
1.084337
50
90
71
7
72
5
7
iso_b_vert
0
MTEXT
5
1A7
100
AcDbEntity
8
SK2
62
256
6
ByLayer
370
18
48
1
60
0
100
AcDbMText
10
-78.439634
20
1.571734
30
0
210
0
220
0
230
1
1
\W0.6217;100
40
3.5
41
0
44
1.084337
50
90
71
7
72
5
7
iso_b_vert
0
MTEXT
5
1B0
100
AcDbEntity
8
SK2
62
256
6
ByLayer
370
18
48
1
60
0
100
AcDbMText
10
84.160366
20
-4.530622
30
0
210
0
220
0
230
1
1
%%c
40
3.5
41
0
44
1.084337
50
90
71
7
72
5
7
iso_b_vert
0
MTEXT
5
1B1
100
AcDbEntity
8
SK2
62
256
6
ByLayer
370
18
48
1
60
0
100
AcDbMText
10
84.160366
20
2.442034
30
0
210
0
220
0
230
1
1
\W0.6740;80
40
3.5
41
0
44
1.084337
50
90
71
7
72
5
7
iso_b_vert
0
MTEXT
5
1BA
100
AcDbEntity
8
SK2
62
256
6
ByLayer
370
18
48
1
60
0
100
AcDbMText
10
-29.055966
20
74.200322
30
0
210
0
220
0
230
1
1
\W0.7756;49.9
40
3.5
41
0
44
1.084337
50
0
71
7
72
5
7
iso_b_vert
0
MTEXT
5
1C3
100
AcDbEntity
8
SK2
62
256
6
ByLayer
370
18
48
1
60
0
100
AcDbMText
10
28.095034
20
94.200322
30
0
210
0
220
0
230
1
1
\W0.6740;60
40
3.5
41
0
44
1.084337
50
0
71
7
72
5
7
iso_b_vert
0
MTEXT
5
1CC
100
AcDbEntity
8
SK2
62
256
6
ByLayer
370
18
48
1
60
0
100
AcDbMText
10
17.595034
20
84.200322
30
0
210
0
220
0
230
1
1
\W0.6927;39
40
3.5
41
0
44
1.084337
50
0
71
7
72
5
7
iso_b_vert
0
MTEXT
5
1D5
100
AcDbEntity
8
SK2
62
256
6
ByLayer
370
18
48
1
60
0
100
AcDbMText
10
48.032467
20
74.200322
30
0
210
0
220
0
230
1
1
\W0.6351;21
40
3.5
41
0
44
1.084337
50
0
71
7
72
5
7
iso_b_vert
0
MTEXT
5
1DE
100
AcDbEntity
8
2
62
256
6
ByLayer
370
18
48
1
60
0
100
AcDbMText
10
21.910767
20
-68.867455
30
0
210
0
220
0
230
1
1
\W0.7361;48
40
3.5
41
0
44
1.084337
50
0
71
7
72
5
7
iso_b_vert
0
MTEXT
5
1E7
100
AcDbEntity
8
SK6
62
256
6
ByLayer
370
18
48
1
60
0
100
AcDbMText
10
-28.519483
20
-86.981086
30
0
210
0
220
0
230
1
1
\W0.7711;HT10-DM40-N-048A
40
3
41
0
44
1.084337
50
0
71
7
72
5
7
iso_b_vert
0
HATCH
5
1AB
100
AcDbEntity
8
SK2
62
256
6
ByLayer
370
13
48
1
60
0
100
AcDbHatch
10
0
20
0
30
0
210
0
220
0
230
1
2
ANSI31
70
0
71
0
91
1
92
5
93
3
72
1
10
-76.875
20
49.965
11
-76.4142162584472
21
46.4650016925532
72
1
10
-76.4142162584472
20
46.4650016925532
11
-77.3357837415528
21
46.4649983074468
72
1
10
-77.3357837415528
20
46.4649983074468
11
-76.875
21
49.965
97
0
75
0
76
1
52
0
41
0.0062
77
0
78
1
53
45
43
0
44
0
45
-0.0139193969876572
46
0.0139193969876572
79
0
47
0
98
1
10
0
20
0
0
HATCH
5
1AF
100
AcDbEntity
8
SK2
62
256
6
ByLayer
370
13
48
1
60
0
100
AcDbHatch
10
0
20
0
30
0
210
0
220
0
230
1
2
ANSI31
70
0
71
0
91
1
92
5
93
3
72
1
10
-76.875
20
-49.965
11
-77.3357837415528
21
-46.4650016925532
72
1
10
-77.3357837415528
20
-46.4650016925532
11
-76.4142162584472
21
-46.4649983074468
72
1
10
-76.4142162584472
20
-46.4649983074468
11
-76.875
21
-49.965
97
0
75
0
76
1
52
0
41
0.0062
77
0
78
1
53
45
43
0
44
0
45
-0.0139193969876572
46
0.0139193969876572
79
0
47
0
98
1
10
0
20
0
0
HATCH
5
1B5
100
AcDbEntity
8
SK2
62
256
6
ByLayer
370
13
48
1
60
0
100
AcDbHatch
10
0
20
0
30
0
210
0
220
0
230
1
2
ANSI31
70
0
71
0
91
1
92
5
93
3
72
1
10
85.725
20
39.85
11
86.1857837415528
21
36.3500016925532
72
1
10
86.1857837415528
20
36.3500016925532
11
85.2642162584472
21
36.3499983074468
72
1
10
85.2642162584472
20
36.3499983074468
11
85.725
21
39.85
97
0
75
0
76
1
52
0
41
0.0062
77
0
78
1
53
45
43
0
44
0
45
-0.0139193969876572
46
0.0139193969876572
79
0
47
0
98
1
10
0
20
0
0
HATCH
5
1B9
100
AcDbEntity
8
SK2
62
256
6
ByLayer
370
13
48
1
60
0
100
AcDbHatch
10
0
20
0
30
0
210
0
220
0
230
1
2
ANSI31
70
0
71
0
91
1
92
5
93
3
72
1
10
85.725
20
-39.85
11
85.2642162584472
21
-36.3500016925532
72
1
10
85.2642162584472
20
-36.3500016925532
11
86.1857837415528
21
-36.3499983074468
72
1
10
86.1857837415528
20
-36.3499983074468
11
85.725
21
-39.85
97
0
75
0
76
1
52
0
41
0.0062
77
0
78
1
53
45
43
0
44
0
45
-0.0139193969876572
46
0.0139193969876572
79
0
47
0
98
1
10
0
20
0
0
HATCH
5
1BE
100
AcDbEntity
8
SK2
62
256
6
ByLayer
370
13
48
1
60
0
100
AcDbHatch
10
0
20
0
30
0
210
0
220
0
230
1
2
ANSI31
70
0
71
0
91
1
92
5
93
3
72
1
10
0
20
73.1676887402722
11
-3.49999830744682
21
72.7069049987194
72
1
10
-3.49999830744682
20
72.7069049987194
11
-3.50000169255318
21
73.6284724818249
72
1
10
-3.50000169255318
20
73.6284724818249
11
0
21
73.1676887402722
97
0
75
0
76
1
52
0
41
0.0062
77
0
78
1
53
45
43
0
44
0
45
-0.0139193969876572
46
0.0139193969876572
79
0
47
0
98
1
10
0
20
0
0
HATCH
5
1C2
100
AcDbEntity
8
SK2
62
256
6
ByLayer
370
13
48
1
60
0
100
AcDbHatch
10
0
20
0
30
0
210
0
220
0
230
1
2
ANSI31
70
0
71
0
91
1
92
5
93
3
72
1
10
-49.9
20
73.1676887402722
11
-46.4000016925532
21
73.6284724818249
72
1
10
-46.4000016925532
20
73.6284724818249
11
-46.3999983074468
21
72.7069049987194
72
1
10
-46.3999983074468
20
72.7069049987194
11
-49.9
21
73.1676887402722
97
0
75
0
76
1
52
0
41
0.0062
77
0
78
1
53
45
43
0
44
0
45
-0.0139193969876572
46
0.0139193969876572
79
0
47
0
98
1
10
0
20
0
0
HATCH
5
1C7
100
AcDbEntity
8
SK2
62
256
6
ByLayer
370
13
48
1
60
0
100
AcDbHatch
10
0
20
0
30
0
210
0
220
0
230
1
2
ANSI31
70
0
71
0
91
1
92
5
93
3
72
1
10
60
20
93.1676887402722
11
56.5000016925532
21
92.7069049987194
72
1
10
56.5000016925532
20
92.7069049987194
11
56.4999983074468
21
93.628472481825
72
1
10
56.4999983074468
20
93.628472481825
11
60
21
93.1676887402722
97
0
75
0
76
1
52
0
41
0.0062
77
0
78
1
53
45
43
0
44
0
45
-0.0139193969876572
46
0.0139193969876572
79
0
47
0
98
1
10
0
20
0
0
HATCH
5
1CB
100
AcDbEntity
8
SK2
62
256
6
ByLayer
370
13
48
1
60
0
100
AcDbHatch
10
0
20
0
30
0
210
0
220
0
230
1
2
ANSI31
70
0
71
0
91
1
92
5
93
3
72
1
10
0
20
93.1676887402722
11
3.49999830744682
21
93.628472481825
72
1
10
3.49999830744682
20
93.628472481825
11
3.50000169255318
21
92.7069049987194
72
1
10
3.50000169255318
20
92.7069049987194
11
0
21
93.1676887402722
97
0
75
0
76
1
52
0
41
0.0062
77
0
78
1
53
45
43
0
44
0
45
-0.0139193969876572
46
0.0139193969876572
79
0
47
0
98
1
10
0
20
0
0
HATCH
5
1D0
100
AcDbEntity
8
SK2
62
256
6
ByLayer
370
13
48
1
60
0
100
AcDbHatch
10
0
20
0
30
0
210
0
220
0
230
1
2
ANSI31
70
0
71
0
91
1
92
5
93
3
72
1
10
39
20
83.1676887402722
11
35.5000016925532
21
82.7069049987194
72
1
10
35.5000016925532
20
82.7069049987194
11
35.4999983074468
21
83.628472481825
72
1
10
35.4999983074468
20
83.628472481825
11
39
21
83.1676887402722
97
0
75
0
76
1
52
0
41
0.0062
77
0
78
1
53
45
43
0
44
0
45
-0.0139193969876572
46
0.0139193969876572
79
0
47
0
98
1
10
0
20
0
0
HATCH
5
1D4
100
AcDbEntity
8
SK2
62
256
6
ByLayer
370
13
48
1
60
0
100
AcDbHatch
10
0
20
0
30
0
210
0
220
0
230
1
2
ANSI31
70
0
71
0
91
1
92
5
93
3
72
1
10
0
20
83.1676887402722
11
3.49999830744682
21
83.628472481825
72
1
10
3.49999830744682
20
83.628472481825
11
3.50000169255318
21
82.7069049987194
72
1
10
3.50000169255318
20
82.7069049987194
11
0
21
83.1676887402722
97
0
75
0
76
1
52
0
41
0.0062
77
0
78
1
53
45
43
0
44
0
45
-0.0139193969876572
46
0.0139193969876572
79
0
47
0
98
1
10
0
20
0
0
HATCH
5
1D9
100
AcDbEntity
8
SK2
62
256
6
ByLayer
370
13
48
1
60
0
100
AcDbHatch
10
0
20
0
30
0
210
0
220
0
230
1
2
ANSI31
70
0
71
0
91
1
92
5
93
3
72
1
10
39
20
73.1676887402722
11
42.4999983074468
21
73.6284724818249
72
1
10
42.4999983074468
20
73.6284724818249
11
42.5000016925532
21
72.7069049987194
72
1
10
42.5000016925532
20
72.7069049987194
11
39
21
73.1676887402722
97
0
75
0
76
1
52
0
41
0.0062
77
0
78
1
53
45
43
0
44
0
45
-0.0139193969876572
46
0.0139193969876572
79
0
47
0
98
1
10
0
20
0
0
HATCH
5
1DD
100
AcDbEntity
8
SK2
62
256
6
ByLayer
370
13
48
1
60
0
100
AcDbHatch
10
0
20
0
30
0
210
0
220
0
230
1
2
ANSI31
70
0
71
0
91
1
92
5
93
3
72
1
10
60
20
73.1676887402722
11
56.5000016925532
21
72.7069049987194
72
1
10
56.5000016925532
20
72.7069049987194
11
56.4999983074468
21
73.6284724818249
72
1
10
56.4999983074468
20
73.6284724818249
11
60
21
73.1676887402722
97
0
75
0
76
1
52
0
41
0.0062
77
0
78
1
53
45
43
0
44
0
45
-0.0139193969876572
46
0.0139193969876572
79
0
47
0
98
1
10
0
20
0
0
HATCH
5
1E2
100
AcDbEntity
8
2
62
256
6
ByLayer
370
13
48
1
60
0
100
AcDbHatch
10
0
20
0
30
0
210
0
220
0
230
1
2
ANSI31
70
0
71
0
91
1
92
5
93
3
72
1
10
48
20
-69.9000889984302
11
44.5000016925532
21
-70.360872739983
72
1
10
44.5000016925532
20
-70.360872739983
11
44.4999983074468
21
-69.4393052568774
72
1
10
44.4999983074468
20
-69.4393052568774
11
48
21
-69.9000889984302
97
0
75
0
76
1
52
0
41
0.0062
77
0
78
1
53
45
43
0
44
0
45
-0.0139193969876572
46
0.0139193969876572
79
0
47
0
98
1
10
0
20
0
0
HATCH
5
1E6
100
AcDbEntity
8
2
62
256
6
ByLayer
370
13
48
1
60
0
100
AcDbHatch
10
0
20
0
30
0
210
0
220
0
230
1
2
ANSI31
70
0
71
0
91
1
92
5
93
3
72
1
10
0
20
-69.9000889984302
11
3.49999830744682
21
-69.4393052568774
72
1
10
3.49999830744682
20
-69.4393052568774
11
3.50000169255318
21
-70.360872739983
72
1
10
3.50000169255318
20
-70.360872739983
11
0
21
-69.9000889984302
97
0
75
0
76
1
52
0
41
0.0062
77
0
78
1
53
45
43
0
44
0
45
-0.0139193969876572
46
0.0139193969876572
79
0
47
0
98
1
10
0
20
0
0
ENDSEC
0
SECTION
2
OBJECTS
0
DICTIONARY
5
255
330
0
100
AcDbDictionary
280
0
281
1
3
ACAD_GROUP
350
256
3
ACAD_MLINESTYLE
350
257
0
DICTIONARY
5
256
330
0
100
AcDbDictionary
280
0
281
1
0
DICTIONARY
5
257
330
0
100
AcDbDictionary
280
0
281
1
3
Standard
350
18
0
MLINESTYLE
5
18
330
257
100
AcDbMlineStyle
2
Standard
70
0
3

62
256
51
90
52
90
71
2
49
-0.5
62
256
6
ByLayer
49
0.5
62
256
6
ByLayer
0
RASTERVARIABLES
5
244
330

100
AcDbRasterVariables
90
0
70
1
71
1
72
1
0
ENDSEC
0
EOF
