0
SECTION
2
HEADER
9
$ACADVER
1
AC1015
9
$DWGCODEPAGE
3
ANSI_1252
9
$HANDSEED
5
262
9
$ANGBASE
50
0
9
$ANGDIR
70
0
9
$ATTMODE
70
1
9
$AUNITS
70
0
9
$AUPREC
70
0
9
$CECOLOR
62
256
9
$CELTSCALE
40
1
9
$CELTYPE
6
ByLayer
9
$CELWEIGHT
370
18
9
$CLAYER
8
0
9
$CMLJUST
70
0
9
$CMLSCALE
40
1
9
$CMLSTYLE
2
Standard
9
$DIMSTYLE
2
Standard
9
$TEXTSIZE
40
0.2
9
$TEXTSTYLE
7
Standard
9
$LUNITS
70
2
9
$LUPREC
70
4
9
$EXTNAMES
290
1
9
$INSUNITS
70
4
9
$LTSCALE
40
1
9
$LWDISPLAY
290
1
9
$PDMODE
70
0
9
$PDSIZE
40
0
9
$PLINEGEN
70
0
0
ENDSEC
0
SECTION
2
CLASSES
0
CLASS
1
RASTERVARIABLES
2
AcDbRasterVariables
3
ISM
90
0
280
0
281
0
0
ENDSEC
0
SECTION
2
TABLES
0
TABLE
2
VPORT
5
258
100
AcDbSymbolTable
0
VPORT
5
1
100
AcDbSymbolTableRecord
100
AcDbViewportTableRecord
2
*Active
70
0
10
0
20
0
11
1
21
1
12
-1
22
1
13
0
23
0
14
0.5
24
0.5
15
10
25
10
16
0
26
0
36
1
17
0
27
0
37
0
0
ENDTAB
0
TABLE
2
LTYPE
5
259
100
AcDbSymbolTable
0
LTYPE
5
14
100
AcDbSymbolTableRecord
100
AcDbLinetypeTableRecord
70
0
2
ByBlock
3

72
65
73
0
40
0
0
LTYPE
5
15
100
AcDbSymbolTableRecord
100
AcDbLinetypeTableRecord
70
0
2
ByLayer
3

72
65
73
0
40
0
0
LTYPE
5
16
100
AcDbSymbolTableRecord
100
AcDbLinetypeTableRecord
70
0
2
Continuous
3
Solid line
72
65
73
0
40
0
0
LTYPE
5
6E
100
AcDbSymbolTableRecord
100
AcDbLinetypeTableRecord
70
0
2
CENTER
3
____ _ ____ _ ____ _ ____
72
65
73
4
40
47.5
49
22
74
0
49
-8.5
74
0
49
8.5
74
0
49
-8.5
74
0
0
LTYPE
5
6F
100
AcDbSymbolTableRecord
100
AcDbLinetypeTableRecord
70
0
2
DASHED
3
__ __ __ __ __ __ __ __ __
72
65
73
2
40
25.72
49
12.86
74
0
49
-12.86
74
0
0
ENDTAB
0
TABLE
2
LAYER
5
25a
100
AcDbSymbolTable
0
LAYER
5
10
100
AcDbSymbolTableRecord
100
AcDbLayerTableRecord
2
0
70
0
62
7
6
Continuous
290
1
370
-3
390
0
0
LAYER
5
71
100
AcDbSymbolTableRecord
100
AcDbLayerTableRecord
2
2
70
0
62
7
6
Continuous
290
1
370
-3
390
0
0
LAYER
5
7B
100
AcDbSymbolTableRecord
100
AcDbLayerTableRecord
2
81
70
0
62
-3
6
Continuous
290
1
370
-3
390
0
0
LAYER
5
7D
100
AcDbSymbolTableRecord
100
AcDbLayerTableRecord
2
80
70
0
62
-6
6
Continuous
290
1
370
-3
390
0
0
LAYER
5
7F
100
AcDbSymbolTableRecord
100
AcDbLayerTableRecord
2
1
70
0
62
4
6
Continuous
290
1
370
-3
390
0
0
LAYER
5
86
100
AcDbSymbolTableRecord
100
AcDbLayerTableRecord
2
4
70
0
62
-2
6
CENTER
290
1
370
-3
390
0
0
LAYER
5
245
100
AcDbSymbolTableRecord
100
AcDbLayerTableRecord
2
SK1
70
0
62
4
6
Continuous
290
1
370
-3
390
0
0
LAYER
5
246
100
AcDbSymbolTableRecord
100
AcDbLayerTableRecord
2
SK2
70
0
62
7
6
Continuous
290
1
370
-3
390
0
0
LAYER
5
247
100
AcDbSymbolTableRecord
100
AcDbLayerTableRecord
2
SK6
70
0
62
5
6
Continuous
290
1
370
-3
390
0
0
ENDTAB
0
TABLE
2
STYLE
5
25b
100
AcDbSymbolTable
0
STYLE
5
11
100
AcDbSymbolTableRecord
100
AcDbTextStyleTableRecord
2
Standard
3
txt
70
0
71
0
40
0
41
1
42
0
50
0
0
STYLE
5
1A5
100
AcDbSymbolTableRecord
100
AcDbTextStyleTableRecord
2
iso_b_vert
3
simplex.shx
70
0
71
0
40
0
41
1
42
0
50
0
0
STYLE
5
1A6
100
AcDbSymbolTableRecord
100
AcDbTextStyleTableRecord
2
DWGDirectTextStyle
3
simplex
70
0
71
0
40
0
41
1
42
0
50
0
0
ENDTAB
0
TABLE
2
DIMSTYLE
5
25c
100
AcDbSymbolTable
100
AcDbDimStyleTable
0
DIMSTYLE
105
27
100
AcDbSymbolTableRecord
100
AcDbDimStyleTableRecord
2
Standard
70
0
3
<>
41
0.18
42
0.0625
44
0.18
140
0.18
147
0.09
73
0
74
0
77
1
271
2
275
0
278
52
280
0
340
11
0
ENDTAB
0
TABLE
2
VIEW
5
25d
100
AcDbSymbolTable
0
ENDTAB
0
TABLE
2
UCS
5
25e
100
AcDbSymbolTable
0
ENDTAB
0
TABLE
2
APPID
5
25f
100
AcDbSymbolTable
0
APPID
5
12
100
AcDbSymbolTableRecord
100
AcDbRegAppTableRecord
2
ACAD
70
0
0
APPID
5
241
100
AcDbSymbolTableRecord
100
AcDbRegAppTableRecord
2
ACAD_MLEADERVER
70
0
0
ENDTAB
0
TABLE
2
BLOCK_RECORD
5
260
100
AcDbSymbolTable
0
BLOCK_RECORD
5
1F
100
AcDbSymbolTableRecord
100
AcDbBlockTableRecord
2
*Model_Space
340
0
70
0
0
BLOCK_RECORD
5
1B
100
AcDbSymbolTableRecord
100
AcDbBlockTableRecord
2
*Paper_Space
340
0
70
0
0
BLOCK_RECORD
5
23
100
AcDbSymbolTableRecord
100
AcDbBlockTableRecord
2
*Paper_Space0
340
0
70
0
0
ENDTAB
0
ENDSEC
0
SECTION
2
BLOCKS
0
BLOCK
5
20
100
AcDbEntity
8
0
100
AcDbBlockBegin
2
*Model_Space
70
0
10
0
20
0
30
0
3
*Model_Space
0
ENDBLK
5
21
100
AcDbEntity
8
0
100
AcDbBlockEnd
0
BLOCK
5
1C
100
AcDbEntity
8
0
100
AcDbBlockBegin
2
*Paper_Space
70
0
10
0
20
0
30
0
3
*Paper_Space
0
ENDBLK
5
1D
100
AcDbEntity
8
0
100
AcDbBlockEnd
0
BLOCK
5
24
100
AcDbEntity
8
0
100
AcDbBlockBegin
2
*Paper_Space0
70
0
10
0
20
0
30
0
3
*Paper_Space0
0
ENDBLK
5
25
100
AcDbEntity
8
0
100
AcDbBlockEnd
0
ENDSEC
0
SECTION
2
ENTITIES
0
ARC
5
14B
100
AcDbEntity
8
1
62
256
6
ByLayer
370
18
48
1
60
0
100
AcDbCircle
39
0
10
30.15
20
-40.075
30
0
40
1.2
210
0
220
0
230
1
100
AcDbArc
50
90
51
180
0
ARC
5
14C
100
AcDbEntity
8
1
62
256
6
ByLayer
370
18
48
1
60
0
100
AcDbCircle
39
0
10
30.15
20
40.075
30
0
40
1.2
210
0
220
0
230
1
100
AcDbArc
50
180
51
270
0
ARC
5
14D
100
AcDbEntity
8
1
62
256
6
ByLayer
370
18
48
1
60
0
100
AcDbCircle
39
0
10
18.475
20
46.375
30
0
40
0.400000000000002
210
0
220
0
230
1
100
AcDbArc
50
180
51
270
0
ARC
5
14E
100
AcDbEntity
8
1
62
256
6
ByLayer
370
18
48
1
60
0
100
AcDbCircle
39
0
10
21.525
20
-46.375
30
0
40
0.399999999999991
210
0
220
0
230
1
100
AcDbArc
50
0
51
90
0
ARC
5
14F
100
AcDbEntity
8
1
62
256
6
ByLayer
370
18
48
1
60
0
100
AcDbCircle
39
0
10
18.475
20
-46.375
30
0
40
0.400000000000002
210
0
220
0
230
1
100
AcDbArc
50
90
51
180
0
ARC
5
150
100
AcDbEntity
8
1
62
256
6
ByLayer
370
18
48
1
60
0
100
AcDbCircle
39
0
10
21.525
20
46.375
30
0
40
0.399999999999991
210
0
220
0
230
1
100
AcDbArc
50
270
51
0
0
ARC
5
151
100
AcDbEntity
8
SK1
62
256
6
ByLayer
370
18
48
1
60
0
100
AcDbCircle
39
0
10
-47.9
20
-33.605194
30
0
40
2
210
0
220
0
230
1
100
AcDbArc
50
180
51
267.131868
0
ARC
5
152
100
AcDbEntity
8
SK1
62
256
6
ByLayer
370
18
48
1
60
0
100
AcDbCircle
39
0
10
-47.9
20
33.605194
30
0
40
2
210
0
220
0
230
1
100
AcDbArc
50
92.868132
51
180
0
ARC
5
153
100
AcDbEntity
8
SK1
62
256
6
ByLayer
370
18
48
1
60
0
100
AcDbCircle
39
0
10
-0.8
20
38.632252
30
0
40
1
210
0
220
0
230
1
100
AcDbArc
50
270
51
323.130102
0
ARC
5
154
100
AcDbEntity
8
SK1
62
256
6
ByLayer
370
18
48
1
60
0
100
AcDbCircle
39
0
10
-0.8
20
-38.632252
30
0
40
1
210
0
220
0
230
1
100
AcDbArc
50
36.869898
51
90
0
ARC
5
156
100
AcDbEntity
8
SK1
62
256
6
ByLayer
370
18
48
1
60
0
100
AcDbCircle
39
0
10
-36.7
20
8.06375
30
0
40
1.9
210
0
220
0
230
1
100
AcDbArc
50
0
51
90
0
ARC
5
157
100
AcDbEntity
8
SK1
62
256
6
ByLayer
370
18
48
1
60
0
100
AcDbCircle
39
0
10
-36.7
20
-8.06375
30
0
40
1.9
210
0
220
0
230
1
100
AcDbArc
50
270
51
0
0
CIRCLE
5
155
100
AcDbEntity
8
1
62
256
6
ByLayer
370
18
48
1
60
0
100
AcDbCircle
10
20
20
0
30
0
40
1.00000000000001
39
0
210
0
220
0
230
1
0
CIRCLE
5
158
100
AcDbEntity
8
SK1
62
256
6
ByLayer
370
18
48
1
60
0
100
AcDbCircle
10
-15
20
0
30
0
40
5.99999999999999
39
0
210
0
220
0
230
1
0
ELLIPSE
5
159
100
AcDbEntity
8
1
62
256
6
ByLayer
370
18
48
1
60
0
100
AcDbEllipse
10
57
20
21.875
30
0
11
-3.7
21
4.5310435091428E-16
31
0
210
0
220
0
230
1
40
0.866025
41
-1.5707963267949
42
0.486750632151095
0
ELLIPSE
5
15A
100
AcDbEntity
8
1
62
256
6
ByLayer
370
18
48
1
60
0
100
AcDbEllipse
10
57
20
-21.875
30
0
11
3.7
21
0
31
0
210
0
220
0
230
1
40
0.866025
41
2.6410977212609
42
-1.5707963267949
0
ELLIPSE
5
15B
100
AcDbEntity
8
1
62
256
6
ByLayer
370
18
48
1
60
0
100
AcDbEllipse
10
57
20
22.0875
30
0
11
-4.125
21
5.05150120951731E-16
31
0
210
0
220
0
230
1
40
0.866025
41
-1.5707963267949
42
0.320884292182578
0
ELLIPSE
5
15C
100
AcDbEntity
8
1
62
256
6
ByLayer
370
18
48
1
60
0
100
AcDbEllipse
10
57
20
-22.0875
30
0
11
4.125
21
0
31
0
210
0
220
0
230
1
40
0.866025
41
2.82866049591398
42
-1.5707963267949
0
ELLIPSE
5
15D
100
AcDbEntity
8
SK1
62
256
6
ByLayer
370
13
48
1
60
0
100
AcDbEllipse
10
-36.7
20
17.921806
30
0
11
-1.9
21
2.32675207226252E-16
31
0
210
0
220
0
230
1
40
0.45399
41
1.5707963267949
42
2.057660152551
0
ELLIPSE
5
15E
100
AcDbEntity
8
SK1
62
256
6
ByLayer
370
13
48
1
60
0
100
AcDbEllipse
10
-36.7
20
-17.921806
30
0
11
1.9
21
0
31
0
210
0
220
0
230
1
40
0.45399
41
1.08393250103923
42
1.5707963267949
0
POINT
5
70
100
AcDbEntity
8
2
62
256
6
ByLayer
370
18
48
1
60
0
100
AcDbPoint
10
55
20
0
30
0
39
0
210
0
220
0
230
1
50
360
0
POINT
5
72
100
AcDbEntity
8
2
62
256
6
ByLayer
370
18
48
1
60
0
100
AcDbPoint
10
55
20
32
30
0
39
0
210
0
220
0
230
1
50
360
0
POINT
5
73
100
AcDbEntity
8
2
62
256
6
ByLayer
370
18
48
1
60
0
100
AcDbPoint
10
55
20
0
30
0
39
0
210
0
220
0
230
1
50
360
0
POINT
5
74
100
AcDbEntity
8
2
62
256
6
ByLayer
370
18
48
1
60
0
100
AcDbPoint
10
55
20
0
30
0
39
0
210
0
220
0
230
1
50
360
0
POINT
5
75
100
AcDbEntity
8
2
62
256
6
ByLayer
370
18
48
1
60
0
100
AcDbPoint
10
0
20
0
30
0
39
0
210
0
220
0
230
1
50
360
0
POINT
5
76
100
AcDbEntity
8
2
62
256
6
ByLayer
370
18
48
1
60
0
100
AcDbPoint
10
55
20
32
30
0
39
0
210
0
220
0
230
1
50
360
0
POINT
5
77
100
AcDbEntity
8
2
62
256
6
ByLayer
370
18
48
1
60
0
100
AcDbPoint
10
55
20
0
30
0
39
0
210
0
220
0
230
1
50
360
0
POINT
5
78
100
AcDbEntity
8
2
62
256
6
ByLayer
370
18
48
1
60
0
100
AcDbPoint
10
55
20
32
30
0
39
0
210
0
220
0
230
1
50
360
0
POINT
5
79
100
AcDbEntity
8
2
62
256
6
ByLayer
370
18
48
1
60
0
100
AcDbPoint
10
35
20
0
30
0
39
0
210
0
220
0
230
1
50
360
0
POINT
5
7A
100
AcDbEntity
8
81
62
256
6
ByLayer
370
18
48
1
60
0
100
AcDbPoint
10
55
20
0
30
0
39
0
210
0
220
0
230
1
50
360
0
POINT
5
7C
100
AcDbEntity
8
80
62
256
6
ByLayer
370
18
48
1
60
0
100
AcDbPoint
10
0
20
0
30
0
39
0
210
0
220
0
230
1
50
360
0
POINT
5
7E
100
AcDbEntity
8
1
62
256
6
ByLayer
370
13
48
1
60
1
100
AcDbPoint
10
20
20
47.422472
30
0
39
0
210
0
220
0
230
1
50
360
0
POINT
5
80
100
AcDbEntity
8
1
62
256
6
ByLayer
370
13
48
1
60
1
100
AcDbPoint
10
20
20
41.200875
30
0
39
0
210
0
220
0
230
1
50
360
0
POINT
5
81
100
AcDbEntity
8
1
62
256
6
ByLayer
370
13
48
1
60
1
100
AcDbPoint
10
-49.75
20
0
30
0
39
0
210
0
220
0
230
1
50
360
0
POINT
5
82
100
AcDbEntity
8
1
62
256
6
ByLayer
370
13
48
1
60
1
100
AcDbPoint
10
47.890673
20
0
30
0
39
0
210
0
220
0
230
1
50
360
0
POINT
5
83
100
AcDbEntity
8
1
62
256
6
ByLayer
370
13
48
1
60
1
100
AcDbPoint
10
70.5
20
0
30
0
39
0
210
0
220
0
230
1
50
360
0
POINT
5
84
100
AcDbEntity
8
1
62
256
6
ByLayer
370
13
48
1
60
1
100
AcDbPoint
10
44.5
20
0
30
0
39
0
210
0
220
0
230
1
50
360
0
SPLINE
5
15F
100
AcDbEntity
8
1
62
256
6
ByLayer
370
18
48
1
60
0
100
AcDbSpline
70
4
71
3
72
52
73
48
40
0
40
0
40
0
40
0
40
0.0625000000000142
40
0.0625000000000142
40
0.125000000000028
40
0.125000000000028
40
0.156250000000036
40
0.156250000000036
40
0.17187500000004
40
0.17187500000004
40
0.187500000000044
40
0.187500000000044
40
0.250000000000057
40
0.31250000000007
40
0.31250000000007
40
0.328125000000071
40
0.328125000000071
40
0.343750000000073
40
0.375000000000076
40
0.375000000000076
40
0.437500000000079
40
0.437500000000079
40
0.468750000000082
40
0.468750000000082
40
0.484375000000082
40
0.484375000000082
40
0.500000000000082
40
0.500000000000082
40
0.562500000000074
40
0.625000000000066
40
0.625000000000066
40
0.656250000000061
40
0.656250000000061
40
0.687500000000055
40
0.687500000000055
40
0.750000000000042
40
0.750000000000042
40
0.781250000000037
40
0.781250000000037
40
0.812500000000031
40
0.812500000000031
40
0.875000000000021
40
0.93750000000001
40
0.93750000000001
40
0.968750000000005
40
0.968750000000005
40
1
40
1
40
1
40
1
41
1
10
18.475
20
45.4177057068927
30
0
41
1
10
18.5131930808128
20
45.4282401035344
30
0
41
1
10
18.5554606478647
20
45.4381136869634
30
0
41
1
10
18.6478179474983
20
45.4566607629005
30
0
41
1
10
18.6979086926174
20
45.4653338936089
30
0
41
1
10
18.7789823714228
20
45.4774884886754
30
0
41
1
10
18.8069996678942
20
45.4813970665735
30
0
41
1
10
18.8505536464379
20
45.4870471981333
30
0
41
1
10
18.8653029438398
20
45.4888917756283
30
0
41
1
10
18.8950955856762
20
45.4924846390733
30
0
41
1
10
18.9101625115515
20
45.4942360168509
30
0
41
1
10
18.9863395554145
20
45.5027733570546
30
0
41
1
10
19.1135926887496
20
45.5150344539884
30
0
41
1
10
19.2514036903976
20
45.5246838080132
30
0
41
1
10
19.3409544661046
20
45.5299076460752
30
0
41
1
10
19.3590520089523
20
45.5309125077375
30
0
41
1
10
19.3953229586329
20
45.5328269057902
30
0
41
1
10
19.4499381667588
20
45.535561256528
30
0
41
1
10
19.5051707053838
20
45.5378933746879
30
0
41
1
10
19.6164454423366
20
45.5420380112818
30
0
41
1
10
19.6917046822207
20
45.5441110444607
30
0
41
1
10
19.8062181220335
20
45.5462007902096
30
0
41
1
10
19.8446608919079
20
45.546726719729
30
0
41
1
10
19.9027419621887
20
45.5472551242484
30
0
41
1
10
19.9222082263656
20
45.547387892317
30
0
41
1
10
19.9610432866324
20
45.5475643683662
30
0
41
1
10
19.9804206757316
20
45.5476083511067
30
0
41
1
10
20.0771097084011
20
45.5476101677026
30
0
41
1
10
20.2305506817672
20
45.5462244066362
30
0
41
1
10
20.3815254793057
20
45.5421044575915
30
0
41
1
10
20.4938039217151
20
45.5379360085788
30
0
41
1
10
20.531126742299
20
45.5363618734392
30
0
41
1
10
20.6043513378543
20
45.532891944917
30
0
41
1
10
20.6403890093397
20
45.530991817569
30
0
41
1
10
20.7468111863411
20
45.5247960222789
30
0
41
1
10
20.8155120434473
20
45.5200074806351
30
0
41
1
10
20.9151902047722
20
45.5117918402699
30
0
41
1
10
20.9478522755725
20
45.5088805298284
30
0
41
1
10
21.0120256139634
20
45.5026966909818
30
0
41
1
10
21.0436243918519
20
45.4994130173258
30
0
41
1
10
21.1353630867129
20
45.4891382328376
30
0
41
1
10
21.2502848660042
20
45.4742528671883
30
0
41
1
10
21.3508223253872
20
45.4569143091999
30
0
41
1
10
21.4206978904473
20
45.4429109582395
30
0
41
1
10
21.4431137195572
20
45.4380639570225
30
0
41
1
10
21.4857057869268
20
45.4280961070812
30
0
41
1
10
21.5059034870284
20
45.4229728976465
30
0
41
1
10
21.525
20
45.4177057068927
30
0
0
SPLINE
5
160
100
AcDbEntity
8
1
62
256
6
ByLayer
370
18
48
1
60
0
100
AcDbSpline
70
4
71
3
72
52
73
48
40
0
40
0
40
0
40
0
40
0.0625000000000048
40
0.0625000000000048
40
0.12500000000001
40
0.12500000000001
40
0.156250000000011
40
0.156250000000011
40
0.171875000000012
40
0.171875000000012
40
0.187500000000012
40
0.187500000000012
40
0.250000000000011
40
0.31250000000001
40
0.31250000000001
40
0.328125000000009
40
0.328125000000009
40
0.343750000000008
40
0.375000000000005
40
0.375000000000005
40
0.437499999999997
40
0.437499999999997
40
0.468749999999994
40
0.468749999999994
40
0.484374999999994
40
0.484374999999994
40
0.499999999999994
40
0.499999999999994
40
0.562499999999997
40
0.624999999999999
40
0.624999999999999
40
0.65625
40
0.65625
40
0.6875
40
0.6875
40
0.749999999999998
40
0.749999999999998
40
0.781249999999999
40
0.781249999999999
40
0.8125
40
0.8125
40
0.874999999999999
40
0.937499999999999
40
0.937499999999999
40
0.968749999999999
40
0.968749999999999
40
1
40
1
40
1
40
1
41
1
10
21.525
20
45.1195815714781
30
0
41
1
10
21.4868069191872
20
45.1065514886976
30
0
41
1
10
21.4445393521354
20
45.0940088833776
30
0
41
1
10
21.3521820525017
20
45.0699274918839
30
0
41
1
10
21.3020913073827
20
45.058388630909
30
0
41
1
10
21.2210176285772
20
45.0418976939086
30
0
41
1
10
21.1930003321058
20
45.0365373889623
30
0
41
1
10
21.1494463535622
20
45.0287145425449
30
0
41
1
10
21.1346970561602
20
45.0261477798033
30
0
41
1
10
21.1049044143238
20
45.0211250502974
30
0
41
1
10
21.0898374884485
20
45.0186648082821
30
0
41
1
10
21.0136604445855
20
45.0066189187686
30
0
41
1
10
20.8864073112505
20
44.9889738319142
30
0
41
1
10
20.7485963096025
20
44.9746669075076
30
0
41
1
10
20.6590455338954
20
44.9668443642354
30
0
41
1
10
20.6409479910478
20
44.9653350596848
30
0
41
1
10
20.6046770413671
20
44.962452270241
30
0
41
1
10
20.5500618332412
20
44.9583231937531
30
0
41
1
10
20.4948292946162
20
44.9547745416958
30
0
41
1
10
20.3835545576634
20
44.9484463392982
30
0
41
1
10
20.3082953177793
20
44.9452502276732
30
0
41
1
10
20.1937818779665
20
44.9420217394222
30
0
41
1
10
20.1553391080921
20
44.9412072085839
30
0
41
1
10
20.0972580378113
20
44.9403884186257
30
0
41
1
10
20.0777917736344
20
44.9401825584009
30
0
41
1
10
20.0389567133677
20
44.9399088928258
30
0
41
1
10
20.0195793242685
20
44.9398406619296
30
0
41
1
10
19.922890291599
20
44.9398378441799
30
0
41
1
10
19.7694493182328
20
44.941991309267
30
0
41
1
10
19.6184745206944
20
44.9483444791322
30
0
41
1
10
19.506196078285
20
44.9547096445997
30
0
41
1
10
19.468873257701
20
44.9571050212856
30
0
41
1
10
19.3956486621457
20
44.9623571116746
30
0
41
1
10
19.3596109906603
20
44.9652204792959
30
0
41
1
10
19.2531888136589
20
44.9744995933726
30
0
41
1
10
19.1844879565527
20
44.98160184958
30
0
41
1
10
19.0848097952278
20
44.9935857902299
30
0
41
1
10
19.0521477244275
20
44.9978028298077
30
0
41
1
10
18.9879743860366
20
45.0066821072471
30
0
41
1
10
18.9563756081481
20
45.0113598577862
30
0
41
1
10
18.8646369132871
20
45.02585836291
30
0
41
1
10
18.7497151339959
20
45.0465128233415
30
0
41
1
10
18.6491776746128
20
45.069594390286
30
0
41
1
10
18.5793021095527
20
45.0877820305388
30
0
41
1
10
18.5568862804428
20
45.0940063501909
30
0
41
1
10
18.5142942130732
20
45.1066468703864
30
0
41
1
10
18.4940965129716
20
45.1130665394476
30
0
41
1
10
18.475
20
45.1195815714781
30
0
0
SPLINE
5
161
100
AcDbEntity
8
1
62
256
6
ByLayer
370
18
48
1
60
0
100
AcDbSpline
70
4
71
3
72
30
73
26
40
0
40
0
40
0
40
0
40
0.0625765551231184
40
0.0625765551231184
40
0.125153110246237
40
0.187729665369355
40
0.187729665369355
40
0.250306220492474
40
0.250306220492474
40
0.375459330738725
40
0.375459330738725
40
0.438035885861854
40
0.438035885861854
40
0.500612440984982
40
0.500612440984982
40
0.625765551231227
40
0.625765551231227
40
0.688342106354345
40
0.688342106354345
40
0.750918661477463
40
0.813495216600581
40
0.813495216600581
40
0.876071771723699
40
0.876071771723699
40
1
40
1
40
1
40
1
41
1
10
18.475
20
11.021
30
0
41
1
10
18.4616847979077
20
11.021
30
0
41
1
10
18.44823198591
20
11.021
30
0
41
1
10
18.4217536095185
20
11.021
30
0
41
1
10
18.3955718787085
20
11.021
30
0
41
1
10
18.3699704552135
20
11.021
30
0
41
1
10
18.3446613431872
20
11.021
30
0
41
1
10
18.332089597359
20
11.021
30
0
41
1
10
18.2953093716652
20
11.021
30
0
41
1
10
18.2722157062746
20
11.021
30
0
41
1
10
18.2396300763836
20
11.021
30
0
41
1
10
18.2291132506191
20
11.021
30
0
41
1
10
18.2087863511855
20
11.021
30
0
41
1
10
18.1991008672812
20
11.021
30
0
41
1
10
18.171610646091
20
11.021
30
0
41
1
10
18.1552722742638
20
11.021
30
0
41
1
10
18.1337397189047
20
11.021
30
0
41
1
10
18.1270502063933
20
11.021
30
0
41
1
10
18.1149450839626
20
11.021
30
0
41
1
10
18.104036967684
20
11.021
30
0
41
1
10
18.0954655871354
20
11.021
30
0
41
1
10
18.0880672270645
20
11.021
30
0
41
1
10
18.0849476893669
20
11.021
30
0
41
1
10
18.0774997274796
20
11.021
30
0
41
1
10
18.0750374296981
20
11.021
30
0
41
1
10
18.0750049999978
20
11.021
30
0
0
SPLINE
5
162
100
AcDbEntity
8
1
62
256
6
ByLayer
370
18
48
1
60
0
100
AcDbSpline
70
4
71
3
72
32
73
28
40
0
40
0
40
0
40
0
40
0.125000000000002
40
0.125000000000002
40
0.250000000000003
40
0.250000000000003
40
0.281250000000003
40
0.281250000000003
40
0.312500000000002
40
0.312500000000002
40
0.375000000000001
40
0.375000000000001
40
0.500000000000002
40
0.500000000000002
40
0.562500000000004
40
0.562500000000004
40
0.593750000000004
40
0.593750000000004
40
0.625000000000005
40
0.625000000000005
40
0.750000000000004
40
0.750000000000004
40
0.875000000000003
40
0.875000000000003
40
0.937500000000001
40
0.937500000000001
40
1
40
1
40
1
40
1
41
1
10
18.475
20
45.119581571478
30
0
41
1
10
18.4377864466611
20
45.1322774752972
30
0
41
1
10
18.4054492427887
20
45.1500575939043
30
0
41
1
10
18.3497108149511
20
45.189719781936
30
0
41
1
10
18.3263174295068
20
45.2116806655758
30
0
41
1
10
18.3026347247877
20
45.2389668848321
30
0
41
1
10
18.2981777768653
20
45.2444170977807
30
0
41
1
10
18.2898288157941
20
45.2552364221601
30
0
41
1
10
18.2859353635673
20
45.2606089114671
30
0
41
1
10
18.2751840579966
20
45.2763970731348
30
0
41
1
10
18.2692244159246
20
45.2865162769308
30
0
41
1
10
18.2549017237893
20
45.3150139016755
30
0
41
1
10
18.250079691989
20
45.3314415856493
30
0
41
1
10
18.2499616171529
20
45.350944389701
30
0
41
1
10
18.251111974268
20
45.3566103770954
30
0
41
1
10
18.2546595041354
20
45.3639119298484
30
0
41
1
10
18.2561459141042
20
45.3661478085099
30
0
41
1
10
18.2597356429362
20
45.3702512724834
30
0
41
1
10
18.261839368491
20
45.3721167479223
30
0
41
1
10
18.2738091220134
20
45.3805615004972
30
0
41
1
10
18.2880551680473
20
45.3845321627458
30
0
41
1
10
18.3256409102619
20
45.3909978487505
30
0
41
1
10
18.3489787734403
20
45.3934875945267
30
0
41
1
10
18.3911622507963
20
45.3996902864256
30
0
41
1
10
18.4063797715671
20
45.4021708108456
30
0
41
1
10
18.4390017274134
20
45.4086176655123
30
0
41
1
10
18.4564279174875
20
45.4125831642876
30
0
41
1
10
18.4749999999984
20
45.4177057068912
30
0
0
SPLINE
5
163
100
AcDbEntity
8
1
62
256
6
ByLayer
370
18
48
1
60
0
100
AcDbSpline
70
4
71
3
72
30
73
26
40
0
40
0
40
0
40
0
40
0.125000000000006
40
0.125000000000006
40
0.187500000000017
40
0.187500000000017
40
0.250000000000028
40
0.312500000000039
40
0.312500000000039
40
0.375000000000049
40
0.375000000000049
40
0.500000000000058
40
0.500000000000058
40
0.562500000000056
40
0.562500000000056
40
0.625000000000055
40
0.625000000000055
40
0.750000000000061
40
0.750000000000061
40
0.812500000000046
40
0.812500000000046
40
0.87500000000003
40
0.937500000000015
40
0.937500000000015
40
1
40
1
40
1
40
1
41
1
10
21.5249999999981
20
-11.021
30
0
41
1
10
21.5514658257386
20
-11.021
30
0
41
1
10
21.5778123376984
20
-11.021
30
0
41
1
10
21.617147298598
20
-11.021
30
0
41
1
10
21.6300776915159
20
-11.021
30
0
41
1
10
21.6553616377659
20
-11.021
30
0
41
1
10
21.680143340414
20
-11.021
30
0
41
1
10
21.7039336034373
20
-11.021
30
0
41
1
10
21.7272199704532
20
-11.021
30
0
41
1
10
21.7386238958464
20
-11.021
30
0
41
1
10
21.7713302338265
20
-11.021
30
0
41
1
10
21.7914054108743
20
-11.021
30
0
41
1
10
21.8189753761471
20
-11.021
30
0
41
1
10
21.8277813540115
20
-11.021
30
0
41
1
10
21.844270095332
20
-11.021
30
0
41
1
10
21.851948079214
20
-11.021
30
0
41
1
10
21.8733390297163
20
-11.021
30
0
41
1
10
21.8854242332151
20
-11.021
30
0
41
1
10
21.9002268661624
20
-11.021
30
0
41
1
10
21.9045542912652
20
-11.021
30
0
41
1
10
21.9119490720265
20
-11.021
30
0
41
1
10
21.9181144901023
20
-11.021
30
0
41
1
10
21.9218542195072
20
-11.021
30
0
41
1
10
21.9243633939712
20
-11.021
30
0
41
1
10
21.9250110011
20
-11.021
30
0
41
1
10
21.924995249525
20
-11.021
30
0
0
SPLINE
5
164
100
AcDbEntity
8
1
62
256
6
ByLayer
370
18
48
1
60
0
100
AcDbSpline
70
4
71
3
72
29
73
25
40
0
40
0
40
0
40
0
40
0.12499999999999
40
0.12499999999999
40
0.187499999999983
40
0.187499999999983
40
0.249999999999977
40
0.249999999999977
40
0.374999999999927
40
0.374999999999927
40
0.43749999999992
40
0.43749999999992
40
0.499999999999914
40
0.499999999999914
40
0.624999999999935
40
0.624999999999935
40
0.687499999999946
40
0.687499999999946
40
0.749999999999957
40
0.812499999999968
40
0.812499999999968
40
0.874999999999978
40
0.874999999999978
40
1
40
1
40
1
40
1
41
1
10
18.0749949995
20
-11.021
30
0
41
1
10
18.0750050005
20
-11.021
30
0
41
1
10
18.0774839358192
20
-11.021
30
0
41
1
10
18.0849104655425
20
-11.021
30
0
41
1
10
18.0880110327233
20
-11.021
30
0
41
1
10
18.0954869307502
20
-11.021
30
0
41
1
10
18.0998083339582
20
-11.021
30
0
41
1
10
18.1144724428203
20
-11.021
30
0
41
1
10
18.1264991057131
20
-11.021
30
0
41
1
10
18.1480073011865
20
-11.021
30
0
41
1
10
18.1558037445956
20
-11.021
30
0
41
1
10
18.172275686343
20
-11.021
30
0
41
1
10
18.1809698352329
20
-11.021
30
0
41
1
10
18.208406471032
20
-11.021
30
0
41
1
10
18.2284892508471
20
-11.021
30
0
41
1
10
18.2614597723711
20
-11.021
30
0
41
1
10
18.2727943122913
20
-11.021
30
0
41
1
10
18.2959628962947
20
-11.021
30
0
41
1
10
18.3196857032358
20
-11.021
30
0
41
1
10
18.3445145728509
20
-11.021
30
0
41
1
10
18.3699117410406
20
-11.021
30
0
41
1
10
18.3829586191208
20
-11.021
30
0
41
1
10
18.4221131354527
20
-11.021
30
0
41
1
10
18.4484436971944
20
-11.021
30
0
41
1
10
18.475
20
-11.021
30
0
0
SPLINE
5
165
100
AcDbEntity
8
1
62
256
6
ByLayer
370
18
48
1
60
0
100
AcDbSpline
70
4
71
3
72
31
73
27
40
0
40
0
40
0
40
0
40
0.0598617457587328
40
0.0598617457587328
40
0.122537629374788
40
0.122537629374788
40
0.2478893966069
40
0.2478893966069
40
0.310565280222971
40
0.310565280222971
40
0.373241163839043
40
0.373241163839043
40
0.498592931071213
40
0.498592931071213
40
0.561268814687316
40
0.561268814687316
40
0.623944698303419
40
0.686620581919522
40
0.686620581919522
40
0.749296465535624
40
0.749296465535624
40
0.874648232767817
40
0.874648232767817
40
0.937324116383908
40
0.937324116383908
40
1
40
1
40
1
40
1
41
1
10
21.9250000000035
20
11.021
30
0
41
1
10
21.9249386149384
20
11.021
30
0
41
1
10
21.9243251720476
20
11.021
30
0
41
1
10
21.9218726395178
20
11.021
30
0
41
1
10
21.9199785565725
20
11.021
30
0
41
1
10
21.9125069641339
20
11.021
30
0
41
1
10
21.905136106865
20
11.021
30
0
41
1
10
21.890471836696
20
11.021
30
0
41
1
10
21.8849526780865
20
11.021
30
0
41
1
10
21.8727654232931
20
11.021
30
0
41
1
10
21.8661456968194
20
11.021
30
0
41
1
10
21.8447456214817
20
11.021
30
0
41
1
10
21.8284392770504
20
11.021
30
0
41
1
10
21.8008015924791
20
11.021
30
0
41
1
10
21.7910273232173
20
11.021
30
0
41
1
10
21.7708356920273
20
11.021
30
0
41
1
10
21.7499032588599
20
11.021
30
0
41
1
10
21.727505134293
20
11.021
30
0
41
1
10
21.7043606202103
20
11.021
30
0
41
1
10
21.6923744597047
20
11.021
30
0
41
1
10
21.6555104913066
20
11.021
30
0
41
1
10
21.6302617191814
20
11.021
30
0
41
1
10
21.5914053943374
20
11.021
30
0
41
1
10
21.578288218471
20
11.021
30
0
41
1
10
21.5517131422165
20
11.021
30
0
41
1
10
21.5382858068624
20
11.021
30
0
41
1
10
21.525
20
11.021
30
0
0
SPLINE
5
166
100
AcDbEntity
8
1
62
256
6
ByLayer
370
18
48
1
60
0
100
AcDbSpline
70
4
71
3
72
32
73
28
40
0
40
0
40
0
40
0
40
0.124999999999993
40
0.124999999999993
40
0.249999999999987
40
0.249999999999987
40
0.281249999999985
40
0.281249999999985
40
0.312499999999983
40
0.312499999999983
40
0.374999999999982
40
0.374999999999982
40
0.499999999999979
40
0.499999999999979
40
0.562499999999979
40
0.562499999999979
40
0.593749999999979
40
0.593749999999979
40
0.624999999999979
40
0.624999999999979
40
0.749999999999985
40
0.749999999999985
40
0.874999999999991
40
0.874999999999991
40
0.937499999999995
40
0.937499999999995
40
1
40
1
40
1
40
1
41
1
10
21.525
20
45.4177057068927
30
0
41
1
10
21.5622135533389
20
45.4074414830341
30
0
41
1
10
21.5945507572113
20
45.4018022521571
30
0
41
1
10
21.6502891850489
20
45.3935842298266
30
0
41
1
10
21.6736825704932
20
45.3910862233466
30
0
41
1
10
21.6973652752123
20
45.3870467324895
30
0
41
1
10
21.7018222231347
20
45.386194024833
30
0
41
1
10
21.7101711842059
20
45.3843286087977
30
0
41
1
10
21.7140646364327
20
45.3833146819362
30
0
41
1
10
21.7248159420035
20
45.3799545391366
30
0
41
1
10
21.7307755840754
20
45.3772808340348
30
0
41
1
10
21.7450982762107
20
45.3673113440866
30
0
41
1
10
21.749920308011
20
45.3579756530298
30
0
41
1
10
21.7500383828471
20
45.3386399072617
30
0
41
1
10
21.7488880257321
20
45.3313276433922
30
0
41
1
10
21.7453404958646
20
45.3191136630103
30
0
41
1
10
21.7438540858958
20
45.3148363523192
30
0
41
1
10
21.7402643570638
20
45.3058975686557
30
0
41
1
10
21.738160631509
20
45.3012381872404
30
0
41
1
10
21.7261908779866
20
45.2772881975344
30
0
41
1
10
21.7119448319527
20
45.2558586824519
30
0
41
1
10
21.6743590897382
20
45.2123688518471
30
0
41
1
10
21.6510212265597
20
45.1903033128275
30
0
41
1
10
21.6088377492037
20
45.1601933693724
30
0
41
1
10
21.5936202284329
20
45.1507002947949
30
0
41
1
10
21.5609982725867
20
45.1335724616283
30
0
41
1
10
21.5435720825125
20
45.1259176870075
30
0
41
1
10
21.5250000000016
20
45.1195815714763
30
0
0
SPLINE
5
167
100
AcDbEntity
8
1
62
256
6
ByLayer
370
18
48
1
60
0
100
AcDbSpline
70
4
71
3
72
8
73
4
40
0
40
0
40
0
40
0
40
1
40
1
40
1
40
1
41
1
10
28.95
20
11.021
30
0
41
1
10
28.7167108769179
20
11.021
30
0
41
1
10
28.4833769086861
20
11.021
30
0
41
1
10
28.25
20
11.021
30
0
0
SPLINE
5
168
100
AcDbEntity
8
1
62
256
6
ByLayer
370
18
48
1
60
0
100
AcDbSpline
70
4
71
3
72
8
73
4
40
0
40
0
40
0
40
0
40
1
40
1
40
1
40
1
41
1
10
16.7581782385003
20
-11.021
30
0
41
1
10
17.1975280498136
20
-11.021
30
0
41
1
10
17.636488468587
20
-11.021
30
0
41
1
10
18.075
20
-11.021
30
0
0
SPLINE
5
169
100
AcDbEntity
8
1
62
256
6
ByLayer
370
18
48
1
60
0
100
AcDbSpline
70
4
71
3
72
8
73
4
40
0
40
0
40
0
40
0
40
1
40
1
40
1
40
1
41
1
10
28.25
20
-11.021
30
0
41
1
10
28.4833769086861
20
-11.021
30
0
41
1
10
28.7167108769179
20
-11.021
30
0
41
1
10
28.95
20
-11.021
30
0
0
SPLINE
5
16A
100
AcDbEntity
8
1
62
256
6
ByLayer
370
18
48
1
60
0
100
AcDbSpline
70
4
71
3
72
8
73
4
40
0
40
0
40
0
40
0
40
1
40
1
40
1
40
1
41
1
10
23.2418217614998
20
11.021
30
0
41
1
10
22.8024719501864
20
11.021
30
0
41
1
10
22.363511531413
20
11.021
30
0
41
1
10
21.925
20
11.021
30
0
0
SPLINE
5
16B
100
AcDbEntity
8
1
62
256
6
ByLayer
370
18
48
1
60
0
100
AcDbSpline
70
4
71
3
72
8
73
4
40
0
40
0
40
0
40
0
40
1
40
1
40
1
40
1
41
1
10
18.075
20
11.021
30
0
41
1
10
17.636488468587
20
11.021
30
0
41
1
10
17.1975280498136
20
11.021
30
0
41
1
10
16.7581782385003
20
11.021
30
0
0
SPLINE
5
16C
100
AcDbEntity
8
1
62
256
6
ByLayer
370
18
48
1
60
0
100
AcDbSpline
70
4
71
3
72
8
73
4
40
0
40
0
40
0
40
0
40
1
40
1
40
1
40
1
41
1
10
21.925
20
-11.021
30
0
41
1
10
22.363511531413
20
-11.021
30
0
41
1
10
22.8024719501864
20
-11.021
30
0
41
1
10
23.2418217614998
20
-11.021
30
0
0
SPLINE
5
16D
100
AcDbEntity
8
1
62
256
6
ByLayer
370
18
48
1
60
0
100
AcDbSpline
70
4
71
3
72
55
73
51
40
0
40
0
40
0
40
0
40
0.0624999999999992
40
0.0624999999999992
40
0.124999999999998
40
0.124999999999998
40
0.187499999999998
40
0.187499999999998
40
0.203124999999997
40
0.203124999999997
40
0.218749999999997
40
0.218749999999997
40
0.249999999999997
40
0.249999999999997
40
0.312499999999995
40
0.312499999999995
40
0.374999999999994
40
0.374999999999994
40
0.406249999999994
40
0.406249999999994
40
0.421874999999993
40
0.421874999999993
40
0.437499999999993
40
0.437499999999993
40
0.499999999999992
40
0.499999999999992
40
0.562499999999991
40
0.562499999999991
40
0.62499999999999
40
0.62499999999999
40
0.632812499999991
40
0.632812499999991
40
0.640624999999991
40
0.640624999999991
40
0.656249999999991
40
0.687499999999992
40
0.687499999999992
40
0.749999999999993
40
0.749999999999993
40
0.812499999999995
40
0.812499999999995
40
0.843749999999996
40
0.843749999999996
40
0.859374999999996
40
0.859374999999996
40
0.874999999999997
40
0.874999999999997
40
0.937499999999998
40
0.937499999999998
40
1
40
1
40
1
40
1
41
1
10
14.95
20
11.021
30
0
41
1
10
14.6186180770483
20
11.021
30
0
41
1
10
14.2901293667462
20
11.0045711927872
30
0
41
1
10
13.638723291142
20
10.9400562256138
30
0
41
1
10
13.3158065177085
20
10.8919666612244
30
0
41
1
10
12.6754919299054
20
10.7643661638903
30
0
41
1
10
12.358093938917
20
10.6848563818256
30
0
41
1
10
11.9648592282067
20
10.5654062490788
30
0
41
1
10
11.8863883176173
20
10.5405107376267
30
0
41
1
10
11.7298017686215
20
10.4886884493971
30
0
41
1
10
11.6515991381982
20
10.4617283040525
30
0
41
1
10
11.4187515333456
20
10.3782154453684
30
0
41
1
10
11.2655498884332
20
10.3189373489954
30
0
41
1
10
10.811895150555
20
10.1305188971136
30
0
41
1
10
10.517377974707
20
9.99082036436087
30
0
41
1
10
9.94380215106821
20
9.68378237550539
30
0
41
1
10
9.66474394687691
20
9.51644235821485
30
0
41
1
10
9.25780740131535
20
9.24447624315204
30
0
41
1
10
9.1241071697944
20
9.15032179382399
30
0
41
1
10
8.92651453327986
20
9.00375315015796
30
0
41
1
10
8.86114350809254
20
8.95400700659482
30
0
41
1
10
8.73139739917735
20
8.85271470616544
30
0
41
1
10
8.66727138387006
20
8.80136264181385
30
0
41
1
10
8.3504638548728
20
8.54121741057332
30
0
41
1
10
8.10907647024368
20
8.32218372161557
30
0
41
1
10
7.64966054039306
20
7.86282448264086
30
0
41
1
10
7.43163375382827
20
7.62249758266881
30
0
41
1
10
7.01889930623037
20
7.12044613312091
30
0
41
1
10
6.8241899298157
20
6.85872339583085
30
0
41
1
10
6.61863457130426
20
6.55182584493645
30
0
41
1
10
6.59598297197468
20
6.51755262139244
30
0
41
1
10
6.55105770947227
20
6.44865691847392
30
0
41
1
10
6.52877521323913
20
6.41401992754103
30
0
41
1
10
6.46267533310353
20
6.30986409266976
30
0
41
1
10
6.33330054912724
20
6.10032299193614
30
0
41
1
10
6.21230230261042
20
5.88713055580908
30
0
41
1
10
5.98129593649492
20
5.4559405824487
30
0
41
1
10
5.84191861237483
20
5.16208506636173
30
0
41
1
10
5.59213609509965
20
4.56163768660548
30
0
41
1
10
5.48173027698672
20
4.25504620266597
30
0
41
1
10
5.33828630346613
20
3.78537269792633
30
0
41
1
10
5.29417252865377
20
3.62718093132489
30
0
41
1
10
5.23367267386433
20
3.38738523748583
30
0
41
1
10
5.21443098384967
20
3.30693861804855
30
0
41
1
10
5.17800678971312
20
3.14584543715986
30
0
41
1
10
5.16081455682291
20
3.06517189242359
30
0
41
1
10
5.07992001326323
20
2.66117283308185
30
0
41
1
10
5.03138034853976
20
2.33595764841223
30
0
41
1
10
4.96642087804358
20
1.68151292423911
30
0
41
1
10
4.94999999999999
20
1.35228352660408
30
0
41
1
10
4.94999999999999
20
1.02100000000002
30
0
0
SPLINE
5
16E
100
AcDbEntity
8
1
62
256
6
ByLayer
370
18
48
1
60
0
100
AcDbSpline
70
4
71
3
72
55
73
51
40
0
40
0
40
0
40
0
40
0.0625000000000003
40
0.0625000000000003
40
0.125000000000001
40
0.125000000000001
40
0.187500000000001
40
0.187500000000001
40
0.203125000000001
40
0.203125000000001
40
0.218750000000001
40
0.218750000000001
40
0.250000000000002
40
0.250000000000002
40
0.312500000000002
40
0.312500000000002
40
0.375000000000003
40
0.375000000000003
40
0.406250000000003
40
0.406250000000003
40
0.421875000000003
40
0.421875000000003
40
0.429687500000003
40
0.429687500000003
40
0.437500000000003
40
0.500000000000004
40
0.500000000000004
40
0.562500000000003
40
0.562500000000003
40
0.625000000000003
40
0.625000000000003
40
0.640625000000003
40
0.640625000000003
40
0.656250000000003
40
0.687500000000003
40
0.687500000000003
40
0.750000000000003
40
0.750000000000003
40
0.812500000000003
40
0.812500000000003
40
0.843750000000003
40
0.843750000000003
40
0.851562500000003
40
0.851562500000003
40
0.859375000000003
40
0.875000000000003
40
0.875000000000003
40
0.937500000000001
40
0.937500000000001
40
1
40
1
40
1
40
1
41
1
10
4.94999999999999
20
-1.02099999999999
30
0
41
1
10
4.94999999999999
20
-1.3523079915542
30
0
41
1
10
4.96642134783585
20
-1.68067409887229
30
0
41
1
10
5.03087929999901
20
-2.33174679457287
30
0
41
1
10
5.07891940867376
20
-2.65445276224668
30
0
41
1
10
5.20635268944537
20
-3.29426572456245
30
0
41
1
10
5.28574480986381
20
-3.61137286765143
30
0
41
1
10
5.40498744242313
20
-4.00419904197594
30
0
41
1
10
5.42983842315942
20
-4.08258599739003
30
0
41
1
10
5.48156509690597
20
-4.23900027259739
30
0
41
1
10
5.50847964164046
20
-4.31713183409292
30
0
41
1
10
5.5918899973689
20
-4.54987293038582
30
0
41
1
10
5.65109467221163
20
-4.70300204372802
30
0
41
1
10
5.83927605334895
20
-5.15643547267669
30
0
41
1
10
5.97879417795303
20
-5.4508001141709
30
0
41
1
10
6.28541740613582
20
-6.02406620255456
30
0
41
1
10
6.4525230892929
20
-6.30296717537195
30
0
41
1
10
6.7240890609533
20
-6.70966961558665
30
0
41
1
10
6.8181020070767
20
-6.84329211848563
30
0
41
1
10
6.96444502625468
20
-7.04076946247642
30
0
41
1
10
7.01411373212787
20
-7.1061022749893
30
0
41
1
10
7.08996329600507
20
-7.20335498416847
30
0
41
1
10
7.11547387776457
20
-7.2356511153352
30
0
41
1
10
7.16680433031482
20
-7.29981781967913
30
0
41
1
10
7.39934135356521
20
-7.58684936765701
30
0
41
1
10
7.64568626465802
20
-7.8585833343617
30
0
41
1
10
8.10489484089737
20
-8.31826526580147
30
0
41
1
10
8.34513155185402
20
-8.53640409494648
30
0
41
1
10
8.84696022030755
20
-8.9493347163918
30
0
41
1
10
9.1085504088683
20
-9.14412818546518
30
0
41
1
10
9.44934766744328
20
-9.37262008050175
30
0
41
1
10
9.51822592407589
20
-9.41758351937679
30
0
41
1
10
9.65727468452178
20
-9.50591857030147
30
0
41
1
10
9.86707016214334
20
-9.63558019202677
30
0
41
1
10
10.0804943122016
20
-9.75682082478644
30
0
41
1
10
10.5121139651924
20
-9.98826112294904
30
0
41
1
10
10.8062109677211
20
-10.127860076892
30
0
41
1
10
11.4070327340522
20
-10.3779904860776
30
0
41
1
10
11.7137572119495
20
-10.488522402293
30
0
41
1
10
12.1835333498157
20
-10.6321120183203
30
0
41
1
10
12.3417431598832
20
-10.6762670868699
30
0
41
1
10
12.5415733527485
20
-10.7267292475236
30
0
41
1
10
12.5816428517718
20
-10.7365849456891
30
0
41
1
10
12.6619901753909
20
-10.7558198473806
30
0
41
1
10
12.7828972503331
20
-10.7839728615934
30
0
41
1
10
12.9040786948306
20
-10.8098209298593
30
0
41
1
10
13.3086235808411
20
-10.8908951560489
30
0
41
1
10
13.6341967826629
20
-10.9395167419546
30
0
41
1
10
14.2891915210968
20
-11.0045687317411
30
0
41
1
10
14.6186129503849
20
-11.021
30
0
41
1
10
14.95
20
-11.021
30
0
0
SPLINE
5
16F
100
AcDbEntity
8
1
62
256
6
ByLayer
370
18
48
1
60
0
100
AcDbSpline
70
4
71
3
72
94
73
90
40
0
40
0
40
0
40
0
40
0.0311095510976483
40
0.0311095510976483
40
0.0623640817074017
40
0.0623640817074017
40
0.0701777143598398
40
0.0701777143598398
40
0.0779913470122782
40
0.0779913470122782
40
0.0936186123171549
40
0.0936186123171549
40
0.124873142926908
40
0.156127673536661
40
0.156127673536661
40
0.171754938841538
40
0.171754938841538
40
0.179568571493976
40
0.179568571493976
40
0.187382204146415
40
0.187382204146415
40
0.218636734756168
40
0.249891265365921
40
0.249891265365921
40
0.281145795975675
40
0.281145795975675
40
0.288959428628113
40
0.288959428628113
40
0.296773061280551
40
0.312400326585427
40
0.312400326585427
40
0.34365485719518
40
0.374909387804932
40
0.374909387804932
40
0.390536653109809
40
0.390536653109809
40
0.398350285762247
40
0.398350285762247
40
0.406163918414685
40
0.406163918414685
40
0.437418449024438
40
0.468672979634191
40
0.468672979634191
40
0.499927510243943
40
0.499927510243943
40
0.507741142896382
40
0.507741142896382
40
0.51555477554882
40
0.531182040853696
40
0.531182040853696
40
0.562436571463448
40
0.593691102073201
40
0.593691102073201
40
0.601504734725639
40
0.601504734725639
40
0.609318367378077
40
0.609318367378077
40
0.624945632682953
40
0.624945632682953
40
0.656200163292707
40
0.687454693902461
40
0.687454693902461
40
0.703081959207338
40
0.703081959207338
40
0.710895591859776
40
0.710895591859776
40
0.718709224512214
40
0.718709224512214
40
0.749963755121968
40
0.749963755121968
40
0.781218285731722
40
0.812472816341476
40
0.812472816341476
40
0.820286448993914
40
0.820286448993914
40
0.828100081646353
40
0.828100081646353
40
0.84372734695123
40
0.84372734695123
40
0.874981877560984
40
0.906236408170737
40
0.906236408170737
40
0.921863673475615
40
0.921863673475615
40
0.937490938780492
40
0.937490938780492
40
0.968745469390246
40
0.968745469390246
40
1
40
1
40
1
40
1
41
1
10
1.97750001759826
20
-49.9649999981096
30
0
41
1
10
1.97751397022893
20
-49.964998578302
30
0
41
1
10
1.98546075031831
20
-49.9641979194232
30
0
41
1
10
2.01724722732342
20
-49.9610177309566
30
0
41
1
10
2.04115992233255
20
-49.9586308152791
30
0
41
1
10
2.08129162068926
20
-49.9546729253147
30
0
41
1
10
2.08983119845442
20
-49.9538326371641
30
0
41
1
10
2.10794835031368
20
-49.9520550811008
30
0
41
1
10
2.11751930921079
20
-49.9511184727661
30
0
41
1
10
2.14762771793312
20
-49.9481815129571
30
0
41
1
10
2.16960599648607
20
-49.9460495083297
30
0
41
1
10
2.24115197110834
20
-49.9391639832848
30
0
41
1
10
2.35148290558954
20
-49.9286784285348
30
0
41
1
10
2.49122428669722
20
-49.9159177578778
30
0
41
1
10
2.60720742921933
20
-49.9056195475719
30
0
41
1
10
2.64773464843901
20
-49.9020655468381
30
0
41
1
10
2.71137475352148
20
-49.8965688059296
30
0
41
1
10
2.73307730245006
20
-49.8947077439422
30
0
41
1
10
2.77738331378703
20
-49.8909382876813
30
0
41
1
10
2.79992333522819
20
-49.8890352780807
30
0
41
1
10
2.91453715737509
20
-49.8794380930142
30
0
41
1
10
3.11013072197537
20
-49.8635617090824
30
0
41
1
10
3.32950267196341
20
-49.8471159052254
30
0
41
1
10
3.56078910500128
20
-49.8306189507428
30
0
41
1
10
3.68238860919033
20
-49.8223445053227
30
0
41
1
10
3.84207090983477
20
-49.8121191993806
30
0
41
1
10
3.87443814538912
20
-49.8100772567124
30
0
41
1
10
3.93965882426463
20
-49.8060272185271
30
0
41
1
10
4.0382421227211
20
-49.800001164638
30
0
41
1
10
4.13905574540769
20
-49.7941370666848
30
0
41
1
10
4.34361047392363
20
-49.7826631778807
30
0
41
1
10
4.62414385817337
20
-49.7680448554114
30
0
41
1
10
4.92011814828717
20
-49.7551864754428
30
0
41
1
10
5.14800327249657
20
-49.7463551339536
30
0
41
1
10
5.22495080454612
20
-49.7435468038677
30
0
41
1
10
5.34188195419261
20
-49.7395572634288
30
0
41
1
10
5.38113273765828
20
-49.738264025278
30
0
41
1
10
5.45970172354154
20
-49.7357687767631
30
0
41
1
10
5.49907237231864
20
-49.7345649128229
30
0
41
1
10
5.69635211383064
20
-49.7287675075731
30
0
41
1
10
6.01472190291227
20
-49.7209134175242
30
0
41
1
10
6.33841570227307
20
-49.7160616455492
30
0
41
1
10
6.66478767023932
20
-49.7127896930666
30
0
41
1
10
6.8293124755898
20
-49.7119434987089
30
0
41
1
10
7.03670161170086
20
-49.7119235732049
30
0
41
1
10
7.07818500894933
20
-49.7119716121354
30
0
41
1
10
7.16089151267801
20
-49.7121704874302
30
0
41
1
10
7.28468511010232
20
-49.7126229641513
30
0
41
1
10
7.40768922605051
20
-49.7135319810613
30
0
41
1
10
7.65266037829241
20
-49.715943396819
30
0
41
1
10
7.97652734228561
20
-49.7207401959277
30
0
41
1
10
8.29491693416145
20
-49.7285395922947
30
0
41
1
10
8.49216312939765
20
-49.7343011878131
30
0
41
1
10
8.53152480372492
20
-49.7354978473571
30
0
41
1
10
8.61007130962133
20
-49.7379785226753
30
0
41
1
10
8.64929678904488
20
-49.7392639286545
30
0
41
1
10
8.76642134246316
20
-49.7432394720436
30
0
41
1
10
8.8434894394633
20
-49.7460389709654
30
0
41
1
10
9.07171369917643
20
-49.7548453350853
30
0
41
1
10
9.36808143142349
20
-49.7676724885507
30
0
41
1
10
9.64891315195442
20
-49.7822647681041
30
0
41
1
10
9.85366457163323
20
-49.7937192494058
30
0
41
1
10
9.92093458026835
20
-49.7976224434852
30
0
41
1
10
10.0203468060376
20
-49.8035854074952
30
0
41
1
10
10.0532352997926
20
-49.805591086346
30
0
41
1
10
10.1185093158849
20
-49.8096351925776
30
0
41
1
10
10.150930159383
20
-49.8116759372703
30
0
41
1
10
10.3109396075499
20
-49.8219000119434
30
0
41
1
10
10.4327775869071
20
-49.8301748316995
30
0
41
1
10
10.6645110074542
20
-49.8466752790785
30
0
41
1
10
10.8842971383039
20
-49.8631257744873
30
0
41
1
10
11.0802740041645
20
-49.8790133403504
30
0
41
1
10
11.1951240327003
20
-49.8886185464077
30
0
41
1
10
11.2177113632257
20
-49.8905233345677
30
0
41
1
10
11.2621120723669
20
-49.894296555528
30
0
41
1
10
11.2839089846801
20
-49.8961636305444
30
0
41
1
10
11.3477792027177
20
-49.9016743524074
30
0
41
1
10
11.3884530168723
20
-49.9052376494133
30
0
41
1
10
11.5048604965918
20
-49.9155640978341
30
0
41
1
10
11.6451268378791
20
-49.9283616954864
30
0
41
1
10
11.7559492883186
20
-49.9388876004249
30
0
41
1
10
11.8278693088857
20
-49.9458053434909
30
0
41
1
10
11.8499731879294
20
-49.9479484513177
30
0
41
1
10
11.8903740459414
20
-49.9518875807619
30
0
41
1
10
11.9086951317471
20
-49.9536860048986
30
0
41
1
10
11.957414776904
20
-49.9584891218553
30
0
41
1
10
11.9817465763237
20
-49.9609172813825
30
0
41
1
10
12.0142890389608
20
-49.9641726761554
30
0
41
1
10
12.0225079604949
20
-49.9650008020738
30
0
41
1
10
12.0225015547839
20
-49.9650001566577
30
0
0
SPLINE
5
170
100
AcDbEntity
8
1
62
256
6
ByLayer
370
13
48
1
60
0
100
AcDbSpline
70
4
71
3
72
49
73
45
40
0
40
0
40
0
40
0
40
0.0328752700959447
40
0.0328752700959447
40
0.0657505401918893
40
0.0657505401918893
40
0.131501080383781
40
0.197251620575674
40
0.197251620575674
40
0.230126890671621
40
0.230126890671621
40
0.263002160767569
40
0.263002160767569
40
0.328752700959467
40
0.328752700959467
40
0.394503241151364
40
0.394503241151364
40
0.460253781343262
40
0.460253781343262
40
0.476691416391236
40
0.476691416391236
40
0.49312905143921
40
0.49312905143921
40
0.526004321535159
40
0.526004321535159
40
0.591754861727053
40
0.657505401918947
40
0.657505401918947
40
0.690380672014893
40
0.706818307062866
40
0.706818307062866
40
0.72325594211084
40
0.72325594211084
40
0.789006482302737
40
0.854757022494633
40
0.854757022494633
40
0.92050756268653
40
0.92050756268653
40
0.936945197734504
40
0.936945197734504
40
0.953382832782478
40
0.986258102878426
40
0.986258102878426
40
1
40
1
40
1
40
1
41
1
10
57
20
27.6765518660811
30
0
41
1
10
56.9189826425346
20
27.6765518660811
30
0
41
1
10
56.8380146843061
20
27.6749611261393
30
0
41
1
10
56.6761775593445
20
27.6685974301728
30
0
41
1
10
56.5956563778982
20
27.6638375426997
30
0
41
1
10
56.3554181246462
20
27.6449250401438
30
0
41
1
10
56.03848768491
20
27.6073721782151
30
0
41
1
10
55.7281934790483
20
27.5455644648062
30
0
41
1
10
55.497980262448
20
27.4899914769541
30
0
41
1
10
55.4216611543198
20
27.469928088718
30
0
41
1
10
55.26987238952
20
27.426667092066
30
0
41
1
10
55.1943545181275
20
27.4034535819615
30
0
41
1
10
54.9694019559707
20
27.3290876882628
30
0
41
1
10
54.8236299498859
20
27.2739140259847
30
0
41
1
10
54.5402098803862
20
27.1526190489071
30
0
41
1
10
54.4025624888868
20
27.0864969977731
30
0
41
1
10
54.1353641937649
20
26.9432138100575
30
0
41
1
10
54.005812822259
20
26.8660535446024
30
0
41
1
10
53.8490634507875
20
26.7624379409143
30
0
41
1
10
53.8179736757179
20
26.7413556843841
30
0
41
1
10
53.7563200906773
20
26.6984626027958
30
0
41
1
10
53.7257161393516
20
26.6766216926624
30
0
41
1
10
53.6351140163267
20
26.6102930109238
30
0
41
1
10
53.5762692652832
20
26.5649679598386
30
0
41
1
10
53.4043228513964
20
26.4257064002147
30
0
41
1
10
53.1872733400187
20
26.2312757628727
30
0
41
1
10
52.9943266504082
20
26.0192975712074
30
0
41
1
10
52.8588009180198
20
25.8535243209884
30
0
41
1
10
52.7933382684249
20
25.7689373065362
30
0
41
1
10
52.7313930458147
20
25.6817314436476
30
0
41
1
10
52.6908883250052
20
25.6230024449433
30
0
41
1
10
52.671090582639
20
25.5934261143427
30
0
41
1
10
52.5745497159148
20
25.4447799083732
30
0
41
1
10
52.4353058804367
20
25.2014744087821
30
0
41
1
10
52.3257824258618
20
24.9472758471505
30
0
41
1
10
52.2311983863376
20
24.6875151034102
30
0
41
1
10
52.1913745955557
20
24.5548542751408
30
0
41
1
10
52.1512627929822
20
24.3853872077022
30
0
41
1
10
52.143720309688
20
24.3512818160651
30
0
41
1
10
52.1296913629031
20
24.283084683513
30
0
41
1
10
52.110199384516
20
24.1806816665878
30
0
41
1
10
52.0953096918836
20
24.0779572248826
30
0
41
1
10
52.0840902041151
20
23.9806460563359
30
0
41
1
10
52.081134225273
20
23.9519355736337
30
0
41
1
10
52.0785289455401
20
23.9232001673794
30
0
0
SPLINE
5
171
100
AcDbEntity
8
1
62
256
6
ByLayer
370
18
48
1
60
0
100
AcDbSpline
70
4
71
3
72
48
73
44
40
0
40
0
40
0
40
0
40
0.0471085420445493
40
0.106664258166766
40
0.106664258166766
40
0.136442116227875
40
0.136442116227875
40
0.166219974288984
40
0.166219974288984
40
0.2257756904112
40
0.285331406533415
40
0.285331406533415
40
0.315109264594523
40
0.315109264594523
40
0.329998193625077
40
0.329998193625077
40
0.344887122655631
40
0.344887122655631
40
0.404442838777847
40
0.404442838777847
40
0.463998554900064
40
0.52355427102228
40
0.52355427102228
40
0.538443200052834
40
0.538443200052834
40
0.553332129083387
40
0.553332129083387
40
0.583109987144492
40
0.583109987144492
40
0.642665703266704
40
0.702221419388915
40
0.702221419388915
40
0.731999277450021
40
0.746888206480576
40
0.746888206480576
40
0.76177713551113
40
0.76177713551113
40
0.821332851633347
40
0.821332851633347
40
0.880888567755565
40
0.940444283877782
40
0.940444283877782
40
1
40
1
40
1
40
1
41
1
10
52.078528946538
20
23.9232001783851
30
0
41
1
10
52.0686688033745
20
23.8144459413085
30
0
41
1
10
52.057717195185
20
23.5673937379573
30
0
41
1
10
52.0723453511065
20
23.3185079681045
30
0
41
1
10
52.0968103966282
20
23.1091952666742
30
0
41
1
10
52.1070122736397
20
23.0392372226611
30
0
41
1
10
52.1315531863421
20
22.8992064927429
30
0
41
1
10
52.1457970353009
20
22.8296622116773
30
0
41
1
10
52.1943125258357
20
22.622417941885
30
0
41
1
10
52.2743948963208
20
22.3497870996821
30
0
41
1
10
52.3845460053253
20
22.0844862527856
30
0
41
1
10
52.4784980973184
20
21.8883323806624
30
0
41
1
10
52.5117086556124
20
21.8234190326877
30
0
41
1
10
52.5644038338839
20
21.7267743255352
30
0
41
1
10
52.5824490099694
20
21.6946803758494
30
0
41
1
10
52.6195090060833
20
21.6307382859586
30
0
41
1
10
52.638552234149
20
21.5988450297334
30
0
41
1
10
52.7357632854194
20
21.4407379695039
30
0
41
1
10
52.8199644274534
20
21.3184265691789
30
0
41
1
10
53.0007527313355
20
21.0819410115622
30
0
41
1
10
53.193930286612
20
20.8535946848114
30
0
41
1
10
53.4116834343121
20
20.6416064237413
30
0
41
1
10
53.5556226218549
20
20.5144055015527
30
0
41
1
10
53.5848035468841
20
20.4892305346961
30
0
41
1
10
53.6439594278841
20
20.4394181423098
30
0
41
1
10
53.6739686619972
20
20.4147544145235
30
0
41
1
10
53.76472059638
20
20.3419605572117
30
0
41
1
10
53.8263034865216
20
20.2949235553243
30
0
41
1
10
54.0142290714197
20
20.1582154973958
30
0
41
1
10
54.2732528857712
20
19.9876585880779
30
0
41
1
10
54.5488561925422
20
19.8402808787441
30
0
41
1
10
54.7618313232527
20
19.738587115163
30
0
41
1
10
54.869889820058
20
19.6899539000358
30
0
41
1
10
54.9803411203426
20
19.6447046403033
30
0
41
1
10
55.054513015264
20
19.6153001611917
30
0
41
1
10
55.0919022059078
20
19.6009671942277
30
0
41
1
10
55.2791009030335
20
19.5316298905414
30
0
41
1
10
55.4304435561522
20
19.4832681937473
30
0
41
1
10
55.7361689731709
20
19.4002534958586
30
0
41
1
10
56.0449353205868
20
19.3309509589266
30
0
41
1
10
56.3597088228131
20
19.2888290081407
30
0
41
1
10
56.6775327941888
20
19.2605387666012
30
0
41
1
10
56.8379695819036
20
19.2533075707491
30
0
41
1
10
57
20
19.2533075707491
30
0
0
SPLINE
5
172
100
AcDbEntity
8
1
62
256
6
ByLayer
370
18
48
1
60
0
100
AcDbSpline
70
4
71
3
72
49
73
45
40
0
40
0
40
0
40
0
40
0.0297796327872765
40
0.0297796327872765
40
0.059559265574553
40
0.059559265574553
40
0.119118531149103
40
0.178677796723654
40
0.178677796723654
40
0.208457429510928
40
0.208457429510928
40
0.238237062298202
40
0.238237062298202
40
0.297796327872754
40
0.297796327872754
40
0.357355593447305
40
0.416914859021857
40
0.416914859021857
40
0.431804675415494
40
0.431804675415494
40
0.44669449180913
40
0.44669449180913
40
0.476474124596406
40
0.476474124596406
40
0.536033390170954
40
0.595592655745503
40
0.595592655745503
40
0.625372288532778
40
0.640262104926415
40
0.640262104926415
40
0.655151921320053
40
0.655151921320053
40
0.714711186894601
40
0.774270452469149
40
0.774270452469149
40
0.833829718043698
40
0.833829718043698
40
0.848719534437335
40
0.848719534437335
40
0.863609350830972
40
0.893388983618246
40
0.893388983618246
40
0.952948249192794
40
1
40
1
40
1
40
1
41
1
10
57
20
-19.253307570749
30
0
41
1
10
56.9189826425346
20
-19.253307570749
30
0
41
1
10
56.8380146843061
20
-19.255118981138
30
0
41
1
10
56.6761775593445
20
-19.2623637186017
30
0
41
1
10
56.5956563778983
20
-19.2677821569204
30
0
41
1
10
56.3554181246462
20
-19.2893027611679
30
0
41
1
10
56.03848768491
20
-19.332020066816
30
0
41
1
10
55.7281934790483
20
-19.4021526052533
30
0
41
1
10
55.497980262448
20
-19.465074470415
30
0
41
1
10
55.4216611543198
20
-19.4877716841154
30
0
41
1
10
55.26987238952
20
-19.536655076793
30
0
41
1
10
55.1943545181275
20
-19.5628591976329
30
0
41
1
10
54.9694019559707
20
-19.6466953173891
30
0
41
1
10
54.8236299498859
20
-19.7087581366375
30
0
41
1
10
54.5402098803862
20
-19.8447509206492
30
0
41
1
10
54.2649150973874
20
-19.9926130569078
30
0
41
1
10
54.005812822259
20
-20.1639436906731
30
0
41
1
10
53.8490634507875
20
-20.2784825372539
30
0
41
1
10
53.8179736757179
20
-20.3017640303435
30
0
41
1
10
53.7563200906773
20
-20.3490810677869
30
0
41
1
10
53.7257161393516
20
-20.373149697342
30
0
41
1
10
53.6351140163267
20
-20.4461635977235
30
0
41
1
10
53.5762692652832
20
-20.4959517726433
30
0
41
1
10
53.4043228513964
20
-20.64857313104
30
0
41
1
10
53.1872732391678
20
-20.8607373850448
30
0
41
1
10
52.9943266504082
20
-21.0897901662902
30
0
41
1
10
52.8588009180198
20
-21.2679341894432
30
0
41
1
10
52.7933382684249
20
-21.3585977181991
30
0
41
1
10
52.7313930458147
20
-21.4516802951326
30
0
41
1
10
52.6908883250052
20
-21.5142785129786
30
0
41
1
10
52.671090582639
20
-21.5457595668768
30
0
41
1
10
52.5745497159148
20
-21.703753873348
30
0
41
1
10
52.4353058804367
20
-21.9609311125555
30
0
41
1
10
52.3257824258618
20
-22.2264888284729
30
0
41
1
10
52.2311983863375
20
-22.496183146197
30
0
41
1
10
52.1913745955557
20
-22.633098270397
30
0
41
1
10
52.1512627929822
20
-22.8068827400189
30
0
41
1
10
52.143720309688
20
-22.8418020735348
30
0
41
1
10
52.1296913629031
20
-22.9115161326408
30
0
41
1
10
52.110199384516
20
-23.0160316532126
30
0
41
1
10
52.0953096918836
20
-23.1203792850309
30
0
41
1
10
52.0715731343398
20
-23.3288482753623
30
0
41
1
10
52.0576442849994
20
-23.5770806637227
30
0
41
1
10
52.0692666239773
20
-23.8243342768815
30
0
41
1
10
52.0794557070074
20
-23.9332666962436
30
0
0
SPLINE
5
173
100
AcDbEntity
8
1
62
256
6
ByLayer
370
13
48
1
60
0
100
AcDbSpline
70
4
71
3
72
47
73
43
40
0
40
0
40
0
40
0
40
0.0138067775093593
40
0.0138067775093593
40
0.0466798849257098
40
0.0466798849257098
40
0.0795529923420606
40
0.0795529923420606
40
0.145299207174762
40
0.211045422007463
40
0.211045422007463
40
0.243918529423814
40
0.243918529423814
40
0.26035508313199
40
0.26035508313199
40
0.276791636840167
40
0.276791636840167
40
0.342537851672878
40
0.342537851672878
40
0.408284066505589
40
0.474030281338301
40
0.474030281338301
40
0.490466835046478
40
0.490466835046478
40
0.506903388754656
40
0.506903388754656
40
0.53977649617101
40
0.53977649617101
40
0.60552271100372
40
0.671268925836429
40
0.671268925836429
40
0.704142033252784
40
0.720578586960963
40
0.720578586960963
40
0.737015140669142
40
0.737015140669142
40
0.802761355501856
40
0.802761355501856
40
0.868507570334571
40
0.934253785167286
40
0.934253785167286
40
1
40
1
40
1
40
1
41
1
10
52.0794557092258
20
-23.9332667199608
30
0
41
1
10
52.0821642180204
20
-23.9622236333193
30
0
41
1
10
52.085230257122
20
-23.9911670787727
30
0
41
1
10
52.0968103966282
20
-24.0889775974362
30
0
41
1
10
52.1070122736397
20
-24.1578238440657
30
0
41
1
10
52.1315531863421
20
-24.2951916509718
30
0
41
1
10
52.1457970353009
20
-24.3631951674921
30
0
41
1
10
52.1943125258356
20
-24.5652203604192
30
0
41
1
10
52.2743948963208
20
-24.8293016496819
30
0
41
1
10
52.3845460053253
20
-25.0831870765164
30
0
41
1
10
52.4784980973185
20
-25.269821281267
30
0
41
1
10
52.5117086556124
20
-25.3314017245862
30
0
41
1
10
52.5644038338839
20
-25.4228224068681
30
0
41
1
10
52.5824490099694
20
-25.4531375735186
30
0
41
1
10
52.6195090060833
20
-25.5134497408469
30
0
41
1
10
52.638552234149
20
-25.5434891248968
30
0
41
1
10
52.7357632854194
20
-25.6921964672713
30
0
41
1
10
52.8199644274534
20
-25.8065646685717
30
0
41
1
10
53.0007527313355
20
-26.0265733145254
30
0
41
1
10
53.193930286612
20
-26.2378517558463
30
0
41
1
10
53.4116834343121
20
-26.4320818066099
30
0
41
1
10
53.5556226218549
20
-26.5481241325029
30
0
41
1
10
53.5848035468841
20
-26.5710644188162
30
0
41
1
10
53.6439594278841
20
-26.616405555933
30
0
41
1
10
53.6739686619972
20
-26.6388302473546
30
0
41
1
10
53.76472059638
20
-26.7049453394223
30
0
41
1
10
53.8263034865216
20
-26.7475719220352
30
0
41
1
10
54.0142290714197
20
-26.8712197710525
30
0
41
1
10
54.2732528857712
20
-27.0248199330573
30
0
41
1
10
54.5488561925422
20
-27.156613361775
30
0
41
1
10
54.7618313232526
20
-27.2473048473473
30
0
41
1
10
54.869889820058
20
-27.290608435886
30
0
41
1
10
54.9803411203426
20
-27.3308182729872
30
0
41
1
10
55.054513015264
20
-27.3569313861866
30
0
41
1
10
55.0919022059078
20
-27.3696514746836
30
0
41
1
10
55.2791009030335
20
-27.4311496296072
30
0
41
1
10
55.4304435561522
20
-27.4739251256404
30
0
41
1
10
55.7361689731709
20
-27.5472391677238
30
0
41
1
10
56.0449353205868
20
-27.6083126243144
30
0
41
1
10
56.3597088228131
20
-27.6453414773414
30
0
41
1
10
56.6775327941888
20
-27.6702029992794
30
0
41
1
10
56.8379695819036
20
-27.676551866081
30
0
41
1
10
57
20
-27.676551866081
30
0
0
SPLINE
5
174
100
AcDbEntity
8
1
62
256
6
ByLayer
370
18
48
1
60
0
100
AcDbSpline
70
4
71
3
72
8
73
4
40
0
40
0
40
0
40
0
40
1
40
1
40
1
40
1
41
1
10
65.43130441108
20
19.2533075707479
30
0
41
1
10
65.9731883399125
20
19.0073023915072
30
0
41
1
10
66.5147615326375
20
18.7612513965186
30
0
41
1
10
67.055960395754
20
18.5151452093892
30
0
0
SPLINE
5
175
100
AcDbEntity
8
1
62
256
6
ByLayer
370
18
48
1
60
0
100
AcDbSpline
70
4
71
3
72
22
73
18
40
0
40
0
40
0
40
0
40
0.249999999999861
40
0.249999999999861
40
0.312499999999873
40
0.312499999999873
40
0.374999999999884
40
0.374999999999884
40
0.499999999999908
40
0.499999999999908
40
0.624999999999931
40
0.624999999999931
40
0.749999999999954
40
0.749999999999954
40
0.874999999999977
40
0.874999999999977
40
1
40
1
40
1
40
1
41
1
10
65.4313044110879
20
19.2533075707491
30
0
41
1
10
65.4186826479159
20
19.2590376154067
30
0
41
1
10
65.4066008458718
20
19.2612185324942
30
0
41
1
10
65.3922138765582
20
19.2592253126532
30
0
41
1
10
65.3893645883139
20
19.2585796958426
30
0
41
1
10
65.3838443634684
20
19.2568089291497
30
0
41
1
10
65.3811619785441
20
19.2556838022009
30
0
41
1
10
65.3733496438377
20
19.2515835991391
30
0
41
1
10
65.3684524393315
20
19.2478901304915
30
0
41
1
10
65.3593334255291
20
19.2384152054074
30
0
41
1
10
65.3550839119648
20
19.232553589935
30
0
41
1
10
65.3477185104263
20
19.2190554413004
30
0
41
1
10
65.3445517207543
20
19.2113926068246
30
0
41
1
10
65.3393216902815
20
19.1941105335002
30
0
41
1
10
65.3372550853868
20
19.1843702526493
30
0
41
1
10
65.3345262138452
20
19.1636915674114
30
0
41
1
10
65.3338257906458
20
19.1526839554932
30
0
41
1
10
65.3338257906459
20
19.1409712810183
30
0
0
SPLINE
5
176
100
AcDbEntity
8
1
62
256
6
ByLayer
370
18
48
1
60
0
100
AcDbSpline
70
4
71
3
72
26
73
22
40
0
40
0
40
0
40
0
40
0.124999999999991
40
0.124999999999991
40
0.187499999999972
40
0.187499999999972
40
0.249999999999953
40
0.249999999999953
40
0.374999999999916
40
0.374999999999916
40
0.437499999999944
40
0.437499999999944
40
0.499999999999972
40
0.499999999999972
40
0.624999999999979
40
0.624999999999979
40
0.749999999999986
40
0.749999999999986
40
0.874999999999993
40
0.874999999999993
40
1
40
1
40
1
40
1
41
1
10
65.3338257906459
20
-19.1409712810182
30
0
41
1
10
65.3338257906459
20
-19.1526330811243
30
0
41
1
10
65.3345201368741
20
-19.163582104733
30
0
41
1
10
65.3365422192861
20
-19.1789992598818
30
0
41
1
10
65.3373808628348
20
-19.1839693652945
30
0
41
1
10
65.3393907456246
20
-19.1935683176972
30
0
41
1
10
65.3405589925164
20
-19.1981715731553
30
0
41
1
10
65.3444703607891
20
-19.2111764777771
30
0
41
1
10
65.3476369026922
20
-19.2188818821298
30
0
41
1
10
65.3531789692885
20
-19.2290741758945
30
0
41
1
10
65.3551652359508
20
-19.2322467523807
30
0
41
1
10
65.3593215304913
20
-19.2380277304017
30
0
41
1
10
65.3614995284545
20
-19.2406531239984
30
0
41
1
10
65.3683179075018
20
-19.247774814757
30
0
41
1
10
65.3732632425393
20
-19.2515333601786
30
0
41
1
10
65.3837859332329
20
-19.2570658124707
30
0
41
1
10
65.389279227561
20
-19.2588065270788
30
0
41
1
10
65.4006910063621
20
-19.26041174745
30
0
41
1
10
65.4066399835854
20
-19.2602684534969
30
0
41
1
10
65.4188172738108
20
-19.2581370691277
30
0
41
1
10
65.4250099222148
20
-19.2561651510877
30
0
41
1
10
65.4313044110773
20
-19.253307570749
30
0
0
SPLINE
5
177
100
AcDbEntity
8
1
62
256
6
ByLayer
370
18
48
1
60
0
100
AcDbSpline
70
4
71
3
72
8
73
4
40
0
40
0
40
0
40
0
40
1
40
1
40
1
40
1
41
1
10
67.055960395754
20
-18.5151452093892
30
0
41
1
10
66.5147615326367
20
-18.7612513965189
30
0
41
1
10
65.9731883399108
20
-19.007302391508
30
0
41
1
10
65.4313044110773
20
-19.2533075707491
30
0
0
SPLINE
5
178
100
AcDbEntity
8
1
62
256
6
ByLayer
370
18
48
1
60
0
100
AcDbSpline
70
4
71
3
72
8
73
4
40
0
40
0
40
0
40
0
40
1
40
1
40
1
40
1
41
1
10
67.3221171295756
20
-18.6707060059975
30
0
41
1
10
67.2336709038819
20
-18.6188211541125
30
0
41
1
10
67.1449488360582
20
-18.5669679170213
30
0
41
1
10
67.055960395754
20
-18.5151452093892
30
0
0
SPLINE
5
179
100
AcDbEntity
8
1
62
256
6
ByLayer
370
18
48
1
60
0
100
AcDbSpline
70
4
71
3
72
9
73
5
40
0
40
0
40
0
40
0
40
0.5
40
1
40
1
40
1
40
1
41
1
10
67.3221171295756
20
-25.0792939940024
30
0
41
1
10
67.3821233024098
20
-24.0111959960016
30
0
41
1
10
67.4424502170472
20
-21.875
30
0
41
1
10
67.3821233024099
20
-19.7388040039984
30
0
41
1
10
67.3221171295756
20
-18.6707060059975
30
0
0
SPLINE
5
17A
100
AcDbEntity
8
1
62
256
6
ByLayer
370
18
48
1
60
0
100
AcDbSpline
70
4
71
3
72
8
73
4
40
0
40
0
40
0
40
0
40
1
40
1
40
1
40
1
41
1
10
67.055960395754
20
-25.6598547906108
30
0
41
1
10
67.1449488360582
20
-25.4664498127419
30
0
41
1
10
67.2336709038819
20
-25.2729308973805
30
0
41
1
10
67.3221171295756
20
-25.0792939940024
30
0
0
SPLINE
5
17B
100
AcDbEntity
8
1
62
256
6
ByLayer
370
18
48
1
60
0
100
AcDbSpline
70
4
71
3
72
8
73
4
40
0
40
0
40
0
40
0
40
1
40
1
40
1
40
1
41
1
10
65.4313044110801
20
-27.6765518660776
30
0
41
1
10
65.9731883399145
20
-27.0044532174647
30
0
41
1
10
66.5147615326396
20
-26.3322293979028
30
0
41
1
10
67.055960395754
20
-25.6598547906108
30
0
0
SPLINE
5
17C
100
AcDbEntity
8
1
62
256
6
ByLayer
370
18
48
1
60
0
100
AcDbSpline
70
4
71
3
72
22
73
18
40
0
40
0
40
0
40
0
40
0.250000000000101
40
0.250000000000101
40
0.3125000000001
40
0.3125000000001
40
0.375000000000099
40
0.375000000000099
40
0.500000000000079
40
0.500000000000079
40
0.625000000000059
40
0.625000000000059
40
0.75000000000004
40
0.75000000000004
40
0.87500000000002
40
0.87500000000002
40
1
40
1
40
1
40
1
41
1
10
65.4313044110888
20
-27.676551866081
30
0
41
1
10
65.4186826479167
20
-27.6922066392154
30
0
41
1
10
65.406600845872
20
-27.7101227042321
30
0
41
1
10
65.3922138765584
20
-27.7355234012996
30
0
41
1
10
65.389364588314
20
-27.7407761310905
30
0
41
1
10
65.3838443634685
20
-27.7514131321044
30
0
41
1
10
65.3811619785442
20
-27.7568161907842
30
0
41
1
10
65.3733496438378
20
-27.7732809447249
30
0
41
1
10
65.3684524393316
20
-27.7845959539587
30
0
41
1
10
65.3593334255291
20
-27.8079618018058
30
0
41
1
10
65.3550839119648
20
-27.8201290299856
30
0
41
1
10
65.3477185104263
20
-27.8441670420114
30
0
41
1
10
65.3445517207543
20
-27.8561447590144
30
0
41
1
10
65.3393216902815
20
-27.8800114884907
30
0
41
1
10
65.3372550853868
20
-27.8920128956785
30
0
41
1
10
65.3345262138451
20
-27.914760988376
30
0
41
1
10
65.3338257906459
20
-27.9256315831701
30
0
41
1
10
65.3338257906458
20
-27.9359709878424
30
0
0
SPLINE
5
17D
100
AcDbEntity
8
1
62
256
6
ByLayer
370
18
48
1
60
0
100
AcDbSpline
70
4
71
3
72
26
73
22
40
0
40
0
40
0
40
0
40
0.125000000000032
40
0.125000000000032
40
0.187500000000046
40
0.187500000000046
40
0.25000000000006
40
0.25000000000006
40
0.375000000000061
40
0.375000000000061
40
0.437500000000077
40
0.437500000000077
40
0.500000000000093
40
0.500000000000093
40
0.62500000000007
40
0.62500000000007
40
0.750000000000047
40
0.750000000000047
40
0.875000000000023
40
0.875000000000023
40
1
40
1
40
1
40
1
41
1
10
65.3338257906459
20
-47.0769422688608
30
0
41
1
10
65.3338257906459
20
-47.0783095738229
30
0
41
1
10
65.3345201368741
20
-47.0784497310797
30
0
41
1
10
65.3365422192861
20
-47.0769273665991
30
0
41
1
10
65.3373808628348
20
-47.0761290516498
30
0
41
1
10
65.3393907456246
20
-47.07394491862
30
0
41
1
10
65.3405589925164
20
-47.07256102974
30
0
41
1
10
65.3444703607891
20
-47.0676459681201
30
0
41
1
10
65.3476369026922
20
-47.0633364652513
30
0
41
1
10
65.3531789692885
20
-47.0554099461991
30
0
41
1
10
65.3551652359508
20
-47.0525130924852
30
0
41
1
10
65.3593215304913
20
-47.0463516452314
30
0
41
1
10
65.3614995284545
20
-47.0430759243075
30
0
41
1
10
65.3683179075018
20
-47.0326938517972
30
0
41
1
10
65.3732632425393
20
-47.0250007278238
30
0
41
1
10
65.3837859332329
20
-47.0083476298792
30
0
41
1
10
65.3892792275611
20
-46.9995219683511
30
0
41
1
10
65.4006910063621
20
-46.9809578645231
30
0
41
1
10
65.4066399835854
20
-46.9711684316322
30
0
41
1
10
65.4188172738109
20
-46.9509213206325
30
0
41
1
10
65.4250099222148
20
-46.9405240718408
30
0
41
1
10
65.4313044110773
20
-46.9298594368302
30
0
0
SPLINE
5
17E
100
AcDbEntity
8
1
62
256
6
ByLayer
370
18
48
1
60
0
100
AcDbSpline
70
4
71
3
72
8
73
4
40
0
40
0
40
0
40
0
40
1
40
1
40
1
40
1
41
1
10
67.055960395754
20
-44.175
30
0
41
1
10
66.5147615326367
20
-45.0934807944254
30
0
41
1
10
65.9731883399108
20
-46.0117556089773
30
0
41
1
10
65.4313044110773
20
-46.9298594368302
30
0
0
SPLINE
5
17F
100
AcDbEntity
8
1
62
256
6
ByLayer
370
18
48
1
60
0
100
AcDbSpline
70
4
71
3
72
8
73
4
40
0
40
0
40
0
40
0
40
1
40
1
40
1
40
1
41
1
10
67.3221171295756
20
-43.75
30
0
41
1
10
67.2336709038821
20
-43.8917520514927
30
0
41
1
10
67.1449488360585
20
-44.0334177297629
30
0
41
1
10
67.055960395754
20
-44.175
30
0
0
SPLINE
5
180
100
AcDbEntity
8
1
62
256
6
ByLayer
370
18
48
1
60
0
100
AcDbSpline
70
4
71
3
72
14
73
10
40
0
40
0
40
0
40
0
40
0.0004691778424438
40
0.0004691778424438
40
0.500234588921222
40
0.500234588921222
40
0.750117294460611
40
0.750117294460611
40
1
40
1
40
1
40
1
41
1
10
67.4122854435063
20
-43.75
30
0
41
1
10
67.4122864436063
20
-43.75
30
0
41
1
10
67.4122874437063
20
-43.75
30
0
41
1
10
67.4123333527978
20
-43.75
30
0
41
1
10
67.4048468730179
20
-43.75
30
0
41
1
10
67.3822888506441
20
-43.75
30
0
41
1
10
67.3728813601297
20
-43.75
30
0
41
1
10
67.3502973996045
20
-43.75
30
0
41
1
10
67.3371339883481
20
-43.75
30
0
41
1
10
67.3221171295756
20
-43.75
30
0
0
SPLINE
5
181
100
AcDbEntity
8
1
62
256
6
ByLayer
370
18
48
1
60
0
100
AcDbSpline
70
4
71
3
72
14
73
10
40
0
40
0
40
0
40
0
40
0.24988270503437
40
0.24988270503437
40
0.499765410068739
40
0.499765410068739
40
0.999530820137479
40
0.999530820137479
40
1
40
1
40
1
40
1
41
1
10
67.3221171295756
20
43.75
30
0
41
1
10
67.3371339883481
20
43.75
30
0
41
1
10
67.3502973996045
20
43.75
30
0
41
1
10
67.3728813601297
20
43.75
30
0
41
1
10
67.3822888506441
20
43.75
30
0
41
1
10
67.4048468730179
20
43.75
30
0
41
1
10
67.4123333527978
20
43.75
30
0
41
1
10
67.4122874437058
20
43.75
30
0
41
1
10
67.4122864436058
20
43.75
30
0
41
1
10
67.4122854435058
20
43.75
30
0
0
SPLINE
5
182
100
AcDbEntity
8
1
62
256
6
ByLayer
370
18
48
1
60
0
100
AcDbSpline
70
4
71
3
72
8
73
4
40
0
40
0
40
0
40
0
40
1
40
1
40
1
40
1
41
1
10
67.055960395754
20
44.175
30
0
41
1
10
67.1449488360585
20
44.0334177297629
30
0
41
1
10
67.2336709038821
20
43.8917520514927
30
0
41
1
10
67.3221171295756
20
43.75
30
0
0
SPLINE
5
183
100
AcDbEntity
8
1
62
256
6
ByLayer
370
18
48
1
60
0
100
AcDbSpline
70
4
71
3
72
8
73
4
40
0
40
0
40
0
40
0
40
1
40
1
40
1
40
1
41
1
10
65.4313044110799
20
46.9298594368259
30
0
41
1
10
65.9731883399125
20
46.0117556089744
30
0
41
1
10
66.5147615326375
20
45.0934807944239
30
0
41
1
10
67.055960395754
20
44.175
30
0
0
SPLINE
5
184
100
AcDbEntity
8
1
62
256
6
ByLayer
370
18
48
1
60
0
100
AcDbSpline
70
4
71
3
72
22
73
18
40
0
40
0
40
0
40
0
40
0.249999999999909
40
0.249999999999909
40
0.312499999999895
40
0.312499999999895
40
0.374999999999881
40
0.374999999999881
40
0.499999999999905
40
0.499999999999905
40
0.624999999999929
40
0.624999999999929
40
0.749999999999952
40
0.749999999999952
40
0.874999999999976
40
0.874999999999976
40
1
40
1
40
1
40
1
41
1
10
65.4313044110878
20
46.9298594368302
30
0
41
1
10
65.4186826479158
20
46.951244254622
30
0
41
1
10
65.4066008458718
20
46.9713412367267
30
0
41
1
10
65.3922138765582
20
46.9947487139532
30
0
41
1
10
65.3893645883139
20
46.9993558269335
30
0
41
1
10
65.3838443634684
20
47.0082220612544
30
0
41
1
10
65.3811619785441
20
47.0124999929854
30
0
41
1
10
65.3733496438377
20
47.0248645438642
30
0
41
1
10
65.3684524393314
20
47.0324860844505
30
0
41
1
10
65.359333425529
20
47.0463770072135
30
0
41
1
10
65.3550839119647
20
47.0526826199208
30
0
41
1
10
65.3477185104263
20
47.0632224833119
30
0
41
1
10
65.3445517207543
20
47.0675373658391
30
0
41
1
10
65.3393216902814
20
47.0741220219911
30
0
41
1
10
65.3372550853867
20
47.0763831483279
30
0
41
1
10
65.3345262138451
20
47.0784525557874
30
0
41
1
10
65.3338257906459
20
47.0783155386633
30
0
41
1
10
65.3338257906458
20
47.0769422688608
30
0
0
SPLINE
5
185
100
AcDbEntity
8
1
62
256
6
ByLayer
370
18
48
1
60
0
100
AcDbSpline
70
4
71
3
72
26
73
22
40
0
40
0
40
0
40
0
40
0.125000000000023
40
0.125000000000023
40
0.187500000000019
40
0.187500000000019
40
0.250000000000016
40
0.250000000000016
40
0.375000000000013
40
0.375000000000013
40
0.437499999999992
40
0.437499999999992
40
0.499999999999971
40
0.499999999999971
40
0.624999999999978
40
0.624999999999978
40
0.749999999999985
40
0.749999999999985
40
0.874999999999993
40
0.874999999999993
40
1
40
1
40
1
40
1
41
1
10
65.3338257906459
20
27.9359709878426
30
0
41
1
10
65.3338257906458
20
27.9256764926986
30
0
41
1
10
65.3345201368741
20
27.9148676263467
30
0
41
1
10
65.3365422192861
20
27.8979281067173
30
0
41
1
10
65.3373808628348
20
27.8921596863553
30
0
41
1
10
65.3393907456246
20
27.8803766009228
30
0
41
1
10
65.3405589925164
20
27.8743894565847
30
0
41
1
10
65.3444703607891
20
27.8564694903431
30
0
41
1
10
65.3476369026922
20
27.8444545831215
30
0
41
1
10
65.3531789692885
20
27.8263357703045
30
0
41
1
10
65.3551652359508
20
27.8202663401045
30
0
41
1
10
65.3593215304913
20
27.8083239148297
30
0
41
1
10
65.3614995284545
20
27.8024228003091
30
0
41
1
10
65.3683179075018
20
27.7849190370402
30
0
41
1
10
65.3732632425393
20
27.7734673676452
30
0
41
1
10
65.3837859332329
20
27.7512818174085
30
0
41
1
10
65.389279227561
20
27.7407154412723
30
0
41
1
10
65.4006910063621
20
27.720546117073
30
0
41
1
10
65.4066399835854
20
27.7108999781353
30
0
41
1
10
65.4188172738109
20
27.6927842515048
30
0
41
1
10
65.4250099222147
20
27.6843589207531
30
0
41
1
10
65.4313044110773
20
27.6765518660811
30
0
0
SPLINE
5
186
100
AcDbEntity
8
1
62
256
6
ByLayer
370
18
48
1
60
0
100
AcDbSpline
70
4
71
3
72
8
73
4
40
0
40
0
40
0
40
0
40
1
40
1
40
1
40
1
41
1
10
67.055960395754
20
25.6598547906108
30
0
41
1
10
66.5147615326386
20
26.3322293979039
30
0
41
1
10
65.9731883399127
20
27.004453217467
30
0
41
1
10
65.4313044110773
20
27.6765518660811
30
0
0
SPLINE
5
187
100
AcDbEntity
8
1
62
256
6
ByLayer
370
18
48
1
60
0
100
AcDbSpline
70
4
71
3
72
8
73
4
40
0
40
0
40
0
40
0
40
1
40
1
40
1
40
1
41
1
10
67.3221171295756
20
25.0792939940024
30
0
41
1
10
67.2336709038819
20
25.2729308973805
30
0
41
1
10
67.1449488360582
20
25.466449812742
30
0
41
1
10
67.055960395754
20
25.6598547906108
30
0
0
SPLINE
5
188
100
AcDbEntity
8
1
62
256
6
ByLayer
370
18
48
1
60
0
100
AcDbSpline
70
4
71
3
72
9
73
5
40
0
40
0
40
0
40
0
40
0.5
40
1
40
1
40
1
40
1
41
1
10
67.3221171295756
20
18.6707060059976
30
0
41
1
10
67.3821233024098
20
19.7388040039984
30
0
41
1
10
67.4424502170472
20
21.875
30
0
41
1
10
67.3821233024099
20
24.0111959960016
30
0
41
1
10
67.3221171295756
20
25.0792939940024
30
0
0
SPLINE
5
189
100
AcDbEntity
8
1
62
256
6
ByLayer
370
18
48
1
60
0
100
AcDbSpline
70
4
71
3
72
8
73
4
40
0
40
0
40
0
40
0
40
1
40
1
40
1
40
1
41
1
10
67.055960395754
20
18.5151452093892
30
0
41
1
10
67.1449488360582
20
18.5669679170213
30
0
41
1
10
67.2336709038819
20
18.6188211541126
30
0
41
1
10
67.3221171295756
20
18.6707060059976
30
0
0
SPLINE
5
18A
100
AcDbEntity
8
1
62
256
6
ByLayer
370
13
48
1
60
0
100
AcDbSpline
70
4
71
3
72
92
73
88
40
0
40
0
40
0
40
0
40
0.0312499999999992
40
0.0312499999999992
40
0.0624999999999985
40
0.0937499999999977
40
0.0937499999999977
40
0.109374999999998
40
0.109374999999998
40
0.124999999999998
40
0.124999999999998
40
0.132812499999998
40
0.132812499999998
40
0.140624999999998
40
0.156249999999997
40
0.156249999999997
40
0.187499999999996
40
0.218749999999995
40
0.218749999999995
40
0.234374999999994
40
0.234374999999994
40
0.242187499999995
40
0.242187499999995
40
0.249999999999995
40
0.249999999999995
40
0.281249999999998
40
0.312500000000001
40
0.312500000000001
40
0.343750000000005
40
0.343750000000005
40
0.351562500000006
40
0.351562500000006
40
0.359375000000007
40
0.375000000000008
40
0.375000000000008
40
0.406250000000011
40
0.437500000000013
40
0.437500000000013
40
0.453125000000015
40
0.453125000000015
40
0.468750000000016
40
0.468750000000016
40
0.500000000000018
40
0.531250000000021
40
0.531250000000021
40
0.546875000000021
40
0.546875000000021
40
0.554687500000021
40
0.554687500000021
40
0.562500000000022
40
0.562500000000022
40
0.593750000000021
40
0.593750000000021
40
0.62500000000002
40
0.656250000000019
40
0.656250000000019
40
0.664062500000019
40
0.664062500000019
40
0.671875000000019
40
0.687500000000018
40
0.687500000000018
40
0.718750000000016
40
0.750000000000014
40
0.750000000000014
40
0.765625000000012
40
0.765625000000012
40
0.773437500000012
40
0.773437500000012
40
0.781250000000012
40
0.781250000000012
40
0.812500000000011
40
0.812500000000011
40
0.843750000000009
40
0.843750000000009
40
0.875000000000008
40
0.875000000000008
40
0.882812500000008
40
0.882812500000008
40
0.890625000000008
40
0.906250000000007
40
0.906250000000007
40
0.937500000000004
40
0.968750000000001
40
0.968750000000001
40
0.984375000000001
40
0.984375000000001
40
1
40
1
40
1
40
1
41
1
10
57
20
19.1409712810183
30
0
41
1
10
56.8313414314185
20
19.1409712810183
30
0
41
1
10
56.6640900358796
20
19.1485299543598
30
0
41
1
10
56.3323038597853
20
19.1782295392138
30
0
41
1
10
56.0032349419137
20
19.2225147087744
30
0
41
1
10
55.6795637117407
20
19.2957142061345
30
0
41
1
10
55.4388786145904
20
19.3616564368971
30
0
41
1
10
55.3589492217465
20
19.3854957791443
30
0
41
1
10
55.1999917834372
20
19.4368712379993
30
0
41
1
10
55.1212594150617
20
19.4643094866666
30
0
41
1
10
55.0042798113551
20
19.5080844718131
30
0
41
1
10
54.9654560761414
20
19.5231202349292
30
0
41
1
10
54.8884302383386
20
19.5539633274336
30
0
41
1
10
54.7737364794539
20
19.6014170198789
30
0
41
1
10
54.6615493460494
20
19.6523921981592
30
0
41
1
10
54.4404657366771
20
19.7589493162219
30
0
41
1
10
54.1544474604355
20
19.913289313639
30
0
41
1
10
53.8857867914225
20
20.0917432941486
30
0
41
1
10
53.6909291547705
20
20.2347276549046
30
0
41
1
10
53.6270848998875
20
20.2839157526241
30
0
41
1
10
53.5330161435662
20
20.3600260517385
30
0
41
1
10
53.5019318409129
20
20.3857958520028
30
0
41
1
10
53.4406779768725
20
20.4378228265773
30
0
41
1
10
53.4104646077649
20
20.4641146739404
30
0
41
1
10
53.2614448479264
20
20.5969472591094
30
0
41
1
10
53.0360837384035
20
20.818247494425
30
0
41
1
10
52.8363056843535
20
21.0564866849675
30
0
41
1
10
52.6494156696154
20
21.3031509719099
30
0
41
1
10
52.5624132464056
20
21.4306948864279
30
0
41
1
10
52.462018131429
20
21.5955239164298
30
0
41
1
10
52.4423694255159
20
21.6287450101108
30
0
41
1
10
52.4041329591323
20
21.6953488046373
30
0
41
1
10
52.3482846246708
20
21.795635506775
30
0
41
1
10
52.2969081146941
20
21.8970463245727
30
0
41
1
10
52.2000347439943
20
22.1013291017048
30
0
41
1
10
52.0865219491879
20
22.3775945275179
30
0
41
1
10
52.0041264207819
20
22.6614382576357
30
0
41
1
10
51.9542740007502
20
22.877186410254
30
0
41
1
10
51.9396508484181
20
22.9495810375916
30
0
41
1
10
51.9144858558656
20
23.0953443620018
30
0
41
1
10
51.9040508308227
20
23.1680974347695
30
0
41
1
10
51.8790652240063
20
23.3858950576013
30
0
41
1
10
51.8625605294462
20
23.6751315793573
30
0
41
1
10
51.8789979501526
20
23.9620690249697
30
0
41
1
10
51.9037890230064
20
24.1764118022644
30
0
41
1
10
51.914133535408
20
24.2477159494018
30
0
41
1
10
51.9328199828013
20
24.3544566561009
30
0
41
1
10
51.9395773285444
20
24.3900009685434
30
0
41
1
10
51.954160277391
20
24.4610176384129
30
0
41
1
10
51.9619965610223
20
24.496530699459
30
0
41
1
10
52.003652262209
20
24.6729875865529
30
0
41
1
10
52.0449697012032
20
24.8111720760274
30
0
41
1
10
52.1430598907436
20
25.0818411444121
30
0
41
1
10
52.2566090544241
20
25.3468089716281
30
0
41
1
10
52.4009417682587
20
25.6005953388569
30
0
41
1
10
52.5010135669818
20
25.7556962965521
30
0
41
1
10
52.5215351140848
20
25.7865590265143
30
0
41
1
10
52.5635228689961
20
25.8478501493654
30
0
41
1
10
52.6277386396831
20
25.9388710411527
30
0
41
1
10
52.6956094226208
20
26.0271886507491
30
0
41
1
10
52.8361348155216
20
26.2003100533801
30
0
41
1
10
53.0362359618424
20
26.4217850508043
30
0
41
1
10
53.261434065905
20
26.6250948684301
30
0
41
1
10
53.4398812595147
20
26.7707729613995
30
0
41
1
10
53.5009579502945
20
26.8181962765495
30
0
41
1
10
53.5950087233758
20
26.8876093268558
30
0
41
1
10
53.6267829237303
20
26.9104706760757
30
0
41
1
10
53.6907994550283
20
26.9553729166018
30
0
41
1
10
53.7230826952397
20
26.9774447918934
30
0
41
1
10
53.8858590501505
20
27.0859340052041
30
0
41
1
10
54.0204224990139
20
27.166755313529
30
0
41
1
10
54.2980248715875
20
27.3168849634908
30
0
41
1
10
54.441064241099
20
27.3861924674644
30
0
41
1
10
54.7356579074437
20
27.513369561235
30
0
41
1
10
54.8872114535719
20
27.5712399903161
30
0
41
1
10
55.0821560640424
20
27.6362593292806
30
0
41
1
10
55.121317489456
20
27.6488612395242
30
0
41
1
10
55.1998119692073
20
27.6732155255212
30
0
41
1
10
55.3178919871521
20
27.7084992793387
30
0
41
1
10
55.4369761852754
20
27.7400866685605
30
0
41
1
10
55.6764644294451
20
27.798419808298
30
0
41
1
10
55.9992956779017
20
27.863309947699
30
0
41
1
10
56.3291036011124
20
27.9027497761866
30
0
41
1
10
56.5791317641795
20
27.9226145907541
30
0
41
1
10
56.6629383033078
20
27.9276146593707
30
0
41
1
10
56.8313911804512
20
27.934299850626
30
0
41
1
10
56.9156695981745
20
27.9359709878426
30
0
41
1
10
57
20
27.9359709878426
30
0
0
SPLINE
5
18B
100
AcDbEntity
8
1
62
256
6
ByLayer
370
18
48
1
60
0
100
AcDbSpline
70
4
71
3
72
48
73
44
40
0
40
0
40
0
40
0
40
0.0625072232486068
40
0.0625072232486068
40
0.125014446497213
40
0.18752166974582
40
0.18752166974582
40
0.218775281370125
40
0.218775281370125
40
0.25002889299443
40
0.25002889299443
40
0.265655698806583
40
0.265655698806583
40
0.281282504618737
40
0.312536116243044
40
0.312536116243044
40
0.37504333949166
40
0.437550562740277
40
0.437550562740277
40
0.468804174364585
40
0.468804174364585
40
0.484430980176741
40
0.484430980176741
40
0.500057785988896
40
0.500057785988896
40
0.56256500923752
40
0.625072232486144
40
0.625072232486144
40
0.687579455734768
40
0.687579455734768
40
0.703206261546925
40
0.703206261546925
40
0.718833067359081
40
0.750086678983393
40
0.750086678983393
40
0.812593902232016
40
0.875101125480639
40
0.875101125480639
40
0.906354737104951
40
0.906354737104951
40
0.937608348729262
40
0.937608348729262
40
1
40
1
40
1
40
1
41
1
10
57
20
47.0769422688608
30
0
41
1
10
56.8313414314185
20
47.0769422688608
30
0
41
1
10
56.6640900358796
20
47.0778304506613
30
0
41
1
10
56.3323038597853
20
47.0812967091711
30
0
41
1
10
56.0032349419137
20
47.0864530031367
30
0
41
1
10
55.6795637117407
20
47.0948219284822
30
0
41
1
10
55.4388786145904
20
47.102239267934
30
0
41
1
10
55.3589492217465
20
47.104903466545
30
0
41
1
10
55.1999917834372
20
47.1105938507214
30
0
41
1
10
55.1212594150617
20
47.1136091861342
30
0
41
1
10
55.0042798113551
20
47.1183707787346
30
0
41
1
10
54.9654560761414
20
47.1199985509861
30
0
41
1
10
54.8884302383386
20
47.1233198860095
30
0
41
1
10
54.7737364794539
20
47.1284040184191
30
0
41
1
10
54.6615493460494
20
47.1337774954487
30
0
41
1
10
54.4404657366771
20
47.1448660066112
30
0
41
1
10
54.1544474604355
20
47.1605609816224
30
0
41
1
10
53.8857867914226
20
47.1776180677024
30
0
41
1
10
53.6909291547705
20
47.1907478748043
30
0
41
1
10
53.6270848998875
20
47.1951805956155
30
0
41
1
10
53.5330161435662
20
47.201891304458
30
0
41
1
10
53.5019318409129
20
47.2041393801733
30
0
41
1
10
53.4406779768725
20
47.2086268346154
30
0
41
1
10
53.4104646077649
20
47.2108693009201
30
0
41
1
10
53.2614448479264
20
47.2220652561131
30
0
41
1
10
53.0360837384035
20
47.2398727835054
30
0
41
1
10
52.8363056843535
20
47.2569706950463
30
0
41
1
10
52.6494156696153
20
47.2734672390519
30
0
41
1
10
52.5624132464055
20
47.2814152574506
30
0
41
1
10
52.462018131429
20
47.2908149051292
30
0
41
1
10
52.4423694255159
20
47.2926669949394
30
0
41
1
10
52.4041329591323
20
47.2962931293546
30
0
41
1
10
52.3482846246709
20
47.3016232530361
30
0
41
1
10
52.2969081146941
20
47.3066148046467
30
0
41
1
10
52.2000347439943
20
47.3161169631985
30
0
41
1
10
52.0865219491879
20
47.3275037087551
30
0
41
1
10
52.0041264207819
20
47.3360171982648
30
0
41
1
10
51.9542740007502
20
47.3412070648785
30
0
41
1
10
51.9396508484181
20
47.3427377675845
30
0
41
1
10
51.9144858558656
20
47.3453801214967
30
0
41
1
10
51.9040508308227
20
47.3464805206436
30
0
41
1
10
51.8790960218976
20
47.3491168045232
30
0
41
1
10
51.8708431909179
20
47.3499949575676
30
0
41
1
10
51.8707960044642
20
47.3499999824188
30
0
0
SPLINE
5
18C
100
AcDbEntity
8
1
62
256
6
ByLayer
370
18
48
1
60
0
100
AcDbSpline
70
4
71
3
72
50
73
46
40
0
40
0
40
0
40
0
40
0.0622731482850071
40
0.0622731482850071
40
0.0935307100088437
40
0.0935307100088437
40
0.109159490870762
40
0.109159490870762
40
0.124788271732681
40
0.124788271732681
40
0.187303395180354
40
0.187303395180354
40
0.249818518628027
40
0.3123336420757
40
0.3123336420757
40
0.327962422937618
40
0.327962422937618
40
0.343591203799536
40
0.374848765523372
40
0.374848765523372
40
0.437363888971042
40
0.499879012418712
40
0.499879012418712
40
0.531136574142546
40
0.531136574142546
40
0.546765355004462
40
0.546765355004462
40
0.562394135866378
40
0.562394135866378
40
0.624909259314043
40
0.687424382761708
40
0.687424382761708
40
0.749939506209373
40
0.749939506209373
40
0.765568287071288
40
0.765568287071288
40
0.781197067933203
40
0.812454629657031
40
0.812454629657031
40
0.874969753104686
40
0.937484876552342
40
0.937484876552342
40
0.968742438276171
40
0.968742438276171
40
1
40
1
40
1
40
1
41
1
10
51.8707960015847
20
-47.3499999827919
30
0
41
1
10
51.8708427582825
20
-47.349995011501
30
0
41
1
10
51.8790619221278
20
-47.3491204736158
30
0
41
1
10
51.9037890230064
20
-47.3465081457376
30
0
41
1
10
51.914133535408
20
-47.3454172394907
30
0
41
1
10
51.9328199828013
20
-47.3434549580628
30
0
41
1
10
51.9395773285444
20
-47.3427465438716
30
0
41
1
10
51.954160277391
20
-47.3412212240299
30
0
41
1
10
51.9619965610223
20
-47.3404032101324
30
0
41
1
10
52.003652262209
20
-47.3360661791803
30
0
41
1
10
52.0449697012032
20
-47.3317967497914
30
0
41
1
10
52.1430598907436
20
-47.3218323361036
30
0
41
1
10
52.2566090544241
20
-47.3104420676043
30
0
41
1
10
52.4009417682587
20
-47.2965350909164
30
0
41
1
10
52.5010135669818
20
-47.2871634584821
30
0
41
1
10
52.5215351140848
20
-47.2852539772124
30
0
41
1
10
52.5635228689961
20
-47.2813749122688
30
0
41
1
10
52.6277386396831
20
-47.2754830444925
30
0
41
1
10
52.6956094226208
20
-47.2693901713082
30
0
41
1
10
52.8361348155216
20
-47.2569849903772
30
0
41
1
10
53.0362359618424
20
-47.2398602929925
30
0
41
1
10
53.261434065905
20
-47.2220667094989
30
0
41
1
10
53.4398812595147
20
-47.2086588874064
30
0
41
1
10
53.5009579502945
20
-47.2041792124444
30
0
41
1
10
53.5950087233758
20
-47.197468399808
30
0
41
1
10
53.6267829237303
20
-47.1952317791066
30
0
41
1
10
53.6907994550283
20
-47.1907898017262
30
0
41
1
10
53.7230826952397
20
-47.1885814844476
30
0
41
1
10
53.8858590501504
20
-47.1776125433562
30
0
41
1
10
54.1549855020762
20
-47.1605283014263
30
0
41
1
10
54.4410642410989
20
-47.1448344447089
30
0
41
1
10
54.7356579074437
20
-47.1300621085813
30
0
41
1
10
54.8872114535719
20
-47.1231363270038
30
0
41
1
10
55.0821560640424
20
-47.1152007816562
30
0
41
1
10
55.121317489456
20
-47.1136540703923
30
0
41
1
10
55.1998119692073
20
-47.1106502085828
30
0
41
1
10
55.3178919871521
20
-47.1062754530463
30
0
41
1
10
55.4369761852754
20
-47.1023017706402
30
0
41
1
10
55.6764644294451
20
-47.0949098573513
30
0
41
1
10
55.9992956779017
20
-47.0865354106369
30
0
41
1
10
56.3291036011124
20
-47.0813385586498
30
0
41
1
10
56.5791317641795
20
-47.0787139151043
30
0
41
1
10
56.6629383033078
20
-47.0780511294439
30
0
41
1
10
56.8313911804512
20
-47.077164373257
30
0
41
1
10
56.9156695981745
20
-47.0769422688608
30
0
41
1
10
57
20
-47.0769422688608
30
0
0
SPLINE
5
18D
100
AcDbEntity
8
1
62
256
6
ByLayer
370
13
48
1
60
0
100
AcDbSpline
70
4
71
3
72
91
73
87
40
0
40
0
40
0
40
0
40
0.0312500000000017
40
0.0312500000000017
40
0.0625000000000035
40
0.0937500000000052
40
0.0937500000000052
40
0.109375000000007
40
0.109375000000007
40
0.125000000000008
40
0.125000000000008
40
0.132812500000008
40
0.132812500000008
40
0.140625000000009
40
0.156250000000009
40
0.156250000000009
40
0.187500000000012
40
0.218750000000015
40
0.218750000000015
40
0.234375000000016
40
0.234375000000016
40
0.242187500000016
40
0.242187500000016
40
0.250000000000016
40
0.250000000000016
40
0.281250000000015
40
0.312500000000015
40
0.312500000000015
40
0.343750000000014
40
0.343750000000014
40
0.351562500000014
40
0.351562500000014
40
0.359375000000015
40
0.375000000000015
40
0.375000000000015
40
0.406250000000017
40
0.437500000000018
40
0.437500000000018
40
0.453125000000019
40
0.453125000000019
40
0.46875000000002
40
0.46875000000002
40
0.500000000000022
40
0.531250000000023
40
0.531250000000023
40
0.546875000000023
40
0.546875000000023
40
0.554687500000023
40
0.554687500000023
40
0.562500000000024
40
0.562500000000024
40
0.593750000000025
40
0.593750000000025
40
0.625000000000027
40
0.656250000000029
40
0.656250000000029
40
0.664062500000029
40
0.664062500000029
40
0.671875000000029
40
0.68750000000003
40
0.68750000000003
40
0.71875000000003
40
0.75000000000003
40
0.75000000000003
40
0.76562500000003
40
0.76562500000003
40
0.773437500000029
40
0.773437500000029
40
0.781250000000028
40
0.781250000000028
40
0.812500000000027
40
0.843750000000025
40
0.843750000000025
40
0.875000000000023
40
0.875000000000023
40
0.882812500000022
40
0.882812500000022
40
0.890625000000021
40
0.906250000000018
40
0.906250000000018
40
0.937500000000011
40
0.968750000000005
40
0.968750000000005
40
0.984375000000002
40
0.984375000000002
40
1
40
1
40
1
40
1
41
1
10
57
20
-27.9359709878425
30
0
41
1
10
56.8313414314185
20
-27.9359709878425
30
0
41
1
10
56.6640900358796
20
-27.9293004963014
30
0
41
1
10
56.3323038597853
20
-27.9030671699573
30
0
41
1
10
56.0032349419137
20
-27.8639382943622
30
0
41
1
10
55.6795637117407
20
-27.7991077223477
30
0
41
1
10
55.4388786145904
20
-27.7405828310368
30
0
41
1
10
55.3589492217465
20
-27.7194076874007
30
0
41
1
10
55.1999917834373
20
-27.673722612722
30
0
41
1
10
55.1212594150617
20
-27.6492996994676
30
0
41
1
10
55.0042798113551
20
-27.6102863069214
30
0
41
1
10
54.9654560761414
20
-27.5968783160569
30
0
41
1
10
54.8884302383386
20
-27.5693565585759
30
0
41
1
10
54.7737364794539
20
-27.5269869985401
30
0
41
1
10
54.6615493460494
20
-27.4813852972895
30
0
41
1
10
54.4404657366771
20
-27.3859166903892
30
0
41
1
10
54.1544474604355
20
-27.2472716679833
30
0
41
1
10
53.8857867914226
20
-27.0858747735538
30
0
41
1
10
53.6909291547705
20
-26.9560202198997
30
0
41
1
10
53.6270848998875
20
-26.9112648429914
30
0
41
1
10
53.5330161435662
20
-26.8418652527195
30
0
41
1
10
53.5019318409129
20
-26.8183435281704
30
0
41
1
10
53.4406779768725
20
-26.7708040080381
30
0
41
1
10
53.4104646077649
20
-26.7467546269797
30
0
41
1
10
53.2614448479264
20
-26.6251179970037
30
0
41
1
10
53.0360837384035
20
-26.4216252890803
30
0
41
1
10
52.8363056843535
20
-26.2004840100788
30
0
41
1
10
52.6494156696154
20
-25.970316267142
30
0
41
1
10
52.5624132464056
20
-25.8507203710227
30
0
41
1
10
52.462018131429
20
-25.6952909886994
30
0
41
1
10
52.4423694255159
20
-25.6639219848286
30
0
41
1
10
52.4041329591323
20
-25.6009443247173
30
0
41
1
10
52.3482846246709
20
-25.5059877462611
30
0
41
1
10
52.2969081146941
20
-25.409568480074
30
0
41
1
10
52.2000347439943
20
-25.2147878614937
30
0
41
1
10
52.0865219491879
20
-24.9499091812371
30
0
41
1
10
52.0041264207819
20
-24.6745789406291
30
0
41
1
10
51.9542740007502
20
-24.4640206546245
30
0
41
1
10
51.9396508484181
20
-24.3931567299928
30
0
41
1
10
51.9144858558656
20
-24.2500357594949
30
0
41
1
10
51.9040508308227
20
-24.1783830858741
30
0
41
1
10
51.8790652240063
20
-23.9632250004824
30
0
41
1
10
51.8625600663416
20
-23.6757447624346
30
0
41
1
10
51.8789979501527
20
-23.3870582070516
30
0
41
1
10
51.9037890230064
20
-23.1700963434732
30
0
41
1
10
51.9141335354081
20
-23.0977012900889
30
0
41
1
10
51.9328199828013
20
-22.9889983019619
30
0
41
1
10
51.9395773285444
20
-22.9527455753283
30
0
41
1
10
51.954160277391
20
-22.880203585617
30
0
41
1
10
51.9619965610223
20
-22.8438725106733
30
0
41
1
10
52.003652262209
20
-22.6630785926273
30
0
41
1
10
52.0449697012032
20
-22.5206246737639
30
0
41
1
10
52.1430598907436
20
-22.2399911916916
30
0
41
1
10
52.2566090544241
20
-21.9636330959761
30
0
41
1
10
52.4009417682588
20
-21.6959397520595
30
0
41
1
10
52.5010135669818
20
-21.53146716193
30
0
41
1
10
52.5215351140848
20
-21.4986949506981
30
0
41
1
10
52.5635228689961
20
-21.4335247629034
30
0
41
1
10
52.6277386396831
20
-21.3366120033397
30
0
41
1
10
52.6956094226208
20
-21.242201520559
30
0
41
1
10
52.8361348155216
20
-21.0566749369971
30
0
41
1
10
53.0362359618424
20
-20.8180752421881
30
0
41
1
10
53.2614340659049
20
-20.5969718410687
30
0
41
1
10
53.4398812595147
20
-20.4378859260068
30
0
41
1
10
53.5009579502945
20
-20.3859829358949
30
0
41
1
10
53.5950087233758
20
-20.3098590729522
30
0
41
1
10
53.6267829237303
20
-20.2847611030309
30
0
41
1
10
53.6907994550283
20
-20.2354168851244
30
0
41
1
10
53.7230826952397
20
-20.2111366925542
30
0
41
1
10
53.8858590501505
20
-20.0916785381521
30
0
41
1
10
54.1549855020762
20
-19.9129508419091
30
0
41
1
10
54.441064241099
20
-19.7586419772445
30
0
41
1
10
54.7356579074437
20
-19.6166925473463
30
0
41
1
10
54.8872114535719
20
-19.5518963366877
30
0
41
1
10
55.0821560640424
20
-19.4789414523756
30
0
41
1
10
55.121317489456
20
-19.4647928308681
30
0
41
1
10
55.1998119692073
20
-19.4374346830616
30
0
41
1
10
55.3178919871521
20
-19.3977761737076
30
0
41
1
10
55.4369761852754
20
-19.3622151020797
30
0
41
1
10
55.6764644294451
20
-19.2964900490533
30
0
41
1
10
55.9992956779017
20
-19.2232254629379
30
0
41
1
10
56.3291036011124
20
-19.1785887824631
30
0
41
1
10
56.5791317641795
20
-19.1560993243502
30
0
41
1
10
56.6629383033078
20
-19.1504364700731
30
0
41
1
10
56.8313911804512
20
-19.142864522631
30
0
41
1
10
56.9156695981745
20
-19.1409712810182
30
0
41
1
10
57
20
-19.1409712810182
30
0
0
SPLINE
5
18E
100
AcDbEntity
8
SK1
62
256
6
ByLayer
370
18
48
1
60
0
100
AcDbSpline
70
4
71
3
72
33
73
29
40
0
40
0
40
0
40
0
40
0.143192087121018
40
0.143192087121018
40
0.214788130681527
40
0.214788130681527
40
0.250586152461781
40
0.250586152461781
40
0.286384174242034
40
0.286384174242034
40
0.429576261363044
40
0.429576261363044
40
0.501172304923551
40
0.501172304923551
40
0.519071315813678
40
0.519071315813678
40
0.536970326703805
40
0.536970326703805
40
0.572768348484061
40
0.572768348484061
40
0.715960435605073
40
0.715960435605073
40
0.787556479165579
40
0.787556479165579
40
0.859152522726084
40
0.859152522726084
40
0.93074856628659
40
1
40
1
40
1
40
1
41
1
10
-39.8
20
8.11000000000001
30
0
41
1
10
-39.8
20
8.23319689559852
30
0
41
1
10
-39.8118667916719
20
8.35417457248445
30
0
41
1
10
-39.8465803825738
20
8.53249589382585
30
0
41
1
10
-39.8609912480162
20
8.59140873386497
30
0
41
1
10
-39.8869393805851
20
8.67897985909462
30
0
41
1
10
-39.8963119912343
20
8.70803700905927
30
0
41
1
10
-39.9165318607134
20
8.76588115792384
30
0
41
1
10
-39.9273903818293
20
8.79468376498656
30
0
41
1
10
-39.9848208029507
20
8.9365275467211
30
0
41
1
10
-40.0411076489352
20
9.04432103623853
30
0
41
1
10
-40.1409292539038
20
9.19766645460024
30
0
41
1
10
-40.1767864152033
20
9.2473812207858
30
0
41
1
10
-40.2249698636007
20
9.30771640042951
30
0
41
1
10
-40.2347750725977
20
9.31969280465512
30
0
41
1
10
-40.2547276099737
20
9.34346199298685
30
0
41
1
10
-40.2648863442039
20
9.35526710192224
30
0
41
1
10
-40.2957187398807
20
9.39021856852924
30
0
41
1
10
-40.316788933274
20
9.41295223542141
30
0
41
1
10
-40.4246877217537
20
9.52382343996283
30
0
41
1
10
-40.5190834069945
20
9.60365303760281
30
0
41
1
10
-40.6731649779178
20
9.70984395692813
30
0
41
1
10
-40.7266213756713
20
9.74296612059283
30
0
41
1
10
-40.8379913960703
20
9.80439826016647
30
0
41
1
10
-40.8949278201466
20
9.8321631082388
30
0
41
1
10
-41.0110429545896
20
9.88181409175229
30
0
41
1
10
-41.1275322781958
20
9.92490684415779
30
0
41
1
10
-41.2485409941103
20
9.95662544768643
30
0
41
1
10
-41.3091737489198
20
9.96936950152531
30
0
0
SPLINE
5
18F
100
AcDbEntity
8
SK1
62
256
6
ByLayer
370
18
48
1
60
0
100
AcDbSpline
70
4
71
3
72
36
73
32
40
0
40
0
40
0
40
0
40
0.0328987924721245
40
0.101977450152685
40
0.101977450152685
40
0.136516778992965
40
0.136516778992965
40
0.171056107833245
40
0.171056107833245
40
0.309213423194354
40
0.309213423194354
40
0.343752752034634
40
0.343752752034634
40
0.378292080874914
40
0.378292080874914
40
0.447370738555474
40
0.516449396236034
40
0.516449396236034
40
0.550988725076316
40
0.550988725076316
40
0.585528053916597
40
0.585528053916597
40
0.723685369277732
40
0.723685369277732
40
0.792764026958298
40
0.792764026958298
40
0.827303355798582
40
0.827303355798582
40
0.861842684638865
40
0.861842684638865
40
1
40
1
40
1
40
1
41
1
10
-41.4083314493181
20
-9.98748103167637
30
0
41
1
10
-41.3783766770825
20
-9.98282739976193
30
0
41
1
10
-41.2859396064765
20
-9.96618825738398
30
0
41
1
10
-41.1947809789536
20
-9.94271877100826
30
0
41
1
10
-41.1030519769239
20
-9.91407293254841
30
0
41
1
10
-41.0726322747058
20
-9.903718457195
30
0
41
1
10
-41.0128138632697
20
-9.88166344995557
30
0
41
1
10
-40.9833218989539
20
-9.86993537212496
30
0
41
1
10
-40.8378957516775
20
-9.8078741114214
30
0
41
1
10
-40.7280022830846
20
-9.74738157881814
30
0
41
1
10
-40.5984896327907
20
-9.65843866061974
30
0
41
1
10
-40.5729176066122
20
-9.6399249472407
30
0
41
1
10
-40.5230012181478
20
-9.60186424757501
30
0
41
1
10
-40.4986408544189
20
-9.58231248889066
30
0
41
1
10
-40.4273036120927
20
-9.52213149198863
30
0
41
1
10
-40.3368284332642
20
-9.43782945531143
30
0
41
1
10
-40.2553380819533
20
-9.34561619017506
30
0
41
1
10
-40.1975802767161
20
-9.27347919268328
30
0
41
1
10
-40.1788886982289
20
-9.24893645024335
30
0
41
1
10
-40.1426386042457
20
-9.19884402605831
30
0
41
1
10
-40.1251406286122
20
-9.17337272151832
30
0
41
1
10
-40.0412615511893
20
-9.04471070963828
30
0
41
1
10
-39.9850618711732
20
-8.93689382639144
30
0
41
1
10
-39.916537124468
20
-8.76799066715
30
0
41
1
10
-39.8963441090146
20
-8.71048496754932
30
0
41
1
10
-39.8701301158718
20
-8.62236256644638
30
0
41
1
10
-39.8621036923976
20
-8.59277283294423
30
0
41
1
10
-39.8475390636706
20
-8.53346301503353
30
0
41
1
10
-39.8409871302113
20
-8.50369744436819
30
0
41
1
10
-39.8118441262851
20
-8.35431913644254
30
0
41
1
10
-39.8
20
-8.23306832906806
30
0
41
1
10
-39.8
20
-8.10999999999999
30
0
0
SPLINE
5
190
100
AcDbEntity
8
SK1
62
256
6
ByLayer
370
18
48
1
60
0
100
AcDbSpline
70
4
71
3
72
22
73
18
40
0
40
0
40
0
40
0
40
0.250000000000002
40
0.250000000000002
40
0.375000000000002
40
0.375000000000002
40
0.500000000000002
40
0.500000000000002
40
0.625000000000002
40
0.625000000000002
40
0.750000000000002
40
0.750000000000002
40
0.875000000000003
40
0.875000000000003
40
0.937500000000001
40
0.937500000000001
40
1
40
1
40
1
40
1
41
1
10
-48.20375
20
-15.1019212913179
30
0
41
1
10
-48.2737896568834
20
-15.2420308432048
30
0
41
1
10
-48.3417739186829
20
-15.3802391073468
30
0
41
1
10
-48.4388914764234
20
-15.5858968916662
30
0
41
1
10
-48.4704434350604
20
-15.6541805613641
30
0
41
1
10
-48.531401090616
20
-15.7905514952447
30
0
41
1
10
-48.5608102877274
20
-15.8586361890739
30
0
41
1
10
-48.6167419021676
20
-15.99511626323
30
0
41
1
10
-48.6432690328275
20
-16.0635082821252
30
0
41
1
10
-48.6923318001705
20
-16.2013692932474
30
0
41
1
10
-48.7148712626934
20
-16.2708358902596
30
0
41
1
10
-48.7543493944711
20
-16.4119679515416
30
0
41
1
10
-48.7712829155221
20
-16.4836382818077
30
0
41
1
10
-48.7908820151232
20
-16.5938963424684
30
0
41
1
10
-48.7964443706483
20
-16.6311101972906
30
0
41
1
10
-48.8053459563062
20
-16.7066481300675
30
0
41
1
10
-48.8086824422018
20
-16.745062428689
30
0
41
1
10
-48.810766213284
20
-16.7836440447102
30
0
0
SPLINE
5
191
100
AcDbEntity
8
SK1
62
256
6
ByLayer
370
18
48
1
60
0
100
AcDbSpline
70
4
71
3
72
79
73
75
40
0
40
0
40
0
40
0
40
0.125000000000044
40
0.125000000000044
40
0.187500000000068
40
0.187500000000068
40
0.250000000000091
40
0.250000000000091
40
0.312500000000114
40
0.312500000000114
40
0.343750000000126
40
0.343750000000126
40
0.375000000000137
40
0.375000000000137
40
0.406250000000149
40
0.406250000000149
40
0.421875000000152
40
0.421875000000152
40
0.437500000000156
40
0.437500000000156
40
0.45312500000016
40
0.45312500000016
40
0.460937500000163
40
0.460937500000163
40
0.468750000000166
40
0.468750000000166
40
0.476562500000168
40
0.476562500000168
40
0.484375000000171
40
0.484375000000171
40
0.492187500000174
40
0.492187500000174
40
0.496093750000175
40
0.496093750000175
40
0.500000000000175
40
0.500000000000175
40
0.503906250000176
40
0.503906250000176
40
0.507812500000177
40
0.507812500000177
40
0.511718750000178
40
0.511718750000178
40
0.515625000000179
40
0.51953125000018
40
0.51953125000018
40
0.52343750000018
40
0.52343750000018
40
0.531250000000179
40
0.531250000000179
40
0.539062500000177
40
0.539062500000177
40
0.546875000000175
40
0.546875000000175
40
0.562500000000168
40
0.562500000000168
40
0.578125000000161
40
0.578125000000161
40
0.593750000000154
40
0.593750000000154
40
0.609375000000147
40
0.609375000000147
40
0.62500000000014
40
0.62500000000014
40
0.656250000000128
40
0.656250000000128
40
0.687500000000116
40
0.687500000000116
40
0.750000000000093
40
0.750000000000093
40
0.81250000000007
40
0.81250000000007
40
0.875000000000046
40
0.875000000000046
40
1
40
1
40
1
40
1
41
1
10
-48.8107662132844
20
-16.78364404471
30
0
41
1
10
-48.8207523906185
20
-16.9685409667885
30
0
41
1
10
-48.8347977886098
20
-17.1511425735611
30
0
41
1
10
-48.863237913532
20
-17.4208764178835
30
0
41
1
10
-48.8739567807322
20
-17.5100871965657
30
0
41
1
10
-48.8983160849201
20
-17.686856731432
30
0
41
1
10
-48.9119361518275
20
-17.7743014379767
30
0
41
1
10
-48.942707331959
20
-17.9464331182849
30
0
41
1
10
-48.9598453675251
20
-18.0311898138798
30
0
41
1
10
-48.9892122906687
20
-18.1555907930016
30
0
41
1
10
-48.9996172942046
20
-18.1965975884405
30
0
41
1
10
-49.0219813405054
20
-18.2774502519169
30
0
41
1
10
-49.0339246793493
20
-18.3172512505915
30
0
41
1
10
-49.0597546696232
20
-18.3949053757419
30
0
41
1
10
-49.073637087042
20
-18.4328063101043
30
0
41
1
10
-49.0966115318848
20
-18.4875986998503
30
0
41
1
10
-49.1046321805199
20
-18.5055158026077
30
0
41
1
10
-49.1216148192034
20
-18.5404488475259
30
0
41
1
10
-49.1305700741604
20
-18.5574515384199
30
0
41
1
10
-49.1495989668138
20
-18.5899411565922
30
0
41
1
10
-49.1596796879745
20
-18.6054669645305
30
0
41
1
10
-49.176054788648
20
-18.62716344419
30
0
41
1
10
-49.1817244171715
20
-18.6341273644391
30
0
41
1
10
-49.1936049787255
20
-18.6473679087015
30
0
41
1
10
-49.1998257683411
20
-18.6536519281458
30
0
41
1
10
-49.2128308013286
20
-18.6651655634118
30
0
41
1
10
-49.2196268301044
20
-18.6704154850799
30
0
41
1
10
-49.2340213128811
20
-18.6795295393591
30
0
41
1
10
-49.2416110529625
20
-18.6833766183821
30
0
41
1
10
-49.2575031351019
20
-18.6889472762516
30
0
41
1
10
-49.2658380493685
20
-18.6907070327501
30
0
41
1
10
-49.2791862436771
20
-18.6911159849312
30
0
41
1
10
-49.2837741648609
20
-18.690867368687
30
0
41
1
10
-49.2930003400939
20
-18.6895099395688
30
0
41
1
10
-49.2976697254009
20
-18.6884036564132
30
0
41
1
10
-49.3071329803953
20
-18.6852456585687
30
0
41
1
10
-49.3119684578652
20
-18.6831674656065
30
0
41
1
10
-49.3214736463003
20
-18.6781349241722
30
0
41
1
10
-49.326162183721
20
-18.6751829312236
30
0
41
1
10
-49.3354171762962
20
-18.668448526696
30
0
41
1
10
-49.3400042746418
20
-18.6646466503155
30
0
41
1
10
-49.3489704146131
20
-18.6563337006182
30
0
41
1
10
-49.3576061787898
20
-18.647437117022
30
0
41
1
10
-49.365686905043
20
-18.6375600168368
30
0
41
1
10
-49.3735293784244
20
-18.6272620248831
30
0
41
1
10
-49.3773481206101
20
-18.6218767227387
30
0
41
1
10
-49.388350201165
20
-18.6053899964797
30
0
41
1
10
-49.3950862147046
20
-18.5939828719792
30
0
41
1
10
-49.4077343741284
20
-18.570596210526
30
0
41
1
10
-49.4136422709847
20
-18.5586137214044
30
0
41
1
10
-49.4248380081823
20
-18.5342179360188
30
0
41
1
10
-49.4301027025763
20
-18.5218459068418
30
0
41
1
10
-49.444967871985
20
-18.4847742162963
30
0
41
1
10
-49.4537487107808
20
-18.4599209641362
30
0
41
1
10
-49.4699151336038
20
-18.4100429780577
30
0
41
1
10
-49.477286490078
20
-18.3850164955225
30
0
41
1
10
-49.4910331687122
20
-18.3348411143031
30
0
41
1
10
-49.4974039377011
20
-18.309691656018
30
0
41
1
10
-49.5093887593112
20
-18.2592997363231
30
0
41
1
10
-49.5149900878561
20
-18.2340992840126
30
0
41
1
10
-49.525532410216
20
-18.1839454282598
30
0
41
1
10
-49.5304827245516
20
-18.1589486032538
30
0
41
1
10
-49.5445644756583
20
-18.0841501652783
30
0
41
1
10
-49.5529365392994
20
-18.0345381379896
30
0
41
1
10
-49.5682708760771
20
-17.9356660527958
30
0
41
1
10
-49.5752262670634
20
-17.8864077130936
30
0
41
1
10
-49.5944919615919
20
-17.7390322706654
30
0
41
1
10
-49.60522820112
20
-17.6413081499739
30
0
41
1
10
-49.6239958360568
20
-17.446535202058
30
0
41
1
10
-49.6320044071805
20
-17.3494920731621
30
0
41
1
10
-49.646038202798
20
-17.1559009792182
30
0
41
1
10
-49.6520570014112
20
-17.0593244609469
30
0
41
1
10
-49.6677597109614
20
-16.7705987748151
30
0
41
1
10
-49.6751434128412
20
-16.5793088711667
30
0
41
1
10
-49.6803455045439
20
-16.3888633077079
30
0
0
SPLINE
5
192
100
AcDbEntity
8
SK1
62
256
6
ByLayer
370
18
48
1
60
0
100
AcDbSpline
70
4
71
3
72
26
73
22
40
0
40
0
40
0
40
0
40
0.124999999999988
40
0.124999999999988
40
0.156249999999985
40
0.156249999999985
40
0.187499999999983
40
0.187499999999983
40
0.249999999999981
40
0.249999999999981
40
0.374999999999983
40
0.374999999999983
40
0.499999999999986
40
0.499999999999986
40
0.562499999999988
40
0.562499999999988
40
0.624999999999991
40
0.624999999999991
40
0.749999999999994
40
0.749999999999994
40
1
40
1
40
1
40
1
41
1
10
-49.6803455045439
20
-16.3888633077079
30
0
41
1
10
-49.6826466725058
20
-16.3046188817783
30
0
41
1
10
-49.6885779490543
20
-16.2175770741307
30
0
41
1
10
-49.6993728100179
20
-16.1056987249005
30
0
41
1
10
-49.7016978917135
20
-16.0831698556118
30
0
41
1
10
-49.7066424416954
20
-16.0378177461374
30
0
41
1
10
-49.7092669763272
20
-16.0149526655823
30
0
41
1
10
-49.7174822299178
20
-15.9462740562197
30
0
41
1
10
-49.7234030801494
20
-15.9004378613829
30
0
41
1
10
-49.7420007665263
20
-15.7627573300227
30
0
41
1
10
-49.7554901907109
20
-15.6707406700139
30
0
41
1
10
-49.7826003725113
20
-15.4861418061612
30
0
41
1
10
-49.7962305385269
20
-15.3935596611362
30
0
41
1
10
-49.8156911072294
20
-15.2541895927494
30
0
41
1
10
-49.8220175105965
20
-15.2076501594007
30
0
41
1
10
-49.8342006020737
20
-15.1143942032187
30
0
41
1
10
-49.8400654924927
20
-15.0676068524451
30
0
41
1
10
-49.8566753045913
20
-14.9276480792358
30
0
41
1
10
-49.8664422955215
20
-14.8348187950968
30
0
41
1
10
-49.8906557219728
20
-14.5575231178709
30
0
41
1
10
-49.9
20
-14.3742457791333
30
0
41
1
10
-49.9
20
-14.1920931702398
30
0
0
SPLINE
5
193
100
AcDbEntity
8
SK1
62
256
6
ByLayer
370
18
48
1
60
0
100
AcDbSpline
70
4
71
3
72
8
73
4
40
0
40
0
40
0
40
0
40
1
40
1
40
1
40
1
41
1
10
-48.0000748840331
20
-15.1575618641729
30
0
41
1
10
-48.0704205135134
20
-15.1479701459217
30
0
41
1
10
-48.1381154484484
20
-15.1287112305897
30
0
41
1
10
-48.2037500000014
20
-15.101921291323
30
0
0
SPLINE
5
194
100
AcDbEntity
8
SK1
62
256
6
ByLayer
370
18
48
1
60
0
100
AcDbSpline
70
4
71
3
72
26
73
22
40
0
40
0
40
0
40
0
40
0.124999999999994
40
0.124999999999994
40
0.156249999999993
40
0.156249999999993
40
0.187499999999992
40
0.187499999999992
40
0.249999999999994
40
0.249999999999994
40
0.374999999999995
40
0.374999999999995
40
0.499999999999995
40
0.499999999999995
40
0.562499999999995
40
0.562499999999995
40
0.624999999999994
40
0.624999999999994
40
0.749999999999996
40
0.749999999999996
40
1
40
1
40
1
40
1
41
1
10
-49.6803455045439
20
16.388863307708
30
0
41
1
10
-49.6826466725058
20
16.3046188817784
30
0
41
1
10
-49.6885779490542
20
16.2175770741308
30
0
41
1
10
-49.6993728100178
20
16.1056987249006
30
0
41
1
10
-49.7016978917135
20
16.0831698556119
30
0
41
1
10
-49.7066424416954
20
16.0378177461375
30
0
41
1
10
-49.7092669763272
20
16.0149526655824
30
0
41
1
10
-49.7174822299178
20
15.9462740562198
30
0
41
1
10
-49.7234030801493
20
15.900437861383
30
0
41
1
10
-49.7420007665262
20
15.7627573300228
30
0
41
1
10
-49.7554901907109
20
15.670740670014
30
0
41
1
10
-49.7826003725112
20
15.4861418061612
30
0
41
1
10
-49.7962305385269
20
15.3935596611362
30
0
41
1
10
-49.8156911072293
20
15.2541895927495
30
0
41
1
10
-49.8220175105965
20
15.2076501594007
30
0
41
1
10
-49.8342006020737
20
15.1143942032188
30
0
41
1
10
-49.8400654924927
20
15.0676068524452
30
0
41
1
10
-49.8566753045913
20
14.9276480792358
30
0
41
1
10
-49.8664422955215
20
14.8348187950969
30
0
41
1
10
-49.8906557219728
20
14.5575231178709
30
0
41
1
10
-49.9
20
14.3742457791333
30
0
41
1
10
-49.9
20
14.1920931702398
30
0
0
SPLINE
5
195
100
AcDbEntity
8
SK1
62
256
6
ByLayer
370
18
48
1
60
0
100
AcDbSpline
70
4
71
3
72
79
73
75
40
0
40
0
40
0
40
0
40
0.124999999999977
40
0.124999999999977
40
0.187499999999966
40
0.187499999999966
40
0.249999999999954
40
0.249999999999954
40
0.312499999999942
40
0.312499999999942
40
0.343749999999937
40
0.343749999999937
40
0.374999999999932
40
0.374999999999932
40
0.406249999999927
40
0.406249999999927
40
0.421874999999924
40
0.421874999999924
40
0.437499999999921
40
0.437499999999921
40
0.453124999999919
40
0.453124999999919
40
0.460937499999918
40
0.460937499999918
40
0.468749999999917
40
0.468749999999917
40
0.476562499999916
40
0.476562499999916
40
0.484374999999916
40
0.484374999999916
40
0.492187499999915
40
0.492187499999915
40
0.496093749999914
40
0.496093749999914
40
0.499999999999913
40
0.499999999999913
40
0.503906249999911
40
0.503906249999911
40
0.50781249999991
40
0.50781249999991
40
0.511718749999909
40
0.511718749999909
40
0.515624999999908
40
0.519531249999907
40
0.519531249999907
40
0.523437499999906
40
0.523437499999906
40
0.531249999999906
40
0.531249999999906
40
0.539062499999906
40
0.539062499999906
40
0.546874999999907
40
0.546874999999907
40
0.562499999999909
40
0.562499999999909
40
0.578124999999911
40
0.578124999999911
40
0.593749999999913
40
0.593749999999913
40
0.609374999999915
40
0.609374999999915
40
0.624999999999917
40
0.624999999999917
40
0.656249999999924
40
0.656249999999924
40
0.687499999999931
40
0.687499999999931
40
0.749999999999945
40
0.749999999999945
40
0.812499999999958
40
0.812499999999958
40
0.874999999999972
40
0.874999999999972
40
1
40
1
40
1
40
1
41
1
10
-48.8107662132844
20
16.7836440447101
30
0
41
1
10
-48.8207523906186
20
16.9685409667885
30
0
41
1
10
-48.8347977886099
20
17.1511425735611
30
0
41
1
10
-48.8632379135321
20
17.4208764178834
30
0
41
1
10
-48.8739567807322
20
17.5100871965656
30
0
41
1
10
-48.8983160849202
20
17.6868567314319
30
0
41
1
10
-48.9119361518275
20
17.7743014379765
30
0
41
1
10
-48.942707331959
20
17.9464331182846
30
0
41
1
10
-48.9598453675251
20
18.0311898138796
30
0
41
1
10
-48.9892122906687
20
18.1555907930013
30
0
41
1
10
-48.9996172942047
20
18.1965975884403
30
0
41
1
10
-49.0219813405054
20
18.2774502519167
30
0
41
1
10
-49.0339246793494
20
18.3172512505911
30
0
41
1
10
-49.0597546696231
20
18.3949053757415
30
0
41
1
10
-49.073637087042
20
18.432806310104
30
0
41
1
10
-49.0966115318848
20
18.48759869985
30
0
41
1
10
-49.1046321805198
20
18.5055158026073
30
0
41
1
10
-49.1216148192033
20
18.5404488475255
30
0
41
1
10
-49.1305700741602
20
18.5574515384196
30
0
41
1
10
-49.1495989668137
20
18.5899411565919
30
0
41
1
10
-49.1596796879744
20
18.6054669645301
30
0
41
1
10
-49.1760547886479
20
18.6271634441897
30
0
41
1
10
-49.1817244171714
20
18.6341273644388
30
0
41
1
10
-49.1936049787253
20
18.6473679087012
30
0
41
1
10
-49.1998257683409
20
18.6536519281455
30
0
41
1
10
-49.2128308013284
20
18.6651655634115
30
0
41
1
10
-49.2196268301043
20
18.6704154850796
30
0
41
1
10
-49.2340213128809
20
18.6795295393588
30
0
41
1
10
-49.2416110529624
20
18.6833766183819
30
0
41
1
10
-49.2575031351017
20
18.6889472762514
30
0
41
1
10
-49.2658380493683
20
18.6907070327499
30
0
41
1
10
-49.2791862436769
20
18.691115984931
30
0
41
1
10
-49.2837741648607
20
18.6908673686869
30
0
41
1
10
-49.2930003400937
20
18.6895099395687
30
0
41
1
10
-49.2976697254007
20
18.688403656413
30
0
41
1
10
-49.3071329803951
20
18.6852456585686
30
0
41
1
10
-49.311968457865
20
18.6831674656063
30
0
41
1
10
-49.3214736463001
20
18.6781349241721
30
0
41
1
10
-49.3261621837208
20
18.6751829312236
30
0
41
1
10
-49.3354171762959
20
18.668448526696
30
0
41
1
10
-49.3400042746415
20
18.6646466503155
30
0
41
1
10
-49.348970414613
20
18.6563337006182
30
0
41
1
10
-49.3576061787896
20
18.647437117022
30
0
41
1
10
-49.3656869050428
20
18.6375600168369
30
0
41
1
10
-49.3735293784242
20
18.6272620248832
30
0
41
1
10
-49.37734812061
20
18.6218767227387
30
0
41
1
10
-49.3883502011648
20
18.6053899964797
30
0
41
1
10
-49.3950862147044
20
18.5939828719793
30
0
41
1
10
-49.4077343741282
20
18.5705962105261
30
0
41
1
10
-49.4136422709845
20
18.5586137214044
30
0
41
1
10
-49.4248380081821
20
18.5342179360189
30
0
41
1
10
-49.4301027025762
20
18.5218459068419
30
0
41
1
10
-49.4449678719849
20
18.4847742162964
30
0
41
1
10
-49.4537487107807
20
18.4599209641363
30
0
41
1
10
-49.4699151336037
20
18.4100429780578
30
0
41
1
10
-49.4772864900779
20
18.3850164955225
30
0
41
1
10
-49.4910331687121
20
18.3348411143032
30
0
41
1
10
-49.497403937701
20
18.3096916560181
30
0
41
1
10
-49.5093887593112
20
18.2592997363232
30
0
41
1
10
-49.5149900878561
20
18.2340992840126
30
0
41
1
10
-49.5255324102159
20
18.1839454282599
30
0
41
1
10
-49.5304827245516
20
18.1589486032539
30
0
41
1
10
-49.5445644756583
20
18.0841501652784
30
0
41
1
10
-49.5529365392994
20
18.0345381379897
30
0
41
1
10
-49.5682708760771
20
17.9356660527959
30
0
41
1
10
-49.5752262670634
20
17.8864077130937
30
0
41
1
10
-49.5944919615919
20
17.7390322706655
30
0
41
1
10
-49.6052282011199
20
17.641308149974
30
0
41
1
10
-49.6239958360567
20
17.446535202058
30
0
41
1
10
-49.6320044071804
20
17.3494920731622
30
0
41
1
10
-49.6460382027979
20
17.1559009792183
30
0
41
1
10
-49.6520570014112
20
17.059324460947
30
0
41
1
10
-49.6677597109614
20
16.7705987748152
30
0
41
1
10
-49.6751434128412
20
16.5793088711668
30
0
41
1
10
-49.6803455045439
20
16.388863307708
30
0
0
SPLINE
5
196
100
AcDbEntity
8
SK1
62
256
6
ByLayer
370
18
48
1
60
0
100
AcDbSpline
70
4
71
3
72
22
73
18
40
0
40
0
40
0
40
0
40
0.249999999999995
40
0.249999999999995
40
0.374999999999996
40
0.374999999999996
40
0.499999999999996
40
0.499999999999996
40
0.624999999999997
40
0.624999999999997
40
0.749999999999997
40
0.749999999999997
40
0.874999999999998
40
0.874999999999998
40
0.937499999999999
40
0.937499999999999
40
1
40
1
40
1
40
1
41
1
10
-48.20375
20
15.1019212913179
30
0
41
1
10
-48.2737896568834
20
15.2420308432048
30
0
41
1
10
-48.3417739186829
20
15.3802391073468
30
0
41
1
10
-48.4388914764234
20
15.5858968916662
30
0
41
1
10
-48.4704434350605
20
15.6541805613641
30
0
41
1
10
-48.531401090616
20
15.7905514952447
30
0
41
1
10
-48.5608102877275
20
15.8586361890738
30
0
41
1
10
-48.6167419021676
20
15.99511626323
30
0
41
1
10
-48.6432690328275
20
16.0635082821252
30
0
41
1
10
-48.6923318001705
20
16.2013692932474
30
0
41
1
10
-48.7148712626935
20
16.2708358902596
30
0
41
1
10
-48.7543493944711
20
16.4119679515416
30
0
41
1
10
-48.7712829155222
20
16.4836382818077
30
0
41
1
10
-48.7908820151232
20
16.5938963424684
30
0
41
1
10
-48.7964443706483
20
16.6311101972906
30
0
41
1
10
-48.8053459563062
20
16.7066481300675
30
0
41
1
10
-48.8086824422018
20
16.745062428689
30
0
41
1
10
-48.8107662132841
20
16.7836440447102
30
0
0
SPLINE
5
197
100
AcDbEntity
8
SK1
62
256
6
ByLayer
370
18
48
1
60
0
100
AcDbSpline
70
4
71
3
72
8
73
4
40
0
40
0
40
0
40
0
40
1
40
1
40
1
40
1
41
1
10
-48.2037500000014
20
15.1019212913229
30
0
41
1
10
-48.1381154484482
20
15.1287112305897
30
0
41
1
10
-48.0704205135131
20
15.1479701459218
30
0
41
1
10
-48.0000748840326
20
15.157561864173
30
0
0
SPLINE
5
198
100
AcDbEntity
8
SK1
62
256
6
ByLayer
370
18
48
1
60
0
100
AcDbSpline
70
2053
71
3
72
199
73
195
40
0
40
0
40
0
40
0
40
0.015625
40
0.015625
40
0.0312499999999999
40
0.0312499999999999
40
0.0390624999999999
40
0.0390624999999999
40
0.04296875
40
0.04296875
40
0.0468750000000001
40
0.0468750000000001
40
0.0625000000000005
40
0.078125000000001
40
0.078125000000001
40
0.0937500000000014
40
0.0937500000000014
40
0.0976562500000016
40
0.0976562500000016
40
0.101562500000002
40
0.101562500000002
40
0.109375000000002
40
0.109375000000002
40
0.125000000000003
40
0.125000000000003
40
0.140625000000003
40
0.140625000000003
40
0.144531250000003
40
0.144531250000003
40
0.148437500000003
40
0.148437500000003
40
0.156250000000004
40
0.156250000000004
40
0.171875000000004
40
0.171875000000004
40
0.187500000000005
40
0.187500000000005
40
0.191406250000005
40
0.191406250000005
40
0.195312500000005
40
0.195312500000005
40
0.203125000000005
40
0.203125000000005
40
0.218750000000006
40
0.218750000000006
40
0.234375000000006
40
0.234375000000006
40
0.242187500000006
40
0.242187500000006
40
0.246093750000006
40
0.246093750000006
40
0.250000000000007
40
0.250000000000007
40
0.265625000000007
40
0.265625000000007
40
0.281250000000008
40
0.281250000000008
40
0.289062500000008
40
0.289062500000008
40
0.292968750000008
40
0.292968750000008
40
0.296875000000008
40
0.296875000000008
40
0.312500000000008
40
0.312500000000008
40
0.328125000000009
40
0.343750000000009
40
0.343750000000009
40
0.347656250000009
40
0.347656250000009
40
0.351562500000009
40
0.351562500000009
40
0.359375000000009
40
0.359375000000009
40
0.375000000000009
40
0.390625000000009
40
0.390625000000009
40
0.40625000000001
40
0.40625000000001
40
0.41406250000001
40
0.41406250000001
40
0.42187500000001
40
0.42187500000001
40
0.43750000000001
40
0.43750000000001
40
0.45312500000001
40
0.45312500000001
40
0.46093750000001
40
0.46093750000001
40
0.46484375000001
40
0.46484375000001
40
0.46875000000001
40
0.46875000000001
40
0.48437500000001
40
0.500000000000009
40
0.500000000000009
40
0.515625000000009
40
0.515625000000009
40
0.523437500000009
40
0.523437500000009
40
0.527343750000008
40
0.527343750000008
40
0.531250000000008
40
0.531250000000008
40
0.546875000000008
40
0.546875000000008
40
0.562500000000008
40
0.562500000000008
40
0.578125000000007
40
0.578125000000007
40
0.582031250000007
40
0.582031250000007
40
0.585937500000007
40
0.593750000000007
40
0.593750000000007
40
0.609375000000007
40
0.609375000000007
40
0.625000000000007
40
0.625000000000007
40
0.628906250000007
40
0.628906250000007
40
0.632812500000007
40
0.632812500000007
40
0.640625000000007
40
0.640625000000007
40
0.656250000000007
40
0.656250000000007
40
0.671875000000007
40
0.671875000000007
40
0.675781250000007
40
0.675781250000007
40
0.679687500000007
40
0.679687500000007
40
0.687500000000007
40
0.687500000000007
40
0.703125000000007
40
0.703125000000007
40
0.718750000000007
40
0.718750000000007
40
0.722656250000007
40
0.722656250000007
40
0.726562500000007
40
0.726562500000007
40
0.734375000000007
40
0.734375000000007
40
0.750000000000007
40
0.750000000000007
40
0.765625000000007
40
0.765625000000007
40
0.773437500000007
40
0.773437500000007
40
0.777343750000007
40
0.777343750000007
40
0.781250000000007
40
0.781250000000007
40
0.796875000000007
40
0.796875000000007
40
0.812500000000007
40
0.828125000000007
40
0.828125000000007
40
0.832031250000007
40
0.832031250000007
40
0.835937500000007
40
0.843750000000007
40
0.843750000000007
40
0.859375000000006
40
0.875000000000005
40
0.875000000000005
40
0.882812500000005
40
0.882812500000005
40
0.886718750000005
40
0.886718750000005
40
0.890625000000005
40
0.890625000000005
40
0.906250000000004
40
0.921875000000004
40
0.921875000000004
40
0.937500000000003
40
0.937500000000003
40
0.945312500000003
40
0.945312500000003
40
0.949218750000003
40
0.949218750000003
40
0.953125000000003
40
0.953125000000003
40
0.968750000000002
40
0.968750000000002
40
0.984375000000001
40
0.984375000000001
40
0.9921875
40
0.9921875
40
0.99609375
40
0.99609375
40
1
40
1
40
1
40
1
41
1
10
-19.2409013463647
20
-4.68080028297888
30
0
41
1
10
-19.4079621433098
20
-4.54192515802683
30
0
41
1
10
-19.5670665156176
20
-4.3959088125365
30
0
41
1
10
-19.8694655070935
20
-4.08965357791703
30
0
41
1
10
-20.0127608800019
20
-3.92941542119291
30
0
41
1
10
-20.2155634753266
20
-3.67811209595402
30
0
41
1
10
-20.2811371228695
20
-3.5925165438729
30
0
41
1
10
-20.3763842148996
20
-3.46131312171787
30
0
41
1
10
-20.4076140766386
20
-3.41711005267425
30
0
41
1
10
-20.469019912
20
-3.32775219492208
30
0
41
1
10
-20.4992345528522
20
-3.28253591113366
30
0
41
1
10
-20.6469059096212
20
-3.0551645395735
30
0
41
1
10
-20.8621469588936
20
-2.68225303730964
30
0
41
1
10
-21.0359493662655
20
-2.29134285179632
30
0
41
1
10
-21.1887006096658
20
-1.89127361303633
30
0
41
1
10
-21.2545540746264
20
-1.68666097269678
30
0
41
1
10
-21.3230762842395
20
-1.4248854721009
30
0
41
1
10
-21.3360891245397
20
-1.372229079238
30
0
41
1
10
-21.3607076585596
20
-1.2663031177255
30
0
41
1
10
-21.3722793633372
20
-1.21317185000029
30
0
41
1
10
-21.4046753803779
20
-1.05383589651714
30
0
41
1
10
-21.4232362020401
20
-0.947458959524255
30
0
41
1
10
-21.4699539975404
20
-0.627876369739084
30
0
41
1
10
-21.4891691148553
20
-0.414220069648906
30
0
41
1
10
-21.5039397224734
20
0.0142853874746436
30
0
41
1
10
-21.4994960718303
20
0.229134501321511
30
0
41
1
10
-21.4788146901815
20
0.498458475949832
30
0
41
1
10
-21.4739201863398
20
0.552361493605673
30
0
41
1
10
-21.4625984188042
20
0.660244788432323
30
0
41
1
10
-21.456159678233
20
0.714307581104691
30
0
41
1
10
-21.4346038918093
20
0.875966706582147
30
0
41
1
10
-21.4172853236874
20
0.982846594827464
30
0
41
1
10
-21.3567175465797
20
1.30087888542042
30
0
41
1
10
-21.3048787016907
20
1.50943061979979
30
0
41
1
10
-21.1789309579674
20
1.91979865856709
30
0
41
1
10
-21.1048206678252
20
2.12161452986083
30
0
41
1
10
-20.998226662612
20
2.36966972430028
30
0
41
1
10
-20.9762083560189
20
2.41906952452885
30
0
41
1
10
-20.9307649649809
20
2.51744448695058
30
0
41
1
10
-20.9073116441753
20
2.56647622608861
30
0
41
1
10
-20.8350267778472
20
2.71252631781047
30
0
41
1
10
-20.7844346280646
20
2.80818883827374
30
0
41
1
10
-20.6256720613505
20
3.09022486681877
30
0
41
1
10
-20.5105338999628
20
3.27165981222919
30
0
41
1
10
-20.2623510498034
20
3.62186416748872
30
0
41
1
10
-20.129304333472
20
3.79063209878191
30
0
41
1
10
-19.91638920189
20
4.03436613204042
30
0
41
1
10
-19.8431890827454
20
4.11403818660335
30
0
41
1
10
-19.7300188924891
20
4.23117080081329
30
0
41
1
10
-19.6918185387117
20
4.26972937335211
30
0
41
1
10
-19.6146633567857
20
4.34570124507349
30
0
41
1
10
-19.5756796286264
20
4.38314455220441
30
0
41
1
10
-19.3787599051636
20
4.56768879385652
30
0
41
1
10
-19.2148365238777
20
4.70679413172118
30
0
41
1
10
-18.874706095973
20
4.96863291930705
30
0
41
1
10
-18.6984974556378
20
5.09136418851546
30
0
41
1
10
-18.4250584232746
20
5.26332042785435
30
0
41
1
10
-18.3323883185654
20
5.31861205123644
30
0
41
1
10
-18.1910840451221
20
5.39849359616358
30
0
41
1
10
-18.1435992640364
20
5.42461123504353
30
0
41
1
10
-18.0478586633437
20
5.47582211800821
30
0
41
1
10
-17.999653619819
20
5.50088641925819
30
0
41
1
10
-17.7578685588757
20
5.6230644943644
30
0
41
1
10
-17.5611877471659
20
5.71121804724854
30
0
41
1
10
-17.1615918134346
20
5.8691502782554
30
0
41
1
10
-16.7557600995884
20
6.00870330299327
30
0
41
1
10
-16.337639291229
20
6.11204125577314
30
0
41
1
10
-16.0724270604448
20
6.16517491060301
30
0
41
1
10
-16.0191898703303
20
6.17522781030428
30
0
41
1
10
-15.9123231813235
20
6.19417766139989
30
0
41
1
10
-15.8587245631856
20
6.203067400138
30
0
41
1
10
-15.6981171897025
20
6.22788100212605
30
0
41
1
10
-15.591046834799
20
6.24199592509535
30
0
41
1
10
-15.2698405249356
20
6.27720887586469
30
0
41
1
10
-14.8415784063018
20
6.30517583358045
30
0
41
1
10
-14.4133472399135
20
6.29598823689682
30
0
41
1
10
-13.9851301278561
20
6.26814199660083
30
0
41
1
10
-13.7710286107101
20
6.24489117648781
30
0
41
1
10
-13.4498827823393
20
6.19558292923176
30
0
41
1
10
-13.3435218403949
20
6.17684029687007
30
0
41
1
10
-13.1324691999273
20
6.13487617353348
30
0
41
1
10
-13.0277242446182
20
6.11164647440771
30
0
41
1
10
-12.7158020909691
20
6.03529266663705
30
0
41
1
10
-12.5109326313958
20
5.97551883088542
30
0
41
1
10
-12.1073058848507
20
5.83827843950013
30
0
41
1
10
-11.9085482732515
20
5.76081297582147
30
0
41
1
10
-11.6150846181189
20
5.63101285807838
30
0
41
1
10
-11.5180434948078
20
5.5854752238717
30
0
41
1
10
-11.3736757629308
20
5.51368214317216
30
0
41
1
10
-11.3257522711256
20
5.48916972742282
30
0
41
1
10
-11.2303086104433
20
5.43896513930909
30
0
41
1
10
-11.1827930088946
20
5.4132729225787
30
0
41
1
10
-10.947483899805
20
5.28253178013958
30
0
41
1
10
-10.5834454180356
20
5.05773403998504
30
0
41
1
10
-10.2439178705042
20
4.80205373514124
30
0
41
1
10
-9.91680582136416
20
4.53064355144804
30
0
41
1
10
-9.75945564033586
20
4.3870761006535
30
0
41
1
10
-9.53315123438247
20
4.15934037540231
30
0
41
1
10
-9.45933976558806
20
4.08136027368144
30
0
41
1
10
-9.35114147531016
20
3.96117214339367
30
0
41
1
10
-9.31544598229641
20
3.92051324995646
30
0
41
1
10
-9.24528651889091
20
3.83854301172633
30
0
41
1
10
-9.21079474785216
20
3.79720387028814
30
0
41
1
10
-9.04126021025354
20
3.58874534224469
30
0
41
1
10
-8.91496798581713
20
3.41635083929177
30
0
41
1
10
-8.681020496972
20
3.06027753813422
30
0
41
1
10
-8.57336408604837
20
2.87659951523889
30
0
41
1
10
-8.3772359796406
20
2.49758251455469
30
0
41
1
10
-8.28875977321567
20
2.30224633672049
30
0
41
1
10
-8.19090987217126
20
2.05030406807342
30
0
41
1
10
-8.17197900693111
20
1.99952589580772
30
0
41
1
10
-8.13542173547239
20
1.89717238781324
30
0
41
1
10
-8.08283436656745
20
1.743256447974
30
0
41
1
10
-8.03692789472026
20
1.58819780942068
30
0
41
1
10
-7.95392293194837
20
1.27657239565909
30
0
41
1
10
-7.91030798153008
20
1.06681498981709
30
0
41
1
10
-7.84653768425611
20
0.643276893043861
30
0
41
1
10
-7.82638053715212
20
0.429496514254083
30
0
41
1
10
-7.81631631923318
20
0.159674034922233
30
0
41
1
10
-7.81506199719578
20
0.105579369051867
30
0
41
1
10
-7.81409015053268
20
-0.0028737044500815
30
0
41
1
10
-7.81437319675589
20
-0.0572605386668386
30
0
41
1
10
-7.81755880079032
20
-0.220644478088502
30
0
41
1
10
-7.82277525436615
20
-0.328966946848027
30
0
41
1
10
-7.84746296604416
20
-0.652180739570952
30
0
41
1
10
-7.87594923909117
20
-0.865322863127545
30
0
41
1
10
-7.95630800773034
20
-1.28707412641489
30
0
41
1
10
-8.00818184115698
20
-1.49568299869586
30
0
41
1
10
-8.08768460032425
20
-1.75360766738268
30
0
41
1
10
-8.10431994992541
20
-1.80505044550239
30
0
41
1
10
-8.13906849712916
20
-1.90765026113797
30
0
41
1
10
-8.15720475983562
20
-1.95886904859859
30
0
41
1
10
-8.21368300526692
20
-2.11165355512418
30
0
41
1
10
-8.25395728953424
20
-2.2120054090054
30
0
41
1
10
-8.38238961887276
20
-2.50870137214946
30
0
41
1
10
-8.47813666461448
20
-2.70069746193477
30
0
41
1
10
-8.68906036100975
20
-3.0735966156966
30
0
41
1
10
-8.80423942718983
20
-3.25449823277162
30
0
41
1
10
-8.96024185584497
20
-3.47378565984053
30
0
41
1
10
-8.99204524157093
20
-3.51730033983827
30
0
41
1
10
-9.05686074403252
20
-3.60364317626261
30
0
41
1
10
-9.08991768817489
20
-3.64652703806885
30
0
41
1
10
-9.19051180539969
20
-3.77364846806404
30
0
41
1
10
-9.25945819389403
20
-3.85635639181203
30
0
41
1
10
-9.47177037849679
20
-4.09856885828645
30
0
41
1
10
-9.6205948104224
20
-4.25217769035021
30
0
41
1
10
-9.93224667064817
20
-4.54435140462192
30
0
41
1
10
-10.0950759132297
20
-4.68291418891747
30
0
41
1
10
-10.3497347334147
20
-4.87962948373189
30
0
41
1
10
-10.4363601056144
20
-4.94334291066102
30
0
41
1
10
-10.5689249705618
20
-5.03611365641081
30
0
41
1
10
-10.6135694470831
20
-5.06658050998942
30
0
41
1
10
-10.7033041255229
20
-5.1262941769383
30
0
41
1
10
-10.7484460371651
20
-5.15557803486215
30
0
41
1
10
-10.9755105570488
20
-5.29917424650947
30
0
41
1
10
-11.1614877435895
20
-5.40503944836129
30
0
41
1
10
-11.5418075549666
20
-5.59944607084668
30
0
41
1
10
-11.9304952583305
20
-5.77652393738069
30
0
41
1
10
-12.3358330572193
20
-5.9193062647613
30
0
41
1
10
-12.5944902635224
20
-5.99763500488751
30
0
41
1
10
-12.6465006823284
20
-6.01275565688368
30
0
41
1
10
-12.7505568730331
20
-6.04176095321793
30
0
41
1
10
-12.9068793539395
20
-6.08347114466181
30
0
41
1
10
-13.0639092621459
20
-6.11985234853935
30
0
41
1
10
-13.3788999335694
20
-6.18562537471328
30
0
41
1
10
-13.8013660213365
20
-6.25471573448982
30
0
41
1
10
-14.2287510066471
20
-6.28705443285702
30
0
41
1
10
-14.5511647728049
20
-6.29733269095115
30
0
41
1
10
-14.6589489955701
20
-6.29842568749291
30
0
41
1
10
-14.8211029615543
20
-6.2965055096202
30
0
41
1
10
-14.875233920426
20
-6.29527191363249
30
0
41
1
10
-14.9836568702168
20
-6.29160441950287
30
0
41
1
10
-15.0379567849357
20
-6.28916817398755
30
0
41
1
10
-15.3084918208501
20
-6.27404245388863
30
0
41
1
10
-15.7373760840781
20
-6.23098839657214
30
0
41
1
10
-16.1584914183471
20
-6.15107122839825
30
0
41
1
10
-16.5757056676582
20
-6.05265688836914
30
0
41
1
10
-16.7823625609795
20
-5.99420257299732
30
0
41
1
10
-17.0893298051161
20
-5.8922253830761
30
0
41
1
10
-17.1911483452332
20
-5.85584634942441
30
0
41
1
10
-17.3431002898168
20
-5.79760514749483
30
0
41
1
10
-17.3936857023474
20
-5.77755215252313
30
0
41
1
10
-17.4942077951299
20
-5.73636257832334
30
0
41
1
10
-17.5441454968067
20
-5.71522786403494
30
0
41
1
10
-17.7922267431611
20
-5.60686963019111
30
0
41
1
10
-17.9855596649833
20
-5.51161088869549
30
0
41
1
10
-18.3620229637573
20
-5.3040289508109
30
0
41
1
10
-18.5451538355531
20
-5.19170662187332
30
0
41
1
10
-18.8120277617516
20
-5.01012005360133
30
0
41
1
10
-18.8996797132134
20
-4.94740348819258
30
0
41
1
10
-19.0291549192911
20
-4.84997125366343
30
0
41
1
10
-19.0719793706082
20
-4.81693400133184
30
0
41
1
10
-19.1569510136826
20
-4.74972367237314
30
0
41
1
10
-19.1991361471285
20
-4.71551906421689
30
0
41
1
10
-19.2409013463647
20
-4.68080028297888
30
0
0
SPLINE
5
199
100
AcDbEntity
8
SK1
62
256
6
ByLayer
370
18
48
1
60
0
100
AcDbSpline
70
4
71
3
72
48
73
44
40
0
40
0
40
0
40
0
40
0.0078125000000032
40
0.0078125000000032
40
0.0156250000000064
40
0.0156250000000064
40
0.0234375000000096
40
0.0234375000000096
40
0.0273437500000108
40
0.0273437500000108
40
0.031250000000012
40
0.031250000000012
40
0.046875000000011
40
0.046875000000011
40
0.06250000000001
40
0.06250000000001
40
0.0781250000000091
40
0.0781250000000091
40
0.0937500000000081
40
0.0937500000000081
40
0.125000000000007
40
0.125000000000007
40
0.156250000000005
40
0.156250000000005
40
0.187500000000004
40
0.187500000000004
40
0.250000000000003
40
0.250000000000003
40
0.312500000000003
40
0.312500000000003
40
0.375000000000002
40
0.375000000000002
40
0.437500000000002
40
0.437500000000002
40
0.500000000000002
40
0.500000000000002
40
0.625000000000001
40
0.625000000000001
40
0.750000000000001
40
0.750000000000001
40
0.875000000000001
40
0.875000000000001
40
1
40
1
40
1
40
1
41
1
10
-40.216558266844
20
17.059223638729
30
0
41
1
10
-40.2255137164713
20
17.0414928213137
30
0
41
1
10
-40.2360232406994
20
17.024734639259
30
0
41
1
10
-40.2593029922573
20
16.9926331728007
30
0
41
1
10
-40.2720804381836
20
16.9772944062159
30
0
41
1
10
-40.2993863508484
20
16.9477127888347
30
0
41
1
10
-40.3139180690732
20
16.9334719730028
30
0
41
1
10
-40.3367709283963
20
16.9127712294338
30
0
41
1
10
-40.3445719684935
20
16.9059773658596
30
0
41
1
10
-40.3603555141485
20
16.8927024516855
30
0
41
1
10
-40.3683549864992
20
16.8862055661667
30
0
41
1
10
-40.4088261315397
20
16.8543395329437
30
0
41
1
10
-40.4426888294718
20
16.8307859893159
30
0
41
1
10
-40.5123481174603
20
16.7862031287604
30
0
41
1
10
-40.5481587326132
20
16.7651921171124
30
0
41
1
10
-40.6211874460021
20
16.7250072696351
30
0
41
1
10
-40.6584106043895
20
16.7058400382047
30
0
41
1
10
-40.7339380973458
20
16.6689168682472
30
0
41
1
10
-40.7722695231471
20
16.651155671117
30
0
41
1
10
-40.8877452477218
20
16.5999068760185
30
0
41
1
10
-40.965655850879
20
16.5682722372605
30
0
41
1
10
-41.1226933524388
20
16.5083250680503
30
0
41
1
10
-41.2018286497807
20
16.4800354743394
30
0
41
1
10
-41.3609886301097
20
16.4258856416439
30
0
41
1
10
-41.4410163846208
20
16.4000337907036
30
0
41
1
10
-41.6821282190399
20
16.3252879649916
30
0
41
1
10
-41.8442249466182
20
16.2791602328019
30
0
41
1
10
-42.1701904312219
20
16.1917461714862
30
0
41
1
10
-42.3340718337276
20
16.1504943758749
30
0
41
1
10
-42.6631293631878
20
16.071528736924
30
0
41
1
10
-42.8283060210512
20
16.033830314406
30
0
41
1
10
-43.1589860239044
20
15.9613013872945
30
0
41
1
10
-43.324590035516
20
15.9264524231626
30
0
41
1
10
-43.6562168288383
20
15.8589999841604
30
0
41
1
10
-43.8222401780398
20
15.8263995506818
30
0
41
1
10
-44.3208262630884
20
15.7313656079108
30
0
41
1
10
-44.6538993113537
20
15.6716687738745
30
0
41
1
10
-45.3210244711679
20
15.5575268786883
30
0
41
1
10
-45.6550802301057
20
15.5031013652068
30
0
41
1
10
-46.3239463383711
20
15.3982990923323
30
0
41
1
10
-46.65875825511
20
15.3479307332504
30
0
41
1
10
-47.3289877270329
20
15.2504444926014
30
0
41
1
10
-47.6644060538692
20
15.2033307465867
30
0
41
1
10
-48.0000748840305
20
15.1575618641653
30
0
0
SPLINE
5
19A
100
AcDbEntity
8
SK1
62
256
6
ByLayer
370
18
48
1
60
0
100
AcDbSpline
70
4
71
3
72
34
73
30
40
0
40
0
40
0
40
0
40
0.124999999999992
40
0.124999999999992
40
0.187499999999989
40
0.187499999999989
40
0.249999999999985
40
0.249999999999985
40
0.374999999999982
40
0.374999999999982
40
0.499999999999978
40
0.499999999999978
40
0.624999999999975
40
0.624999999999975
40
0.687499999999975
40
0.687499999999975
40
0.718749999999978
40
0.718749999999978
40
0.749999999999981
40
0.749999999999981
40
0.812499999999987
40
0.812499999999987
40
0.874999999999993
40
0.874999999999993
40
0.906249999999994
40
0.906249999999994
40
0.937499999999994
40
0.937499999999994
40
1
40
1
40
1
40
1
41
1
10
-36.7
20
19.5943714322653
30
0
41
1
10
-36.8711858974658
20
19.5187882816346
30
0
41
1
10
-37.0413761276148
20
19.4410544812258
30
0
41
1
10
-37.2948644625377
20
19.3205722232495
30
0
41
1
10
-37.3790601632171
20
19.2797625803873
30
0
41
1
10
-37.5467865215208
20
19.1967067960703
30
0
41
1
10
-37.6303668864447
20
19.1544341959407
30
0
41
1
10
-37.8793229252197
20
19.0255688660013
30
0
41
1
10
-38.0430828929572
20
18.936869767415
30
0
41
1
10
-38.3651311639746
20
18.7525689434652
30
0
41
1
10
-38.5234281179983
20
18.656978131208
30
0
41
1
10
-38.8330297808163
20
18.4569756333508
30
0
41
1
10
-38.9843528118257
20
18.3525870616341
30
0
41
1
10
-39.204310734814
20
18.1871399617284
30
0
41
1
10
-39.2764508160516
20
18.1305033079847
30
0
41
1
10
-39.3825571315545
20
18.0428943287214
30
0
41
1
10
-39.4175205711071
20
18.0132908248446
30
0
41
1
10
-39.4864156420775
20
17.9533489086636
30
0
41
1
10
-39.5203702139022
20
17.922991733576
30
0
41
1
10
-39.6206319685333
20
17.8306651370866
30
0
41
1
10
-39.6853447054721
20
17.7674465321357
30
0
41
1
10
-39.8097036218329
20
17.6370398802925
30
0
41
1
10
-39.8693539749137
20
17.5698551032924
30
0
41
1
10
-39.954209950325
20
17.4654587047784
30
0
41
1
10
-39.9817772423315
20
17.4299762589511
30
0
41
1
10
-40.0347710714733
20
17.3582459732121
30
0
41
1
10
-40.0602303319981
20
17.3219648769856
30
0
41
1
10
-40.1332638811575
20
17.211781021376
30
0
41
1
10
-40.1775061488117
20
17.1365425901306
30
0
41
1
10
-40.2165582668442
20
17.059223638729
30
0
0
SPLINE
5
19B
100
AcDbEntity
8
SK1
62
256
6
ByLayer
370
18
48
1
60
0
100
AcDbSpline
70
4
71
3
72
48
73
44
40
0
40
0
40
0
40
0
40
0.0156249999999946
40
0.0156249999999946
40
0.0234374999999954
40
0.0234374999999954
40
0.0312499999999962
40
0.0312499999999962
40
0.0468749999999978
40
0.0468749999999978
40
0.0624999999999994
40
0.0624999999999994
40
0.0781250000000009
40
0.0781250000000009
40
0.0937500000000025
40
0.0937500000000025
40
0.109375000000004
40
0.109375000000004
40
0.125000000000006
40
0.125000000000006
40
0.156250000000009
40
0.156250000000009
40
0.187500000000012
40
0.187500000000012
40
0.218750000000015
40
0.218750000000015
40
0.250000000000018
40
0.250000000000018
40
0.312500000000019
40
0.312500000000019
40
0.37500000000002
40
0.37500000000002
40
0.50000000000002
40
0.50000000000002
40
0.625000000000019
40
0.625000000000019
40
0.687500000000017
40
0.687500000000017
40
0.750000000000015
40
0.750000000000015
40
0.875000000000007
40
0.875000000000007
40
1
40
1
40
1
40
1
41
1
10
-36.7
20
19.5943714322652
30
0
41
1
10
-36.6847064927801
20
19.6011239245966
30
0
41
1
10
-36.6689495589213
20
19.606533956745
30
0
41
1
10
-36.6444816853446
20
19.6122393245812
30
0
41
1
10
-36.636186502305
20
19.6137381067647
30
0
41
1
10
-36.6192872519424
20
19.6158417285694
30
0
41
1
10
-36.6107241786977
20
19.6164323671957
30
0
41
1
10
-36.5853785832221
20
19.6167731453971
30
0
41
1
10
-36.56862444355
20
19.6151195095693
30
0
41
1
10
-36.5357346965959
20
19.6083384547155
30
0
41
1
10
-36.5201531284729
20
19.6033537549418
30
0
41
1
10
-36.4903068788372
20
19.5909492448109
30
0
41
1
10
-36.4759522241272
20
19.5834551771552
30
0
41
1
10
-36.4490415344061
20
19.5669979824134
30
0
41
1
10
-36.4363973306272
20
19.5580145214643
30
0
41
1
10
-36.4123113260057
20
19.5389249920634
30
0
41
1
10
-36.4008730260034
20
19.5288156830339
30
0
41
1
10
-36.378944237093
20
19.5077087553173
30
0
41
1
10
-36.3684967164129
20
19.4967450442026
30
0
41
1
10
-36.338702963933
20
19.4632611899644
30
0
41
1
10
-36.3207126617917
20
19.4399996960829
30
0
41
1
10
-36.2871772481909
20
19.3922323109071
30
0
41
1
10
-36.2716508048236
20
19.3677172795265
30
0
41
1
10
-36.2424002313829
20
19.3177553300495
30
0
41
1
10
-36.2286825801916
20
19.2923052426748
30
0
41
1
10
-36.202653893522
20
19.2406650245474
30
0
41
1
10
-36.1903507192283
20
19.2144764267392
30
0
41
1
10
-36.1554101577732
20
19.135614879108
30
0
41
1
10
-36.1345924600216
20
19.0824192067565
30
0
41
1
10
-36.0963204719529
20
18.9751216696352
30
0
41
1
10
-36.0788871273222
20
18.9210153343339
30
0
41
1
10
-36.0304065848838
20
18.7575951619308
30
0
41
1
10
-36.0031175776361
20
18.6471931439649
30
0
41
1
10
-35.9551394416825
20
18.4242023644288
30
0
41
1
10
-35.9345079681282
20
18.3116013530288
30
0
41
1
10
-35.9073321932439
20
18.1413017298616
30
0
41
1
10
-35.898907403912
20
18.0842741447289
30
0
41
1
10
-35.8832202583696
20
17.969946122596
30
0
41
1
10
-35.8759565129337
20
17.9126393974611
30
0
41
1
10
-35.8557366578801
20
17.7403057928126
30
0
41
1
10
-35.8443429695231
20
17.6248663053036
30
0
41
1
10
-35.8251190973012
20
17.3929387252693
30
0
41
1
10
-35.8172926438243
20
17.2764502997123
30
0
41
1
10
-35.8110727855048
20
17.159451795297
30
0
0
SPLINE
5
19C
100
AcDbEntity
8
SK1
62
256
6
ByLayer
370
18
48
1
60
0
100
AcDbSpline
70
4
71
3
72
35
73
31
40
0
40
0
40
0
40
0
40
0.0312500000000014
40
0.0312500000000014
40
0.0625000000000028
40
0.0625000000000028
40
0.125000000000002
40
0.125000000000002
40
0.187500000000002
40
0.250000000000001
40
0.250000000000001
40
0.312500000000001
40
0.312500000000001
40
0.375
40
0.375
40
0.4375
40
0.4375
40
0.499999999999999
40
0.499999999999999
40
0.625
40
0.625
40
0.75
40
0.75
40
0.875
40
0.875
40
0.937499999999999
40
0.937499999999999
40
0.96875
40
0.96875
40
1
40
1
40
1
40
1
41
1
10
-35.8110727855048
20
17.1594517952971
30
0
41
1
10
-35.8087298228675
20
17.1153795495348
30
0
41
1
10
-35.8050508230864
20
17.0710748782621
30
0
41
1
10
-35.7952802677078
20
16.9831258265325
30
0
41
1
10
-35.7891941023362
20
16.939414349657
30
0
41
1
10
-35.7677724345513
20
16.8089604777204
30
0
41
1
10
-35.7492796314845
20
16.7228974439837
30
0
41
1
10
-35.7063448295786
20
16.5519632356002
30
0
41
1
10
-35.6574841798203
20
16.3822146941405
30
0
41
1
10
-35.6011189614965
20
16.2137335629906
30
0
41
1
10
-35.5427113205105
20
16.0454473330699
30
0
41
1
10
-35.5124828131835
20
15.9614025510421
30
0
41
1
10
-35.451273417161
20
15.793173337961
30
0
41
1
10
-35.4202890471679
20
15.7089897726496
30
0
41
1
10
-35.3585507750323
20
15.5402247287571
30
0
41
1
10
-35.3277941195328
20
15.4556439431823
30
0
41
1
10
-35.2672824740689
20
15.285878630315
30
0
41
1
10
-35.2375212676654
20
15.2006809286597
30
0
41
1
10
-35.1507682862352
20
14.9441756141248
30
0
41
1
10
-35.0963122006996
20
14.771892362452
30
0
41
1
10
-34.9982266523963
20
14.423908822598
30
0
41
1
10
-34.954568412715
20
14.2482143036154
30
0
41
1
10
-34.8815423282893
20
13.8926526826871
30
0
41
1
10
-34.8521479202448
20
13.7127911134685
30
0
41
1
10
-34.8215668767947
20
13.4392473053495
30
0
41
1
10
-34.8136291543811
20
13.3474397649972
30
0
41
1
10
-34.8055331814597
20
13.2086935714257
30
0
41
1
10
-34.8034705654414
20
13.1622349451048
30
0
41
1
10
-34.8007057879732
20
13.0693817557498
30
0
41
1
10
-34.8
20
13.0229430006227
30
0
41
1
10
-34.8
20
12.9764932793006
30
0
0
SPLINE
5
19D
100
AcDbEntity
8
SK1
62
256
6
ByLayer
370
18
48
1
60
0
100
AcDbSpline
70
4
71
3
72
35
73
31
40
0
40
0
40
0
40
0
40
0.125
40
0.125
40
0.15625
40
0.15625
40
0.187500000000001
40
0.187500000000001
40
0.250000000000003
40
0.375000000000005
40
0.375000000000005
40
0.500000000000006
40
0.500000000000006
40
0.625000000000008
40
0.625000000000008
40
0.687500000000007
40
0.687500000000007
40
0.750000000000006
40
0.750000000000006
40
0.812500000000004
40
0.812500000000004
40
0.875000000000003
40
0.875000000000003
40
0.937500000000002
40
0.937500000000002
40
0.968750000000001
40
0.968750000000001
40
0.984375000000001
40
0.984375000000001
40
1
40
1
40
1
40
1
41
1
10
-34.8
20
-12.9764932793005
30
0
41
1
10
-34.8
20
-13.1609211825781
30
0
41
1
10
-34.8110844849141
20
-13.344587571555
30
0
41
1
10
-34.83652436556
20
-13.5732554377875
30
0
41
1
10
-34.8421937565924
20
-13.6189432153546
30
0
41
1
10
-34.8546454515358
20
-13.710227972021
30
0
41
1
10
-34.8614337316711
20
-13.7558569499626
30
0
41
1
10
-34.8833094694193
20
-13.8921076189759
30
0
41
1
10
-34.9331485974905
20
-14.1624951870839
30
0
41
1
10
-34.9990633535392
20
-14.4271685375036
30
0
41
1
10
-35.0975593205889
20
-14.7760192988219
30
0
41
1
10
-35.1521415893961
20
-14.9484135341417
30
0
41
1
10
-35.2678766595549
20
-15.2902518874284
30
0
41
1
10
-35.3290769203068
20
-15.4596840930397
30
0
41
1
10
-35.4216546020565
20
-15.7127082175167
30
0
41
1
10
-35.4526298915758
20
-15.7968724231108
30
0
41
1
10
-35.5138018406873
20
-15.9650581671915
30
0
41
1
10
-35.5439986808527
20
-16.0490705034046
30
0
41
1
10
-35.6023033421074
20
-16.2172357800163
30
0
41
1
10
-35.6304140244393
20
-16.3013881146026
30
0
41
1
10
-35.6828368430513
20
-16.470222640282
30
0
41
1
10
-35.7071477628823
20
-16.5549051807191
30
0
41
1
10
-35.7498136477076
20
-16.7252863215812
30
0
41
1
10
-35.7681560611459
20
-16.8109878632258
30
0
41
1
10
-35.7893804543945
20
-16.940707767269
30
0
41
1
10
-35.7954060923489
20
-16.9841424836669
30
0
41
1
10
-35.8026621054137
20
-17.0496323658143
30
0
41
1
10
-35.8047839611487
20
-17.0715185641744
30
0
41
1
10
-35.8084037182345
20
-17.1154099796996
30
0
41
1
10
-35.8099029406847
20
-17.1374464557325
30
0
41
1
10
-35.8110727855048
20
-17.1594517952971
30
0
0
SPLINE
5
19E
100
AcDbEntity
8
SK1
62
256
6
ByLayer
370
18
48
1
60
0
100
AcDbSpline
70
4
71
3
72
53
73
49
40
0
40
0
40
0
40
0
40
0.125000000000004
40
0.125000000000004
40
0.250000000000008
40
0.250000000000008
40
0.375000000000013
40
0.375000000000013
40
0.500000000000019
40
0.500000000000019
40
0.562500000000022
40
0.562500000000022
40
0.625000000000026
40
0.625000000000026
40
0.68750000000003
40
0.68750000000003
40
0.750000000000033
40
0.750000000000033
40
0.781250000000034
40
0.781250000000034
40
0.812500000000036
40
0.812500000000036
40
0.843750000000037
40
0.843750000000037
40
0.859375000000034
40
0.859375000000034
40
0.875000000000031
40
0.875000000000031
40
0.890625000000028
40
0.890625000000028
40
0.906250000000025
40
0.906250000000025
40
0.921875000000022
40
0.921875000000022
40
0.92968750000002
40
0.92968750000002
40
0.937500000000018
40
0.937500000000018
40
0.953125000000014
40
0.953125000000014
40
0.960937500000011
40
0.960937500000011
40
0.968750000000009
40
0.976562500000007
40
0.976562500000007
40
0.984375000000004
40
0.984375000000004
40
1
40
1
40
1
40
1
41
1
10
-35.8110727855048
20
-17.1594517952971
30
0
41
1
10
-35.8173005718243
20
-17.2765994291774
30
0
41
1
10
-35.825139333155
20
-17.3932417035646
30
0
41
1
10
-35.8443993203418
20
-17.6254870770945
30
0
41
1
10
-35.8558167689226
20
-17.7410905024587
30
0
41
1
10
-35.8828403885793
20
-17.9712078217972
30
0
41
1
10
-35.8984464229313
20
-18.0857589250384
30
0
41
1
10
-35.9347884209076
20
-18.3132163356987
30
0
41
1
10
-35.9555086472984
20
-18.4261731973903
30
0
41
1
10
-35.9917551203116
20
-18.5942514027903
30
0
41
1
10
-36.0047084558934
20
-18.6500570529712
30
0
41
1
10
-36.0326760610089
20
-18.7609702262327
30
0
41
1
10
-36.0476910808067
20
-18.8160993765061
30
0
41
1
10
-36.0803203098191
20
-18.9255857512127
30
0
41
1
10
-36.0979425275279
20
-18.9799857663467
30
0
41
1
10
-36.136551205324
20
-19.0875632484609
30
0
41
1
10
-36.1575177703235
20
-19.1407503058783
30
0
41
1
10
-36.1925812950234
20
-19.2192937005193
30
0
41
1
10
-36.2048761480011
20
-19.245258554406
30
0
41
1
10
-36.2308938648005
20
-19.2964733063758
30
0
41
1
10
-36.2446230972401
20
-19.3217464996537
30
0
41
1
10
-36.2739616396511
20
-19.3714373959701
30
0
41
1
10
-36.2895633172475
20
-19.3958583754683
30
0
41
1
10
-36.3149245584605
20
-19.4316139538516
30
0
41
1
10
-36.323718300906
20
-19.4433966696792
30
0
41
1
10
-36.341989197859
20
-19.466452828411
30
0
41
1
10
-36.3514761631869
20
-19.4777427443063
30
0
41
1
10
-36.3713127063351
20
-19.4997414149291
30
0
41
1
10
-36.381660891984
20
-19.5104510893953
30
0
41
1
10
-36.4034528444504
20
-19.5311360208259
30
0
41
1
10
-36.4149474186246
20
-19.5411510547851
30
0
41
1
10
-36.4390421564696
20
-19.5599401940587
30
0
41
1
10
-36.4516463462974
20
-19.5687308429457
30
0
41
1
10
-36.4716485432495
20
-19.5807317589921
30
0
41
1
10
-36.4784997337055
20
-19.5845333301214
30
0
41
1
10
-36.4926332331548
20
-19.5916708709687
30
0
41
1
10
-36.4999475073115
20
-19.5950179575938
30
0
41
1
10
-36.5222662200835
20
-19.6040766012892
30
0
41
1
10
-36.5377125572612
20
-19.6088605110842
30
0
41
1
10
-36.5619497504943
20
-19.6136767513147
30
0
41
1
10
-36.5702587433574
20
-19.6148864880771
30
0
41
1
10
-36.5868023437412
20
-19.6163810659065
30
0
41
1
10
-36.6033560176342
20
-19.6169776785555
30
0
41
1
10
-36.6199298526304
20
-19.6157787597959
30
0
41
1
10
-36.6365137924802
20
-19.6136793178333
30
0
41
1
10
-36.644854239226
20
-19.6121646911544
30
0
41
1
10
-36.669259423473
20
-19.6064364162933
30
0
41
1
10
-36.6848894080014
20
-19.6010431626359
30
0
41
1
10
-36.7
20
-19.5943714322652
30
0
0
SPLINE
5
19F
100
AcDbEntity
8
SK1
62
256
6
ByLayer
370
18
48
1
60
0
100
AcDbSpline
70
4
71
3
72
35
73
31
40
0
40
0
40
0
40
0
40
0.0156250000000018
40
0.0156250000000018
40
0.0312500000000037
40
0.0625000000000052
40
0.0625000000000052
40
0.125000000000012
40
0.125000000000012
40
0.18750000000002
40
0.18750000000002
40
0.218750000000022
40
0.218750000000022
40
0.250000000000024
40
0.250000000000024
40
0.312500000000023
40
0.312500000000023
40
0.375000000000023
40
0.375000000000023
40
0.50000000000002
40
0.50000000000002
40
0.625000000000016
40
0.625000000000016
40
0.750000000000012
40
0.750000000000012
40
0.81250000000001
40
0.81250000000001
40
0.875000000000008
40
0.875000000000008
40
1
40
1
40
1
40
1
41
1
10
-40.216558266844
20
-17.059223638729
30
0
41
1
10
-40.2065692011606
20
-17.0790009036519
30
0
41
1
10
-40.1962222733362
20
-17.0986727913565
30
0
41
1
10
-40.1749656596159
20
-17.13758981772
30
0
41
1
10
-40.1421891356425
20
-17.1954195519503
30
0
41
1
10
-40.1068855011004
20
-17.2517022862578
30
0
41
1
10
-40.0332442316912
20
-17.3624104565309
30
0
41
1
10
-39.9801176088882
20
-17.4337473967018
30
0
41
1
10
-39.8671970251932
20
-17.5723397890246
30
0
41
1
10
-39.8073980790514
20
-17.6395921893982
30
0
41
1
10
-39.7134700363204
20
-17.7378815770696
30
0
41
1
10
-39.6814534173342
20
-17.7702117419313
30
0
41
1
10
-39.6161114471282
20
-17.8340709161019
30
0
41
1
10
-39.5829412083925
20
-17.8654484067428
30
0
41
1
10
-39.4821531424353
20
-17.9580170166508
30
0
41
1
10
-39.4132293260862
20
-18.0176840834333
30
0
41
1
10
-39.2725141740843
20
-18.1336314835565
30
0
41
1
10
-39.2007207380452
20
-18.1899093361997
30
0
41
1
10
-38.9816980608985
20
-18.3544410109707
30
0
41
1
10
-38.8308583734475
20
-18.4584306527827
30
0
41
1
10
-38.5219544223898
20
-18.6578772253498
30
0
41
1
10
-38.3638725953149
20
-18.753313412466
30
0
41
1
10
-38.0420125158101
20
-18.9374579246669
30
0
41
1
10
-37.8782258183423
20
-19.0261562755932
30
0
41
1
10
-37.6290682003931
20
-19.1550965555141
30
0
41
1
10
-37.5455171787283
20
-19.197343733049
30
0
41
1
10
-37.3779261719413
20
-19.2803156203691
30
0
41
1
10
-37.2938219149035
20
-19.3210735147716
30
0
41
1
10
-37.0406735250402
20
-19.4413767868714
30
0
41
1
10
-36.8707972245172
20
-19.5189598911331
30
0
41
1
10
-36.7
20
-19.5943714322652
30
0
0
SPLINE
5
1A0
100
AcDbEntity
8
SK1
62
256
6
ByLayer
370
18
48
1
60
0
100
AcDbSpline
70
4
71
3
72
50
73
46
40
0
40
0
40
0
40
0
40
0.125000000000001
40
0.125000000000001
40
0.250000000000001
40
0.250000000000001
40
0.375000000000002
40
0.375000000000002
40
0.500000000000003
40
0.500000000000003
40
0.562500000000003
40
0.562500000000003
40
0.625000000000003
40
0.625000000000003
40
0.687500000000004
40
0.687500000000004
40
0.750000000000004
40
0.750000000000004
40
0.812500000000004
40
0.812500000000004
40
0.843750000000006
40
0.843750000000006
40
0.859375000000005
40
0.859375000000005
40
0.875000000000004
40
0.875000000000004
40
0.906250000000003
40
0.906250000000003
40
0.921875000000003
40
0.921875000000003
40
0.937500000000002
40
0.937500000000002
40
0.953125000000001
40
0.953125000000001
40
0.960937500000001
40
0.960937500000001
40
0.96875
40
0.96875
40
0.984375
40
0.984375
40
0.98828125
40
0.98828125
40
0.9921875
40
0.9921875
40
1
40
1
40
1
40
1
41
1
10
-48.0000748840304
20
-15.1575618641633
30
0
41
1
10
-47.6642819462845
20
-15.2033476688156
30
0
41
1
10
-47.3287067417301
20
-15.2504837651172
30
0
41
1
10
-46.658084439127
20
-15.3480303408005
30
0
41
1
10
-46.3230366620363
20
-15.3984366142565
30
0
41
1
10
-45.6536007422565
20
-15.503338210916
30
0
41
1
10
-45.3192112160959
20
-15.5578249650152
30
0
41
1
10
-44.6512919303171
20
-15.6721271177432
30
0
41
1
10
-44.3178713922416
20
-15.7319042753068
30
0
41
1
10
-43.8189238511906
20
-15.8270441188289
30
0
41
1
10
-43.6528043821069
20
-15.859677792755
30
0
41
1
10
-43.3210445239052
20
-15.9271901987712
30
0
41
1
10
-43.1553904474269
20
-15.9620688034591
30
0
41
1
10
-42.8247399939426
20
-16.0346341361586
30
0
41
1
10
-42.6598063089127
20
-16.0723009509185
30
0
41
1
10
-42.3309661740188
20
-16.1512653917218
30
0
41
1
10
-42.167055921612
20
-16.1925495843737
30
0
41
1
10
-41.8406604433061
20
-16.2801540624899
30
0
41
1
10
-41.6781419423617
20
-16.3264497174497
30
0
41
1
10
-41.4366019162269
20
-16.4014407944629
30
0
41
1
10
-41.3564460542775
20
-16.4273783750259
30
0
41
1
10
-41.2369128073697
20
-16.4681278019347
30
0
41
1
10
-41.1971858319494
20
-16.4820199155495
30
0
41
1
10
-41.1180057891183
20
-16.5105247392268
30
0
41
1
10
-41.0785339968349
20
-16.5251446306655
30
0
41
1
10
-40.960890515566
20
-16.5701742819971
30
0
41
1
10
-40.883401634676
20
-16.6017471334622
30
0
41
1
10
-40.7692487389967
20
-16.6525430932039
30
0
41
1
10
-40.7315481294284
20
-16.6700538360687
30
0
41
1
10
-40.657036519262
20
-16.7065448318753
30
0
41
1
10
-40.6202234363673
20
-16.7255216455051
30
0
41
1
10
-40.5477745402602
20
-16.7654199060491
30
0
41
1
10
-40.512133755177
20
-16.7863331409556
30
0
41
1
10
-40.4599191173502
20
-16.8197619998578
30
0
41
1
10
-40.4427238819597
20
-16.8312512377387
30
0
41
1
10
-40.4088519295578
20
-16.8550861812403
30
0
41
1
10
-40.3921720571703
20
-16.8674388738235
30
0
41
1
10
-40.3437315108906
20
-16.9056214367524
30
0
41
1
10
-40.313317939617
20
-16.9326542600772
30
0
41
1
10
-40.2791250486902
20
-16.9696543355769
30
0
41
1
10
-40.2724825605883
20
-16.9772189034225
30
0
41
1
10
-40.2596525181839
20
-16.9927298038496
30
0
41
1
10
-40.2534665699685
20
-17.000677729169
30
0
41
1
10
-40.2358953697256
20
-17.0249180975753
30
0
41
1
10
-40.225419582572
20
-17.0416791962087
30
0
41
1
10
-40.2165582668441
20
-17.059223638729
30
0
0
LINE
5
85
100
AcDbEntity
8
4
62
256
6
ByLayer
370
18
48
0.05
60
0
100
AcDbLine
10
0
20
0
30
0
11
55
21
0
31
0
39
0
210
0
220
0
230
1
0
LINE
5
87
100
AcDbEntity
8
81
62
256
6
ByLayer
370
18
48
1
60
0
100
AcDbLine
10
55
20
0
30
0
11
60
21
0
31
0
39
0
210
0
220
0
230
1
0
LINE
5
88
100
AcDbEntity
8
80
62
256
6
ByLayer
370
18
48
1
60
0
100
AcDbLine
10
0
20
0
30
0
11
-5
21
0
31
0
39
0
210
0
220
0
230
1
0
LINE
5
89
100
AcDbEntity
8
1
62
256
6
ByLayer
370
18
48
1
60
0
100
AcDbLine
10
21.525
20
45.975
30
0
11
18.475
21
45.975
31
0
39
0
210
0
220
0
230
1
0
LINE
5
8A
100
AcDbEntity
8
1
62
256
6
ByLayer
370
18
48
1
60
0
100
AcDbLine
10
45.999882
20
38.875
30
0
11
30.15
21
38.875
31
0
39
0
210
0
220
0
230
1
0
LINE
5
8B
100
AcDbEntity
8
1
62
256
6
ByLayer
370
18
48
1
60
0
100
AcDbLine
10
30.15
20
-38.875
30
0
11
45.999882
21
-38.875
31
0
39
0
210
0
220
0
230
1
0
LINE
5
8C
100
AcDbEntity
8
1
62
256
6
ByLayer
370
18
48
1
60
0
100
AcDbLine
10
18.475
20
-45.975
30
0
11
21.525
21
-45.975
31
0
39
0
210
0
220
0
230
1
0
LINE
5
8D
100
AcDbEntity
8
1
62
256
6
ByLayer
370
18
48
1
60
0
100
AcDbLine
10
28.95
20
49.265
30
0
11
28.25
21
49.965
31
0
39
0
210
0
220
0
230
1
0
LINE
5
8E
100
AcDbEntity
8
1
62
256
6
ByLayer
370
18
48
1
60
0
100
AcDbLine
10
16.758178
20
-49.965
30
0
11
18.075
21
-47.684198
31
0
39
0
210
0
220
0
230
1
0
LINE
5
8F
100
AcDbEntity
8
1
62
256
6
ByLayer
370
18
48
1
60
0
100
AcDbLine
10
28.25
20
-49.965
30
0
11
28.95
21
-49.265
31
0
39
0
210
0
220
0
230
1
0
LINE
5
90
100
AcDbEntity
8
1
62
256
6
ByLayer
370
18
48
1
60
0
100
AcDbLine
10
23.241822
20
49.965
30
0
11
21.925
21
47.684198
31
0
39
0
210
0
220
0
230
1
0
LINE
5
91
100
AcDbEntity
8
1
62
256
6
ByLayer
370
18
48
1
60
0
100
AcDbLine
10
28.25
20
49.965
30
0
11
23.241822
21
49.965
31
0
39
0
210
0
220
0
230
1
0
LINE
5
92
100
AcDbEntity
8
1
62
256
6
ByLayer
370
18
48
1
60
0
100
AcDbLine
10
18.075
20
47.684198
30
0
11
16.758178
21
49.965
31
0
39
0
210
0
220
0
230
1
0
LINE
5
93
100
AcDbEntity
8
1
62
256
6
ByLayer
370
18
48
1
60
0
100
AcDbLine
10
21.925
20
-47.684198
30
0
11
23.241822
21
-49.965
31
0
39
0
210
0
220
0
230
1
0
LINE
5
94
100
AcDbEntity
8
1
62
256
6
ByLayer
370
18
48
1
60
0
100
AcDbLine
10
23.241822
20
-49.965
30
0
11
28.25
21
-49.965
31
0
39
0
210
0
220
0
230
1
0
LINE
5
95
100
AcDbEntity
8
1
62
256
6
ByLayer
370
18
48
1
60
0
100
AcDbLine
10
16.758178
20
49.965
30
0
11
0.7
21
49.965
31
0
39
0
210
0
220
0
230
1
0
LINE
5
96
100
AcDbEntity
8
1
62
256
6
ByLayer
370
18
48
1
60
0
100
AcDbLine
10
0.7
20
-49.965
30
0
11
1.992886
21
-49.965
31
0
39
0
210
0
220
0
230
1
0
LINE
5
97
100
AcDbEntity
8
1
62
256
6
ByLayer
370
18
48
1
60
0
100
AcDbLine
10
12.0225
20
-49.965
30
0
11
16.758178
21
-49.965
31
0
39
0
210
0
220
0
230
1
0
LINE
5
98
100
AcDbEntity
8
1
62
256
6
ByLayer
370
18
48
1
60
0
100
AcDbLine
10
0
20
-49.265
30
0
11
0.7
21
-49.965
31
0
39
0
210
0
220
0
230
1
0
LINE
5
99
100
AcDbEntity
8
1
62
256
6
ByLayer
370
18
48
1
60
0
100
AcDbLine
10
0.7
20
49.965
30
0
11
0
21
49.265
31
0
39
0
210
0
220
0
230
1
0
LINE
5
9A
100
AcDbEntity
8
1
62
256
6
ByLayer
370
18
48
1
60
0
100
AcDbLine
10
57
20
-47.078096
30
0
11
65.335682
21
-47.078096
31
0
39
0
210
0
220
0
230
1
0
LINE
5
9B
100
AcDbEntity
8
1
62
256
6
ByLayer
370
18
48
1
60
0
100
AcDbLine
10
65.335571
20
47.078096
30
0
11
57
21
47.078096
31
0
39
0
210
0
220
0
230
1
0
LINE
5
9C
100
AcDbEntity
8
1
62
256
6
ByLayer
370
18
48
1
60
0
100
AcDbLine
10
65.402978
20
19.260122
30
0
11
57
21
19.260122
31
0
39
0
210
0
220
0
230
1
0
LINE
5
9D
100
AcDbEntity
8
1
62
256
6
ByLayer
370
18
48
1
60
0
100
AcDbLine
10
57
20
-19.260122
30
0
11
65.402876
21
-19.260122
31
0
39
0
210
0
220
0
230
1
0
LINE
5
9E
100
AcDbEntity
8
1
62
256
6
ByLayer
370
18
48
1
60
0
100
AcDbLine
10
69
20
41
30
0
11
67.410143
21
43.753712
31
0
39
0
210
0
220
0
230
1
0
LINE
5
9F
100
AcDbEntity
8
1
62
256
6
ByLayer
370
18
48
1
60
0
100
AcDbLine
10
67.410117
20
-43.753758
30
0
11
69
21
-41
31
0
39
0
210
0
220
0
230
1
0
LINE
5
A0
100
AcDbEntity
8
1
62
256
6
ByLayer
370
18
48
1
60
0
100
AcDbLine
10
46
20
-46.35
30
0
11
47
21
-47.35
31
0
39
0
210
0
220
0
230
1
0
LINE
5
A1
100
AcDbEntity
8
1
62
256
6
ByLayer
370
18
48
1
60
0
100
AcDbLine
10
47
20
47.35
30
0
11
46
21
46.35
31
0
39
0
210
0
220
0
230
1
0
LINE
5
A2
100
AcDbEntity
8
1
62
256
6
ByLayer
370
18
48
1
60
0
100
AcDbLine
10
51.877006
20
47.35
30
0
11
47
21
47.35
31
0
39
0
210
0
220
0
230
1
0
LINE
5
A3
100
AcDbEntity
8
1
62
256
6
ByLayer
370
18
48
1
60
0
100
AcDbLine
10
47
20
-47.35
30
0
11
51.877006
21
-47.35
31
0
39
0
210
0
220
0
230
1
0
LINE
5
A4
100
AcDbEntity
8
SK1
62
256
6
ByLayer
370
18
48
1
60
0
100
AcDbLine
10
-0.8
20
37.632252
30
0
11
-2.066987
21
37.632252
31
0
39
0
210
0
220
0
230
1
0
LINE
5
A6
100
AcDbEntity
8
SK1
62
256
6
ByLayer
370
18
48
1
60
0
100
AcDbLine
10
-2.066987
20
-37.632252
30
0
11
-0.8
21
-37.632252
31
0
39
0
210
0
220
0
230
1
0
LINE
5
A7
100
AcDbEntity
8
SK1
62
256
6
ByLayer
370
18
48
1
60
0
100
AcDbLine
10
-2.066987
20
37.632252
30
0
11
-2.5
21
37.882252
31
0
39
0
210
0
220
0
230
1
0
LINE
5
A8
100
AcDbEntity
8
SK1
62
256
6
ByLayer
370
18
48
1
60
0
100
AcDbLine
10
-2.5
20
-37.882252
30
0
11
-2.066987
21
-37.632252
31
0
39
0
210
0
220
0
230
1
0
LINE
5
A9
100
AcDbEntity
8
SK1
62
256
6
ByLayer
370
18
48
1
60
0
100
AcDbLine
10
-48.000075
20
-35.602689
30
0
11
-2.5
21
-37.882252
31
0
39
0
210
0
220
0
230
1
0
LINE
5
AA
100
AcDbEntity
8
SK1
62
256
6
ByLayer
370
18
48
1
60
0
100
AcDbLine
10
-2.5
20
37.882252
30
0
11
-48.000075
21
35.602689
31
0
39
0
210
0
220
0
230
1
0
LINE
5
AB
100
AcDbEntity
8
1
62
256
6
ByLayer
370
13
48
1
60
0
100
AcDbLine
10
30.15
20
38.875
30
0
11
30.15
21
-38.875
31
0
39
0
210
0
220
0
230
1
0
LINE
5
AC
100
AcDbEntity
8
1
62
256
6
ByLayer
370
18
48
1
60
0
100
AcDbLine
10
28.95
20
-11.021
30
0
11
28.95
21
11.021
31
0
39
0
210
0
220
0
230
1
0
LINE
5
AD
100
AcDbEntity
8
1
62
256
6
ByLayer
370
18
48
1
60
0
100
AcDbLine
10
21.525
20
11.021
30
0
11
18.475
21
11.021
31
0
39
0
210
0
220
0
230
1
0
LINE
5
AE
100
AcDbEntity
8
1
62
256
6
ByLayer
370
18
48
1
60
0
100
AcDbLine
10
18.475
20
-11.021
30
0
11
21.525
21
-11.021
31
0
39
0
210
0
220
0
230
1
0
LINE
5
AF
100
AcDbEntity
8
1
62
256
6
ByLayer
370
13
48
1
60
0
100
AcDbLine
10
18.475
20
45.119582
30
0
11
18.475
21
11.021
31
0
39
0
210
0
220
0
230
1
0
LINE
5
B0
100
AcDbEntity
8
1
62
256
6
ByLayer
370
13
48
1
60
0
100
AcDbLine
10
18.475
20
45.417706
30
0
11
18.475
21
45.975
31
0
39
0
210
0
220
0
230
1
0
LINE
5
B1
100
AcDbEntity
8
1
62
256
6
ByLayer
370
13
48
1
60
0
100
AcDbLine
10
21.525
20
-45.975
30
0
11
21.525
21
-11.021
31
0
39
0
210
0
220
0
230
1
0
LINE
5
B2
100
AcDbEntity
8
1
62
256
6
ByLayer
370
13
48
1
60
0
100
AcDbLine
10
18.475
20
-45.975
30
0
11
18.475
21
-11.021
31
0
39
0
210
0
220
0
230
1
0
LINE
5
B3
100
AcDbEntity
8
1
62
256
6
ByLayer
370
13
48
1
60
0
100
AcDbLine
10
21.525
20
45.417706
30
0
11
21.525
21
45.975
31
0
39
0
210
0
220
0
230
1
0
LINE
5
B4
100
AcDbEntity
8
1
62
256
6
ByLayer
370
13
48
1
60
0
100
AcDbLine
10
21.525
20
45.119582
30
0
11
21.525
21
11.021
31
0
39
0
210
0
220
0
230
1
0
LINE
5
B5
100
AcDbEntity
8
1
62
256
6
ByLayer
370
18
48
1
60
0
100
AcDbLine
10
28.95
20
49.265
30
0
11
28.95
21
11.021
31
0
39
0
210
0
220
0
230
1
0
LINE
5
B6
100
AcDbEntity
8
1
62
256
6
ByLayer
370
18
48
1
60
0
100
AcDbLine
10
18.075
20
-47.684198
30
0
11
18.075
21
-11.021
31
0
39
0
210
0
220
0
230
1
0
LINE
5
B7
100
AcDbEntity
8
1
62
256
6
ByLayer
370
18
48
1
60
0
100
AcDbLine
10
28.95
20
-49.265
30
0
11
28.95
21
-11.021
31
0
39
0
210
0
220
0
230
1
0
LINE
5
B8
100
AcDbEntity
8
1
62
256
6
ByLayer
370
18
48
1
60
0
100
AcDbLine
10
21.925
20
47.684198
30
0
11
21.925
21
11.021
31
0
39
0
210
0
220
0
230
1
0
LINE
5
B9
100
AcDbEntity
8
1
62
256
6
ByLayer
370
18
48
1
60
0
100
AcDbLine
10
28.25
20
11.021
30
0
11
23.241822
21
11.021
31
0
39
0
210
0
220
0
230
1
0
LINE
5
BA
100
AcDbEntity
8
1
62
256
6
ByLayer
370
18
48
1
60
0
100
AcDbLine
10
28.25
20
11.021
30
0
11
28.25
21
49.965
31
0
39
0
210
0
220
0
230
1
0
LINE
5
BB
100
AcDbEntity
8
1
62
256
6
ByLayer
370
18
48
1
60
0
100
AcDbLine
10
23.241822
20
49.965
30
0
11
23.241822
21
11.021
31
0
39
0
210
0
220
0
230
1
0
LINE
5
BC
100
AcDbEntity
8
1
62
256
6
ByLayer
370
18
48
1
60
0
100
AcDbLine
10
18.075
20
47.684198
30
0
11
18.075
21
11.021
31
0
39
0
210
0
220
0
230
1
0
LINE
5
BD
100
AcDbEntity
8
1
62
256
6
ByLayer
370
18
48
1
60
0
100
AcDbLine
10
21.925
20
-47.684198
30
0
11
21.925
21
-11.021
31
0
39
0
210
0
220
0
230
1
0
LINE
5
BE
100
AcDbEntity
8
1
62
256
6
ByLayer
370
18
48
1
60
0
100
AcDbLine
10
23.241822
20
-49.965
30
0
11
23.241822
21
-11.021
31
0
39
0
210
0
220
0
230
1
0
LINE
5
BF
100
AcDbEntity
8
1
62
256
6
ByLayer
370
18
48
1
60
0
100
AcDbLine
10
28.25
20
-11.021
30
0
11
28.25
21
-49.965
31
0
39
0
210
0
220
0
230
1
0
LINE
5
C0
100
AcDbEntity
8
1
62
256
6
ByLayer
370
18
48
1
60
0
100
AcDbLine
10
23.241822
20
-11.021
30
0
11
28.25
21
-11.021
31
0
39
0
210
0
220
0
230
1
0
LINE
5
C1
100
AcDbEntity
8
1
62
256
6
ByLayer
370
18
48
1
60
0
100
AcDbLine
10
4.95
20
1.021
30
0
11
4.95
21
-1.021
31
0
39
0
210
0
220
0
230
1
0
LINE
5
C2
100
AcDbEntity
8
1
62
256
6
ByLayer
370
18
48
1
60
0
100
AcDbLine
10
16.758178
20
-11.021
30
0
11
16.758178
21
-49.965
31
0
39
0
210
0
220
0
230
1
0
LINE
5
C3
100
AcDbEntity
8
1
62
256
6
ByLayer
370
18
48
1
60
0
100
AcDbLine
10
14.95
20
-11.021
30
0
11
16.758178
21
-11.021
31
0
39
0
210
0
220
0
230
1
0
LINE
5
C4
100
AcDbEntity
8
1
62
256
6
ByLayer
370
18
48
1
60
0
100
AcDbLine
10
16.758178
20
11.021
30
0
11
14.95
21
11.021
31
0
39
0
210
0
220
0
230
1
0
LINE
5
C5
100
AcDbEntity
8
1
62
256
6
ByLayer
370
18
48
1
60
0
100
AcDbLine
10
16.758178
20
11.021
30
0
11
16.758178
21
49.965
31
0
39
0
210
0
220
0
230
1
0
LINE
5
C6
100
AcDbEntity
8
1
62
256
6
ByLayer
370
18
48
1
60
0
100
AcDbLine
10
0.7
20
-49.965
30
0
11
0.7
21
0
31
0
39
0
210
0
220
0
230
1
0
LINE
5
C7
100
AcDbEntity
8
1
62
256
6
ByLayer
370
18
48
1
60
0
100
AcDbLine
10
0.7
20
0
30
0
11
0.7
21
49.965
31
0
39
0
210
0
220
0
230
1
0
LINE
5
C8
100
AcDbEntity
8
1
62
256
6
ByLayer
370
18
48
1
60
0
100
AcDbLine
10
0
20
49.265
30
0
11
0
21
0
31
0
39
0
210
0
220
0
230
1
0
LINE
5
C9
100
AcDbEntity
8
1
62
256
6
ByLayer
370
18
48
1
60
0
100
AcDbLine
10
0
20
0
30
0
11
0
21
-49.265
31
0
39
0
210
0
220
0
230
1
0
LINE
5
CA
100
AcDbEntity
8
1
62
256
6
ByLayer
370
18
48
1
60
0
100
AcDbLine
10
57
20
47.076942
30
0
11
57
21
47.078096
31
0
39
0
210
0
220
0
230
1
0
LINE
5
CB
100
AcDbEntity
8
1
62
256
6
ByLayer
370
18
48
1
60
0
100
AcDbLine
10
57
20
-47.076942
30
0
11
57
21
-47.078096
31
0
39
0
210
0
220
0
230
1
0
LINE
5
CC
100
AcDbEntity
8
1
62
256
6
ByLayer
370
18
48
1
60
0
100
AcDbLine
10
57
20
25.659855
30
0
11
67.05596
21
25.659855
31
0
39
0
210
0
220
0
230
1
0
LINE
5
CD
100
AcDbEntity
8
1
62
256
6
ByLayer
370
18
48
1
60
0
100
AcDbLine
10
57
20
-25.659855
30
0
11
67.05596
21
-25.659855
31
0
39
0
210
0
220
0
230
1
0
LINE
5
CE
100
AcDbEntity
8
1
62
256
6
ByLayer
370
13
48
1
60
0
100
AcDbLine
10
65.431304
20
27.676552
30
0
11
57
21
27.676552
31
0
39
0
210
0
220
0
230
1
0
LINE
5
CF
100
AcDbEntity
8
1
62
256
6
ByLayer
370
13
48
1
60
0
100
AcDbLine
10
57
20
-27.676552
30
0
11
65.431304
21
-27.676552
31
0
39
0
210
0
220
0
230
1
0
LINE
5
D0
100
AcDbEntity
8
1
62
256
6
ByLayer
370
18
48
1
60
0
100
AcDbLine
10
57
20
25.079294
30
0
11
67.322117
21
25.079294
31
0
39
0
210
0
220
0
230
1
0
LINE
5
D1
100
AcDbEntity
8
1
62
256
6
ByLayer
370
18
48
1
60
0
100
AcDbLine
10
57
20
-25.079294
30
0
11
67.322117
21
-25.079294
31
0
39
0
210
0
220
0
230
1
0
LINE
5
D2
100
AcDbEntity
8
1
62
256
6
ByLayer
370
13
48
1
60
0
100
AcDbLine
10
57
20
25.079294
30
0
11
57
21
25.659855
31
0
39
0
210
0
220
0
230
1
0
LINE
5
D3
100
AcDbEntity
8
1
62
256
6
ByLayer
370
18
48
1
60
0
100
AcDbLine
10
66.713435
20
18.670706
30
0
11
67.322117
21
18.670706
31
0
39
0
210
0
220
0
230
1
0
LINE
5
D4
100
AcDbEntity
8
1
62
256
6
ByLayer
370
13
48
1
60
0
100
AcDbLine
10
57
20
-25.659855
30
0
11
57
21
-25.079294
31
0
39
0
210
0
220
0
230
1
0
LINE
5
D5
100
AcDbEntity
8
1
62
256
6
ByLayer
370
18
48
1
60
0
100
AcDbLine
10
66.713435
20
-18.670706
30
0
11
67.322117
21
-18.670706
31
0
39
0
210
0
220
0
230
1
0
LINE
5
D6
100
AcDbEntity
8
1
62
256
6
ByLayer
370
13
48
1
60
0
100
AcDbLine
10
57
20
25.659855
30
0
11
57
21
27.676552
31
0
39
0
210
0
220
0
230
1
0
LINE
5
D7
100
AcDbEntity
8
1
62
256
6
ByLayer
370
13
48
1
60
0
100
AcDbLine
10
57
20
-27.676552
30
0
11
57
21
-25.659855
31
0
39
0
210
0
220
0
230
1
0
LINE
5
D8
100
AcDbEntity
8
1
62
256
6
ByLayer
370
13
48
1
60
0
100
AcDbLine
10
57
20
27.676552
30
0
11
57
21
27.935971
31
0
39
0
210
0
220
0
230
1
0
LINE
5
D9
100
AcDbEntity
8
1
62
256
6
ByLayer
370
13
48
1
60
0
100
AcDbLine
10
57
20
19.260122
30
0
11
57
21
19.140971
31
0
39
0
210
0
220
0
230
1
0
LINE
5
DA
100
AcDbEntity
8
1
62
256
6
ByLayer
370
13
48
1
60
0
100
AcDbLine
10
57
20
-19.260122
30
0
11
57
21
-19.140971
31
0
39
0
210
0
220
0
230
1
0
LINE
5
DB
100
AcDbEntity
8
1
62
256
6
ByLayer
370
13
48
1
60
0
100
AcDbLine
10
57
20
-27.676552
30
0
11
57
21
-27.935971
31
0
39
0
210
0
220
0
230
1
0
LINE
5
DC
100
AcDbEntity
8
1
62
256
6
ByLayer
370
18
48
1
60
0
100
AcDbLine
10
69
20
41
30
0
11
69
21
0
31
0
39
0
210
0
220
0
230
1
0
LINE
5
DD
100
AcDbEntity
8
1
62
256
6
ByLayer
370
18
48
1
60
0
100
AcDbLine
10
69
20
0
30
0
11
69
21
-41
31
0
39
0
210
0
220
0
230
1
0
LINE
5
DE
100
AcDbEntity
8
1
62
256
6
ByLayer
370
18
48
1
60
0
100
AcDbLine
10
46
20
46.35
30
0
11
46
21
0
31
0
39
0
210
0
220
0
230
1
0
LINE
5
DF
100
AcDbEntity
8
1
62
256
6
ByLayer
370
18
48
1
60
0
100
AcDbLine
10
46
20
0
30
0
11
46
21
-46.35
31
0
39
0
210
0
220
0
230
1
0
LINE
5
E0
100
AcDbEntity
8
1
62
256
6
ByLayer
370
18
48
1
60
0
100
AcDbLine
10
65.333826
20
-19.140971
30
0
11
65.333826
21
19.140971
31
0
39
0
210
0
220
0
230
1
0
LINE
5
E1
100
AcDbEntity
8
1
62
256
6
ByLayer
370
13
48
1
60
0
100
AcDbLine
10
65.333826
20
19.140971
30
0
11
57
21
19.140971
31
0
39
0
210
0
220
0
230
1
0
LINE
5
E2
100
AcDbEntity
8
1
62
256
6
ByLayer
370
13
48
1
60
0
100
AcDbLine
10
57
20
27.935971
30
0
11
65.333826
21
27.935971
31
0
39
0
210
0
220
0
230
1
0
LINE
5
E3
100
AcDbEntity
8
1
62
256
6
ByLayer
370
18
48
1
60
0
100
AcDbLine
10
65.333826
20
27.935971
30
0
11
65.333826
21
47.076942
31
0
39
0
210
0
220
0
230
1
0
LINE
5
E4
100
AcDbEntity
8
1
62
256
6
ByLayer
370
13
48
1
60
0
100
AcDbLine
10
65.333826
20
47.076942
30
0
11
57
21
47.076942
31
0
39
0
210
0
220
0
230
1
0
LINE
5
E5
100
AcDbEntity
8
1
62
256
6
ByLayer
370
13
48
1
60
0
100
AcDbLine
10
57
20
-47.076942
30
0
11
65.333826
21
-47.076942
31
0
39
0
210
0
220
0
230
1
0
LINE
5
E6
100
AcDbEntity
8
1
62
256
6
ByLayer
370
18
48
1
60
0
100
AcDbLine
10
65.333826
20
-47.076942
30
0
11
65.333826
21
-27.935971
31
0
39
0
210
0
220
0
230
1
0
LINE
5
E7
100
AcDbEntity
8
1
62
256
6
ByLayer
370
13
48
1
60
0
100
AcDbLine
10
65.333826
20
-27.935971
30
0
11
57
21
-27.935971
31
0
39
0
210
0
220
0
230
1
0
LINE
5
E8
100
AcDbEntity
8
1
62
256
6
ByLayer
370
13
48
1
60
0
100
AcDbLine
10
57
20
-19.140971
30
0
11
65.333826
21
-19.140971
31
0
39
0
210
0
220
0
230
1
0
LINE
5
E9
100
AcDbEntity
8
1
62
256
6
ByLayer
370
18
48
1
60
0
100
AcDbLine
10
47
20
-47.35
30
0
11
47
21
0
31
0
39
0
210
0
220
0
230
1
0
LINE
5
EA
100
AcDbEntity
8
1
62
256
6
ByLayer
370
18
48
1
60
0
100
AcDbLine
10
47
20
0
30
0
11
47
21
47.35
31
0
39
0
210
0
220
0
230
1
0
LINE
5
EB
100
AcDbEntity
8
SK1
62
256
6
ByLayer
370
18
48
1
60
0
100
AcDbLine
10
-39.8
20
8.11
30
0
11
-39.8
21
-8.11
31
0
39
0
210
0
220
0
230
1
0
LINE
5
EC
100
AcDbEntity
8
SK1
62
256
6
ByLayer
370
13
48
1
60
0
100
AcDbLine
10
-36.7
20
17.059224
30
0
11
-36.7
21
19.594371
31
0
39
0
210
0
220
0
230
1
0
LINE
5
ED
100
AcDbEntity
8
SK1
62
256
6
ByLayer
370
13
48
1
60
0
100
AcDbLine
10
-36.7
20
-19.594371
30
0
11
-36.7
21
-17.059224
31
0
39
0
210
0
220
0
230
1
0
LINE
5
EE
100
AcDbEntity
8
SK1
62
256
6
ByLayer
370
18
48
1
60
0
100
AcDbLine
10
-49.9
20
-11.66
30
0
11
-48.20375
21
-9.96375
31
0
39
0
210
0
220
0
230
1
0
LINE
5
EF
100
AcDbEntity
8
SK1
62
256
6
ByLayer
370
18
48
1
60
0
100
AcDbLine
10
-49.9
20
-11.66
30
0
11
-49.9
21
-14.192093
31
0
39
0
210
0
220
0
230
1
0
LINE
5
F0
100
AcDbEntity
8
SK1
62
256
6
ByLayer
370
13
48
1
60
0
100
AcDbLine
10
-49.680346
20
-16.388863
30
0
11
-48.810766
21
-16.783644
31
0
39
0
210
0
220
0
230
1
0
LINE
5
F1
100
AcDbEntity
8
SK1
62
256
6
ByLayer
370
18
48
1
60
0
100
AcDbLine
10
-49.9
20
-14.192093
30
0
11
-49.9
21
-33.605194
31
0
39
0
210
0
220
0
230
1
0
LINE
5
F2
100
AcDbEntity
8
SK1
62
256
6
ByLayer
370
13
48
1
60
0
100
AcDbLine
10
-36.7
20
-17.059224
30
0
11
-40.216558
21
-17.059224
31
0
39
0
210
0
220
0
230
1
0
LINE
5
F3
100
AcDbEntity
8
SK1
62
256
6
ByLayer
370
18
48
1
60
0
100
AcDbLine
10
-36.7
20
-9.96375
30
0
11
-48.20375
21
-9.96375
31
0
39
0
210
0
220
0
230
1
0
LINE
5
F4
100
AcDbEntity
8
SK1
62
256
6
ByLayer
370
18
48
1
60
0
100
AcDbLine
10
-48.20375
20
-15.101921
30
0
11
-48.20375
21
-9.96375
31
0
39
0
210
0
220
0
230
1
0
LINE
5
F5
100
AcDbEntity
8
SK1
62
256
6
ByLayer
370
13
48
1
60
0
100
AcDbLine
10
-49.680346
20
16.388863
30
0
11
-48.810766
21
16.783644
31
0
39
0
210
0
220
0
230
1
0
LINE
5
F6
100
AcDbEntity
8
SK1
62
256
6
ByLayer
370
18
48
1
60
0
100
AcDbLine
10
-49.9
20
11.66
30
0
11
-49.9
21
14.192093
31
0
39
0
210
0
220
0
230
1
0
LINE
5
F7
100
AcDbEntity
8
SK1
62
256
6
ByLayer
370
18
48
1
60
0
100
AcDbLine
10
-49.9
20
11.66
30
0
11
-48.20375
21
9.96375
31
0
39
0
210
0
220
0
230
1
0
LINE
5
F8
100
AcDbEntity
8
SK1
62
256
6
ByLayer
370
18
48
1
60
0
100
AcDbLine
10
-49.9
20
33.605194
30
0
11
-49.9
21
14.192093
31
0
39
0
210
0
220
0
230
1
0
LINE
5
F9
100
AcDbEntity
8
SK1
62
256
6
ByLayer
370
18
48
1
60
0
100
AcDbLine
10
-48.20375
20
15.101921
30
0
11
-48.20375
21
9.96375
31
0
39
0
210
0
220
0
230
1
0
LINE
5
FA
100
AcDbEntity
8
SK1
62
256
6
ByLayer
370
18
48
1
60
0
100
AcDbLine
10
-36.7
20
9.96375
30
0
11
-48.20375
21
9.96375
31
0
39
0
210
0
220
0
230
1
0
LINE
5
FB
100
AcDbEntity
8
SK1
62
256
6
ByLayer
370
13
48
1
60
0
100
AcDbLine
10
-36.7
20
17.059224
30
0
11
-40.216558
21
17.059224
31
0
39
0
210
0
220
0
230
1
0
LINE
5
FC
100
AcDbEntity
8
SK1
62
256
6
ByLayer
370
13
48
1
60
0
100
AcDbLine
10
-36.7
20
9.96375
30
0
11
-36.7
21
17.059224
31
0
39
0
210
0
220
0
230
1
0
LINE
5
FD
100
AcDbEntity
8
SK1
62
256
6
ByLayer
370
13
48
1
60
0
100
AcDbLine
10
-36.7
20
-17.059224
30
0
11
-36.7
21
-9.96375
31
0
39
0
210
0
220
0
230
1
0
LINE
5
FE
100
AcDbEntity
8
SK1
62
256
6
ByLayer
370
18
48
1
60
0
100
AcDbLine
10
-2.066987
20
37.632252
30
0
11
-2.066987
21
0
31
0
39
0
210
0
220
0
230
1
0
LINE
5
FF
100
AcDbEntity
8
SK1
62
256
6
ByLayer
370
18
48
1
60
0
100
AcDbLine
10
-2.066987
20
0
30
0
11
-2.066987
21
-37.632252
31
0
39
0
210
0
220
0
230
1
0
LINE
5
100
100
AcDbEntity
8
SK1
62
256
6
ByLayer
370
13
48
1
60
0
100
AcDbLine
10
-0.8
20
37.632252
30
0
11
-0.8
21
0
31
0
39
0
210
0
220
0
230
1
0
LINE
5
101
100
AcDbEntity
8
SK1
62
256
6
ByLayer
370
13
48
1
60
0
100
AcDbLine
10
-0.8
20
0
30
0
11
-0.8
21
-37.632252
31
0
39
0
210
0
220
0
230
1
0
LINE
5
102
100
AcDbEntity
8
SK1
62
256
6
ByLayer
370
18
48
1
60
0
100
AcDbLine
10
-2.5
20
-37.882252
30
0
11
-2.5
21
0
31
0
39
0
210
0
220
0
230
1
0
LINE
5
103
100
AcDbEntity
8
SK1
62
256
6
ByLayer
370
18
48
1
60
0
100
AcDbLine
10
-2.5
20
0
30
0
11
-2.5
21
37.882252
31
0
39
0
210
0
220
0
230
1
0
LINE
5
104
100
AcDbEntity
8
SK1
62
256
6
ByLayer
370
13
48
1
60
0
100
AcDbLine
10
-48.000075
20
15.157562
30
0
11
-48.000075
21
35.602689
31
0
39
0
210
0
220
0
230
1
0
LINE
5
105
100
AcDbEntity
8
SK1
62
256
6
ByLayer
370
18
48
1
60
0
100
AcDbLine
10
-34.8
20
12.976493
30
0
11
-34.8
21
-12.976493
31
0
39
0
210
0
220
0
230
1
0
LINE
5
106
100
AcDbEntity
8
SK1
62
256
6
ByLayer
370
13
48
1
60
0
100
AcDbLine
10
-48.000075
20
-35.602689
30
0
11
-48.000075
21
-15.157562
31
0
39
0
210
0
220
0
230
1
0
LINE
5
107
100
AcDbEntity
8
1
62
256
6
ByLayer
370
13
48
0.05
60
0
100
AcDbLine
10
12
20
0
30
0
11
28
21
0
31
0
39
0
210
0
220
0
230
1
0
LINE
5
108
100
AcDbEntity
8
1
62
256
6
ByLayer
370
13
48
0.05
60
0
100
AcDbLine
10
20
20
-8
30
0
11
20
21
8
31
0
39
0
210
0
220
0
230
1
0
LINE
5
109
100
AcDbEntity
8
1
62
256
6
ByLayer
370
13
48
0.05
60
0
100
AcDbLine
10
-26
20
0
30
0
11
-4
21
0
31
0
39
0
210
0
220
0
230
1
0
LINE
5
10A
100
AcDbEntity
8
1
62
256
6
ByLayer
370
13
48
0.05
60
0
100
AcDbLine
10
-15
20
-11
30
0
11
-15
21
11
31
0
39
0
210
0
220
0
230
1
0
LINE
5
10B
100
AcDbEntity
8
SK2
62
256
6
ByLayer
370
18
48
1
60
0
100
AcDbLine
10
-76.875
20
-49.965
30
0
11
-76.875
21
49.965
31
0
39
0
210
0
220
0
230
1
0
LINE
5
10D
100
AcDbEntity
8
SK2
62
256
6
ByLayer
370
18
48
1
60
0
100
AcDbLine
10
-0.8875
20
49.965
30
0
11
-78.875
21
49.965
31
0
39
0
210
0
220
0
230
1
0
LINE
5
10E
100
AcDbEntity
8
SK2
62
256
6
ByLayer
370
18
48
1
60
0
100
AcDbLine
10
-0.8875
20
-49.965
30
0
11
-78.875
21
-49.965
31
0
39
0
210
0
220
0
230
1
0
LINE
5
10F
100
AcDbEntity
8
1
62
256
6
ByLayer
370
18
48
1
60
1
100
AcDbLine
10
-76.875
20
49.965
30
0
11
-76.414216
21
46.465002
31
0
39
0
210
0
220
0
230
1
0
LINE
5
110
100
AcDbEntity
8
1
62
256
6
ByLayer
370
18
48
1
60
1
100
AcDbLine
10
-76.414216
20
46.465002
30
0
11
-77.335784
21
46.464998
31
0
39
0
210
0
220
0
230
1
0
LINE
5
111
100
AcDbEntity
8
1
62
256
6
ByLayer
370
18
48
1
60
1
100
AcDbLine
10
-77.335784
20
46.464998
30
0
11
-76.875
21
49.965
31
0
39
0
210
0
220
0
230
1
0
LINE
5
112
100
AcDbEntity
8
1
62
256
6
ByLayer
370
18
48
1
60
1
100
AcDbLine
10
-76.875
20
-49.965
30
0
11
-77.335784
21
-46.465002
31
0
39
0
210
0
220
0
230
1
0
LINE
5
113
100
AcDbEntity
8
1
62
256
6
ByLayer
370
18
48
1
60
1
100
AcDbLine
10
-77.335784
20
-46.465002
30
0
11
-76.414216
21
-46.464998
31
0
39
0
210
0
220
0
230
1
0
LINE
5
114
100
AcDbEntity
8
1
62
256
6
ByLayer
370
18
48
1
60
1
100
AcDbLine
10
-76.414216
20
-46.464998
30
0
11
-76.875
21
-49.965
31
0
39
0
210
0
220
0
230
1
0
LINE
5
115
100
AcDbEntity
8
SK2
62
256
6
ByLayer
370
13
48
1
60
0
100
AcDbLine
10
94.725
20
-47.35
30
0
11
94.725
21
47.35
31
0
39
0
210
0
220
0
230
1
0
LINE
5
116
100
AcDbEntity
8
SK2
62
256
6
ByLayer
370
13
48
1
60
0
100
AcDbLine
10
48.5875
20
47.35
30
0
11
96.725
21
47.35
31
0
39
0
210
0
220
0
230
1
0
LINE
5
117
100
AcDbEntity
8
SK2
62
256
6
ByLayer
370
13
48
1
60
0
100
AcDbLine
10
48.5875
20
-47.35
30
0
11
96.725
21
-47.35
31
0
39
0
210
0
220
0
230
1
0
LINE
5
118
100
AcDbEntity
8
1
62
256
6
ByLayer
370
18
48
1
60
1
100
AcDbLine
10
94.725
20
47.35
30
0
11
95.185784
21
43.850002
31
0
39
0
210
0
220
0
230
1
0
LINE
5
119
100
AcDbEntity
8
1
62
256
6
ByLayer
370
18
48
1
60
1
100
AcDbLine
10
95.185784
20
43.850002
30
0
11
94.264216
21
43.849998
31
0
39
0
210
0
220
0
230
1
0
LINE
5
11A
100
AcDbEntity
8
1
62
256
6
ByLayer
370
18
48
1
60
1
100
AcDbLine
10
94.264216
20
43.849998
30
0
11
94.725
21
47.35
31
0
39
0
210
0
220
0
230
1
0
LINE
5
11B
100
AcDbEntity
8
1
62
256
6
ByLayer
370
18
48
1
60
1
100
AcDbLine
10
94.725
20
-47.35
30
0
11
94.264216
21
-43.850002
31
0
39
0
210
0
220
0
230
1
0
LINE
5
11C
100
AcDbEntity
8
1
62
256
6
ByLayer
370
18
48
1
60
1
100
AcDbLine
10
94.264216
20
-43.850002
30
0
11
95.185784
21
-43.849998
31
0
39
0
210
0
220
0
230
1
0
LINE
5
11D
100
AcDbEntity
8
1
62
256
6
ByLayer
370
18
48
1
60
1
100
AcDbLine
10
95.185784
20
-43.849998
30
0
11
94.725
21
-47.35
31
0
39
0
210
0
220
0
230
1
0
LINE
5
11E
100
AcDbEntity
8
SK2
62
256
6
ByLayer
370
18
48
1
60
0
100
AcDbLine
10
-49.9
20
73.167689
30
0
11
0
21
73.167689
31
0
39
0
210
0
220
0
230
1
0
LINE
5
11F
100
AcDbEntity
8
SK2
62
256
6
ByLayer
370
18
48
1
60
0
100
AcDbLine
10
0
20
50.8525
30
0
11
0
21
75.167689
31
0
39
0
210
0
220
0
230
1
0
LINE
5
120
100
AcDbEntity
8
SK2
62
256
6
ByLayer
370
18
48
1
60
0
100
AcDbLine
10
-49.9
20
35.192694
30
0
11
-49.9
21
75.167689
31
0
39
0
210
0
220
0
230
1
0
LINE
5
121
100
AcDbEntity
8
1
62
256
6
ByLayer
370
18
48
1
60
1
100
AcDbLine
10
0
20
73.167689
30
0
11
-3.499998
21
72.706905
31
0
39
0
210
0
220
0
230
1
0
LINE
5
122
100
AcDbEntity
8
1
62
256
6
ByLayer
370
18
48
1
60
1
100
AcDbLine
10
-3.499998
20
72.706905
30
0
11
-3.500002
21
73.628472
31
0
39
0
210
0
220
0
230
1
0
LINE
5
123
100
AcDbEntity
8
1
62
256
6
ByLayer
370
18
48
1
60
1
100
AcDbLine
10
-3.500002
20
73.628472
30
0
11
0
21
73.167689
31
0
39
0
210
0
220
0
230
1
0
LINE
5
124
100
AcDbEntity
8
1
62
256
6
ByLayer
370
18
48
1
60
1
100
AcDbLine
10
-49.9
20
73.167689
30
0
11
-46.400002
21
73.628472
31
0
39
0
210
0
220
0
230
1
0
LINE
5
125
100
AcDbEntity
8
1
62
256
6
ByLayer
370
18
48
1
60
1
100
AcDbLine
10
-46.400002
20
73.628472
30
0
11
-46.399998
21
72.706905
31
0
39
0
210
0
220
0
230
1
0
LINE
5
126
100
AcDbEntity
8
1
62
256
6
ByLayer
370
18
48
1
60
1
100
AcDbLine
10
-46.399998
20
72.706905
30
0
11
-49.9
21
73.167689
31
0
39
0
210
0
220
0
230
1
0
LINE
5
127
100
AcDbEntity
8
SK2
62
256
6
ByLayer
370
18
48
1
60
0
100
AcDbLine
10
0
20
93.167689
30
0
11
69
21
93.167689
31
0
39
0
210
0
220
0
230
1
0
LINE
5
128
100
AcDbEntity
8
SK2
62
256
6
ByLayer
370
18
48
1
60
0
100
AcDbLine
10
69
20
42.5875
30
0
11
69
21
95.167689
31
0
39
0
210
0
220
0
230
1
0
LINE
5
129
100
AcDbEntity
8
SK2
62
256
6
ByLayer
370
18
48
1
60
0
100
AcDbLine
10
0
20
50.8525
30
0
11
0
21
95.167689
31
0
39
0
210
0
220
0
230
1
0
LINE
5
12A
100
AcDbEntity
8
1
62
256
6
ByLayer
370
18
48
1
60
1
100
AcDbLine
10
69
20
93.167689
30
0
11
65.500002
21
92.706905
31
0
39
0
210
0
220
0
230
1
0
LINE
5
12B
100
AcDbEntity
8
1
62
256
6
ByLayer
370
18
48
1
60
1
100
AcDbLine
10
65.500002
20
92.706905
30
0
11
65.499998
21
93.628472
31
0
39
0
210
0
220
0
230
1
0
LINE
5
12C
100
AcDbEntity
8
1
62
256
6
ByLayer
370
18
48
1
60
1
100
AcDbLine
10
65.499998
20
93.628472
30
0
11
69
21
93.167689
31
0
39
0
210
0
220
0
230
1
0
LINE
5
12D
100
AcDbEntity
8
1
62
256
6
ByLayer
370
18
48
1
60
1
100
AcDbLine
10
0
20
93.167689
30
0
11
3.499998
21
93.628472
31
0
39
0
210
0
220
0
230
1
0
LINE
5
12E
100
AcDbEntity
8
1
62
256
6
ByLayer
370
18
48
1
60
1
100
AcDbLine
10
3.499998
20
93.628472
30
0
11
3.500002
21
92.706905
31
0
39
0
210
0
220
0
230
1
0
LINE
5
12F
100
AcDbEntity
8
1
62
256
6
ByLayer
370
18
48
1
60
1
100
AcDbLine
10
3.500002
20
92.706905
30
0
11
0
21
93.167689
31
0
39
0
210
0
220
0
230
1
0
LINE
5
130
100
AcDbEntity
8
SK2
62
256
6
ByLayer
370
18
48
1
60
0
100
AcDbLine
10
0
20
83.167689
30
0
11
46
21
83.167689
31
0
39
0
210
0
220
0
230
1
0
LINE
5
131
100
AcDbEntity
8
SK2
62
256
6
ByLayer
370
18
48
1
60
0
100
AcDbLine
10
46
20
47.9375
30
0
11
46
21
85.167689
31
0
39
0
210
0
220
0
230
1
0
LINE
5
132
100
AcDbEntity
8
SK2
62
256
6
ByLayer
370
18
48
1
60
0
100
AcDbLine
10
0
20
50.8525
30
0
11
0
21
85.167689
31
0
39
0
210
0
220
0
230
1
0
LINE
5
133
100
AcDbEntity
8
1
62
256
6
ByLayer
370
18
48
1
60
1
100
AcDbLine
10
46
20
83.167689
30
0
11
42.500002
21
82.706905
31
0
39
0
210
0
220
0
230
1
0
LINE
5
134
100
AcDbEntity
8
1
62
256
6
ByLayer
370
18
48
1
60
1
100
AcDbLine
10
42.500002
20
82.706905
30
0
11
42.499998
21
83.628472
31
0
39
0
210
0
220
0
230
1
0
LINE
5
135
100
AcDbEntity
8
1
62
256
6
ByLayer
370
18
48
1
60
1
100
AcDbLine
10
42.499998
20
83.628472
30
0
11
46
21
83.167689
31
0
39
0
210
0
220
0
230
1
0
LINE
5
136
100
AcDbEntity
8
1
62
256
6
ByLayer
370
18
48
1
60
1
100
AcDbLine
10
0
20
83.167689
30
0
11
3.499998
21
83.628472
31
0
39
0
210
0
220
0
230
1
0
LINE
5
137
100
AcDbEntity
8
1
62
256
6
ByLayer
370
18
48
1
60
1
100
AcDbLine
10
3.499998
20
83.628472
30
0
11
3.500002
21
82.706905
31
0
39
0
210
0
220
0
230
1
0
LINE
5
138
100
AcDbEntity
8
1
62
256
6
ByLayer
370
18
48
1
60
1
100
AcDbLine
10
3.500002
20
82.706905
30
0
11
0
21
83.167689
31
0
39
0
210
0
220
0
230
1
0
LINE
5
139
100
AcDbEntity
8
SK2
62
256
6
ByLayer
370
18
48
1
60
0
100
AcDbLine
10
69
20
73.167689
30
0
11
46
21
73.167689
31
0
39
0
210
0
220
0
230
1
0
LINE
5
13A
100
AcDbEntity
8
SK2
62
256
6
ByLayer
370
18
48
1
60
0
100
AcDbLine
10
46
20
47.9375
30
0
11
46
21
75.167689
31
0
39
0
210
0
220
0
230
1
0
LINE
5
13B
100
AcDbEntity
8
SK2
62
256
6
ByLayer
370
18
48
1
60
0
100
AcDbLine
10
69
20
42.5875
30
0
11
69
21
75.167689
31
0
39
0
210
0
220
0
230
1
0
LINE
5
13C
100
AcDbEntity
8
1
62
256
6
ByLayer
370
18
48
1
60
1
100
AcDbLine
10
46
20
73.167689
30
0
11
49.499998
21
73.628472
31
0
39
0
210
0
220
0
230
1
0
LINE
5
13D
100
AcDbEntity
8
1
62
256
6
ByLayer
370
18
48
1
60
1
100
AcDbLine
10
49.499998
20
73.628472
30
0
11
49.500002
21
72.706905
31
0
39
0
210
0
220
0
230
1
0
LINE
5
13E
100
AcDbEntity
8
1
62
256
6
ByLayer
370
18
48
1
60
1
100
AcDbLine
10
49.500002
20
72.706905
30
0
11
46
21
73.167689
31
0
39
0
210
0
220
0
230
1
0
LINE
5
13F
100
AcDbEntity
8
1
62
256
6
ByLayer
370
18
48
1
60
1
100
AcDbLine
10
69
20
73.167689
30
0
11
65.500002
21
72.706905
31
0
39
0
210
0
220
0
230
1
0
LINE
5
140
100
AcDbEntity
8
1
62
256
6
ByLayer
370
18
48
1
60
1
100
AcDbLine
10
65.500002
20
72.706905
30
0
11
65.499998
21
73.628472
31
0
39
0
210
0
220
0
230
1
0
LINE
5
141
100
AcDbEntity
8
1
62
256
6
ByLayer
370
18
48
1
60
1
100
AcDbLine
10
65.499998
20
73.628472
30
0
11
69
21
73.167689
31
0
39
0
210
0
220
0
230
1
0
LINE
5
142
100
AcDbEntity
8
2
62
256
6
ByLayer
370
18
48
1
60
0
100
AcDbLine
10
0
20
-69.900089
30
0
11
55
21
-69.900089
31
0
39
0
210
0
220
0
230
1
0
LINE
5
143
100
AcDbEntity
8
2
62
256
6
ByLayer
370
18
48
1
60
0
100
AcDbLine
10
55
20
-1.5875
30
0
11
55
21
-71.900089
31
0
39
0
210
0
220
0
230
1
0
LINE
5
144
100
AcDbEntity
8
2
62
256
6
ByLayer
370
18
48
1
60
0
100
AcDbLine
10
0
20
-50.8525
30
0
11
0
21
-71.900089
31
0
39
0
210
0
220
0
230
1
0
LINE
5
145
100
AcDbEntity
8
1
62
256
6
ByLayer
370
18
48
1
60
1
100
AcDbLine
10
55
20
-69.900089
30
0
11
51.500002
21
-70.360873
31
0
39
0
210
0
220
0
230
1
0
LINE
5
146
100
AcDbEntity
8
1
62
256
6
ByLayer
370
18
48
1
60
1
100
AcDbLine
10
51.500002
20
-70.360873
30
0
11
51.499998
21
-69.439305
31
0
39
0
210
0
220
0
230
1
0
LINE
5
147
100
AcDbEntity
8
1
62
256
6
ByLayer
370
18
48
1
60
1
100
AcDbLine
10
51.499998
20
-69.439305
30
0
11
55
21
-69.900089
31
0
39
0
210
0
220
0
230
1
0
LINE
5
148
100
AcDbEntity
8
1
62
256
6
ByLayer
370
18
48
1
60
1
100
AcDbLine
10
0
20
-69.900089
30
0
11
3.499998
21
-69.439305
31
0
39
0
210
0
220
0
230
1
0
LINE
5
149
100
AcDbEntity
8
1
62
256
6
ByLayer
370
18
48
1
60
1
100
AcDbLine
10
3.499998
20
-69.439305
30
0
11
3.500002
21
-70.360873
31
0
39
0
210
0
220
0
230
1
0
LINE
5
14A
100
AcDbEntity
8
1
62
256
6
ByLayer
370
18
48
1
60
1
100
AcDbLine
10
3.500002
20
-70.360873
30
0
11
0
21
-69.900089
31
0
39
0
210
0
220
0
230
1
0
LINE
5
1A1
100
AcDbEntity
8
1
62
256
6
ByLayer
370
13
48
0.05
60
0
100
AcDbLine
10
20
20
52.422472
30
0
11
20
21
36.200875
31
0
39
0
210
0
220
0
230
1
0
LINE
5
1A2
100
AcDbEntity
8
1
62
256
6
ByLayer
370
13
48
0.05
60
0
100
AcDbLine
10
-54.75
20
0
30
0
11
52.890673
21
0
31
0
39
0
210
0
220
0
230
1
0
LINE
5
1A3
100
AcDbEntity
8
1
62
256
6
ByLayer
370
13
48
0.05
60
0
100
AcDbLine
10
75.5
20
0
30
0
11
39.5
21
0
31
0
39
0
210
0
220
0
230
1
0
LINE
5
1A8
100
AcDbEntity
8
1
62
256
6
ByLayer
370
18
48
1
60
1
100
AcDbLine
10
-76.875
20
49.965
30
0
11
-76.414216
21
46.465002
31
0
39
0
210
0
220
0
230
1
0
LINE
5
1A9
100
AcDbEntity
8
1
62
256
6
ByLayer
370
18
48
1
60
1
100
AcDbLine
10
-76.414216
20
46.465002
30
0
11
-77.335784
21
46.464998
31
0
39
0
210
0
220
0
230
1
0
LINE
5
1AA
100
AcDbEntity
8
1
62
256
6
ByLayer
370
18
48
1
60
1
100
AcDbLine
10
-77.335784
20
46.464998
30
0
11
-76.875
21
49.965
31
0
39
0
210
0
220
0
230
1
0
LINE
5
1AC
100
AcDbEntity
8
1
62
256
6
ByLayer
370
18
48
1
60
1
100
AcDbLine
10
-76.875
20
-49.965
30
0
11
-77.335784
21
-46.465002
31
0
39
0
210
0
220
0
230
1
0
LINE
5
1AD
100
AcDbEntity
8
1
62
256
6
ByLayer
370
18
48
1
60
1
100
AcDbLine
10
-77.335784
20
-46.465002
30
0
11
-76.414216
21
-46.464998
31
0
39
0
210
0
220
0
230
1
0
LINE
5
1AE
100
AcDbEntity
8
1
62
256
6
ByLayer
370
18
48
1
60
1
100
AcDbLine
10
-76.414216
20
-46.464998
30
0
11
-76.875
21
-49.965
31
0
39
0
210
0
220
0
230
1
0
LINE
5
1B2
100
AcDbEntity
8
1
62
256
6
ByLayer
370
18
48
1
60
1
100
AcDbLine
10
94.725
20
47.35
30
0
11
95.185784
21
43.850002
31
0
39
0
210
0
220
0
230
1
0
LINE
5
1B3
100
AcDbEntity
8
1
62
256
6
ByLayer
370
18
48
1
60
1
100
AcDbLine
10
95.185784
20
43.850002
30
0
11
94.264216
21
43.849998
31
0
39
0
210
0
220
0
230
1
0
LINE
5
1B4
100
AcDbEntity
8
1
62
256
6
ByLayer
370
18
48
1
60
1
100
AcDbLine
10
94.264216
20
43.849998
30
0
11
94.725
21
47.35
31
0
39
0
210
0
220
0
230
1
0
LINE
5
1B6
100
AcDbEntity
8
1
62
256
6
ByLayer
370
18
48
1
60
1
100
AcDbLine
10
94.725
20
-47.35
30
0
11
94.264216
21
-43.850002
31
0
39
0
210
0
220
0
230
1
0
LINE
5
1B7
100
AcDbEntity
8
1
62
256
6
ByLayer
370
18
48
1
60
1
100
AcDbLine
10
94.264216
20
-43.850002
30
0
11
95.185784
21
-43.849998
31
0
39
0
210
0
220
0
230
1
0
LINE
5
1B8
100
AcDbEntity
8
1
62
256
6
ByLayer
370
18
48
1
60
1
100
AcDbLine
10
95.185784
20
-43.849998
30
0
11
94.725
21
-47.35
31
0
39
0
210
0
220
0
230
1
0
LINE
5
1BB
100
AcDbEntity
8
1
62
256
6
ByLayer
370
18
48
1
60
1
100
AcDbLine
10
0
20
73.167689
30
0
11
-3.499998
21
72.706905
31
0
39
0
210
0
220
0
230
1
0
LINE
5
1BC
100
AcDbEntity
8
1
62
256
6
ByLayer
370
18
48
1
60
1
100
AcDbLine
10
-3.499998
20
72.706905
30
0
11
-3.500002
21
73.628472
31
0
39
0
210
0
220
0
230
1
0
LINE
5
1BD
100
AcDbEntity
8
1
62
256
6
ByLayer
370
18
48
1
60
1
100
AcDbLine
10
-3.500002
20
73.628472
30
0
11
0
21
73.167689
31
0
39
0
210
0
220
0
230
1
0
LINE
5
1BF
100
AcDbEntity
8
1
62
256
6
ByLayer
370
18
48
1
60
1
100
AcDbLine
10
-49.9
20
73.167689
30
0
11
-46.400002
21
73.628472
31
0
39
0
210
0
220
0
230
1
0
LINE
5
1C0
100
AcDbEntity
8
1
62
256
6
ByLayer
370
18
48
1
60
1
100
AcDbLine
10
-46.400002
20
73.628472
30
0
11
-46.399998
21
72.706905
31
0
39
0
210
0
220
0
230
1
0
LINE
5
1C1
100
AcDbEntity
8
1
62
256
6
ByLayer
370
18
48
1
60
1
100
AcDbLine
10
-46.399998
20
72.706905
30
0
11
-49.9
21
73.167689
31
0
39
0
210
0
220
0
230
1
0
LINE
5
1C4
100
AcDbEntity
8
1
62
256
6
ByLayer
370
18
48
1
60
1
100
AcDbLine
10
69
20
93.167689
30
0
11
65.500002
21
92.706905
31
0
39
0
210
0
220
0
230
1
0
LINE
5
1C5
100
AcDbEntity
8
1
62
256
6
ByLayer
370
18
48
1
60
1
100
AcDbLine
10
65.500002
20
92.706905
30
0
11
65.499998
21
93.628472
31
0
39
0
210
0
220
0
230
1
0
LINE
5
1C6
100
AcDbEntity
8
1
62
256
6
ByLayer
370
18
48
1
60
1
100
AcDbLine
10
65.499998
20
93.628472
30
0
11
69
21
93.167689
31
0
39
0
210
0
220
0
230
1
0
LINE
5
1C8
100
AcDbEntity
8
1
62
256
6
ByLayer
370
18
48
1
60
1
100
AcDbLine
10
0
20
93.167689
30
0
11
3.499998
21
93.628472
31
0
39
0
210
0
220
0
230
1
0
LINE
5
1C9
100
AcDbEntity
8
1
62
256
6
ByLayer
370
18
48
1
60
1
100
AcDbLine
10
3.499998
20
93.628472
30
0
11
3.500002
21
92.706905
31
0
39
0
210
0
220
0
230
1
0
LINE
5
1CA
100
AcDbEntity
8
1
62
256
6
ByLayer
370
18
48
1
60
1
100
AcDbLine
10
3.500002
20
92.706905
30
0
11
0
21
93.167689
31
0
39
0
210
0
220
0
230
1
0
LINE
5
1CD
100
AcDbEntity
8
1
62
256
6
ByLayer
370
18
48
1
60
1
100
AcDbLine
10
46
20
83.167689
30
0
11
42.500002
21
82.706905
31
0
39
0
210
0
220
0
230
1
0
LINE
5
1CE
100
AcDbEntity
8
1
62
256
6
ByLayer
370
18
48
1
60
1
100
AcDbLine
10
42.500002
20
82.706905
30
0
11
42.499998
21
83.628472
31
0
39
0
210
0
220
0
230
1
0
LINE
5
1CF
100
AcDbEntity
8
1
62
256
6
ByLayer
370
18
48
1
60
1
100
AcDbLine
10
42.499998
20
83.628472
30
0
11
46
21
83.167689
31
0
39
0
210
0
220
0
230
1
0
LINE
5
1D1
100
AcDbEntity
8
1
62
256
6
ByLayer
370
18
48
1
60
1
100
AcDbLine
10
0
20
83.167689
30
0
11
3.499998
21
83.628472
31
0
39
0
210
0
220
0
230
1
0
LINE
5
1D2
100
AcDbEntity
8
1
62
256
6
ByLayer
370
18
48
1
60
1
100
AcDbLine
10
3.499998
20
83.628472
30
0
11
3.500002
21
82.706905
31
0
39
0
210
0
220
0
230
1
0
LINE
5
1D3
100
AcDbEntity
8
1
62
256
6
ByLayer
370
18
48
1
60
1
100
AcDbLine
10
3.500002
20
82.706905
30
0
11
0
21
83.167689
31
0
39
0
210
0
220
0
230
1
0
LINE
5
1D6
100
AcDbEntity
8
1
62
256
6
ByLayer
370
18
48
1
60
1
100
AcDbLine
10
46
20
73.167689
30
0
11
49.499998
21
73.628472
31
0
39
0
210
0
220
0
230
1
0
LINE
5
1D7
100
AcDbEntity
8
1
62
256
6
ByLayer
370
18
48
1
60
1
100
AcDbLine
10
49.499998
20
73.628472
30
0
11
49.500002
21
72.706905
31
0
39
0
210
0
220
0
230
1
0
LINE
5
1D8
100
AcDbEntity
8
1
62
256
6
ByLayer
370
18
48
1
60
1
100
AcDbLine
10
49.500002
20
72.706905
30
0
11
46
21
73.167689
31
0
39
0
210
0
220
0
230
1
0
LINE
5
1DA
100
AcDbEntity
8
1
62
256
6
ByLayer
370
18
48
1
60
1
100
AcDbLine
10
69
20
73.167689
30
0
11
65.500002
21
72.706905
31
0
39
0
210
0
220
0
230
1
0
LINE
5
1DB
100
AcDbEntity
8
1
62
256
6
ByLayer
370
18
48
1
60
1
100
AcDbLine
10
65.500002
20
72.706905
30
0
11
65.499998
21
73.628472
31
0
39
0
210
0
220
0
230
1
0
LINE
5
1DC
100
AcDbEntity
8
1
62
256
6
ByLayer
370
18
48
1
60
1
100
AcDbLine
10
65.499998
20
73.628472
30
0
11
69
21
73.167689
31
0
39
0
210
0
220
0
230
1
0
LINE
5
1DF
100
AcDbEntity
8
1
62
256
6
ByLayer
370
18
48
1
60
1
100
AcDbLine
10
55
20
-69.900089
30
0
11
51.500002
21
-70.360873
31
0
39
0
210
0
220
0
230
1
0
LINE
5
1E0
100
AcDbEntity
8
1
62
256
6
ByLayer
370
18
48
1
60
1
100
AcDbLine
10
51.500002
20
-70.360873
30
0
11
51.499998
21
-69.439305
31
0
39
0
210
0
220
0
230
1
0
LINE
5
1E1
100
AcDbEntity
8
1
62
256
6
ByLayer
370
18
48
1
60
1
100
AcDbLine
10
51.499998
20
-69.439305
30
0
11
55
21
-69.900089
31
0
39
0
210
0
220
0
230
1
0
LINE
5
1E3
100
AcDbEntity
8
1
62
256
6
ByLayer
370
18
48
1
60
1
100
AcDbLine
10
0
20
-69.900089
30
0
11
3.499998
21
-69.439305
31
0
39
0
210
0
220
0
230
1
0
LINE
5
1E4
100
AcDbEntity
8
1
62
256
6
ByLayer
370
18
48
1
60
1
100
AcDbLine
10
3.499998
20
-69.439305
30
0
11
3.500002
21
-70.360873
31
0
39
0
210
0
220
0
230
1
0
LINE
5
1E5
100
AcDbEntity
8
1
62
256
6
ByLayer
370
18
48
1
60
1
100
AcDbLine
10
3.500002
20
-70.360873
30
0
11
0
21
-69.900089
31
0
39
0
210
0
220
0
230
1
0
MTEXT
5
1A4
100
AcDbEntity
8
SK2
62
256
6
ByLayer
370
18
48
1
60
0
100
AcDbMText
10
-78.439634
20
-5.400922
30
0
210
0
220
0
230
1
1
%%c
40
3.5
41
0
44
1.084337
50
90
71
7
72
5
7
iso_b_vert
0
MTEXT
5
1A7
100
AcDbEntity
8
SK2
62
256
6
ByLayer
370
18
48
1
60
0
100
AcDbMText
10
-78.439634
20
1.571734
30
0
210
0
220
0
230
1
1
\W0.6217;100
40
3.5
41
0
44
1.084337
50
90
71
7
72
5
7
iso_b_vert
0
MTEXT
5
1B0
100
AcDbEntity
8
SK2
62
256
6
ByLayer
370
18
48
1
60
0
100
AcDbMText
10
93.160366
20
-4.530622
30
0
210
0
220
0
230
1
1
%%c
40
3.5
41
0
44
1.084337
50
90
71
7
72
5
7
iso_b_vert
0
MTEXT
5
1B1
100
AcDbEntity
8
SK2
62
256
6
ByLayer
370
18
48
1
60
0
100
AcDbMText
10
93.160366
20
2.442034
30
0
210
0
220
0
230
1
1
\W0.6740;95
40
3.5
41
0
44
1.084337
50
90
71
7
72
5
7
iso_b_vert
0
MTEXT
5
1BA
100
AcDbEntity
8
SK2
62
256
6
ByLayer
370
18
48
1
60
0
100
AcDbMText
10
-29.055966
20
74.200322
30
0
210
0
220
0
230
1
1
\W0.7756;49.9
40
3.5
41
0
44
1.084337
50
0
71
7
72
5
7
iso_b_vert
0
MTEXT
5
1C3
100
AcDbEntity
8
SK2
62
256
6
ByLayer
370
18
48
1
60
0
100
AcDbMText
10
32.595034
20
94.200322
30
0
210
0
220
0
230
1
1
\W0.6927;69
40
3.5
41
0
44
1.084337
50
0
71
7
72
5
7
iso_b_vert
0
MTEXT
5
1CC
100
AcDbEntity
8
SK2
62
256
6
ByLayer
370
18
48
1
60
0
100
AcDbMText
10
20.910767
20
84.200322
30
0
210
0
220
0
230
1
1
\W0.7361;46
40
3.5
41
0
44
1.084337
50
0
71
7
72
5
7
iso_b_vert
0
MTEXT
5
1D5
100
AcDbEntity
8
SK2
62
256
6
ByLayer
370
18
48
1
60
0
100
AcDbMText
10
55.595034
20
74.200322
30
0
210
0
220
0
230
1
1
\W0.6740;23
40
3.5
41
0
44
1.084337
50
0
71
7
72
5
7
iso_b_vert
0
MTEXT
5
1DE
100
AcDbEntity
8
2
62
256
6
ByLayer
370
18
48
1
60
0
100
AcDbMText
10
25.595034
20
-68.867455
30
0
210
0
220
0
230
1
1
\W0.6740;55
40
3.5
41
0
44
1.084337
50
0
71
7
72
5
7
iso_b_vert
0
MTEXT
5
1E7
100
AcDbEntity
8
SK6
62
256
6
ByLayer
370
18
48
1
60
0
100
AcDbMText
10
-23.703597
20
-86.981086
30
0
210
0
220
0
230
1
1
\W0.7576;HT10-DM50-N-055A
40
3
41
0
44
1.084337
50
0
71
7
72
5
7
iso_b_vert
0
HATCH
5
1AB
100
AcDbEntity
8
SK2
62
256
6
ByLayer
370
13
48
1
60
0
100
AcDbHatch
10
0
20
0
30
0
210
0
220
0
230
1
2
ANSI31
70
0
71
0
91
1
92
5
93
3
72
1
10
-76.875
20
49.965
11
-76.4142162584472
21
46.4650016925532
72
1
10
-76.4142162584472
20
46.4650016925532
11
-77.3357837415528
21
46.4649983074468
72
1
10
-77.3357837415528
20
46.4649983074468
11
-76.875
21
49.965
97
0
75
0
76
1
52
0
41
0.0062
77
0
78
1
53
45
43
0
44
0
45
-0.0139193969876572
46
0.0139193969876572
79
0
47
0
98
1
10
0
20
0
0
HATCH
5
1AF
100
AcDbEntity
8
SK2
62
256
6
ByLayer
370
13
48
1
60
0
100
AcDbHatch
10
0
20
0
30
0
210
0
220
0
230
1
2
ANSI31
70
0
71
0
91
1
92
5
93
3
72
1
10
-76.875
20
-49.965
11
-77.3357837415528
21
-46.4650016925532
72
1
10
-77.3357837415528
20
-46.4650016925532
11
-76.4142162584472
21
-46.4649983074468
72
1
10
-76.4142162584472
20
-46.4649983074468
11
-76.875
21
-49.965
97
0
75
0
76
1
52
0
41
0.0062
77
0
78
1
53
45
43
0
44
0
45
-0.0139193969876572
46
0.0139193969876572
79
0
47
0
98
1
10
0
20
0
0
HATCH
5
1B5
100
AcDbEntity
8
SK2
62
256
6
ByLayer
370
13
48
1
60
0
100
AcDbHatch
10
0
20
0
30
0
210
0
220
0
230
1
2
ANSI31
70
0
71
0
91
1
92
5
93
3
72
1
10
94.725
20
47.35
11
95.1857837415528
21
43.8500016925532
72
1
10
95.1857837415528
20
43.8500016925532
11
94.2642162584472
21
43.8499983074468
72
1
10
94.2642162584472
20
43.8499983074468
11
94.725
21
47.35
97
0
75
0
76
1
52
0
41
0.0062
77
0
78
1
53
45
43
0
44
0
45
-0.0139193969876572
46
0.0139193969876572
79
0
47
0
98
1
10
0
20
0
0
HATCH
5
1B9
100
AcDbEntity
8
SK2
62
256
6
ByLayer
370
13
48
1
60
0
100
AcDbHatch
10
0
20
0
30
0
210
0
220
0
230
1
2
ANSI31
70
0
71
0
91
1
92
5
93
3
72
1
10
94.725
20
-47.35
11
94.2642162584472
21
-43.8500016925532
72
1
10
94.2642162584472
20
-43.8500016925532
11
95.1857837415528
21
-43.8499983074468
72
1
10
95.1857837415528
20
-43.8499983074468
11
94.725
21
-47.35
97
0
75
0
76
1
52
0
41
0.0062
77
0
78
1
53
45
43
0
44
0
45
-0.0139193969876572
46
0.0139193969876572
79
0
47
0
98
1
10
0
20
0
0
HATCH
5
1BE
100
AcDbEntity
8
SK2
62
256
6
ByLayer
370
13
48
1
60
0
100
AcDbHatch
10
0
20
0
30
0
210
0
220
0
230
1
2
ANSI31
70
0
71
0
91
1
92
5
93
3
72
1
10
0
20
73.1676887402722
11
-3.49999830744682
21
72.7069049987194
72
1
10
-3.49999830744682
20
72.7069049987194
11
-3.50000169255318
21
73.6284724818249
72
1
10
-3.50000169255318
20
73.6284724818249
11
0
21
73.1676887402722
97
0
75
0
76
1
52
0
41
0.0062
77
0
78
1
53
45
43
0
44
0
45
-0.0139193969876572
46
0.0139193969876572
79
0
47
0
98
1
10
0
20
0
0
HATCH
5
1C2
100
AcDbEntity
8
SK2
62
256
6
ByLayer
370
13
48
1
60
0
100
AcDbHatch
10
0
20
0
30
0
210
0
220
0
230
1
2
ANSI31
70
0
71
0
91
1
92
5
93
3
72
1
10
-49.9
20
73.1676887402722
11
-46.4000016925532
21
73.6284724818249
72
1
10
-46.4000016925532
20
73.6284724818249
11
-46.3999983074468
21
72.7069049987194
72
1
10
-46.3999983074468
20
72.7069049987194
11
-49.9
21
73.1676887402722
97
0
75
0
76
1
52
0
41
0.0062
77
0
78
1
53
45
43
0
44
0
45
-0.0139193969876572
46
0.0139193969876572
79
0
47
0
98
1
10
0
20
0
0
HATCH
5
1C7
100
AcDbEntity
8
SK2
62
256
6
ByLayer
370
13
48
1
60
0
100
AcDbHatch
10
0
20
0
30
0
210
0
220
0
230
1
2
ANSI31
70
0
71
0
91
1
92
5
93
3
72
1
10
69
20
93.1676887402722
11
65.5000016925532
21
92.7069049987194
72
1
10
65.5000016925532
20
92.7069049987194
11
65.4999983074468
21
93.628472481825
72
1
10
65.4999983074468
20
93.628472481825
11
69
21
93.1676887402722
97
0
75
0
76
1
52
0
41
0.0062
77
0
78
1
53
45
43
0
44
0
45
-0.0139193969876572
46
0.0139193969876572
79
0
47
0
98
1
10
0
20
0
0
HATCH
5
1CB
100
AcDbEntity
8
SK2
62
256
6
ByLayer
370
13
48
1
60
0
100
AcDbHatch
10
0
20
0
30
0
210
0
220
0
230
1
2
ANSI31
70
0
71
0
91
1
92
5
93
3
72
1
10
0
20
93.1676887402722
11
3.49999830744682
21
93.628472481825
72
1
10
3.49999830744682
20
93.628472481825
11
3.50000169255318
21
92.7069049987194
72
1
10
3.50000169255318
20
92.7069049987194
11
0
21
93.1676887402722
97
0
75
0
76
1
52
0
41
0.0062
77
0
78
1
53
45
43
0
44
0
45
-0.0139193969876572
46
0.0139193969876572
79
0
47
0
98
1
10
0
20
0
0
HATCH
5
1D0
100
AcDbEntity
8
SK2
62
256
6
ByLayer
370
13
48
1
60
0
100
AcDbHatch
10
0
20
0
30
0
210
0
220
0
230
1
2
ANSI31
70
0
71
0
91
1
92
5
93
3
72
1
10
46
20
83.1676887402722
11
42.5000016925532
21
82.7069049987194
72
1
10
42.5000016925532
20
82.7069049987194
11
42.4999983074468
21
83.628472481825
72
1
10
42.4999983074468
20
83.628472481825
11
46
21
83.1676887402722
97
0
75
0
76
1
52
0
41
0.0062
77
0
78
1
53
45
43
0
44
0
45
-0.0139193969876572
46
0.0139193969876572
79
0
47
0
98
1
10
0
20
0
0
HATCH
5
1D4
100
AcDbEntity
8
SK2
62
256
6
ByLayer
370
13
48
1
60
0
100
AcDbHatch
10
0
20
0
30
0
210
0
220
0
230
1
2
ANSI31
70
0
71
0
91
1
92
5
93
3
72
1
10
0
20
83.1676887402722
11
3.49999830744682
21
83.628472481825
72
1
10
3.49999830744682
20
83.628472481825
11
3.50000169255318
21
82.7069049987194
72
1
10
3.50000169255318
20
82.7069049987194
11
0
21
83.1676887402722
97
0
75
0
76
1
52
0
41
0.0062
77
0
78
1
53
45
43
0
44
0
45
-0.0139193969876572
46
0.0139193969876572
79
0
47
0
98
1
10
0
20
0
0
HATCH
5
1D9
100
AcDbEntity
8
SK2
62
256
6
ByLayer
370
13
48
1
60
0
100
AcDbHatch
10
0
20
0
30
0
210
0
220
0
230
1
2
ANSI31
70
0
71
0
91
1
92
5
93
3
72
1
10
46
20
73.1676887402722
11
49.4999983074468
21
73.6284724818249
72
1
10
49.4999983074468
20
73.6284724818249
11
49.5000016925532
21
72.7069049987194
72
1
10
49.5000016925532
20
72.7069049987194
11
46
21
73.1676887402722
97
0
75
0
76
1
52
0
41
0.0062
77
0
78
1
53
45
43
0
44
0
45
-0.0139193969876572
46
0.0139193969876572
79
0
47
0
98
1
10
0
20
0
0
HATCH
5
1DD
100
AcDbEntity
8
SK2
62
256
6
ByLayer
370
13
48
1
60
0
100
AcDbHatch
10
0
20
0
30
0
210
0
220
0
230
1
2
ANSI31
70
0
71
0
91
1
92
5
93
3
72
1
10
69
20
73.1676887402722
11
65.5000016925532
21
72.7069049987194
72
1
10
65.5000016925532
20
72.7069049987194
11
65.4999983074468
21
73.6284724818249
72
1
10
65.4999983074468
20
73.6284724818249
11
69
21
73.1676887402722
97
0
75
0
76
1
52
0
41
0.0062
77
0
78
1
53
45
43
0
44
0
45
-0.0139193969876572
46
0.0139193969876572
79
0
47
0
98
1
10
0
20
0
0
HATCH
5
1E2
100
AcDbEntity
8
2
62
256
6
ByLayer
370
13
48
1
60
0
100
AcDbHatch
10
0
20
0
30
0
210
0
220
0
230
1
2
ANSI31
70
0
71
0
91
1
92
5
93
3
72
1
10
55
20
-69.9000889984302
11
51.5000016925532
21
-70.360872739983
72
1
10
51.5000016925532
20
-70.360872739983
11
51.4999983074468
21
-69.4393052568774
72
1
10
51.4999983074468
20
-69.4393052568774
11
55
21
-69.9000889984302
97
0
75
0
76
1
52
0
41
0.0062
77
0
78
1
53
45
43
0
44
0
45
-0.0139193969876572
46
0.0139193969876572
79
0
47
0
98
1
10
0
20
0
0
HATCH
5
1E6
100
AcDbEntity
8
2
62
256
6
ByLayer
370
13
48
1
60
0
100
AcDbHatch
10
0
20
0
30
0
210
0
220
0
230
1
2
ANSI31
70
0
71
0
91
1
92
5
93
3
72
1
10
0
20
-69.9000889984302
11
3.49999830744682
21
-69.4393052568774
72
1
10
3.49999830744682
20
-69.4393052568774
11
3.50000169255318
21
-70.360872739983
72
1
10
3.50000169255318
20
-70.360872739983
11
0
21
-69.9000889984302
97
0
75
0
76
1
52
0
41
0.0062
77
0
78
1
53
45
43
0
44
0
45
-0.0139193969876572
46
0.0139193969876572
79
0
47
0
98
1
10
0
20
0
0
ENDSEC
0
SECTION
2
OBJECTS
0
DICTIONARY
5
255
330
0
100
AcDbDictionary
280
0
281
1
3
ACAD_GROUP
350
256
3
ACAD_MLINESTYLE
350
257
0
DICTIONARY
5
256
330
0
100
AcDbDictionary
280
0
281
1
0
DICTIONARY
5
257
330
0
100
AcDbDictionary
280
0
281
1
3
Standard
350
18
0
MLINESTYLE
5
18
330
257
100
AcDbMlineStyle
2
Standard
70
0
3

62
256
51
90
52
90
71
2
49
-0.5
62
256
6
ByLayer
49
0.5
62
256
6
ByLayer
0
RASTERVARIABLES
5
244
330

100
AcDbRasterVariables
90
0
70
1
71
1
72
1
0
ENDSEC
0
EOF
