0
SECTION
2
HEADER
9
$ACADVER
1
AC1015
9
$DWGCODEPAGE
3
ANSI_1252
9
$HANDSEED
5
225
9
$ANGBASE
50
0
9
$ANGDIR
70
0
9
$ATTMODE
70
1
9
$AUNITS
70
0
9
$AUPREC
70
0
9
$CECOLOR
62
256
9
$CELTSCALE
40
1
9
$CELTYPE
6
ByLayer
9
$CELWEIGHT
370
18
9
$CLAYER
8
0
9
$CMLJUST
70
0
9
$CMLSCALE
40
1
9
$CMLSTYLE
2
Standard
9
$DIMSTYLE
2
Standard
9
$TEXTSIZE
40
0.2
9
$TEXTSTYLE
7
Standard
9
$LUNITS
70
2
9
$LUPREC
70
4
9
$EXTNAMES
290
1
9
$INSUNITS
70
4
9
$LTSCALE
40
1
9
$LWDISPLAY
290
1
9
$PDMODE
70
0
9
$PDSIZE
40
0
9
$PLINEGEN
70
0
0
ENDSEC
0
SECTION
2
CLASSES
0
CLASS
1
RASTERVARIABLES
2
AcDbRasterVariables
3
ISM
90
0
280
0
281
0
0
ENDSEC
0
SECTION
2
TABLES
0
TABLE
2
VPORT
5
21b
100
AcDbSymbolTable
0
VPORT
5
1
100
AcDbSymbolTableRecord
100
AcDbViewportTableRecord
2
*Active
70
0
10
0
20
0
11
1
21
1
12
-1
22
1
13
0
23
0
14
0.5
24
0.5
15
10
25
10
16
0
26
0
36
1
17
0
27
0
37
0
0
ENDTAB
0
TABLE
2
LTYPE
5
21c
100
AcDbSymbolTable
0
LTYPE
5
14
100
AcDbSymbolTableRecord
100
AcDbLinetypeTableRecord
70
0
2
ByBlock
3

72
65
73
0
40
0
0
LTYPE
5
15
100
AcDbSymbolTableRecord
100
AcDbLinetypeTableRecord
70
0
2
ByLayer
3

72
65
73
0
40
0
0
LTYPE
5
16
100
AcDbSymbolTableRecord
100
AcDbLinetypeTableRecord
70
0
2
Continuous
3
Solid line
72
65
73
0
40
0
0
LTYPE
5
6E
100
AcDbSymbolTableRecord
100
AcDbLinetypeTableRecord
70
0
2
CENTER
3
____ _ ____ _ ____ _ ____
72
65
73
4
40
47.5
49
22
74
0
49
-8.5
74
0
49
8.5
74
0
49
-8.5
74
0
0
LTYPE
5
6F
100
AcDbSymbolTableRecord
100
AcDbLinetypeTableRecord
70
0
2
DASHED
3
__ __ __ __ __ __ __ __ __
72
65
73
2
40
25.72
49
12.86
74
0
49
-12.86
74
0
0
ENDTAB
0
TABLE
2
LAYER
5
21d
100
AcDbSymbolTable
0
LAYER
5
10
100
AcDbSymbolTableRecord
100
AcDbLayerTableRecord
2
0
70
0
62
7
6
Continuous
290
1
370
-3
390
0
0
LAYER
5
71
100
AcDbSymbolTableRecord
100
AcDbLayerTableRecord
2
2
70
0
62
7
6
Continuous
290
1
370
-3
390
0
0
LAYER
5
81
100
AcDbSymbolTableRecord
100
AcDbLayerTableRecord
2
81
70
0
62
-3
6
Continuous
290
1
370
-3
390
0
0
LAYER
5
83
100
AcDbSymbolTableRecord
100
AcDbLayerTableRecord
2
80
70
0
62
-6
6
Continuous
290
1
370
-3
390
0
0
LAYER
5
85
100
AcDbSymbolTableRecord
100
AcDbLayerTableRecord
2
4
70
0
62
-2
6
CENTER
290
1
370
-3
390
0
0
LAYER
5
89
100
AcDbSymbolTableRecord
100
AcDbLayerTableRecord
2
1
70
0
62
4
6
Continuous
290
1
370
-3
390
0
0
LAYER
5
208
100
AcDbSymbolTableRecord
100
AcDbLayerTableRecord
2
SK1
70
0
62
4
6
Continuous
290
1
370
-3
390
0
0
LAYER
5
209
100
AcDbSymbolTableRecord
100
AcDbLayerTableRecord
2
SK2
70
0
62
7
6
Continuous
290
1
370
-3
390
0
0
LAYER
5
20a
100
AcDbSymbolTableRecord
100
AcDbLayerTableRecord
2
SK6
70
0
62
5
6
Continuous
290
1
370
-3
390
0
0
ENDTAB
0
TABLE
2
STYLE
5
21e
100
AcDbSymbolTable
0
STYLE
5
11
100
AcDbSymbolTableRecord
100
AcDbTextStyleTableRecord
2
Standard
3
txt
70
0
71
0
40
0
41
1
42
0
50
0
0
STYLE
5
17A
100
AcDbSymbolTableRecord
100
AcDbTextStyleTableRecord
2
iso_b_vert
3
simplex.shx
70
0
71
0
40
0
41
1
42
0
50
0
0
STYLE
5
17B
100
AcDbSymbolTableRecord
100
AcDbTextStyleTableRecord
2
DWGDirectTextStyle
3
simplex
70
0
71
0
40
0
41
1
42
0
50
0
0
ENDTAB
0
TABLE
2
DIMSTYLE
5
21f
100
AcDbSymbolTable
100
AcDbDimStyleTable
0
DIMSTYLE
105
27
100
AcDbSymbolTableRecord
100
AcDbDimStyleTableRecord
2
Standard
70
0
3
<>
41
0.18
42
0.0625
44
0.18
140
0.18
147
0.09
73
0
74
0
77
1
271
2
275
0
278
52
280
0
340
11
0
ENDTAB
0
TABLE
2
VIEW
5
220
100
AcDbSymbolTable
0
ENDTAB
0
TABLE
2
UCS
5
221
100
AcDbSymbolTable
0
ENDTAB
0
TABLE
2
APPID
5
222
100
AcDbSymbolTable
0
APPID
5
12
100
AcDbSymbolTableRecord
100
AcDbRegAppTableRecord
2
ACAD
70
0
0
APPID
5
204
100
AcDbSymbolTableRecord
100
AcDbRegAppTableRecord
2
ACAD_MLEADERVER
70
0
0
ENDTAB
0
TABLE
2
BLOCK_RECORD
5
223
100
AcDbSymbolTable
0
BLOCK_RECORD
5
1F
100
AcDbSymbolTableRecord
100
AcDbBlockTableRecord
2
*Model_Space
340
0
70
0
0
BLOCK_RECORD
5
1B
100
AcDbSymbolTableRecord
100
AcDbBlockTableRecord
2
*Paper_Space
340
0
70
0
0
BLOCK_RECORD
5
23
100
AcDbSymbolTableRecord
100
AcDbBlockTableRecord
2
*Paper_Space0
340
0
70
0
0
ENDTAB
0
ENDSEC
0
SECTION
2
BLOCKS
0
BLOCK
5
20
100
AcDbEntity
8
0
100
AcDbBlockBegin
2
*Model_Space
70
0
10
0
20
0
30
0
3
*Model_Space
0
ENDBLK
5
21
100
AcDbEntity
8
0
100
AcDbBlockEnd
0
BLOCK
5
1C
100
AcDbEntity
8
0
100
AcDbBlockBegin
2
*Paper_Space
70
0
10
0
20
0
30
0
3
*Paper_Space
0
ENDBLK
5
1D
100
AcDbEntity
8
0
100
AcDbBlockEnd
0
BLOCK
5
24
100
AcDbEntity
8
0
100
AcDbBlockBegin
2
*Paper_Space0
70
0
10
0
20
0
30
0
3
*Paper_Space0
0
ENDBLK
5
25
100
AcDbEntity
8
0
100
AcDbBlockEnd
0
ENDSEC
0
SECTION
2
ENTITIES
0
ARC
5
113
100
AcDbEntity
8
SK2
62
256
6
ByLayer
370
18
48
1
60
0
100
AcDbCircle
39
0
10
49.8
20
0
30
0
40
3.085
210
0
220
0
230
1
100
AcDbArc
50
300
51
0
0
ARC
5
114
100
AcDbEntity
8
SK2
62
256
6
ByLayer
370
18
48
1
60
0
100
AcDbCircle
39
0
10
49.8
20
0
30
0
40
3.085
210
0
220
0
230
1
100
AcDbArc
50
120
51
180
0
ARC
5
115
100
AcDbEntity
8
SK2
62
256
6
ByLayer
370
18
48
1
60
0
100
AcDbCircle
39
0
10
49.8
20
0
30
0
40
3.085
210
0
220
0
230
1
100
AcDbArc
50
180
51
240
0
ARC
5
116
100
AcDbEntity
8
SK2
62
256
6
ByLayer
370
18
48
1
60
0
100
AcDbCircle
39
0
10
49.8
20
0
30
0
40
3.085
210
0
220
0
230
1
100
AcDbArc
50
240
51
300
0
ARC
5
117
100
AcDbEntity
8
SK2
62
256
6
ByLayer
370
18
48
1
60
0
100
AcDbCircle
39
0
10
49.8
20
0
30
0
40
3.085
210
0
220
0
230
1
100
AcDbArc
50
0
51
60
0
ARC
5
118
100
AcDbEntity
8
SK2
62
256
6
ByLayer
370
18
48
1
60
0
100
AcDbCircle
39
0
10
49.8
20
0
30
0
40
3.085
210
0
220
0
230
1
100
AcDbArc
50
60
51
120
0
ARC
5
11B
100
AcDbEntity
8
SK2
62
256
6
ByLayer
370
18
48
1
60
0
100
AcDbCircle
39
0
10
78.2
20
0
30
0
40
3.085
210
0
220
0
230
1
100
AcDbArc
50
300
51
0
0
ARC
5
11C
100
AcDbEntity
8
SK2
62
256
6
ByLayer
370
18
48
1
60
0
100
AcDbCircle
39
0
10
78.2
20
0
30
0
40
3.085
210
0
220
0
230
1
100
AcDbArc
50
120
51
180
0
ARC
5
11D
100
AcDbEntity
8
SK2
62
256
6
ByLayer
370
18
48
1
60
0
100
AcDbCircle
39
0
10
78.2
20
0
30
0
40
3.085
210
0
220
0
230
1
100
AcDbArc
50
60
51
120
0
ARC
5
11E
100
AcDbEntity
8
SK2
62
256
6
ByLayer
370
18
48
1
60
0
100
AcDbCircle
39
0
10
78.2
20
0
30
0
40
3.085
210
0
220
0
230
1
100
AcDbArc
50
240
51
300
0
ARC
5
11F
100
AcDbEntity
8
SK2
62
256
6
ByLayer
370
18
48
1
60
0
100
AcDbCircle
39
0
10
78.2
20
0
30
0
40
3.085
210
0
220
0
230
1
100
AcDbArc
50
180
51
240
0
ARC
5
120
100
AcDbEntity
8
SK2
62
256
6
ByLayer
370
18
48
1
60
0
100
AcDbCircle
39
0
10
78.2
20
0
30
0
40
3.085
210
0
220
0
230
1
100
AcDbArc
50
0
51
60
0
ARC
5
123
100
AcDbEntity
8
1
62
256
6
ByLayer
370
18
48
1
60
0
100
AcDbCircle
39
0
10
27.624598
20
26.4
30
0
40
0.600000000000001
210
0
220
0
230
1
100
AcDbArc
50
270
51
285
0
ARC
5
124
100
AcDbEntity
8
1
62
256
6
ByLayer
370
18
48
1
60
0
100
AcDbCircle
39
0
10
27.624598
20
-26.4
30
0
40
0.600000000000001
210
0
220
0
230
1
100
AcDbArc
50
75
51
90
0
ARC
5
125
100
AcDbEntity
8
1
62
256
6
ByLayer
370
18
48
1
60
0
100
AcDbCircle
39
0
10
26.95
20
26.8
30
0
40
1
210
0
220
0
230
1
100
AcDbArc
50
180
51
270
0
ARC
5
126
100
AcDbEntity
8
1
62
256
6
ByLayer
370
18
48
1
60
0
100
AcDbCircle
39
0
10
26.95
20
-26.8
30
0
40
1
210
0
220
0
230
1
100
AcDbArc
50
90
51
180
0
ARC
5
127
100
AcDbEntity
8
SK1
62
256
6
ByLayer
370
18
48
1
60
0
100
AcDbCircle
39
0
10
-33.7
20
27.695
30
0
40
1.9
210
0
220
0
230
1
100
AcDbArc
50
270
51
308.111164
0
ARC
5
128
100
AcDbEntity
8
SK1
62
256
6
ByLayer
370
18
48
1
60
0
100
AcDbCircle
39
0
10
-29.7
20
-27.695
30
0
40
1.9
210
0
220
0
230
1
100
AcDbArc
50
40.779811
51
90
0
ARC
5
129
100
AcDbEntity
8
SK1
62
256
6
ByLayer
370
18
48
1
60
0
100
AcDbCircle
39
0
10
-0.8
20
31.031551
30
0
40
0.999999999999993
210
0
220
0
230
1
100
AcDbArc
50
270
51
323.130102
0
ARC
5
12A
100
AcDbEntity
8
SK1
62
256
6
ByLayer
370
18
48
1
60
0
100
AcDbCircle
39
0
10
-0.8
20
-31.031551
30
0
40
0.999999999999993
210
0
220
0
230
1
100
AcDbArc
50
36.869898
51
90
0
CIRCLE
5
111
100
AcDbEntity
8
1
62
256
6
ByLayer
370
18
48
1
60
0
100
AcDbCircle
10
78.2
20
0
30
0
40
6.49999999999998
39
0
210
0
220
0
230
1
0
CIRCLE
5
112
100
AcDbEntity
8
1
62
256
6
ByLayer
370
18
48
1
60
0
100
AcDbCircle
10
49.8
20
0
30
0
40
6.5
39
0
210
0
220
0
230
1
0
CIRCLE
5
119
100
AcDbEntity
8
SK2
62
256
6
ByLayer
370
18
48
1
60
0
100
AcDbCircle
10
49.8
20
0
30
0
40
6.235
39
0
210
0
220
0
230
1
0
CIRCLE
5
11A
100
AcDbEntity
8
SK2
62
256
6
ByLayer
370
18
48
1
60
0
100
AcDbCircle
10
49.8
20
0
30
0
40
3.585
39
0
210
0
220
0
230
1
0
CIRCLE
5
121
100
AcDbEntity
8
SK2
62
256
6
ByLayer
370
18
48
1
60
0
100
AcDbCircle
10
78.2
20
0
30
0
40
6.235
39
0
210
0
220
0
230
1
0
CIRCLE
5
122
100
AcDbEntity
8
SK2
62
256
6
ByLayer
370
18
48
1
60
0
100
AcDbCircle
10
78.2
20
0
30
0
40
3.585
39
0
210
0
220
0
230
1
0
ELLIPSE
5
12B
100
AcDbEntity
8
1
62
256
6
ByLayer
370
18
48
1
60
0
100
AcDbEllipse
10
18
20
10.204171
30
0
11
-1.75
21
-5.62850005318694E-16
31
0
210
0
220
0
230
1
40
0.939693
41
-1.57079655010655
42
-0.580213035378962
0
ELLIPSE
5
12C
100
AcDbEntity
8
1
62
256
6
ByLayer
370
18
48
1
60
0
100
AcDbEllipse
10
18
20
10.204171
30
0
11
-1.75
21
-5.62850005318694E-16
31
0
210
0
220
0
230
1
40
0.939693
41
-2.55696172681271
42
-1.57079597867799
0
ELLIPSE
5
12D
100
AcDbEntity
8
1
62
256
6
ByLayer
370
18
48
1
60
0
100
AcDbEllipse
10
18
20
-10.204171
30
0
11
1.75
21
0
31
0
210
0
220
0
230
1
40
0.939693
41
-2.57728425075015
42
-0.583747216458182
0
ELLIPSE
5
12E
100
AcDbEntity
8
1
62
256
6
ByLayer
370
18
48
1
60
0
100
AcDbEllipse
10
18
20
5.180793
30
0
11
-1.75
21
-5.62850005318694E-16
31
0
210
0
220
0
230
1
40
0.984808
41
-1.57079655876473
42
-0.25054249963662
0
ELLIPSE
5
12F
100
AcDbEntity
8
1
62
256
6
ByLayer
370
18
48
1
60
0
100
AcDbEllipse
10
18
20
5.180793
30
0
11
-1.75
21
-5.62850005318694E-16
31
0
210
0
220
0
230
1
40
0.984808
41
-2.8831966353993
42
-1.57079655876474
0
ELLIPSE
5
130
100
AcDbEntity
8
1
62
256
6
ByLayer
370
18
48
1
60
0
100
AcDbEllipse
10
18
20
-5.180793
30
0
11
1.75
21
0
31
0
210
0
220
0
230
1
40
0.984808
41
-2.86385615021273
42
-0.266936853393314
0
ELLIPSE
5
131
100
AcDbEntity
8
SK1
62
256
6
ByLayer
370
13
48
1
60
0
100
AcDbEllipse
10
-29.7
20
-27.065018
30
0
11
-1.9
21
-6.11094291488867E-16
31
0
210
0
220
0
230
1
40
0.891007
41
-1.98807063221036
42
-1.5707963267949
0
POINT
5
70
100
AcDbEntity
8
2
62
256
6
ByLayer
370
18
48
1
60
0
100
AcDbPoint
10
78.2
20
0
30
0
39
0
210
0
220
0
230
1
50
360
0
POINT
5
72
100
AcDbEntity
8
2
62
256
6
ByLayer
370
18
48
1
60
0
100
AcDbPoint
10
78.2
20
0
30
0
39
0
210
0
220
0
230
1
50
360
0
POINT
5
73
100
AcDbEntity
8
2
62
256
6
ByLayer
370
18
48
1
60
0
100
AcDbPoint
10
95
20
0
30
0
39
0
210
0
220
0
230
1
50
360
0
POINT
5
74
100
AcDbEntity
8
2
62
256
6
ByLayer
370
18
48
1
60
0
100
AcDbPoint
10
78.2
20
0
30
0
39
0
210
0
220
0
230
1
50
360
0
POINT
5
75
100
AcDbEntity
8
2
62
256
6
ByLayer
370
18
48
1
60
0
100
AcDbPoint
10
33.5
20
0
30
0
39
0
210
0
220
0
230
1
50
360
0
POINT
5
76
100
AcDbEntity
8
2
62
256
6
ByLayer
370
18
48
1
60
0
100
AcDbPoint
10
95
20
0
30
0
39
0
210
0
220
0
230
1
50
360
0
POINT
5
77
100
AcDbEntity
8
2
62
256
6
ByLayer
370
18
48
1
60
0
100
AcDbPoint
10
78.2
20
0
30
0
39
0
210
0
220
0
230
1
50
360
0
POINT
5
78
100
AcDbEntity
8
2
62
256
6
ByLayer
370
18
48
1
60
0
100
AcDbPoint
10
95
20
0
30
0
39
0
210
0
220
0
230
1
50
360
0
POINT
5
79
100
AcDbEntity
8
2
62
256
6
ByLayer
370
18
48
1
60
0
100
AcDbPoint
10
0
20
0
30
0
39
0
210
0
220
0
230
1
50
360
0
POINT
5
7A
100
AcDbEntity
8
2
62
256
6
ByLayer
370
18
48
1
60
0
100
AcDbPoint
10
49.8
20
0
30
0
39
0
210
0
220
0
230
1
50
360
0
POINT
5
7B
100
AcDbEntity
8
2
62
256
6
ByLayer
370
18
48
1
60
0
100
AcDbPoint
10
95
20
0
30
0
39
0
210
0
220
0
230
1
50
360
0
POINT
5
7C
100
AcDbEntity
8
2
62
256
6
ByLayer
370
18
48
1
60
0
100
AcDbPoint
10
95
20
0
30
0
39
0
210
0
220
0
230
1
50
360
0
POINT
5
7D
100
AcDbEntity
8
2
62
256
6
ByLayer
370
18
48
1
60
0
100
AcDbPoint
10
49.8
20
0
30
0
39
0
210
0
220
0
230
1
50
360
0
POINT
5
7E
100
AcDbEntity
8
2
62
256
6
ByLayer
370
18
48
1
60
0
100
AcDbPoint
10
25.95
20
0
30
0
39
0
210
0
220
0
230
1
50
360
0
POINT
5
7F
100
AcDbEntity
8
2
62
256
6
ByLayer
370
18
48
1
60
0
100
AcDbPoint
10
95
20
0
30
0
39
0
210
0
220
0
230
1
50
360
0
POINT
5
80
100
AcDbEntity
8
81
62
256
6
ByLayer
370
18
48
1
60
0
100
AcDbPoint
10
95
20
0
30
0
39
0
210
0
220
0
230
1
50
360
0
POINT
5
82
100
AcDbEntity
8
80
62
256
6
ByLayer
370
18
48
1
60
0
100
AcDbPoint
10
0
20
0
30
0
39
0
210
0
220
0
230
1
50
360
0
SPLINE
5
132
100
AcDbEntity
8
1
62
256
6
ByLayer
370
18
48
1
60
0
100
AcDbSpline
70
4
71
3
72
8
73
4
40
0
40
0
40
0
40
0
40
1
40
1
40
1
40
1
41
1
10
16.075
20
36.0999874655051
30
0
41
1
10
15.5445507438926
20
37.04698255729
30
0
41
1
10
15.0131725328638
20
37.9934581926561
30
0
41
1
10
14.4810501092892
20
38.9395119865414
30
0
0
SPLINE
5
133
100
AcDbEntity
8
1
62
256
6
ByLayer
370
18
48
1
60
0
100
AcDbSpline
70
4
71
3
72
8
73
4
40
0
40
0
40
0
40
0
40
1
40
1
40
1
40
1
41
1
10
16.075
20
27.6947991734843
30
0
41
1
10
15.5552867834291
20
28.9042173058804
30
0
41
1
10
15.023072236715
20
30.1075842356812
30
0
41
1
10
14.4810501092892
20
31.3062038580216
30
0
0
SPLINE
5
134
100
AcDbEntity
8
1
62
256
6
ByLayer
370
18
48
1
60
0
100
AcDbSpline
70
4
71
3
72
8
73
4
40
0
40
0
40
0
40
0
40
1
40
1
40
1
40
1
41
1
10
25.95
20
38.2206435548906
30
0
41
1
10
25.7167248895642
20
38.4603232864382
30
0
41
1
10
25.4833905096394
20
38.6999450737996
30
0
41
1
10
25.25
20
38.9395119865414
30
0
0
SPLINE
5
135
100
AcDbEntity
8
1
62
256
6
ByLayer
370
18
48
1
60
0
100
AcDbSpline
70
4
71
3
72
8
73
4
40
0
40
0
40
0
40
0
40
1
40
1
40
1
40
1
41
1
10
25.95
20
30.4074069923761
30
0
41
1
10
25.7175250367576
20
30.7076394919383
30
0
41
1
10
25.4841358809967
20
31.0072723361455
30
0
41
1
10
25.2499999999999
20
31.3062038580216
30
0
0
SPLINE
5
136
100
AcDbEntity
8
1
62
256
6
ByLayer
370
18
48
1
60
0
100
AcDbSpline
70
4
71
3
72
8
73
4
40
0
40
0
40
0
40
0
40
1
40
1
40
1
40
1
41
1
10
21.5189498907107
20
38.9395119865414
30
0
41
1
10
20.9868274671361
20
37.9934581926561
30
0
41
1
10
20.4554492561073
20
37.04698255729
30
0
41
1
10
19.925
20
36.0999874655051
30
0
0
SPLINE
5
137
100
AcDbEntity
8
1
62
256
6
ByLayer
370
18
48
1
60
0
100
AcDbSpline
70
4
71
3
72
8
73
4
40
0
40
0
40
0
40
0
40
1
40
1
40
1
40
1
41
1
10
21.5189498907107
20
31.3062038580216
30
0
41
1
10
20.976927763285
20
30.1075842356813
30
0
41
1
10
20.4447132165709
20
28.9042173058804
30
0
41
1
10
19.925
20
27.6947991734843
30
0
0
SPLINE
5
138
100
AcDbEntity
8
1
62
256
6
ByLayer
370
18
48
1
60
0
100
AcDbSpline
70
2053
71
3
72
204
73
200
40
0
40
0
40
0
40
0
40
0.0156250000000012
40
0.0156250000000012
40
0.0312500000000024
40
0.0312500000000024
40
0.0468750000000036
40
0.0468750000000036
40
0.0546875000000042
40
0.0546875000000042
40
0.0585937500000045
40
0.0585937500000045
40
0.0625000000000047
40
0.0625000000000047
40
0.0781250000000064
40
0.0781250000000064
40
0.093750000000008
40
0.093750000000008
40
0.10937500000001
40
0.10937500000001
40
0.11328125000001
40
0.115234375000011
40
0.115234375000011
40
0.117187500000011
40
0.117187500000011
40
0.125000000000013
40
0.125000000000013
40
0.140625000000017
40
0.140625000000017
40
0.156250000000021
40
0.156250000000021
40
0.164062500000022
40
0.164062500000022
40
0.167968750000023
40
0.167968750000023
40
0.171875000000024
40
0.171875000000024
40
0.187500000000028
40
0.187500000000028
40
0.203125000000031
40
0.203125000000031
40
0.207031250000032
40
0.207031250000032
40
0.210937500000033
40
0.210937500000033
40
0.218750000000035
40
0.218750000000035
40
0.234375000000039
40
0.234375000000039
40
0.250000000000043
40
0.250000000000043
40
0.253906250000044
40
0.253906250000044
40
0.257812500000045
40
0.265625000000046
40
0.265625000000046
40
0.28125000000005
40
0.28125000000005
40
0.296875000000053
40
0.296875000000053
40
0.300781250000054
40
0.300781250000054
40
0.304687500000054
40
0.312500000000055
40
0.312500000000055
40
0.328125000000058
40
0.328125000000058
40
0.34375000000006
40
0.34375000000006
40
0.351562500000061
40
0.351562500000061
40
0.355468750000062
40
0.355468750000062
40
0.359375000000062
40
0.359375000000062
40
0.375000000000064
40
0.375000000000064
40
0.390625000000065
40
0.406250000000067
40
0.406250000000067
40
0.410156250000067
40
0.410156250000067
40
0.414062500000068
40
0.414062500000068
40
0.421875000000068
40
0.421875000000068
40
0.437500000000069
40
0.45312500000007
40
0.45312500000007
40
0.468750000000071
40
0.468750000000071
40
0.472656250000071
40
0.472656250000071
40
0.476562500000071
40
0.476562500000071
40
0.484375000000071
40
0.484375000000071
40
0.50000000000007
40
0.50000000000007
40
0.515625000000069
40
0.515625000000069
40
0.531250000000069
40
0.531250000000069
40
0.535156250000068
40
0.535156250000068
40
0.539062500000068
40
0.546875000000068
40
0.546875000000068
40
0.562500000000066
40
0.562500000000066
40
0.578125000000065
40
0.578125000000065
40
0.593750000000064
40
0.593750000000064
40
0.597656250000063
40
0.597656250000063
40
0.601562500000062
40
0.609375000000061
40
0.609375000000061
40
0.625000000000059
40
0.625000000000059
40
0.632812500000058
40
0.632812500000058
40
0.636718750000058
40
0.638671875000058
40
0.638671875000058
40
0.640625000000057
40
0.640625000000057
40
0.656250000000055
40
0.656250000000055
40
0.671875000000052
40
0.671875000000052
40
0.679687500000051
40
0.679687500000051
40
0.68359375000005
40
0.68359375000005
40
0.68554687500005
40
0.68554687500005
40
0.687500000000049
40
0.703125000000047
40
0.703125000000047
40
0.718750000000045
40
0.718750000000045
40
0.726562500000044
40
0.726562500000044
40
0.734375000000042
40
0.734375000000042
40
0.75000000000004
40
0.75000000000004
40
0.765625000000038
40
0.765625000000038
40
0.769531250000038
40
0.769531250000038
40
0.773437500000038
40
0.773437500000038
40
0.781250000000037
40
0.781250000000037
40
0.796875000000035
40
0.796875000000035
40
0.812500000000032
40
0.812500000000032
40
0.816406250000031
40
0.816406250000031
40
0.82031250000003
40
0.82031250000003
40
0.828125000000029
40
0.828125000000029
40
0.843750000000026
40
0.843750000000026
40
0.859375000000024
40
0.875000000000022
40
0.875000000000022
40
0.878906250000021
40
0.878906250000021
40
0.88281250000002
40
0.890625000000019
40
0.890625000000019
40
0.906250000000016
40
0.921875000000013
40
0.921875000000013
40
0.929687500000011
40
0.929687500000011
40
0.933593750000011
40
0.933593750000011
40
0.93750000000001
40
0.93750000000001
40
0.953125000000008
40
0.953125000000008
40
0.968750000000005
40
0.968750000000005
40
0.984375000000003
40
0.984375000000003
40
0.992187500000002
40
0.992187500000002
40
0.996093750000002
40
0.998046875000001
40
0.999023437500001
40
0.999023437500001
40
1
40
1
40
1
40
1
41
1
10
74.1789397786318
20
-6.43777122189186
30
0
41
1
10
73.9454306905852
20
-6.32569214227041
30
0
41
1
10
73.7187368707288
20
-6.20432809049464
30
0
41
1
10
73.2787711020418
20
-5.94313576055694
30
0
41
1
10
73.0654986186178
20
-5.80330844324254
30
0
41
1
10
72.6525613522697
20
-5.50474010014833
30
0
41
1
10
72.452894095772
20
-5.34600290123615
30
0
41
1
10
72.1640643966357
20
-5.09290897325008
30
0
41
1
10
72.0695699805248
20
-5.00604111125651
30
0
41
1
10
71.9305973749883
20
-4.87182975709587
30
0
41
1
10
71.8847131298999
20
-4.82641845048349
30
0
41
1
10
71.7939793251104
20
-4.73435363833053
30
0
41
1
10
71.7492904382809
20
-4.68786422129938
30
0
41
1
10
71.529223975702
20
-4.45313491723451
30
0
41
1
10
71.36395297752
20
-4.25806655243471
30
0
41
1
10
71.0551040378927
20
-3.85314191163837
30
0
41
1
10
70.9115236515311
20
-3.64328753839266
30
0
41
1
10
70.6469090270155
20
-3.20808706626659
30
0
41
1
10
70.5258676997437
20
-2.98274603501972
30
0
41
1
10
70.3897277692094
20
-2.69058170518576
30
0
41
1
10
70.3500265378581
20
-2.60214332445699
30
0
41
1
10
70.3120789977476
20
-2.5124900965213
30
0
41
1
10
70.2871755414639
20
-2.45244752245904
30
0
41
1
10
70.2749100148754
20
-2.42226049098826
30
0
41
1
10
70.2147793111771
20
-2.27112935740263
30
0
41
1
10
70.1704290391939
20
-2.14944198472179
30
0
41
1
10
70.0485300186575
20
-1.78205018957968
30
0
41
1
10
69.9821032791788
20
-1.53402203791381
30
0
41
1
10
69.8790667589219
20
-1.03171425528544
30
0
41
1
10
69.8424540365768
20
-0.777435260333846
30
0
41
1
10
69.8107432289919
20
-0.391141512754388
30
0
41
1
10
69.8040489742298
20
-0.261562787681214
30
0
41
1
10
69.8000073784776
20
-0.0659340280275842
30
0
41
1
10
69.7996643978473
20
-0.0004021719512366
30
0
41
1
10
69.8009985617542
20
0.130154904325906
30
0
41
1
10
69.8026705535999
20
0.195258219314525
30
0
41
1
10
69.8159836334354
20
0.519911208806207
30
0
41
1
10
69.8424414877565
20
0.776877220234951
30
0
41
1
10
69.9258548911559
20
1.28549866011986
30
0
41
1
10
69.9828133005303
20
1.53715357981298
30
0
41
1
10
70.0730170935869
20
1.84842270950998
30
0
41
1
10
70.09201056465
20
1.9105111585975
30
0
41
1
10
70.1319112378096
20
2.03435619379027
30
0
41
1
10
70.1528516380542
20
2.09620065110721
30
0
41
1
10
70.2181696991073
20
2.28016265810939
30
0
41
1
10
70.2651060051949
20
2.40094660132419
30
0
41
1
10
70.4157020224131
20
2.75795136186619
30
0
41
1
10
70.5291201747818
20
2.98884039335724
30
0
41
1
10
70.7807214810508
20
3.43717236961481
30
0
41
1
10
70.9189088191674
20
3.65461287801725
30
0
41
1
10
71.1068766682554
20
3.91820467060677
30
0
41
1
10
71.1452584988575
20
3.97054030617608
30
0
41
1
10
71.2231374147257
20
4.07385645625095
30
0
41
1
10
71.3417688873682
20
4.22699551445922
30
0
41
1
10
71.4657241158045
20
4.37475818106242
30
0
41
1
10
71.7205027565931
20
4.66337974392351
30
0
41
1
10
71.8994936981394
20
4.84660829453748
30
0
41
1
10
72.275038057238
20
5.19558557279339
30
0
41
1
10
72.4715939292712
20
5.36133151801991
30
0
41
1
10
72.7281885019658
20
5.55777584191765
30
0
41
1
10
72.7800754500233
20
5.59653990219442
30
0
41
1
10
72.8844600896847
20
5.67264708038473
30
0
41
1
10
73.0421260726487
20
5.78480893859211
30
0
41
1
10
73.2030057091592
20
5.89108820888748
30
0
41
1
10
73.5289472242492
20
6.0960316591038
30
0
41
1
10
73.7518078248004
20
6.22252618678672
30
0
41
1
10
74.2083806669661
20
6.4559581475292
30
0
41
1
10
74.4420939567316
20
6.56289336419195
30
0
41
1
10
74.800827759694
20
6.70871846508234
30
0
41
1
10
74.9217686682463
20
6.75489285377679
30
0
41
1
10
75.105248513839
20
6.82047594469571
30
0
41
1
10
75.1666292306485
20
6.84167826612173
30
0
41
1
10
75.2895806101182
20
6.8826954079463
30
0
41
1
10
75.3511900846861
20
6.90252415748952
30
0
41
1
10
75.65989956968
20
6.99830976219755
30
0
41
1
10
75.9089816917003
20
7.06421534592826
30
0
41
1
10
76.411271030891
20
7.17524315875872
30
0
41
1
10
76.917686485787
20
7.26548222640852
30
0
41
1
10
77.4323468175003
20
7.31437039749483
30
0
41
1
10
77.7566443099861
20
7.33174428475476
30
0
41
1
10
77.8216357898596
20
7.33455868475713
30
0
41
1
10
77.9518851621989
20
7.33885485784015
30
0
41
1
10
78.0171395809479
20
7.34033440563437
30
0
41
1
10
78.2123726854013
20
7.34275440126561
30
0
41
1
10
78.3421322970233
20
7.34168960115227
30
0
41
1
10
78.7302438005259
20
7.33059562133548
30
0
41
1
10
79.2446173148354
20
7.29477026409214
30
0
41
1
10
79.7528775047586
20
7.21750345959578
30
0
41
1
10
80.258062717748
20
7.11930917349005
30
0
41
1
10
80.5091181520728
20
7.05975066705071
30
0
41
1
10
80.8209578151088
20
6.97175001631234
30
0
41
1
10
80.8832265678055
20
6.95347078711669
30
0
41
1
10
81.0075634282084
20
6.91553606408993
30
0
41
1
10
81.0695103292986
20
6.89591630506496
30
0
41
1
10
81.2542140118376
20
6.83525916572336
30
0
41
1
10
81.3760318859883
20
6.79236510665478
30
0
41
1
10
81.7375829996395
20
6.65638189264703
30
0
41
1
10
81.9734224027081
20
6.55600873371574
30
0
41
1
10
82.43477451669
20
6.33577223738695
30
0
41
1
10
82.6602880470656
20
6.21591074572515
30
0
41
1
10
83.1007639034533
20
5.95607643027259
30
0
41
1
10
83.3157286225289
20
5.81610861317134
30
0
41
1
10
83.5774917069603
20
5.62777585297934
30
0
41
1
10
83.6295020505761
20
5.58943439057771
30
0
41
1
10
83.7327906491525
20
5.51140012703547
30
0
41
1
10
83.8859966837331
20
5.39279444604958
30
0
41
1
10
84.0340533788418
20
5.26954233334118
30
0
41
1
10
84.3233267231301
20
5.01683500379312
30
0
41
1
10
84.5070740241577
20
4.84010948610987
30
0
41
1
10
84.8560672230657
20
4.46971446718385
30
0
41
1
10
85.0213165071135
20
4.27604837875839
30
0
41
1
10
85.3323876423517
20
3.8707603927771
30
0
41
1
10
85.4782173493308
20
3.65914608501603
30
0
41
1
10
85.6472897848324
20
3.38231390179814
30
0
41
1
10
85.6804533092816
20
3.32630147019805
30
0
41
1
10
85.7449936175505
20
3.21377120751066
30
0
41
1
10
85.83929134854
20
3.04394587579887
30
0
41
1
10
85.926062976249
20
2.8710303285053
30
0
41
1
10
86.0895149902787
20
2.52104275818562
30
0
41
1
10
86.1850581766942
20
2.28218783201007
30
0
41
1
10
86.3074911128897
20
1.91525905339586
30
0
41
1
10
86.3448144912644
20
1.79150548004279
30
0
41
1
10
86.3954027622693
20
1.60363614546708
30
0
41
1
10
86.419346965585
20
1.50914143913855
30
0
41
1
10
86.4412271706793
20
1.41378971929598
30
0
41
1
10
86.455350491276
20
1.35002938367876
30
0
41
1
10
86.4621862226423
20
1.31802378845344
30
0
41
1
10
86.5214293685116
20
1.02993892795069
30
0
41
1
10
86.5580407357146
20
0.773292266257215
30
0
41
1
10
86.5999569079156
20
0.258882519346997
30
0
41
1
10
86.6052600538933
20
0.0011193798543161
30
0
41
1
10
86.5895526131511
20
-0.386369372190956
30
0
41
1
10
86.5803652616256
20
-0.515673228893888
30
0
41
1
10
86.560560828126
20
-0.709843747053185
30
0
41
1
10
86.5529549205389
20
-0.774603059868383
30
0
41
1
10
86.540022436903
20
-0.871796322965764
30
0
41
1
10
86.5354531820133
20
-0.904231633705194
30
0
41
1
10
86.5258342846653
20
-0.968924193829736
30
0
41
1
10
86.4803668708656
20
-1.25932418761033
30
0
41
1
10
86.415591602604
20
-1.54338496223363
30
0
41
1
10
86.2715599655065
20
-2.03893051552072
30
0
41
1
10
86.1851006796655
20
-2.28197571385167
30
0
41
1
10
86.0341982347183
20
-2.63963228222863
30
0
41
1
10
85.9803543356969
20
-2.75769691080808
30
0
41
1
10
85.8655668585639
20
-2.99151997400813
30
0
41
1
10
85.8050942608846
20
-3.10631520133543
30
0
41
1
10
85.615004001484
20
-3.44426763928419
30
0
41
1
10
85.4766583761573
20
-3.66117741580646
30
0
41
1
10
85.1780164144432
20
-4.07926555436947
30
0
41
1
10
85.017715324146
20
-4.28044026319316
30
0
41
1
10
84.8039201488552
20
-4.52237614623914
30
0
41
1
10
84.7604883897604
20
-4.57028544313994
30
0
41
1
10
84.6722800441224
20
-4.66515094921354
30
0
41
1
10
84.6275354323572
20
-4.71206954055901
30
0
41
1
10
84.4919547614361
20
-4.85073736950076
30
0
41
1
10
84.3995705039806
20
-4.94062026332799
30
0
41
1
10
84.1166239435191
20
-5.20287354865602
30
0
41
1
10
83.9202836554782
20
-5.36786904660278
30
0
41
1
10
83.5128097687134
20
-5.67917515251781
30
0
41
1
10
83.3016737915167
20
-5.82548237542204
30
0
41
1
10
83.0285942558243
20
-5.99691706862166
30
0
41
1
10
82.9735192720793
20
-6.03063013612308
30
0
41
1
10
82.862449026964
20
-6.09690880312769
30
0
41
1
10
82.8064222060757
20
-6.12949223396311
30
0
41
1
10
82.6371606950702
20
-6.22540251753446
30
0
41
1
10
82.5232455171813
20
-6.28661159894304
30
0
41
1
10
82.1783603560999
20
-6.46229658667758
30
0
41
1
10
81.9442580034935
20
-6.56884961792173
30
0
41
1
10
81.4679428891897
20
-6.76163233174094
30
0
41
1
10
80.9835154219489
20
-6.93408685026949
30
0
41
1
10
80.4829127463909
20
-7.0663326646528
30
0
41
1
10
80.1648666120629
20
-7.1362180977525
30
0
41
1
10
80.10100388297
20
-7.14955209723959
30
0
41
1
10
79.9733528218924
20
-7.17482098113729
30
0
41
1
10
79.7817659235171
20
-7.21067417805128
30
0
41
1
10
79.5898516145985
20
-7.2404500571844
30
0
41
1
10
79.2055928762752
20
-7.29203411848121
30
0
41
1
10
78.6921025941171
20
-7.33960004746282
30
0
41
1
10
78.1763495635945
20
-7.34535905248552
30
0
41
1
10
77.7886775616262
20
-7.333844696679
30
0
41
1
10
77.6593104920328
20
-7.32736364134286
30
0
41
1
10
77.4650423440223
20
-7.31362063156203
30
0
41
1
10
77.4002500241159
20
-7.3083691214066
30
0
41
1
10
77.270592187418
20
-7.29651223299589
30
0
41
1
10
77.2056787340752
20
-7.28990139820803
30
0
41
1
10
76.8814604588672
20
-7.25348525019527
30
0
41
1
10
76.6252951776038
20
-7.21386895676233
30
0
41
1
10
76.1191889446644
20
-7.11422336724598
30
0
41
1
10
75.8692482684179
20
-7.05419322165366
30
0
41
1
10
75.3755503558979
20
-6.91373359580678
30
0
41
1
10
75.1317927252169
20
-6.83330562945883
30
0
41
1
10
74.7708781769391
20
-6.69696685945343
30
0
41
1
10
74.6513615462637
20
-6.64890007538065
30
0
41
1
10
74.4732916474228
20
-6.57277603773969
30
0
41
1
10
74.3845580816796
20
-6.53370761868376
30
0
41
1
10
74.2815695298129
20
-6.48634069886185
30
0
41
1
10
74.2375467817314
20
-6.46565455107486
30
0
41
1
10
74.2082239756045
20
-6.45177763966851
30
0
41
1
10
74.1935340966347
20
-6.44477616436819
30
0
41
1
10
74.1789397786318
20
-6.43777122189186
30
0
0
SPLINE
5
139
100
AcDbEntity
8
1
62
256
6
ByLayer
370
18
48
1
60
0
100
AcDbSpline
70
2053
71
3
72
204
73
200
40
0
40
0
40
0
40
0
40
0.0156250000000037
40
0.0156250000000037
40
0.0312500000000074
40
0.0312500000000074
40
0.0468750000000111
40
0.0468750000000111
40
0.054687500000013
40
0.054687500000013
40
0.0585937500000139
40
0.0585937500000139
40
0.0625000000000149
40
0.0625000000000149
40
0.0781250000000192
40
0.0781250000000192
40
0.0937500000000235
40
0.0937500000000235
40
0.109375000000028
40
0.109375000000028
40
0.113281250000029
40
0.115234375000029
40
0.115234375000029
40
0.11718750000003
40
0.11718750000003
40
0.125000000000031
40
0.125000000000031
40
0.140625000000034
40
0.140625000000034
40
0.156250000000036
40
0.156250000000036
40
0.164062500000038
40
0.164062500000038
40
0.167968750000038
40
0.167968750000038
40
0.171875000000039
40
0.171875000000039
40
0.187500000000041
40
0.187500000000041
40
0.203125000000044
40
0.203125000000044
40
0.207031250000045
40
0.207031250000045
40
0.210937500000046
40
0.210937500000046
40
0.218750000000047
40
0.218750000000047
40
0.234375000000049
40
0.234375000000049
40
0.250000000000052
40
0.250000000000052
40
0.253906250000053
40
0.253906250000053
40
0.257812500000053
40
0.265625000000055
40
0.265625000000055
40
0.281250000000057
40
0.281250000000057
40
0.296875000000059
40
0.296875000000059
40
0.30078125000006
40
0.30078125000006
40
0.304687500000061
40
0.312500000000062
40
0.312500000000062
40
0.328125000000065
40
0.328125000000065
40
0.343750000000068
40
0.343750000000068
40
0.351562500000069
40
0.351562500000069
40
0.355468750000069
40
0.355468750000069
40
0.35937500000007
40
0.35937500000007
40
0.375000000000071
40
0.375000000000071
40
0.390625000000072
40
0.406250000000072
40
0.406250000000072
40
0.410156250000072
40
0.410156250000072
40
0.414062500000072
40
0.414062500000072
40
0.421875000000072
40
0.421875000000072
40
0.437500000000071
40
0.453125000000069
40
0.453125000000069
40
0.468750000000068
40
0.468750000000068
40
0.472656250000068
40
0.472656250000068
40
0.476562500000068
40
0.476562500000068
40
0.484375000000067
40
0.484375000000067
40
0.500000000000066
40
0.500000000000066
40
0.515625000000065
40
0.515625000000065
40
0.531250000000065
40
0.531250000000065
40
0.535156250000064
40
0.535156250000064
40
0.539062500000064
40
0.546875000000063
40
0.546875000000063
40
0.562500000000061
40
0.562500000000061
40
0.578125000000059
40
0.578125000000059
40
0.593750000000057
40
0.593750000000057
40
0.597656250000057
40
0.597656250000057
40
0.601562500000057
40
0.609375000000056
40
0.609375000000056
40
0.625000000000054
40
0.625000000000054
40
0.632812500000053
40
0.632812500000053
40
0.636718750000052
40
0.638671875000052
40
0.638671875000052
40
0.640625000000052
40
0.640625000000052
40
0.65625000000005
40
0.65625000000005
40
0.671875000000048
40
0.671875000000048
40
0.679687500000047
40
0.679687500000047
40
0.683593750000047
40
0.683593750000047
40
0.685546875000047
40
0.685546875000047
40
0.687500000000046
40
0.703125000000044
40
0.703125000000044
40
0.718750000000043
40
0.718750000000043
40
0.726562500000042
40
0.726562500000042
40
0.734375000000041
40
0.734375000000041
40
0.750000000000039
40
0.750000000000039
40
0.765625000000037
40
0.765625000000037
40
0.769531250000037
40
0.769531250000037
40
0.773437500000036
40
0.773437500000036
40
0.781250000000035
40
0.781250000000035
40
0.796875000000033
40
0.796875000000033
40
0.812500000000031
40
0.812500000000031
40
0.81640625000003
40
0.81640625000003
40
0.820312500000029
40
0.820312500000029
40
0.828125000000027
40
0.828125000000027
40
0.843750000000024
40
0.843750000000024
40
0.859375000000021
40
0.875000000000018
40
0.875000000000018
40
0.878906250000017
40
0.878906250000017
40
0.882812500000016
40
0.890625000000015
40
0.890625000000015
40
0.906250000000012
40
0.921875000000009
40
0.921875000000009
40
0.929687500000008
40
0.929687500000008
40
0.933593750000007
40
0.933593750000007
40
0.937500000000006
40
0.937500000000006
40
0.953125000000005
40
0.953125000000005
40
0.968750000000003
40
0.968750000000003
40
0.984375000000002
40
0.984375000000002
40
0.992187500000001
40
0.992187500000001
40
0.99609375
40
0.998046875
40
0.9990234375
40
0.9990234375
40
1
40
1
40
1
40
1
41
1
10
45.7789397786318
20
-6.43777122189191
30
0
41
1
10
45.5454306905852
20
-6.32569214227044
30
0
41
1
10
45.3187368707287
20
-6.20432809049467
30
0
41
1
10
44.8787711020418
20
-5.94313576055697
30
0
41
1
10
44.6654986186178
20
-5.80330844324257
30
0
41
1
10
44.2525613522698
20
-5.50474010014835
30
0
41
1
10
44.052894095772
20
-5.34600290123615
30
0
41
1
10
43.7640643966358
20
-5.09290897325008
30
0
41
1
10
43.6695699805248
20
-5.00604111125651
30
0
41
1
10
43.5305973749884
20
-4.8718297570959
30
0
41
1
10
43.4847131298999
20
-4.82641845048352
30
0
41
1
10
43.3939793251104
20
-4.73435363833056
30
0
41
1
10
43.3492904382809
20
-4.68786422129941
30
0
41
1
10
43.129223975702
20
-4.45313491723451
30
0
41
1
10
42.96395297752
20
-4.25806655243471
30
0
41
1
10
42.6551040378927
20
-3.8531419116384
30
0
41
1
10
42.5115236515311
20
-3.64328753839268
30
0
41
1
10
42.2469090270155
20
-3.20808706626659
30
0
41
1
10
42.1258676997436
20
-2.98274603501974
30
0
41
1
10
41.9897277692095
20
-2.69058170518579
30
0
41
1
10
41.9500265378581
20
-2.60214332445702
30
0
41
1
10
41.9120789977476
20
-2.5124900965213
30
0
41
1
10
41.8871755414639
20
-2.45244752245907
30
0
41
1
10
41.8749100148753
20
-2.42226049098826
30
0
41
1
10
41.8147793111771
20
-2.27112935740266
30
0
41
1
10
41.7704290391939
20
-2.14944198472182
30
0
41
1
10
41.6485300186575
20
-1.78205018957971
30
0
41
1
10
41.5821032791788
20
-1.53402203791384
30
0
41
1
10
41.4790667589219
20
-1.03171425528547
30
0
41
1
10
41.4424540365768
20
-0.777435260333846
30
0
41
1
10
41.4107432289919
20
-0.391141512754388
30
0
41
1
10
41.4040489742299
20
-0.261562787681243
30
0
41
1
10
41.4000073784775
20
-0.0659340280275842
30
0
41
1
10
41.3996643978473
20
-0.0004021719512366
30
0
41
1
10
41.4009985617542
20
0.130154904325877
30
0
41
1
10
41.4026705535999
20
0.195258219314525
30
0
41
1
10
41.4159836334354
20
0.519911208806207
30
0
41
1
10
41.4424414877565
20
0.776877220234951
30
0
41
1
10
41.5258548911559
20
1.28549866011983
30
0
41
1
10
41.5828133005302
20
1.53715357981298
30
0
41
1
10
41.673017093587
20
1.84842270950995
30
0
41
1
10
41.6920105646499
20
1.91051115859747
30
0
41
1
10
41.7319112378096
20
2.03435619379025
30
0
41
1
10
41.7528516380543
20
2.09620065110721
30
0
41
1
10
41.8181696991073
20
2.28016265810936
30
0
41
1
10
41.8651060051949
20
2.40094660132419
30
0
41
1
10
42.0157020224131
20
2.75795136186616
30
0
41
1
10
42.1291201747819
20
2.98884039335721
30
0
41
1
10
42.3807214810508
20
3.43717236961481
30
0
41
1
10
42.5189088191673
20
3.65461287801722
30
0
41
1
10
42.7068766682554
20
3.91820467060674
30
0
41
1
10
42.7452584988575
20
3.97054030617605
30
0
41
1
10
42.8231374147257
20
4.07385645625095
30
0
41
1
10
42.9417688873682
20
4.22699551445919
30
0
41
1
10
43.0657241158045
20
4.37475818106242
30
0
41
1
10
43.3205027565931
20
4.66337974392349
30
0
41
1
10
43.4994936981394
20
4.84660829453745
30
0
41
1
10
43.875038057238
20
5.19558557279339
30
0
41
1
10
44.0715939292712
20
5.36133151801988
30
0
41
1
10
44.3281885019658
20
5.55777584191762
30
0
41
1
10
44.3800754500233
20
5.59653990219439
30
0
41
1
10
44.4844600896847
20
5.67264708038473
30
0
41
1
10
44.6421260726487
20
5.78480893859211
30
0
41
1
10
44.8030057091593
20
5.89108820888745
30
0
41
1
10
45.1289472242492
20
6.09603165910377
30
0
41
1
10
45.3518078248004
20
6.22252618678669
30
0
41
1
10
45.8083806669662
20
6.45595814752917
30
0
41
1
10
46.0420939567316
20
6.56289336419192
30
0
41
1
10
46.400827759694
20
6.70871846508231
30
0
41
1
10
46.5217686682463
20
6.75489285377677
30
0
41
1
10
46.705248513839
20
6.82047594469569
30
0
41
1
10
46.7666292306486
20
6.8416782661217
30
0
41
1
10
46.8895806101182
20
6.88269540794627
30
0
41
1
10
46.9511900846862
20
6.90252415748952
30
0
41
1
10
47.2598995696801
20
6.99830976219752
30
0
41
1
10
47.5089816917004
20
7.06421534592823
30
0
41
1
10
48.0112711081781
20
7.17524281413671
30
0
41
1
10
48.5176864857871
20
7.26548222640849
30
0
41
1
10
49.0323468175003
20
7.3143703974948
30
0
41
1
10
49.3566443099862
20
7.33174428475473
30
0
41
1
10
49.4216357898596
20
7.3345586847571
30
0
41
1
10
49.551885162199
20
7.33885485784012
30
0
41
1
10
49.617139580948
20
7.34033440563434
30
0
41
1
10
49.8123726854014
20
7.34275440126555
30
0
41
1
10
49.9421322970233
20
7.34168960115224
30
0
41
1
10
50.3302438056915
20
7.33059560661573
30
0
41
1
10
50.8446173148354
20
7.29477026409211
30
0
41
1
10
51.3528775047587
20
7.21750345959575
30
0
41
1
10
51.858062717748
20
7.11930917349
30
0
41
1
10
52.1091181520728
20
7.05975066705065
30
0
41
1
10
52.4209578151088
20
6.97175001631229
30
0
41
1
10
52.4832265678055
20
6.95347078711663
30
0
41
1
10
52.6075634282084
20
6.91553606408991
30
0
41
1
10
52.6695103292986
20
6.8959163050649
30
0
41
1
10
52.8542140118376
20
6.83525916572333
30
0
41
1
10
52.9760318859883
20
6.79236510665476
30
0
41
1
10
53.3375829996395
20
6.65638189264698
30
0
41
1
10
53.5734224027081
20
6.55600873371569
30
0
41
1
10
54.03477451669
20
6.33577223738692
30
0
41
1
10
54.2602880470656
20
6.2159107457251
30
0
41
1
10
54.7007639034534
20
5.95607643027253
30
0
41
1
10
54.9157286225289
20
5.81610861317131
30
0
41
1
10
55.1774917069603
20
5.62777585297931
30
0
41
1
10
55.229502050576
20
5.58943439057765
30
0
41
1
10
55.3327906491525
20
5.51140012703542
30
0
41
1
10
55.4859966837331
20
5.39279444604952
30
0
41
1
10
55.6340533788418
20
5.26954233334112
30
0
41
1
10
55.9233267231301
20
5.01683500379306
30
0
41
1
10
56.1070740241576
20
4.84010948610981
30
0
41
1
10
56.4560672230657
20
4.46971446718379
30
0
41
1
10
56.6213165071135
20
4.27604837875833
30
0
41
1
10
56.9323876423517
20
3.87076039277704
30
0
41
1
10
57.0782173493307
20
3.65914608501598
30
0
41
1
10
57.2472897848324
20
3.38231390179809
30
0
41
1
10
57.2804533092816
20
3.32630147019799
30
0
41
1
10
57.3449936175505
20
3.2137712075106
30
0
41
1
10
57.43929134854
20
3.04394587579881
30
0
41
1
10
57.5260629762489
20
2.87103032850524
30
0
41
1
10
57.6895149902787
20
2.52104275818553
30
0
41
1
10
57.7850581766942
20
2.28218783201001
30
0
41
1
10
57.9074911128896
20
1.9152590533958
30
0
41
1
10
57.9448144912643
20
1.79150548004273
30
0
41
1
10
57.9954027622693
20
1.60363614546702
30
0
41
1
10
58.019346965585
20
1.50914143913849
30
0
41
1
10
58.0412271706793
20
1.41378971929589
30
0
41
1
10
58.055350491276
20
1.3500293836787
30
0
41
1
10
58.0621862226423
20
1.31802378845339
30
0
41
1
10
58.1214293685116
20
1.02993892795061
30
0
41
1
10
58.1580407357146
20
0.77329226625713
30
0
41
1
10
58.1999569079156
20
0.258882519346912
30
0
41
1
10
58.2052600538932
20
0.0011193798542308
30
0
41
1
10
58.1895526131511
20
-0.386369372191041
30
0
41
1
10
58.1803652616256
20
-0.515673228893974
30
0
41
1
10
58.1605608281259
20
-0.709843747053242
30
0
41
1
10
58.1529549205389
20
-0.77460305986844
30
0
41
1
10
58.140022436903
20
-0.871796322965821
30
0
41
1
10
58.1354531820133
20
-0.904231633705251
30
0
41
1
10
58.1258342846653
20
-0.968924193829793
30
0
41
1
10
58.0803668708655
20
-1.25932418761039
30
0
41
1
10
58.0155916026039
20
-1.54338496223372
30
0
41
1
10
57.8715599655064
20
-2.0389305155208
30
0
41
1
10
57.7851006796655
20
-2.28197571385172
30
0
41
1
10
57.6341982347183
20
-2.63963228222869
30
0
41
1
10
57.5803543356969
20
-2.75769691080816
30
0
41
1
10
57.4655668585639
20
-2.99151997400819
30
0
41
1
10
57.4050942608846
20
-3.10631520133549
30
0
41
1
10
57.215004001484
20
-3.44426763928425
30
0
41
1
10
57.0766583761573
20
-3.66117741580655
30
0
41
1
10
56.7780164144431
20
-4.07926555436953
30
0
41
1
10
56.617715324146
20
-4.28044026319319
30
0
41
1
10
56.4039201488552
20
-4.5223761462392
30
0
41
1
10
56.3604883897604
20
-4.57028544313999
30
0
41
1
10
56.2722800441224
20
-4.6651509492136
30
0
41
1
10
56.2275354323572
20
-4.71206954055907
30
0
41
1
10
56.091954761436
20
-4.85073736950082
30
0
41
1
10
55.9995705039806
20
-4.94062026332804
30
0
41
1
10
55.716623943519
20
-5.20287354865607
30
0
41
1
10
55.5202836554781
20
-5.36786904660283
30
0
41
1
10
55.1128097687133
20
-5.67917515251787
30
0
41
1
10
54.9016737915165
20
-5.8254823754221
30
0
41
1
10
54.6285942558243
20
-5.99691706862168
30
0
41
1
10
54.5735192720793
20
-6.03063013612314
30
0
41
1
10
54.4624490269639
20
-6.09690880312775
30
0
41
1
10
54.4064222060757
20
-6.12949223396313
30
0
41
1
10
54.2371606950701
20
-6.22540251753449
30
0
41
1
10
54.1232455171813
20
-6.28661159894307
30
0
41
1
10
53.7783603560999
20
-6.46229658667761
30
0
41
1
10
53.5442580034934
20
-6.56884961792176
30
0
41
1
10
53.0679428912373
20
-6.76163250435098
30
0
41
1
10
52.5835154219489
20
-6.93408685026952
30
0
41
1
10
52.0829127463909
20
-7.06633266465286
30
0
41
1
10
51.7648666120629
20
-7.13621809775253
30
0
41
1
10
51.70100388297
20
-7.14955209723965
30
0
41
1
10
51.5733528218924
20
-7.17482098113734
30
0
41
1
10
51.3817659235171
20
-7.21067417805131
30
0
41
1
10
51.1898516145985
20
-7.24045005718443
30
0
41
1
10
50.8055928911765
20
-7.29203443549008
30
0
41
1
10
50.2921025941172
20
-7.33960004746285
30
0
41
1
10
49.7763495635945
20
-7.34535905248555
30
0
41
1
10
49.3886775616262
20
-7.33384469667902
30
0
41
1
10
49.2593104920329
20
-7.32736364134288
30
0
41
1
10
49.0650423440222
20
-7.31362063156206
30
0
41
1
10
49.0002500241158
20
-7.30836912140663
30
0
41
1
10
48.870592187418
20
-7.29651223299592
30
0
41
1
10
48.8056787340752
20
-7.28990139820806
30
0
41
1
10
48.4814604588671
20
-7.2534852501953
30
0
41
1
10
48.2252951776037
20
-7.21386895676235
30
0
41
1
10
47.7191889446643
20
-7.11422336724601
30
0
41
1
10
47.4692482684179
20
-7.05419322165369
30
0
41
1
10
46.9755503558979
20
-6.9137335958068
30
0
41
1
10
46.7317927252168
20
-6.83330562945886
30
0
41
1
10
46.3708781769391
20
-6.69696685945345
30
0
41
1
10
46.2513615462637
20
-6.64890007538065
30
0
41
1
10
46.0732916474227
20
-6.57277603773971
30
0
41
1
10
45.9845580816797
20
-6.53370761868382
30
0
41
1
10
45.8815695298127
20
-6.48634069886185
30
0
41
1
10
45.8375467817314
20
-6.46565455107489
30
0
41
1
10
45.8082239756044
20
-6.45177763966851
30
0
41
1
10
45.7935340966347
20
-6.44477616436825
30
0
41
1
10
45.7789397786318
20
-6.43777122189191
30
0
0
SPLINE
5
13A
100
AcDbEntity
8
1
62
256
6
ByLayer
370
18
48
1
60
0
100
AcDbSpline
70
4
71
3
72
52
73
48
40
0
40
0
40
0
40
0
40
0.0625000000000133
40
0.0625000000000133
40
0.125000000000027
40
0.125000000000027
40
0.156250000000033
40
0.156250000000033
40
0.171875000000036
40
0.171875000000036
40
0.18750000000004
40
0.18750000000004
40
0.25000000000005
40
0.312500000000061
40
0.312500000000061
40
0.328125000000063
40
0.328125000000063
40
0.343750000000065
40
0.375000000000067
40
0.375000000000067
40
0.437500000000068
40
0.437500000000068
40
0.468750000000067
40
0.468750000000067
40
0.484375000000067
40
0.484375000000067
40
0.500000000000067
40
0.500000000000067
40
0.56250000000006
40
0.625000000000053
40
0.625000000000053
40
0.656250000000048
40
0.656250000000048
40
0.687500000000043
40
0.687500000000043
40
0.750000000000034
40
0.750000000000034
40
0.78125000000003
40
0.78125000000003
40
0.812500000000025
40
0.812500000000025
40
0.875000000000016
40
0.937500000000006
40
0.937500000000006
40
0.968750000000003
40
0.968750000000003
40
1
40
1
40
1
40
1
41
1
10
16.475
20
12.7651965466006
30
0
41
1
10
16.513192368528
20
12.8283849100526
30
0
41
1
10
16.5554584258523
20
12.8884258079523
30
0
41
1
10
16.6478110747928
20
13.002499004463
30
0
41
1
10
16.6978986808658
20
13.0565304216092
30
0
41
1
10
16.7789666575442
20
13.133043972186
30
0
41
1
10
16.8069818901433
20
13.1577904986766
30
0
41
1
10
16.8505325799917
20
13.1937471375189
30
0
41
1
10
16.865281076118
20
13.2055179194888
30
0
41
1
10
16.8950719612416
20
13.2285024021986
30
0
41
1
10
16.9101380103323
20
13.2397358342947
30
0
41
1
10
16.9863107117911
20
13.2946264714193
30
0
41
1
10
17.1135571557736
20
13.3743148886291
30
0
41
1
10
17.2513638492584
20
13.4380728150716
30
0
41
1
10
17.3409133866371
20
13.4727814277352
30
0
41
1
10
17.3590111952472
20
13.4794694985632
30
0
41
1
10
17.3952830111543
20
13.492229531322
30
0
41
1
10
17.4498996140951
20
13.5104834952676
30
0
41
1
10
17.5051338530743
20
13.5261192261941
30
0
41
1
10
17.6164124474961
20
13.5539605935098
30
0
41
1
10
17.691674867976
20
13.5679629807559
30
0
41
1
10
17.8061941854362
20
13.5820949881493
30
0
41
1
10
17.8446390989645
20
13.5856566856295
30
0
41
1
10
17.902723686145
20
13.5892363370178
30
0
41
1
10
17.9221912959374
20
13.590136134067
30
0
41
1
10
17.9610301646462
20
13.5913323279735
30
0
41
1
10
17.9804093969618
20
13.5916305624427
30
0
41
1
10
18.0771073482259
20
13.5916433582803
30
0
41
1
10
18.2305607301289
20
13.5822418385209
30
0
41
1
10
18.3815443710828
20
13.5544108820092
30
0
41
1
10
18.4938282532831
20
13.5264085246753
30
0
41
1
10
18.53115226445
20
13.5158546986998
30
0
41
1
10
18.6043783915348
20
13.4926605140722
30
0
41
1
10
18.6404165706572
20
13.4799908975535
30
0
41
1
10
18.7468396619682
20
13.4388216299475
30
0
41
1
10
18.8155403200885
20
13.4071752190434
30
0
41
1
10
18.9152175598245
20
13.3533791904347
30
0
41
1
10
18.9478792187372
20
13.3343893716725
30
0
41
1
10
19.0120516141997
20
13.2942470323034
30
0
41
1
10
19.0436486054671
20
13.2730241676295
30
0
41
1
10
19.1353791067361
20
13.2069623624236
30
0
41
1
10
19.2502922845242
20
13.1121234008537
30
0
41
1
10
19.3508263837691
20
13.0040715257289
30
0
41
1
10
19.4207011215191
20
12.9179268850983
30
0
41
1
10
19.4431167320905
20
12.8882852871522
30
0
41
1
10
19.4857068210086
20
12.827725680635
30
0
41
1
10
19.5059038628626
20
12.7967906503567
30
0
41
1
10
19.525
20
12.7651965466007
30
0
0
SPLINE
5
13B
100
AcDbEntity
8
1
62
256
6
ByLayer
370
18
48
1
60
0
100
AcDbSpline
70
4
71
3
72
52
73
48
40
0
40
0
40
0
40
0
40
0.0625000000000082
40
0.0625000000000082
40
0.125000000000016
40
0.125000000000016
40
0.15625000000002
40
0.15625000000002
40
0.171875000000021
40
0.171875000000021
40
0.187500000000022
40
0.187500000000022
40
0.25000000000003
40
0.312500000000038
40
0.312500000000038
40
0.32812500000004
40
0.32812500000004
40
0.343750000000042
40
0.375000000000044
40
0.375000000000044
40
0.437500000000044
40
0.437500000000044
40
0.468750000000043
40
0.468750000000043
40
0.484375000000043
40
0.484375000000043
40
0.500000000000042
40
0.500000000000042
40
0.562500000000034
40
0.625000000000026
40
0.625000000000026
40
0.656250000000023
40
0.656250000000023
40
0.687500000000021
40
0.687500000000021
40
0.750000000000015
40
0.750000000000015
40
0.781250000000013
40
0.781250000000013
40
0.81250000000001
40
0.81250000000001
40
0.875000000000007
40
0.937500000000005
40
0.937500000000005
40
0.968750000000002
40
0.968750000000002
40
1
40
1
40
1
40
1
41
1
10
19.525
20
-12.7651965466006
30
0
41
1
10
19.486807631472
20
-12.8283849100526
30
0
41
1
10
19.4445415741477
20
-12.8884258079523
30
0
41
1
10
19.3521889252072
20
-13.002499004463
30
0
41
1
10
19.3021013191342
20
-13.0565304216091
30
0
41
1
10
19.2210333424558
20
-13.1330439721859
30
0
41
1
10
19.1930181098567
20
-13.1577904986766
30
0
41
1
10
19.1494674200083
20
-13.1937471375189
30
0
41
1
10
19.134718923882
20
-13.2055179194888
30
0
41
1
10
19.1049280387584
20
-13.2285024021986
30
0
41
1
10
19.0898619896677
20
-13.2397358342947
30
0
41
1
10
19.0136892882089
20
-13.2946264714192
30
0
41
1
10
18.8864432773341
20
-13.3743154491233
30
0
41
1
10
18.7486361507416
20
-13.4380728150715
30
0
41
1
10
18.6590866133629
20
-13.4727814277352
30
0
41
1
10
18.6409888047528
20
-13.4794694985632
30
0
41
1
10
18.6047169888457
20
-13.492229531322
30
0
41
1
10
18.5501003859049
20
-13.5104834952675
30
0
41
1
10
18.4948661469257
20
-13.5261192261941
30
0
41
1
10
18.3835875525039
20
-13.5539605935098
30
0
41
1
10
18.308325132024
20
-13.5679629807559
30
0
41
1
10
18.1938058145638
20
-13.5820949881492
30
0
41
1
10
18.1553609010355
20
-13.5856566856295
30
0
41
1
10
18.0972763138549
20
-13.5892363370178
30
0
41
1
10
18.0778087040626
20
-13.5901361340669
30
0
41
1
10
18.0389698353538
20
-13.5913323279735
30
0
41
1
10
18.0195906030382
20
-13.5916305624427
30
0
41
1
10
17.922892651774
20
-13.5916433582802
30
0
41
1
10
17.7694393078816
20
-13.5822415214538
30
0
41
1
10
17.6184556289172
20
-13.5544108820092
30
0
41
1
10
17.5061717467169
20
-13.5264085246753
30
0
41
1
10
17.46884773555
20
-13.5158546986998
30
0
41
1
10
17.3956216084652
20
-13.4926605140721
30
0
41
1
10
17.3595834293428
20
-13.4799908975534
30
0
41
1
10
17.2531603380318
20
-13.4388216299474
30
0
41
1
10
17.1844596799115
20
-13.4071752190433
30
0
41
1
10
17.0847824401755
20
-13.3533791904346
30
0
41
1
10
17.0521207812628
20
-13.3343893716724
30
0
41
1
10
16.9879483858003
20
-13.2942470323033
30
0
41
1
10
16.9563513945329
20
-13.2730241676294
30
0
41
1
10
16.8646208932639
20
-13.2069623624235
30
0
41
1
10
16.7497076105926
20
-13.112123387146
30
0
41
1
10
16.649173616231
20
-13.0040715257288
30
0
41
1
10
16.5792988784809
20
-12.9179268850982
30
0
41
1
10
16.5568832679095
20
-12.8882852871521
30
0
41
1
10
16.5142931789914
20
-12.8277256806348
30
0
41
1
10
16.4940961371374
20
-12.7967906503566
30
0
41
1
10
16.475
20
-12.7651965466006
30
0
0
SPLINE
5
13C
100
AcDbEntity
8
1
62
256
6
ByLayer
370
18
48
1
60
0
100
AcDbSpline
70
4
71
3
72
52
73
48
40
0
40
0
40
0
40
0
40
0.0625000000000001
40
0.0625000000000001
40
0.125
40
0.125
40
0.15625
40
0.15625
40
0.171875
40
0.171875
40
0.1875
40
0.1875
40
0.250000000000006
40
0.312500000000011
40
0.312500000000011
40
0.328125000000013
40
0.328125000000013
40
0.343750000000014
40
0.375000000000015
40
0.375000000000015
40
0.437500000000013
40
0.437500000000013
40
0.468750000000011
40
0.468750000000011
40
0.48437500000001
40
0.48437500000001
40
0.500000000000009
40
0.500000000000009
40
0.562500000000009
40
0.62500000000001
40
0.62500000000001
40
0.656250000000008
40
0.656250000000008
40
0.687500000000007
40
0.687500000000007
40
0.750000000000005
40
0.750000000000005
40
0.781250000000004
40
0.781250000000004
40
0.812500000000003
40
0.812500000000003
40
0.875000000000002
40
0.937500000000001
40
0.937500000000001
40
0.96875
40
0.96875
40
1
40
1
40
1
40
1
41
1
10
19.525
20
11.1519055009283
30
0
41
1
10
19.4868076314719
20
11.0875776718198
30
0
41
1
10
19.4445415741477
20
11.0263181536443
30
0
41
1
10
19.3521889252072
20
10.9097180426196
30
0
41
1
10
19.3021013191342
20
10.8543781315682
30
0
41
1
10
19.2210333424558
20
10.7758845377929
30
0
41
1
10
19.1930181098566
20
10.7504751184266
30
0
41
1
10
19.1494674200083
20
10.7135263475539
30
0
41
1
10
19.1347189238819
20
10.701425781899
30
0
41
1
10
19.1049280387584
20
10.6777883517706
30
0
41
1
10
19.0898619896677
20
10.6662312136799
30
0
41
1
10
19.0136892882088
20
10.6097383639167
30
0
41
1
10
18.8864428442264
20
10.5275911774669
30
0
41
1
10
18.7486361507416
20
10.4617060054662
30
0
41
1
10
18.6590866133628
20
10.4258104316166
30
0
41
1
10
18.6409888047527
20
10.4188919470775
30
0
41
1
10
18.6047169888457
20
10.4056895765307
30
0
41
1
10
18.5501003859049
20
10.3867985293844
30
0
41
1
10
18.4948661469256
20
10.3706070937998
30
0
41
1
10
18.3835875525039
20
10.3417682720477
30
0
41
1
10
18.308325132024
20
10.3272528382601
30
0
41
1
10
18.1938058145638
20
10.3126006121417
30
0
41
1
10
18.1553609010355
20
10.3089070670256
30
0
41
1
10
18.0972763138549
20
10.305194747617
30
0
41
1
10
18.0778087040625
20
10.3042615552929
30
0
41
1
10
18.0389698353538
20
10.303020952765
30
0
41
1
10
18.0195906030382
20
10.302711636923
30
0
41
1
10
17.922892651774
20
10.3026983657706
30
0
41
1
10
17.7694393078816
20
10.3124509012014
30
0
41
1
10
17.6184556289172
20
10.3413016998863
30
0
41
1
10
17.5061717467168
20
10.3703075044787
30
0
41
1
10
17.46884773555
20
10.3812364600792
30
0
41
1
10
17.3956216084652
20
10.4052446849141
30
0
41
1
10
17.3595834293428
20
10.4183542736759
30
0
41
1
10
17.2531603380318
20
10.4609318552656
30
0
41
1
10
17.1844596799115
20
10.4936350219861
30
0
41
1
10
17.0847824401755
20
10.549152088541
30
0
41
1
10
17.0521207812627
20
10.5687382409479
30
0
41
1
10
16.9879483858003
20
10.610111575769
30
0
41
1
10
16.9563513945329
20
10.6319710723777
30
0
41
1
10
16.8646208932639
20
10.6999616110613
30
0
41
1
10
16.7497076105926
20
10.7974349288396
30
0
41
1
10
16.6491736162309
20
10.9081091187077
30
0
41
1
10
16.5792988784809
20
10.9961643380765
30
0
41
1
10
16.5568832679094
20
11.0264348207967
30
0
41
1
10
16.5142931789914
20
11.0882147051906
30
0
41
1
10
16.4940961371373
20
11.1197416657501
30
0
41
1
10
16.475
20
11.1519055009283
30
0
0
SPLINE
5
13D
100
AcDbEntity
8
1
62
256
6
ByLayer
370
18
48
1
60
0
100
AcDbSpline
70
4
71
3
72
52
73
48
40
0
40
0
40
0
40
0
40
0.0625000000000042
40
0.0625000000000042
40
0.125000000000008
40
0.125000000000008
40
0.156250000000011
40
0.156250000000011
40
0.171875000000012
40
0.171875000000012
40
0.187500000000013
40
0.187500000000013
40
0.250000000000012
40
0.312500000000011
40
0.312500000000011
40
0.328125000000012
40
0.328125000000012
40
0.343750000000013
40
0.375000000000017
40
0.375000000000017
40
0.437500000000023
40
0.437500000000023
40
0.468750000000024
40
0.468750000000024
40
0.484375000000025
40
0.484375000000025
40
0.500000000000026
40
0.500000000000026
40
0.562500000000023
40
0.62500000000002
40
0.62500000000002
40
0.656250000000018
40
0.656250000000018
40
0.687500000000016
40
0.687500000000016
40
0.750000000000011
40
0.750000000000011
40
0.781250000000009
40
0.781250000000009
40
0.812500000000008
40
0.812500000000008
40
0.875000000000005
40
0.937500000000002
40
0.937500000000002
40
0.968750000000001
40
0.968750000000001
40
1
40
1
40
1
40
1
41
1
10
16.475
20
-11.1519055009283
30
0
41
1
10
16.5131923685281
20
-11.0875776718198
30
0
41
1
10
16.5554584258523
20
-11.0263181536442
30
0
41
1
10
16.6478110747928
20
-10.9097180426196
30
0
41
1
10
16.6978986808658
20
-10.8543781315681
30
0
41
1
10
16.7789666575442
20
-10.7758845377929
30
0
41
1
10
16.8069818901433
20
-10.7504751184265
30
0
41
1
10
16.8505325799917
20
-10.7135263475538
30
0
41
1
10
16.8652810761181
20
-10.701425781899
30
0
41
1
10
16.8950719612417
20
-10.6777883517706
30
0
41
1
10
16.9101380103324
20
-10.6662312136799
30
0
41
1
10
16.9863107117912
20
-10.6097383639166
30
0
41
1
10
17.1135571557736
20
-10.5275911774668
30
0
41
1
10
17.2513638492585
20
-10.4617060054662
30
0
41
1
10
17.3409133866372
20
-10.4258104316166
30
0
41
1
10
17.3590111952472
20
-10.4188919470775
30
0
41
1
10
17.3952830111543
20
-10.4056895765307
30
0
41
1
10
17.4498996140951
20
-10.3867985293844
30
0
41
1
10
17.5051338530744
20
-10.3706070937997
30
0
41
1
10
17.6164124474961
20
-10.3417682720477
30
0
41
1
10
17.691674867976
20
-10.3272528382601
30
0
41
1
10
17.8061941854362
20
-10.3126006121416
30
0
41
1
10
17.8446390989645
20
-10.3089070670256
30
0
41
1
10
17.9027236861451
20
-10.305194747617
30
0
41
1
10
17.9221912959374
20
-10.3042615552929
30
0
41
1
10
17.9610301646462
20
-10.3030209527649
30
0
41
1
10
17.9804093969618
20
-10.3027116369229
30
0
41
1
10
18.077107348226
20
-10.3026983657705
30
0
41
1
10
18.230560730129
20
-10.3124506327548
30
0
41
1
10
18.3815443710828
20
-10.3413016998863
30
0
41
1
10
18.4938282532832
20
-10.3703075044786
30
0
41
1
10
18.53115226445
20
-10.3812364600791
30
0
41
1
10
18.6043783915348
20
-10.405244684914
30
0
41
1
10
18.6404165706572
20
-10.4183542736758
30
0
41
1
10
18.7468396619682
20
-10.4609318552655
30
0
41
1
10
18.8155403200885
20
-10.4936350219861
30
0
41
1
10
18.9152175598245
20
-10.5491520885409
30
0
41
1
10
18.9478792187372
20
-10.5687382409478
30
0
41
1
10
19.0120516141997
20
-10.6101115757689
30
0
41
1
10
19.0436486054671
20
-10.6319710723776
30
0
41
1
10
19.1353791067361
20
-10.6999616110612
30
0
41
1
10
19.2502923894074
20
-10.7974349288396
30
0
41
1
10
19.3508263837691
20
-10.9081091187076
30
0
41
1
10
19.4207011215191
20
-10.9961643380764
30
0
41
1
10
19.4431167320906
20
-11.0264348207966
30
0
41
1
10
19.4857068210086
20
-11.0882147051906
30
0
41
1
10
19.5059038628627
20
-11.11974166575
30
0
41
1
10
19.525
20
-11.1519055009282
30
0
0
SPLINE
5
13E
100
AcDbEntity
8
1
62
256
6
ByLayer
370
18
48
1
60
0
100
AcDbSpline
70
4
71
3
72
52
73
48
40
0
40
0
40
0
40
0
40
0.0625000000000083
40
0.0625000000000083
40
0.125000000000017
40
0.125000000000017
40
0.15625000000002
40
0.15625000000002
40
0.171875000000021
40
0.171875000000021
40
0.187500000000022
40
0.187500000000022
40
0.250000000000031
40
0.312500000000039
40
0.312500000000039
40
0.328125000000042
40
0.328125000000042
40
0.343750000000044
40
0.375000000000046
40
0.375000000000046
40
0.437500000000047
40
0.437500000000047
40
0.468750000000046
40
0.468750000000046
40
0.484375000000046
40
0.484375000000046
40
0.500000000000045
40
0.500000000000045
40
0.562500000000038
40
0.62500000000003
40
0.62500000000003
40
0.656250000000028
40
0.656250000000028
40
0.687500000000025
40
0.687500000000025
40
0.750000000000021
40
0.750000000000021
40
0.781250000000018
40
0.781250000000018
40
0.812500000000016
40
0.812500000000016
40
0.875000000000011
40
0.937500000000006
40
0.937500000000006
40
0.968750000000003
40
0.968750000000003
40
1
40
1
40
1
40
1
41
1
10
16.475
20
6.91688846914533
30
0
41
1
10
16.513192368528
20
6.98341836390296
30
0
41
1
10
16.5554584258523
20
7.04667106515771
30
0
41
1
10
16.6478110747928
20
7.16690361769287
30
0
41
1
10
16.6978986808658
20
7.22388259912853
30
0
41
1
10
16.7789666575442
20
7.30460451103855
30
0
41
1
10
16.8069818901433
20
7.33071821074421
30
0
41
1
10
16.8505325799917
20
7.36866916963425
30
0
41
1
10
16.865281076118
20
7.38109416358139
30
0
41
1
10
16.8950719612416
20
7.40535853611499
30
0
41
1
10
16.9101380103323
20
7.4172187398614
30
0
41
1
10
16.9863107117911
20
7.47517754058103
30
0
41
1
10
17.1135571557736
20
7.55935607329849
30
0
41
1
10
17.2513638492584
20
7.62674972342745
30
0
41
1
10
17.3409133866371
20
7.66344537057694
30
0
41
1
10
17.3590111952472
20
7.67051678511254
30
0
41
1
10
17.3952830111543
20
7.68400893062847
30
0
41
1
10
17.4498996140951
20
7.70331138403137
30
0
41
1
10
17.5051338530743
20
7.71984791738421
30
0
41
1
10
17.6164124474961
20
7.74929542417479
30
0
41
1
10
17.691674867976
20
7.76410867213542
30
0
41
1
10
17.8061941854362
20
7.77905970092951
30
0
41
1
10
17.8446390989645
20
7.78282801581636
30
0
41
1
10
17.902723686145
20
7.78661536821343
30
0
41
1
10
17.9221912959374
20
7.78756738667468
30
0
41
1
10
17.9610301646462
20
7.78883300740105
30
0
41
1
10
17.9804093969618
20
7.7891485538799
30
0
41
1
10
18.077107348226
20
7.7891620924579
30
0
41
1
10
18.2305607301289
20
7.77921444696309
30
0
41
1
10
18.3815443710828
20
7.74977173026824
30
0
41
1
10
18.4938282532831
20
7.72015388529226
30
0
41
1
10
18.53115226445
20
7.70899202388819
30
0
41
1
10
18.6043783915348
20
7.68446436254584
30
0
41
1
10
18.6404165706572
20
7.67106761324948
30
0
41
1
10
18.7468396619682
20
7.62754133359834
30
0
41
1
10
18.8155403200885
20
7.5940900809093
30
0
41
1
10
18.9152175598245
20
7.53724634093925
30
0
41
1
10
18.9478792187372
20
7.51718371238238
30
0
41
1
10
19.0120516141997
20
7.47478156668211
30
0
41
1
10
19.0436486054671
20
7.4523677959892
30
0
41
1
10
19.1353791067361
20
7.38261328443943
30
0
41
1
10
19.2502923894074
20
7.28250937659732
30
0
41
1
10
19.3508263837691
20
7.16856147064794
30
0
41
1
10
19.4207011215191
20
7.07776484076081
30
0
41
1
10
19.4431167320905
20
7.04653024191049
30
0
41
1
10
19.4857068210086
20
6.98273348076867
30
0
41
1
10
19.5059038628627
20
6.95015333443098
30
0
41
1
10
19.525
20
6.91688846914536
30
0
0
SPLINE
5
13F
100
AcDbEntity
8
1
62
256
6
ByLayer
370
18
48
1
60
0
100
AcDbSpline
70
4
71
3
72
52
73
48
40
0
40
0
40
0
40
0
40
0.062500000000003
40
0.062500000000003
40
0.125000000000006
40
0.125000000000006
40
0.156250000000008
40
0.156250000000008
40
0.171875000000009
40
0.171875000000009
40
0.18750000000001
40
0.18750000000001
40
0.250000000000017
40
0.312500000000024
40
0.312500000000024
40
0.328125000000027
40
0.328125000000027
40
0.34375000000003
40
0.375000000000032
40
0.375000000000032
40
0.437500000000033
40
0.437500000000033
40
0.468750000000033
40
0.468750000000033
40
0.484375000000032
40
0.484375000000032
40
0.500000000000032
40
0.500000000000032
40
0.562500000000024
40
0.625000000000017
40
0.625000000000017
40
0.656250000000014
40
0.656250000000014
40
0.687500000000012
40
0.687500000000012
40
0.750000000000007
40
0.750000000000007
40
0.781250000000005
40
0.781250000000005
40
0.812500000000004
40
0.812500000000004
40
0.875000000000003
40
0.937500000000001
40
0.937500000000001
40
0.96875
40
0.96875
40
1
40
1
40
1
40
1
41
1
10
19.525
20
-6.91688846914531
30
0
41
1
10
19.486807631472
20
-6.98341836390293
30
0
41
1
10
19.4445415741477
20
-7.04667106515771
30
0
41
1
10
19.3521889252072
20
-7.16690361769284
30
0
41
1
10
19.3021013191342
20
-7.2238825991285
30
0
41
1
10
19.2210333424558
20
-7.30460451103855
30
0
41
1
10
19.1930181098567
20
-7.33071821074418
30
0
41
1
10
19.1494674200083
20
-7.36866916963422
30
0
41
1
10
19.134718923882
20
-7.38109416358137
30
0
41
1
10
19.1049280387584
20
-7.40535853611496
30
0
41
1
10
19.0898619896677
20
-7.41721873986137
30
0
41
1
10
19.0136892882089
20
-7.475177540581
30
0
41
1
10
18.8864432773341
20
-7.55935670935426
30
0
41
1
10
18.7486361507416
20
-7.62674972342739
30
0
41
1
10
18.6590866133629
20
-7.66344537057691
30
0
41
1
10
18.6409888047528
20
-7.67051678511248
30
0
41
1
10
18.6047169888457
20
-7.68400893062844
30
0
41
1
10
18.5501003859049
20
-7.70331138403131
30
0
41
1
10
18.4948661469257
20
-7.71984791738416
30
0
41
1
10
18.3835875525039
20
-7.74929542417473
30
0
41
1
10
18.308325132024
20
-7.76410867213539
30
0
41
1
10
18.1938058145638
20
-7.77905970092945
30
0
41
1
10
18.1553609010355
20
-7.78282801581631
30
0
41
1
10
18.0972763138549
20
-7.78661536821338
30
0
41
1
10
18.0778087040626
20
-7.78756738667462
30
0
41
1
10
18.0389698353538
20
-7.788833007401
30
0
41
1
10
18.0195906030382
20
-7.78914855387987
30
0
41
1
10
17.922892651774
20
-7.78916209245784
30
0
41
1
10
17.769439269871
20
-7.77921444696304
30
0
41
1
10
17.6184556289172
20
-7.74977173026818
30
0
41
1
10
17.5061717467168
20
-7.72015388529218
30
0
41
1
10
17.46884773555
20
-7.70899202388813
30
0
41
1
10
17.3956216084652
20
-7.68446436254575
30
0
41
1
10
17.3595834293428
20
-7.67106761324942
30
0
41
1
10
17.2531603380318
20
-7.62754133359829
30
0
41
1
10
17.1844596799115
20
-7.59409008090921
30
0
41
1
10
17.0847824401755
20
-7.53724634093916
30
0
41
1
10
17.0521207812628
20
-7.51718371238229
30
0
41
1
10
16.9879483858003
20
-7.47478156668203
30
0
41
1
10
16.9563513945329
20
-7.45236779598912
30
0
41
1
10
16.8646208932639
20
-7.38261328443934
30
0
41
1
10
16.7497077154758
20
-7.28250933665848
30
0
41
1
10
16.649173616231
20
-7.16856147064786
30
0
41
1
10
16.5792988784809
20
-7.07776484076072
30
0
41
1
10
16.5568832679095
20
-7.0465302419104
30
0
41
1
10
16.5142931789914
20
-6.98273348076859
30
0
41
1
10
16.4940961371374
20
-6.95015333443089
30
0
41
1
10
16.475
20
-6.91688846914528
30
0
0
SPLINE
5
140
100
AcDbEntity
8
1
62
256
6
ByLayer
370
18
48
1
60
0
100
AcDbSpline
70
4
71
3
72
52
73
48
40
0
40
0
40
0
40
0
40
0.0624999999999982
40
0.0624999999999982
40
0.124999999999996
40
0.124999999999996
40
0.156249999999996
40
0.156249999999996
40
0.171874999999996
40
0.171874999999996
40
0.187499999999996
40
0.187499999999996
40
0.25
40
0.312500000000004
40
0.312500000000004
40
0.328125000000006
40
0.328125000000006
40
0.343750000000008
40
0.375000000000008
40
0.375000000000008
40
0.437500000000007
40
0.437500000000007
40
0.468750000000007
40
0.468750000000007
40
0.484375000000008
40
0.484375000000008
40
0.500000000000008
40
0.500000000000008
40
0.562500000000004
40
0.624999999999999
40
0.624999999999999
40
0.656249999999998
40
0.656249999999998
40
0.687499999999997
40
0.687499999999997
40
0.749999999999995
40
0.749999999999995
40
0.781249999999996
40
0.781249999999996
40
0.812499999999997
40
0.812499999999997
40
0.874999999999998
40
0.9375
40
0.9375
40
0.96875
40
0.96875
40
1
40
1
40
1
40
1
41
1
10
19.525
20
5.22614247997865
30
0
41
1
10
19.4868076314719
20
5.15903406334559
30
0
41
1
10
19.4445415741477
20
5.09516265236184
30
0
41
1
10
19.3521889252072
20
4.97364715170499
30
0
41
1
10
19.3021013191342
20
4.91600383050286
30
0
41
1
10
19.2210333424558
20
4.83427662431464
30
0
41
1
10
19.1930181098566
20
4.80782636507556
30
0
41
1
10
19.1494674200083
20
4.76937168755245
30
0
41
1
10
19.1347189238819
20
4.75677925804038
30
0
41
1
10
19.1049280387584
20
4.73218337541425
30
0
41
1
10
19.0898619896677
20
4.72015882182717
30
0
41
1
10
19.0136892882088
20
4.66138655643192
30
0
41
1
10
18.8864428442264
20
4.5759596738551
30
0
41
1
10
18.7486361507416
20
4.50748599285129
30
0
41
1
10
18.6590866133628
20
4.470187709714
30
0
41
1
10
18.6409888047527
20
4.46299931107146
30
0
41
1
10
18.6047169888457
20
4.44928258477484
30
0
41
1
10
18.5501003859049
20
4.4296566757539
30
0
41
1
10
18.4948661469256
20
4.41283800375197
30
0
41
1
10
18.3835875525039
20
4.38288407607197
30
0
41
1
10
18.308325132024
20
4.36781034755566
30
0
41
1
10
18.1938058145638
20
4.35259519679286
30
0
41
1
10
18.1553609010355
20
4.34875994110692
30
0
41
1
10
18.0972763138549
20
4.34490523139067
30
0
41
1
10
18.0778087040625
20
4.343936257704
30
0
41
1
10
18.0389698353538
20
4.34264809012967
30
0
41
1
10
18.0195906030382
20
4.34232691749037
30
0
41
1
10
17.922892651774
20
4.34231313758869
30
0
41
1
10
17.7694393078816
20
4.3524391565862
30
0
41
1
10
17.6184556289172
20
4.38239950254669
30
0
41
1
10
17.5061717467168
20
4.4125268110476
30
0
41
1
10
17.46884773555
20
4.42387913075373
30
0
41
1
10
17.3956216084652
20
4.44882009114087
30
0
41
1
10
17.3595834293428
20
4.46244022019928
30
0
41
1
10
17.2531603380318
20
4.50668151959889
30
0
41
1
10
17.1844596799115
20
4.54066930127712
30
0
41
1
10
17.0847824401755
20
4.59838683511245
30
0
41
1
10
17.0521207812628
20
4.61875223019555
30
0
41
1
10
16.9879483858003
20
4.66177936866632
30
0
41
1
10
16.9563513945329
20
4.68451636586352
30
0
41
1
10
16.8646208932639
20
4.75525012106357
30
0
41
1
10
16.7497076105926
20
4.85669151964575
30
0
41
1
10
16.6491736162309
20
4.97197081664214
30
0
41
1
10
16.5792988784809
20
5.06373747277672
30
0
41
1
10
16.5568832679094
20
5.09529136479475
30
0
41
1
10
16.5142931789914
20
5.15970767725153
30
0
41
1
10
16.4940961371373
20
5.19258835446919
30
0
41
1
10
16.475
20
5.22614247997868
30
0
0
SPLINE
5
141
100
AcDbEntity
8
1
62
256
6
ByLayer
370
18
48
1
60
0
100
AcDbSpline
70
4
71
3
72
52
73
48
40
0
40
0
40
0
40
0
40
0.0625000000000075
40
0.0625000000000075
40
0.125000000000015
40
0.125000000000015
40
0.156250000000018
40
0.156250000000018
40
0.17187500000002
40
0.17187500000002
40
0.187500000000021
40
0.187500000000021
40
0.250000000000023
40
0.312500000000024
40
0.312500000000024
40
0.328125000000025
40
0.328125000000025
40
0.343750000000026
40
0.375000000000025
40
0.375000000000025
40
0.437500000000021
40
0.437500000000021
40
0.468750000000018
40
0.468750000000018
40
0.484375000000016
40
0.484375000000016
40
0.500000000000015
40
0.500000000000015
40
0.562500000000014
40
0.625000000000013
40
0.625000000000013
40
0.656250000000011
40
0.656250000000011
40
0.687500000000009
40
0.687500000000009
40
0.750000000000005
40
0.750000000000005
40
0.781250000000004
40
0.781250000000004
40
0.812500000000004
40
0.812500000000004
40
0.875000000000002
40
0.9375
40
0.9375
40
0.96875
40
0.96875
40
1
40
1
40
1
40
1
41
1
10
16.475
20
-5.22614247997862
30
0
41
1
10
16.5131923685281
20
-5.15903406334556
30
0
41
1
10
16.5554584258523
20
-5.09516265236181
30
0
41
1
10
16.6478110747928
20
-4.97364715170497
30
0
41
1
10
16.6978986808658
20
-4.91600383050283
30
0
41
1
10
16.7789666575442
20
-4.83427662431461
30
0
41
1
10
16.8069818901433
20
-4.80782636507553
30
0
41
1
10
16.8505325799917
20
-4.76937168755242
30
0
41
1
10
16.865281076118
20
-4.75677925804035
30
0
41
1
10
16.8950719612416
20
-4.73218337541422
30
0
41
1
10
16.9101380103324
20
-4.72015882182714
30
0
41
1
10
16.9863107117912
20
-4.66138655643189
30
0
41
1
10
17.1135571557736
20
-4.57595967385507
30
0
41
1
10
17.2513638492585
20
-4.50748599285126
30
0
41
1
10
17.3409133866371
20
-4.47018770971397
30
0
41
1
10
17.3590111952472
20
-4.4629993110714
30
0
41
1
10
17.3952830111543
20
-4.44928258477478
30
0
41
1
10
17.4498996140951
20
-4.42965667575388
30
0
41
1
10
17.5051338530743
20
-4.41283800375194
30
0
41
1
10
17.6164124474961
20
-4.38288407607192
30
0
41
1
10
17.691674867976
20
-4.36781034755563
30
0
41
1
10
17.8061941854362
20
-4.35259519679281
30
0
41
1
10
17.8446390989645
20
-4.34875994110689
30
0
41
1
10
17.902723686145
20
-4.34490523139061
30
0
41
1
10
17.9221912959374
20
-4.34393625770394
30
0
41
1
10
17.9610301646462
20
-4.34264809012962
30
0
41
1
10
17.9804093969618
20
-4.34232691749031
30
0
41
1
10
18.077107348226
20
-4.34231313758863
30
0
41
1
10
18.2305607301289
20
-4.3524388621166
30
0
41
1
10
18.3815443710828
20
-4.38239950254663
30
0
41
1
10
18.4938282532831
20
-4.41252681104754
30
0
41
1
10
18.53115226445
20
-4.42387913075368
30
0
41
1
10
18.6043783915348
20
-4.44882009114079
30
0
41
1
10
18.6404165706572
20
-4.4624402201992
30
0
41
1
10
18.7468396619682
20
-4.50668151959883
30
0
41
1
10
18.8155403200885
20
-4.54066930127703
30
0
41
1
10
18.9152175598245
20
-4.59838683511236
30
0
41
1
10
18.9478792187372
20
-4.61875223019547
30
0
41
1
10
19.0120516141997
20
-4.66177936866626
30
0
41
1
10
19.0436486054671
20
-4.68451636586346
30
0
41
1
10
19.1353791067361
20
-4.75525012106348
30
0
41
1
10
19.2502922845242
20
-4.8566916616434
30
0
41
1
10
19.3508263837691
20
-4.97197081664206
30
0
41
1
10
19.4207011215191
20
-5.06373747277661
30
0
41
1
10
19.4431167320905
20
-5.09529136479466
30
0
41
1
10
19.4857068210086
20
-5.15970767725145
30
0
41
1
10
19.5059038628627
20
-5.19258835446911
30
0
41
1
10
19.525
20
-5.22614247997859
30
0
0
SPLINE
5
142
100
AcDbEntity
8
1
62
256
6
ByLayer
370
18
48
1
60
0
100
AcDbSpline
70
4
71
3
72
17
73
13
40
0
40
0
40
0
40
0
40
0.249999999999988
40
0.249999999999988
40
0.374999999999981
40
0.374999999999981
40
0.499999999999975
40
0.624999999999969
40
0.624999999999969
40
0.749999999999962
40
0.749999999999962
40
1
40
1
40
1
40
1
41
1
10
19.925
20
34.2063637171507
30
0
41
1
10
19.925
20
34.177793512001
30
0
41
1
10
19.9221683107406
20
34.1495396142661
30
0
41
1
10
19.9136868786725
20
34.1076317056397
30
0
41
1
10
19.9101299471662
20
34.093684647466
30
0
41
1
10
19.9016163727158
20
34.0662389151325
30
0
41
1
10
19.8917519452748
20
34.0393531831995
30
0
41
1
10
19.8792022826323
20
34.0135806240535
30
0
41
1
10
19.8652733653648
20
33.9883798392959
30
0
41
1
10
19.8577120231608
20
33.9762348822818
30
0
41
1
10
19.8333201409857
20
33.9411938269579
30
0
41
1
10
19.8147852676701
20
33.9196475581026
30
0
41
1
10
19.7938711717964
20
33.9
30
0
0
SPLINE
5
143
100
AcDbEntity
8
1
62
256
6
ByLayer
370
18
48
1
60
0
100
AcDbSpline
70
4
71
3
72
24
73
20
40
0
40
0
40
0
40
0
40
0.249999999999997
40
0.249999999999997
40
0.499999999999995
40
0.499999999999995
40
0.624999999999998
40
0.624999999999998
40
0.750000000000001
40
0.750000000000001
40
0.8125
40
0.8125
40
0.874999999999999
40
0.874999999999999
40
0.937499999999998
40
0.937499999999998
40
0.968749999999999
40
0.968749999999999
40
1
40
1
40
1
40
1
41
1
10
19.7938711717964
20
33.9
30
0
41
1
10
19.7821312617931
20
33.9
30
0
41
1
10
19.7692321175389
20
33.9
30
0
41
1
10
19.7400569476762
20
33.9
30
0
41
1
10
19.7238477226043
20
33.9
30
0
41
1
10
19.6951052466533
20
33.9
30
0
41
1
10
19.684776547139
20
33.9
30
0
41
1
10
19.661760898413
20
33.9
30
0
41
1
10
19.6492022694719
20
33.9
30
0
41
1
10
19.6278385252864
20
33.9
30
0
41
1
10
19.6202678497337
20
33.9
30
0
41
1
10
19.6042563364529
20
33.9
30
0
41
1
10
19.5957879818881
20
33.9
30
0
41
1
10
19.5775123919206
20
33.9
30
0
41
1
10
19.5675526140115
20
33.9
30
0
41
1
10
19.5520432347129
20
33.9
30
0
41
1
10
19.5467594627803
20
33.9
30
0
41
1
10
19.5359316337896
20
33.9
30
0
41
1
10
19.5304322923142
20
33.9
30
0
41
1
10
19.525
20
33.9
30
0
0
SPLINE
5
144
100
AcDbEntity
8
1
62
256
6
ByLayer
370
18
48
1
60
0
100
AcDbSpline
70
4
71
3
72
32
73
28
40
0
40
0
40
0
40
0
40
0.124999999999997
40
0.124999999999997
40
0.249999999999994
40
0.249999999999994
40
0.281249999999997
40
0.281249999999997
40
0.3125
40
0.3125
40
0.375000000000004
40
0.375000000000004
40
0.500000000000011
40
0.500000000000011
40
0.562500000000013
40
0.562500000000013
40
0.593750000000012
40
0.593750000000012
40
0.625000000000012
40
0.625000000000012
40
0.750000000000007
40
0.750000000000007
40
0.875000000000002
40
0.875000000000002
40
0.937500000000001
40
0.937500000000001
40
1
40
1
40
1
40
1
41
1
10
19.525
20
12.7651965466007
30
0
41
1
10
19.5622195860105
20
12.7036176286386
30
0
41
1
10
19.5945527626462
20
12.642484663141
30
0
41
1
10
19.6502831620285
20
12.5186244015406
30
0
41
1
10
19.6736722121477
20
12.4559306495411
30
0
41
1
10
19.6973532499889
20
12.3753164600716
30
0
41
1
10
19.7018100290752
20
12.359081189288
30
0
41
1
10
19.7101589953899
20
12.3263525364362
30
0
41
1
10
19.714053652395
20
12.3098428692303
30
0
41
1
10
19.7248086661144
20
12.2602246220751
30
0
41
1
10
19.7307699811131
20
12.2269226358911
30
0
41
1
10
19.7450963028995
20
12.1261065141187
30
0
41
1
10
19.7499188870622
20
12.0576484492626
30
0
41
1
10
19.7500390410676
20
11.9526009653023
30
0
41
1
10
19.7488895878321
20
11.9171997294758
30
0
41
1
10
19.7453442789825
20
11.8635387560461
30
0
41
1
10
19.7438587539536
20
11.8455591743742
30
0
41
1
10
19.740271181469
20
11.8094248749136
30
0
41
1
10
19.7381668877705
20
11.7912650170551
30
0
41
1
10
19.7261930824228
20
11.7008247415572
30
0
41
1
10
19.7119418691222
20
11.6289920407369
30
0
41
1
10
19.6743523284366
20
11.4872394849291
30
0
41
1
10
19.6510157767458
20
11.4173179220618
30
0
41
1
10
19.6088411734627
20
11.3147749713479
30
0
41
1
10
19.5936243810442
20
11.2811033097474
30
0
41
1
10
19.5610028970169
20
11.2153409674833
30
0
41
1
10
19.5435757761338
20
11.183192886304
30
0
41
1
10
19.5250000000016
20
11.1519055009271
30
0
0
SPLINE
5
145
100
AcDbEntity
8
1
62
256
6
ByLayer
370
18
48
1
60
0
100
AcDbSpline
70
4
71
3
72
32
73
28
40
0
40
0
40
0
40
0
40
0.125000000000002
40
0.125000000000002
40
0.250000000000005
40
0.250000000000005
40
0.281250000000006
40
0.281250000000006
40
0.312500000000008
40
0.312500000000008
40
0.375000000000008
40
0.375000000000008
40
0.500000000000008
40
0.500000000000008
40
0.562500000000008
40
0.562500000000008
40
0.593750000000007
40
0.593750000000007
40
0.625000000000006
40
0.625000000000006
40
0.750000000000004
40
0.750000000000004
40
0.875000000000001
40
0.875000000000001
40
0.937500000000001
40
0.937500000000001
40
1
40
1
40
1
40
1
41
1
10
19.525
20
6.91688846914536
30
0
41
1
10
19.5622195860106
20
6.85205313068278
30
0
41
1
10
19.5945527626463
20
6.78678092659226
30
0
41
1
10
19.6502831620285
20
6.65390993772678
30
0
41
1
10
19.6736722121477
20
6.5863312138824
30
0
41
1
10
19.6973532499889
20
6.49961531978059
30
0
41
1
10
19.7018100290752
20
6.48215971878537
30
0
41
1
10
19.7101589953899
20
6.44700175280136
30
0
41
1
10
19.714053652395
20
6.42928200573547
30
0
41
1
10
19.7248086661144
20
6.37609189555783
30
0
41
1
10
19.7307699811131
20
6.34047933116582
30
0
41
1
10
19.7450963028996
20
6.23305288930564
30
0
41
1
10
19.7499188870622
20
6.16063198277487
30
0
41
1
10
19.7500390410676
20
6.05052489982882
30
0
41
1
10
19.7488895878321
20
6.01358090365648
30
0
41
1
10
19.7453442789825
20
5.95781205326341
30
0
41
1
10
19.7438587539536
20
5.93916395065432
30
0
41
1
10
19.7402711814691
20
5.9017561033383
30
0
41
1
10
19.7381668877706
20
5.88299120949705
30
0
41
1
10
19.7261930824228
20
5.7896903250334
30
0
41
1
10
19.7119418691222
20
5.71607855255095
30
0
41
1
10
19.6743523284366
20
5.57107471496238
30
0
41
1
10
19.6510157767458
20
5.49968189310644
30
0
41
1
10
19.6088411734627
20
5.39454500967909
30
0
41
1
10
19.5936243810442
20
5.35994559805462
30
0
41
1
10
19.5610028970169
20
5.29209328123596
30
0
41
1
10
19.5435757761338
20
5.25878227091005
30
0
41
1
10
19.5250000000016
20
5.22614247997774
30
0
0
SPLINE
5
146
100
AcDbEntity
8
1
62
256
6
ByLayer
370
18
48
1
60
0
100
AcDbSpline
70
4
71
3
72
32
73
28
40
0
40
0
40
0
40
0
40
0.124999999999997
40
0.124999999999997
40
0.249999999999994
40
0.249999999999994
40
0.281249999999993
40
0.281249999999993
40
0.312499999999993
40
0.312499999999993
40
0.374999999999993
40
0.374999999999993
40
0.499999999999993
40
0.499999999999993
40
0.562499999999994
40
0.562499999999994
40
0.593749999999994
40
0.593749999999994
40
0.624999999999995
40
0.624999999999995
40
0.749999999999996
40
0.749999999999996
40
0.874999999999997
40
0.874999999999997
40
0.937499999999998
40
0.937499999999998
40
1
40
1
40
1
40
1
41
1
10
19.525
20
-5.22614247997859
30
0
41
1
10
19.5622195860106
20
-5.2915416050177
30
0
41
1
10
19.5945527626463
20
-5.3590769893876
30
0
41
1
10
19.6502831620285
20
-5.49770666193152
30
0
41
1
10
19.6736722121477
20
-5.56880925594422
30
0
41
1
10
19.6973532499889
20
-5.65971876404583
30
0
41
1
10
19.7018100290752
20
-5.6780029228544
30
0
41
1
10
19.7101589953899
20
-5.71477338908423
30
0
41
1
10
19.714053652395
20
-5.7332776707421
30
0
41
1
10
19.7248086661144
20
-5.78870362000646
30
0
41
1
10
19.7307699811131
20
-5.82565380396201
30
0
41
1
10
19.7450963028996
20
-5.9364069185086
30
0
41
1
10
19.7499188870622
20
-6.01009854190164
30
0
41
1
10
19.7500390410676
20
-6.12023609825198
30
0
41
1
10
19.7488895878321
20
-6.15688527257893
30
0
41
1
10
19.7453442789826
20
-6.21177379200472
30
0
41
1
10
19.7438587539536
20
-6.23005600058784
30
0
41
1
10
19.7402711814691
20
-6.26659692755152
30
0
41
1
10
19.7381668877706
20
-6.28486034831255
30
0
41
1
10
19.7261930824228
20
-6.3753769690729
30
0
41
1
10
19.7119418691222
20
-6.44585081898956
30
0
41
1
10
19.6743523284367
20
-6.58417469697565
30
0
41
1
10
19.6510157767458
20
-6.6520235401529
30
0
41
1
10
19.6088411734627
20
-6.7527829448789
30
0
41
1
10
19.5936243810442
20
-6.78608775327544
30
0
41
1
10
19.5610028970169
20
-6.85193418389369
30
0
41
1
10
19.5435757761338
20
-6.88453005622839
30
0
41
1
10
19.5250000000016
20
-6.91688846914565
30
0
0
SPLINE
5
147
100
AcDbEntity
8
1
62
256
6
ByLayer
370
18
48
1
60
0
100
AcDbSpline
70
4
71
3
72
32
73
28
40
0
40
0
40
0
40
0
40
0.125
40
0.125
40
0.25
40
0.25
40
0.281249999999999
40
0.281249999999999
40
0.312499999999999
40
0.312499999999999
40
0.375
40
0.375
40
0.499999999999999
40
0.499999999999999
40
0.562500000000002
40
0.562500000000002
40
0.593750000000002
40
0.593750000000002
40
0.625000000000002
40
0.625000000000002
40
0.750000000000003
40
0.750000000000003
40
0.875000000000004
40
0.875000000000004
40
0.937500000000002
40
0.937500000000002
40
1
40
1
40
1
40
1
41
1
10
19.525
20
-11.1519055009282
30
0
41
1
10
19.5622195860106
20
-11.2145948616736
30
0
41
1
10
19.5945527626463
20
-11.2801854221423
30
0
41
1
10
19.6502831620285
20
-11.41538807641
30
0
41
1
10
19.6736722121477
20
-11.4850224977343
30
0
41
1
10
19.6973532499889
20
-11.5738964943641
30
0
41
1
10
19.7018100290752
20
-11.5917637054645
30
0
41
1
10
19.7101589953899
20
-11.627668363804
30
0
41
1
10
19.714053652395
20
-11.6457232625072
30
0
41
1
10
19.7248086661144
20
-11.6997452529966
30
0
41
1
10
19.7307699811131
20
-11.7356818354141
30
0
41
1
10
19.7450963028996
20
-11.8430502232931
30
0
41
1
10
19.7499188870622
20
-11.9140111117849
30
0
41
1
10
19.7500390410676
20
-12.0191186166348
30
0
41
1
10
19.7488895878321
20
-12.0539391667832
30
0
41
1
10
19.7453442789826
20
-12.1058662266892
30
0
41
1
10
19.7438587539536
20
-12.123125137814
30
0
41
1
10
19.7402711814691
20
-12.1575519375062
30
0
41
1
10
19.7381668877706
20
-12.17472408621
30
0
41
1
10
19.7261930824228
20
-12.259680432745
30
0
41
1
10
19.7119418691222
20
-12.3253326326231
30
0
41
1
10
19.6743523284367
20
-12.4539282364182
30
0
41
1
10
19.6510157767458
20
-12.5168695239269
30
0
41
1
10
19.6088411734627
20
-12.6107905247134
30
0
41
1
10
19.5936243810442
20
-12.641912315722
30
0
41
1
10
19.5610028970169
20
-12.7037238334225
30
0
41
1
10
19.5435757761338
20
-12.7344633677253
30
0
41
1
10
19.5250000000016
20
-12.7651965466007
30
0
0
SPLINE
5
148
100
AcDbEntity
8
1
62
256
6
ByLayer
370
18
48
1
60
0
100
AcDbSpline
70
4
71
3
72
38
73
34
40
0
40
0
40
0
40
0
40
0.250000000000007
40
0.250000000000007
40
0.375000000000011
40
0.375000000000011
40
0.437500000000011
40
0.437500000000011
40
0.500000000000011
40
0.500000000000011
40
0.625000000000013
40
0.625000000000013
40
0.687500000000013
40
0.687500000000013
40
0.750000000000013
40
0.750000000000013
40
0.812500000000013
40
0.812500000000013
40
0.843750000000012
40
0.843750000000012
40
0.87500000000001
40
0.87500000000001
40
0.906250000000009
40
0.906250000000009
40
0.937500000000007
40
0.937500000000007
40
0.953125000000006
40
0.953125000000006
40
0.968750000000004
40
0.968750000000004
40
0.984375000000002
40
0.984375000000002
40
1
40
1
40
1
40
1
41
1
10
19.9242250034235
20
-33.9
30
0
41
1
10
19.9219887293965
20
-33.9
30
0
41
1
10
19.9150312552186
20
-33.9
30
0
41
1
10
19.8971083492035
20
-33.9
30
0
41
1
10
19.8898712275838
20
-33.9
30
0
41
1
10
19.8768613363002
20
-33.9
30
0
41
1
10
19.872163850969
20
-33.9
30
0
41
1
10
19.8619728041314
20
-33.9
30
0
41
1
10
19.8564774372253
20
-33.9
30
0
41
1
10
19.8387145982883
20
-33.9
30
0
41
1
10
19.8251882829258
20
-33.9
30
0
41
1
10
19.8013916574702
20
-33.9
30
0
41
1
10
19.792868650864
20
-33.9
30
0
41
1
10
19.7743191281751
20
-33.9
30
0
41
1
10
19.7642991662281
20
-33.9
30
0
41
1
10
19.7423447882712
20
-33.9
30
0
41
1
10
19.7304156148048
20
-33.9
30
0
41
1
10
19.7103470695674
20
-33.9
30
0
41
1
10
19.7032760679352
20
-33.9
30
0
41
1
10
19.6882549601022
20
-33.9
30
0
41
1
10
19.6803077626058
20
-33.9
30
0
41
1
10
19.6632153909608
20
-33.9
30
0
41
1
10
19.6540736548598
20
-33.9
30
0
41
1
10
19.6340132961949
20
-33.9
30
0
41
1
10
19.6232427350501
20
-33.9
30
0
41
1
10
19.6052901002551
20
-33.9
30
0
41
1
10
19.5989596770452
20
-33.9
30
0
41
1
10
19.5857499156981
20
-33.9
30
0
41
1
10
19.5788658017674
20
-33.9
30
0
41
1
10
19.564372786932
20
-33.9
30
0
41
1
10
19.5566955113263
20
-33.9
30
0
41
1
10
19.541116254682
20
-33.9
30
0
41
1
10
19.5330973716576
20
-33.9
30
0
41
1
10
19.525
20
-33.9
30
0
0
SPLINE
5
149
100
AcDbEntity
8
1
62
256
6
ByLayer
370
18
48
1
60
0
100
AcDbSpline
70
4
71
3
72
16
73
12
40
0
40
0
40
0
40
0
40
0.249999999999997
40
0.249999999999997
40
0.499999999999993
40
0.499999999999993
40
0.624999999999995
40
0.624999999999995
40
0.749999999999997
40
0.749999999999997
40
1
40
1
40
1
40
1
41
1
10
19.9250050005
20
24.85
30
0
41
1
10
19.9249949995
20
24.85
30
0
41
1
10
19.9235155389691
20
24.85
30
0
41
1
10
19.9174981565208
20
24.85
30
0
41
1
10
19.9129403591607
20
24.85
30
0
41
1
10
19.9037760337273
20
24.85
30
0
41
1
10
19.9003306925977
20
24.85
30
0
41
1
10
19.8926276701094
20
24.85
30
0
41
1
10
19.8883596296421
20
24.85
30
0
41
1
10
19.8744043789501
20
24.85
30
0
41
1
10
19.8635492228005
20
24.85
30
0
41
1
10
19.8509938906289
20
24.85
30
0
0
SPLINE
5
14A
100
AcDbEntity
8
1
62
256
6
ByLayer
370
18
48
1
60
0
100
AcDbSpline
70
4
71
3
72
16
73
12
40
0
40
0
40
0
40
0
40
0.249999999999994
40
0.249999999999994
40
0.499999999999988
40
0.499999999999988
40
0.624999999999989
40
0.624999999999989
40
0.749999999999989
40
0.749999999999989
40
1
40
1
40
1
40
1
41
1
10
19.925
20
25.1767377751766
30
0
41
1
10
19.925
20
25.1487019811984
30
0
41
1
10
19.9235155389691
20
25.1206777669018
30
0
41
1
10
19.9174981565208
20
25.0646531181181
30
0
41
1
10
19.9129403591607
20
25.0365896711994
30
0
41
1
10
19.9037760337273
20
24.9952009740758
30
0
41
1
10
19.9003306925977
20
24.9814967385732
30
0
41
1
10
19.8926276701094
20
24.9542796123417
30
0
41
1
10
19.8883596296421
20
24.9407416126277
30
0
41
1
10
19.8744043789501
20
24.9008071210201
30
0
41
1
10
19.8635492228005
20
24.8749719465394
30
0
41
1
10
19.8509938906289
20
24.8499999999999
30
0
0
SPLINE
5
14B
100
AcDbEntity
8
1
62
256
6
ByLayer
370
18
48
1
60
0
100
AcDbSpline
70
4
71
3
72
24
73
20
40
0
40
0
40
0
40
0
40
0.0624999999999948
40
0.0624999999999948
40
0.12499999999999
40
0.12499999999999
40
0.187499999999985
40
0.187499999999985
40
0.249999999999979
40
0.249999999999979
40
0.37499999999999
40
0.37499999999999
40
0.437499999999985
40
0.437499999999985
40
0.499999999999981
40
0.499999999999981
40
0.74999999999999
40
0.74999999999999
40
1
40
1
40
1
40
1
41
1
10
16.475
20
33.9
30
0
41
1
10
16.4641793345817
20
33.9
30
0
41
1
10
16.4531771209876
20
33.9
30
0
41
1
10
16.4324909429642
20
33.9
30
0
41
1
10
16.4225520820061
20
33.9
30
0
41
1
10
16.4042059452893
20
33.9
30
0
41
1
10
16.3956753730167
20
33.9
30
0
41
1
10
16.3795169930081
20
33.9
30
0
41
1
10
16.371959087385
20
33.9
30
0
41
1
10
16.3507199353316
20
33.9
30
0
41
1
10
16.3382588024534
20
33.9
30
0
41
1
10
16.3210333830364
20
33.9
30
0
41
1
10
16.3155380320369
20
33.9
30
0
41
1
10
16.3050558822072
20
33.9
30
0
41
1
10
16.3000567644748
20
33.9
30
0
41
1
10
16.2760415355989
20
33.9
30
0
41
1
10
16.2598388387782
20
33.9
30
0
41
1
10
16.2306992376631
20
33.9
30
0
41
1
10
16.2178328870672
20
33.9
30
0
41
1
10
16.2061288282016
20
33.9
30
0
0
SPLINE
5
14C
100
AcDbEntity
8
1
62
256
6
ByLayer
370
18
48
1
60
0
100
AcDbSpline
70
4
71
3
72
20
73
16
40
0
40
0
40
0
40
0
40
0.125000000000011
40
0.125000000000011
40
0.250000000000022
40
0.250000000000022
40
0.375000000000033
40
0.375000000000033
40
0.500000000000044
40
0.500000000000044
40
0.750000000000022
40
0.750000000000022
40
0.875000000000011
40
0.875000000000011
40
1
40
1
40
1
40
1
41
1
10
16.2061288282035
20
33.9
30
0
41
1
10
16.1957676608526
20
33.9097337049026
30
0
41
1
10
16.1858933493006
20
33.9200332569872
30
0
41
1
10
16.1671378210516
20
33.9417865836731
30
0
41
1
10
16.1583264577262
20
33.9531665944916
30
0
41
1
10
16.1419816908041
20
33.9767034149715
30
0
41
1
10
16.1344122677785
20
33.9889071377788
30
0
41
1
10
16.1205368142612
20
34.0140958815887
30
0
41
1
10
16.1143069113331
20
34.0269385789768
30
0
41
1
10
16.097650030752
20
34.0661798472505
30
0
41
1
10
16.089234962846
20
34.093284255434
30
0
41
1
10
16.0806901177884
20
34.1353714651037
30
0
41
1
10
16.0785393441945
20
34.149632534682
30
0
41
1
10
16.0757035333294
20
34.1779966249213
30
0
41
1
10
16.075
20
34.1921796757909
30
0
41
1
10
16.075
20
34.2063637171507
30
0
0
SPLINE
5
14D
100
AcDbEntity
8
1
62
256
6
ByLayer
370
18
48
1
60
0
100
AcDbSpline
70
4
71
3
72
15
73
11
40
0
40
0
40
0
40
0
40
0.249999999999989
40
0.249999999999989
40
0.374999999999989
40
0.374999999999989
40
0.499999999999988
40
0.499999999999988
40
0.749999999999994
40
1
40
1
40
1
40
1
41
1
10
16.1490061093709
20
24.8499999999999
30
0
41
1
10
16.1363443432083
20
24.8751836385835
30
0
41
1
10
16.1253211328594
20
24.9014772991756
30
0
41
1
10
16.1113159485727
20
24.9417305245914
30
0
41
1
10
16.1070661823145
20
24.9552901083451
30
0
41
1
10
16.0994185343726
20
24.9824593817695
30
0
41
1
10
16.0960090146259
20
24.9961022683787
30
0
41
1
10
16.0869574624453
20
25.0371964117711
30
0
41
1
10
16.0780134673693
20
25.0924279319381
30
0
41
1
10
16.075
20
25.1484932660223
30
0
41
1
10
16.075
20
25.1767377751766
30
0
0
SPLINE
5
14E
100
AcDbEntity
8
1
62
256
6
ByLayer
370
18
48
1
60
0
100
AcDbSpline
70
4
71
3
72
15
73
11
40
0
40
0
40
0
40
0
40
0.250965831536057
40
0.250965831536057
40
0.376448747304085
40
0.376448747304085
40
0.501931663072114
40
0.501931663072114
40
0.752897494608164
40
1
40
1
40
1
40
1
41
1
10
16.1490061093709
20
24.85
30
0
41
1
10
16.1363443432083
20
24.85
30
0
41
1
10
16.1253211328594
20
24.85
30
0
41
1
10
16.1113159485727
20
24.85
30
0
41
1
10
16.1070661823145
20
24.85
30
0
41
1
10
16.0994185343726
20
24.85
30
0
41
1
10
16.0960090146259
20
24.85
30
0
41
1
10
16.0869574624453
20
24.85
30
0
41
1
10
16.0780829905409
20
24.85
30
0
41
1
10
16.0750359182492
20
24.85
30
0
41
1
10
16.0750051093708
20
24.85
30
0
0
SPLINE
5
14F
100
AcDbEntity
8
1
62
256
6
ByLayer
370
18
48
1
60
0
100
AcDbSpline
70
4
71
3
72
34
73
30
40
0
40
0
40
0
40
0
40
0.0156250000000001
40
0.0156250000000001
40
0.0312500000000002
40
0.0312500000000002
40
0.0624999999999989
40
0.0624999999999989
40
0.0937499999999976
40
0.0937499999999976
40
0.124999999999996
40
0.124999999999996
40
0.156249999999995
40
0.156249999999995
40
0.187499999999994
40
0.187499999999994
40
0.249999999999994
40
0.249999999999994
40
0.312499999999995
40
0.312499999999995
40
0.374999999999995
40
0.374999999999995
40
0.499999999999996
40
0.499999999999996
40
0.624999999999997
40
0.624999999999997
40
0.749999999999998
40
0.749999999999998
40
1
40
1
40
1
40
1
41
1
10
16.475
20
-33.9
30
0
41
1
10
16.4669192883393
20
-33.9
30
0
41
1
10
16.4586828331082
20
-33.9
30
0
41
1
10
16.4429007947536
20
-33.9
30
0
41
1
10
16.4352430522618
20
-33.9
30
0
41
1
10
16.413123641402
20
-33.9
30
0
41
1
10
16.4000600949818
20
-33.9
30
0
41
1
10
16.3758514619868
20
-33.8999999999999
30
0
41
1
10
16.3650348924486
20
-33.9
30
0
41
1
10
16.3450691079751
20
-33.8999999999999
30
0
41
1
10
16.3359043413531
20
-33.9
30
0
41
1
10
16.3186915493421
20
-33.8999999999999
30
0
41
1
10
16.3106966663168
20
-33.9
30
0
41
1
10
16.2957157714743
20
-33.9
30
0
41
1
10
16.2887050455689
20
-33.9
30
0
41
1
10
16.2687615982101
20
-33.9
30
0
41
1
10
16.256900311759
20
-33.9
30
0
41
1
10
16.2350662835217
20
-33.8999999999999
30
0
41
1
10
16.2251087375976
20
-33.9
30
0
41
1
10
16.2066188482047
20
-33.9
30
0
41
1
10
16.1980783232909
20
-33.9
30
0
41
1
10
16.1742849452066
20
-33.9
30
0
41
1
10
16.1608451559839
20
-33.9
30
0
41
1
10
16.1373668888215
20
-33.8999999999999
30
0
41
1
10
16.1273530775996
20
-33.9
30
0
41
1
10
16.1101192404498
20
-33.9
30
0
41
1
10
16.1029069666495
20
-33.9
30
0
41
1
10
16.0850150067315
20
-33.9
30
0
41
1
10
16.0780196035912
20
-33.9
30
0
41
1
10
16.0757749965766
20
-33.9
30
0
0
SPLINE
5
150
100
AcDbEntity
8
1
62
256
6
ByLayer
370
18
48
1
60
0
100
AcDbSpline
70
4
71
3
72
32
73
28
40
0
40
0
40
0
40
0
40
0.125000000000018
40
0.125000000000018
40
0.250000000000035
40
0.250000000000035
40
0.281250000000036
40
0.281250000000036
40
0.312500000000036
40
0.312500000000036
40
0.375000000000034
40
0.375000000000034
40
0.500000000000033
40
0.500000000000033
40
0.562500000000032
40
0.562500000000032
40
0.593750000000029
40
0.593750000000029
40
0.625000000000025
40
0.625000000000025
40
0.750000000000017
40
0.750000000000017
40
0.875000000000009
40
0.875000000000009
40
0.937500000000004
40
0.937500000000004
40
1
40
1
40
1
40
1
41
1
10
16.475
20
-12.7651965466006
30
0
41
1
10
16.4377804139895
20
-12.7036176286385
30
0
41
1
10
16.4054472373538
20
-12.6424846631409
30
0
41
1
10
16.3497168379715
20
-12.5186244015405
30
0
41
1
10
16.3263277878524
20
-12.4559306495411
30
0
41
1
10
16.3026467500111
20
-12.3753164600715
30
0
41
1
10
16.2981899709248
20
-12.3590811892879
30
0
41
1
10
16.2898410046102
20
-12.3263525364361
30
0
41
1
10
16.2859463476051
20
-12.3098428692302
30
0
41
1
10
16.2751913338856
20
-12.260224622075
30
0
41
1
10
16.269230018887
20
-12.226922635891
30
0
41
1
10
16.2549036971005
20
-12.1261065141186
30
0
41
1
10
16.2500811129379
20
-12.0576484492626
30
0
41
1
10
16.2499609589324
20
-11.9526009653023
30
0
41
1
10
16.2511104121679
20
-11.9171997294757
30
0
41
1
10
16.2546557210175
20
-11.8635387560461
30
0
41
1
10
16.2561412460464
20
-11.8455591743742
30
0
41
1
10
16.259728818531
20
-11.8094248749135
30
0
41
1
10
16.2618331122295
20
-11.7912650170551
30
0
41
1
10
16.2738069175772
20
-11.7008247415571
30
0
41
1
10
16.2880581308779
20
-11.6289920407369
30
0
41
1
10
16.3256476715634
20
-11.487239484929
30
0
41
1
10
16.3489842232542
20
-11.4173179220617
30
0
41
1
10
16.3911588265373
20
-11.3147749713478
30
0
41
1
10
16.4063756189558
20
-11.2811033097473
30
0
41
1
10
16.4389971029831
20
-11.2153409674832
30
0
41
1
10
16.4564242238662
20
-11.183192886304
30
0
41
1
10
16.4749999999984
20
-11.1519055009271
30
0
0
SPLINE
5
151
100
AcDbEntity
8
1
62
256
6
ByLayer
370
18
48
1
60
0
100
AcDbSpline
70
4
71
3
72
32
73
28
40
0
40
0
40
0
40
0
40
0.125000000000004
40
0.125000000000004
40
0.250000000000008
40
0.250000000000008
40
0.281250000000009
40
0.281250000000009
40
0.31250000000001
40
0.31250000000001
40
0.375000000000009
40
0.375000000000009
40
0.500000000000005
40
0.500000000000005
40
0.5625
40
0.5625
40
0.593749999999999
40
0.593749999999999
40
0.624999999999998
40
0.624999999999998
40
0.749999999999998
40
0.749999999999998
40
0.874999999999998
40
0.874999999999998
40
0.937499999999999
40
0.937499999999999
40
1
40
1
40
1
40
1
41
1
10
16.475
20
-6.91688846914528
30
0
41
1
10
16.4377804139895
20
-6.85205313068269
30
0
41
1
10
16.4054472373538
20
-6.78678092659217
30
0
41
1
10
16.3497168379715
20
-6.6539099377267
30
0
41
1
10
16.3263277878524
20
-6.58633121388232
30
0
41
1
10
16.3026467500111
20
-6.4996153197805
30
0
41
1
10
16.2981899709248
20
-6.48215971878531
30
0
41
1
10
16.2898410046102
20
-6.44700175280127
30
0
41
1
10
16.285946347605
20
-6.42928200573539
30
0
41
1
10
16.2751913338856
20
-6.37609189555778
30
0
41
1
10
16.269230018887
20
-6.34047933116577
30
0
41
1
10
16.2549036971005
20
-6.23305288930558
30
0
41
1
10
16.2500811129379
20
-6.16063198277482
30
0
41
1
10
16.2499609589324
20
-6.05052489982879
30
0
41
1
10
16.2511104121679
20
-6.01358090365645
30
0
41
1
10
16.2546557210175
20
-5.95781205326335
30
0
41
1
10
16.2561412460464
20
-5.93916395065426
30
0
41
1
10
16.259728818531
20
-5.90175610333827
30
0
41
1
10
16.2618331122295
20
-5.88299120949699
30
0
41
1
10
16.2738069175772
20
-5.78969032503335
30
0
41
1
10
16.2880581308779
20
-5.7160785525509
30
0
41
1
10
16.3256476715634
20
-5.57107471496235
30
0
41
1
10
16.3489842232542
20
-5.49968189310641
30
0
41
1
10
16.3911588265373
20
-5.39454500967906
30
0
41
1
10
16.4063756189558
20
-5.35994559805462
30
0
41
1
10
16.4389971029831
20
-5.29209328123594
30
0
41
1
10
16.4564242238662
20
-5.25878227091005
30
0
41
1
10
16.4749999999984
20
-5.22614247997771
30
0
0
SPLINE
5
152
100
AcDbEntity
8
1
62
256
6
ByLayer
370
18
48
1
60
0
100
AcDbSpline
70
4
71
3
72
32
73
28
40
0
40
0
40
0
40
0
40
0.124999999999995
40
0.124999999999995
40
0.249999999999989
40
0.249999999999989
40
0.281249999999988
40
0.281249999999988
40
0.312499999999987
40
0.312499999999987
40
0.374999999999986
40
0.374999999999986
40
0.499999999999984
40
0.499999999999984
40
0.562499999999984
40
0.562499999999984
40
0.593749999999985
40
0.593749999999985
40
0.624999999999985
40
0.624999999999985
40
0.749999999999988
40
0.749999999999988
40
0.874999999999992
40
0.874999999999992
40
0.937499999999996
40
0.937499999999996
40
1
40
1
40
1
40
1
41
1
10
16.475
20
5.22614247997868
30
0
41
1
10
16.4377804139894
20
5.29154160501778
30
0
41
1
10
16.4054472373537
20
5.35907698938769
30
0
41
1
10
16.3497168379715
20
5.4977066619316
30
0
41
1
10
16.3263277878523
20
5.5688092559443
30
0
41
1
10
16.3026467500111
20
5.65971876404589
30
0
41
1
10
16.2981899709248
20
5.67800292285446
30
0
41
1
10
16.2898410046102
20
5.71477338908431
30
0
41
1
10
16.285946347605
20
5.73327767074215
30
0
41
1
10
16.2751913338856
20
5.78870362000652
30
0
41
1
10
16.2692300188869
20
5.82565380396207
30
0
41
1
10
16.2549036971005
20
5.93640691850862
30
0
41
1
10
16.2500811129379
20
6.0100985419017
30
0
41
1
10
16.2499609589324
20
6.12023609825204
30
0
41
1
10
16.2511104121679
20
6.15688527257896
30
0
41
1
10
16.2546557210175
20
6.21177379200475
30
0
41
1
10
16.2561412460464
20
6.23005600058787
30
0
41
1
10
16.259728818531
20
6.26659692755157
30
0
41
1
10
16.2618331122295
20
6.28486034831261
30
0
41
1
10
16.2738069175772
20
6.37537696907293
30
0
41
1
10
16.2880581308778
20
6.44585081898961
30
0
41
1
10
16.3256476715634
20
6.58417469697568
30
0
41
1
10
16.3489842232542
20
6.65202354015292
30
0
41
1
10
16.3911588265373
20
6.75278294487893
30
0
41
1
10
16.4063756189558
20
6.78608775327544
30
0
41
1
10
16.4389971029831
20
6.85193418389372
30
0
41
1
10
16.4564242238662
20
6.88453005622841
30
0
41
1
10
16.4749999999984
20
6.91688846914568
30
0
0
SPLINE
5
153
100
AcDbEntity
8
1
62
256
6
ByLayer
370
18
48
1
60
0
100
AcDbSpline
70
4
71
3
72
32
73
28
40
0
40
0
40
0
40
0
40
0.124999999999984
40
0.124999999999984
40
0.249999999999969
40
0.249999999999969
40
0.281249999999968
40
0.281249999999968
40
0.312499999999968
40
0.312499999999968
40
0.374999999999967
40
0.374999999999967
40
0.499999999999969
40
0.499999999999969
40
0.562499999999972
40
0.562499999999972
40
0.593749999999974
40
0.593749999999974
40
0.624999999999975
40
0.624999999999975
40
0.749999999999984
40
0.749999999999984
40
0.874999999999993
40
0.874999999999993
40
0.937499999999997
40
0.937499999999997
40
1
40
1
40
1
40
1
41
1
10
16.475
20
11.1519055009283
30
0
41
1
10
16.4377804139894
20
11.2145948616736
30
0
41
1
10
16.4054472373537
20
11.2801854221424
30
0
41
1
10
16.3497168379715
20
11.4153880764101
30
0
41
1
10
16.3263277878523
20
11.4850224977344
30
0
41
1
10
16.3026467500111
20
11.5738964943642
30
0
41
1
10
16.2981899709248
20
11.5917637054646
30
0
41
1
10
16.2898410046102
20
11.627668363804
30
0
41
1
10
16.285946347605
20
11.6457232625073
30
0
41
1
10
16.2751913338856
20
11.6997452529967
30
0
41
1
10
16.2692300188869
20
11.7356818354142
30
0
41
1
10
16.2549036971005
20
11.8430502232932
30
0
41
1
10
16.2500811129378
20
11.914011111785
30
0
41
1
10
16.2499609589324
20
12.0191186166348
30
0
41
1
10
16.2511104121679
20
12.0539391667832
30
0
41
1
10
16.2546557210175
20
12.1058662266893
30
0
41
1
10
16.2561412460464
20
12.123125137814
30
0
41
1
10
16.2597288185309
20
12.1575519375063
30
0
41
1
10
16.2618331122295
20
12.17472408621
30
0
41
1
10
16.2738069175772
20
12.2596804327451
30
0
41
1
10
16.2880581308778
20
12.3253326326231
30
0
41
1
10
16.3256476715634
20
12.4539282364182
30
0
41
1
10
16.3489842232542
20
12.516869523927
30
0
41
1
10
16.3911588265373
20
12.6107905247134
30
0
41
1
10
16.4063756189558
20
12.6419123157221
30
0
41
1
10
16.4389971029831
20
12.7037238334225
30
0
41
1
10
16.4564242238662
20
12.7344633677253
30
0
41
1
10
16.4749999999984
20
12.7651965466007
30
0
0
SPLINE
5
154
100
AcDbEntity
8
1
62
256
6
ByLayer
370
18
48
1
60
0
100
AcDbSpline
70
4
71
3
72
53
73
49
40
0
40
0
40
0
40
0
40
0.0624999999999999
40
0.0624999999999999
40
0.125
40
0.125
40
0.1875
40
0.1875
40
0.203125
40
0.203125
40
0.21875
40
0.21875
40
0.25
40
0.25
40
0.3125
40
0.3125
40
0.375
40
0.375
40
0.40625
40
0.40625
40
0.421875
40
0.421875
40
0.4375
40
0.4375
40
0.499999999999999
40
0.499999999999999
40
0.562499999999999
40
0.562499999999999
40
0.624999999999999
40
0.624999999999999
40
0.640624999999999
40
0.640624999999999
40
0.656249999999999
40
0.687499999999999
40
0.687499999999999
40
0.749999999999999
40
0.749999999999999
40
0.8125
40
0.8125
40
0.84375
40
0.84375
40
0.859375
40
0.859375
40
0.875
40
0.875
40
0.9375
40
0.9375
40
1
40
1
40
1
40
1
41
1
10
12.9500000000001
20
-38.6934162229183
30
0
41
1
10
12.6513995898491
20
-38.6934162229183
30
0
41
1
10
12.3554358706993
20
-38.6972633030219
30
0
41
1
10
11.7685820323744
20
-38.7122622092273
30
0
41
1
10
11.4776924579571
20
-38.7234146060926
30
0
41
1
10
10.90093407144
20
-38.7526613762077
30
0
41
1
10
10.6150651082532
20
-38.7707561866833
30
0
41
1
10
10.260920530736
20
-38.7974931633374
30
0
41
1
10
10.1902515501292
20
-38.8030464901451
30
0
41
1
10
10.0492362611177
20
-38.8145594950388
30
0
41
1
10
9.97883594728448
20
-38.8205244795145
30
0
41
1
10
9.76928291662658
20
-38.8389155673118
30
0
41
1
10
9.63141593331174
20
-38.8518656659784
30
0
41
1
10
9.22318902552514
20
-38.8926100001054
30
0
41
1
10
8.95819018744344
20
-38.922296638657
30
0
41
1
10
8.44213164238765
20
-38.9858437397723
30
0
41
1
10
8.19107236591391
20
-39.019705515534
30
0
41
1
10
7.82497353851538
20
-39.0730031894838
30
0
41
1
10
7.70469210541837
20
-39.0911867522613
30
0
41
1
10
7.52693125926048
20
-39.1190105011441
30
0
41
1
10
7.46807114721226
20
-39.1283846415687
30
0
41
1
10
7.35147254441331
20
-39.1472659438038
30
0
41
1
10
7.29385841229829
20
-39.1567526445794
30
0
41
1
10
7.00916971332485
20
-39.2043762962057
30
0
41
1
10
6.79221433957566
20
-39.2430807510518
30
0
41
1
10
6.37921455098676
20
-39.3207288284038
30
0
41
1
10
6.18317166017893
20
-39.3596741398387
30
0
41
1
10
5.81196667577713
20
-39.43688112319
30
0
41
1
10
5.63680294200186
20
-39.4751444260062
30
0
41
1
10
5.43128138525789
20
-39.5219673050245
30
0
41
1
10
5.3908019761093
20
-39.5312929309608
30
0
41
1
10
5.31159185569575
20
-39.5497380558206
30
0
41
1
10
5.19530269278027
20
-39.5771180757336
30
0
41
1
10
5.08650644245262
20
-39.6035848389684
30
0
41
1
10
4.87875251649962
20
-39.6551709396186
30
0
41
1
10
4.75334401071582
20
-39.6877647850212
30
0
41
1
10
4.52850788340722
20
-39.748687415371
30
0
41
1
10
4.42907948698983
20
-39.7770174073434
30
0
41
1
10
4.29985237680533
20
-39.8158090584376
30
0
41
1
10
4.26010205637554
20
-39.8281222460715
30
0
41
1
10
4.20557768624825
20
-39.8456001932976
30
0
41
1
10
4.18824057401534
20
-39.8512653857582
30
0
41
1
10
4.15543878206043
20
-39.8622039180915
30
0
41
1
10
4.13995502156089
20
-39.8674831840252
30
0
41
1
10
4.06709388018278
20
-39.8929207792227
30
0
41
1
10
4.02335593810214
20
-39.9102030320675
30
0
41
1
10
3.96480955691901
20
-39.9384079338667
30
0
41
1
10
3.95000000000005
20
-39.9493309927516
30
0
41
1
10
3.95000000000005
20
-39.9569575793753
30
0
0
SPLINE
5
155
100
AcDbEntity
8
1
62
256
6
ByLayer
370
18
48
1
60
0
100
AcDbSpline
70
4
71
3
72
53
73
49
40
0
40
0
40
0
40
0
40
0.0624999999999987
40
0.0624999999999987
40
0.124999999999997
40
0.124999999999997
40
0.156249999999997
40
0.156249999999997
40
0.171874999999997
40
0.179687499999997
40
0.179687499999997
40
0.187499999999997
40
0.187499999999997
40
0.249999999999996
40
0.249999999999996
40
0.312499999999996
40
0.312499999999996
40
0.343749999999996
40
0.343749999999996
40
0.359374999999997
40
0.359374999999997
40
0.374999999999997
40
0.374999999999997
40
0.437499999999999
40
0.437499999999999
40
0.500000000000001
40
0.500000000000001
40
0.531250000000001
40
0.546875000000002
40
0.546875000000002
40
0.562500000000002
40
0.562500000000002
40
0.625000000000003
40
0.625000000000003
40
0.687500000000004
40
0.687500000000004
40
0.750000000000004
40
0.750000000000004
40
0.812500000000005
40
0.812500000000005
40
0.843750000000005
40
0.843750000000005
40
0.859375000000005
40
0.859375000000005
40
0.875000000000005
40
0.937500000000003
40
0.937500000000003
40
1
40
1
40
1
40
1
41
1
10
12.5942151374105
20
31.3062038580215
30
0
41
1
10
12.3060297229182
20
31.3062038580215
30
0
41
1
10
12.0209898219602
20
31.2952591017536
30
0
41
1
10
11.4569066100383
20
31.2524014091034
30
0
41
1
10
11.1778645117782
20
31.2204839335895
30
0
41
1
10
10.7637354617502
20
31.1568780086619
30
0
41
1
10
10.6264329623104
20
31.1330477089288
30
0
41
1
10
10.4215949681311
20
31.0933006455795
30
0
41
1
10
10.3194550436793
20
31.0724260957234
30
0
41
1
10
10.2177358758146
20
31.0500333113241
30
0
41
1
10
10.1500169218538
20
31.0347651513651
30
0
41
1
10
10.1161858108045
20
31.0269566413064
30
0
41
1
10
9.81308908408765
20
30.9553722232108
30
0
41
1
10
9.55199482735388
20
30.8821504945474
30
0
41
1
10
9.0453158074783
20
30.7172391262087
30
0
41
1
10
8.7997364668356
20
30.6255436251123
30
0
41
1
10
8.44252062214973
20
30.4741960813204
30
0
41
1
10
8.32531085226587
20
30.4214417460986
30
0
41
1
10
8.15225530047134
20
30.3388225515563
30
0
41
1
10
8.09503013621359
20
30.310701297766
30
0
41
1
10
7.9814960916445
20
30.2532879451408
30
0
41
1
10
7.92515398297213
20
30.2239759295452
30
0
41
1
10
7.64713490195327
20
30.0752388914813
30
0
41
1
10
7.43539235588084
20
29.9487536304699
30
0
41
1
10
7.03144624140297
20
29.6813018338977
30
0
41
1
10
6.83924951626371
20
29.5403314817397
30
0
41
1
10
6.5646579834722
20
29.3181495967941
30
0
41
1
10
6.43079327974597
20
29.2043738289025
30
0
41
1
10
6.30193531714438
20
29.0865713634821
30
0
41
1
10
6.21712939495301
20
29.007140095688
30
0
41
1
10
6.17523170977329
20
28.9669321839142
30
0
41
1
10
5.96910442795946
20
28.7642878499157
30
0
41
1
10
5.81497595597053
20
28.5971314387226
30
0
41
1
10
5.52599454844699
20
28.2531379681489
30
0
41
1
10
5.39114821721068
20
28.0762990726333
30
0
41
1
10
5.13898685219459
20
27.713196775708
30
0
41
1
10
5.02167596427597
20
27.5269322433809
30
0
41
1
10
4.80319153939693
20
27.1451385073708
30
0
41
1
10
4.70202073745737
20
26.9496085732968
30
0
41
1
10
4.56151003876339
20
26.6494329863482
30
0
41
1
10
4.51654910847931
20
26.5482271976759
30
0
41
1
10
4.45182754073402
20
26.3947024264413
30
0
41
1
10
4.43071895694202
20
26.3432682854525
30
0
41
1
10
4.38947566401165
20
26.2400449692895
30
0
41
1
10
4.28875466769327
20
25.980981304945
30
0
41
1
10
4.19964550357827
20
25.7169217601822
30
0
41
1
10
4.07057456255262
20
25.2881482844021
30
0
41
1
10
4.01279302326914
20
25.0706221723279
30
0
41
1
10
3.96119126462668
20
24.85
30
0
0
SPLINE
5
156
100
AcDbEntity
8
1
62
256
6
ByLayer
370
18
48
1
60
0
100
AcDbSpline
70
4
71
3
72
55
73
51
40
0
40
0
40
0
40
0
40
0.0625000000000002
40
0.0625000000000002
40
0.125
40
0.125
40
0.187500000000001
40
0.187500000000001
40
0.203125000000001
40
0.203125000000001
40
0.218750000000001
40
0.218750000000001
40
0.250000000000001
40
0.250000000000001
40
0.312500000000001
40
0.312500000000001
40
0.375000000000001
40
0.375000000000001
40
0.40625
40
0.40625
40
0.421875
40
0.421875
40
0.4375
40
0.4375
40
0.5
40
0.5
40
0.5625
40
0.5625
40
0.625
40
0.625
40
0.6328125
40
0.6328125
40
0.640625
40
0.640625
40
0.65625
40
0.687499999999999
40
0.687499999999999
40
0.749999999999999
40
0.749999999999999
40
0.812499999999999
40
0.812499999999999
40
0.843749999999999
40
0.843749999999999
40
0.859374999999999
40
0.859374999999999
40
0.874999999999999
40
0.874999999999999
40
0.937499999999999
40
0.937499999999999
40
1
40
1
40
1
40
1
41
1
10
3.94999999999996
20
39.9699961690016
30
0
41
1
10
3.94999999999996
20
39.9698656261101
30
0
41
1
10
3.96477763777646
20
39.9664013474102
30
0
41
1
10
4.02280820325559
20
39.9531382452226
30
0
41
1
10
4.06606419345582
20
39.9433388369845
30
0
41
1
10
4.1808383992247
20
39.9177157790692
30
0
41
1
10
4.25235558141921
20
39.9018915759608
30
0
41
1
10
4.359797036424
20
39.8785372779296
30
0
41
1
10
4.38218967954147
20
39.8736877281197
30
0
41
1
10
4.42880190069111
20
39.8636361276881
30
0
41
1
10
4.45305208674274
20
39.858427577151
30
0
41
1
10
4.52817318491182
20
39.842366443763
30
0
41
1
10
4.58149491143199
20
39.83106064036
30
0
41
1
10
4.75098123762093
20
39.7955020342674
30
0
41
1
10
4.87664357443687
20
39.7696087905045
30
0
41
1
10
5.1528337325758
20
39.7142346888881
30
0
41
1
10
5.30336202320592
20
39.6847524327787
30
0
41
1
10
5.54800796413659
20
39.6384208542313
30
0
41
1
10
5.63270463052108
20
39.6226256951558
30
0
41
1
10
5.76455153265947
20
39.5984810559216
30
0
41
1
10
5.80930120914276
20
39.5903575471991
30
0
41
1
10
5.90042019828452
20
39.5739727637324
30
0
41
1
10
5.9466251350659
20
39.5657411127542
30
0
41
1
10
6.18067287576262
20
39.5244554171298
30
0
41
1
10
6.37773904308737
20
39.4909885333147
30
0
41
1
10
6.79104633666849
20
39.4241271081211
30
0
41
1
10
7.00728862950929
20
39.3907309426509
30
0
41
1
10
7.45905538296482
20
39.324945446301
30
0
41
1
10
7.69457813877959
20
39.2925544703426
30
0
41
1
10
7.97077854867278
20
39.2572274867875
30
0
41
1
10
8.00162396437038
20
39.2533177659757
30
0
41
1
10
8.06362984053969
20
39.2455313103949
30
0
41
1
10
8.09480670374468
20
39.2416525936527
30
0
41
1
10
8.18856510573549
20
39.2300992788703
30
0
41
1
10
8.37718972936482
20
39.2072988678133
30
0
41
1
10
8.56910482111847
20
39.1854703011615
30
0
41
1
10
8.95726618713336
20
39.1432478628455
30
0
41
1
10
9.22180514054581
20
39.117012499275
30
0
41
1
10
9.76236951557281
20
39.0690970528033
30
0
41
1
10
10.0383945931332
20
39.0474158953302
30
0
41
1
10
10.4612638570896
20
39.0188654658168
30
0
41
1
10
10.6036948316732
20
39.010010735504
30
0
41
1
10
10.8196054755639
20
38.9977942023989
30
0
41
1
10
10.8920424401555
20
38.9938952954127
30
0
41
1
10
11.0371086962532
20
38.9864936326641
30
0
41
1
10
11.1097539586918
20
38.9829893782444
30
0
41
1
10
11.4735376881526
20
38.9664613086898
30
0
41
1
10
11.7663445182037
20
38.9564175501176
30
0
41
1
10
12.3554977773087
20
38.9429430565433
30
0
41
1
10
12.6518440948837
20
38.9395119865414
30
0
41
1
10
12.95
20
38.9395119865414
30
0
0
SPLINE
5
157
100
AcDbEntity
8
1
62
256
6
ByLayer
370
18
48
1
60
0
100
AcDbSpline
70
4
71
3
72
8
73
4
40
0
40
0
40
0
40
0
40
1
40
1
40
1
40
1
41
1
10
25.95
20
-37.969888846295
30
0
41
1
10
25.716740368086
20
-38.2111354241384
30
0
41
1
10
25.4834057019011
20
-38.452309936225
30
0
41
1
10
25.25
20
-38.6934162229183
30
0
0
SPLINE
5
158
100
AcDbEntity
8
1
62
256
6
ByLayer
370
18
48
1
60
0
100
AcDbSpline
70
4
71
3
72
8
73
4
40
0
40
0
40
0
40
0
40
1
40
1
40
1
40
1
41
1
10
25.95
20
24.85
30
0
41
1
10
25.7175250367576
20
24.85
30
0
41
1
10
25.4841358809968
20
24.85
30
0
41
1
10
25.25
20
24.85
30
0
0
SPLINE
5
159
100
AcDbEntity
8
1
62
256
6
ByLayer
370
18
48
1
60
0
100
AcDbSpline
70
4
71
3
72
8
73
4
40
0
40
0
40
0
40
0
40
1
40
1
40
1
40
1
41
1
10
16.075
20
-35.8343963289411
30
0
41
1
10
15.5447752597817
20
-36.7880064017882
30
0
41
1
10
15.0133819693916
20
-37.7409706662833
30
0
41
1
10
14.4810501092893
20
-38.6934162229183
30
0
0
SPLINE
5
15A
100
AcDbEntity
8
1
62
256
6
ByLayer
370
18
48
1
60
0
100
AcDbSpline
70
4
71
3
72
8
73
4
40
0
40
0
40
0
40
0
40
1
40
1
40
1
40
1
41
1
10
16.075
20
24.85
30
0
41
1
10
15.5552867834291
20
24.85
30
0
41
1
10
15.023072236715
20
24.85
30
0
41
1
10
14.4810501092892
20
24.85
30
0
0
SPLINE
5
15B
100
AcDbEntity
8
1
62
256
6
ByLayer
370
18
48
1
60
0
100
AcDbSpline
70
4
71
3
72
8
73
4
40
0
40
0
40
0
40
0
40
1
40
1
40
1
40
1
41
1
10
21.5189498907108
20
-38.6934162229183
30
0
41
1
10
20.9866180306085
20
-37.7409706662833
30
0
41
1
10
20.4552247402184
20
-36.7880064017881
30
0
41
1
10
19.9250000000001
20
-35.8343963289411
30
0
0
SPLINE
5
15C
100
AcDbEntity
8
1
62
256
6
ByLayer
370
18
48
1
60
0
100
AcDbSpline
70
4
71
3
72
8
73
4
40
0
40
0
40
0
40
0
40
1
40
1
40
1
40
1
41
1
10
21.5189498907107
20
24.85
30
0
41
1
10
20.976927763285
20
24.85
30
0
41
1
10
20.4447132165709
20
24.85
30
0
41
1
10
19.925
20
24.85
30
0
0
SPLINE
5
15D
100
AcDbEntity
8
SK2
62
256
6
ByLayer
370
18
48
1
60
0
100
AcDbSpline
70
4
71
3
72
29
73
25
40
0
40
0
40
0
40
0
40
0.124999999999992
40
0.124999999999992
40
0.249999999999983
40
0.249999999999983
40
0.374999999999975
40
0.374999999999975
40
0.43749999999997
40
0.43749999999997
40
0.46874999999997
40
0.46874999999997
40
0.499999999999971
40
0.499999999999971
40
0.624999999999976
40
0.624999999999976
40
0.749999999999982
40
0.749999999999982
40
0.781249999999985
40
0.781249999999985
40
0.812499999999987
40
0.874999999999992
40
0.874999999999992
40
1
40
1
40
1
40
1
41
1
10
46.715
20
1.78112558045007
30
0
41
1
10
46.8355189024037
20
1.85070720119529
30
0
41
1
10
46.9574176346729
20
1.92108546708479
30
0
41
1
10
47.2047372011367
20
2.06387548535852
30
0
41
1
10
47.3301586424211
20
2.1362875882462
30
0
41
1
10
47.5854503149932
20
2.28368030412759
30
0
41
1
10
47.715323567569
20
2.35866266146277
30
0
41
1
10
47.9142520377114
20
2.47351406724894
30
0
41
1
10
47.9812485823419
20
2.51219454032614
30
0
41
1
10
48.0828712533928
20
2.57086641681318
30
0
41
1
10
48.1168083391358
20
2.59046000240241
30
0
41
1
10
48.1844211471172
20
2.62949627529107
30
0
41
1
10
48.2181560290103
20
2.64897311843319
30
0
41
1
10
48.386476479608
20
2.74615297589594
30
0
41
1
10
48.5199952572676
20
2.82324007811948
30
0
41
1
10
48.7849358549135
20
2.97620360348969
30
0
41
1
10
48.916359766072
20
3.05208123397497
30
0
41
1
10
49.0795002444466
20
3.14627043308028
30
0
41
1
10
49.1119994909006
20
3.16503388176892
30
0
41
1
10
49.1765889801758
20
3.20232464078882
30
0
41
1
10
49.272940644617
20
3.25795330019082
30
0
41
1
10
49.3677985703359
20
3.31271954913936
30
0
41
1
10
49.5557711363933
20
3.42124556075288
30
0
41
1
10
49.6787710138775
20
3.49225957312868
30
0
41
1
10
49.8
20
3.5622511609001
30
0
0
SPLINE
5
15E
100
AcDbEntity
8
SK2
62
256
6
ByLayer
370
18
48
1
60
0
100
AcDbSpline
70
4
71
3
72
29
73
25
40
0
40
0
40
0
40
0
40
0.125000000000014
40
0.125000000000014
40
0.250000000000029
40
0.250000000000029
40
0.375000000000044
40
0.375000000000044
40
0.437500000000051
40
0.437500000000051
40
0.468750000000053
40
0.468750000000053
40
0.500000000000054
40
0.500000000000054
40
0.625000000000044
40
0.625000000000044
40
0.750000000000035
40
0.750000000000035
40
0.78125000000003
40
0.78125000000003
40
0.812500000000026
40
0.875000000000017
40
0.875000000000017
40
1
40
1
40
1
40
1
41
1
10
49.8
20
3.56225116090007
30
0
41
1
10
49.9205189024037
20
3.49266954015485
30
0
41
1
10
50.0424176346729
20
3.42229127426532
30
0
41
1
10
50.2897372011367
20
3.27950125599159
30
0
41
1
10
50.4151586424211
20
3.20708915310394
30
0
41
1
10
50.6704503149932
20
3.05969643722256
30
0
41
1
10
50.800323567569
20
2.98471407988734
30
0
41
1
10
50.9992520377114
20
2.86986267410117
30
0
41
1
10
51.0662485823419
20
2.83118220102398
30
0
41
1
10
51.1678712533928
20
2.77251032453694
30
0
41
1
10
51.2018083391358
20
2.75291673894773
30
0
41
1
10
51.2694211471171
20
2.71388046605907
30
0
41
1
10
51.3031560290103
20
2.69440362291695
30
0
41
1
10
51.4714764796081
20
2.5972237654542
30
0
41
1
10
51.6049952572675
20
2.52013666323063
30
0
41
1
10
51.8699358549136
20
2.36717313786045
30
0
41
1
10
52.001359766072
20
2.29129550737517
30
0
41
1
10
52.1645002444466
20
2.19710630826987
30
0
41
1
10
52.1969994909006
20
2.17834285958122
30
0
41
1
10
52.2615889801758
20
2.14105210056132
30
0
41
1
10
52.357940644617
20
2.08542344115932
30
0
41
1
10
52.4527985703359
20
2.03065719221078
30
0
41
1
10
52.6407711363933
20
1.92213118059726
30
0
41
1
10
52.7637710138775
20
1.85111716822146
30
0
41
1
10
52.8850000000001
20
1.78112558045001
30
0
0
SPLINE
5
15F
100
AcDbEntity
8
SK2
62
256
6
ByLayer
370
18
48
1
60
0
100
AcDbSpline
70
4
71
3
72
33
73
29
40
0
40
0
40
0
40
0
40
0.125000000000002
40
0.125000000000002
40
0.156250000000002
40
0.156250000000002
40
0.187500000000003
40
0.187500000000003
40
0.250000000000003
40
0.250000000000003
40
0.375000000000003
40
0.375000000000003
40
0.500000000000003
40
0.500000000000003
40
0.531250000000003
40
0.531250000000003
40
0.562500000000003
40
0.562500000000003
40
0.625000000000003
40
0.625000000000003
40
0.750000000000003
40
0.750000000000003
40
0.812500000000003
40
0.843750000000003
40
0.843750000000003
40
0.875000000000002
40
0.875000000000002
40
1
40
1
40
1
40
1
41
1
10
52.885
20
1.78112558045007
30
0
41
1
10
52.885
20
1.64334091363233
30
0
41
1
10
52.885
20
1.50290090562262
30
0
41
1
10
52.885
20
1.32286855036631
30
0
41
1
10
52.885
20
1.28663634458516
30
0
41
1
10
52.885
20
1.21368441802872
30
0
41
1
10
52.885
20
1.17693102735504
30
0
41
1
10
52.885
20
1.06610422060049
30
0
41
1
10
52.885
20
0.991866504810645
30
0
41
1
10
52.885
20
0.767988285228938
30
0
41
1
10
52.885
20
0.617180512083621
30
0
41
1
10
52.885
20
0.311910299735132
30
0
41
1
10
52.885
20
0.157443780879845
30
0
41
1
10
52.885
20
-0.0381920450771247
30
0
41
1
10
52.885
20
-0.0775303303943815
30
0
41
1
10
52.885
20
-0.155775562740558
30
0
41
1
10
52.885
20
-0.194739232190926
30
0
41
1
10
52.885
20
-0.311167741962464
30
0
41
1
10
52.885
20
-0.388169799839915
30
0
41
1
10
52.885
20
-0.617452837645402
30
0
41
1
10
52.885
20
-0.768010066241004
30
0
41
1
10
52.885
20
-0.990959970332142
30
0
41
1
10
52.885
20
-1.10171397987264
30
0
41
1
10
52.885
20
-1.2114911823837
30
0
41
1
10
52.885
20
-1.28447010679301
30
0
41
1
10
52.885
20
-1.32090388762563
30
0
41
1
10
52.885
20
-1.50194077366257
30
0
41
1
10
52.885
20
-1.64293923556866
30
0
41
1
10
52.885
20
-1.78112558044992
30
0
0
SPLINE
5
160
100
AcDbEntity
8
SK2
62
256
6
ByLayer
370
18
48
1
60
0
100
AcDbSpline
70
4
71
3
72
29
73
25
40
0
40
0
40
0
40
0
40
0.124999999999991
40
0.124999999999991
40
0.249999999999982
40
0.249999999999982
40
0.374999999999973
40
0.374999999999973
40
0.437499999999969
40
0.437499999999969
40
0.468749999999969
40
0.468749999999969
40
0.49999999999997
40
0.49999999999997
40
0.624999999999975
40
0.624999999999975
40
0.74999999999998
40
0.74999999999998
40
0.781249999999982
40
0.781249999999982
40
0.812499999999985
40
0.874999999999989
40
0.874999999999989
40
1
40
1
40
1
40
1
41
1
10
52.885
20
-1.78112558044992
30
0
41
1
10
52.7644810975963
20
-1.85070720119515
30
0
41
1
10
52.642582365327
20
-1.92108546708465
30
0
41
1
10
52.3952627988632
20
-2.06387548535838
30
0
41
1
10
52.2698413575789
20
-2.13628758824606
30
0
41
1
10
52.0145496850068
20
-2.28368030412742
30
0
41
1
10
51.8846764324309
20
-2.35866266146263
30
0
41
1
10
51.6857479622886
20
-2.4735140672488
30
0
41
1
10
51.6187514176581
20
-2.51219454032599
30
0
41
1
10
51.5171287466071
20
-2.57086641681303
30
0
41
1
10
51.4831916608642
20
-2.59046000240224
30
0
41
1
10
51.4155788528829
20
-2.62949627529093
30
0
41
1
10
51.3818439709897
20
-2.64897311843302
30
0
41
1
10
51.2135235203919
20
-2.74615297589577
30
0
41
1
10
51.0800047427324
20
-2.82324007811934
30
0
41
1
10
50.8150641450864
20
-2.97620360348952
30
0
41
1
10
50.683640233928
20
-3.05208123397483
30
0
41
1
10
50.5204997555533
20
-3.14627043308013
30
0
41
1
10
50.4880005090994
20
-3.16503388176875
30
0
41
1
10
50.4234110198241
20
-3.20232464078868
30
0
41
1
10
50.3270593553829
20
-3.25795330019065
30
0
41
1
10
50.2322014296641
20
-3.31271954913919
30
0
41
1
10
50.0442288636066
20
-3.42124556075274
30
0
41
1
10
49.9212289861224
20
-3.49225957312851
30
0
41
1
10
49.7999999999999
20
-3.56225116089996
30
0
0
SPLINE
5
161
100
AcDbEntity
8
SK2
62
256
6
ByLayer
370
18
48
1
60
0
100
AcDbSpline
70
4
71
3
72
29
73
25
40
0
40
0
40
0
40
0
40
0.12499999999999
40
0.12499999999999
40
0.249999999999981
40
0.249999999999981
40
0.374999999999971
40
0.374999999999971
40
0.437499999999966
40
0.437499999999966
40
0.468749999999966
40
0.468749999999966
40
0.499999999999966
40
0.499999999999966
40
0.62499999999997
40
0.62499999999997
40
0.749999999999973
40
0.749999999999973
40
0.781249999999977
40
0.781249999999977
40
0.812499999999981
40
0.874999999999987
40
0.874999999999987
40
1
40
1
40
1
40
1
41
1
10
49.8
20
-3.5622511608999
30
0
41
1
10
49.6794810975963
20
-3.49266954015468
30
0
41
1
10
49.557582365327
20
-3.42229127426518
30
0
41
1
10
49.3102627988632
20
-3.27950125599145
30
0
41
1
10
49.1848413575789
20
-3.20708915310377
30
0
41
1
10
48.9295496850068
20
-3.05969643722241
30
0
41
1
10
48.7996764324309
20
-2.9847140798872
30
0
41
1
10
48.6007479622886
20
-2.86986267410103
30
0
41
1
10
48.5337514176581
20
-2.83118220102384
30
0
41
1
10
48.4321287466071
20
-2.7725103245368
30
0
41
1
10
48.3981916608642
20
-2.75291673894759
30
0
41
1
10
48.3305788528828
20
-2.7138804660589
30
0
41
1
10
48.2968439709897
20
-2.69440362291681
30
0
41
1
10
48.1285235203919
20
-2.59722376545406
30
0
41
1
10
47.9950047427324
20
-2.52013666323049
30
0
41
1
10
47.7300641450864
20
-2.36717313786031
30
0
41
1
10
47.5986402339279
20
-2.29129550737503
30
0
41
1
10
47.4354997555533
20
-2.1971063082697
30
0
41
1
10
47.4030005090994
20
-2.17834285958108
30
0
41
1
10
47.3384110198241
20
-2.14105210056118
30
0
41
1
10
47.2420593553829
20
-2.08542344115918
30
0
41
1
10
47.1472014296641
20
-2.03065719221064
30
0
41
1
10
46.9592288636066
20
-1.92213118059712
30
0
41
1
10
46.8362289861225
20
-1.85111716822132
30
0
41
1
10
46.7149999999999
20
-1.78112558044987
30
0
0
SPLINE
5
162
100
AcDbEntity
8
SK2
62
256
6
ByLayer
370
18
48
1
60
0
100
AcDbSpline
70
4
71
3
72
33
73
29
40
0
40
0
40
0
40
0
40
0.124999999999999
40
0.124999999999999
40
0.156249999999999
40
0.156249999999999
40
0.187499999999999
40
0.249999999999998
40
0.249999999999998
40
0.374999999999998
40
0.374999999999998
40
0.437499999999999
40
0.437499999999999
40
0.468749999999999
40
0.468749999999999
40
0.499999999999999
40
0.499999999999999
40
0.624999999999999
40
0.624999999999999
40
0.749999999999999
40
0.749999999999999
40
0.812499999999999
40
0.812499999999999
40
0.843749999999999
40
0.843749999999999
40
0.874999999999999
40
0.874999999999999
40
1
40
1
40
1
40
1
41
1
10
46.715
20
-1.78112558044992
30
0
41
1
10
46.715
20
-1.64293923556866
30
0
41
1
10
46.715
20
-1.50194077366257
30
0
41
1
10
46.715
20
-1.32090388762563
30
0
41
1
10
46.715
20
-1.28447010679301
30
0
41
1
10
46.715
20
-1.2114911823837
30
0
41
1
10
46.715
20
-1.10171397987264
30
0
41
1
10
46.715
20
-0.990959970332142
30
0
41
1
10
46.715
20
-0.768010066241004
30
0
41
1
10
46.715
20
-0.61745283764543
30
0
41
1
10
46.715
20
-0.388169799839915
30
0
41
1
10
46.715
20
-0.311167741962464
30
0
41
1
10
46.715
20
-0.194739232190926
30
0
41
1
10
46.715
20
-0.155775562740558
30
0
41
1
10
46.715
20
-0.0775303303943815
30
0
41
1
10
46.715
20
-0.0381920450771247
30
0
41
1
10
46.715
20
0.157443780879817
30
0
41
1
10
46.715
20
0.311910299735132
30
0
41
1
10
46.715
20
0.617180512083621
30
0
41
1
10
46.715
20
0.767988285228938
30
0
41
1
10
46.715
20
0.991866504810645
30
0
41
1
10
46.715
20
1.06610422060049
30
0
41
1
10
46.715
20
1.17693102735504
30
0
41
1
10
46.715
20
1.21368441802872
30
0
41
1
10
46.715
20
1.28663634458516
30
0
41
1
10
46.715
20
1.32286855036631
30
0
41
1
10
46.715
20
1.5029009056226
30
0
41
1
10
46.715
20
1.64334091363233
30
0
41
1
10
46.715
20
1.78112558045007
30
0
0
SPLINE
5
163
100
AcDbEntity
8
SK2
62
256
6
ByLayer
370
18
48
1
60
0
100
AcDbSpline
70
4
71
3
72
29
73
25
40
0
40
0
40
0
40
0
40
0.125000000000013
40
0.125000000000013
40
0.250000000000027
40
0.250000000000027
40
0.37500000000004
40
0.37500000000004
40
0.437500000000047
40
0.437500000000047
40
0.468750000000045
40
0.468750000000045
40
0.500000000000044
40
0.500000000000044
40
0.625000000000038
40
0.625000000000038
40
0.750000000000032
40
0.750000000000032
40
0.781250000000028
40
0.781250000000028
40
0.812500000000024
40
0.875000000000017
40
0.875000000000017
40
1
40
1
40
1
40
1
41
1
10
78.2
20
3.5622511609001
30
0
41
1
10
78.3205189024037
20
3.49266954015488
30
0
41
1
10
78.4424176346729
20
3.42229127426535
30
0
41
1
10
78.6897372011367
20
3.27950125599165
30
0
41
1
10
78.8151586424211
20
3.20708915310396
30
0
41
1
10
79.0704503149932
20
3.05969643722258
30
0
41
1
10
79.200323567569
20
2.98471407988737
30
0
41
1
10
79.3992520377114
20
2.86986267410123
30
0
41
1
10
79.4662485823419
20
2.83118220102403
30
0
41
1
10
79.5678712533929
20
2.77251032453697
30
0
41
1
10
79.6018083391358
20
2.75291673894776
30
0
41
1
10
79.6694211471171
20
2.71388046605909
30
0
41
1
10
79.7031560290103
20
2.69440362291698
30
0
41
1
10
79.8714764796081
20
2.59722376545423
30
0
41
1
10
80.0049952572676
20
2.52013666323069
30
0
41
1
10
80.2699358549136
20
2.36717313786048
30
0
41
1
10
80.401359766072
20
2.2912955073752
30
0
41
1
10
80.5645002444466
20
2.1971063082699
30
0
41
1
10
80.5969994909005
20
2.17834285958125
30
0
41
1
10
80.6615889801758
20
2.14105210056135
30
0
41
1
10
80.7579406446171
20
2.08542344115935
30
0
41
1
10
80.8527985703359
20
2.03065719221081
30
0
41
1
10
81.0407711363933
20
1.92213118059729
30
0
41
1
10
81.1637710138775
20
1.85111716822149
30
0
41
1
10
81.2850000000001
20
1.78112558045007
30
0
0
SPLINE
5
164
100
AcDbEntity
8
SK2
62
256
6
ByLayer
370
18
48
1
60
0
100
AcDbSpline
70
4
71
3
72
29
73
25
40
0
40
0
40
0
40
0
40
0.125000000000008
40
0.125000000000008
40
0.250000000000015
40
0.250000000000015
40
0.375000000000023
40
0.375000000000023
40
0.437500000000027
40
0.437500000000027
40
0.468750000000024
40
0.468750000000024
40
0.500000000000021
40
0.500000000000021
40
0.625000000000019
40
0.625000000000019
40
0.750000000000017
40
0.750000000000017
40
0.781250000000015
40
0.781250000000015
40
0.812500000000012
40
0.875000000000009
40
0.875000000000009
40
1
40
1
40
1
40
1
41
1
10
75.115
20
1.78112558045009
30
0
41
1
10
75.2355189024037
20
1.85070720119532
30
0
41
1
10
75.357417634673
20
1.92108546708482
30
0
41
1
10
75.6047372011367
20
2.06387548535855
30
0
41
1
10
75.7301586424211
20
2.13628758824623
30
0
41
1
10
75.9854503149932
20
2.28368030412761
30
0
41
1
10
76.1153235675691
20
2.35866266146283
30
0
41
1
10
76.3142520377114
20
2.47351406724897
30
0
41
1
10
76.3812485823419
20
2.51219454032616
30
0
41
1
10
76.4828712533928
20
2.5708664168132
30
0
41
1
10
76.5168083391358
20
2.59046000240244
30
0
41
1
10
76.5844211471171
20
2.6294962752911
30
0
41
1
10
76.6181560290103
20
2.64897311843322
30
0
41
1
10
76.7864764796081
20
2.74615297589597
30
0
41
1
10
76.9199952572675
20
2.82324007811951
30
0
41
1
10
77.1849358549136
20
2.97620360348972
30
0
41
1
10
77.316359766072
20
3.052081233975
30
0
41
1
10
77.4795002444467
20
3.1462704330803
30
0
41
1
10
77.5119994909006
20
3.16503388176895
30
0
41
1
10
77.5765889801759
20
3.20232464078885
30
0
41
1
10
77.6729406446171
20
3.25795330019085
30
0
41
1
10
77.7677985703359
20
3.31271954913939
30
0
41
1
10
77.9557711363933
20
3.42124556075291
30
0
41
1
10
78.0787710138775
20
3.49225957312871
30
0
41
1
10
78.2000000000001
20
3.56225116090013
30
0
0
SPLINE
5
165
100
AcDbEntity
8
SK2
62
256
6
ByLayer
370
18
48
1
60
0
100
AcDbSpline
70
4
71
3
72
33
73
29
40
0
40
0
40
0
40
0
40
0.125000000000002
40
0.125000000000002
40
0.156250000000002
40
0.156250000000002
40
0.187500000000002
40
0.187500000000002
40
0.250000000000003
40
0.250000000000003
40
0.375000000000003
40
0.375000000000003
40
0.500000000000003
40
0.500000000000003
40
0.531250000000003
40
0.531250000000003
40
0.562500000000003
40
0.562500000000003
40
0.625000000000003
40
0.625000000000003
40
0.750000000000003
40
0.750000000000003
40
0.812500000000002
40
0.843750000000002
40
0.843750000000002
40
0.875000000000002
40
0.875000000000002
40
1
40
1
40
1
40
1
41
1
10
81.285
20
1.78112558045009
30
0
41
1
10
81.285
20
1.64334091363236
30
0
41
1
10
81.285
20
1.50290090562265
30
0
41
1
10
81.285
20
1.32286855036634
30
0
41
1
10
81.285
20
1.28663634458519
30
0
41
1
10
81.285
20
1.21368441802878
30
0
41
1
10
81.285
20
1.17693102735507
30
0
41
1
10
81.285
20
1.06610422060055
30
0
41
1
10
81.285
20
0.991866504810673
30
0
41
1
10
81.285
20
0.767988285228967
30
0
41
1
10
81.285
20
0.61718051208365
30
0
41
1
10
81.285
20
0.31191029973516
30
0
41
1
10
81.285
20
0.157443780879873
30
0
41
1
10
81.285
20
-0.0381920450770963
30
0
41
1
10
81.285
20
-0.0775303303943247
30
0
41
1
10
81.285
20
-0.15577556274053
30
0
41
1
10
81.285
20
-0.194739232190898
30
0
41
1
10
81.285
20
-0.311167741962436
30
0
41
1
10
81.285
20
-0.388169799839886
30
0
41
1
10
81.285
20
-0.617452837645374
30
0
41
1
10
81.285
20
-0.768010066240976
30
0
41
1
10
81.285
20
-0.990959970332113
30
0
41
1
10
81.285
20
-1.10171397987261
30
0
41
1
10
81.285
20
-1.21149118238367
30
0
41
1
10
81.285
20
-1.28447010679298
30
0
41
1
10
81.285
20
-1.3209038876256
30
0
41
1
10
81.285
20
-1.50194077366254
30
0
41
1
10
81.285
20
-1.64293923556863
30
0
41
1
10
81.285
20
-1.7811255804499
30
0
0
SPLINE
5
166
100
AcDbEntity
8
SK2
62
256
6
ByLayer
370
18
48
1
60
0
100
AcDbSpline
70
4
71
3
72
29
73
25
40
0
40
0
40
0
40
0
40
0.125000000000009
40
0.125000000000009
40
0.250000000000018
40
0.250000000000018
40
0.375000000000027
40
0.375000000000027
40
0.437500000000031
40
0.437500000000031
40
0.468750000000029
40
0.468750000000029
40
0.500000000000026
40
0.500000000000026
40
0.625000000000025
40
0.625000000000025
40
0.750000000000023
40
0.750000000000023
40
0.78125000000002
40
0.78125000000002
40
0.812500000000018
40
0.875000000000012
40
0.875000000000012
40
1
40
1
40
1
40
1
41
1
10
81.285
20
-1.78112558044987
30
0
41
1
10
81.1644810975963
20
-1.85070720119509
30
0
41
1
10
81.0425823653271
20
-1.92108546708462
30
0
41
1
10
80.7952627988633
20
-2.06387548535835
30
0
41
1
10
80.6698413575789
20
-2.13628758824603
30
0
41
1
10
80.4145496850068
20
-2.28368030412739
30
0
41
1
10
80.2846764324309
20
-2.3586626614626
30
0
41
1
10
80.0857479622886
20
-2.47351406724877
30
0
41
1
10
80.0187514176581
20
-2.51219454032596
30
0
41
1
10
79.9171287466071
20
-2.570866416813
30
0
41
1
10
79.8831916608642
20
-2.59046000240221
30
0
41
1
10
79.8155788528828
20
-2.6294962752909
30
0
41
1
10
79.7818439709897
20
-2.64897311843299
30
0
41
1
10
79.6135235203919
20
-2.74615297589574
30
0
41
1
10
79.4800047427324
20
-2.82324007811931
30
0
41
1
10
79.2150641450864
20
-2.9762036034895
30
0
41
1
10
79.0836402339279
20
-3.05208123397477
30
0
41
1
10
78.9204997555534
20
-3.14627043308011
30
0
41
1
10
78.8880005090994
20
-3.16503388176872
30
0
41
1
10
78.8234110198242
20
-3.20232464078862
30
0
41
1
10
78.7270593553829
20
-3.25795330019062
30
0
41
1
10
78.6322014296641
20
-3.31271954913916
30
0
41
1
10
78.4442288636067
20
-3.42124556075268
30
0
41
1
10
78.3212289861225
20
-3.49225957312848
30
0
41
1
10
78.1999999999999
20
-3.56225116089993
30
0
0
SPLINE
5
167
100
AcDbEntity
8
SK2
62
256
6
ByLayer
370
18
48
1
60
0
100
AcDbSpline
70
4
71
3
72
29
73
25
40
0
40
0
40
0
40
0
40
0.125000000000008
40
0.125000000000008
40
0.250000000000015
40
0.250000000000015
40
0.375000000000023
40
0.375000000000023
40
0.437500000000027
40
0.437500000000027
40
0.468750000000025
40
0.468750000000025
40
0.500000000000022
40
0.500000000000022
40
0.625000000000021
40
0.625000000000021
40
0.75000000000002
40
0.75000000000002
40
0.781250000000018
40
0.781250000000018
40
0.812500000000015
40
0.87500000000001
40
0.87500000000001
40
1
40
1
40
1
40
1
41
1
10
78.2
20
-3.56225116089988
30
0
41
1
10
78.0794810975963
20
-3.49266954015465
30
0
41
1
10
77.957582365327
20
-3.42229127426515
30
0
41
1
10
77.7102627988632
20
-3.27950125599142
30
0
41
1
10
77.5848413575789
20
-3.20708915310374
30
0
41
1
10
77.3295496850068
20
-3.05969643722236
30
0
41
1
10
77.1996764324309
20
-2.98471407988717
30
0
41
1
10
77.0007479622886
20
-2.869862674101
30
0
41
1
10
76.9337514176581
20
-2.83118220102381
30
0
41
1
10
76.8321287466072
20
-2.77251032453677
30
0
41
1
10
76.7981916608642
20
-2.75291673894756
30
0
41
1
10
76.7305788528828
20
-2.71388046605887
30
0
41
1
10
76.6968439709896
20
-2.69440362291678
30
0
41
1
10
76.5285235203919
20
-2.59722376545403
30
0
41
1
10
76.3950047427324
20
-2.52013666323046
30
0
41
1
10
76.1300641450864
20
-2.36717313786028
30
0
41
1
10
75.998640233928
20
-2.291295507375
30
0
41
1
10
75.8354997555534
20
-2.19710630826967
30
0
41
1
10
75.8030005090994
20
-2.17834285958105
30
0
41
1
10
75.7384110198241
20
-2.14105210056113
30
0
41
1
10
75.6420593553829
20
-2.08542344115915
30
0
41
1
10
75.5472014296641
20
-2.03065719221061
30
0
41
1
10
75.3592288636066
20
-1.92213118059706
30
0
41
1
10
75.2362289861225
20
-1.85111716822129
30
0
41
1
10
75.1149999999999
20
-1.78112558044984
30
0
0
SPLINE
5
168
100
AcDbEntity
8
SK2
62
256
6
ByLayer
370
18
48
1
60
0
100
AcDbSpline
70
4
71
3
72
33
73
29
40
0
40
0
40
0
40
0
40
0.124999999999998
40
0.124999999999998
40
0.156249999999998
40
0.156249999999998
40
0.187499999999998
40
0.249999999999998
40
0.249999999999998
40
0.374999999999998
40
0.374999999999998
40
0.437499999999998
40
0.437499999999998
40
0.468749999999998
40
0.468749999999998
40
0.499999999999998
40
0.499999999999998
40
0.624999999999998
40
0.624999999999998
40
0.749999999999998
40
0.749999999999998
40
0.812499999999999
40
0.812499999999999
40
0.843749999999999
40
0.843749999999999
40
0.874999999999999
40
0.874999999999999
40
1
40
1
40
1
40
1
41
1
10
75.115
20
-1.7811255804499
30
0
41
1
10
75.115
20
-1.64293923556863
30
0
41
1
10
75.115
20
-1.50194077366254
30
0
41
1
10
75.115
20
-1.3209038876256
30
0
41
1
10
75.115
20
-1.28447010679298
30
0
41
1
10
75.115
20
-1.21149118238367
30
0
41
1
10
75.115
20
-1.10171397987261
30
0
41
1
10
75.115
20
-0.990959970332113
30
0
41
1
10
75.115
20
-0.768010066240976
30
0
41
1
10
75.115
20
-0.617452837645374
30
0
41
1
10
75.115
20
-0.388169799839886
30
0
41
1
10
75.115
20
-0.311167741962436
30
0
41
1
10
75.115
20
-0.194739232190898
30
0
41
1
10
75.115
20
-0.15577556274053
30
0
41
1
10
75.115
20
-0.0775303303943531
30
0
41
1
10
75.115
20
-0.0381920450770963
30
0
41
1
10
75.115
20
0.157443780879845
30
0
41
1
10
75.115
20
0.31191029973516
30
0
41
1
10
75.115
20
0.61718051208365
30
0
41
1
10
75.115
20
0.767988285228967
30
0
41
1
10
75.115
20
0.991866504810673
30
0
41
1
10
75.115
20
1.06610422060052
30
0
41
1
10
75.115
20
1.17693102735507
30
0
41
1
10
75.115
20
1.21368441802875
30
0
41
1
10
75.115
20
1.28663634458519
30
0
41
1
10
75.115
20
1.32286855036634
30
0
41
1
10
75.115
20
1.50290090562265
30
0
41
1
10
75.115
20
1.64334091363236
30
0
41
1
10
75.115
20
1.78112558045009
30
0
0
SPLINE
5
169
100
AcDbEntity
8
SK1
62
256
6
ByLayer
370
18
48
1
60
0
100
AcDbSpline
70
4
71
3
72
14
73
10
40
0
40
0
40
0
40
0
40
0.25
40
0.25
40
0.5
40
0.5
40
0.75
40
0.75
40
1
40
1
40
1
40
1
41
1
10
-38.3800599072244
20
25.6267055539513
30
0
41
1
10
-38.4115909901915
20
25.5821584094343
30
0
41
1
10
-38.4409954581574
20
25.5362699633486
30
0
41
1
10
-38.4942489607684
20
25.4424808824563
30
0
41
1
10
-38.5180944106068
20
25.3945824146545
30
0
41
1
10
-38.558661532451
20
25.2975505203144
30
0
41
1
10
-38.5753717030815
20
25.24842404374
30
0
41
1
10
-38.6000460244891
20
25.1496914020049
30
0
41
1
10
-38.607991998839
20
25.1000957498163
30
0
41
1
10
-38.6109569339038
20
25.0504903307916
30
0
0
SPLINE
5
16A
100
AcDbEntity
8
SK1
62
256
6
ByLayer
370
18
48
1
60
0
100
AcDbSpline
70
4
71
3
72
87
73
83
40
0
40
0
40
0
40
0
40
0.0625000000000111
40
0.0625000000000111
40
0.125000000000022
40
0.125000000000022
40
0.187500000000033
40
0.187500000000033
40
0.250000000000045
40
0.250000000000045
40
0.312500000000056
40
0.312500000000056
40
0.343750000000062
40
0.343750000000062
40
0.359375000000065
40
0.359375000000065
40
0.375000000000068
40
0.375000000000068
40
0.406250000000075
40
0.406250000000075
40
0.421875000000077
40
0.421875000000077
40
0.43750000000008
40
0.43750000000008
40
0.453125000000083
40
0.453125000000083
40
0.460937500000084
40
0.460937500000084
40
0.468750000000085
40
0.468750000000085
40
0.476562500000085
40
0.476562500000085
40
0.484375000000086
40
0.484375000000086
40
0.492187500000087
40
0.492187500000087
40
0.496093750000088
40
0.496093750000088
40
0.500000000000088
40
0.500000000000088
40
0.503906250000089
40
0.503906250000089
40
0.507812500000089
40
0.507812500000089
40
0.51171875000009
40
0.51367187500009
40
0.51367187500009
40
0.515625000000089
40
0.515625000000089
40
0.519531250000089
40
0.519531250000089
40
0.52343750000009
40
0.52343750000009
40
0.531250000000088
40
0.531250000000088
40
0.539062500000087
40
0.539062500000087
40
0.546875000000086
40
0.546875000000086
40
0.562500000000083
40
0.562500000000083
40
0.570312500000083
40
0.570312500000083
40
0.578125000000082
40
0.578125000000082
40
0.593750000000079
40
0.593750000000079
40
0.625000000000073
40
0.625000000000073
40
0.656250000000067
40
0.656250000000067
40
0.68750000000006
40
0.68750000000006
40
0.750000000000048
40
0.750000000000048
40
0.812500000000036
40
0.812500000000036
40
0.875000000000024
40
0.875000000000024
40
0.937500000000012
40
0.937500000000012
40
1
40
1
40
1
40
1
41
1
10
-38.6109569339024
20
25.0504903307928
30
0
41
1
10
-38.6160035181083
20
24.9660574785682
30
0
41
1
10
-38.6231319700824
20
24.8796298666041
30
0
41
1
10
-38.6416892881493
20
24.703545934992
30
0
41
1
10
-38.6531163292079
20
24.6138258735973
30
0
41
1
10
-38.6806100532369
20
24.430761738629
30
0
41
1
10
-38.6966725330052
20
24.3374209481653
30
0
41
1
10
-38.7340349083021
20
24.1466484354673
30
0
41
1
10
-38.7553246647891
20
24.0492246328118
30
0
41
1
10
-38.8041944780495
20
23.8494636903765
30
0
41
1
10
-38.8317452583228
20
23.7471494183944
30
0
41
1
10
-38.8793090347024
20
23.5888058326904
30
0
41
1
10
-38.8962123142561
20
23.5352055104454
30
0
41
1
10
-38.9234987523354
20
23.4532963228281
30
0
41
1
10
-38.9329176932172
20
23.425740605339
30
0
41
1
10
-38.9524891200598
20
23.3700562002155
30
0
41
1
10
-38.9626490109555
20
23.3419086406568
30
0
41
1
10
-38.9942486237371
20
23.2568717134922
30
0
41
1
10
-39.0168192929944
20
23.1992950358566
30
0
41
1
10
-39.0538036875578
20
23.1110886798664
30
0
41
1
10
-39.0666580489107
20
23.0813768275748
30
0
41
1
10
-39.0936734757839
20
23.0211840099577
30
0
41
1
10
-39.1078311461907
20
22.9907050429619
30
0
41
1
10
-39.1378542437155
20
22.9287419404107
30
0
41
1
10
-39.1537107304315
20
22.8972630670866
30
0
41
1
10
-39.1793133959856
20
22.8489747384169
30
0
41
1
10
-39.1881536106008
20
22.8326985245728
30
0
41
1
10
-39.2066035936802
20
22.799693145168
30
0
41
1
10
-39.2161473773061
20
22.7830822873886
30
0
41
1
10
-39.2359973056591
20
22.7496497378369
30
0
41
1
10
-39.2463063092381
20
22.7328202730187
30
0
41
1
10
-39.2679310576535
20
22.698864621002
30
0
41
1
10
-39.2792424548455
20
22.6817397152086
30
0
41
1
10
-39.3032740541941
20
22.6470746787968
30
0
41
1
10
-39.3160733210662
20
22.6294325485826
30
0
41
1
10
-39.3362695229811
20
22.6032923524902
30
0
41
1
10
-39.3431827669186
20
22.5946119037201
30
0
41
1
10
-39.3574543409753
20
22.5773319523658
30
0
41
1
10
-39.3648392676576
20
22.568706225876
30
0
41
1
10
-39.3797857771534
20
22.551975720137
30
0
41
1
10
-39.3873836291086
20
22.5438246952653
30
0
41
1
10
-39.4028693501777
20
22.5280212906885
30
0
41
1
10
-39.4107869455578
20
22.5203413666497
30
0
41
1
10
-39.4268410602903
20
22.5056890309779
30
0
41
1
10
-39.4387478874918
20
22.4954998499081
30
0
41
1
10
-39.4504551758713
20
22.4865041985703
30
0
41
1
10
-39.4582157068528
20
22.4807722426336
30
0
41
1
10
-39.4620912174028
20
22.4780272800735
30
0
41
1
10
-39.4735065561114
20
22.470286641386
30
0
41
1
10
-39.4808191689375
20
22.4657891463388
30
0
41
1
10
-39.4949344215917
20
22.4579301173837
30
0
41
1
10
-39.5017759281466
20
22.4545530103156
30
0
41
1
10
-39.5213314742926
20
22.4460352491529
30
0
41
1
10
-39.5330159174994
20
22.442481411785
30
0
41
1
10
-39.554614835628
20
22.438154036651
30
0
41
1
10
-39.5645454559712
20
22.4374138481158
30
0
41
1
10
-39.5826700245649
20
22.4379146099287
30
0
41
1
10
-39.5909423654552
20
22.4391404659282
30
0
41
1
10
-39.614089232713
20
22.4448804538334
30
0
41
1
10
-39.6273249159401
20
22.451418339152
30
0
41
1
10
-39.6452270378374
20
22.4636348903477
30
0
41
1
10
-39.6508615272903
20
22.4681307040196
30
0
41
1
10
-39.6615010758691
20
22.4777254329998
30
0
41
1
10
-39.6665182653273
20
22.4828323372287
30
0
41
1
10
-39.6808316624556
20
22.4989081880165
30
0
41
1
10
-39.6893982067516
20
22.5106235692509
30
0
41
1
10
-39.713026933257
20
22.5478882190874
30
0
41
1
10
-39.7260572165222
20
22.5755160897995
30
0
41
1
10
-39.7489117035881
20
22.6340516023749
30
0
41
1
10
-39.7586964964898
20
22.6649995609961
30
0
41
1
10
-39.776063913609
20
22.7291482637356
30
0
41
1
10
-39.7836388873253
20
22.7623840685551
30
0
41
1
10
-39.8039270518279
20
22.8643835053554
30
0
41
1
10
-39.8142463776985
20
22.9353032188211
30
0
41
1
10
-39.8312440407204
20
23.0804588099552
30
0
41
1
10
-39.8378785194996
20
23.1547346332471
30
0
41
1
10
-39.8487975016242
20
23.3054266062675
30
0
41
1
10
-39.8530679120947
20
23.3818555915995
30
0
41
1
10
-39.8600086028421
20
23.5361709396072
30
0
41
1
10
-39.8626732334895
20
23.6140624478904
30
0
41
1
10
-39.8668471579568
20
23.7708977299059
30
0
41
1
10
-39.8683539374409
20
23.8498437936619
30
0
41
1
10
-39.8694062536461
20
23.9292037765407
30
0
0
SPLINE
5
16B
100
AcDbEntity
8
SK1
62
256
6
ByLayer
370
18
48
1
60
0
100
AcDbSpline
70
4
71
3
72
20
73
16
40
0
40
0
40
0
40
0
40
0.266599302305722
40
0.266599302305722
40
0.333249127882149
40
0.333249127882149
40
0.399898953458577
40
0.533198604611434
40
0.533198604611434
40
0.799797906917143
40
0.799797906917143
40
0.93309755807
40
0.999747383646429
40
0.999747383646429
40
1
40
1
40
1
40
1
41
1
10
-39.8694062536461
20
23.9292037765407
30
0
41
1
10
-39.8699642039183
20
23.9712813610367
30
0
41
1
10
-39.8718799934452
20
24.006964701742
30
0
41
1
10
-39.8754658101046
20
24.0438107043091
30
0
41
1
10
-39.8762410635527
20
24.0507978282744
30
0
41
1
10
-39.8778698132154
20
24.0639060511626
30
0
41
1
10
-39.8804338449582
20
24.0823138656394
30
0
41
1
10
-39.883241358257
20
24.097134036492
30
0
41
1
10
-39.8888461923831
20
24.122405332496
30
0
41
1
10
-39.8925690800327
20
24.1334426625818
30
0
41
1
10
-39.8967523805697
20
24.1426277083206
30
0
41
1
10
-39.8984935189108
20
24.145371391235
30
0
41
1
10
-39.8994499334561
20
24.1455485662144
30
0
41
1
10
-39.8996680201079
20
24.145331981102
30
0
41
1
10
-39.899668842118
20
24.1453311593359
30
0
41
1
10
-39.8996696626662
20
24.1453303336064
30
0
0
SPLINE
5
16C
100
AcDbEntity
8
SK1
62
256
6
ByLayer
370
18
48
1
60
0
100
AcDbSpline
70
4
71
3
72
19
73
15
40
0
40
0
40
0
40
0
40
0.25
40
0.25
40
0.312499999999998
40
0.312499999999998
40
0.374999999999995
40
0.499999999999995
40
0.499999999999995
40
0.749999999999999
40
0.749999999999999
40
0.875
40
0.875
40
1
40
1
40
1
40
1
41
1
10
-39.8835132610253
20
-23.8754252891854
30
0
41
1
10
-39.8838181831866
20
-23.911381469035
30
0
41
1
10
-39.8848142815642
20
-23.9429191918678
30
0
41
1
10
-39.8866886977797
20
-23.9768684257714
30
0
41
1
10
-39.8870945319552
20
-23.9833943706503
30
0
41
1
10
-39.887951421967
20
-23.9958383641495
30
0
41
1
10
-39.8893044638302
20
-24.0136031243909
30
0
41
1
10
-39.8908022468326
20
-24.0287530153637
30
0
41
1
10
-39.8938166198416
20
-24.0557848871525
30
0
41
1
10
-39.8958543754305
20
-24.0694547325323
30
0
41
1
10
-39.898173968417
20
-24.084194695462
30
0
41
1
10
-39.8988234198358
20
-24.088145701386
30
0
41
1
10
-39.8997365764374
20
-24.0942341794262
30
0
41
1
10
-39.9
20
-24.0963734817149
30
0
41
1
10
-39.9
20
-24.0976517904872
30
0
0
SPLINE
5
16D
100
AcDbEntity
8
SK1
62
256
6
ByLayer
370
18
48
1
60
0
100
AcDbSpline
70
4
71
3
72
94
73
90
40
0
40
0
40
0
40
0
40
0.0625000000000422
40
0.0625000000000422
40
0.125000000000084
40
0.125000000000084
40
0.187500000000127
40
0.187500000000127
40
0.250000000000169
40
0.250000000000169
40
0.28125000000019
40
0.28125000000019
40
0.312500000000211
40
0.312500000000211
40
0.343750000000232
40
0.343750000000232
40
0.375000000000253
40
0.375000000000253
40
0.406250000000274
40
0.406250000000274
40
0.421875000000284
40
0.421875000000284
40
0.437500000000294
40
0.437500000000294
40
0.445312500000299
40
0.445312500000299
40
0.453125000000303
40
0.453125000000303
40
0.468750000000313
40
0.468750000000313
40
0.476562500000318
40
0.476562500000318
40
0.484375000000323
40
0.484375000000323
40
0.492187500000329
40
0.492187500000329
40
0.496093750000331
40
0.496093750000331
40
0.500000000000333
40
0.500000000000333
40
0.503906250000335
40
0.503906250000335
40
0.505859375000335
40
0.505859375000335
40
0.507812500000336
40
0.511718750000335
40
0.511718750000335
40
0.513671875000334
40
0.513671875000334
40
0.515625000000333
40
0.519531250000331
40
0.519531250000331
40
0.523437500000329
40
0.523437500000329
40
0.527343750000327
40
0.527343750000327
40
0.531250000000325
40
0.531250000000325
40
0.53906250000032
40
0.53906250000032
40
0.546875000000315
40
0.546875000000315
40
0.55468750000031
40
0.55468750000031
40
0.562500000000306
40
0.562500000000306
40
0.578125000000295
40
0.578125000000295
40
0.593750000000285
40
0.593750000000285
40
0.609375000000275
40
0.609375000000275
40
0.625000000000265
40
0.625000000000265
40
0.656250000000243
40
0.656250000000243
40
0.687500000000222
40
0.687500000000222
40
0.7187500000002
40
0.7187500000002
40
0.750000000000178
40
0.750000000000178
40
0.812500000000133
40
0.812500000000133
40
0.875000000000089
40
0.875000000000089
40
0.937500000000044
40
0.937500000000044
40
1
40
1
40
1
40
1
41
1
10
-38.5287127263361
20
-25.0825614045673
30
0
41
1
10
-38.5335968846143
20
-24.9900637138264
30
0
41
1
10
-38.5408158984403
20
-24.8956371653591
30
0
41
1
10
-38.5601240282265
20
-24.7027608070547
30
0
41
1
10
-38.5722109715802
20
-24.604312792039
30
0
41
1
10
-38.6016571177908
20
-24.4030612726554
30
0
41
1
10
-38.6190113362063
20
-24.300261886006
30
0
41
1
10
-38.6596976958757
20
-24.0897246647313
30
0
41
1
10
-38.6830176889958
20
-23.981996865854
30
0
41
1
10
-38.7234136895329
20
-23.8159309231261
30
0
41
1
10
-38.7377943403062
20
-23.7597977844891
30
0
41
1
10
-38.7685938375187
20
-23.6459398755785
30
0
41
1
10
-38.7849701442171
20
-23.5883669887454
30
0
41
1
10
-38.819969996189
20
-23.4717394090393
30
0
41
1
10
-38.838590741465
20
-23.4126865624559
30
0
41
1
10
-38.8785177392746
20
-23.2928100733805
30
0
41
1
10
-38.8998176448221
20
-23.231990616026
30
0
41
1
10
-38.9458143266427
20
-23.1081118396424
30
0
41
1
10
-38.9704936985994
20
-23.0450639968409
30
0
41
1
10
-39.0110353260018
20
-22.9481694865045
30
0
41
1
10
-39.0251418684619
20
-22.9154805180833
30
0
41
1
10
-39.054834932937
20
-22.84912669792
30
0
41
1
10
-39.07041729956
20
-22.8154645862007
30
0
41
1
10
-39.0952530823946
20
-22.7640072372629
30
0
41
1
10
-39.1037770867854
20
-22.7466929667088
30
0
41
1
10
-39.1214076568764
20
-22.7116802906554
30
0
41
1
10
-39.1305261483643
20
-22.6939586254581
30
0
41
1
10
-39.1588641146049
20
-22.6402481283797
30
0
41
1
10
-39.1788879443581
20
-22.6040037933103
30
0
41
1
10
-39.2115228504896
20
-22.5486329992635
30
0
41
1
10
-39.2228396017558
20
-22.5300066552784
30
0
41
1
10
-39.2466371654025
20
-22.4923041850937
30
0
41
1
10
-39.2591725543588
20
-22.4731455103523
30
0
41
1
10
-39.2855164067107
20
-22.4347377696204
30
0
41
1
10
-39.2993193442809
20
-22.4154800872108
30
0
41
1
10
-39.3214139738192
20
-22.386475006703
30
0
41
1
10
-39.328994406938
20
-22.3768149494948
30
0
41
1
10
-39.3444517593884
20
-22.3577918956538
30
0
41
1
10
-39.3523549561978
20
-22.3483934968961
30
0
41
1
10
-39.3685813440197
20
-22.3298689490575
30
0
41
1
10
-39.3769040214501
20
-22.3207424670612
30
0
41
1
10
-39.3897785204459
20
-22.3073058638215
30
0
41
1
10
-39.394153357463
20
-22.3028524011891
30
0
41
1
10
-39.4028860668929
20
-22.2942013419578
30
0
41
1
10
-39.4160019545199
20
-22.2815621138006
30
0
41
1
10
-39.429170155012
20
-22.2699719136787
30
0
41
1
10
-39.4423762398389
20
-22.2591414067801
30
0
41
1
10
-39.44678352522
20
-22.2556607257187
30
0
41
1
10
-39.4554271486306
20
-22.2490967057354
30
0
41
1
10
-39.4682070331075
20
-22.2397874463461
30
0
41
1
10
-39.4804568310766
20
-22.2320116489101
30
0
41
1
10
-39.4963580264091
20
-22.2228932511284
30
0
41
1
10
-39.5039399895592
20
-22.2190472198104
30
0
41
1
10
-39.5183648257569
20
-22.2125821712481
30
0
41
1
10
-39.525234533461
20
-22.2099486581287
30
0
41
1
10
-39.5384079945329
20
-22.2056708431004
30
0
41
1
10
-39.5447386847045
20
-22.2040231239715
30
0
41
1
10
-39.5627519650161
20
-22.2003818896821
30
0
41
1
10
-39.573513157514
20
-22.1996351343403
30
0
41
1
10
-39.5933891506012
20
-22.2003594913834
30
0
41
1
10
-39.6024926513591
20
-22.2018458258618
30
0
41
1
10
-39.6194883784554
20
-22.2064502122908
30
0
41
1
10
-39.6273188174113
20
-22.2095594201969
30
0
41
1
10
-39.6418931111918
20
-22.216909117377
30
0
41
1
10
-39.6486571264663
20
-22.2211596294969
30
0
41
1
10
-39.6677478849597
20
-22.2352330842498
30
0
41
1
10
-39.6788918043185
20
-22.2463576277381
30
0
41
1
10
-39.6991124648003
20
-22.2708814751845
30
0
41
1
10
-39.7081744557988
20
-22.2842970104475
30
0
41
1
10
-39.7247937120355
20
-22.3127839085258
30
0
41
1
10
-39.7323528350068
20
-22.327877654155
30
0
41
1
10
-39.7462853573598
20
-22.3592565023674
30
0
41
1
10
-39.7526464490386
20
-22.3755146887968
30
0
41
1
10
-39.7703247406157
20
-22.4256097073277
30
0
41
1
10
-39.7802576485588
20
-22.4607475519745
30
0
41
1
10
-39.7977036635652
20
-22.5332974662175
30
0
41
1
10
-39.8052014830999
20
-22.5707239036401
30
0
41
1
10
-39.8184695095411
20
-22.6472004574313
30
0
41
1
10
-39.8242339013486
20
-22.6862560390609
30
0
41
1
10
-39.8344788173274
20
-22.7655738321028
30
0
41
1
10
-39.8389567011628
20
-22.8058385250077
30
0
41
1
10
-39.850920075342
20
-22.9280144287343
30
0
41
1
10
-39.856959465229
20
-23.0112847421854
30
0
41
1
10
-39.8666896543063
20
-23.1800326678796
30
0
41
1
10
-39.8703653550449
20
-23.265524470247
30
0
41
1
10
-39.8762017120889
20
-23.4379319738976
30
0
41
1
10
-39.8783554364019
20
-23.5248276146137
30
0
41
1
10
-39.8816387925078
20
-23.6995054106354
30
0
41
1
10
-39.882765907474
20
-23.7872979501043
30
0
41
1
10
-39.8835132610253
20
-23.8754252891854
30
0
0
SPLINE
5
16E
100
AcDbEntity
8
SK1
62
256
6
ByLayer
370
18
48
1
60
0
100
AcDbSpline
70
4
71
3
72
12
73
8
40
0
40
0
40
0
40
0
40
0.500000000000001
40
0.500000000000001
40
0.75
40
0.75
40
1
40
1
40
1
40
1
41
1
10
-38.3800599072244
20
-25.5406853420339
30
0
41
1
10
-38.4221111812646
20
-25.4680335930721
30
0
41
1
10
-38.4573354492697
20
-25.3926310948119
30
0
41
1
10
-38.4958016939864
20
-25.2774818922054
30
0
41
1
10
-38.5062229363367
20
-25.2387592634951
30
0
41
1
10
-38.5216445978658
20
-25.1609169432419
30
0
41
1
10
-38.5266408307161
20
-25.1217996006697
30
0
41
1
10
-38.5287127263361
20
-25.0825614045673
30
0
0
SPLINE
5
16F
100
AcDbEntity
8
SK1
62
256
6
ByLayer
370
18
48
1
60
0
100
AcDbSpline
70
4
71
3
72
96
73
92
40
0
40
0
40
0
40
0
40
0.0068234304932417
40
0.0068234304932417
40
0.0380733399298839
40
0.0380733399298839
40
0.0536982946482051
40
0.0536982946482051
40
0.0615107720073657
40
0.0615107720073657
40
0.0693232493665262
40
0.0693232493665262
40
0.100573158803169
40
0.100573158803169
40
0.131823068239811
40
0.131823068239811
40
0.147448022958132
40
0.147448022958132
40
0.155260500317293
40
0.155260500317293
40
0.163072977676453
40
0.163072977676453
40
0.194322887113096
40
0.194322887113096
40
0.225572796549738
40
0.256822705986381
40
0.256822705986381
40
0.272447660704702
40
0.272447660704702
40
0.288072615423023
40
0.288072615423023
40
0.319322524859666
40
0.350572434296308
40
0.350572434296308
40
0.358384911655469
40
0.358384911655469
40
0.36619738901463
40
0.36619738901463
40
0.381822343732951
40
0.381822343732951
40
0.413072253169594
40
0.444322162606237
40
0.444322162606237
40
0.47557207204288
40
0.47557207204288
40
0.483384549402041
40
0.483384549402041
40
0.491197026761201
40
0.506821981479523
40
0.506821981479523
40
0.538071890916166
40
0.569321800352809
40
0.569321800352809
40
0.584946755071131
40
0.592759232430291
40
0.592759232430291
40
0.600571709789452
40
0.600571709789452
40
0.631821619226094
40
0.663071528662736
40
0.663071528662736
40
0.694321438099378
40
0.694321438099378
40
0.709946392817699
40
0.709946392817699
40
0.71775887017686
40
0.71775887017686
40
0.72557134753602
40
0.756821256972662
40
0.788071166409303
40
0.788071166409303
40
0.819321075845945
40
0.819321075845945
40
0.827133553205105
40
0.827133553205105
40
0.834946030564266
40
0.834946030564266
40
0.850570985282586
40
0.850570985282586
40
0.881820894719228
40
0.881820894719228
40
0.913070804155869
40
0.913070804155869
40
0.92869575887419
40
0.92869575887419
40
0.93650823623335
40
0.93650823623335
40
0.944320713592511
40
0.944320713592511
40
0.975570623029153
40
1
40
1
40
1
40
1
41
1
10
-6.74894332736952
20
30.0686781747031
30
0
41
1
10
-6.74895657812503
20
30.0686757708106
30
0
41
1
10
-6.74938833495496
20
30.0685932997282
30
0
41
1
10
-6.75411594527985
20
30.0676889563962
30
0
41
1
10
-6.76671303930192
20
30.0652768587262
30
0
41
1
10
-6.79866501651436
20
30.0591965545006
30
0
41
1
10
-6.81149585591751
20
30.0567591928509
30
0
41
1
10
-6.83404797782141
20
30.0524905325102
30
0
41
1
10
-6.84211659738506
20
30.0509655287786
30
0
41
1
10
-6.85936558405592
20
30.0477116641999
30
0
41
1
10
-6.86856169732819
20
30.0459798470334
30
0
41
1
10
-6.9171306475673
20
30.036853073645
30
0
41
1
10
-6.96415949999808
20
30.0280734248537
30
0
41
1
10
-7.07373952188475
20
30.007890025347
30
0
41
1
10
-7.13629349291112
20
29.9964855697902
30
0
41
1
10
-7.24154150071981
20
29.9776253555943
30
0
41
1
10
-7.27853079039369
20
29.9710460785385
30
0
41
1
10
-7.33687949875601
20
29.9607632507824
30
0
41
1
10
-7.356806760376
20
29.9572666445618
30
0
41
1
10
-7.39762026641243
20
29.9501394662925
30
0
41
1
10
-7.41853534867271
20
29.9465039308181
30
0
41
1
10
-7.52501860826273
20
29.9280880552508
30
0
41
1
10
-7.61644142055869
20
29.9125685759791
30
0
41
1
10
-7.81109090867496
20
29.8803437978608
30
0
41
1
10
-8.01754864736202
20
29.846932197651
30
0
41
1
10
-8.2470839408933
20
29.8118361995751
30
0
41
1
10
-8.42795297540606
20
29.7851263840247
30
0
41
1
10
-8.48930132129404
20
29.7762172663888
30
0
41
1
10
-8.61389759901599
20
29.7584510143477
30
0
41
1
10
-8.6771718863389
20
29.7495899745303
30
0
41
1
10
-8.86986237239087
20
29.7231293484423
30
0
41
1
10
-9.13441436374785
20
29.6881788467172
30
0
41
1
10
-9.41393314764821
20
29.6544533823624
30
0
41
1
10
-9.59335091821447
20
29.6339285934903
30
0
41
1
10
-9.62947092010134
20
29.6298513074018
30
0
41
1
10
-9.70218696502739
20
29.6217563350251
30
0
41
1
10
-9.73882706745921
20
29.6177339388685
30
0
41
1
10
-9.84903688537189
20
29.60580880216
30
0
41
1
10
-9.9229326949401
20
29.5980433975446
30
0
41
1
10
-10.1458628159999
20
29.5753303587116
30
0
41
1
10
-10.4464103854676
20
29.546603066565
30
0
41
1
10
-10.7534456173574
20
29.5212829430069
30
0
41
1
10
-11.0637453981035
20
29.4978081349313
30
0
41
1
10
-11.2205273496863
20
29.4869932189952
30
0
41
1
10
-11.4186114598284
20
29.4747157526677
30
0
41
1
10
-11.4583146038488
20
29.472323722067
30
0
41
1
10
-11.5375398393318
20
29.4676880252073
30
0
41
1
10
-11.6562499148518
20
29.4609479945958
30
0
41
1
10
-11.7745805563421
20
29.4548450630873
30
0
41
1
10
-12.010742413604
20
29.4434797325275
30
0
41
1
10
-12.3242950874647
20
29.4305669604832
30
0
41
1
10
-12.6352007073702
20
29.4220414958516
30
0
41
1
10
-12.8673638263349
20
29.4172555651361
30
0
41
1
10
-12.9831909626307
20
29.4152646158664
30
0
41
1
10
-13.0986276575941
20
29.413869337016
30
0
41
1
10
-13.1754974500203
20
29.4130706755211
30
0
41
1
10
-13.2139183657581
20
29.4127370506196
30
0
41
1
10
-13.4048180707211
20
29.4114012424349
30
0
41
1
10
-13.7039871788958
20
29.4113678491235
30
0
41
1
10
-13.9908563087102
20
29.4150531498372
30
0
41
1
10
-14.2715271902444
20
29.4203606212992
30
0
41
1
10
-14.4087641873692
20
29.4238257748094
30
0
41
1
10
-14.609802632303
20
29.4300622022799
30
0
41
1
10
-14.6760111670342
20
29.4323140918908
30
0
41
1
10
-14.7740820010283
20
29.4359285680025
30
0
41
1
10
-14.8066051515982
20
29.4371744957733
30
0
41
1
10
-14.8708991445941
20
29.4397277438156
30
0
41
1
10
-15.0298884340099
20
29.4462702144402
30
0
41
1
10
-15.3005446207072
20
29.4593379788188
30
0
41
1
10
-15.5192346564125
20
29.4720998938188
30
0
41
1
10
-15.726743513809
20
29.4851001530407
30
0
41
1
10
-15.8249095021026
20
29.4917200004546
30
0
41
1
10
-15.9402580032969
20
29.49993352999
30
0
41
1
10
-15.9629587629267
20
29.501573141954
30
0
41
1
10
-16.0076088608183
20
29.504840746868
30
0
41
1
10
-16.0294949492305
20
29.506464141364
30
0
41
1
10
-16.0936568274004
20
29.5112817133882
30
0
41
1
10
-16.1345168247128
20
29.5144290333346
30
0
41
1
10
-16.251413112603
20
29.5236212036548
30
0
41
1
10
-16.3217800633873
20
29.5294156172445
30
0
41
1
10
-16.4473546732189
20
29.5400560934227
30
0
41
1
10
-16.5025636380938
20
29.5449026033637
30
0
41
1
10
-16.5736273411777
20
29.5512627512422
30
0
41
1
10
-16.5953531280919
20
29.5532312779132
30
0
41
1
10
-16.6249130022161
20
29.5559322298656
30
0
41
1
10
-16.6342738325704
20
29.5567917392977
30
0
41
1
10
-16.6519047650647
20
29.5584169204484
30
0
41
1
10
-16.660164237784
20
29.5591815955855
30
0
41
1
10
-16.6987098384153
20
29.5627622549619
30
0
41
1
10
-16.7380071542677
20
29.5664792153974
30
0
41
1
10
-16.750021512158
20
29.567624534719
30
0
41
1
10
-16.7500019232849
20
29.567623149949
30
0
0
SPLINE
5
170
100
AcDbEntity
8
SK1
62
256
6
ByLayer
370
18
48
1
60
0
100
AcDbSpline
70
4
71
3
72
104
73
100
40
0
40
0
40
0
40
0
40
0.0078603205993528
40
0.0078603205993528
40
0.0156702816336458
40
0.0156702816336458
40
0.0234802426679388
40
0.0234802426679388
40
0.0547200868051109
40
0.0547200868051109
40
0.085959930942283
40
0.085959930942283
40
0.101579853010869
40
0.101579853010869
40
0.109389814045162
40
0.109389814045162
40
0.117199775079455
40
0.117199775079455
40
0.148439619216627
40
0.148439619216627
40
0.179679463353798
40
0.179679463353798
40
0.195299385422384
40
0.195299385422384
40
0.203109346456678
40
0.203109346456678
40
0.210919307490971
40
0.210919307490971
40
0.242159151628144
40
0.242159151628144
40
0.273398995765317
40
0.273398995765317
40
0.289018917833904
40
0.296828878868197
40
0.296828878868197
40
0.30463883990249
40
0.30463883990249
40
0.335878684039663
40
0.335878684039663
40
0.367118528176837
40
0.39835837231401
40
0.39835837231401
40
0.406168333348303
40
0.406168333348303
40
0.413978294382597
40
0.413978294382597
40
0.429598216451183
40
0.429598216451183
40
0.460838060588356
40
0.492077904725529
40
0.492077904725529
40
0.523317748862702
40
0.523317748862702
40
0.531127709896995
40
0.531127709896995
40
0.538937670931289
40
0.554557592999876
40
0.554557592999876
40
0.585797437137051
40
0.617037281274226
40
0.617037281274226
40
0.632657203342813
40
0.640467164377107
40
0.640467164377107
40
0.6482771254114
40
0.6482771254114
40
0.679516969548576
40
0.710756813685751
40
0.710756813685751
40
0.741996657822926
40
0.741996657822926
40
0.757616579891514
40
0.757616579891514
40
0.765426540925807
40
0.765426540925807
40
0.773236501960101
40
0.773236501960101
40
0.804476346097278
40
0.835716190234455
40
0.835716190234455
40
0.866956034371631
40
0.866956034371631
40
0.874765995405926
40
0.874765995405926
40
0.88257595644022
40
0.88257595644022
40
0.898195878508809
40
0.898195878508809
40
0.929435722645985
40
0.929435722645985
40
0.960675566783162
40
0.960675566783162
40
0.976295488851751
40
0.976295488851751
40
0.984105449886045
40
0.984105449886045
40
0.991915410920339
40
0.991915410920339
40
1
40
1
40
1
40
1
41
1
10
-16.7500001938032
20
-29.5676232260297
30
0
41
1
10
-16.7500091789576
20
-29.5676240813992
30
0
41
1
10
-16.7494619420748
20
-29.5675719844797
30
0
41
1
10
-16.747248736206
20
-29.5673612875424
30
0
41
1
10
-16.745587965029
20
-29.5672032221225
30
0
41
1
10
-16.7411773084789
20
-29.5667839568557
30
0
41
1
10
-16.7384260966155
20
-29.5665226310552
30
0
41
1
10
-16.7219737442125
20
-29.564962606861
30
0
41
1
10
-16.70020543551
20
-29.5629029906741
30
0
41
1
10
-16.6399435695722
20
-29.5573014655743
30
0
41
1
10
-16.601448934542
20
-29.5537593181241
30
0
41
1
10
-16.53113075359
20
-29.5474565238502
30
0
41
1
10
-16.5055913205458
20
-29.5451908593409
30
0
41
1
10
-16.4640911224935
20
-29.5415626745282
30
0
41
1
10
-16.4497049347256
20
-29.5403132491077
30
0
41
1
10
-16.420019936867
20
-29.5377548552432
30
0
41
1
10
-16.4047109829856
20
-29.5364449767722
30
0
41
1
10
-16.3258693885997
20
-29.5297544382848
30
0
41
1
10
-16.2554654264474
20
-29.5239503337622
30
0
41
1
10
-16.1005821895456
20
-29.5117506958674
30
0
41
1
10
-16.0161011109151
20
-29.5053546440047
30
0
41
1
10
-15.8789209972774
20
-29.4955568590181
30
0
41
1
10
-15.8314478685054
20
-29.4922570963923
30
0
41
1
10
-15.757600986863
20
-29.4872883735938
30
0
41
1
10
-15.7325220801273
20
-29.4856274393859
30
0
41
1
10
-15.6815864136668
20
-29.4823116661963
30
0
41
1
10
-15.6557807277091
20
-29.4806601044508
30
0
41
1
10
-15.5250900518626
20
-29.4724471075705
30
0
41
1
10
-15.4152319768199
20
-29.4660204648042
30
0
41
1
10
-15.1853662397472
20
-29.4537843251071
30
0
41
1
10
-15.0653570172089
20
-29.4479743109893
30
0
41
1
10
-14.8778366346024
20
-29.4399684644015
30
0
41
1
10
-14.7821966066561
20
-29.4361428861565
30
0
41
1
10
-14.6837250003903
20
-29.4326310852983
30
0
41
1
10
-14.6174449847694
20
-29.4303650489526
30
0
41
1
10
-14.5839509569789
20
-29.4292684471746
30
0
41
1
10
-14.4153608756049
20
-29.4240017164105
30
0
41
1
10
-14.2774759285879
20
-29.4204964665734
30
0
41
1
10
-13.9959589687589
20
-29.4151268808852
30
0
41
1
10
-13.70869371057
20
-29.411398798565
30
0
41
1
10
-13.4101441844585
20
-29.4113907078965
30
0
41
1
10
-13.2199941761198
20
-29.4126883992925
30
0
41
1
10
-13.1817859689173
20
-29.413013098586
30
0
41
1
10
-13.1050108543436
20
-29.4137964404734
30
0
41
1
10
-13.0663986546816
20
-29.4142557827774
30
0
41
1
10
-12.950511309863
20
-29.4158330596935
30
0
41
1
10
-12.8731066290916
20
-29.4171503864753
30
0
41
1
10
-12.6404642023668
20
-29.4219079551828
30
0
41
1
10
-12.3291340350993
20
-29.430399864277
30
0
41
1
10
-12.0155873503412
20
-29.4432696883591
30
0
41
1
10
-11.7009325962646
20
-29.4583669280539
30
0
41
1
10
-11.543051263556
20
-29.4670291819746
30
0
41
1
10
-11.3449871884756
20
-29.4792730509734
30
0
41
1
10
-11.3053982706673
20
-29.4817890894099
30
0
41
1
10
-11.2265170315738
20
-29.4869379155538
30
0
41
1
10
-11.1085276146611
20
-29.4948432060616
30
0
41
1
10
-10.9915247626657
20
-29.5032842358199
30
0
41
1
10
-10.7588152387739
20
-29.5208530422289
30
0
41
1
10
-10.4519870134956
20
-29.5461094472519
30
0
41
1
10
-10.1519906471414
20
-29.5747342742877
30
0
41
1
10
-9.9295960818924
20
-29.5973513747185
30
0
41
1
10
-9.81905043320131
20
-29.6089469688738
30
0
41
1
10
-9.70950047652296
20
-29.6209504344376
30
0
41
1
10
-9.63669109203211
20
-29.6290407734093
30
0
41
1
10
-9.60042362649013
20
-29.633127312109
30
0
41
1
10
-9.42057606360457
20
-29.6536656625308
30
0
41
1
10
-9.14089470525164
20
-29.687362013864
30
0
41
1
10
-8.87705212281075
20
-29.7221707874438
30
0
41
1
10
-8.62120083740307
20
-29.7572492347943
30
0
41
1
10
-8.49726978836016
20
-29.7749238278802
30
0
41
1
10
-8.31760053019686
20
-29.8014077688194
30
0
41
1
10
-8.25875063425758
20
-29.8102308784223
30
0
41
1
10
-8.1720848678335
20
-29.8234267811766
30
0
41
1
10
-8.1434397439785
20
-29.8278228632049
30
0
41
1
10
-8.08701569207366
20
-29.8365468031773
30
0
41
1
10
-8.05919959680311
20
-29.840880256512
30
0
41
1
10
-7.92208767717128
20
-29.8623927879072
30
0
41
1
10
-7.71527833040788
20
-29.8958230932167
30
0
41
1
10
-7.53351820113357
20
-29.9266402085458
30
0
41
1
10
-7.36462557129353
20
-29.9558075918208
30
0
41
1
10
-7.28661012725695
20
-29.9695672528193
30
0
41
1
10
-7.19761839012035
20
-29.985493096122
30
0
41
1
10
-7.1802476331638
20
-29.9886144274269
30
0
41
1
10
-7.14637868656239
20
-29.9947226506024
30
0
41
1
10
-7.12993659584926
20
-29.9976994361699
30
0
41
1
10
-7.08220984321174
20
-30.006369556762
30
0
41
1
10
-7.05246689047104
20
-30.01181293725
30
0
41
1
10
-6.96939956148474
20
-30.0271001491387
30
0
41
1
10
-6.92222116245873
20
-30.0359019607331
30
0
41
1
10
-6.844308829455
20
-30.0505324872711
30
0
41
1
10
-6.81357350688711
20
-30.0563616358788
30
0
41
1
10
-6.78022351432503
20
-30.0627050533752
30
0
41
1
10
-6.77123648387213
20
-30.0644191689647
30
0
41
1
10
-6.76104404765694
20
-30.0663650667024
30
0
41
1
10
-6.75819439136365
20
-30.0669095565403
30
0
41
1
10
-6.75363494182237
20
-30.067781051066
30
0
41
1
10
-6.75191878168306
20
-30.0681092708392
30
0
41
1
10
-6.74955990176357
20
-30.0685604678263
30
0
41
1
10
-6.74895557187159
20
-30.0686759147013
30
0
41
1
10
-6.74894272706609
20
-30.0686782276893
30
0
0
SPLINE
5
171
100
AcDbEntity
8
SK1
62
256
6
ByLayer
370
18
48
1
60
0
100
AcDbSpline
70
4
71
3
72
53
73
49
40
0
40
0
40
0
40
0
40
0.0624999999999986
40
0.0624999999999986
40
0.0937499999999979
40
0.0937499999999979
40
0.124999999999997
40
0.124999999999997
40
0.249999999999996
40
0.249999999999996
40
0.374999999999994
40
0.374999999999994
40
0.437499999999994
40
0.437499999999994
40
0.468749999999991
40
0.468749999999991
40
0.499999999999989
40
0.499999999999989
40
0.624999999999983
40
0.624999999999983
40
0.68749999999998
40
0.68749999999998
40
0.749999999999978
40
0.749999999999978
40
0.812499999999975
40
0.812499999999975
40
0.828124999999974
40
0.828124999999974
40
0.843749999999973
40
0.843749999999973
40
0.874999999999971
40
0.874999999999971
40
0.890624999999973
40
0.890624999999973
40
0.906249999999974
40
0.906249999999974
40
0.937499999999975
40
0.937499999999975
40
0.945312499999977
40
0.945312499999977
40
0.953124999999978
40
0.953124999999978
40
0.968749999999981
40
0.976562499999984
40
0.976562499999984
40
0.984374999999988
40
0.984374999999988
40
1
40
1
40
1
40
1
41
1
10
-31.7999999999999
20
27.1896899761248
30
0
41
1
10
-31.7999999999999
20
27.1594283864625
30
0
41
1
10
-31.8031189040286
20
27.1285285171186
30
0
41
1
10
-31.8122702008843
20
27.0812264333198
30
0
41
1
10
-31.8160706144738
20
27.06529818132
30
0
41
1
10
-31.825061653563
20
27.0333517292081
30
0
41
1
10
-31.8302568666145
20
27.0173053470584
30
0
41
1
10
-31.8595769424437
20
26.9367129962213
30
0
41
1
10
-31.893675665078
20
26.8710857526648
30
0
41
1
10
-31.9802698296651
20
26.7376605935643
30
0
41
1
10
-32.0327795570752
20
26.6698623549549
30
0
41
1
10
-32.1240763142297
20
26.5666405671766
30
0
41
1
10
-32.1566048133964
20
26.5319792673587
30
0
41
1
10
-32.2084539867605
20
26.4796205771122
30
0
41
1
10
-32.2262497276354
20
26.4621052087687
30
0
41
1
10
-32.2626786589873
20
26.4271180635586
30
0
41
1
10
-32.2813317391581
20
26.4096257948688
30
0
41
1
10
-32.3767435521413
20
26.3221774428708
30
0
41
1
10
-32.4598426439886
20
26.2522416299588
30
0
41
1
10
-32.5947682860802
20
26.1476774864196
30
0
41
1
10
-32.6414716036491
20
26.1128820648841
30
0
41
1
10
-32.7387447365189
20
26.0435422873681
30
0
41
1
10
-32.7892968977137
20
26.0089938303446
30
0
41
1
10
-32.8952829475714
20
25.9404157461799
30
0
41
1
10
-32.9506577032016
20
25.9063725087162
30
0
41
1
10
-33.0245601100277
20
25.86453796185
30
0
41
1
10
-33.0395820135844
20
25.8562086816625
30
0
41
1
10
-33.0701906243198
20
25.8396446818292
30
0
41
1
10
-33.0857988060796
20
25.831399038918
30
0
41
1
10
-33.1333871402938
20
25.8069686381619
30
0
41
1
10
-33.1661488013308
20
25.7910595273272
30
0
41
1
10
-33.2175673785896
20
25.7680814838828
30
0
41
1
10
-33.2350902806372
20
25.7605714885543
30
0
41
1
10
-33.2711004221454
20
25.7459367902213
30
0
41
1
10
-33.2895025818639
20
25.738847731402
30
0
41
1
10
-33.3459719754483
20
25.7185288535093
30
0
41
1
10
-33.3853293628059
20
25.7061796619512
30
0
41
1
10
-33.4380578613972
20
25.6932721727895
30
0
41
1
10
-33.4487840666693
20
25.6908199840838
30
0
41
1
10
-33.4706512552608
20
25.6862138393458
30
0
41
1
10
-33.4817964348484
20
25.6840616010688
30
0
41
1
10
-33.5153193639564
20
25.6782186874712
30
0
41
1
10
-33.5492967797933
20
25.67354209077
30
0
41
1
10
-33.5840391564051
20
25.6708337151935
30
0
41
1
10
-33.6073789959263
20
25.6694869257053
30
0
41
1
10
-33.6191442097781
20
25.6690455164398
30
0
41
1
10
-33.6541031195218
20
25.6684335603518
30
0
41
1
10
-33.6771631749677
20
25.6689614894725
30
0
41
1
10
-33.7000000000009
20
25.6703368607613
30
0
0
SPLINE
5
172
100
AcDbEntity
8
SK1
62
256
6
ByLayer
370
18
48
1
60
0
100
AcDbSpline
70
4
71
3
72
18
73
14
40
0
40
0
40
0
40
0
40
0.124999999999999
40
0.124999999999999
40
0.249999999999998
40
0.249999999999998
40
0.374999999999997
40
0.374999999999997
40
0.499999999999996
40
0.499999999999996
40
0.749999999999998
40
0.749999999999998
40
1
40
1
40
1
40
1
41
1
10
-33.7
20
25.6703368607646
30
0
41
1
10
-33.8874795180776
20
25.6816280076742
30
0
41
1
10
-34.0754540668092
20
25.6914244894439
30
0
41
1
10
-34.4520945068943
20
25.7089335593224
30
0
41
1
10
-34.6407635464443
20
25.7166366054854
30
0
41
1
10
-35.0186255047153
20
25.7304664099398
30
0
41
1
10
-35.2078197115438
20
25.7365892640392
30
0
41
1
10
-35.5866230921741
20
25.7475888202042
30
0
41
1
10
-35.7762328788483
20
25.7524636646659
30
0
41
1
10
-36.3455716849065
20
25.7655615180601
30
0
41
1
10
-36.7258043530373
20
25.7722754194647
30
0
41
1
10
-37.4872319893488
20
25.782833174673
30
0
41
1
10
-37.8684307320239
20
25.7866655877704
30
0
41
1
10
-38.25
20
25.789398340963
30
0
0
SPLINE
5
173
100
AcDbEntity
8
SK1
62
256
6
ByLayer
370
18
48
1
60
0
100
AcDbSpline
70
4
71
3
72
8
73
4
40
0
40
0
40
0
40
0
40
1
40
1
40
1
40
1
41
1
10
-38.3800599072244
20
25.6267055539513
30
0
41
1
10
-38.340857052271
20
25.6820913853516
30
0
41
1
10
-38.2972640933933
20
25.7362796679887
30
0
41
1
10
-38.25
20
25.789398340963
30
0
0
SPLINE
5
174
100
AcDbEntity
8
SK1
62
256
6
ByLayer
370
18
48
1
60
0
100
AcDbSpline
70
4
71
3
72
8
73
4
40
0
40
0
40
0
40
0
40
1
40
1
40
1
40
1
41
1
10
-38.3800599072244
20
-25.5406853420339
30
0
41
1
10
-38.3313083414361
20
-25.6249131472543
30
0
41
1
10
-38.2717415365535
20
-25.7064687209019
30
0
41
1
10
-38.20375
20
-25.7857399771712
30
0
0
SPLINE
5
175
100
AcDbEntity
8
SK1
62
256
6
ByLayer
370
18
48
1
60
0
100
AcDbSpline
70
4
71
3
72
44
73
40
40
0
40
0
40
0
40
0
40
0.0078124999999986
40
0.0078124999999986
40
0.0156249999999972
40
0.0156249999999972
40
0.0234374999999957
40
0.0234374999999957
40
0.0312499999999943
40
0.0312499999999943
40
0.0468749999999939
40
0.0468749999999939
40
0.0624999999999935
40
0.0624999999999935
40
0.0781249999999931
40
0.0781249999999931
40
0.0937499999999927
40
0.0937499999999927
40
0.124999999999992
40
0.124999999999992
40
0.156249999999992
40
0.156249999999992
40
0.187499999999991
40
0.187499999999991
40
0.249999999999993
40
0.249999999999993
40
0.312499999999995
40
0.312499999999995
40
0.374999999999997
40
0.374999999999997
40
0.499999999999997
40
0.499999999999997
40
0.624999999999998
40
0.624999999999998
40
0.749999999999999
40
0.749999999999999
40
0.874999999999999
40
0.874999999999999
40
1
40
1
40
1
40
1
41
1
10
-32.1832482823481
20
-25.3721053138509
30
0
41
1
10
-32.189854577976
20
-25.3791684737629
30
0
41
1
10
-32.1976890437301
20
-25.3857554501261
30
0
41
1
10
-32.2151647492699
20
-25.3982289001173
30
0
41
1
10
-32.2248112140316
20
-25.4041133479068
30
0
41
1
10
-32.2455134440454
20
-25.4153358615125
30
0
41
1
10
-32.2565716190808
20
-25.4206729929946
30
0
41
1
10
-32.2798263610285
20
-25.4309059211602
30
0
41
1
10
-32.2919267897734
20
-25.4357576274149
30
0
41
1
10
-32.3290538835906
20
-25.4495879490045
30
0
41
1
10
-32.3550213686004
20
-25.4579099664905
30
0
41
1
10
-32.4085445861939
20
-25.4733810302166
30
0
41
1
10
-32.436111591558
20
-25.4805217493405
30
0
41
1
10
-32.492403504764
20
-25.4939481234682
30
0
41
1
10
-32.5211325060628
20
-25.5002307546471
30
0
41
1
10
-32.5794810472769
20
-25.5121384644371
30
0
41
1
10
-32.6090063521758
20
-25.517742155533
30
0
41
1
10
-32.6980397956589
20
-25.5336728962834
30
0
41
1
10
-32.7581676251235
20
-25.5431680127383
30
0
41
1
10
-32.8794371489045
20
-25.5606810898939
30
0
41
1
10
-32.9405858233301
20
-25.5686888728433
30
0
41
1
10
-33.0636246832251
20
-25.5836244210365
30
0
41
1
10
-33.1255174237496
20
-25.5905484607121
30
0
41
1
10
-33.3120533071917
20
-25.6100718151008
30
0
41
1
10
-33.4375408408187
20
-25.6214417167654
30
0
41
1
10
-33.6899937041646
20
-25.642031618715
30
0
41
1
10
-33.8170180004651
20
-25.6512394175876
30
0
41
1
10
-34.0719338188825
20
-25.6680716833201
30
0
41
1
10
-34.1996735056145
20
-25.6756815584996
30
0
41
1
10
-34.5835332078554
20
-25.6966800404401
30
0
41
1
10
-34.8402836058089
20
-25.7082669566912
30
0
41
1
10
-35.3548752770095
20
-25.7283305189224
30
0
41
1
10
-35.6127250221484
20
-25.7367828444251
30
0
41
1
10
-36.1292188330944
20
-25.7514286313424
30
0
41
1
10
-36.3878658691808
20
-25.7576135657892
30
0
41
1
10
-36.9057718587995
20
-25.7682482655977
30
0
41
1
10
-37.1650320879115
20
-25.7726943690251
30
0
41
1
10
-37.684043467777
20
-25.7801988075215
30
0
41
1
10
-37.9437952462101
20
-25.7832553406244
30
0
41
1
10
-38.20375
20
-25.7857399771712
30
0
0
SPLINE
5
176
100
AcDbEntity
8
SK1
62
256
6
ByLayer
370
18
48
1
60
0
100
AcDbSpline
70
4
71
3
72
32
73
28
40
0
40
0
40
0
40
0
40
0.124999999999997
40
0.124999999999997
40
0.187499999999995
40
0.187499999999995
40
0.249999999999993
40
0.249999999999993
40
0.37499999999999
40
0.37499999999999
40
0.499999999999987
40
0.499999999999987
40
0.624999999999983
40
0.624999999999983
40
0.687499999999979
40
0.687499999999979
40
0.718749999999979
40
0.718749999999979
40
0.74999999999998
40
0.74999999999998
40
0.812499999999985
40
0.812499999999985
40
0.87499999999999
40
0.87499999999999
40
0.937499999999995
40
0.937499999999995
40
1
40
1
40
1
40
1
41
1
10
-29.7
20
-24.4023160126231
30
0
41
1
10
-29.8219804498585
20
-24.4315056022215
30
0
41
1
10
-29.9433566342874
20
-24.4615600297207
30
0
41
1
10
-30.1243216353666
20
-24.5082149782033
30
0
41
1
10
-30.184524105562
20
-24.5240473055314
30
0
41
1
10
-30.3041401473877
20
-24.5561940826691
30
0
41
1
10
-30.3635484287919
20
-24.5725062159427
30
0
41
1
10
-30.5404571437395
20
-24.6222286748993
30
0
41
1
10
-30.6566502059452
20
-24.6564198290398
30
0
41
1
10
-30.8847464874969
20
-24.7273642490078
30
0
41
1
10
-30.9966557542608
20
-24.7641139030106
30
0
41
1
10
-31.2150448835874
20
-24.8408559265214
30
0
41
1
10
-31.3215371677482
20
-24.8808408772212
30
0
41
1
10
-31.4758931990784
20
-24.9440329424442
30
0
41
1
10
-31.526442402271
20
-24.9656361664554
30
0
41
1
10
-31.6006708422977
20
-24.9989938352064
30
0
41
1
10
-31.6251471141471
20
-25.0102722502188
30
0
41
1
10
-31.6735169470787
20
-25.0331771046621
30
0
41
1
10
-31.6974395955992
20
-25.0448182015166
30
0
41
1
10
-31.7680306602713
20
-25.0802059611534
30
0
41
1
10
-31.8134183938685
20
-25.10435807698
30
0
41
1
10
-31.90030150555
20
-25.1539658499898
30
0
41
1
10
-31.9417989279235
20
-25.1794208225451
30
0
41
1
10
-32.0201934096777
20
-25.2318714191703
30
0
41
1
10
-32.0571179725362
20
-25.2588856991866
30
0
41
1
10
-32.1253175082273
20
-25.3146926904192
30
0
41
1
10
-32.1561288126319
20
-25.343110372946
30
0
41
1
10
-32.1832482823479
20
-25.3721053138509
30
0
0
SPLINE
5
177
100
AcDbEntity
8
SK1
62
256
6
ByLayer
370
18
48
1
60
0
100
AcDbSpline
70
4
71
3
72
46
73
42
40
0
40
0
40
0
40
0
40
0.031250000000009
40
0.031250000000009
40
0.0468750000000115
40
0.0468750000000115
40
0.054687500000015
40
0.054687500000015
40
0.0625000000000185
40
0.0625000000000185
40
0.0781250000000228
40
0.0781250000000228
40
0.0859375000000252
40
0.0859375000000252
40
0.0937500000000276
40
0.0937500000000276
40
0.125000000000028
40
0.125000000000028
40
0.140625000000027
40
0.140625000000027
40
0.156250000000026
40
0.156250000000026
40
0.187500000000023
40
0.187500000000023
40
0.21875000000002
40
0.21875000000002
40
0.250000000000017
40
0.250000000000017
40
0.312500000000014
40
0.312500000000014
40
0.375000000000012
40
0.375000000000012
40
0.50000000000001
40
0.50000000000001
40
0.625000000000007
40
0.625000000000007
40
0.750000000000005
40
0.750000000000005
40
0.875000000000003
40
0.875000000000003
40
1
40
1
40
1
40
1
41
1
10
-29.7
20
-24.4023160126231
30
0
41
1
10
-29.6767544730696
20
-24.3967534213072
30
0
41
1
10
-29.6523055910378
20
-24.3933016683226
30
0
41
1
10
-29.6131243672125
20
-24.3925436087365
30
0
41
1
10
-29.6000508353934
20
-24.3930536283611
30
0
41
1
10
-29.5806717054708
20
-24.3949195287967
30
0
41
1
10
-29.5742366750987
20
-24.3957247993022
30
0
41
1
10
-29.5614151004037
20
-24.3976953639424
30
0
41
1
10
-29.5550230048589
20
-24.3988640733396
30
0
41
1
10
-29.5363073622061
20
-24.4028063272152
30
0
41
1
10
-29.5243022921503
20
-24.4060320150146
30
0
41
1
10
-29.5068779212194
20
-24.4116068402769
30
0
41
1
10
-29.50114834375
20
-24.4135960938607
30
0
41
1
10
-29.4900036076597
20
-24.4177483837353
30
0
41
1
10
-29.484578768072
20
-24.4199133191411
30
0
41
1
10
-29.4580971002331
20
-24.4311236437792
30
0
41
1
10
-29.4389209506668
20
-24.4412973917331
30
0
41
1
10
-29.4120872265571
20
-24.457698999175
30
0
41
1
10
-29.4035245412043
20
-24.4633321096359
30
0
41
1
10
-29.387158016365
20
-24.4747602711803
30
0
41
1
10
-29.3793271239457
20
-24.4805726057237
30
0
41
1
10
-29.3566962903126
20
-24.4982459673108
30
0
41
1
10
-29.3427483181501
20
-24.5103404165281
30
0
41
1
10
-29.3164845681924
20
-24.534959431532
30
0
41
1
10
-29.3041753684759
20
-24.5474859449115
30
0
41
1
10
-29.2808217297119
20
-24.5728577107547
30
0
41
1
10
-29.2697560782927
20
-24.5857342500623
30
0
41
1
10
-29.2383005465072
20
-24.6244718967428
30
0
41
1
10
-29.2196142181765
20
-24.6504245978206
30
0
41
1
10
-29.1852861768045
20
-24.7024219934759
30
0
41
1
10
-29.1696661131413
20
-24.7284689418226
30
0
41
1
10
-29.1262366946698
20
-24.8066234695309
30
0
41
1
10
-29.1018020626338
20
-24.8587387232847
30
0
41
1
10
-29.0588194294259
20
-24.9626392172791
30
0
41
1
10
-29.0403242114395
20
-25.0144370805193
30
0
41
1
10
-29.0078382963708
20
-25.117508460193
30
0
41
1
10
-28.9939221823799
20
-25.1685908497428
30
0
41
1
10
-28.9698169476719
20
-25.2698334324436
30
0
41
1
10
-28.9596357597192
20
-25.3199937194172
30
0
41
1
10
-28.9424792079014
20
-25.4193806289363
30
0
41
1
10
-28.9355072939868
20
-25.4686072980631
30
0
41
1
10
-28.9299867342798
20
-25.5173623141836
30
0
0
SPLINE
5
178
100
AcDbEntity
8
SK1
62
256
6
ByLayer
370
18
48
1
60
0
100
AcDbSpline
70
4
71
3
72
31
73
27
40
0
40
0
40
0
40
0
40
0.0625000000000008
40
0.0625000000000008
40
0.125000000000002
40
0.125000000000002
40
0.187500000000002
40
0.187500000000002
40
0.250000000000003
40
0.250000000000003
40
0.312500000000004
40
0.312500000000004
40
0.375000000000005
40
0.375000000000005
40
0.500000000000004
40
0.500000000000004
40
0.625000000000003
40
0.625000000000003
40
0.750000000000002
40
0.750000000000002
40
0.875000000000001
40
0.875000000000001
40
0.90625
40
0.90625
40
0.9375
40
1
40
1
40
1
40
1
41
1
10
-28.9299867342693
20
-25.5173623141831
30
0
41
1
10
-28.9249992119854
20
-25.5614097916618
30
0
41
1
10
-28.9131011853725
20
-25.6047724546614
30
0
41
1
10
-28.878709985513
20
-25.6903187488549
30
0
41
1
10
-28.8562778296126
20
-25.7325049521451
30
0
41
1
10
-28.8046024097216
20
-25.8158894723053
30
0
41
1
10
-28.7753500470303
20
-25.857117823879
30
0
41
1
10
-28.7132552627651
20
-25.9384348260886
30
0
41
1
10
-28.6803845598216
20
-25.9785659352973
30
0
41
1
10
-28.6130267822748
20
-26.0579766087288
30
0
41
1
10
-28.5785303543283
20
-26.097255069853
30
0
41
1
10
-28.5092927415263
20
-26.1750876019278
30
0
41
1
10
-28.4745451286651
20
-26.2136409517519
30
0
41
1
10
-28.3713973005541
20
-26.3283364160836
30
0
41
1
10
-28.304154273918
20
-26.4035220361503
30
0
41
1
10
-28.1779948609136
20
-26.5516839937104
30
0
41
1
10
-28.1190243690582
20
-26.6246549459457
30
0
41
1
10
-28.0130751719201
20
-26.7685100678958
30
0
41
1
10
-27.966065778859
20
-26.8393918958249
30
0
41
1
10
-27.8874501051378
20
-26.9790934154785
30
0
41
1
10
-27.8558119099896
20
-27.0479116970118
30
0
41
1
10
-27.8283966080208
20
-27.1326309678901
30
0
41
1
10
-27.8235174518122
20
-27.1495327786349
30
0
41
1
10
-27.8150831313529
20
-27.1830949143131
30
0
41
1
10
-27.8044376016243
20
-27.232980194625
30
0
41
1
10
-27.7999999999996
20
-27.2814840571301
30
0
41
1
10
-27.7999999999996
20
-27.3131973718395
30
0
0
LINE
5
84
100
AcDbEntity
8
4
62
256
6
ByLayer
370
18
48
0.05
60
0
100
AcDbLine
10
0
20
0
30
0
11
95
21
0
31
0
39
0
210
0
220
0
230
1
0
LINE
5
86
100
AcDbEntity
8
81
62
256
6
ByLayer
370
18
48
1
60
0
100
AcDbLine
10
95
20
0
30
0
11
100
21
0
31
0
39
0
210
0
220
0
230
1
0
LINE
5
87
100
AcDbEntity
8
80
62
256
6
ByLayer
370
18
48
1
60
0
100
AcDbLine
10
0
20
0
30
0
11
-5
21
0
31
0
39
0
210
0
220
0
230
1
0
LINE
5
88
100
AcDbEntity
8
1
62
256
6
ByLayer
370
18
48
1
60
0
100
AcDbLine
10
25.25
20
38.939512
30
0
11
21.51895
21
38.939512
31
0
39
0
210
0
220
0
230
1
0
LINE
5
8A
100
AcDbEntity
8
1
62
256
6
ByLayer
370
18
48
1
60
0
100
AcDbLine
10
16.075
20
36.099987
30
0
11
16.075
21
27.694799
31
0
39
0
210
0
220
0
230
1
0
LINE
5
8B
100
AcDbEntity
8
1
62
256
6
ByLayer
370
18
48
1
60
0
100
AcDbLine
10
25.95
20
24.85
30
0
11
25.95
21
30.407407
31
0
39
0
210
0
220
0
230
1
0
LINE
5
8C
100
AcDbEntity
8
1
62
256
6
ByLayer
370
18
48
1
60
0
100
AcDbLine
10
25.25
20
31.306204
30
0
11
21.51895
21
31.306204
31
0
39
0
210
0
220
0
230
1
0
LINE
5
8D
100
AcDbEntity
8
1
62
256
6
ByLayer
370
18
48
1
60
0
100
AcDbLine
10
19.925
20
27.694799
30
0
11
19.925
21
25.176738
31
0
39
0
210
0
220
0
230
1
0
LINE
5
8E
100
AcDbEntity
8
1
62
256
6
ByLayer
370
18
48
1
60
0
100
AcDbLine
10
16.075
20
25.176738
30
0
11
16.075
21
27.694799
31
0
39
0
210
0
220
0
230
1
0
LINE
5
8F
100
AcDbEntity
8
1
62
256
6
ByLayer
370
18
48
1
60
0
100
AcDbLine
10
25.95
20
38.220644
30
0
11
25.95
21
30.407407
31
0
39
0
210
0
220
0
230
1
0
LINE
5
90
100
AcDbEntity
8
1
62
256
6
ByLayer
370
18
48
1
60
0
100
AcDbLine
10
25.25
20
31.306204
30
0
11
25.25
21
38.939512
31
0
39
0
210
0
220
0
230
1
0
LINE
5
91
100
AcDbEntity
8
1
62
256
6
ByLayer
370
18
48
1
60
0
100
AcDbLine
10
21.51895
20
38.939512
30
0
11
21.51895
21
31.306204
31
0
39
0
210
0
220
0
230
1
0
LINE
5
92
100
AcDbEntity
8
1
62
256
6
ByLayer
370
18
48
1
60
0
100
AcDbLine
10
19.925
20
36.099987
30
0
11
19.925
21
27.694799
31
0
39
0
210
0
220
0
230
1
0
LINE
5
93
100
AcDbEntity
8
1
62
256
6
ByLayer
370
13
48
1
60
0
100
AcDbLine
10
27.624598
20
-25.8
30
0
11
27.624598
21
25.8
31
0
39
0
210
0
220
0
230
1
0
LINE
5
94
100
AcDbEntity
8
1
62
256
6
ByLayer
370
18
48
1
60
0
100
AcDbLine
10
28.45
20
26
30
0
11
28.45
21
-26
31
0
39
0
210
0
220
0
230
1
0
LINE
5
95
100
AcDbEntity
8
1
62
256
6
ByLayer
370
13
48
1
60
0
100
AcDbLine
10
27.77989
20
-25.820445
30
0
11
27.77989
21
25.820445
31
0
39
0
210
0
220
0
230
1
0
LINE
5
96
100
AcDbEntity
8
1
62
256
6
ByLayer
370
18
48
1
60
0
100
AcDbLine
10
93
20
-26
30
0
11
93
21
26
31
0
39
0
210
0
220
0
230
1
0
LINE
5
97
100
AcDbEntity
8
1
62
256
6
ByLayer
370
18
48
1
60
0
100
AcDbLine
10
95
20
24
30
0
11
95
21
-24
31
0
39
0
210
0
220
0
230
1
0
LINE
5
98
100
AcDbEntity
8
1
62
256
6
ByLayer
370
13
48
1
60
0
100
AcDbLine
10
26.95
20
-25.8
30
0
11
26.95
21
25.8
31
0
39
0
210
0
220
0
230
1
0
LINE
5
99
100
AcDbEntity
8
1
62
256
6
ByLayer
370
13
48
1
60
0
100
AcDbLine
10
12.594215
20
31.306204
30
0
11
12.594215
21
24.85
31
0
39
0
210
0
220
0
230
1
0
LINE
5
9A
100
AcDbEntity
8
1
62
256
6
ByLayer
370
18
48
1
60
0
100
AcDbLine
10
19.525
20
33.9
30
0
11
16.475
21
33.9
31
0
39
0
210
0
220
0
230
1
0
LINE
5
9B
100
AcDbEntity
8
1
62
256
6
ByLayer
370
18
48
1
60
0
100
AcDbLine
10
19.525
20
-33.9
30
0
11
16.475
21
-33.9
31
0
39
0
210
0
220
0
230
1
0
LINE
5
9C
100
AcDbEntity
8
1
62
256
6
ByLayer
370
13
48
1
60
0
100
AcDbLine
10
19.525
20
33.9
30
0
11
19.525
21
12.765197
31
0
39
0
210
0
220
0
230
1
0
LINE
5
9D
100
AcDbEntity
8
1
62
256
6
ByLayer
370
13
48
1
60
0
100
AcDbLine
10
19.525
20
11.151906
30
0
11
19.525
21
6.916888
31
0
39
0
210
0
220
0
230
1
0
LINE
5
9E
100
AcDbEntity
8
1
62
256
6
ByLayer
370
13
48
1
60
0
100
AcDbLine
10
19.525
20
5.226142
30
0
11
19.525
21
-5.226142
31
0
39
0
210
0
220
0
230
1
0
LINE
5
9F
100
AcDbEntity
8
1
62
256
6
ByLayer
370
13
48
1
60
0
100
AcDbLine
10
19.525
20
-6.916888
30
0
11
19.525
21
-11.151906
31
0
39
0
210
0
220
0
230
1
0
LINE
5
A0
100
AcDbEntity
8
1
62
256
6
ByLayer
370
13
48
1
60
0
100
AcDbLine
10
19.525
20
-12.765197
30
0
11
19.525
21
-33.9
31
0
39
0
210
0
220
0
230
1
0
LINE
5
A1
100
AcDbEntity
8
1
62
256
6
ByLayer
370
13
48
1
60
0
100
AcDbLine
10
16.475
20
-12.765197
30
0
11
16.475
21
-33.9
31
0
39
0
210
0
220
0
230
1
0
LINE
5
A2
100
AcDbEntity
8
1
62
256
6
ByLayer
370
13
48
1
60
0
100
AcDbLine
10
16.475
20
-6.916888
30
0
11
16.475
21
-11.151906
31
0
39
0
210
0
220
0
230
1
0
LINE
5
A3
100
AcDbEntity
8
1
62
256
6
ByLayer
370
13
48
1
60
0
100
AcDbLine
10
16.475
20
5.226142
30
0
11
16.475
21
-5.226142
31
0
39
0
210
0
220
0
230
1
0
LINE
5
A4
100
AcDbEntity
8
1
62
256
6
ByLayer
370
13
48
1
60
0
100
AcDbLine
10
16.475
20
11.151906
30
0
11
16.475
21
6.916888
31
0
39
0
210
0
220
0
230
1
0
LINE
5
A5
100
AcDbEntity
8
1
62
256
6
ByLayer
370
13
48
1
60
0
100
AcDbLine
10
16.475
20
33.9
30
0
11
16.475
21
12.765197
31
0
39
0
210
0
220
0
230
1
0
LINE
5
A6
100
AcDbEntity
8
1
62
256
6
ByLayer
370
18
48
1
60
0
100
AcDbLine
10
0
20
-39.27
30
0
11
0
21
39.27
31
0
39
0
210
0
220
0
230
1
0
LINE
5
A7
100
AcDbEntity
8
1
62
256
6
ByLayer
370
18
48
1
60
0
100
AcDbLine
10
0.7
20
-39.97
30
0
11
0.7
21
39.97
31
0
39
0
210
0
220
0
230
1
0
LINE
5
A8
100
AcDbEntity
8
1
62
256
6
ByLayer
370
18
48
1
60
0
100
AcDbLine
10
3.95
20
-39.956958
30
0
11
3.95
21
-39.97
31
0
39
0
210
0
220
0
230
1
0
LINE
5
A9
100
AcDbEntity
8
1
62
256
6
ByLayer
370
18
48
1
60
0
100
AcDbLine
10
14.48105
20
-38.693416
30
0
11
12.95
21
-38.693416
31
0
39
0
210
0
220
0
230
1
0
LINE
5
AA
100
AcDbEntity
8
1
62
256
6
ByLayer
370
18
48
1
60
0
100
AcDbLine
10
14.48105
20
24.85
30
0
11
3.961191
21
24.85
31
0
39
0
210
0
220
0
230
1
0
LINE
5
AB
100
AcDbEntity
8
1
62
256
6
ByLayer
370
18
48
1
60
0
100
AcDbLine
10
14.48105
20
31.306204
30
0
11
12.594215
21
31.306204
31
0
39
0
210
0
220
0
230
1
0
LINE
5
AC
100
AcDbEntity
8
1
62
256
6
ByLayer
370
18
48
1
60
0
100
AcDbLine
10
14.48105
20
31.306204
30
0
11
14.48105
21
38.939512
31
0
39
0
210
0
220
0
230
1
0
LINE
5
AD
100
AcDbEntity
8
1
62
256
6
ByLayer
370
18
48
1
60
0
100
AcDbLine
10
14.48105
20
38.939512
30
0
11
12.95
21
38.939512
31
0
39
0
210
0
220
0
230
1
0
LINE
5
AE
100
AcDbEntity
8
1
62
256
6
ByLayer
370
18
48
1
60
0
100
AcDbLine
10
25.95
20
24.85
30
0
11
25.95
21
-37.969889
31
0
39
0
210
0
220
0
230
1
0
LINE
5
AF
100
AcDbEntity
8
1
62
256
6
ByLayer
370
18
48
1
60
0
100
AcDbLine
10
25.25
20
-38.693416
30
0
11
21.51895
21
-38.693416
31
0
39
0
210
0
220
0
230
1
0
LINE
5
B0
100
AcDbEntity
8
1
62
256
6
ByLayer
370
18
48
1
60
0
100
AcDbLine
10
25.25
20
-38.693416
30
0
11
25.25
21
24.85
31
0
39
0
210
0
220
0
230
1
0
LINE
5
B1
100
AcDbEntity
8
1
62
256
6
ByLayer
370
18
48
1
60
0
100
AcDbLine
10
25.25
20
24.85
30
0
11
21.51895
21
24.85
31
0
39
0
210
0
220
0
230
1
0
LINE
5
B2
100
AcDbEntity
8
1
62
256
6
ByLayer
370
18
48
1
60
0
100
AcDbLine
10
16.075
20
24.85
30
0
11
16.075
21
-35.834396
31
0
39
0
210
0
220
0
230
1
0
LINE
5
B3
100
AcDbEntity
8
1
62
256
6
ByLayer
370
18
48
1
60
0
100
AcDbLine
10
14.48105
20
-38.693416
30
0
11
14.48105
21
24.85
31
0
39
0
210
0
220
0
230
1
0
LINE
5
B4
100
AcDbEntity
8
1
62
256
6
ByLayer
370
18
48
1
60
0
100
AcDbLine
10
21.51895
20
24.85
30
0
11
21.51895
21
-38.693416
31
0
39
0
210
0
220
0
230
1
0
LINE
5
B5
100
AcDbEntity
8
1
62
256
6
ByLayer
370
18
48
1
60
0
100
AcDbLine
10
19.925
20
24.85
30
0
11
19.925
21
-35.834396
31
0
39
0
210
0
220
0
230
1
0
LINE
5
B6
100
AcDbEntity
8
SK1
62
256
6
ByLayer
370
13
48
1
60
0
100
AcDbLine
10
-33.7
20
25.795
30
0
11
-33.7
21
25.670337
31
0
39
0
210
0
220
0
230
1
0
LINE
5
B8
100
AcDbEntity
8
SK1
62
256
6
ByLayer
370
18
48
1
60
0
100
AcDbLine
10
-39.9
20
-24.09875
30
0
11
-39.9
21
-24.097652
31
0
39
0
210
0
220
0
230
1
0
LINE
5
B9
100
AcDbEntity
8
SK1
62
256
6
ByLayer
370
18
48
1
60
0
100
AcDbLine
10
-38.25
20
25.795
30
0
11
-38.25
21
25.789398
31
0
39
0
210
0
220
0
230
1
0
LINE
5
BA
100
AcDbEntity
8
SK1
62
256
6
ByLayer
370
18
48
1
60
0
100
AcDbLine
10
-38.20375
20
-25.795
30
0
11
-38.20375
21
-25.78574
31
0
39
0
210
0
220
0
230
1
0
LINE
5
BB
100
AcDbEntity
8
SK1
62
256
6
ByLayer
370
13
48
1
60
0
100
AcDbLine
10
-29.7
20
-25.372105
30
0
11
-29.7
21
-25.795
31
0
39
0
210
0
220
0
230
1
0
LINE
5
BC
100
AcDbEntity
8
SK1
62
256
6
ByLayer
370
13
48
1
60
0
100
AcDbLine
10
-29.7
20
-25.372105
30
0
11
-32.183248
21
-25.372105
31
0
39
0
210
0
220
0
230
1
0
LINE
5
BD
100
AcDbEntity
8
SK1
62
256
6
ByLayer
370
13
48
1
60
0
100
AcDbLine
10
-29.7
20
-25.372105
30
0
11
-29.7
21
-24.402316
31
0
39
0
210
0
220
0
230
1
0
LINE
5
BE
100
AcDbEntity
8
SK1
62
256
6
ByLayer
370
13
48
1
60
0
100
AcDbLine
10
-39.869406
20
23.929204
30
0
11
-38.610957
21
25.05049
31
0
39
0
210
0
220
0
230
1
0
LINE
5
BF
100
AcDbEntity
8
SK1
62
256
6
ByLayer
370
13
48
1
60
0
100
AcDbLine
10
-39.883513
20
-23.875425
30
0
11
-38.528713
21
-25.082561
31
0
39
0
210
0
220
0
230
1
0
LINE
5
C0
100
AcDbEntity
8
SK1
62
256
6
ByLayer
370
18
48
1
60
0
100
AcDbLine
10
-39.899931
20
24.14473
30
0
11
-39.9
21
24.143873
31
0
39
0
210
0
220
0
230
1
0
LINE
5
C1
100
AcDbEntity
8
SK1
62
256
6
ByLayer
370
18
48
1
60
0
100
AcDbLine
10
-39.9
20
-24.097652
30
0
11
-39.9
21
24.143873
31
0
39
0
210
0
220
0
230
1
0
LINE
5
C2
100
AcDbEntity
8
SK1
62
256
6
ByLayer
370
18
48
1
60
0
100
AcDbLine
10
-31.8
20
27.18969
30
0
11
-31.8
21
28.813615
31
0
39
0
210
0
220
0
230
1
0
LINE
5
C3
100
AcDbEntity
8
SK1
62
256
6
ByLayer
370
13
48
1
60
0
100
AcDbLine
10
-38.38006
20
25.626706
30
0
11
-38.38006
21
-25.540685
31
0
39
0
210
0
220
0
230
1
0
LINE
5
C4
100
AcDbEntity
8
SK1
62
256
6
ByLayer
370
18
48
1
60
0
100
AcDbLine
10
-27.8
20
-27.313197
30
0
11
-27.8
21
-29.014016
31
0
39
0
210
0
220
0
230
1
0
LINE
5
C5
100
AcDbEntity
8
SK1
62
256
6
ByLayer
370
18
48
1
60
0
100
AcDbLine
10
-2.066987
20
-30.031551
30
0
11
-2.066987
21
30.031551
31
0
39
0
210
0
220
0
230
1
0
LINE
5
C6
100
AcDbEntity
8
SK1
62
256
6
ByLayer
370
18
48
1
60
0
100
AcDbLine
10
-2.5
20
-30.281551
30
0
11
-2.5
21
30.281551
31
0
39
0
210
0
220
0
230
1
0
LINE
5
C7
100
AcDbEntity
8
SK1
62
256
6
ByLayer
370
13
48
1
60
0
100
AcDbLine
10
-0.8
20
-30.031551
30
0
11
-0.8
21
30.031551
31
0
39
0
210
0
220
0
230
1
0
LINE
5
C8
100
AcDbEntity
8
1
62
256
6
ByLayer
370
18
48
1
60
0
100
AcDbLine
10
3.95
20
39.97
30
0
11
3.949285
21
39.97
31
0
39
0
210
0
220
0
230
1
0
LINE
5
C9
100
AcDbEntity
8
1
62
256
6
ByLayer
370
18
48
1
60
0
100
AcDbLine
10
3.949285
20
39.97
30
0
11
3.948977
21
39.97
31
0
39
0
210
0
220
0
230
1
0
LINE
5
CA
100
AcDbEntity
8
1
62
256
6
ByLayer
370
18
48
1
60
0
100
AcDbLine
10
27.624598
20
25.8
30
0
11
26.95
21
25.8
31
0
39
0
210
0
220
0
230
1
0
LINE
5
CB
100
AcDbEntity
8
1
62
256
6
ByLayer
370
18
48
1
60
0
100
AcDbLine
10
26.95
20
-25.8
30
0
11
27.624598
21
-25.8
31
0
39
0
210
0
220
0
230
1
0
LINE
5
CC
100
AcDbEntity
8
1
62
256
6
ByLayer
370
18
48
1
60
0
100
AcDbLine
10
28.45
20
-26
30
0
11
93
21
-26
31
0
39
0
210
0
220
0
230
1
0
LINE
5
CD
100
AcDbEntity
8
1
62
256
6
ByLayer
370
18
48
1
60
0
100
AcDbLine
10
93
20
26
30
0
11
28.45
21
26
31
0
39
0
210
0
220
0
230
1
0
LINE
5
CE
100
AcDbEntity
8
1
62
256
6
ByLayer
370
18
48
1
60
0
100
AcDbLine
10
27.77989
20
-25.820445
30
0
11
28.45
21
-26
31
0
39
0
210
0
220
0
230
1
0
LINE
5
CF
100
AcDbEntity
8
1
62
256
6
ByLayer
370
18
48
1
60
0
100
AcDbLine
10
28.45
20
26
30
0
11
27.77989
21
25.820445
31
0
39
0
210
0
220
0
230
1
0
LINE
5
D0
100
AcDbEntity
8
1
62
256
6
ByLayer
370
18
48
1
60
0
100
AcDbLine
10
95
20
24
30
0
11
93
21
26
31
0
39
0
210
0
220
0
230
1
0
LINE
5
D1
100
AcDbEntity
8
1
62
256
6
ByLayer
370
18
48
1
60
0
100
AcDbLine
10
93
20
-26
30
0
11
95
21
-24
31
0
39
0
210
0
220
0
230
1
0
LINE
5
D2
100
AcDbEntity
8
1
62
256
6
ByLayer
370
18
48
1
60
0
100
AcDbLine
10
0
20
-39.27
30
0
11
0.7
21
-39.97
31
0
39
0
210
0
220
0
230
1
0
LINE
5
D3
100
AcDbEntity
8
1
62
256
6
ByLayer
370
18
48
1
60
0
100
AcDbLine
10
0.7
20
39.97
30
0
11
0
21
39.27
31
0
39
0
210
0
220
0
230
1
0
LINE
5
D4
100
AcDbEntity
8
1
62
256
6
ByLayer
370
18
48
1
60
0
100
AcDbLine
10
3.948977
20
39.97
30
0
11
0.7
21
39.97
31
0
39
0
210
0
220
0
230
1
0
LINE
5
D5
100
AcDbEntity
8
1
62
256
6
ByLayer
370
18
48
1
60
0
100
AcDbLine
10
0.7
20
-39.97
30
0
11
3.95
21
-39.97
31
0
39
0
210
0
220
0
230
1
0
LINE
5
D6
100
AcDbEntity
8
SK1
62
256
6
ByLayer
370
18
48
1
60
0
100
AcDbLine
10
-39.900533
20
24.144467
30
0
11
-39.902624
21
24.142376
31
0
39
0
210
0
220
0
230
1
0
LINE
5
D7
100
AcDbEntity
8
SK1
62
256
6
ByLayer
370
18
48
1
60
0
100
AcDbLine
10
-33.7
20
25.795
30
0
11
-38.25
21
25.795
31
0
39
0
210
0
220
0
230
1
0
LINE
5
D8
100
AcDbEntity
8
SK1
62
256
6
ByLayer
370
18
48
1
60
0
100
AcDbLine
10
-39.9
20
-24.09875
30
0
11
-38.20375
21
-25.795
31
0
39
0
210
0
220
0
230
1
0
LINE
5
D9
100
AcDbEntity
8
SK1
62
256
6
ByLayer
370
18
48
1
60
0
100
AcDbLine
10
-38.25
20
25.795
30
0
11
-39.900555
21
24.144445
31
0
39
0
210
0
220
0
230
1
0
LINE
5
DA
100
AcDbEntity
8
SK1
62
256
6
ByLayer
370
18
48
1
60
0
100
AcDbLine
10
-38.20375
20
-25.795
30
0
11
-29.7
21
-25.795
31
0
39
0
210
0
220
0
230
1
0
LINE
5
DB
100
AcDbEntity
8
SK1
62
256
6
ByLayer
370
18
48
1
60
0
100
AcDbLine
10
-0.8
20
30.031551
30
0
11
-2.066987
21
30.031551
31
0
39
0
210
0
220
0
230
1
0
LINE
5
DC
100
AcDbEntity
8
SK1
62
256
6
ByLayer
370
18
48
1
60
0
100
AcDbLine
10
-2.066987
20
-30.031551
30
0
11
-0.8
21
-30.031551
31
0
39
0
210
0
220
0
230
1
0
LINE
5
DD
100
AcDbEntity
8
SK1
62
256
6
ByLayer
370
18
48
1
60
0
100
AcDbLine
10
-27.8
20
-29.014016
30
0
11
-16.738948
21
-29.568177
31
0
39
0
210
0
220
0
230
1
0
LINE
5
DE
100
AcDbEntity
8
SK1
62
256
6
ByLayer
370
18
48
1
60
0
100
AcDbLine
10
-6.763684
20
-30.06794
30
0
11
-2.5
21
-30.281551
31
0
39
0
210
0
220
0
230
1
0
LINE
5
DF
100
AcDbEntity
8
SK1
62
256
6
ByLayer
370
18
48
1
60
0
100
AcDbLine
10
-2.5
20
30.281551
30
0
11
-6.763372
21
30.067955
31
0
39
0
210
0
220
0
230
1
0
LINE
5
E0
100
AcDbEntity
8
SK1
62
256
6
ByLayer
370
18
48
1
60
0
100
AcDbLine
10
-16.735277
20
29.568361
30
0
11
-31.8
21
28.813615
31
0
39
0
210
0
220
0
230
1
0
LINE
5
E1
100
AcDbEntity
8
SK1
62
256
6
ByLayer
370
18
48
1
60
0
100
AcDbLine
10
-2.066987
20
30.031551
30
0
11
-2.5
21
30.281551
31
0
39
0
210
0
220
0
230
1
0
LINE
5
E2
100
AcDbEntity
8
SK1
62
256
6
ByLayer
370
18
48
1
60
0
100
AcDbLine
10
-2.5
20
-30.281551
30
0
11
-2.066987
21
-30.031551
31
0
39
0
210
0
220
0
230
1
0
LINE
5
E3
100
AcDbEntity
8
SK2
62
256
6
ByLayer
370
18
48
1
60
0
100
AcDbLine
10
121.725
20
26
30
0
11
121.725
21
-26
31
0
39
0
210
0
220
0
230
1
0
LINE
5
E5
100
AcDbEntity
8
SK2
62
256
6
ByLayer
370
18
48
1
60
0
100
AcDbLine
10
94.5875
20
-26
30
0
11
123.725
21
-26
31
0
39
0
210
0
220
0
230
1
0
LINE
5
E6
100
AcDbEntity
8
SK2
62
256
6
ByLayer
370
18
48
1
60
0
100
AcDbLine
10
94.5875
20
26
30
0
11
123.725
21
26
31
0
39
0
210
0
220
0
230
1
0
LINE
5
E7
100
AcDbEntity
8
1
62
256
6
ByLayer
370
18
48
1
60
1
100
AcDbLine
10
121.725
20
-26
30
0
11
121.264216
21
-22.500002
31
0
39
0
210
0
220
0
230
1
0
LINE
5
E8
100
AcDbEntity
8
1
62
256
6
ByLayer
370
18
48
1
60
1
100
AcDbLine
10
121.264216
20
-22.500002
30
0
11
122.185784
21
-22.499998
31
0
39
0
210
0
220
0
230
1
0
LINE
5
E9
100
AcDbEntity
8
1
62
256
6
ByLayer
370
18
48
1
60
1
100
AcDbLine
10
122.185784
20
-22.499998
30
0
11
121.725
21
-26
31
0
39
0
210
0
220
0
230
1
0
LINE
5
EA
100
AcDbEntity
8
1
62
256
6
ByLayer
370
18
48
1
60
1
100
AcDbLine
10
121.725
20
26
30
0
11
122.185784
21
22.500002
31
0
39
0
210
0
220
0
230
1
0
LINE
5
EB
100
AcDbEntity
8
1
62
256
6
ByLayer
370
18
48
1
60
1
100
AcDbLine
10
122.185784
20
22.500002
30
0
11
121.264216
21
22.499998
31
0
39
0
210
0
220
0
230
1
0
LINE
5
EC
100
AcDbEntity
8
1
62
256
6
ByLayer
370
18
48
1
60
1
100
AcDbLine
10
121.264216
20
22.499998
30
0
11
121.725
21
26
31
0
39
0
210
0
220
0
230
1
0
LINE
5
ED
100
AcDbEntity
8
SK2
62
256
6
ByLayer
370
18
48
1
60
0
100
AcDbLine
10
-56.875
20
-39.97
30
0
11
-56.875
21
39.97
31
0
39
0
210
0
220
0
230
1
0
LINE
5
EE
100
AcDbEntity
8
SK2
62
256
6
ByLayer
370
18
48
1
60
0
100
AcDbLine
10
-0.8875
20
39.97
30
0
11
-58.875
21
39.97
31
0
39
0
210
0
220
0
230
1
0
LINE
5
EF
100
AcDbEntity
8
SK2
62
256
6
ByLayer
370
18
48
1
60
0
100
AcDbLine
10
-0.8875
20
-39.97
30
0
11
-58.875
21
-39.97
31
0
39
0
210
0
220
0
230
1
0
LINE
5
F0
100
AcDbEntity
8
1
62
256
6
ByLayer
370
18
48
1
60
1
100
AcDbLine
10
-56.875
20
39.97
30
0
11
-56.414216
21
36.470002
31
0
39
0
210
0
220
0
230
1
0
LINE
5
F1
100
AcDbEntity
8
1
62
256
6
ByLayer
370
18
48
1
60
1
100
AcDbLine
10
-56.414216
20
36.470002
30
0
11
-57.335784
21
36.469998
31
0
39
0
210
0
220
0
230
1
0
LINE
5
F2
100
AcDbEntity
8
1
62
256
6
ByLayer
370
18
48
1
60
1
100
AcDbLine
10
-57.335784
20
36.469998
30
0
11
-56.875
21
39.97
31
0
39
0
210
0
220
0
230
1
0
LINE
5
F3
100
AcDbEntity
8
1
62
256
6
ByLayer
370
18
48
1
60
1
100
AcDbLine
10
-56.875
20
-39.97
30
0
11
-57.335784
21
-36.470002
31
0
39
0
210
0
220
0
230
1
0
LINE
5
F4
100
AcDbEntity
8
1
62
256
6
ByLayer
370
18
48
1
60
1
100
AcDbLine
10
-57.335784
20
-36.470002
30
0
11
-56.414216
21
-36.469998
31
0
39
0
210
0
220
0
230
1
0
LINE
5
F5
100
AcDbEntity
8
1
62
256
6
ByLayer
370
18
48
1
60
1
100
AcDbLine
10
-56.414216
20
-36.469998
30
0
11
-56.875
21
-39.97
31
0
39
0
210
0
220
0
230
1
0
LINE
5
F6
100
AcDbEntity
8
2
62
256
6
ByLayer
370
18
48
1
60
0
100
AcDbLine
10
25.95
20
52.82
30
0
11
95
21
52.82
31
0
39
0
210
0
220
0
230
1
0
LINE
5
F7
100
AcDbEntity
8
2
62
256
6
ByLayer
370
18
48
1
60
0
100
AcDbLine
10
95
20
25.5875
30
0
11
95
21
54.82
31
0
39
0
210
0
220
0
230
1
0
LINE
5
F8
100
AcDbEntity
8
2
62
256
6
ByLayer
370
18
48
1
60
0
100
AcDbLine
10
25.95
20
39.808144
30
0
11
25.95
21
54.82
31
0
39
0
210
0
220
0
230
1
0
LINE
5
F9
100
AcDbEntity
8
1
62
256
6
ByLayer
370
18
48
1
60
1
100
AcDbLine
10
95
20
52.82
30
0
11
91.500002
21
52.359216
31
0
39
0
210
0
220
0
230
1
0
LINE
5
FA
100
AcDbEntity
8
1
62
256
6
ByLayer
370
18
48
1
60
1
100
AcDbLine
10
91.500002
20
52.359216
30
0
11
91.499998
21
53.280784
31
0
39
0
210
0
220
0
230
1
0
LINE
5
FB
100
AcDbEntity
8
1
62
256
6
ByLayer
370
18
48
1
60
1
100
AcDbLine
10
91.499998
20
53.280784
30
0
11
95
21
52.82
31
0
39
0
210
0
220
0
230
1
0
LINE
5
FC
100
AcDbEntity
8
1
62
256
6
ByLayer
370
18
48
1
60
1
100
AcDbLine
10
25.95
20
52.82
30
0
11
29.449998
21
53.280784
31
0
39
0
210
0
220
0
230
1
0
LINE
5
FD
100
AcDbEntity
8
1
62
256
6
ByLayer
370
18
48
1
60
1
100
AcDbLine
10
29.449998
20
53.280784
30
0
11
29.450002
21
52.359216
31
0
39
0
210
0
220
0
230
1
0
LINE
5
FE
100
AcDbEntity
8
1
62
256
6
ByLayer
370
18
48
1
60
1
100
AcDbLine
10
29.450002
20
52.359216
30
0
11
25.95
21
52.82
31
0
39
0
210
0
220
0
230
1
0
LINE
5
FF
100
AcDbEntity
8
SK2
62
256
6
ByLayer
370
18
48
1
60
0
100
AcDbLine
10
95
20
62.82
30
0
11
0
21
62.82
31
0
39
0
210
0
220
0
230
1
0
LINE
5
100
100
AcDbEntity
8
SK2
62
256
6
ByLayer
370
18
48
1
60
0
100
AcDbLine
10
0
20
40.8575
30
0
11
0
21
64.82
31
0
39
0
210
0
220
0
230
1
0
LINE
5
101
100
AcDbEntity
8
SK2
62
256
6
ByLayer
370
18
48
1
60
0
100
AcDbLine
10
95
20
25.5875
30
0
11
95
21
64.82
31
0
39
0
210
0
220
0
230
1
0
LINE
5
102
100
AcDbEntity
8
1
62
256
6
ByLayer
370
18
48
1
60
1
100
AcDbLine
10
0
20
62.82
30
0
11
3.499998
21
63.280784
31
0
39
0
210
0
220
0
230
1
0
LINE
5
103
100
AcDbEntity
8
1
62
256
6
ByLayer
370
18
48
1
60
1
100
AcDbLine
10
3.499998
20
63.280784
30
0
11
3.500002
21
62.359216
31
0
39
0
210
0
220
0
230
1
0
LINE
5
104
100
AcDbEntity
8
1
62
256
6
ByLayer
370
18
48
1
60
1
100
AcDbLine
10
3.500002
20
62.359216
30
0
11
0
21
62.82
31
0
39
0
210
0
220
0
230
1
0
LINE
5
105
100
AcDbEntity
8
1
62
256
6
ByLayer
370
18
48
1
60
1
100
AcDbLine
10
95
20
62.82
30
0
11
91.500002
21
62.359216
31
0
39
0
210
0
220
0
230
1
0
LINE
5
106
100
AcDbEntity
8
1
62
256
6
ByLayer
370
18
48
1
60
1
100
AcDbLine
10
91.500002
20
62.359216
30
0
11
91.499998
21
63.280784
31
0
39
0
210
0
220
0
230
1
0
LINE
5
107
100
AcDbEntity
8
1
62
256
6
ByLayer
370
18
48
1
60
1
100
AcDbLine
10
91.499998
20
63.280784
30
0
11
95
21
62.82
31
0
39
0
210
0
220
0
230
1
0
LINE
5
108
100
AcDbEntity
8
SK2
62
256
6
ByLayer
370
18
48
1
60
0
100
AcDbLine
10
-39.9
20
62.82
30
0
11
0
21
62.82
31
0
39
0
210
0
220
0
230
1
0
LINE
5
109
100
AcDbEntity
8
SK2
62
256
6
ByLayer
370
18
48
1
60
0
100
AcDbLine
10
0
20
40.8575
30
0
11
0
21
64.82
31
0
39
0
210
0
220
0
230
1
0
LINE
5
10A
100
AcDbEntity
8
SK2
62
256
6
ByLayer
370
18
48
1
60
0
100
AcDbLine
10
-39.9
20
25.731373
30
0
11
-39.9
21
64.82
31
0
39
0
210
0
220
0
230
1
0
LINE
5
10B
100
AcDbEntity
8
1
62
256
6
ByLayer
370
18
48
1
60
1
100
AcDbLine
10
0
20
62.82
30
0
11
-3.499998
21
62.359216
31
0
39
0
210
0
220
0
230
1
0
LINE
5
10C
100
AcDbEntity
8
1
62
256
6
ByLayer
370
18
48
1
60
1
100
AcDbLine
10
-3.499998
20
62.359216
30
0
11
-3.500002
21
63.280784
31
0
39
0
210
0
220
0
230
1
0
LINE
5
10D
100
AcDbEntity
8
1
62
256
6
ByLayer
370
18
48
1
60
1
100
AcDbLine
10
-3.500002
20
63.280784
30
0
11
0
21
62.82
31
0
39
0
210
0
220
0
230
1
0
LINE
5
10E
100
AcDbEntity
8
1
62
256
6
ByLayer
370
18
48
1
60
1
100
AcDbLine
10
-39.9
20
62.82
30
0
11
-36.400002
21
63.280784
31
0
39
0
210
0
220
0
230
1
0
LINE
5
10F
100
AcDbEntity
8
1
62
256
6
ByLayer
370
18
48
1
60
1
100
AcDbLine
10
-36.400002
20
63.280784
30
0
11
-36.399998
21
62.359216
31
0
39
0
210
0
220
0
230
1
0
LINE
5
110
100
AcDbEntity
8
1
62
256
6
ByLayer
370
18
48
1
60
1
100
AcDbLine
10
-36.399998
20
62.359216
30
0
11
-39.9
21
62.82
31
0
39
0
210
0
220
0
230
1
0
LINE
5
17D
100
AcDbEntity
8
1
62
256
6
ByLayer
370
18
48
1
60
1
100
AcDbLine
10
121.725
20
-26
30
0
11
121.264216
21
-22.500002
31
0
39
0
210
0
220
0
230
1
0
LINE
5
17E
100
AcDbEntity
8
1
62
256
6
ByLayer
370
18
48
1
60
1
100
AcDbLine
10
121.264216
20
-22.500002
30
0
11
122.185784
21
-22.499998
31
0
39
0
210
0
220
0
230
1
0
LINE
5
17F
100
AcDbEntity
8
1
62
256
6
ByLayer
370
18
48
1
60
1
100
AcDbLine
10
122.185784
20
-22.499998
30
0
11
121.725
21
-26
31
0
39
0
210
0
220
0
230
1
0
LINE
5
181
100
AcDbEntity
8
1
62
256
6
ByLayer
370
18
48
1
60
1
100
AcDbLine
10
121.725
20
26
30
0
11
122.185784
21
22.500002
31
0
39
0
210
0
220
0
230
1
0
LINE
5
182
100
AcDbEntity
8
1
62
256
6
ByLayer
370
18
48
1
60
1
100
AcDbLine
10
122.185784
20
22.500002
30
0
11
121.264216
21
22.499998
31
0
39
0
210
0
220
0
230
1
0
LINE
5
183
100
AcDbEntity
8
1
62
256
6
ByLayer
370
18
48
1
60
1
100
AcDbLine
10
121.264216
20
22.499998
30
0
11
121.725
21
26
31
0
39
0
210
0
220
0
230
1
0
LINE
5
187
100
AcDbEntity
8
1
62
256
6
ByLayer
370
18
48
1
60
1
100
AcDbLine
10
-56.875
20
39.97
30
0
11
-56.414216
21
36.470002
31
0
39
0
210
0
220
0
230
1
0
LINE
5
188
100
AcDbEntity
8
1
62
256
6
ByLayer
370
18
48
1
60
1
100
AcDbLine
10
-56.414216
20
36.470002
30
0
11
-57.335784
21
36.469998
31
0
39
0
210
0
220
0
230
1
0
LINE
5
189
100
AcDbEntity
8
1
62
256
6
ByLayer
370
18
48
1
60
1
100
AcDbLine
10
-57.335784
20
36.469998
30
0
11
-56.875
21
39.97
31
0
39
0
210
0
220
0
230
1
0
LINE
5
18B
100
AcDbEntity
8
1
62
256
6
ByLayer
370
18
48
1
60
1
100
AcDbLine
10
-56.875
20
-39.97
30
0
11
-57.335784
21
-36.470002
31
0
39
0
210
0
220
0
230
1
0
LINE
5
18C
100
AcDbEntity
8
1
62
256
6
ByLayer
370
18
48
1
60
1
100
AcDbLine
10
-57.335784
20
-36.470002
30
0
11
-56.414216
21
-36.469998
31
0
39
0
210
0
220
0
230
1
0
LINE
5
18D
100
AcDbEntity
8
1
62
256
6
ByLayer
370
18
48
1
60
1
100
AcDbLine
10
-56.414216
20
-36.469998
30
0
11
-56.875
21
-39.97
31
0
39
0
210
0
220
0
230
1
0
LINE
5
190
100
AcDbEntity
8
1
62
256
6
ByLayer
370
18
48
1
60
1
100
AcDbLine
10
95
20
52.82
30
0
11
91.500002
21
52.359216
31
0
39
0
210
0
220
0
230
1
0
LINE
5
191
100
AcDbEntity
8
1
62
256
6
ByLayer
370
18
48
1
60
1
100
AcDbLine
10
91.500002
20
52.359216
30
0
11
91.499998
21
53.280784
31
0
39
0
210
0
220
0
230
1
0
LINE
5
192
100
AcDbEntity
8
1
62
256
6
ByLayer
370
18
48
1
60
1
100
AcDbLine
10
91.499998
20
53.280784
30
0
11
95
21
52.82
31
0
39
0
210
0
220
0
230
1
0
LINE
5
194
100
AcDbEntity
8
1
62
256
6
ByLayer
370
18
48
1
60
1
100
AcDbLine
10
25.95
20
52.82
30
0
11
29.449998
21
53.280784
31
0
39
0
210
0
220
0
230
1
0
LINE
5
195
100
AcDbEntity
8
1
62
256
6
ByLayer
370
18
48
1
60
1
100
AcDbLine
10
29.449998
20
53.280784
30
0
11
29.450002
21
52.359216
31
0
39
0
210
0
220
0
230
1
0
LINE
5
196
100
AcDbEntity
8
1
62
256
6
ByLayer
370
18
48
1
60
1
100
AcDbLine
10
29.450002
20
52.359216
30
0
11
25.95
21
52.82
31
0
39
0
210
0
220
0
230
1
0
LINE
5
199
100
AcDbEntity
8
1
62
256
6
ByLayer
370
18
48
1
60
1
100
AcDbLine
10
0
20
62.82
30
0
11
3.499998
21
63.280784
31
0
39
0
210
0
220
0
230
1
0
LINE
5
19A
100
AcDbEntity
8
1
62
256
6
ByLayer
370
18
48
1
60
1
100
AcDbLine
10
3.499998
20
63.280784
30
0
11
3.500002
21
62.359216
31
0
39
0
210
0
220
0
230
1
0
LINE
5
19B
100
AcDbEntity
8
1
62
256
6
ByLayer
370
18
48
1
60
1
100
AcDbLine
10
3.500002
20
62.359216
30
0
11
0
21
62.82
31
0
39
0
210
0
220
0
230
1
0
LINE
5
19D
100
AcDbEntity
8
1
62
256
6
ByLayer
370
18
48
1
60
1
100
AcDbLine
10
95
20
62.82
30
0
11
91.500002
21
62.359216
31
0
39
0
210
0
220
0
230
1
0
LINE
5
19E
100
AcDbEntity
8
1
62
256
6
ByLayer
370
18
48
1
60
1
100
AcDbLine
10
91.500002
20
62.359216
30
0
11
91.499998
21
63.280784
31
0
39
0
210
0
220
0
230
1
0
LINE
5
19F
100
AcDbEntity
8
1
62
256
6
ByLayer
370
18
48
1
60
1
100
AcDbLine
10
91.499998
20
63.280784
30
0
11
95
21
62.82
31
0
39
0
210
0
220
0
230
1
0
LINE
5
1A2
100
AcDbEntity
8
1
62
256
6
ByLayer
370
18
48
1
60
1
100
AcDbLine
10
0
20
62.82
30
0
11
-3.499998
21
62.359216
31
0
39
0
210
0
220
0
230
1
0
LINE
5
1A3
100
AcDbEntity
8
1
62
256
6
ByLayer
370
18
48
1
60
1
100
AcDbLine
10
-3.499998
20
62.359216
30
0
11
-3.500002
21
63.280784
31
0
39
0
210
0
220
0
230
1
0
LINE
5
1A4
100
AcDbEntity
8
1
62
256
6
ByLayer
370
18
48
1
60
1
100
AcDbLine
10
-3.500002
20
63.280784
30
0
11
0
21
62.82
31
0
39
0
210
0
220
0
230
1
0
LINE
5
1A6
100
AcDbEntity
8
1
62
256
6
ByLayer
370
18
48
1
60
1
100
AcDbLine
10
-39.9
20
62.82
30
0
11
-36.400002
21
63.280784
31
0
39
0
210
0
220
0
230
1
0
LINE
5
1A7
100
AcDbEntity
8
1
62
256
6
ByLayer
370
18
48
1
60
1
100
AcDbLine
10
-36.400002
20
63.280784
30
0
11
-36.399998
21
62.359216
31
0
39
0
210
0
220
0
230
1
0
LINE
5
1A8
100
AcDbEntity
8
1
62
256
6
ByLayer
370
18
48
1
60
1
100
AcDbLine
10
-36.399998
20
62.359216
30
0
11
-39.9
21
62.82
31
0
39
0
210
0
220
0
230
1
0
MTEXT
5
179
100
AcDbEntity
8
SK2
62
256
6
ByLayer
370
18
48
1
60
0
100
AcDbMText
10
120.160366
20
-4.530622
30
0
210
0
220
0
230
1
1
%%c
40
3.5
41
0
44
1.084337
50
90
71
7
72
5
7
iso_b_vert
0
MTEXT
5
17C
100
AcDbEntity
8
SK2
62
256
6
ByLayer
370
18
48
1
60
0
100
AcDbMText
10
120.160366
20
2.442034
30
0
210
0
220
0
230
1
1
\W0.6740;52
40
3.5
41
0
44
1.084337
50
90
71
7
72
5
7
iso_b_vert
0
MTEXT
5
185
100
AcDbEntity
8
SK2
62
256
6
ByLayer
370
18
48
1
60
0
100
AcDbMText
10
-58.439634
20
-4.530622
30
0
210
0
220
0
230
1
1
%%c
40
3.5
41
0
44
1.084337
50
90
71
7
72
5
7
iso_b_vert
0
MTEXT
5
186
100
AcDbEntity
8
SK2
62
256
6
ByLayer
370
18
48
1
60
0
100
AcDbMText
10
-58.439634
20
2.442034
30
0
210
0
220
0
230
1
1
\W0.6740;80
40
3.5
41
0
44
1.084337
50
90
71
7
72
5
7
iso_b_vert
0
MTEXT
5
18F
100
AcDbEntity
8
2
62
256
6
ByLayer
370
18
48
1
60
0
100
AcDbMText
10
58.570034
20
53.852634
30
0
210
0
220
0
230
1
1
\W0.6927;69
40
3.5
41
0
44
1.084337
50
0
71
7
72
5
7
iso_b_vert
0
MTEXT
5
198
100
AcDbEntity
8
SK2
62
256
6
ByLayer
370
18
48
1
60
0
100
AcDbMText
10
45.595034
20
63.852634
30
0
210
0
220
0
230
1
1
\W0.6740;95
40
3.5
41
0
44
1.084337
50
0
71
7
72
5
7
iso_b_vert
0
MTEXT
5
1A1
100
AcDbEntity
8
SK2
62
256
6
ByLayer
370
18
48
1
60
0
100
AcDbMText
10
-23.871699
20
63.852634
30
0
210
0
220
0
230
1
1
\W0.7457;39.9
40
3.5
41
0
44
1.084337
50
0
71
7
72
5
7
iso_b_vert
0
MTEXT
5
1AA
100
AcDbEntity
8
SK6
62
256
6
ByLayer
370
18
48
1
60
0
100
AcDbMText
10
57.015203
20
-92.114886
30
0
210
0
220
0
230
1
1
\W0.7759;HT08-DR32-A052-095
40
3
41
0
44
1.084337
50
0
71
7
72
5
7
iso_b_vert
0
HATCH
5
180
100
AcDbEntity
8
SK2
62
256
6
ByLayer
370
13
48
1
60
0
100
AcDbHatch
10
0
20
0
30
0
210
0
220
0
230
1
2
ANSI31
70
0
71
0
91
1
92
5
93
3
72
1
10
121.725
20
-25.9999999999999
11
121.264216258447
21
-22.5000016925531
72
1
10
121.264216258447
20
-22.5000016925531
11
122.185783741553
21
-22.4999983074467
72
1
10
122.185783741553
20
-22.4999983074467
11
121.725
21
-25.9999999999999
97
0
75
0
76
1
52
0
41
0.0062
77
0
78
1
53
45
43
0
44
0
45
-0.0139193969876572
46
0.0139193969876572
79
0
47
0
98
1
10
0
20
0
0
HATCH
5
184
100
AcDbEntity
8
SK2
62
256
6
ByLayer
370
13
48
1
60
0
100
AcDbHatch
10
0
20
0
30
0
210
0
220
0
230
1
2
ANSI31
70
0
71
0
91
1
92
5
93
3
72
1
10
121.725
20
26.0000000000001
11
122.185783741553
21
22.5000016925533
72
1
10
122.185783741553
20
22.5000016925533
11
121.264216258447
21
22.4999983074469
72
1
10
121.264216258447
20
22.4999983074469
11
121.725
21
26.0000000000001
97
0
75
0
76
1
52
0
41
0.0062
77
0
78
1
53
45
43
0
44
0
45
-0.0139193969876572
46
0.0139193969876572
79
0
47
0
98
1
10
0
20
0
0
HATCH
5
18A
100
AcDbEntity
8
SK2
62
256
6
ByLayer
370
13
48
1
60
0
100
AcDbHatch
10
0
20
0
30
0
210
0
220
0
230
1
2
ANSI31
70
0
71
0
91
1
92
5
93
3
72
1
10
-56.875
20
39.97
11
-56.4142162584473
21
36.4700016925532
72
1
10
-56.4142162584473
20
36.4700016925532
11
-57.3357837415528
21
36.4699983074468
72
1
10
-57.3357837415528
20
36.4699983074468
11
-56.875
21
39.97
97
0
75
0
76
1
52
0
41
0.0062
77
0
78
1
53
45
43
0
44
0
45
-0.0139193969876572
46
0.0139193969876572
79
0
47
0
98
1
10
0
20
0
0
HATCH
5
18E
100
AcDbEntity
8
SK2
62
256
6
ByLayer
370
13
48
1
60
0
100
AcDbHatch
10
0
20
0
30
0
210
0
220
0
230
1
2
ANSI31
70
0
71
0
91
1
92
5
93
3
72
1
10
-56.875
20
-39.97
11
-57.3357837415528
21
-36.4700016925532
72
1
10
-57.3357837415528
20
-36.4700016925532
11
-56.4142162584473
21
-36.4699983074468
72
1
10
-56.4142162584473
20
-36.4699983074468
11
-56.875
21
-39.97
97
0
75
0
76
1
52
0
41
0.0062
77
0
78
1
53
45
43
0
44
0
45
-0.0139193969876572
46
0.0139193969876572
79
0
47
0
98
1
10
0
20
0
0
HATCH
5
193
100
AcDbEntity
8
2
62
256
6
ByLayer
370
13
48
1
60
0
100
AcDbHatch
10
0
20
0
30
0
210
0
220
0
230
1
2
ANSI31
70
0
71
0
91
1
92
5
93
3
72
1
10
95
20
52.8200000000001
11
91.5000016925532
21
52.3592162584473
72
1
10
91.5000016925532
20
52.3592162584473
11
91.4999983074468
21
53.2807837415529
72
1
10
91.4999983074468
20
53.2807837415529
11
95
21
52.8200000000001
97
0
75
0
76
1
52
0
41
0.0062
77
0
78
1
53
45
43
0
44
0
45
-0.0139193969876572
46
0.0139193969876572
79
0
47
0
98
1
10
0
20
0
0
HATCH
5
197
100
AcDbEntity
8
2
62
256
6
ByLayer
370
13
48
1
60
0
100
AcDbHatch
10
0
20
0
30
0
210
0
220
0
230
1
2
ANSI31
70
0
71
0
91
1
92
5
93
3
72
1
10
25.95
20
52.8200000000001
11
29.4499983074468
21
53.2807837415529
72
1
10
29.4499983074468
20
53.2807837415529
11
29.4500016925532
21
52.3592162584473
72
1
10
29.4500016925532
20
52.3592162584473
11
25.95
21
52.8200000000001
97
0
75
0
76
1
52
0
41
0.0062
77
0
78
1
53
45
43
0
44
0
45
-0.0139193969876572
46
0.0139193969876572
79
0
47
0
98
1
10
0
20
0
0
HATCH
5
19C
100
AcDbEntity
8
SK2
62
256
6
ByLayer
370
13
48
1
60
0
100
AcDbHatch
10
0
20
0
30
0
210
0
220
0
230
1
2
ANSI31
70
0
71
0
91
1
92
5
93
3
72
1
10
0
20
62.8200000000001
11
3.4999983074468
21
63.2807837415529
72
1
10
3.4999983074468
20
63.2807837415529
11
3.5000016925532
21
62.3592162584473
72
1
10
3.5000016925532
20
62.3592162584473
11
0
21
62.8200000000001
97
0
75
0
76
1
52
0
41
0.0062
77
0
78
1
53
45
43
0
44
0
45
-0.0139193969876572
46
0.0139193969876572
79
0
47
0
98
1
10
0
20
0
0
HATCH
5
1A0
100
AcDbEntity
8
SK2
62
256
6
ByLayer
370
13
48
1
60
0
100
AcDbHatch
10
0
20
0
30
0
210
0
220
0
230
1
2
ANSI31
70
0
71
0
91
1
92
5
93
3
72
1
10
95
20
62.8200000000001
11
91.5000016925532
21
62.3592162584473
72
1
10
91.5000016925532
20
62.3592162584473
11
91.4999983074468
21
63.2807837415529
72
1
10
91.4999983074468
20
63.2807837415529
11
95
21
62.8200000000001
97
0
75
0
76
1
52
0
41
0.0062
77
0
78
1
53
45
43
0
44
0
45
-0.0139193969876572
46
0.0139193969876572
79
0
47
0
98
1
10
0
20
0
0
HATCH
5
1A5
100
AcDbEntity
8
SK2
62
256
6
ByLayer
370
13
48
1
60
0
100
AcDbHatch
10
0
20
0
30
0
210
0
220
0
230
1
2
ANSI31
70
0
71
0
91
1
92
5
93
3
72
1
10
0
20
62.8200000000001
11
-3.4999983074468
21
62.3592162584473
72
1
10
-3.4999983074468
20
62.3592162584473
11
-3.5000016925532
21
63.2807837415529
72
1
10
-3.5000016925532
20
63.2807837415529
11
0
21
62.8200000000001
97
0
75
0
76
1
52
0
41
0.0062
77
0
78
1
53
45
43
0
44
0
45
-0.0139193969876572
46
0.0139193969876572
79
0
47
0
98
1
10
0
20
0
0
HATCH
5
1A9
100
AcDbEntity
8
SK2
62
256
6
ByLayer
370
13
48
1
60
0
100
AcDbHatch
10
0
20
0
30
0
210
0
220
0
230
1
2
ANSI31
70
0
71
0
91
1
92
5
93
3
72
1
10
-39.9
20
62.8200000000001
11
-36.4000016925532
21
63.2807837415529
72
1
10
-36.4000016925532
20
63.2807837415529
11
-36.3999983074468
21
62.3592162584473
72
1
10
-36.3999983074468
20
62.3592162584473
11
-39.9
21
62.8200000000001
97
0
75
0
76
1
52
0
41
0.0062
77
0
78
1
53
45
43
0
44
0
45
-0.0139193969876572
46
0.0139193969876572
79
0
47
0
98
1
10
0
20
0
0
ENDSEC
0
SECTION
2
OBJECTS
0
DICTIONARY
5
218
330
0
100
AcDbDictionary
280
0
281
1
3
ACAD_GROUP
350
219
3
ACAD_MLINESTYLE
350
21a
0
DICTIONARY
5
219
330
0
100
AcDbDictionary
280
0
281
1
0
DICTIONARY
5
21a
330
0
100
AcDbDictionary
280
0
281
1
3
Standard
350
18
0
MLINESTYLE
5
18
330
21a
100
AcDbMlineStyle
2
Standard
70
0
3

62
256
51
90
52
90
71
2
49
-0.5
62
256
6
ByLayer
49
0.5
62
256
6
ByLayer
0
RASTERVARIABLES
5
207
330

100
AcDbRasterVariables
90
0
70
1
71
1
72
1
0
ENDSEC
0
EOF
