0
SECTION
2
HEADER
9
$ACADVER
1
AC1015
9
$DWGCODEPAGE
3
ANSI_1252
9
$HANDSEED
5
254
9
$ANGBASE
50
0
9
$ANGDIR
70
0
9
$ATTMODE
70
1
9
$AUNITS
70
0
9
$AUPREC
70
0
9
$CECOLOR
62
256
9
$CELTSCALE
40
1
9
$CELTYPE
6
ByLayer
9
$CELWEIGHT
370
18
9
$CLAYER
8
0
9
$CMLJUST
70
0
9
$CMLSCALE
40
1
9
$CMLSTYLE
2
Standard
9
$DIMSTYLE
2
Standard
9
$TEXTSIZE
40
0.2
9
$TEXTSTYLE
7
Standard
9
$LUNITS
70
2
9
$LUPREC
70
4
9
$EXTNAMES
290
1
9
$INSUNITS
70
4
9
$LTSCALE
40
1
9
$LWDISPLAY
290
1
9
$PDMODE
70
0
9
$PDSIZE
40
0
9
$PLINEGEN
70
0
0
ENDSEC
0
SECTION
2
CLASSES
0
CLASS
1
RASTERVARIABLES
2
AcDbRasterVariables
3
ISM
90
0
280
0
281
0
0
ENDSEC
0
SECTION
2
TABLES
0
TABLE
2
VPORT
5
24a
100
AcDbSymbolTable
0
VPORT
5
1
100
AcDbSymbolTableRecord
100
AcDbViewportTableRecord
2
*Active
70
0
10
0
20
0
11
1
21
1
12
-1
22
1
13
0
23
0
14
0.5
24
0.5
15
10
25
10
16
0
26
0
36
1
17
0
27
0
37
0
0
ENDTAB
0
TABLE
2
LTYPE
5
24b
100
AcDbSymbolTable
0
LTYPE
5
14
100
AcDbSymbolTableRecord
100
AcDbLinetypeTableRecord
70
0
2
ByBlock
3

72
65
73
0
40
0
0
LTYPE
5
15
100
AcDbSymbolTableRecord
100
AcDbLinetypeTableRecord
70
0
2
ByLayer
3

72
65
73
0
40
0
0
LTYPE
5
16
100
AcDbSymbolTableRecord
100
AcDbLinetypeTableRecord
70
0
2
Continuous
3
Solid line
72
65
73
0
40
0
0
LTYPE
5
6E
100
AcDbSymbolTableRecord
100
AcDbLinetypeTableRecord
70
0
2
CENTER
3
____ _ ____ _ ____ _ ____
72
65
73
4
40
47.5
49
22
74
0
49
-8.5
74
0
49
8.5
74
0
49
-8.5
74
0
0
LTYPE
5
6F
100
AcDbSymbolTableRecord
100
AcDbLinetypeTableRecord
70
0
2
DASHED
3
__ __ __ __ __ __ __ __ __
72
65
73
2
40
25.72
49
12.86
74
0
49
-12.86
74
0
0
ENDTAB
0
TABLE
2
LAYER
5
24c
100
AcDbSymbolTable
0
LAYER
5
10
100
AcDbSymbolTableRecord
100
AcDbLayerTableRecord
2
0
70
0
62
7
6
Continuous
290
1
370
-3
390
0
0
LAYER
5
71
100
AcDbSymbolTableRecord
100
AcDbLayerTableRecord
2
2
70
0
62
7
6
Continuous
290
1
370
-3
390
0
0
LAYER
5
87
100
AcDbSymbolTableRecord
100
AcDbLayerTableRecord
2
81
70
0
62
-3
6
Continuous
290
1
370
-3
390
0
0
LAYER
5
89
100
AcDbSymbolTableRecord
100
AcDbLayerTableRecord
2
80
70
0
62
-6
6
Continuous
290
1
370
-3
390
0
0
LAYER
5
8C
100
AcDbSymbolTableRecord
100
AcDbLayerTableRecord
2
4
70
0
62
-2
6
CENTER
290
1
370
-3
390
0
0
LAYER
5
8F
100
AcDbSymbolTableRecord
100
AcDbLayerTableRecord
2
1
70
0
62
4
6
Continuous
290
1
370
-3
390
0
0
LAYER
5
237
100
AcDbSymbolTableRecord
100
AcDbLayerTableRecord
2
SK1
70
0
62
4
6
Continuous
290
1
370
-3
390
0
0
LAYER
5
238
100
AcDbSymbolTableRecord
100
AcDbLayerTableRecord
2
SK2
70
0
62
7
6
Continuous
290
1
370
-3
390
0
0
LAYER
5
239
100
AcDbSymbolTableRecord
100
AcDbLayerTableRecord
2
SK6
70
0
62
5
6
Continuous
290
1
370
-3
390
0
0
ENDTAB
0
TABLE
2
STYLE
5
24d
100
AcDbSymbolTable
0
STYLE
5
11
100
AcDbSymbolTableRecord
100
AcDbTextStyleTableRecord
2
Standard
3
txt
70
0
71
0
40
0
41
1
42
0
50
0
0
STYLE
5
1A9
100
AcDbSymbolTableRecord
100
AcDbTextStyleTableRecord
2
iso_b_vert
3
simplex.shx
70
0
71
0
40
0
41
1
42
0
50
0
0
STYLE
5
1AA
100
AcDbSymbolTableRecord
100
AcDbTextStyleTableRecord
2
DWGDirectTextStyle
3
simplex
70
0
71
0
40
0
41
1
42
0
50
0
0
ENDTAB
0
TABLE
2
DIMSTYLE
5
24e
100
AcDbSymbolTable
100
AcDbDimStyleTable
0
DIMSTYLE
105
27
100
AcDbSymbolTableRecord
100
AcDbDimStyleTableRecord
2
Standard
70
0
3
<>
41
0.18
42
0.0625
44
0.18
140
0.18
147
0.09
73
0
74
0
77
1
271
2
275
0
278
52
280
0
340
11
0
ENDTAB
0
TABLE
2
VIEW
5
24f
100
AcDbSymbolTable
0
ENDTAB
0
TABLE
2
UCS
5
250
100
AcDbSymbolTable
0
ENDTAB
0
TABLE
2
APPID
5
251
100
AcDbSymbolTable
0
APPID
5
12
100
AcDbSymbolTableRecord
100
AcDbRegAppTableRecord
2
ACAD
70
0
0
APPID
5
233
100
AcDbSymbolTableRecord
100
AcDbRegAppTableRecord
2
ACAD_MLEADERVER
70
0
0
ENDTAB
0
TABLE
2
BLOCK_RECORD
5
252
100
AcDbSymbolTable
0
BLOCK_RECORD
5
1F
100
AcDbSymbolTableRecord
100
AcDbBlockTableRecord
2
*Model_Space
340
0
70
0
0
BLOCK_RECORD
5
1B
100
AcDbSymbolTableRecord
100
AcDbBlockTableRecord
2
*Paper_Space
340
0
70
0
0
BLOCK_RECORD
5
23
100
AcDbSymbolTableRecord
100
AcDbBlockTableRecord
2
*Paper_Space0
340
0
70
0
0
ENDTAB
0
ENDSEC
0
SECTION
2
BLOCKS
0
BLOCK
5
20
100
AcDbEntity
8
0
100
AcDbBlockBegin
2
*Model_Space
70
0
10
0
20
0
30
0
3
*Model_Space
0
ENDBLK
5
21
100
AcDbEntity
8
0
100
AcDbBlockEnd
0
BLOCK
5
1C
100
AcDbEntity
8
0
100
AcDbBlockBegin
2
*Paper_Space
70
0
10
0
20
0
30
0
3
*Paper_Space
0
ENDBLK
5
1D
100
AcDbEntity
8
0
100
AcDbBlockEnd
0
BLOCK
5
24
100
AcDbEntity
8
0
100
AcDbBlockBegin
2
*Paper_Space0
70
0
10
0
20
0
30
0
3
*Paper_Space0
0
ENDBLK
5
25
100
AcDbEntity
8
0
100
AcDbBlockEnd
0
ENDSEC
0
SECTION
2
ENTITIES
0
ARC
5
124
100
AcDbEntity
8
SK2
62
256
6
ByLayer
370
18
48
1
60
0
100
AcDbCircle
39
0
10
48
20
0
30
0
40
5.77350269189593
210
0
220
0
230
1
100
AcDbArc
50
150
51
210
0
ARC
5
125
100
AcDbEntity
8
SK2
62
256
6
ByLayer
370
18
48
1
60
0
100
AcDbCircle
39
0
10
48
20
0
30
0
40
5.77350269189593
210
0
220
0
230
1
100
AcDbArc
50
330
51
30
0
ARC
5
126
100
AcDbEntity
8
SK2
62
256
6
ByLayer
370
18
48
1
60
0
100
AcDbCircle
39
0
10
48
20
0
30
0
40
5.77350269189593
210
0
220
0
230
1
100
AcDbArc
50
30
51
90
0
ARC
5
127
100
AcDbEntity
8
SK2
62
256
6
ByLayer
370
18
48
1
60
0
100
AcDbCircle
39
0
10
48
20
0
30
0
40
5.77350269189593
210
0
220
0
230
1
100
AcDbArc
50
210
51
270
0
ARC
5
128
100
AcDbEntity
8
SK2
62
256
6
ByLayer
370
18
48
1
60
0
100
AcDbCircle
39
0
10
48
20
0
30
0
40
5.77350269189593
210
0
220
0
230
1
100
AcDbArc
50
90
51
150
0
ARC
5
129
100
AcDbEntity
8
SK2
62
256
6
ByLayer
370
18
48
1
60
0
100
AcDbCircle
39
0
10
48
20
0
30
0
40
5.77350269189593
210
0
220
0
230
1
100
AcDbArc
50
270
51
330
0
ARC
5
12B
100
AcDbEntity
8
SK2
62
256
6
ByLayer
370
18
48
1
60
0
100
AcDbCircle
39
0
10
76
20
0
30
0
40
5.77350269189593
210
0
220
0
230
1
100
AcDbArc
50
150
51
210
0
ARC
5
12C
100
AcDbEntity
8
SK2
62
256
6
ByLayer
370
18
48
1
60
0
100
AcDbCircle
39
0
10
76
20
0
30
0
40
5.77350269189593
210
0
220
0
230
1
100
AcDbArc
50
330
51
30
0
ARC
5
12D
100
AcDbEntity
8
SK2
62
256
6
ByLayer
370
18
48
1
60
0
100
AcDbCircle
39
0
10
76
20
0
30
0
40
5.77350269189593
210
0
220
0
230
1
100
AcDbArc
50
30
51
90
0
ARC
5
12E
100
AcDbEntity
8
SK2
62
256
6
ByLayer
370
18
48
1
60
0
100
AcDbCircle
39
0
10
76
20
0
30
0
40
5.77350269189593
210
0
220
0
230
1
100
AcDbArc
50
210
51
270
0
ARC
5
12F
100
AcDbEntity
8
SK2
62
256
6
ByLayer
370
18
48
1
60
0
100
AcDbCircle
39
0
10
76
20
0
30
0
40
5.77350269189593
210
0
220
0
230
1
100
AcDbArc
50
90
51
150
0
ARC
5
130
100
AcDbEntity
8
SK2
62
256
6
ByLayer
370
18
48
1
60
0
100
AcDbCircle
39
0
10
76
20
0
30
0
40
5.77350269189593
210
0
220
0
230
1
100
AcDbArc
50
270
51
330
0
ARC
5
131
100
AcDbEntity
8
1
62
256
6
ByLayer
370
18
48
1
60
0
100
AcDbCircle
39
0
10
30.624598
20
36.4
30
0
40
0.600000000000001
210
0
220
0
230
1
100
AcDbArc
50
270
51
285
0
ARC
5
132
100
AcDbEntity
8
1
62
256
6
ByLayer
370
18
48
1
60
0
100
AcDbCircle
39
0
10
30.624598
20
-36.4
30
0
40
0.600000000000001
210
0
220
0
230
1
100
AcDbArc
50
75
51
90
0
ARC
5
133
100
AcDbEntity
8
1
62
256
6
ByLayer
370
18
48
1
60
0
100
AcDbCircle
39
0
10
29.95
20
36.8
30
0
40
1
210
0
220
0
230
1
100
AcDbArc
50
180
51
270
0
ARC
5
134
100
AcDbEntity
8
1
62
256
6
ByLayer
370
18
48
1
60
0
100
AcDbCircle
39
0
10
29.95
20
-36.8
30
0
40
1
210
0
220
0
230
1
100
AcDbArc
50
90
51
180
0
ARC
5
135
100
AcDbEntity
8
SK1
62
256
6
ByLayer
370
18
48
1
60
0
100
AcDbCircle
39
0
10
-41.7
20
34.125
30
0
40
1.9
210
0
220
0
230
1
100
AcDbArc
50
270
51
313.91428
0
ARC
5
136
100
AcDbEntity
8
SK1
62
256
6
ByLayer
370
18
48
1
60
0
100
AcDbCircle
39
0
10
-36.7
20
-34.125
30
0
40
1.9
210
0
220
0
230
1
100
AcDbArc
50
34.902187
51
90
0
ARC
5
137
100
AcDbEntity
8
SK1
62
256
6
ByLayer
370
18
48
1
60
0
100
AcDbCircle
39
0
10
-0.8
20
38.632252
30
0
40
1
210
0
220
0
230
1
100
AcDbArc
50
270
51
323.130102
0
ARC
5
138
100
AcDbEntity
8
SK1
62
256
6
ByLayer
370
18
48
1
60
0
100
AcDbCircle
39
0
10
-0.8
20
-38.632252
30
0
40
1
210
0
220
0
230
1
100
AcDbArc
50
36.869898
51
90
0
ARC
5
139
100
AcDbEntity
8
1
62
256
6
ByLayer
370
18
48
1
60
0
100
AcDbCircle
39
0
10
39.5
20
23.40684
30
0
40
1.9
210
0
220
0
230
1
100
AcDbArc
50
32.99064
51
147.003753
0
CIRCLE
5
121
100
AcDbEntity
8
1
62
256
6
ByLayer
370
18
48
1
60
0
100
AcDbCircle
10
48
20
0
30
0
40
9
39
0
210
0
220
0
230
1
0
CIRCLE
5
122
100
AcDbEntity
8
1
62
256
6
ByLayer
370
18
48
1
60
0
100
AcDbCircle
10
76
20
0
30
0
40
9.00000000000002
39
0
210
0
220
0
230
1
0
CIRCLE
5
123
100
AcDbEntity
8
SK2
62
256
6
ByLayer
370
18
48
1
60
0
100
AcDbCircle
10
48
20
0
30
0
40
8
39
0
210
0
220
0
230
1
0
CIRCLE
5
12A
100
AcDbEntity
8
SK2
62
256
6
ByLayer
370
18
48
1
60
0
100
AcDbCircle
10
76
20
0
30
0
40
8
39
0
210
0
220
0
230
1
0
ELLIPSE
5
13A
100
AcDbEntity
8
1
62
256
6
ByLayer
370
18
48
1
60
0
100
AcDbEllipse
10
39.5
20
25.243712
30
0
11
2.50000000000003
21
0
31
0
210
0
220
0
230
1
40
0.707107
41
0
42
6.28318530717959
0
ELLIPSE
5
13B
100
AcDbEntity
8
1
62
256
6
ByLayer
370
18
48
1
60
0
100
AcDbEllipse
10
39.5
20
-25.243712
30
0
11
-2.50000000000003
21
-8.04071436169572E-16
31
0
210
0
220
0
230
1
40
0.707107
41
0
42
6.28318530717959
0
ELLIPSE
5
13C
100
AcDbEntity
8
1
62
256
6
ByLayer
370
18
48
1
60
0
100
AcDbEllipse
10
20
20
7.629233
30
0
11
-1.75000000000001
21
-5.62850005318697E-16
31
0
210
0
220
0
230
1
40
0.984808
41
-1.57079655876472
42
-0.125860244287696
0
ELLIPSE
5
13D
100
AcDbEntity
8
1
62
256
6
ByLayer
370
18
48
1
60
0
100
AcDbEllipse
10
20
20
7.629233
30
0
11
-1.75000000000001
21
-5.62850005318697E-16
31
0
210
0
220
0
230
1
40
0.984808
41
-3.06570356230511
42
-1.57079655876473
0
ELLIPSE
5
13E
100
AcDbEntity
8
1
62
256
6
ByLayer
370
18
48
1
60
0
100
AcDbEllipse
10
20
20
-7.629233
30
0
11
1.75000000000001
21
0
31
0
210
0
220
0
230
1
40
0.984808
41
-3.08180417172496
42
-0.0617518050809049
0
ELLIPSE
5
13F
100
AcDbEntity
8
1
62
256
6
ByLayer
370
18
48
1
60
0
100
AcDbEllipse
10
39.5
20
-22.976724
30
0
11
-1.8
21
-5.78931434042085E-16
31
0
210
0
220
0
230
1
40
0.707107
41
0.940415971993985
42
1.57079630327121
0
ELLIPSE
5
140
100
AcDbEntity
8
1
62
256
6
ByLayer
370
18
48
1
60
0
100
AcDbEllipse
10
39.5
20
-22.976724
30
0
11
-1.8
21
-5.78931434042085E-16
31
0
210
0
220
0
230
1
40
0.707107
41
1.57079630327121
42
2.20117662983827
0
ELLIPSE
5
141
100
AcDbEntity
8
1
62
256
6
ByLayer
370
18
48
1
60
0
100
AcDbEllipse
10
39.5
20
-23.836956
30
0
11
1.8
21
0
31
0
210
0
220
0
230
1
40
0.707107
41
-2.65238759084348
42
-0.489204371744288
0
ELLIPSE
5
142
100
AcDbEntity
8
1
62
256
6
ByLayer
370
18
48
1
60
0
100
AcDbEllipse
10
39.5
20
-25.033186
30
0
11
-1.8
21
-5.78931434042085E-16
31
0
210
0
220
0
230
1
40
0.707107
41
0
42
6.28318530717959
0
ELLIPSE
5
143
100
AcDbEntity
8
1
62
256
6
ByLayer
370
18
48
1
60
0
100
AcDbEllipse
10
39.5
20
-24.892303
30
0
11
-2.43803518639975
21
-7.84141781504149E-16
31
0
210
0
220
0
230
1
40
0.707107
41
-0.0244454734374478
42
0
0
ELLIPSE
5
144
100
AcDbEntity
8
1
62
256
6
ByLayer
370
18
48
1
60
0
100
AcDbEllipse
10
39.5
20
-24.892303
30
0
11
-2.43803518639975
21
-7.84141781504149E-16
31
0
210
0
220
0
230
1
40
0.707107
41
0
42
1.57079620116515
0
ELLIPSE
5
145
100
AcDbEntity
8
1
62
256
6
ByLayer
370
18
48
1
60
0
100
AcDbEllipse
10
39.5
20
-24.892303
30
0
11
-2.43803518639975
21
-7.84141781504149E-16
31
0
210
0
220
0
230
1
40
0.707107
41
1.57079629351774
42
-3.11714740481354
0
ELLIPSE
5
146
100
AcDbEntity
8
1
62
256
6
ByLayer
370
18
48
1
60
0
100
AcDbEllipse
10
39.5
20
-25.033186
30
0
11
2.22060403785022
21
0
31
0
210
0
220
0
230
1
40
0.707107
41
-1.57079621153252
42
0
0
ELLIPSE
5
147
100
AcDbEntity
8
1
62
256
6
ByLayer
370
18
48
1
60
0
100
AcDbEllipse
10
39.5
20
-25.033186
30
0
11
2.22060403785022
21
0
31
0
210
0
220
0
230
1
40
0.707107
41
0
42
1.19557248623642
0
ELLIPSE
5
148
100
AcDbEntity
8
1
62
256
6
ByLayer
370
18
48
1
60
0
100
AcDbEllipse
10
39.5
20
-25.033186
30
0
11
2.22060403785022
21
0
31
0
210
0
220
0
230
1
40
0.707107
41
1.9460204060315
42
-1.57079621153254
0
ELLIPSE
5
149
100
AcDbEntity
8
1
62
256
6
ByLayer
370
18
48
1
60
0
100
AcDbEllipse
10
39.5
20
25.033186
30
0
11
1.8
21
0
31
0
210
0
220
0
230
1
40
0.707107
41
0
42
6.28318530717959
0
ELLIPSE
5
14A
100
AcDbEntity
8
1
62
256
6
ByLayer
370
18
48
1
60
0
100
AcDbEllipse
10
39.5
20
24.892303
30
0
11
2.43803518639975
21
0
31
0
210
0
220
0
230
1
40
0.707107
41
-0.0243474719756351
42
0
0
ELLIPSE
5
14B
100
AcDbEntity
8
1
62
256
6
ByLayer
370
18
48
1
60
0
100
AcDbEllipse
10
39.5
20
24.892303
30
0
11
2.43803518639975
21
0
31
0
210
0
220
0
230
1
40
0.707107
41
0
42
-3.11724553684347
0
ELLIPSE
5
14C
100
AcDbEntity
8
1
62
256
6
ByLayer
370
18
48
1
60
0
100
AcDbEllipse
10
39.5
20
25.033186
30
0
11
-2.22060403785022
21
-7.14209711151262E-16
31
0
210
0
220
0
230
1
40
0.707107
41
1.94611832055594
42
0
0
ELLIPSE
5
14D
100
AcDbEntity
8
1
62
256
6
ByLayer
370
18
48
1
60
0
100
AcDbEllipse
10
39.5
20
25.033186
30
0
11
-2.22060403785022
21
-7.14209711151262E-16
31
0
210
0
220
0
230
1
40
0.707107
41
0
42
1.19547410545244
0
ELLIPSE
5
14E
100
AcDbEntity
8
1
62
256
6
ByLayer
370
18
48
1
60
0
100
AcDbEllipse
10
39.5
20
-22.976724
30
0
11
-1.8
21
-5.78931434042085E-16
31
0
210
0
220
0
230
1
40
0.707107
41
0.940415971993985
42
1.57079630327121
0
ELLIPSE
5
14F
100
AcDbEntity
8
1
62
256
6
ByLayer
370
18
48
1
60
0
100
AcDbEllipse
10
39.5
20
-22.976724
30
0
11
-1.8
21
-5.78931434042085E-16
31
0
210
0
220
0
230
1
40
0.707107
41
1.57079630327121
42
2.20117662983827
0
ELLIPSE
5
150
100
AcDbEntity
8
1
62
256
6
ByLayer
370
18
48
1
60
0
100
AcDbEllipse
10
39.5
20
-23.836956
30
0
11
1.8
21
0
31
0
210
0
220
0
230
1
40
0.707107
41
-2.65238759084348
42
-0.489204371744288
0
ELLIPSE
5
151
100
AcDbEntity
8
1
62
256
6
ByLayer
370
18
48
1
60
0
100
AcDbEllipse
10
39.5
20
-25.033186
30
0
11
-1.8
21
-5.78931434042085E-16
31
0
210
0
220
0
230
1
40
0.707107
41
0
42
6.28318530717959
0
ELLIPSE
5
152
100
AcDbEntity
8
1
62
256
6
ByLayer
370
18
48
1
60
0
100
AcDbEllipse
10
39.5
20
-25.033186
30
0
11
2.22060403785022
21
0
31
0
210
0
220
0
230
1
40
0.707107
41
-1.57079621153252
42
0
0
ELLIPSE
5
153
100
AcDbEntity
8
1
62
256
6
ByLayer
370
18
48
1
60
0
100
AcDbEllipse
10
39.5
20
-25.033186
30
0
11
2.22060403785022
21
0
31
0
210
0
220
0
230
1
40
0.707107
41
0
42
1.19557248623642
0
ELLIPSE
5
154
100
AcDbEntity
8
1
62
256
6
ByLayer
370
18
48
1
60
0
100
AcDbEllipse
10
39.5
20
-25.033186
30
0
11
2.22060403785022
21
0
31
0
210
0
220
0
230
1
40
0.707107
41
1.9460204060315
42
-1.57079621153254
0
ELLIPSE
5
155
100
AcDbEntity
8
1
62
256
6
ByLayer
370
18
48
1
60
0
100
AcDbEllipse
10
39.5
20
-24.892303
30
0
11
-2.43803518639975
21
-7.84141781504149E-16
31
0
210
0
220
0
230
1
40
0.707107
41
-0.0244454734374478
42
0
0
ELLIPSE
5
156
100
AcDbEntity
8
1
62
256
6
ByLayer
370
18
48
1
60
0
100
AcDbEllipse
10
39.5
20
-24.892303
30
0
11
-2.43803518639975
21
-7.84141781504149E-16
31
0
210
0
220
0
230
1
40
0.707107
41
0
42
1.57079620116515
0
ELLIPSE
5
157
100
AcDbEntity
8
1
62
256
6
ByLayer
370
18
48
1
60
0
100
AcDbEllipse
10
39.5
20
-24.892303
30
0
11
-2.43803518639975
21
-7.84141781504149E-16
31
0
210
0
220
0
230
1
40
0.707107
41
1.57079629351774
42
-3.11714740481354
0
ELLIPSE
5
158
100
AcDbEntity
8
1
62
256
6
ByLayer
370
18
48
1
60
0
100
AcDbEllipse
10
39.5
20
25.033186
30
0
11
1.8
21
0
31
0
210
0
220
0
230
1
40
0.707107
41
0
42
6.28318530717959
0
ELLIPSE
5
159
100
AcDbEntity
8
1
62
256
6
ByLayer
370
18
48
1
60
0
100
AcDbEllipse
10
39.5
20
25.033186
30
0
11
-2.22060403785022
21
-7.14209711151262E-16
31
0
210
0
220
0
230
1
40
0.707107
41
1.94611832055594
42
0
0
ELLIPSE
5
15A
100
AcDbEntity
8
1
62
256
6
ByLayer
370
18
48
1
60
0
100
AcDbEllipse
10
39.5
20
25.033186
30
0
11
-2.22060403785022
21
-7.14209711151262E-16
31
0
210
0
220
0
230
1
40
0.707107
41
0
42
1.19547410545244
0
ELLIPSE
5
15B
100
AcDbEntity
8
1
62
256
6
ByLayer
370
18
48
1
60
0
100
AcDbEllipse
10
39.5
20
24.892303
30
0
11
2.43803518639975
21
0
31
0
210
0
220
0
230
1
40
0.707107
41
-0.0243474719756351
42
0
0
ELLIPSE
5
15C
100
AcDbEntity
8
1
62
256
6
ByLayer
370
18
48
1
60
0
100
AcDbEllipse
10
39.5
20
24.892303
30
0
11
2.43803518639975
21
0
31
0
210
0
220
0
230
1
40
0.707107
41
0
42
-3.11724553684347
0
ELLIPSE
5
15D
100
AcDbEntity
8
SK1
62
256
6
ByLayer
370
13
48
1
60
0
100
AcDbEllipse
10
-36.7
20
-33.386024
30
0
11
1.9
21
0
31
0
210
0
220
0
230
1
40
0.891007
41
1.11205041920186
42
1.5707963267949
0
ELLIPSE
5
15E
100
AcDbEntity
8
1
62
256
6
ByLayer
370
18
48
1
60
0
100
AcDbEllipse
10
39.5
20
25.033186
30
0
11
1.8
21
0
31
0
210
0
220
0
230
1
40
0.707107
41
0
42
6.28318530717959
0
ELLIPSE
5
15F
100
AcDbEntity
8
1
62
256
6
ByLayer
370
18
48
1
60
0
100
AcDbEllipse
10
39.5
20
24.892303
30
0
11
2.43803518639975
21
0
31
0
210
0
220
0
230
1
40
0.707107
41
-0.024347471975633
42
0
0
ELLIPSE
5
160
100
AcDbEntity
8
1
62
256
6
ByLayer
370
18
48
1
60
0
100
AcDbEllipse
10
39.5
20
24.892303
30
0
11
2.43803518639975
21
0
31
0
210
0
220
0
230
1
40
0.707107
41
0
42
-3.11724553684348
0
ELLIPSE
5
161
100
AcDbEntity
8
1
62
256
6
ByLayer
370
18
48
1
60
0
100
AcDbEllipse
10
39.5
20
25.033186
30
0
11
-2.22060403785022
21
-7.14209711151262E-16
31
0
210
0
220
0
230
1
40
0.707107
41
1.94611832055594
42
0
0
ELLIPSE
5
162
100
AcDbEntity
8
1
62
256
6
ByLayer
370
18
48
1
60
0
100
AcDbEllipse
10
39.5
20
25.033186
30
0
11
-2.22060403785022
21
-7.14209711151262E-16
31
0
210
0
220
0
230
1
40
0.707107
41
0
42
1.19547410545244
0
ELLIPSE
5
163
100
AcDbEntity
8
1
62
256
6
ByLayer
370
18
48
1
60
0
100
AcDbEllipse
10
100
20
13.57645
30
0
11
0.0462873693115575
21
1.49928565638514
31
0
210
0
220
0
230
1
40
0.030844
41
-2.35571876163046
42
-0.784922198444083
0
ELLIPSE
5
164
100
AcDbEntity
8
1
62
256
6
ByLayer
370
18
48
1
60
0
100
AcDbEllipse
10
100
20
13.57645
30
0
11
0.0462873693115575
21
1.49928565638514
31
0
210
0
220
0
230
1
40
0.030844
41
-0.784922198444124
42
-0.0534212836206275
0
ELLIPSE
5
165
100
AcDbEntity
8
1
62
256
6
ByLayer
370
18
48
1
60
0
100
AcDbEllipse
10
100
20
-13.57645
30
0
11
-0.0462873693115656
21
1.49928565638514
31
0
210
0
220
0
230
1
40
0.030844
41
-3.08817241600382
42
-2.356670546333
0
ELLIPSE
5
166
100
AcDbEntity
8
1
62
256
6
ByLayer
370
18
48
1
60
0
100
AcDbEllipse
10
100
20
-13.57645
30
0
11
-0.0462873693115656
21
1.49928565638514
31
0
210
0
220
0
230
1
40
0.030844
41
-2.35667054633301
42
-0.78587398306009
0
ELLIPSE
5
167
100
AcDbEntity
8
1
62
256
6
ByLayer
370
18
48
1
60
0
100
AcDbEllipse
10
100
20
13.57645
30
0
11
0.0462873693115575
21
1.49928565638514
31
0
210
0
220
0
230
1
40
0.030844
41
-2.35571876163046
42
-0.784922198444083
0
ELLIPSE
5
168
100
AcDbEntity
8
1
62
256
6
ByLayer
370
18
48
1
60
0
100
AcDbEllipse
10
100
20
13.57645
30
0
11
0.0462873693115575
21
1.49928565638514
31
0
210
0
220
0
230
1
40
0.030844
41
-0.784922198444124
42
-0.0534212836206275
0
POINT
5
70
100
AcDbEntity
8
2
62
256
6
ByLayer
370
18
48
1
60
0
100
AcDbPoint
10
76
20
0
30
0
39
0
210
0
220
0
230
1
50
360
0
POINT
5
72
100
AcDbEntity
8
2
62
256
6
ByLayer
370
18
48
1
60
0
100
AcDbPoint
10
100
20
0
30
0
39
0
210
0
220
0
230
1
50
360
0
POINT
5
73
100
AcDbEntity
8
2
62
256
6
ByLayer
370
18
48
1
60
0
100
AcDbPoint
10
39.5
20
25.455844
30
0
39
0
210
0
220
0
230
1
50
360
0
POINT
5
74
100
AcDbEntity
8
2
62
256
6
ByLayer
370
18
48
1
60
0
100
AcDbPoint
10
48
20
0
30
0
39
0
210
0
220
0
230
1
50
360
0
POINT
5
75
100
AcDbEntity
8
2
62
256
6
ByLayer
370
18
48
1
60
0
100
AcDbPoint
10
48
20
0
30
0
39
0
210
0
220
0
230
1
50
360
0
POINT
5
76
100
AcDbEntity
8
2
62
256
6
ByLayer
370
18
48
1
60
0
100
AcDbPoint
10
100
20
0
30
0
39
0
210
0
220
0
230
1
50
360
0
POINT
5
77
100
AcDbEntity
8
2
62
256
6
ByLayer
370
18
48
1
60
0
100
AcDbPoint
10
100
20
0
30
0
39
0
210
0
220
0
230
1
50
360
0
POINT
5
78
100
AcDbEntity
8
2
62
256
6
ByLayer
370
18
48
1
60
0
100
AcDbPoint
10
100
20
0
30
0
39
0
210
0
220
0
230
1
50
360
0
POINT
5
79
100
AcDbEntity
8
2
62
256
6
ByLayer
370
18
48
1
60
0
100
AcDbPoint
10
28.95
20
0
30
0
39
0
210
0
220
0
230
1
50
360
0
POINT
5
7A
100
AcDbEntity
8
2
62
256
6
ByLayer
370
18
48
1
60
0
100
AcDbPoint
10
76
20
0
30
0
39
0
210
0
220
0
230
1
50
360
0
POINT
5
7B
100
AcDbEntity
8
2
62
256
6
ByLayer
370
18
48
1
60
0
100
AcDbPoint
10
36
20
0
30
0
39
0
210
0
220
0
230
1
50
360
0
POINT
5
7C
100
AcDbEntity
8
2
62
256
6
ByLayer
370
18
48
1
60
0
100
AcDbPoint
10
76
20
0
30
0
39
0
210
0
220
0
230
1
50
360
0
POINT
5
7D
100
AcDbEntity
8
2
62
256
6
ByLayer
370
18
48
1
60
0
100
AcDbPoint
10
100
20
0
30
0
39
0
210
0
220
0
230
1
50
360
0
POINT
5
7E
100
AcDbEntity
8
2
62
256
6
ByLayer
370
18
48
1
60
0
100
AcDbPoint
10
0
20
0
30
0
39
0
210
0
220
0
230
1
50
360
0
POINT
5
7F
100
AcDbEntity
8
2
62
256
6
ByLayer
370
18
48
1
60
0
100
AcDbPoint
10
76
20
0
30
0
39
0
210
0
220
0
230
1
50
360
0
POINT
5
80
100
AcDbEntity
8
2
62
256
6
ByLayer
370
18
48
1
60
0
100
AcDbPoint
10
39.5
20
25.455844
30
0
39
0
210
0
220
0
230
1
50
360
0
POINT
5
81
100
AcDbEntity
8
2
62
256
6
ByLayer
370
18
48
1
60
0
100
AcDbPoint
10
100
20
0
30
0
39
0
210
0
220
0
230
1
50
360
0
POINT
5
82
100
AcDbEntity
8
2
62
256
6
ByLayer
370
18
48
1
60
0
100
AcDbPoint
10
100
20
0
30
0
39
0
210
0
220
0
230
1
50
360
0
POINT
5
83
100
AcDbEntity
8
2
62
256
6
ByLayer
370
18
48
1
60
0
100
AcDbPoint
10
39.5
20
26.870058
30
0
39
0
210
0
220
0
230
1
50
360
0
POINT
5
84
100
AcDbEntity
8
2
62
256
6
ByLayer
370
18
48
1
60
0
100
AcDbPoint
10
36
20
0
30
0
39
0
210
0
220
0
230
1
50
360
0
POINT
5
85
100
AcDbEntity
8
2
62
256
6
ByLayer
370
18
48
1
60
0
100
AcDbPoint
10
100
20
13.57645
30
0
39
0
210
0
220
0
230
1
50
360
0
POINT
5
86
100
AcDbEntity
8
81
62
256
6
ByLayer
370
18
48
1
60
0
100
AcDbPoint
10
100
20
0
30
0
39
0
210
0
220
0
230
1
50
360
0
POINT
5
88
100
AcDbEntity
8
80
62
256
6
ByLayer
370
18
48
1
60
0
100
AcDbPoint
10
0
20
0
30
0
39
0
210
0
220
0
230
1
50
360
0
SPLINE
5
169
100
AcDbEntity
8
1
62
256
6
ByLayer
370
18
48
1
60
0
100
AcDbSpline
70
4
71
3
72
31
73
27
40
0
40
0
40
0
40
0
40
0.125000000000014
40
0.125000000000014
40
0.187500000000014
40
0.187500000000014
40
0.250000000000013
40
0.250000000000013
40
0.374999999999998
40
0.374999999999998
40
0.437499999999994
40
0.437499999999994
40
0.499999999999989
40
0.499999999999989
40
0.562499999999984
40
0.562499999999984
40
0.62499999999998
40
0.687499999999975
40
0.687499999999975
40
0.74999999999997
40
0.74999999999997
40
0.874999999999985
40
0.874999999999985
40
0.937499999999993
40
0.937499999999993
40
1
40
1
40
1
40
1
41
1
10
18.475
20
44.8695908606263
30
0
41
1
10
18.4484556444192
20
44.8695908606264
30
0
41
1
10
18.4222300438814
20
44.8722717150157
30
0
41
1
10
18.3833634690743
20
44.8802612375092
30
0
41
1
10
18.3704317402707
20
44.8836086465467
30
0
41
1
10
18.3449919953366
20
44.8916031205519
30
0
41
1
10
18.3325725560147
20
44.8962154709821
30
0
41
1
10
18.296184564849
20
44.9118344485013
30
0
41
1
10
18.2730780593058
20
44.9246060481417
30
0
41
1
10
18.2401788836796
20
44.9473681033131
30
0
41
1
10
18.229578244517
20
44.9555175513783
30
0
41
1
10
18.2093110579121
20
44.9727619998869
30
0
41
1
10
18.1996103375621
20
44.981880238984
30
0
41
1
10
18.1810779535538
20
45.001112540586
30
0
41
1
10
18.1723267536419
20
45.0111473400235
30
0
41
1
10
18.1559361639676
20
45.0318850743754
30
0
41
1
10
18.1406160308639
20
45.0533339332647
30
0
41
1
10
18.1274016867926
20
45.0761817076196
30
0
41
1
10
18.1152528907665
20
45.0997373456858
30
0
41
1
10
18.1096878543855
20
45.111936042883
30
0
41
1
10
18.0949091403936
20
45.1489555575994
30
0
41
1
10
18.0875231030775
20
45.1742669785693
30
0
41
1
10
18.0800458409529
20
45.2131566601964
30
0
41
1
10
18.0781579509293
20
45.2262747296619
30
0
41
1
10
18.0756269732037
20
45.2528297076614
30
0
41
1
10
18.075
20
45.2661389922157
30
0
41
1
10
18.075
20
45.2793571509137
30
0
0
SPLINE
5
16A
100
AcDbEntity
8
1
62
256
6
ByLayer
370
18
48
1
60
0
100
AcDbSpline
70
4
71
3
72
8
73
4
40
0
40
0
40
0
40
0
40
1
40
1
40
1
40
1
41
1
10
28.9499999999999
20
48.2350472581919
30
0
41
1
10
28.7167026129473
20
48.4733261949083
30
0
41
1
10
28.4833687655885
20
48.7115693312277
30
0
41
1
10
28.2499999999999
20
48.9497781813156
30
0
0
SPLINE
5
16B
100
AcDbEntity
8
1
62
256
6
ByLayer
370
18
48
1
60
0
100
AcDbSpline
70
4
71
3
72
30
73
26
40
0
40
0
40
0
40
0
40
0.124999999999934
40
0.124999999999934
40
0.187499999999917
40
0.187499999999917
40
0.249999999999899
40
0.249999999999899
40
0.374999999999896
40
0.374999999999896
40
0.437499999999903
40
0.437499999999903
40
0.499999999999911
40
0.499999999999911
40
0.624999999999937
40
0.624999999999937
40
0.687499999999947
40
0.687499999999947
40
0.749999999999958
40
0.749999999999958
40
0.812499999999968
40
0.812499999999968
40
0.874999999999979
40
0.874999999999979
40
1
40
1
40
1
40
1
41
1
10
21.9250000000229
20
45.2793571509099
30
0
41
1
10
21.9250000000227
20
45.2526271959507
30
0
41
1
10
21.9224702320173
20
45.2263263466329
30
0
41
1
10
21.9150279070763
20
45.1874938001563
30
0
41
1
10
21.9119347879336
20
45.1746534853615
30
0
41
1
10
21.9044957734938
20
45.1491853548289
30
0
41
1
10
21.9001219702073
20
45.1364987669532
30
0
41
1
10
21.8853400702994
20
45.0995017490213
30
0
41
1
10
21.8732629096747
20
45.0760730842746
30
0
41
1
10
21.8518365405371
20
45.0427711988123
30
0
41
1
10
21.844138856299
20
45.0319795298714
30
0
41
1
10
21.8275873615173
20
45.0110391387326
30
0
41
1
10
21.8188155077441
20
45.0010010695113
30
0
41
1
10
21.7912962753001
20
44.9724452388068
30
0
41
1
10
21.7712561461915
20
44.9553423658858
30
0
41
1
10
21.738598138628
20
44.9326544978527
30
0
41
1
10
21.7272194749054
20
44.9255614720513
30
0
41
1
10
21.7039181381346
20
44.9126247687907
30
0
41
1
10
21.6919842719136
20
44.90676457949
30
0
41
1
10
21.6675504216866
20
44.8962599287919
30
0
41
1
10
21.6549980971924
20
44.8915997995026
30
0
41
1
10
21.6295670243211
20
44.8836084660223
30
0
41
1
10
21.6167445016849
20
44.880288261731
30
0
41
1
10
21.5779642071674
20
44.8723020631289
30
0
41
1
10
21.5516968166703
20
44.8695908606263
30
0
41
1
10
21.525
20
44.8695908606264
30
0
0
SPLINE
5
16C
100
AcDbEntity
8
1
62
256
6
ByLayer
370
18
48
1
60
0
100
AcDbSpline
70
4
71
3
72
8
73
4
40
0
40
0
40
0
40
0
40
1
40
1
40
1
40
1
41
1
10
28.9499999999999
20
38.0028646946517
30
0
41
1
10
28.717385155116
20
38.3044148652845
30
0
41
1
10
28.4840015193126
20
38.6055081962349
30
0
41
1
10
28.2499999999999
20
38.9060242764537
30
0
0
SPLINE
5
16D
100
AcDbEntity
8
1
62
256
6
ByLayer
370
18
48
1
60
0
100
AcDbSpline
70
4
71
3
72
32
73
28
40
0
40
0
40
0
40
0
40
0.0624999999999972
40
0.0624999999999972
40
0.124999999999994
40
0.124999999999994
40
0.249999999999989
40
0.249999999999989
40
0.312499999999984
40
0.312499999999984
40
0.37499999999998
40
0.37499999999998
40
0.499999999999996
40
0.499999999999996
40
0.562499999999993
40
0.562499999999993
40
0.624999999999989
40
0.624999999999989
40
0.749999999999993
40
0.749999999999993
40
0.812499999999994
40
0.812499999999994
40
0.874999999999996
40
0.874999999999996
40
0.937499999999998
40
0.937499999999998
40
1
40
1
40
1
40
1
41
1
10
21.925
20
34.1733540203475
30
0
41
1
10
21.925
20
34.1577441557297
30
0
41
1
10
21.9245016761417
20
34.1421211416388
30
0
41
1
10
21.9225309625994
20
34.1111379919021
30
0
41
1
10
21.9210589133901
20
34.0957350218262
30
0
41
1
10
21.9151868880888
20
34.0497911614099
30
0
41
1
10
21.9093431109089
20
34.0195131222784
30
0
41
1
10
21.897498074098
20
33.9746566784797
30
0
41
1
10
21.893033699715
20
33.9597984761669
30
0
41
1
10
21.8830000961518
20
33.9302832158826
30
0
41
1
10
21.8774184903456
20
33.9156100206178
30
0
41
1
10
21.8591819896766
20
33.8726228962078
30
0
41
1
10
21.8449831323772
20
33.8450985960815
30
0
41
1
10
21.8202005592372
20
33.8057474995698
30
0
41
1
10
21.8113550357059
20
33.7929552210946
30
0
41
1
10
21.792354966391
20
33.7680977629427
30
0
41
1
10
21.782231738974
20
33.7560880110446
30
0
41
1
10
21.7503563397753
20
33.722019316658
30
0
41
1
10
21.7269594387177
20
33.7016524159592
30
0
41
1
10
21.6878456918741
20
33.6754928423141
30
0
41
1
10
21.6741340457281
20
33.667542013257
30
0
41
1
10
21.6460786379623
20
33.6537839415104
30
0
41
1
10
21.6316933229532
20
33.6479335657893
30
0
41
1
10
21.6021681168189
20
33.6384033351323
30
0
41
1
10
21.5869812296858
20
33.6347149886802
30
0
41
1
10
21.555976776776
20
33.6297563285023
30
0
41
1
10
21.5404838485861
20
33.6285314130726
30
0
41
1
10
21.525
20
33.6285314130726
30
0
0
SPLINE
5
16E
100
AcDbEntity
8
1
62
256
6
ByLayer
370
18
48
1
60
0
100
AcDbSpline
70
4
71
3
72
30
73
26
40
0
40
0
40
0
40
0
40
0.124999999999995
40
0.124999999999995
40
0.156249999999992
40
0.156249999999992
40
0.187499999999989
40
0.249999999999982
40
0.249999999999982
40
0.312499999999976
40
0.312499999999976
40
0.374999999999969
40
0.437499999999963
40
0.437499999999963
40
0.499999999999956
40
0.499999999999956
40
0.624999999999974
40
0.624999999999974
40
0.749999999999992
40
0.749999999999992
40
0.812500000000001
40
0.812500000000001
40
0.87500000000001
40
0.87500000000001
40
1
40
1
40
1
40
1
41
1
10
18.4750000000001
20
33.6285314130724
30
0
41
1
10
18.4434838302958
20
33.6285314130724
30
0
41
1
10
18.4127975282275
20
33.6335518723001
30
0
41
1
10
18.3754018775675
20
33.6456486409895
30
0
41
1
10
18.3679858516778
20
33.6483612494705
30
0
41
1
10
18.3534843618353
20
33.6542690703275
30
0
41
1
10
18.332137575553
20
33.6638839351813
30
0
41
1
10
18.3119368186067
20
33.6756275863122
30
0
41
1
10
18.2859434693283
20
33.6930337131096
30
0
41
1
10
18.2734002721153
20
33.7026442763955
30
0
41
1
10
18.2498192952166
20
33.7229542702785
30
0
41
1
10
18.2275536968055
20
33.7444680902724
30
0
41
1
10
18.207628862227
20
33.76812416259
30
0
41
1
10
18.1887837730622
20
33.7927684111127
30
0
41
1
10
18.179873724051
20
33.8056298293941
30
0
41
1
10
18.1548765239321
20
33.845320879834
30
0
41
1
10
18.140721314196
20
33.8728515265702
30
0
41
1
10
18.1166036414081
20
33.9297003685217
30
0
41
1
10
18.1066511625445
20
33.9590228204263
30
0
41
1
10
18.0946732864748
20
34.0042645694071
30
0
41
1
10
18.0911932840927
20
34.0195026136709
30
0
41
1
10
18.0852755048813
20
34.0499981717234
30
0
41
1
10
18.0828262569598
20
34.0652982105631
30
0
41
1
10
18.0769553354025
20
34.1113497637789
30
0
41
1
10
18.075
20
34.1422516398011
30
0
41
1
10
18.075
20
34.1733540203475
30
0
0
SPLINE
5
16F
100
AcDbEntity
8
1
62
256
6
ByLayer
370
18
48
1
60
0
100
AcDbSpline
70
4
71
3
72
8
73
4
40
0
40
0
40
0
40
0
40
1
40
1
40
1
40
1
41
1
10
23.2418217614997
20
48.9497781813156
30
0
41
1
10
22.8025473277702
20
48.1731525519585
30
0
41
1
10
22.3635905977075
20
47.39634688913
30
0
41
1
10
21.925
20
46.6193337496943
30
0
0
SPLINE
5
170
100
AcDbEntity
8
1
62
256
6
ByLayer
370
18
48
1
60
0
100
AcDbSpline
70
4
71
3
72
8
73
4
40
0
40
0
40
0
40
0
40
1
40
1
40
1
40
1
41
1
10
23.2418217614997
20
38.9060242764537
30
0
41
1
10
22.7970974394247
20
37.9167868306778
30
0
41
1
10
22.3578450722475
20
36.9249075564605
30
0
41
1
10
21.925
20
35.9299348769989
30
0
0
SPLINE
5
171
100
AcDbEntity
8
1
62
256
6
ByLayer
370
18
48
1
60
0
100
AcDbSpline
70
4
71
3
72
8
73
4
40
0
40
0
40
0
40
0
40
1
40
1
40
1
40
1
41
1
10
18.075
20
46.6193337496943
30
0
41
1
10
17.6364094022925
20
47.39634688913
30
0
41
1
10
17.1974526722298
20
48.1731525519585
30
0
41
1
10
16.7581782385004
20
48.9497781813156
30
0
0
SPLINE
5
172
100
AcDbEntity
8
1
62
256
6
ByLayer
370
18
48
1
60
0
100
AcDbSpline
70
4
71
3
72
8
73
4
40
0
40
0
40
0
40
0
40
1
40
1
40
1
40
1
41
1
10
18.075
20
35.9299348769989
30
0
41
1
10
17.6421549277526
20
36.9249075564605
30
0
41
1
10
17.2029025605754
20
37.9167868306778
30
0
41
1
10
16.7581782385004
20
38.9060242764537
30
0
0
SPLINE
5
173
100
AcDbEntity
8
1
62
256
6
ByLayer
370
18
48
1
60
0
100
AcDbSpline
70
2053
71
3
72
163
73
159
40
0
40
0
40
0
40
0
40
0.0156250000000075
40
0.0156250000000075
40
0.031250000000015
40
0.0468750000000224
40
0.0468750000000224
40
0.0507812500000245
40
0.0507812500000245
40
0.0546875000000265
40
0.0625000000000305
40
0.0625000000000305
40
0.0781250000000382
40
0.0937500000000459
40
0.0937500000000459
40
0.0976562500000479
40
0.0976562500000479
40
0.10156250000005
40
0.10156250000005
40
0.109375000000053
40
0.109375000000053
40
0.125000000000059
40
0.140625000000064
40
0.140625000000064
40
0.148437500000067
40
0.148437500000067
40
0.15625000000007
40
0.15625000000007
40
0.171875000000076
40
0.187500000000082
40
0.203125000000089
40
0.203125000000089
40
0.20703125000009
40
0.210937500000092
40
0.218750000000093
40
0.218750000000093
40
0.234375000000096
40
0.250000000000098
40
0.250000000000098
40
0.257812500000099
40
0.257812500000099
40
0.2656250000001
40
0.2656250000001
40
0.281250000000103
40
0.296875000000105
40
0.312500000000108
40
0.312500000000108
40
0.316406250000108
40
0.316406250000108
40
0.320312500000108
40
0.320312500000108
40
0.32812500000011
40
0.32812500000011
40
0.343750000000113
40
0.359375000000115
40
0.359375000000115
40
0.367187500000117
40
0.371093750000117
40
0.371093750000117
40
0.375000000000117
40
0.375000000000117
40
0.390625000000118
40
0.40625000000012
40
0.421875000000121
40
0.421875000000121
40
0.425781250000121
40
0.425781250000121
40
0.429687500000121
40
0.429687500000121
40
0.43750000000012
40
0.43750000000012
40
0.45312500000012
40
0.468750000000119
40
0.468750000000119
40
0.476562500000118
40
0.480468750000118
40
0.480468750000118
40
0.484375000000118
40
0.484375000000118
40
0.500000000000116
40
0.515625000000114
40
0.531250000000112
40
0.531250000000112
40
0.535156250000112
40
0.535156250000112
40
0.539062500000111
40
0.546875000000111
40
0.546875000000111
40
0.562500000000109
40
0.578125000000107
40
0.578125000000107
40
0.582031250000107
40
0.582031250000107
40
0.585937500000107
40
0.585937500000107
40
0.593750000000106
40
0.593750000000106
40
0.609375000000104
40
0.625000000000103
40
0.625000000000103
40
0.632812500000102
40
0.632812500000102
40
0.636718750000102
40
0.636718750000102
40
0.640625000000102
40
0.6562500000001
40
0.671875000000099
40
0.687500000000097
40
0.687500000000097
40
0.691406250000097
40
0.691406250000097
40
0.695312500000096
40
0.703125000000095
40
0.703125000000095
40
0.718750000000093
40
0.734375000000091
40
0.734375000000091
40
0.74218750000009
40
0.74218750000009
40
0.74609375000009
40
0.74609375000009
40
0.750000000000089
40
0.765625000000086
40
0.781250000000083
40
0.79687500000008
40
0.79687500000008
40
0.804687500000077
40
0.804687500000077
40
0.812500000000075
40
0.812500000000075
40
0.828125000000069
40
0.843750000000064
40
0.843750000000064
40
0.851562500000061
40
0.855468750000059
40
0.855468750000059
40
0.859375000000057
40
0.859375000000057
40
0.87500000000005
40
0.890625000000043
40
0.906250000000036
40
0.906250000000036
40
0.910156250000035
40
0.910156250000035
40
0.914062500000034
40
0.914062500000034
40
0.92187500000003
40
0.92187500000003
40
0.937500000000025
40
0.953125000000019
40
0.953125000000019
40
0.960937500000015
40
0.960937500000015
40
0.968750000000012
40
0.968750000000012
40
0.984375000000006
40
0.984375000000006
40
1
40
1
40
1
40
1
41
1
10
36.7078792498531
20
25.5984146681211
30
0
41
1
10
36.7149511244586
20
25.6621262616862
30
0
41
1
10
36.7267016648104
20
25.7247949948052
30
0
41
1
10
36.7592180891589
20
25.8481410254883
30
0
41
1
10
36.8007532369033
20
25.9694949302716
30
0
41
1
10
36.860197589719
20
26.0869539182596
30
0
41
1
10
36.9030771542875
20
26.1591477985666
30
0
41
1
10
36.9119417555146
20
26.1735262884044
30
0
41
1
10
36.9301445006206
20
26.2020017100935
30
0
41
1
10
36.9581950896442
20
26.2443534263837
30
0
41
1
10
36.988454091873
20
26.2856396192766
30
0
41
1
10
37.0518596440492
20
26.366829235621
30
0
41
1
10
37.1440861670869
20
26.4714017858926
30
0
41
1
10
37.2514323594282
20
26.5688554779633
30
0
41
1
10
37.3233101099599
20
26.627552813952
30
0
41
1
10
37.3379255335643
20
26.6391814775188
30
0
41
1
10
37.3676399303347
20
26.6622165484372
30
0
41
1
10
37.3827449032144
20
26.6736264569472
30
0
41
1
10
37.4285384582969
20
26.7073398442495
30
0
41
1
10
37.4597842768358
20
26.7291899379309
30
0
41
1
10
37.5556221074222
20
26.7929205915286
30
0
41
1
10
37.6889950705666
20
26.8730535367237
30
0
41
1
10
37.8332757597271
20
26.9438763059272
30
0
41
1
10
37.9455936691882
20
26.9935382826021
30
0
41
1
10
37.9837187498098
20
27.0095153724551
30
0
41
1
10
38.0613582833307
20
27.0403089124888
30
0
41
1
10
38.1009083499936
20
27.055133078174
30
0
41
1
10
38.2204070936315
20
27.0974174181589
30
0
41
1
10
38.3827851068081
20
27.148306017028
30
0
41
1
10
38.6352087524977
20
27.2088397736965
30
0
41
1
10
38.8093727678316
20
27.2387941197167
30
0
41
1
10
38.9201076944948
20
27.2542078771328
30
0
41
1
10
38.9646509673104
20
27.2600475921391
30
0
41
1
10
39.0537965119102
20
27.2703082887079
30
0
41
1
10
39.1207212468906
20
27.276428771435
30
0
41
1
10
39.2546566828702
20
27.2866086478929
30
0
41
1
10
39.4334661239444
20
27.2946955885869
30
0
41
1
10
39.6127274025083
20
27.291970502535
30
0
41
1
10
39.7473452877101
20
27.2858101430385
30
0
41
1
10
39.79224661909
20
27.2830693338763
30
0
41
1
10
39.8821077181846
20
27.2761866401839
30
0
41
1
10
39.9271494923357
20
27.2720328725297
30
0
41
1
10
40.0610034467097
20
27.2575780084279
30
0
41
1
10
40.2368687765905
20
27.2329622734249
30
0
41
1
10
40.49303045833
20
27.1803000258088
30
0
41
1
10
40.6586978237493
20
27.1345861477524
30
0
41
1
10
40.7605925745967
20
27.1025615699277
30
0
41
1
10
40.7808889663677
20
27.0959835551713
30
0
41
1
10
40.8213145540162
20
27.0824760594858
30
0
41
1
10
40.8414566945141
20
27.0755414201336
30
0
41
1
10
40.901304235315
20
27.0543196841136
30
0
41
1
10
40.9405353944703
20
27.0395814252419
30
0
41
1
10
41.0562580888242
20
26.9936112557718
30
0
41
1
10
41.2053079712193
20
26.9276437399724
30
0
41
1
10
41.3439619520698
20
26.8522874703261
30
0
41
1
10
41.4439776308465
20
26.7921283979137
30
0
41
1
10
41.4929901678942
20
26.7611368935451
30
0
41
1
10
41.5404777799529
20
26.7287379879102
30
0
41
1
10
41.5717927183728
20
26.7068205771916
30
0
41
1
10
41.5872979283835
20
26.6956883387984
30
0
41
1
10
41.6637102491459
20
26.6393957265668
30
0
41
1
10
41.778290881407
20
26.5457466970937
30
0
41
1
10
41.9276775748312
20
26.3945834202881
30
0
41
1
10
42.0122169767209
20
26.2865239636314
30
0
41
1
10
42.0601865894747
20
26.2165942313429
30
0
41
1
10
42.0695365404561
20
26.2024883759039
30
0
41
1
10
42.0877419176032
20
26.1740327628365
30
0
41
1
10
42.0966091131875
20
26.1596629413179
30
0
41
1
10
42.1223675671388
20
26.1163334309346
30
0
41
1
10
42.1383836604363
20
26.0872157190872
30
0
41
1
10
42.1830251347916
20
25.9991722416588
30
0
41
1
10
42.233478541145
20
25.8799422628078
30
0
41
1
10
42.2660342199413
20
25.7570102894863
30
0
41
1
10
42.2836279443617
20
25.6633815441128
30
0
41
1
10
42.2907162125642
20
25.6162092728284
30
0
41
1
10
42.2951897057523
20
25.5684872751702
30
0
41
1
10
42.297583387719
20
25.5365487134303
30
0
41
1
10
42.2984835654764
20
25.5205359982494
30
0
41
1
10
42.3014887318343
20
25.4406353126844
30
0
41
1
10
42.2968128792388
20
25.3131389222941
30
0
41
1
10
42.2622004549428
20
25.1229084898514
30
0
41
1
10
42.2207527619262
20
24.9967969667183
30
0
41
1
10
42.1889384115322
20
24.9182245907537
30
0
41
1
10
42.1822822087
20
24.9025322098334
30
0
41
1
10
42.1684562500429
20
24.8713540724506
30
0
41
1
10
42.1469196997789
20
24.8248301734648
30
0
41
1
10
42.1230224553986
20
24.7790291249939
30
0
41
1
10
42.0721388489722
20
24.68838096036
30
0
41
1
10
41.9960713219757
20
24.5700559812101
30
0
41
1
10
41.9038015805978
20
24.4568328989587
30
0
41
1
10
41.8409946170233
20
24.3877229676408
30
0
41
1
10
41.8281757053914
20
24.3739839184298
30
0
41
1
10
41.8020185074826
20
24.3466740726
30
0
41
1
10
41.7886905228155
20
24.333115122929
30
0
41
1
10
41.7481478437734
20
24.2929114699808
30
0
41
1
10
41.7203076821256
20
24.266668858832
30
0
41
1
10
41.6344080052102
20
24.1895935051959
30
0
41
1
10
41.5135438665963
20
24.0912243677697
30
0
41
1
10
41.3803154080667
20
24.0015683983493
30
0
41
1
10
41.2757337830715
20
23.93765812486
30
0
41
1
10
41.2400951406896
20
23.9169109656327
30
0
41
1
10
41.1854541688755
20
23.8866418823843
30
0
41
1
10
41.1670243114368
20
23.8766847118994
30
0
41
1
10
41.129953176806
20
23.8571540238134
30
0
41
1
10
41.0366542225629
20
23.8092389214866
30
0
41
1
10
40.8632325613988
20
23.7310641294911
30
0
41
1
10
40.6206583982369
20
23.6436951259858
30
0
41
1
10
40.4514004126714
20
23.5967553962009
30
0
41
1
10
40.343196159369
20
23.5710687312953
30
0
41
1
10
40.3214530362184
20
23.5661194181672
30
0
41
1
10
40.2779470468339
20
23.5566363772477
30
0
41
1
10
40.2125805862915
20
23.5430169689363
30
0
41
1
10
40.1468955108602
20
23.5311939136231
30
0
41
1
10
40.015107346792
20
23.5099097321883
30
0
41
1
10
39.838276915657
20
23.4878197799897
30
0
41
1
10
39.6592457733642
20
23.4782050259799
30
0
41
1
10
39.5241335853773
20
23.4757555631105
30
0
41
1
10
39.4789561460902
20
23.4757339414437
30
0
41
1
10
39.4109759565154
20
23.476916322411
30
0
41
1
10
39.3882667655401
20
23.4775140236691
30
0
41
1
10
39.3430121785726
20
23.479108486273
30
0
41
1
10
39.2301460710273
20
23.484097732355
30
0
41
1
10
39.0293818970617
20
23.5019638564143
30
0
41
1
10
38.7666968122182
20
23.54429596744
30
0
41
1
10
38.5949248928467
20
23.584874481878
30
0
41
1
10
38.4673959242004
20
23.6200744728106
30
0
41
1
10
38.4250496109574
20
23.6326252449934
30
0
41
1
10
38.3416938019603
20
23.6590565222745
30
0
41
1
10
38.3005759174005
20
23.6729643934841
30
0
41
1
10
38.1788789514037
20
23.7167271327785
30
0
41
1
10
38.0210275478346
20
23.78050681903
30
0
41
1
10
37.8719399522792
20
23.8549708538475
30
0
41
1
10
37.7634836838556
20
23.9148709594938
30
0
41
1
10
37.7100967526584
20
23.9458355993207
30
0
41
1
10
37.6580002702608
20
23.9783479051802
30
0
41
1
10
37.6235601222533
20
24.0003705872522
30
0
41
1
10
37.6064952651857
20
24.0115504920937
30
0
41
1
10
37.522383497227
20
24.0680009328194
30
0
41
1
10
37.3947722795564
20
24.1623234022999
30
0
41
1
10
37.223833591761
20
24.3153772294938
30
0
41
1
10
37.1236307576314
20
24.4250608065319
30
0
41
1
10
37.0654682209794
20
24.4960568605458
30
0
41
1
10
37.0540594775037
20
24.510378568547
30
0
41
1
10
37.0316959638278
20
24.53926960272
30
0
41
1
10
37.0207360476503
20
24.553847396721
30
0
41
1
10
36.9887350766544
20
24.5976927754607
30
0
41
1
10
36.9685061840691
20
24.6271551456793
30
0
41
1
10
36.9110828126071
20
24.7162177478353
30
0
41
1
10
36.8432060411403
20
24.8367652244254
30
0
41
1
10
36.7925473018756
20
24.9607835703667
30
0
41
1
10
36.7611451641742
20
25.0550991249353
30
0
41
1
10
36.7517784571658
20
25.0867550905507
30
0
41
1
10
36.7352948700952
20
25.1505080508602
30
0
41
1
10
36.7281701091834
20
25.1826711372435
30
0
41
1
10
36.7104175496632
20
25.2789080638589
30
0
41
1
10
36.7033231604492
20
25.3429616173915
30
0
41
1
10
36.6985172927232
20
25.4708513232248
30
0
41
1
10
36.7008073752477
20
25.5347030745561
30
0
41
1
10
36.7078792498531
20
25.5984146681211
30
0
0
SPLINE
5
174
100
AcDbEntity
8
1
62
256
6
ByLayer
370
18
48
1
60
0
100
AcDbSpline
70
2053
71
3
72
208
73
204
40
0
40
0
40
0
40
0
40
0.015625000000004
40
0.015625000000004
40
0.0312500000000081
40
0.0312500000000081
40
0.0468750000000121
40
0.0468750000000121
40
0.0625000000000161
40
0.0625000000000161
40
0.0781250000000201
40
0.0781250000000201
40
0.0937500000000242
40
0.0937500000000242
40
0.0976562500000252
40
0.0996093750000257
40
0.0996093750000257
40
0.101562500000026
40
0.101562500000026
40
0.109375000000028
40
0.109375000000028
40
0.125000000000032
40
0.125000000000032
40
0.140625000000035
40
0.140625000000035
40
0.144531250000036
40
0.144531250000036
40
0.146484375000036
40
0.146484375000036
40
0.148437500000037
40
0.156250000000038
40
0.156250000000038
40
0.17187500000004
40
0.17187500000004
40
0.179687500000041
40
0.179687500000041
40
0.187500000000043
40
0.187500000000043
40
0.203125000000045
40
0.203125000000045
40
0.218750000000048
40
0.218750000000048
40
0.226562500000049
40
0.226562500000049
40
0.23046875000005
40
0.23046875000005
40
0.23242187500005
40
0.23242187500005
40
0.234375000000051
40
0.250000000000054
40
0.250000000000054
40
0.265625000000058
40
0.265625000000058
40
0.281250000000061
40
0.281250000000061
40
0.285156250000062
40
0.285156250000062
40
0.289062500000062
40
0.296875000000063
40
0.296875000000063
40
0.312500000000065
40
0.312500000000065
40
0.328125000000067
40
0.328125000000067
40
0.335937500000068
40
0.335937500000068
40
0.337890625000068
40
0.339843750000068
40
0.339843750000068
40
0.343750000000067
40
0.343750000000067
40
0.359375000000068
40
0.359375000000068
40
0.375000000000068
40
0.375000000000068
40
0.390625000000069
40
0.390625000000069
40
0.398437500000069
40
0.398437500000069
40
0.400390625000068
40
0.400390625000068
40
0.402343750000068
40
0.406250000000067
40
0.406250000000067
40
0.421875000000065
40
0.437500000000062
40
0.437500000000062
40
0.453125000000059
40
0.453125000000059
40
0.460937500000058
40
0.460937500000058
40
0.462890625000058
40
0.462890625000058
40
0.464843750000058
40
0.468750000000057
40
0.468750000000057
40
0.484375000000054
40
0.484375000000054
40
0.500000000000051
40
0.500000000000051
40
0.515625000000049
40
0.515625000000049
40
0.519531250000048
40
0.519531250000048
40
0.523437500000048
40
0.523437500000048
40
0.531250000000046
40
0.531250000000046
40
0.546875000000043
40
0.546875000000043
40
0.56250000000004
40
0.56250000000004
40
0.570312500000038
40
0.570312500000038
40
0.572265625000038
40
0.572265625000038
40
0.574218750000038
40
0.578125000000037
40
0.578125000000037
40
0.593750000000036
40
0.593750000000036
40
0.609375000000034
40
0.609375000000034
40
0.617187500000033
40
0.617187500000033
40
0.619140625000033
40
0.619140625000033
40
0.621093750000033
40
0.621093750000033
40
0.625000000000032
40
0.625000000000032
40
0.64062500000003
40
0.64062500000003
40
0.656250000000029
40
0.656250000000029
40
0.660156250000028
40
0.662109375000028
40
0.662109375000028
40
0.664062500000028
40
0.664062500000028
40
0.671875000000027
40
0.671875000000027
40
0.687500000000025
40
0.687500000000025
40
0.703125000000023
40
0.703125000000023
40
0.707031250000022
40
0.707031250000022
40
0.710937500000022
40
0.718750000000021
40
0.718750000000021
40
0.734375000000019
40
0.734375000000019
40
0.750000000000016
40
0.750000000000016
40
0.753906250000016
40
0.753906250000016
40
0.757812500000015
40
0.765625000000015
40
0.765625000000015
40
0.781250000000013
40
0.781250000000013
40
0.796875000000011
40
0.796875000000011
40
0.80468750000001
40
0.80468750000001
40
0.81250000000001
40
0.81250000000001
40
0.828125000000008
40
0.828125000000008
40
0.843750000000006
40
0.859375000000005
40
0.859375000000005
40
0.863281250000004
40
0.863281250000004
40
0.867187500000004
40
0.867187500000004
40
0.875000000000003
40
0.875000000000003
40
0.890625000000003
40
0.906250000000002
40
0.906250000000002
40
0.921875000000001
40
0.921875000000001
40
0.925781250000001
40
0.925781250000001
40
0.9296875
40
0.9375
40
0.9375
40
0.953125
40
0.953125
40
0.96875
40
0.96875
40
0.984375000000001
40
0.984375000000001
40
0.988281250000001
40
0.988281250000001
40
0.992187500000001
40
0.99609375
40
0.998046875
40
0.9990234375
40
0.9990234375
40
1
40
1
40
1
40
1
41
1
10
67.9100088395613
20
-7.41952756250441
30
0
41
1
10
67.6320799029406
20
-7.18848030367997
30
0
41
1
10
67.3671430881941
20
-6.94584683710886
30
0
41
1
10
66.8634236267678
20
-6.43701798880286
30
0
41
1
10
66.6246370292363
20
-6.17082634027958
30
0
41
1
10
66.1742571816255
20
-5.61370807080462
30
0
41
1
10
65.9626548228395
20
-5.3227902033552
30
0
41
1
10
65.5687348769524
20
-4.71408479204138
30
0
41
1
10
65.3901153616506
20
-4.40197178705353
30
0
41
1
10
65.0696289951928
20
-3.76238140374053
30
0
41
1
10
64.9277351998679
20
-3.43486670440808
30
0
41
1
10
64.6817928215177
20
-2.76382685169608
30
0
41
1
10
64.5777346763391
20
-2.4203058266713
30
0
41
1
10
64.4728914813944
20
-1.98018783384424
30
0
41
1
10
64.4433364287189
20
-1.84734633056539
30
0
41
1
10
64.4166919813456
20
-1.71326765596211
30
0
41
1
10
64.3995836171349
20
-1.62360353605891
30
0
41
1
10
64.3913647640717
20
-1.57867055753175
30
0
41
1
10
64.3520698082118
20
-1.35418932083351
30
0
41
1
10
64.3262652401326
20
-1.17455792839189
30
0
41
1
10
64.2654505947887
20
-0.6355268401974
30
0
41
1
10
64.2469957508099
20
-0.275990576544018
30
0
41
1
10
64.2537955865594
20
0.443442762701608
30
0
41
1
10
64.2790489331258
20
0.803339827785834
30
0
41
1
10
64.3385338767735
20
1.25344139620978
30
0
41
1
10
64.3518303860968
20
1.34347324998211
30
0
41
1
10
64.3738968822339
20
1.47853851714021
30
0
41
1
10
64.3816123324344
20
1.52359572386493
30
0
41
1
10
64.3976986631638
20
1.61341354500613
30
0
41
1
10
64.4395765996503
20
1.83735977358072
30
0
41
1
10
64.4896691080355
20
2.0583497073284
30
0
41
1
10
64.625151992292
20
2.58324195229884
30
0
41
1
10
64.7357788627779
20
2.92587348448325
30
0
41
1
10
64.9309891680037
20
3.42934801399184
30
0
41
1
10
65.0009487251435
20
3.59542354009975
30
0
41
1
10
65.1505754937065
20
3.92411095933304
30
0
41
1
10
65.2302584926892
20
4.08675284024582
30
0
41
1
10
65.4837877218134
20
4.56931260389212
30
0
41
1
10
65.6692181252859
20
4.87849547156185
30
0
41
1
10
66.0705282246976
20
5.47380030424634
30
0
41
1
10
66.2864179469026
20
5.75991432013114
30
0
41
1
10
66.6322244357883
20
6.17258936514452
30
0
41
1
10
66.7511636373271
20
6.30739209443746
30
0
41
1
10
66.9350392784327
20
6.50551112804652
30
0
41
1
10
66.9972427723902
20
6.57086961186519
30
0
41
1
10
67.0919148180823
20
6.66788847837742
30
0
41
1
10
67.1237169404342
20
6.70007490138954
30
0
41
1
10
67.1876350887333
20
6.76396881735218
30
0
41
1
10
67.4767926531735
20
7.04943399470861
30
0
41
1
10
67.7794473973599
20
7.31672705010732
30
0
41
1
10
68.3376416688531
20
7.7650843089792
30
0
41
1
10
68.6268145057934
20
7.97584046172253
30
0
41
1
10
69.2248234661041
20
8.37143720322251
30
0
41
1
10
69.5336611692346
20
8.55627522862659
30
0
41
1
10
69.9320715608109
20
8.77119549986534
30
0
41
1
10
70.0121952667669
20
8.81327401580253
30
0
41
1
10
70.1730444808038
20
8.89550472486002
30
0
41
1
10
70.4153508958133
20
9.01602833473902
30
0
41
1
10
70.6607146422622
20
9.12821657108631
30
0
41
1
10
71.1554436757038
20
9.34173558044446
30
0
41
1
10
71.4905898075015
20
9.46962976319537
30
0
41
1
10
72.1713604824034
20
9.69723351897213
30
0
41
1
10
72.5169856529548
20
9.7969410744781
30
0
41
1
10
73.0433543884722
20
9.92531873165186
30
0
41
1
10
73.2201345041401
20
9.96457483437089
30
0
41
1
10
73.4427882344283
20
10.0091753693705
30
0
41
1
10
73.5320158034371
20
10.0265689741052
30
0
41
1
10
73.6215835777013
20
10.0430639004406
30
0
41
1
10
73.7558755717227
20
10.0670762437615
30
0
41
1
10
73.8454282050785
20
10.0821313168934
30
0
41
1
10
74.2933133191612
20
10.1526940879446
30
0
41
1
10
74.6520109163627
20
10.19409470204
30
0
41
1
10
75.3701654534475
20
10.2476480723622
30
0
41
1
10
75.7296224445251
20
10.2597986774129
30
0
41
1
10
76.4492936478624
20
10.2549604065486
30
0
41
1
10
76.8095078359297
20
10.2379725283076
30
0
41
1
10
77.3504081155689
20
10.1901808401461
30
0
41
1
10
77.5308048428997
20
10.1705262725366
30
0
41
1
10
77.7564237839151
20
10.1412097792771
30
0
41
1
10
77.8015807275739
20
10.1351050274328
30
0
41
1
10
77.8917313701712
20
10.1224427540123
30
0
41
1
10
78.026729912488
20
10.1027687987025
30
0
41
1
10
78.1610497399222
20
10.0810628905201
30
0
41
1
10
78.6072875021923
20
10.0042295691587
30
0
41
1
10
79.311717581866
20
9.85267723987812
30
0
41
1
10
79.9974267278402
20
9.64471871391683
30
0
41
1
10
80.6737341171971
20
9.40822527545964
30
0
41
1
10
81.0071880627351
20
9.27571495366689
30
0
41
1
10
81.5001021790122
20
9.05469937817753
30
0
41
1
10
81.6631937235143
20
8.97731255917844
30
0
41
1
10
81.8655020699308
20
8.87579067654383
30
0
41
1
10
81.9058940680858
20
8.8552420926772
30
0
41
1
10
81.9863134138986
20
8.81377028231879
30
0
41
1
10
82.1064722751187
20
8.75096235995761
30
0
41
1
10
82.2252258757539
20
8.68635829129769
30
0
41
1
10
82.6179653991213
20
8.467031833417
30
0
41
1
10
82.9222412255998
20
8.27886594185733
30
0
41
1
10
83.5110300469187
20
7.8769506147043
30
0
41
1
10
83.7955448107892
20
7.66320394275016
30
0
41
1
10
84.344279053732
20
7.20915898806038
30
0
41
1
10
84.6085037701644
20
6.96886815386159
30
0
41
1
10
84.925329530457
20
6.65071737485994
30
0
41
1
10
84.9880199473745
20
6.58619518439735
30
0
41
1
10
85.1120234184077
20
6.45532522818033
30
0
41
1
10
85.1733571583674
20
6.3889545034578
30
0
41
1
10
85.3551164703081
20
6.18717603665678
30
0
41
1
10
85.4724003168623
20
6.05010866715878
30
0
41
1
10
85.8125840116657
20
5.63122577296954
30
0
41
1
10
86.023849428657
20
5.3417512255449
30
0
41
1
10
86.4145480632211
20
4.74166888646889
30
0
41
1
10
86.5939884995742
20
4.43106618909613
30
0
41
1
10
86.8378261363679
20
3.94822798097417
30
0
41
1
10
86.9148752144841
20
3.78445320708698
30
0
41
1
10
87.0056633097551
20
3.5760298043204
30
0
41
1
10
87.0235592826962
20
3.534123721377
30
0
41
1
10
87.0586887738389
20
3.45018416497274
30
0
41
1
10
87.1104069457149
20
3.32404744155488
30
0
41
1
10
87.1592060857785
20
3.19723022878745
30
0
41
1
10
87.3154094187022
20
2.77299823691286
30
0
41
1
10
87.4197511783372
20
2.42879892813548
30
0
41
1
10
87.5870172145974
20
1.73069294031319
30
0
41
1
10
87.649945446917
20
1.37678723070283
30
0
41
1
10
87.7121072019596
20
0.838356329924608
30
0
41
1
10
87.7274449105406
20
0.657614810733492
30
0
41
1
10
87.7396739482347
20
0.430055881090141
30
0
41
1
10
87.7417723349714
20
0.384462433571883
30
0
41
1
10
87.7452678071891
20
0.293110683939318
30
0
41
1
10
87.7466650079799
20
0.247322052650304
30
0
41
1
10
87.749785973731
20
0.110222401772717
30
0
41
1
10
87.7504468319784
20
0.0190306687665611
30
0
41
1
10
87.7467514661541
20
-0.435902344815133
30
0
41
1
10
87.7214563891268
20
-0.796575069175816
30
0
41
1
10
87.6277262461554
20
-1.51160451771497
30
0
41
1
10
87.5592872695869
20
-1.86596066246079
30
0
41
1
10
87.4468285466891
20
-2.30497633817407
30
0
41
1
10
87.4110676216311
20
-2.43638562545368
30
0
41
1
10
87.3722574117687
20
-2.56735010547607
30
0
41
1
10
87.3457041915815
20
-2.65456065138136
30
0
41
1
10
87.3320773901723
20
-2.69814736720068
30
0
41
1
10
87.2624508021092
20
-2.91518037774472
30
0
41
1
10
87.2018767716786
20
-3.08628520746356
30
0
41
1
10
87.0061012746957
20
-3.59234475371866
30
0
41
1
10
86.8568878272694
20
-3.92006536039614
30
0
41
1
10
86.5229496356196
20
-4.55728220878291
30
0
41
1
10
86.3382186528062
20
-4.86677504039957
30
0
41
1
10
86.0854873838358
20
-5.2425259825564
30
0
41
1
10
86.0337820728018
20
-5.31720743130504
30
0
41
1
10
85.9286875477415
20
-5.46476172536657
30
0
41
1
10
85.7684153431663
20
-5.68354459799718
30
0
41
1
10
85.600425027638
20
-5.89486607144931
30
0
41
1
10
85.2544999891745
20
-6.30793958178913
30
0
41
1
10
85.010652086616
20
-6.57058961429411
30
0
41
1
10
84.4975853206485
20
-7.07171447679158
30
0
41
1
10
84.2283626716187
20
-7.31018522491666
30
0
41
1
10
83.8761175527748
20
-7.59345104410508
30
0
41
1
10
83.804850311171
20
-7.64938107308967
30
0
41
1
10
83.661406593522
20
-7.75925569851702
30
0
41
1
10
83.4446387094372
20
-7.92128140422801
30
0
41
1
10
83.2231448681043
20
-8.07511203523319
30
0
41
1
10
82.7740120252746
20
-8.37217496406876
30
0
41
1
10
82.4664116325933
20
-8.55611266092129
30
0
41
1
10
81.8352871832201
20
-8.89681456856206
30
0
41
1
10
81.5117615028125
20
-9.05357552781138
30
0
41
1
10
81.0145030543766
20
-9.26848720054531
30
0
41
1
10
80.8467055514785
20
-9.33676429953803
30
0
41
1
10
80.5072555039544
20
-9.46644374456775
30
0
41
1
10
80.3366698457445
20
-9.52744106168345
30
0
41
1
10
79.8223874328089
20
-9.69920465721248
30
0
41
1
10
79.476170467826
20
-9.79876765578911
30
0
41
1
10
78.7771753145728
20
-9.96893089388848
30
0
41
1
10
78.071617302516
20
-10.1101238393433
30
0
41
1
10
77.3529366618015
20
-10.1936891523581
30
0
41
1
10
76.8995641078277
20
-10.2275431863455
30
0
41
1
10
76.8086793504523
20
-10.2333934301631
30
0
41
1
10
76.6264853389106
20
-10.2432360757515
30
0
41
1
10
76.535395322715
20
-10.2472155707106
30
0
41
1
10
76.2626073938482
20
-10.2563333207393
30
0
41
1
10
76.0811947587416
20
-10.2586631998794
30
0
41
1
10
75.5382730230541
20
-10.2545920847206
30
0
41
1
10
74.817882266531
20
-10.2197133363766
30
0
41
1
10
74.104392002266
20
-10.1267759116143
30
0
41
1
10
73.3943757913936
20
-10.0045065944878
30
0
41
1
10
73.041104355248
20
-9.92870931482676
30
0
41
1
10
72.6017530780476
20
-9.81496219711718
30
0
41
1
10
72.5139306170142
20
-9.79124248114934
30
0
41
1
10
72.338798221281
20
-9.74195473394067
30
0
41
1
10
72.0774141063008
20
-9.66540633463541
30
0
41
1
10
71.8199347063792
20
-9.58107144329082
30
0
41
1
10
71.3101161524951
20
-9.40211216042553
30
0
41
1
10
70.9770795138971
20
-9.26911042626321
30
0
41
1
10
70.3246119422101
20
-8.97563526690632
30
0
41
1
10
70.00517991027
20
-8.81516447668909
30
0
41
1
10
69.3802157702571
20
-8.46587911876611
30
0
41
1
10
69.0746805178898
20
-8.27707159963859
30
0
41
1
10
68.7019038361798
20
-8.02222098280015
30
0
41
1
10
68.6277490335399
20
-7.97026422315344
30
0
41
1
10
68.4806777734793
20
-7.86464249250733
30
0
41
1
10
68.3349034201262
20
-7.75735942561218
30
0
41
1
10
68.1559453424646
20
-7.61906828990539
30
0
41
1
10
68.0323990374724
20
-7.52004348964317
30
0
41
1
10
67.9798218194342
20
-7.4771255212803
30
0
41
1
10
67.9448530323809
20
-7.44840681449182
30
0
41
1
10
67.9273793981001
20
-7.43396801618093
30
0
41
1
10
67.9100088395613
20
-7.4195275625044
30
0
0
SPLINE
5
175
100
AcDbEntity
8
1
62
256
6
ByLayer
370
18
48
1
60
0
100
AcDbSpline
70
2053
71
3
72
208
73
204
40
0
40
0
40
0
40
0
40
0.0156250000000002
40
0.0156250000000002
40
0.0312500000000004
40
0.0312500000000004
40
0.0468750000000006
40
0.0468750000000006
40
0.0625000000000008
40
0.0625000000000008
40
0.078125000000001
40
0.078125000000001
40
0.0937500000000012
40
0.0937500000000012
40
0.0976562500000012
40
0.0996093750000012
40
0.0996093750000012
40
0.101562500000001
40
0.101562500000001
40
0.109375000000001
40
0.109375000000001
40
0.125000000000001
40
0.125000000000001
40
0.140625000000001
40
0.140625000000001
40
0.144531250000001
40
0.144531250000001
40
0.146484375000001
40
0.146484375000001
40
0.148437500000001
40
0.156250000000001
40
0.156250000000001
40
0.171875000000001
40
0.171875000000001
40
0.179687500000001
40
0.179687500000001
40
0.1875
40
0.1875
40
0.203125
40
0.203125
40
0.21875
40
0.21875
40
0.2265625
40
0.2265625
40
0.23046875
40
0.23046875
40
0.232421875
40
0.232421875
40
0.234375
40
0.25
40
0.25
40
0.265625
40
0.265625
40
0.28125
40
0.28125
40
0.28515625
40
0.28515625
40
0.289062500000001
40
0.296875000000001
40
0.296875000000001
40
0.312500000000001
40
0.312500000000001
40
0.328125000000001
40
0.328125000000001
40
0.335937500000001
40
0.335937500000001
40
0.337890625000001
40
0.33984375
40
0.33984375
40
0.34375
40
0.34375
40
0.359375
40
0.359375
40
0.374999999999999
40
0.374999999999999
40
0.390624999999998
40
0.390624999999998
40
0.398437499999998
40
0.398437499999998
40
0.400390624999998
40
0.400390624999998
40
0.402343749999998
40
0.406249999999998
40
0.406249999999998
40
0.421874999999998
40
0.437499999999998
40
0.437499999999998
40
0.453124999999998
40
0.453124999999998
40
0.460937499999998
40
0.460937499999998
40
0.462890624999998
40
0.462890624999998
40
0.464843749999998
40
0.468749999999998
40
0.468749999999998
40
0.484374999999999
40
0.484374999999999
40
0.5
40
0.5
40
0.515625000000001
40
0.515625000000001
40
0.519531250000001
40
0.519531250000001
40
0.523437500000001
40
0.523437500000001
40
0.531250000000002
40
0.531250000000002
40
0.546875000000002
40
0.546875000000002
40
0.562500000000002
40
0.562500000000002
40
0.570312500000002
40
0.570312500000002
40
0.572265625000002
40
0.572265625000002
40
0.574218750000002
40
0.578125000000002
40
0.578125000000002
40
0.593750000000002
40
0.593750000000002
40
0.609375000000002
40
0.609375000000002
40
0.617187500000002
40
0.617187500000002
40
0.619140625000002
40
0.619140625000002
40
0.621093750000001
40
0.621093750000001
40
0.625000000000001
40
0.625000000000001
40
0.640625000000001
40
0.640625000000001
40
0.656250000000001
40
0.656250000000001
40
0.660156250000001
40
0.662109375000001
40
0.662109375000001
40
0.664062500000001
40
0.664062500000001
40
0.671875000000001
40
0.671875000000001
40
0.687500000000001
40
0.687500000000001
40
0.703125000000001
40
0.703125000000001
40
0.707031250000001
40
0.707031250000001
40
0.710937500000001
40
0.718750000000002
40
0.718750000000002
40
0.734375000000002
40
0.734375000000002
40
0.750000000000002
40
0.750000000000002
40
0.753906250000002
40
0.753906250000002
40
0.757812500000002
40
0.765625000000002
40
0.765625000000002
40
0.781250000000001
40
0.781250000000001
40
0.796875
40
0.796875
40
0.8046875
40
0.8046875
40
0.8125
40
0.8125
40
0.828124999999999
40
0.828124999999999
40
0.843749999999999
40
0.859374999999999
40
0.859374999999999
40
0.863281249999999
40
0.863281249999999
40
0.867187499999999
40
0.867187499999999
40
0.874999999999999
40
0.874999999999999
40
0.890625
40
0.90625
40
0.90625
40
0.921875
40
0.921875
40
0.92578125
40
0.92578125
40
0.9296875
40
0.9375
40
0.9375
40
0.953125
40
0.953125
40
0.96875
40
0.96875
40
0.984375
40
0.984375
40
0.98828125
40
0.98828125
40
0.9921875
40
0.99609375
40
0.998046875
40
0.9990234375
40
0.9990234375
40
1
40
1
40
1
40
1
41
1
10
39.9100088395613
20
-7.41952756250446
30
0
41
1
10
39.6320799029406
20
-7.18848030368
30
0
41
1
10
39.3671430881941
20
-6.94584683710892
30
0
41
1
10
38.8634236267678
20
-6.43701798880289
30
0
41
1
10
38.6246370292362
20
-6.1708263402796
30
0
41
1
10
38.1742571816255
20
-5.61370807080468
30
0
41
1
10
37.9626548228395
20
-5.32279020335525
30
0
41
1
10
37.5687348769524
20
-4.71408479204143
30
0
41
1
10
37.3901153616506
20
-4.40197178705355
30
0
41
1
10
37.0696289951928
20
-3.76238140374059
30
0
41
1
10
36.9277351998679
20
-3.43486670440814
30
0
41
1
10
36.6817928215177
20
-2.76382685169611
30
0
41
1
10
36.577734676339
20
-2.42030582667135
30
0
41
1
10
36.4728914813944
20
-1.98018783384427
30
0
41
1
10
36.4433364287189
20
-1.84734633056541
30
0
41
1
10
36.4166919813456
20
-1.71326765596217
30
0
41
1
10
36.3995836171349
20
-1.62360353605894
30
0
41
1
10
36.3913647640718
20
-1.57867055753178
30
0
41
1
10
36.3520698082118
20
-1.35418932083357
30
0
41
1
10
36.3262652401326
20
-1.17455792839192
30
0
41
1
10
36.2654505947887
20
-0.635526840197457
30
0
41
1
10
36.2469957508099
20
-0.275990576544075
30
0
41
1
10
36.2537955865593
20
0.443442762701579
30
0
41
1
10
36.2790489331258
20
0.803339827785805
30
0
41
1
10
36.3385338767734
20
1.25344139620975
30
0
41
1
10
36.3518303860967
20
1.34347324998208
30
0
41
1
10
36.3738968822339
20
1.47853851714018
30
0
41
1
10
36.3816123324344
20
1.5235957238649
30
0
41
1
10
36.3976986631638
20
1.6134135450061
30
0
41
1
10
36.4395765996503
20
1.83735977358069
30
0
41
1
10
36.4896691080355
20
2.05834970732838
30
0
41
1
10
36.625151992292
20
2.58324195229878
30
0
41
1
10
36.7357788627779
20
2.92587348448322
30
0
41
1
10
36.9309891680036
20
3.42934801399181
30
0
41
1
10
37.0009487251435
20
3.59542354009972
30
0
41
1
10
37.1505754937065
20
3.92411095933301
30
0
41
1
10
37.2302584926893
20
4.08675284024579
30
0
41
1
10
37.4837877218134
20
4.56931260389209
30
0
41
1
10
37.6692181252859
20
4.87849547156182
30
0
41
1
10
38.0705282246975
20
5.47380030424634
30
0
41
1
10
38.2864179469025
20
5.75991432013112
30
0
41
1
10
38.6322244357883
20
6.17258936514449
30
0
41
1
10
38.7511636373271
20
6.30739209443743
30
0
41
1
10
38.9350392784327
20
6.50551112804649
30
0
41
1
10
38.9972427723903
20
6.57086961186519
30
0
41
1
10
39.0919148180823
20
6.66788847837742
30
0
41
1
10
39.1237169404342
20
6.70007490138951
30
0
41
1
10
39.1876350887333
20
6.76396881735215
30
0
41
1
10
39.4767926531735
20
7.04943399470858
30
0
41
1
10
39.77944739736
20
7.31672705010729
30
0
41
1
10
40.3376416688532
20
7.76508430897917
30
0
41
1
10
40.6268145057934
20
7.9758404617225
30
0
41
1
10
41.2248234661041
20
8.37143720322248
30
0
41
1
10
41.5336611692346
20
8.55627522862659
30
0
41
1
10
41.9320715608109
20
8.77119549986534
30
0
41
1
10
42.0121952667668
20
8.81327401580251
30
0
41
1
10
42.1730444808038
20
8.89550472486002
30
0
41
1
10
42.4153508958133
20
9.01602833473899
30
0
41
1
10
42.6607146422622
20
9.12821657108631
30
0
41
1
10
43.1554436757038
20
9.34173558044444
30
0
41
1
10
43.4905898075015
20
9.46962976319534
30
0
41
1
10
44.1713604824034
20
9.6972335189721
30
0
41
1
10
44.5169856529548
20
9.79694107447807
30
0
41
1
10
45.0433543884722
20
9.92531873165186
30
0
41
1
10
45.2201345041401
20
9.96457483437086
30
0
41
1
10
45.4427882344283
20
10.0091753693705
30
0
41
1
10
45.5320158034371
20
10.0265689741052
30
0
41
1
10
45.6215835777013
20
10.0430639004406
30
0
41
1
10
45.7558755717226
20
10.0670762437614
30
0
41
1
10
45.8454282050785
20
10.0821313168933
30
0
41
1
10
46.2933133191612
20
10.1526940879446
30
0
41
1
10
46.6520109163627
20
10.19409470204
30
0
41
1
10
47.3701654534475
20
10.2476480723622
30
0
41
1
10
47.7296224445251
20
10.2597986774129
30
0
41
1
10
48.4492936478624
20
10.2549604065486
30
0
41
1
10
48.8095078359297
20
10.2379725283076
30
0
41
1
10
49.3504081155689
20
10.1901808401461
30
0
41
1
10
49.5308048428996
20
10.1705262725365
30
0
41
1
10
49.7564237839151
20
10.1412097792771
30
0
41
1
10
49.8015807275739
20
10.1351050274328
30
0
41
1
10
49.8917313701712
20
10.1224427540123
30
0
41
1
10
50.026729912488
20
10.1027687987025
30
0
41
1
10
50.1610497399222
20
10.0810628905201
30
0
41
1
10
50.6072875021923
20
10.0042295691587
30
0
41
1
10
51.311717581866
20
9.85267723987809
30
0
41
1
10
51.9974267278402
20
9.6447187139168
30
0
41
1
10
52.6737341171971
20
9.40822527545961
30
0
41
1
10
53.0071880627352
20
9.27571495366689
30
0
41
1
10
53.5001021790123
20
9.0546993781775
30
0
41
1
10
53.6631937235143
20
8.97731255917842
30
0
41
1
10
53.8655020699309
20
8.87579067654383
30
0
41
1
10
53.9058940680858
20
8.85524209267717
30
0
41
1
10
53.9863134138987
20
8.81377028231876
30
0
41
1
10
54.1064722751188
20
8.75096235995758
30
0
41
1
10
54.225225875754
20
8.68635829129767
30
0
41
1
10
54.6179653991213
20
8.46703183341697
30
0
41
1
10
54.9222412255998
20
8.2788659418573
30
0
41
1
10
55.5110300469187
20
7.87695061470427
30
0
41
1
10
55.7955448107893
20
7.66320394275016
30
0
41
1
10
56.344279053732
20
7.20915898806035
30
0
41
1
10
56.6085037701643
20
6.96886815386159
30
0
41
1
10
56.9253295304571
20
6.65071737485991
30
0
41
1
10
56.9880199473745
20
6.58619518439733
30
0
41
1
10
57.1120234184077
20
6.4553252281803
30
0
41
1
10
57.1733571583673
20
6.38895450345777
30
0
41
1
10
57.3551164703082
20
6.18717603665675
30
0
41
1
10
57.4724003168623
20
6.05010866715875
30
0
41
1
10
57.8125840116657
20
5.63122577296954
30
0
41
1
10
58.0238494286571
20
5.34175122554487
30
0
41
1
10
58.4145480632211
20
4.74166888646886
30
0
41
1
10
58.5939884995741
20
4.4310661890961
30
0
41
1
10
58.8378261363679
20
3.94822798097414
30
0
41
1
10
58.914875214484
20
3.78445320708698
30
0
41
1
10
59.0056633097551
20
3.57602980432037
30
0
41
1
10
59.0235592826963
20
3.53412372137697
30
0
41
1
10
59.0586887738389
20
3.45018416497271
30
0
41
1
10
59.1104069457149
20
3.32404744155488
30
0
41
1
10
59.1592060857784
20
3.19723022878745
30
0
41
1
10
59.3154094187021
20
2.77299823691283
30
0
41
1
10
59.4197511783372
20
2.42879892813545
30
0
41
1
10
59.5870172145975
20
1.73069294031319
30
0
41
1
10
59.649945446917
20
1.37678723070283
30
0
41
1
10
59.7121072019597
20
0.838356329924579
30
0
41
1
10
59.7274449105407
20
0.657614810733463
30
0
41
1
10
59.7396739482348
20
0.430055881090112
30
0
41
1
10
59.7417723349714
20
0.384462433571883
30
0
41
1
10
59.7452678071892
20
0.29311068393929
30
0
41
1
10
59.7466650079799
20
0.247322052650276
30
0
41
1
10
59.7497859737311
20
0.110222401772717
30
0
41
1
10
59.7504468319784
20
0.0190306687665327
30
0
41
1
10
59.7467514661541
20
-0.435902344815133
30
0
41
1
10
59.7214563891268
20
-0.796575069175844
30
0
41
1
10
59.6277262461554
20
-1.511604517715
30
0
41
1
10
59.559287269587
20
-1.86596066246079
30
0
41
1
10
59.4468285466891
20
-2.30497633817407
30
0
41
1
10
59.4110676216312
20
-2.43638562545371
30
0
41
1
10
59.3722574117687
20
-2.5673501054761
30
0
41
1
10
59.3457041915815
20
-2.65456065138139
30
0
41
1
10
59.3320773901723
20
-2.6981473672007
30
0
41
1
10
59.2624508021092
20
-2.91518037774475
30
0
41
1
10
59.2018767716787
20
-3.08628520746359
30
0
41
1
10
59.0061012746957
20
-3.59234475371869
30
0
41
1
10
58.8568878272695
20
-3.92006536039617
30
0
41
1
10
58.5229496356196
20
-4.55728220878294
30
0
41
1
10
58.3382186528061
20
-4.86677504039957
30
0
41
1
10
58.0854873838358
20
-5.24252598255646
30
0
41
1
10
58.0337820728019
20
-5.31720743130506
30
0
41
1
10
57.9286875477416
20
-5.46476172536663
30
0
41
1
10
57.7684153431664
20
-5.68354459799724
30
0
41
1
10
57.6004250276381
20
-5.89486607144937
30
0
41
1
10
57.2544999891745
20
-6.30793958178919
30
0
41
1
10
57.0106520866161
20
-6.57058961429414
30
0
41
1
10
56.4975853206484
20
-7.07171447679161
30
0
41
1
10
56.2283626716187
20
-7.31018522491669
30
0
41
1
10
55.8761175527748
20
-7.59345104410511
30
0
41
1
10
55.8048503111709
20
-7.6493810730897
30
0
41
1
10
55.661406593522
20
-7.75925569851705
30
0
41
1
10
55.4446387094372
20
-7.92128140422804
30
0
41
1
10
55.2231448681043
20
-8.07511203523325
30
0
41
1
10
54.7740120252745
20
-8.37217496406882
30
0
41
1
10
54.4664116325933
20
-8.55611266092134
30
0
41
1
10
53.8352871832201
20
-8.89681456856209
30
0
41
1
10
53.5117615028126
20
-9.05357552781143
30
0
41
1
10
53.0145030543767
20
-9.26848720054537
30
0
41
1
10
52.8467055514786
20
-9.33676429953809
30
0
41
1
10
52.5072555039544
20
-9.46644374456781
30
0
41
1
10
52.3366698457445
20
-9.5274410616835
30
0
41
1
10
51.8223874328089
20
-9.6992046572125
30
0
41
1
10
51.4761704678259
20
-9.79876765578913
30
0
41
1
10
50.7771753145727
20
-9.96893089388854
30
0
41
1
10
50.071617302516
20
-10.1101238393434
30
0
41
1
10
49.3529366618016
20
-10.1936891523582
30
0
41
1
10
48.8995641078278
20
-10.2275431863456
30
0
41
1
10
48.8086793504523
20
-10.2333934301631
30
0
41
1
10
48.6264853389106
20
-10.2432360757515
30
0
41
1
10
48.535395322715
20
-10.2472155707106
30
0
41
1
10
48.2626073938482
20
-10.2563333207394
30
0
41
1
10
48.0811947587416
20
-10.2586631998795
30
0
41
1
10
47.5382730230541
20
-10.2545920847207
30
0
41
1
10
46.817882266531
20
-10.2197133363767
30
0
41
1
10
46.104392002266
20
-10.1267759116144
30
0
41
1
10
45.3943757913936
20
-10.0045065944879
30
0
41
1
10
45.041104355248
20
-9.92870931482682
30
0
41
1
10
44.6017530780475
20
-9.81496219711721
30
0
41
1
10
44.5139306170142
20
-9.79124248114937
30
0
41
1
10
44.338798221281
20
-9.74195473394073
30
0
41
1
10
44.0774141063008
20
-9.66540633463546
30
0
41
1
10
43.8199347063793
20
-9.58107144329085
30
0
41
1
10
43.3101161524951
20
-9.40211216042559
30
0
41
1
10
42.9770795138971
20
-9.26911042626327
30
0
41
1
10
42.32461194221
20
-8.97563526690638
30
0
41
1
10
42.0051799102699
20
-8.81516447668912
30
0
41
1
10
41.3802157702571
20
-8.46587911876614
30
0
41
1
10
41.0746805178898
20
-8.27707159963862
30
0
41
1
10
40.7019038361797
20
-8.02222098280018
30
0
41
1
10
40.6277490335399
20
-7.97026422315349
30
0
41
1
10
40.4806777734794
20
-7.86464249250739
30
0
41
1
10
40.3349034201262
20
-7.75735942561224
30
0
41
1
10
40.1559453424647
20
-7.61906828990544
30
0
41
1
10
40.0323990374724
20
-7.52004348964323
30
0
41
1
10
39.9798218194342
20
-7.47712552128033
30
0
41
1
10
39.9448530323809
20
-7.44840681449188
30
0
41
1
10
39.9273793981001
20
-7.43396801618098
30
0
41
1
10
39.9100088395613
20
-7.41952756250446
30
0
0
SPLINE
5
176
100
AcDbEntity
8
1
62
256
6
ByLayer
370
18
48
1
60
0
100
AcDbSpline
70
2053
71
3
72
162
73
158
40
0
40
0
40
0
40
0
40
0.0156249999999927
40
0.0312499999999853
40
0.0312499999999853
40
0.046874999999978
40
0.046874999999978
40
0.0546874999999744
40
0.0546874999999744
40
0.0624999999999707
40
0.0624999999999707
40
0.0781249999999642
40
0.0937499999999577
40
0.0937499999999577
40
0.0976562499999564
40
0.0976562499999564
40
0.101562499999955
40
0.101562499999955
40
0.109374999999953
40
0.109374999999953
40
0.12499999999995
40
0.140624999999947
40
0.140624999999947
40
0.148437499999945
40
0.148437499999945
40
0.152343749999944
40
0.152343749999944
40
0.156249999999943
40
0.171874999999938
40
0.187499999999934
40
0.187499999999934
40
0.195312499999932
40
0.199218749999932
40
0.199218749999932
40
0.203124999999931
40
0.203124999999931
40
0.218749999999928
40
0.218749999999928
40
0.234374999999925
40
0.249999999999922
40
0.249999999999922
40
0.25781249999992
40
0.25781249999992
40
0.265624999999918
40
0.265624999999918
40
0.281249999999915
40
0.296874999999913
40
0.296874999999913
40
0.304687499999912
40
0.304687499999912
40
0.308593749999911
40
0.308593749999911
40
0.312499999999911
40
0.328124999999911
40
0.343749999999912
40
0.359374999999912
40
0.359374999999912
40
0.363281249999913
40
0.363281249999913
40
0.367187499999914
40
0.374999999999915
40
0.374999999999915
40
0.390624999999916
40
0.406249999999916
40
0.406249999999916
40
0.414062499999916
40
0.414062499999916
40
0.421874999999916
40
0.421874999999916
40
0.437499999999914
40
0.453124999999912
40
0.46874999999991
40
0.46874999999991
40
0.47265624999991
40
0.47265624999991
40
0.476562499999909
40
0.476562499999909
40
0.484374999999909
40
0.484374999999909
40
0.499999999999907
40
0.515624999999905
40
0.515624999999905
40
0.523437499999904
40
0.527343749999903
40
0.527343749999903
40
0.531249999999903
40
0.531249999999903
40
0.546874999999904
40
0.562499999999905
40
0.578124999999905
40
0.578124999999905
40
0.582031249999905
40
0.582031249999905
40
0.585937499999905
40
0.585937499999905
40
0.593749999999905
40
0.593749999999905
40
0.609374999999903
40
0.624999999999901
40
0.624999999999901
40
0.632812499999901
40
0.632812499999901
40
0.636718749999901
40
0.636718749999901
40
0.640624999999901
40
0.656249999999902
40
0.671874999999902
40
0.671874999999902
40
0.679687499999902
40
0.683593749999902
40
0.683593749999902
40
0.687499999999902
40
0.687499999999902
40
0.703124999999906
40
0.703124999999906
40
0.71874999999991
40
0.734374999999913
40
0.734374999999913
40
0.738281249999914
40
0.738281249999914
40
0.742187499999916
40
0.749999999999918
40
0.749999999999918
40
0.765624999999924
40
0.78124999999993
40
0.78124999999993
40
0.789062499999934
40
0.789062499999934
40
0.796874999999937
40
0.796874999999937
40
0.812499999999944
40
0.82812499999995
40
0.843749999999957
40
0.843749999999957
40
0.851562499999961
40
0.851562499999961
40
0.859374999999964
40
0.859374999999964
40
0.87499999999997
40
0.890624999999975
40
0.890624999999975
40
0.898437499999978
40
0.898437499999978
40
0.902343749999979
40
0.902343749999979
40
0.906249999999981
40
0.921874999999983
40
0.937499999999985
40
0.953124999999988
40
0.953124999999988
40
0.96093749999999
40
0.96093749999999
40
0.968749999999991
40
0.968749999999991
40
0.984374999999996
40
0.984374999999996
40
1
40
1
40
1
40
1
41
1
10
37.3676076000636
20
-26.6620933040427
30
0
41
1
10
37.3075271436165
20
-26.6163092805745
30
0
41
1
10
37.1950489768537
20
-26.5211400157102
30
0
41
1
10
37.0976369140194
20
-26.4187724468633
30
0
41
1
10
37.0078321541028
20
-26.3127059948853
30
0
41
1
10
36.9667324800443
20
-26.2578238747733
30
0
41
1
10
36.9110196827488
20
-26.1725699991994
30
0
41
1
10
36.8935605867478
20
-26.1438426184808
30
0
41
1
10
36.8609390868027
20
-26.0859497599282
30
0
41
1
10
36.8457579759862
20
-26.0567557289958
30
0
41
1
10
36.8035643267241
20
-25.9684312570182
30
0
41
1
10
36.756226045326
20
-25.848687497924
30
0
41
1
10
36.7267104023928
20
-25.7249225399888
30
0
41
1
10
36.713998216119
20
-25.6462613049447
30
0
41
1
10
36.7117432294432
20
-25.6304635231959
30
0
41
1
10
36.7078151851075
20
-25.5987350679179
30
0
41
1
10
36.7061406006432
20
-25.5827813271417
30
0
41
1
10
36.7020208875592
20
-25.5349670327172
30
0
41
1
10
36.7004704883402
20
-25.5031138723187
30
0
41
1
10
36.6993345888407
20
-25.4076211985491
30
0
41
1
10
36.7071760844607
20
-25.2804746954305
30
0
41
1
10
36.7333923710873
20
-25.1536873193736
30
0
41
1
10
36.7600249489247
20
-25.0587476945381
30
0
41
1
10
36.7700663283779
20
-25.0271264533112
30
0
41
1
10
36.7869042641003
20
-24.9797360055952
30
0
41
1
10
36.7928224407035
20
-24.9639229795946
30
0
41
1
10
36.8052002848492
20
-24.9324528188145
30
0
41
1
10
36.8375029845392
20
-24.8541618903612
30
0
41
1
10
36.9076288985462
20
-24.7166415010976
30
0
41
1
10
36.986464320639
20
-24.5991721723828
30
0
41
1
10
37.05176262306
20
-24.5128932489413
30
0
41
1
10
37.0859572926506
20
-24.4702103932131
30
0
41
1
10
37.1224940606465
20
-24.4282276746031
30
0
41
1
10
37.1473765207419
20
-24.4003969777157
30
0
41
1
10
37.1600981018112
20
-24.3865418006637
30
0
41
1
10
37.2247358046977
20
-24.3179747804994
30
0
41
1
10
37.2797855648395
20
-24.2653055281406
30
0
41
1
10
37.3962891585097
20
-24.1642169965281
30
0
41
1
10
37.5191988292353
20
-24.0673799764299
30
0
41
1
10
37.6547647786032
20
-23.9790675783216
30
0
41
1
10
37.7612663425385
20
-23.9161326952762
30
0
41
1
10
37.7976240754943
20
-23.8956831022776
30
0
41
1
10
37.8711966283569
20
-23.8563155000368
30
0
41
1
10
37.9084972403279
20
-23.8373438182558
30
0
41
1
10
38.0219105544052
20
-23.7825323061496
30
0
41
1
10
38.1771511473335
20
-23.7150498016744
30
0
41
1
10
38.3402827702255
20
-23.6586569671399
30
0
41
1
10
38.4656166228649
20
-23.6205929908036
30
0
41
1
10
38.5078929597704
20
-23.6086112727433
30
0
41
1
10
38.5720663781756
20
-23.5917180981922
30
0
41
1
10
38.5936093868426
20
-23.5862611842527
30
0
41
1
10
38.6367491632036
20
-23.5757590296816
30
0
41
1
10
38.7448109993318
20
-23.5505146522571
30
0
41
1
10
38.941200014493
20
-23.5140289732808
30
0
41
1
10
39.2069501586706
20
-23.4840542293372
30
0
41
1
10
39.3867150762339
20
-23.4765522622063
30
0
41
1
10
39.4999029337976
20
-23.4758779969477
30
0
41
1
10
39.522611705692
20
-23.4759447708269
30
0
41
1
10
39.5679525476119
20
-23.476482706305
30
0
41
1
10
39.6358207505544
20
-23.4778944048552
30
0
41
1
10
39.7032647451006
20
-23.4810993518829
30
0
41
1
10
39.8375959496684
20
-23.4898615300901
30
0
41
1
10
40.0152218202268
20
-23.5078076856777
30
0
41
1
10
40.1899140086999
20
-23.5381174536015
30
0
41
1
10
40.3198140015155
20
-23.5655461139487
30
0
41
1
10
40.3629271555616
20
-23.5754729792935
30
0
41
1
10
40.4487725382281
20
-23.5969206572678
30
0
41
1
10
40.4916100026863
20
-23.6084745409767
30
0
41
1
10
40.6183323199643
20
-23.645219589419
30
0
41
1
10
40.7830051800678
20
-23.6998385701553
30
0
41
1
10
41.0174290884755
20
-23.7981324688994
30
0
41
1
10
41.1652801794387
20
-23.8745210578954
30
0
41
1
10
41.2549610821773
20
-23.9257376540303
30
0
41
1
10
41.2727606375267
20
-23.9361550546344
30
0
41
1
10
41.308082867286
20
-23.95734166697
30
0
41
1
10
41.3256283445857
20
-23.9681256440797
30
0
41
1
10
41.3775867923691
20
-24.0008479834985
30
0
41
1
10
41.4113709552146
20
-24.0231827750825
30
0
41
1
10
41.510198447195
20
-24.0917109626909
30
0
41
1
10
41.635245992106
20
-24.1871381481614
30
0
41
1
10
41.746968307671
20
-24.2904798434203
30
0
41
1
10
41.8256603072919
20
-24.3709681115117
30
0
41
1
10
41.8637292847352
20
-24.4119589892726
30
0
41
1
10
41.8998403864301
20
-24.4540861822177
30
0
41
1
10
41.9234732980955
20
-24.4824260862531
30
0
41
1
10
41.9350853674222
20
-24.496744390154
30
0
41
1
10
41.9918092128432
20
-24.5687053825665
30
0
41
1
10
42.0738209293716
20
-24.6858737950017
30
0
41
1
10
42.1712584075232
20
-24.8674066371558
30
0
41
1
10
42.2191072664133
20
-24.9922064376312
30
0
41
1
10
42.2434835313013
20
-25.0714056428261
30
0
41
1
10
42.2480816407042
20
-25.0873056224929
30
0
41
1
10
42.2567161737194
20
-25.1192270405968
30
0
41
1
10
42.2607537037906
20
-25.1352574338983
30
0
41
1
10
42.2719484781032
20
-25.1832405938182
30
0
41
1
10
42.2782156394946
20
-25.2151791758804
30
0
41
1
10
42.2934953581646
20
-25.3108436053486
30
0
41
1
10
42.3044940396752
20
-25.4379925324858
30
0
41
1
10
42.2970150177787
20
-25.5643293450727
30
0
41
1
10
42.2843702326011
20
-25.6587770220075
30
0
41
1
10
42.2789805664964
20
-25.6902087734561
30
0
41
1
10
42.26910015366
20
-25.7372802773159
30
0
41
1
10
42.2655013663231
20
-25.7529796274387
30
0
41
1
10
42.257740255614
20
-25.7841912893879
30
0
41
1
10
42.2369137178801
20
-25.8618070714548
30
0
41
1
10
42.1868564082914
20
-25.9978726418626
30
0
41
1
10
42.1250111745664
20
-26.1138568138063
30
0
41
1
10
42.0721234020045
20
-26.1990179950282
30
0
41
1
10
42.0440508324645
20
-26.2411411893941
30
0
41
1
10
42.0135072048282
20
-26.2825779340957
30
0
41
1
10
41.9925909455423
20
-26.3100494736276
30
0
41
1
10
41.9818423807361
20
-26.3237246498579
30
0
41
1
10
41.9269894608855
20
-26.3913682146611
30
0
41
1
10
41.8794203186107
20
-26.4433508889871
30
0
41
1
10
41.7772062644285
20
-26.543286606678
30
0
41
1
10
41.6679141113118
20
-26.6391916303996
30
0
41
1
10
41.5446246936496
20
-26.7272592314503
30
0
41
1
10
41.4631145914796
20
-26.7798520753149
30
0
41
1
10
41.4465666698015
20
-26.7902615339049
30
0
41
1
10
41.4131624049721
20
-26.8107478305675
30
0
41
1
10
41.3625862056509
20
-26.8409848907134
30
0
41
1
10
41.3106206309697
20
-26.8697709221482
30
0
41
1
10
41.2048743891575
20
-26.9254603611981
30
0
41
1
10
41.0590484334281
20
-26.9947031763491
30
0
41
1
10
40.9037400034992
20
-27.0542441323031
30
0
41
1
10
40.7836680844941
20
-27.0952725536381
30
0
41
1
10
40.743044629557
20
-27.1083430362191
30
0
41
1
10
40.6605798475377
20
-27.1332607574413
30
0
41
1
10
40.6189508351175
20
-27.1450417944937
30
0
41
1
10
40.4933850497406
20
-27.1782626388518
30
0
41
1
10
40.3237449431968
20
-27.217037249137
30
0
41
1
10
40.0627980701049
20
-27.2591942384313
30
0
41
1
10
39.8845041081294
20
-27.2766825118818
30
0
41
1
10
39.7491117589952
20
-27.2857150227692
30
0
41
1
10
39.7039195043442
20
-27.2880273292166
30
0
41
1
10
39.6138115246566
20
-27.2912592248192
30
0
41
1
10
39.5688326228633
20
-27.2921831192267
30
0
41
1
10
39.4341178955281
20
-27.2929097964991
30
0
41
1
10
39.2550892920508
20
-27.2884343699698
30
0
41
1
10
39.0772326548986
20
-27.2731528601194
30
0
41
1
10
38.9442881343719
20
-27.2575474104039
30
0
41
1
10
38.9000480813083
20
-27.2516535935686
30
0
41
1
10
38.833802466771
20
-27.2417510446288
30
0
41
1
10
38.8117121918113
20
-27.2382683120437
30
0
41
1
10
38.7677746932048
20
-27.2309789998041
30
0
41
1
10
38.6584719804037
20
-27.211934293417
30
0
41
1
10
38.4665214887975
20
-27.170363955913
30
0
41
1
10
38.2206147591835
20
-27.099564450266
30
0
41
1
10
38.0634105668324
20
-27.0419387649019
30
0
41
1
10
37.9481258057387
20
-26.9946188804105
30
0
41
1
10
37.9100615882866
20
-26.9781242450577
30
0
41
1
10
37.8355120629193
20
-26.9440385903723
30
0
41
1
10
37.7989588836267
20
-26.9264232008158
30
0
41
1
10
37.6914472752769
20
-26.8718599198426
30
0
41
1
10
37.6226315901431
20
-26.8331991868346
30
0
41
1
10
37.4907532484996
20
-26.7512083158263
30
0
41
1
10
37.4276880565106
20
-26.7078773275109
30
0
41
1
10
37.3676076000636
20
-26.6620933040427
30
0
0
SPLINE
5
177
100
AcDbEntity
8
1
62
256
6
ByLayer
370
18
48
1
60
0
100
AcDbSpline
70
4
71
3
72
52
73
48
40
0
40
0
40
0
40
0
40
0.0624999999999881
40
0.0624999999999881
40
0.124999999999976
40
0.124999999999976
40
0.156249999999971
40
0.156249999999971
40
0.171874999999969
40
0.171874999999969
40
0.187499999999967
40
0.187499999999967
40
0.249999999999965
40
0.312499999999962
40
0.312499999999962
40
0.328124999999961
40
0.328124999999961
40
0.343749999999961
40
0.37499999999996
40
0.37499999999996
40
0.437499999999958
40
0.437499999999958
40
0.468749999999958
40
0.468749999999958
40
0.484374999999959
40
0.484374999999959
40
0.49999999999996
40
0.49999999999996
40
0.562499999999967
40
0.624999999999973
40
0.624999999999973
40
0.656249999999977
40
0.656249999999977
40
0.68749999999998
40
0.68749999999998
40
0.749999999999987
40
0.749999999999987
40
0.781249999999989
40
0.781249999999989
40
0.812499999999992
40
0.812499999999992
40
0.874999999999995
40
0.937499999999998
40
0.937499999999998
40
0.968749999999999
40
0.968749999999999
40
1
40
1
40
1
40
1
41
1
10
18.4750000000001
20
8.82745624824852
30
0
41
1
10
18.5131930808129
20
8.89405662171515
30
0
41
1
10
18.5554606478647
20
8.95738557328841
30
0
41
1
10
18.6478179474984
20
9.07777667488136
30
0
41
1
10
18.6979086926174
20
9.13483797258419
30
0
41
1
10
18.7789823714229
20
9.21568410815624
30
0
41
1
10
18.8069996678943
20
9.24183934221438
30
0
41
1
10
18.850553646438
20
9.27985231561834
30
0
41
1
10
18.8653029438399
20
9.2922976220884
30
0
41
1
10
18.8950955856763
20
9.31660228793913
30
0
41
1
10
18.9101625115517
20
9.32848243337548
30
0
41
1
10
18.9863395554146
20
9.38653975566433
30
0
41
1
10
19.1135926887497
20
9.47086828252671
30
0
41
1
10
19.2514036903977
20
9.53838905803224
30
0
41
1
10
19.3409544661047
20
9.57515479974683
30
0
41
1
10
19.3590520089524
20
9.58223959886826
30
0
41
1
10
19.395322958633
20
9.59575732322045
30
0
41
1
10
19.4499381667589
20
9.61509657435278
30
0
41
1
10
19.5051707053839
20
9.63166507308731
30
0
41
1
10
19.6164454423367
20
9.66116977299066
30
0
41
1
10
19.6917046822209
20
9.67601216104063
30
0
41
1
10
19.8062181220337
20
9.69099236742511
30
0
41
1
10
19.8446608919081
20
9.69476798755383
30
0
41
1
10
19.9027419621889
20
9.69856254593421
30
0
41
1
10
19.9222082263657
20
9.69951633011658
30
0
41
1
10
19.9610432866325
20
9.70078420155346
30
0
41
1
10
19.9804206757317
20
9.70110026133054
30
0
41
1
10
20.0771097084012
20
9.70111331440543
30
0
41
1
10
20.2305506817673
20
9.69114502340116
30
0
41
1
10
20.3815254793058
20
9.66164390750944
30
0
41
1
10
20.4938039217152
20
9.63196802955144
30
0
41
1
10
20.5311267422991
20
9.62078432294811
30
0
41
1
10
20.6043513378545
20
9.59620893091778
30
0
41
1
10
20.6403890093399
20
9.58278629233351
30
0
41
1
10
20.7468111863412
20
9.53917684240372
30
0
41
1
10
20.8155120434474
20
9.50566279471806
30
0
41
1
10
20.9151902047724
20
9.44871626293653
30
0
41
1
10
20.9478522755726
20
9.42861793964065
30
0
41
1
10
21.0120256139636
20
9.38614199014486
30
0
41
1
10
21.043624391852
20
9.36368915668092
30
0
41
1
10
21.135363086713
20
9.29381338114015
30
0
41
1
10
21.2502848660043
20
9.19354381990996
30
0
41
1
10
21.3508223253873
20
9.07943318378543
30
0
41
1
10
21.4206978904474
20
8.98851999372249
30
0
41
1
10
21.4431137195573
20
8.9572471325414
30
0
41
1
10
21.4857057869269
20
8.89337354521535
30
0
41
1
10
21.5059034870285
20
8.86075638714127
30
0
41
1
10
21.5250000000001
20
8.82745624824824
30
0
0
SPLINE
5
178
100
AcDbEntity
8
1
62
256
6
ByLayer
370
18
48
1
60
0
100
AcDbSpline
70
4
71
3
72
52
73
48
40
0
40
0
40
0
40
0
40
0.0625000000000037
40
0.0625000000000037
40
0.125000000000007
40
0.125000000000007
40
0.156250000000009
40
0.156250000000009
40
0.171875000000009
40
0.171875000000009
40
0.187500000000009
40
0.187500000000009
40
0.250000000000014
40
0.312500000000019
40
0.312500000000019
40
0.32812500000002
40
0.32812500000002
40
0.34375000000002
40
0.375000000000024
40
0.375000000000024
40
0.437500000000029
40
0.437500000000029
40
0.468750000000033
40
0.468750000000033
40
0.484375000000034
40
0.484375000000034
40
0.500000000000034
40
0.500000000000034
40
0.562500000000028
40
0.625000000000022
40
0.625000000000022
40
0.656250000000019
40
0.656250000000019
40
0.687500000000016
40
0.687500000000016
40
0.750000000000009
40
0.750000000000009
40
0.781250000000008
40
0.781250000000008
40
0.812500000000006
40
0.812500000000006
40
0.875000000000005
40
0.937500000000003
40
0.937500000000003
40
0.968750000000002
40
0.968750000000002
40
1
40
1
40
1
40
1
41
1
10
21.5250000000001
20
-8.82745624824818
30
0
41
1
10
21.4868069191873
20
-8.89405662171481
30
0
41
1
10
21.4445393521355
20
-8.95738557328806
30
0
41
1
10
21.3521820525018
20
-9.07777667488105
30
0
41
1
10
21.3020913073828
20
-9.13483797258388
30
0
41
1
10
21.2210176285774
20
-9.21568410815595
30
0
41
1
10
21.1930003321059
20
-9.24183934221409
30
0
41
1
10
21.1494463535623
20
-9.27985231561806
30
0
41
1
10
21.1346970561604
20
-9.29229762208811
30
0
41
1
10
21.104904414324
20
-9.31660228793888
30
0
41
1
10
21.0898374884486
20
-9.32848243337523
30
0
41
1
10
21.0136604445856
20
-9.38653975566407
30
0
41
1
10
20.8864073112506
20
-9.47086828252648
30
0
41
1
10
20.7485963096026
20
-9.53838905803204
30
0
41
1
10
20.6590455338956
20
-9.57515479974666
30
0
41
1
10
20.6409479910479
20
-9.58223959886809
30
0
41
1
10
20.6046770413673
20
-9.59575732322028
30
0
41
1
10
20.5500618332414
20
-9.61509657435261
30
0
41
1
10
20.4948292946164
20
-9.63166507308719
30
0
41
1
10
20.3835545576636
20
-9.66116977299055
30
0
41
1
10
20.3082953177794
20
-9.67601216104052
30
0
41
1
10
20.1937818779667
20
-9.69099236742503
30
0
41
1
10
20.1553391080922
20
-9.69476798755375
30
0
41
1
10
20.0972580378115
20
-9.69856254593415
30
0
41
1
10
20.0777917736346
20
-9.6995163301165
30
0
41
1
10
20.0389567133678
20
-9.7007842015534
30
0
41
1
10
20.0195793242687
20
-9.70110026133048
30
0
41
1
10
19.9228902915991
20
-9.7011133144054
30
0
41
1
10
19.769449318233
20
-9.69114502340116
30
0
41
1
10
19.6184745206945
20
-9.66164390750944
30
0
41
1
10
19.5061960782851
20
-9.63196802955147
30
0
41
1
10
19.4688732577012
20
-9.62078432294817
30
0
41
1
10
19.3956486621458
20
-9.59620893091787
30
0
41
1
10
19.3596109906605
20
-9.58278629233357
30
0
41
1
10
19.2531888136591
20
-9.53917684240383
30
0
41
1
10
19.1844879565529
20
-9.50566279471818
30
0
41
1
10
19.0848097952279
20
-9.44871626293664
30
0
41
1
10
19.0521477244276
20
-9.42861793964079
30
0
41
1
10
18.9879743860367
20
-9.38614199014501
30
0
41
1
10
18.9563756081483
20
-9.36368915668106
30
0
41
1
10
18.8646369132872
20
-9.29381338114032
30
0
41
1
10
18.749715133996
20
-9.19354381991016
30
0
41
1
10
18.6491776746129
20
-9.07943318378565
30
0
41
1
10
18.5793021095528
20
-8.98851999372269
30
0
41
1
10
18.5568862804429
20
-8.95724713254162
30
0
41
1
10
18.5142942130733
20
-8.89337354521558
30
0
41
1
10
18.4940965129717
20
-8.86075638714149
30
0
41
1
10
18.4750000000001
20
-8.82745624824847
30
0
0
SPLINE
5
179
100
AcDbEntity
8
1
62
256
6
ByLayer
370
18
48
1
60
0
100
AcDbSpline
70
4
71
3
72
52
73
48
40
0
40
0
40
0
40
0
40
0.0625000000000047
40
0.0625000000000047
40
0.125000000000009
40
0.125000000000009
40
0.156250000000011
40
0.156250000000011
40
0.171875000000014
40
0.171875000000014
40
0.187500000000016
40
0.187500000000016
40
0.250000000000019
40
0.312500000000021
40
0.312500000000021
40
0.328125000000021
40
0.328125000000021
40
0.343750000000021
40
0.375000000000019
40
0.375000000000019
40
0.437500000000016
40
0.437500000000016
40
0.468750000000015
40
0.468750000000015
40
0.484375000000014
40
0.484375000000014
40
0.500000000000012
40
0.500000000000012
40
0.562500000000009
40
0.625000000000006
40
0.625000000000006
40
0.656250000000005
40
0.656250000000005
40
0.687500000000003
40
0.687500000000003
40
0.75
40
0.75
40
0.78125
40
0.78125
40
0.812499999999999
40
0.812499999999999
40
0.875
40
0.9375
40
0.9375
40
0.96875
40
0.96875
40
1
40
1
40
1
40
1
41
1
10
21.5250000000001
20
7.13671025908184
30
0
41
1
10
21.4868069191873
20
7.06966982881355
30
0
41
1
10
21.4445393521355
20
7.00587025666883
30
0
41
1
10
21.3521820525018
20
6.88450330592346
30
0
41
1
10
21.3020913073828
20
6.82693670265519
30
0
41
1
10
21.2210176285774
20
6.74532595300261
30
0
41
1
10
21.1930003321059
20
6.71891474029724
30
0
41
1
10
21.1494463535623
20
6.68051865864248
30
0
41
1
10
21.1346970561603
20
6.6679460114284
30
0
41
1
10
21.104904414324
20
6.6433892216123
30
0
41
1
10
21.0898374884486
20
6.63138408428517
30
0
41
1
10
21.0136604445856
20
6.57270811008985
30
0
41
1
10
20.8864073112506
20
6.48743024054059
30
0
41
1
10
20.7485963096026
20
6.41908820971219
30
0
41
1
10
20.6590455338956
20
6.38186424615409
30
0
41
1
10
20.6409479910479
20
6.37469050014124
30
0
41
1
10
20.6046770413673
20
6.3610020222589
30
0
41
1
10
20.5500618332414
20
6.34141684334614
30
0
41
1
10
20.4948292946163
20
6.32463383686252
30
0
41
1
10
20.3835545576636
20
6.2947441153938
30
0
41
1
10
20.3082953177794
20
6.27970369831235
30
0
41
1
10
20.1937818779667
20
6.26452270090064
30
0
41
1
10
20.1553391080922
20
6.26069619257271
30
0
41
1
10
20.0972580378115
20
6.25685043140467
30
0
41
1
10
20.0777917736346
20
6.25588375910309
30
0
41
1
10
20.0389567133678
20
6.25459875053053
30
0
41
1
10
20.0195793242687
20
6.25427841514937
30
0
41
1
10
19.9228902915991
20
6.254265185544
30
0
41
1
10
19.769449318233
20
6.2643688434803
30
0
41
1
10
19.6184745206945
20
6.29426373645654
30
0
41
1
10
19.5061960782851
20
6.32432695479446
30
0
41
1
10
19.4688732577012
20
6.33565546844008
30
0
41
1
10
19.3956486621458
20
6.36054510369149
30
0
41
1
10
19.3596109906605
20
6.37413758752487
30
0
41
1
10
19.2531888136591
20
6.4182907097468
30
0
41
1
10
19.1844879565529
20
6.45221272773568
30
0
41
1
10
19.0848097952279
20
6.5098237125288
30
0
41
1
10
19.0521477244276
20
6.53015227110092
30
0
41
1
10
18.9879743860367
20
6.57310349914545
30
0
41
1
10
18.9563756081482
20
6.59580214597705
30
0
41
1
10
18.8646369132872
20
6.66642267742481
30
0
41
1
10
18.749715133996
20
6.76770948571934
30
0
41
1
10
18.6491776746129
20
6.88283276927328
30
0
41
1
10
18.5793021095528
20
6.97448376243355
30
0
41
1
10
18.5568862804429
20
7.00599948201577
30
0
41
1
10
18.5142942130733
20
7.07034433321817
30
0
41
1
10
18.4940965129717
20
7.1031900921038
30
0
41
1
10
18.4750000000001
20
7.13671025908153
30
0
0
SPLINE
5
17A
100
AcDbEntity
8
1
62
256
6
ByLayer
370
18
48
1
60
0
100
AcDbSpline
70
4
71
3
72
52
73
48
40
0
40
0
40
0
40
0
40
0.06249999999999
40
0.06249999999999
40
0.12499999999998
40
0.12499999999998
40
0.156249999999976
40
0.156249999999976
40
0.171874999999975
40
0.171874999999975
40
0.187499999999975
40
0.187499999999975
40
0.24999999999997
40
0.312499999999966
40
0.312499999999966
40
0.328124999999966
40
0.328124999999966
40
0.343749999999965
40
0.374999999999964
40
0.374999999999964
40
0.437499999999962
40
0.437499999999962
40
0.468749999999961
40
0.468749999999961
40
0.484374999999962
40
0.484374999999962
40
0.499999999999962
40
0.499999999999962
40
0.562499999999969
40
0.624999999999975
40
0.624999999999975
40
0.656249999999978
40
0.656249999999978
40
0.687499999999981
40
0.687499999999981
40
0.749999999999987
40
0.749999999999987
40
0.781249999999989
40
0.781249999999989
40
0.812499999999991
40
0.812499999999991
40
0.874999999999994
40
0.937499999999998
40
0.937499999999998
40
0.968749999999999
40
0.968749999999999
40
1
40
1
40
1
40
1
41
1
10
18.4750000000001
20
-7.1367102590815
30
0
41
1
10
18.5131930808129
20
-7.06966982881323
30
0
41
1
10
18.5554606478647
20
-7.00587025666849
30
0
41
1
10
18.6478179474984
20
-6.88450330592315
30
0
41
1
10
18.6979086926174
20
-6.8269367026549
30
0
41
1
10
18.7789823714229
20
-6.74532595300232
30
0
41
1
10
18.8069996678943
20
-6.71891474029695
30
0
41
1
10
18.850553646438
20
-6.6805186586422
30
0
41
1
10
18.8653029438399
20
-6.66794601142811
30
0
41
1
10
18.8950955856763
20
-6.64338922161204
30
0
41
1
10
18.9101625115517
20
-6.63138408428492
30
0
41
1
10
18.9863395554146
20
-6.57270811008962
30
0
41
1
10
19.1135926887497
20
-6.48743024054039
30
0
41
1
10
19.2514036903978
20
-6.41908820971199
30
0
41
1
10
19.3409544661048
20
-6.38186424615392
30
0
41
1
10
19.3590520089524
20
-6.37469050014107
30
0
41
1
10
19.395322958633
20
-6.36100202225873
30
0
41
1
10
19.4499381667589
20
-6.341416843346
30
0
41
1
10
19.505170705384
20
-6.32463383686238
30
0
41
1
10
19.6164454423368
20
-6.29474411539368
30
0
41
1
10
19.6917046822209
20
-6.27970369831223
30
0
41
1
10
19.8062181220337
20
-6.26452270090056
30
0
41
1
10
19.8446608919081
20
-6.26069619257262
30
0
41
1
10
19.9027419621889
20
-6.25685043140459
30
0
41
1
10
19.9222082263658
20
-6.25588375910303
30
0
41
1
10
19.9610432866325
20
-6.25459875053048
30
0
41
1
10
19.9804206757317
20
-6.25427841514932
30
0
41
1
10
20.0771097084012
20
-6.25426518554397
30
0
41
1
10
20.2305506817673
20
-6.2643688434803
30
0
41
1
10
20.3815254793058
20
-6.29426373645657
30
0
41
1
10
20.4938039217152
20
-6.32432695479451
30
0
41
1
10
20.5311267422992
20
-6.33565546844014
30
0
41
1
10
20.6043513378545
20
-6.36054510369158
30
0
41
1
10
20.6403890093399
20
-6.37413758752496
30
0
41
1
10
20.7468111863413
20
-6.41829070974691
30
0
41
1
10
20.8155120434475
20
-6.4522127277358
30
0
41
1
10
20.9151902047724
20
-6.50982371252891
30
0
41
1
10
20.9478522755727
20
-6.53015227110103
30
0
41
1
10
21.0120256139636
20
-6.57310349914559
30
0
41
1
10
21.0436243918521
20
-6.59580214597719
30
0
41
1
10
21.1353630867131
20
-6.66642267742498
30
0
41
1
10
21.2502848660043
20
-6.76770948571954
30
0
41
1
10
21.3508223253873
20
-6.88283276927348
30
0
41
1
10
21.4206978904474
20
-6.97448376243378
30
0
41
1
10
21.4431137195573
20
-7.00599948201599
30
0
41
1
10
21.4857057869269
20
-7.0703443332184
30
0
41
1
10
21.5059034870285
20
-7.10319009210406
30
0
41
1
10
21.5250000000001
20
-7.13671025908178
30
0
0
SPLINE
5
17B
100
AcDbEntity
8
1
62
256
6
ByLayer
370
18
48
1
60
0
100
AcDbSpline
70
4
71
3
72
30
73
26
40
0
40
0
40
0
40
0
40
0.0624999999999943
40
0.0624999999999943
40
0.124999999999989
40
0.187499999999983
40
0.187499999999983
40
0.249999999999977
40
0.249999999999977
40
0.374999999999968
40
0.374999999999968
40
0.437499999999979
40
0.437499999999979
40
0.499999999999991
40
0.499999999999991
40
0.624999999999978
40
0.624999999999978
40
0.687499999999977
40
0.687499999999977
40
0.749999999999975
40
0.812499999999973
40
0.812499999999973
40
0.874999999999972
40
0.874999999999972
40
1
40
1
40
1
40
1
41
1
10
18.4750000000001
20
-44.6344954491478
30
0
41
1
10
18.4616847979078
20
-44.6344954491478
30
0
41
1
10
18.4482319859101
20
-44.6351906384268
30
0
41
1
10
18.4217536095186
20
-44.6379322295662
30
0
41
1
10
18.3955718787086
20
-44.6420141914964
30
0
41
1
10
18.3699704552136
20
-44.6487182284649
30
0
41
1
10
18.3446613431873
20
-44.6567430528606
30
0
41
1
10
18.3320895973591
20
-44.6614445089548
30
0
41
1
10
18.2953093716653
20
-44.6773890308172
30
0
41
1
10
18.2722157062747
20
-44.6903364922936
30
0
41
1
10
18.2396300763838
20
-44.713096473663
30
0
41
1
10
18.2291132506192
20
-44.7212437793673
30
0
41
1
10
18.2087863511856
20
-44.7386867351013
30
0
41
1
10
18.1991008672813
20
-44.7478791620445
30
0
41
1
10
18.1716106460911
20
-44.7766402360769
30
0
41
1
10
18.1552722742639
20
-44.7974548350274
30
0
41
1
10
18.1337397189048
20
-44.8311312371395
30
0
41
1
10
18.1270502063935
20
-44.8428052221969
30
0
41
1
10
18.1149450839627
20
-44.8664998596966
30
0
41
1
10
18.1040369676841
20
-44.8906473842248
30
0
41
1
10
18.0954655871356
20
-44.9156790122305
30
0
41
1
10
18.0880672270646
20
-44.9411544522898
30
0
41
1
10
18.084947689367
20
-44.9541508067768
30
0
41
1
10
18.0774508125187
20
-44.9935864531736
30
0
41
1
10
18.0749999999999
20
-45.0199555519468
30
0
41
1
10
18.0750000000001
20
-45.0464003445382
30
0
0
SPLINE
5
17C
100
AcDbEntity
8
1
62
256
6
ByLayer
370
18
48
1
60
0
100
AcDbSpline
70
4
71
3
72
32
73
28
40
0
40
0
40
0
40
0
40
0.125000000000006
40
0.125000000000006
40
0.250000000000013
40
0.250000000000013
40
0.281250000000013
40
0.281250000000013
40
0.312500000000014
40
0.312500000000014
40
0.375000000000013
40
0.375000000000013
40
0.50000000000001
40
0.50000000000001
40
0.56250000000001
40
0.56250000000001
40
0.59375000000001
40
0.59375000000001
40
0.625000000000009
40
0.625000000000009
40
0.750000000000006
40
0.750000000000006
40
0.875000000000004
40
0.875000000000004
40
0.937500000000002
40
0.937500000000002
40
1
40
1
40
1
40
1
41
1
10
18.4750000000001
20
-8.82745624824847
30
0
41
1
10
18.4377864466612
20
-8.7625639563033
30
0
41
1
10
18.4054492427888
20
-8.69722547386371
30
0
41
1
10
18.3497108149511
20
-8.56422661798987
30
0
41
1
10
18.3263174295068
20
-8.49658590374054
30
0
41
1
10
18.3026347247877
20
-8.4098069513289
30
0
41
1
10
18.2981777768653
20
-8.39233946392321
30
0
41
1
10
18.2898288157941
20
-8.35715950288491
30
0
41
1
10
18.2859353635674
20
-8.33943418600859
30
0
41
1
10
18.2751840579966
20
-8.28623216802933
30
0
41
1
10
18.2692244159246
20
-8.25061249335553
30
0
41
1
10
18.2549017237893
20
-8.1431670742833
30
0
41
1
10
18.250079691989
20
-8.07073664892104
30
0
41
1
10
18.2499616171529
20
-7.96061919661557
30
0
41
1
10
18.251111974268
20
-7.92367239491395
30
0
41
1
10
18.2546595041354
20
-7.86790025401405
30
0
41
1
10
18.2561459141043
20
-7.84925120805954
30
0
41
1
10
18.2597356429362
20
-7.81184177844318
30
0
41
1
10
18.261839368491
20
-7.79309330691433
30
0
41
1
10
18.2738091220134
20
-7.6998664546156
30
0
41
1
10
18.2880551680473
20
-7.62630143925574
30
0
41
1
10
18.3256409102619
20
-7.48138135487173
30
0
41
1
10
18.3489787734403
20
-7.41002551449381
30
0
41
1
10
18.3911622507964
20
-7.30494817339928
30
0
41
1
10
18.4063797715672
20
-7.27037709534605
30
0
41
1
10
18.4390017274134
20
-7.2025860737451
30
0
41
1
10
18.4564279174876
20
-7.16930989168446
30
0
41
1
10
18.4749999999985
20
-7.13671025908053
30
0
0
SPLINE
5
17D
100
AcDbEntity
8
1
62
256
6
ByLayer
370
18
48
1
60
0
100
AcDbSpline
70
4
71
3
72
32
73
28
40
0
40
0
40
0
40
0
40
0.124999999999993
40
0.124999999999993
40
0.249999999999986
40
0.249999999999986
40
0.281249999999984
40
0.281249999999984
40
0.312499999999983
40
0.312499999999983
40
0.37499999999998
40
0.37499999999998
40
0.499999999999972
40
0.499999999999972
40
0.56249999999997
40
0.56249999999997
40
0.593749999999971
40
0.593749999999971
40
0.624999999999971
40
0.624999999999971
40
0.749999999999979
40
0.749999999999979
40
0.874999999999987
40
0.874999999999987
40
0.937499999999993
40
0.937499999999993
40
1
40
1
40
1
40
1
41
1
10
18.4750000000001
20
7.13671025908153
30
0
41
1
10
18.4377864466612
20
7.20203132181223
30
0
41
1
10
18.4054492427888
20
7.26951057032835
30
0
41
1
10
18.3497108149511
20
7.40805388100122
30
0
41
1
10
18.3263174295068
20
7.47912642561602
30
0
41
1
10
18.3026347247877
20
7.57000440345763
30
0
41
1
10
18.2981777768653
20
7.58828255509027
30
0
41
1
10
18.2898288157941
20
7.62504133175241
30
0
41
1
10
18.2859353635673
20
7.64353518078497
30
0
41
1
10
18.2751840579965
20
7.69892859380747
30
0
41
1
10
18.2692244159246
20
7.73586111078589
30
0
41
1
10
18.2549017237893
20
7.84657353992495
30
0
41
1
10
18.250079691989
20
7.92025447498548
30
0
41
1
10
18.2499616171529
20
8.0304013841737
30
0
41
1
10
18.2511119742679
20
8.06705790291505
30
0
41
1
10
18.2546595041353
20
8.12196385028318
30
0
41
1
10
18.2561459141042
20
8.14025293669161
30
0
41
1
10
18.2597356429362
20
8.17680976898623
30
0
41
1
10
18.261839368491
20
8.19506559950989
30
0
41
1
10
18.2738091220134
20
8.28555846016013
30
0
41
1
10
18.2880551680473
20
8.35604500871318
30
0
41
1
10
18.3256409102619
20
8.49443673746651
30
0
41
1
10
18.3489787734403
20
8.56234083732684
30
0
41
1
10
18.3911622507964
20
8.66320268493743
30
0
41
1
10
18.4063797715672
20
8.69653726119432
30
0
41
1
10
18.4390017274134
20
8.76244493810535
30
0
41
1
10
18.4564279174876
20
8.79507060129515
30
0
41
1
10
18.4749999999984
20
8.82745624824889
30
0
0
SPLINE
5
17E
100
AcDbEntity
8
1
62
256
6
ByLayer
370
18
48
1
60
0
100
AcDbSpline
70
4
71
3
72
30
73
26
40
0
40
0
40
0
40
0
40
0.125181098776692
40
0.125181098776692
40
0.156476373470863
40
0.156476373470863
40
0.187771648165034
40
0.250362197553376
40
0.250362197553376
40
0.312952746941718
40
0.312952746941718
40
0.37554329633006
40
0.438133845718402
40
0.438133845718402
40
0.500724395106743
40
0.500724395106743
40
0.625905493883458
40
0.625905493883458
40
0.751086592660173
40
0.751086592660173
40
0.81367714204853
40
0.81367714204853
40
0.876267691436887
40
0.876267691436887
40
1
40
1
40
1
40
1
41
1
10
18.4750000000001
20
31.35
30
0
41
1
10
18.4434838302958
20
31.35
30
0
41
1
10
18.4127975282275
20
31.35
30
0
41
1
10
18.3754018775675
20
31.35
30
0
41
1
10
18.3679858516778
20
31.35
30
0
41
1
10
18.3534843618353
20
31.3500000000001
30
0
41
1
10
18.332137575553
20
31.35
30
0
41
1
10
18.3119368186067
20
31.35
30
0
41
1
10
18.2859434693283
20
31.35
30
0
41
1
10
18.2734002721153
20
31.35
30
0
41
1
10
18.2498192952166
20
31.35
30
0
41
1
10
18.2275536968055
20
31.35
30
0
41
1
10
18.207628862227
20
31.35
30
0
41
1
10
18.1887837730622
20
31.35
30
0
41
1
10
18.179873724051
20
31.35
30
0
41
1
10
18.1548765239321
20
31.35
30
0
41
1
10
18.140721314196
20
31.35
30
0
41
1
10
18.1166036414081
20
31.35
30
0
41
1
10
18.1066511625445
20
31.35
30
0
41
1
10
18.0946732864748
20
31.35
30
0
41
1
10
18.0911932840927
20
31.35
30
0
41
1
10
18.0852755048813
20
31.35
30
0
41
1
10
18.0828262569598
20
31.35
30
0
41
1
10
18.0770006336878
20
31.35
30
0
41
1
10
18.0750347747806
20
31.3499999999999
30
0
41
1
10
18.0750050000016
20
31.3500000000001
30
0
0
SPLINE
5
17F
100
AcDbEntity
8
1
62
256
6
ByLayer
370
18
48
1
60
0
100
AcDbSpline
70
4
71
3
72
31
73
27
40
0
40
0
40
0
40
0
40
0.0625000000000086
40
0.0625000000000086
40
0.125000000000017
40
0.125000000000017
40
0.250000000000038
40
0.250000000000038
40
0.312500000000063
40
0.312500000000063
40
0.375000000000088
40
0.375000000000088
40
0.500000000000111
40
0.500000000000111
40
0.562500000000106
40
0.562500000000106
40
0.6250000000001
40
0.687500000000094
40
0.687500000000094
40
0.750000000000088
40
0.750000000000088
40
0.875000000000049
40
0.875000000000049
40
0.937500000000024
40
0.937500000000024
40
1
40
1
40
1
40
1
41
1
10
21.9250000000002
20
-45.0464003445336
30
0
41
1
10
21.9250000000002
20
-45.0331626603318
30
0
41
1
10
21.9243814956822
20
-45.0198947900488
30
0
41
1
10
21.921872639518
20
-44.9932969770096
30
0
41
1
10
21.9199785565727
20
-44.9800081055473
30
0
41
1
10
21.912506964134
20
-44.9408759852542
30
0
41
1
10
21.9051361068652
20
-44.9154933320043
30
0
41
1
10
21.8904718366961
20
-44.8784843675956
30
0
41
1
10
21.8849526780866
20
-44.8662777778366
30
0
41
1
10
21.8727654232933
20
-44.8424668183442
30
0
41
1
10
21.8661456968196
20
-44.8309442994393
30
0
41
1
10
21.8447456214819
20
-44.7974983998839
30
0
41
1
10
21.8284392770505
20
-44.7766858300516
30
0
41
1
10
21.8008015924792
20
-44.7477804442197
30
0
41
1
10
21.7910273232174
20
-44.7385200855484
30
0
41
1
10
21.7708356920275
20
-44.7212068053836
30
0
41
1
10
21.7499032721753
20
-44.7049883620198
30
0
41
1
10
21.7275051342931
20
-44.6909361532664
30
0
41
1
10
21.7043606202104
20
-44.6779870393272
30
0
41
1
10
21.6923744597049
20
-44.672046490774
30
0
41
1
10
21.6555104913068
20
-44.6560758480441
30
0
41
1
10
21.6302617191815
20
-44.6480861211985
30
0
41
1
10
21.5914053943375
20
-44.6399847983876
30
0
41
1
10
21.5782882184712
20
-44.6379363339769
30
0
41
1
10
21.5517131422166
20
-44.6351851835537
30
0
41
1
10
21.5382858068625
20
-44.6344954491478
30
0
41
1
10
21.5250000000002
20
-44.6344954491478
30
0
0
SPLINE
5
180
100
AcDbEntity
8
1
62
256
6
ByLayer
370
18
48
1
60
0
100
AcDbSpline
70
4
71
3
72
32
73
28
40
0
40
0
40
0
40
0
40
0.0596037024839675
40
0.0596037024839675
40
0.12229678898503
40
0.12229678898503
40
0.247682961987154
40
0.247682961987154
40
0.310376048488214
40
0.310376048488214
40
0.373069134989274
40
0.373069134989274
40
0.49845530799142
40
0.49845530799142
40
0.561148394492482
40
0.561148394492482
40
0.623841480993543
40
0.623841480993543
40
0.749227653995695
40
0.749227653995695
40
0.811920740496771
40
0.811920740496771
40
0.874613826997848
40
0.874613826997848
40
0.937306913498924
40
0.937306913498924
40
1
40
1
40
1
40
1
41
1
10
21.9250000000002
20
31.3500000000001
30
0
41
1
10
21.9249451848053
20
31.3500000000001
30
0
41
1
10
21.9244531198234
20
31.3500000000001
30
0
41
1
10
21.9225309625994
20
31.35
30
0
41
1
10
21.9210589133901
20
31.35
30
0
41
1
10
21.9151868880888
20
31.35
30
0
41
1
10
21.9093431109089
20
31.35
30
0
41
1
10
21.897498074098
20
31.35
30
0
41
1
10
21.893033699715
20
31.35
30
0
41
1
10
21.8830000961518
20
31.35
30
0
41
1
10
21.8774184903456
20
31.35
30
0
41
1
10
21.8591819896766
20
31.35
30
0
41
1
10
21.8449831323772
20
31.35
30
0
41
1
10
21.8202005592372
20
31.35
30
0
41
1
10
21.8113550357059
20
31.35
30
0
41
1
10
21.792354966391
20
31.35
30
0
41
1
10
21.782231738974
20
31.35
30
0
41
1
10
21.7503563397753
20
31.35
30
0
41
1
10
21.7269594387177
20
31.35
30
0
41
1
10
21.6878456918741
20
31.35
30
0
41
1
10
21.6741340457281
20
31.35
30
0
41
1
10
21.6460786379623
20
31.35
30
0
41
1
10
21.6316933229532
20
31.35
30
0
41
1
10
21.6021681168189
20
31.35
30
0
41
1
10
21.5869812296858
20
31.35
30
0
41
1
10
21.555976776776
20
31.35
30
0
41
1
10
21.5404838485861
20
31.35
30
0
41
1
10
21.5250000000001
20
31.35
30
0
0
SPLINE
5
181
100
AcDbEntity
8
1
62
256
6
ByLayer
370
18
48
1
60
0
100
AcDbSpline
70
4
71
3
72
32
73
28
40
0
40
0
40
0
40
0
40
0.125000000000007
40
0.125000000000007
40
0.250000000000015
40
0.250000000000015
40
0.281250000000017
40
0.281250000000017
40
0.31250000000002
40
0.31250000000002
40
0.37500000000002
40
0.37500000000002
40
0.500000000000021
40
0.500000000000021
40
0.562500000000021
40
0.562500000000021
40
0.59375000000002
40
0.59375000000002
40
0.62500000000002
40
0.62500000000002
40
0.750000000000012
40
0.750000000000012
40
0.875000000000004
40
0.875000000000004
40
0.937500000000002
40
0.937500000000002
40
1
40
1
40
1
40
1
41
1
10
21.5250000000001
20
8.82745624824824
30
0
41
1
10
21.562213553339
20
8.76256395630307
30
0
41
1
10
21.5945507572113
20
8.69722547386351
30
0
41
1
10
21.650289185049
20
8.5642266179897
30
0
41
1
10
21.6736825704932
20
8.4965859037404
30
0
41
1
10
21.6973652752123
20
8.40980695132879
30
0
41
1
10
21.7018222231347
20
8.39233946392312
30
0
41
1
10
21.7101711842059
20
8.35715950288483
30
0
41
1
10
21.7140646364327
20
8.3394341860085
30
0
41
1
10
21.7248159420035
20
8.28623216802924
30
0
41
1
10
21.7307755840754
20
8.25061249335548
30
0
41
1
10
21.7450982762107
20
8.14316707428327
30
0
41
1
10
21.749920308011
20
8.07073664892104
30
0
41
1
10
21.7500383828471
20
7.9606191966156
30
0
41
1
10
21.748888025732
20
7.92367239491401
30
0
41
1
10
21.7453404958646
20
7.86790025401413
30
0
41
1
10
21.7438540858958
20
7.84925120805963
30
0
41
1
10
21.7402643570638
20
7.8118417784433
30
0
41
1
10
21.738160631509
20
7.79309330691444
30
0
41
1
10
21.7261908779866
20
7.69986645461577
30
0
41
1
10
21.7119448319527
20
7.62630143925591
30
0
41
1
10
21.6743590897382
20
7.48138135487196
30
0
41
1
10
21.6510212265598
20
7.41002551449407
30
0
41
1
10
21.6088377492037
20
7.30494817339957
30
0
41
1
10
21.5936202284329
20
7.27037709534633
30
0
41
1
10
21.5609982725867
20
7.20258607374544
30
0
41
1
10
21.5435720825126
20
7.1693098916848
30
0
41
1
10
21.5250000000017
20
7.1367102590809
30
0
0
SPLINE
5
182
100
AcDbEntity
8
1
62
256
6
ByLayer
370
18
48
1
60
0
100
AcDbSpline
70
4
71
3
72
32
73
28
40
0
40
0
40
0
40
0
40
0.124999999999997
40
0.124999999999997
40
0.249999999999995
40
0.249999999999995
40
0.281249999999995
40
0.281249999999995
40
0.312499999999995
40
0.312499999999995
40
0.374999999999995
40
0.374999999999995
40
0.499999999999996
40
0.499999999999996
40
0.562499999999995
40
0.562499999999995
40
0.593749999999997
40
0.593749999999997
40
0.624999999999998
40
0.624999999999998
40
0.749999999999999
40
0.749999999999999
40
0.874999999999999
40
0.874999999999999
40
0.9375
40
0.9375
40
1
40
1
40
1
40
1
41
1
10
21.5250000000001
20
-7.13671025908178
30
0
41
1
10
21.562213553339
20
-7.20203132181243
30
0
41
1
10
21.5945507572113
20
-7.26951057032858
30
0
41
1
10
21.650289185049
20
-7.40805388100137
30
0
41
1
10
21.6736825704932
20
-7.47912642561616
30
0
41
1
10
21.6973652752124
20
-7.57000440345775
30
0
41
1
10
21.7018222231347
20
-7.58828255509036
30
0
41
1
10
21.710171184206
20
-7.6250413317525
30
0
41
1
10
21.7140646364327
20
-7.64353518078505
30
0
41
1
10
21.7248159420035
20
-7.69892859380752
30
0
41
1
10
21.7307755840754
20
-7.73586111078592
30
0
41
1
10
21.7450982762107
20
-7.84657353992492
30
0
41
1
10
21.749920308011
20
-7.92025447498543
30
0
41
1
10
21.7500383828471
20
-8.03040138417362
30
0
41
1
10
21.7488880257321
20
-8.06705790291494
30
0
41
1
10
21.7453404958647
20
-8.12196385028307
30
0
41
1
10
21.7438540858958
20
-8.14025293669147
30
0
41
1
10
21.7402643570638
20
-8.17680976898609
30
0
41
1
10
21.738160631509
20
-8.19506559950975
30
0
41
1
10
21.7261908779867
20
-8.28555846015993
30
0
41
1
10
21.7119448319527
20
-8.35604500871298
30
0
41
1
10
21.6743590897382
20
-8.49443673746626
30
0
41
1
10
21.6510212265598
20
-8.56234083732659
30
0
41
1
10
21.6088377492038
20
-8.66320268493715
30
0
41
1
10
21.5936202284329
20
-8.69653726119404
30
0
41
1
10
21.5609982725867
20
-8.76244493810503
30
0
41
1
10
21.5435720825126
20
-8.79507060129484
30
0
41
1
10
21.5250000000017
20
-8.82745624824855
30
0
0
SPLINE
5
183
100
AcDbEntity
8
1
62
256
6
ByLayer
370
18
48
1
60
0
100
AcDbSpline
70
4
71
3
72
55
73
51
40
0
40
0
40
0
40
0
40
0.0624999999999992
40
0.0624999999999992
40
0.124999999999998
40
0.124999999999998
40
0.187499999999998
40
0.187499999999998
40
0.203124999999997
40
0.203124999999997
40
0.218749999999997
40
0.218749999999997
40
0.249999999999997
40
0.249999999999997
40
0.312499999999995
40
0.312499999999995
40
0.374999999999994
40
0.374999999999994
40
0.406249999999994
40
0.406249999999994
40
0.421874999999993
40
0.421874999999993
40
0.437499999999993
40
0.437499999999993
40
0.499999999999992
40
0.499999999999992
40
0.562499999999991
40
0.562499999999991
40
0.62499999999999
40
0.62499999999999
40
0.632812499999991
40
0.632812499999991
40
0.640624999999991
40
0.640624999999991
40
0.656249999999991
40
0.687499999999992
40
0.687499999999992
40
0.749999999999993
40
0.749999999999993
40
0.812499999999995
40
0.812499999999995
40
0.843749999999996
40
0.843749999999996
40
0.859374999999996
40
0.859374999999996
40
0.874999999999997
40
0.874999999999997
40
0.937499999999998
40
0.937499999999998
40
1
40
1
40
1
40
1
41
1
10
14.9500000000001
20
-48.7343696378644
30
0
41
1
10
14.6186180770483
20
-48.7343696378644
30
0
41
1
10
14.2901293667462
20
-48.7380932241918
30
0
41
1
10
13.6387232911421
20
-48.7526151918802
30
0
41
1
10
13.3158065177085
20
-48.7634141371864
30
0
41
1
10
12.6754919299054
20
-48.7917402554333
30
0
41
1
10
12.3580939389171
20
-48.809267872866
30
0
41
1
10
11.9648592282068
20
-48.8351718883636
30
0
41
1
10
11.8863883176173
20
-48.8405524220114
30
0
41
1
10
11.7298017686215
20
-48.8517076682971
30
0
41
1
10
11.6515991381983
20
-48.8574894582082
30
0
41
1
10
11.4187515333456
20
-48.8753220985444
30
0
41
1
10
11.2655498884333
20
-48.8878806568078
30
0
41
1
10
10.811895150555
20
-48.9273980953649
30
0
41
1
10
10.517377974707
20
-48.9561972782341
30
0
41
1
10
9.94380215106827
20
-49.0178549347292
30
0
41
1
10
9.66474394687697
20
-49.0507146985876
30
0
41
1
10
9.2578074013154
20
-49.1024378176854
30
0
41
1
10
9.12410716979446
20
-49.1200845666749
30
0
41
1
10
8.92651453327991
20
-49.1470866090043
30
0
41
1
10
8.8611435080926
20
-49.1561759362458
30
0
41
1
10
8.73139739917741
20
-49.1745189755888
30
0
41
1
10
8.66727138387012
20
-49.1837374881247
30
0
41
1
10
8.35046385487286
20
-49.2300062218261
30
0
41
1
10
8.10907647024374
20
-49.267602508421
30
0
41
1
10
7.64966054039311
20
-49.3429973753042
30
0
41
1
10
7.43163375382832
20
-49.380797599762
30
0
41
1
10
7.01889930623042
20
-49.4556861023258
30
0
41
1
10
6.82418992981576
20
-49.4927759662818
30
0
41
1
10
6.61863457130431
20
-49.5335844296443
30
0
41
1
10
6.59598297197473
20
-49.5381059367661
30
0
41
1
10
6.55105770947233
20
-49.547121570508
30
0
41
1
10
6.52877521323919
20
-49.5516175187617
30
0
41
1
10
6.46267533310359
20
-49.5650253864375
30
0
41
1
10
6.3333005491273
20
-49.5915542938287
30
0
41
1
10
6.21230230261048
20
-49.617172972123
30
0
41
1
10
5.98129593649497
20
-49.6670683357459
30
0
41
1
10
5.84191861237488
20
-49.6985422181599
30
0
41
1
10
5.5921360950997
20
-49.7572475370043
30
0
41
1
10
5.48173027698678
20
-49.7844801347868
30
0
41
1
10
5.33828630346619
20
-49.8216503380533
30
0
41
1
10
5.29417252865383
20
-49.8334271708375
30
0
41
1
10
5.23367267386439
20
-49.8501079866212
30
0
41
1
10
5.21443098384975
20
-49.8555101959131
30
0
41
1
10
5.17800678971318
20
-49.8659342277255
30
0
41
1
10
5.16081455682297
20
-49.8709584653659
30
0
41
1
10
5.07992001326329
20
-49.8951321864374
30
0
41
1
10
5.03138034853981
20
-49.9114393168579
30
0
41
1
10
4.96642087804364
20
-49.93777114671
30
0
41
1
10
4.95000000000004
20
-49.9477962365168
30
0
41
1
10
4.95000000000004
20
-49.9545671986056
30
0
0
SPLINE
5
184
100
AcDbEntity
8
1
62
256
6
ByLayer
370
18
48
1
60
0
100
AcDbSpline
70
4
71
3
72
54
73
50
40
0
40
0
40
0
40
0
40
0.0625000000000046
40
0.0625000000000046
40
0.125000000000009
40
0.125000000000009
40
0.156250000000011
40
0.156250000000011
40
0.171875000000013
40
0.171875000000013
40
0.179687500000013
40
0.179687500000013
40
0.187500000000014
40
0.250000000000017
40
0.250000000000017
40
0.31250000000002
40
0.31250000000002
40
0.343750000000022
40
0.343750000000022
40
0.359375000000023
40
0.359375000000023
40
0.375000000000023
40
0.375000000000023
40
0.437500000000022
40
0.437500000000022
40
0.50000000000002
40
0.50000000000002
40
0.531250000000019
40
0.531250000000019
40
0.546875000000018
40
0.546875000000018
40
0.562500000000017
40
0.562500000000017
40
0.625000000000014
40
0.625000000000014
40
0.687500000000012
40
0.687500000000012
40
0.75000000000001
40
0.75000000000001
40
0.812500000000008
40
0.812500000000008
40
0.828125000000007
40
0.828125000000007
40
0.843750000000006
40
0.875000000000005
40
0.875000000000005
40
0.937500000000002
40
0.937500000000002
40
1
40
1
40
1
40
1
41
1
10
14.6579668481793
20
38.9060242764537
30
0
41
1
10
14.3262055454705
20
38.9060242764537
30
0
41
1
10
13.9982314324205
20
38.8927740584742
30
0
41
1
10
13.3494884639966
20
38.8409468046657
30
0
41
1
10
13.0287211904854
20
38.8023638648199
30
0
41
1
10
12.552897130635
20
38.7255085306534
30
0
41
1
10
12.3951788176721
20
38.6967182657897
30
0
41
1
10
12.1599425935178
20
38.6487040358918
30
0
41
1
10
12.0817541728103
20
38.631893977704
30
0
41
1
10
11.9648088811361
20
38.6054573881724
30
0
41
1
10
11.9258505361288
20
38.5964336327105
30
0
41
1
10
11.8482629583255
20
38.578028176335
30
0
41
1
10
11.5005289804831
20
38.4935751366774
30
0
41
1
10
11.1652705504387
20
38.3946725236202
30
0
41
1
10
10.5875999459265
20
38.1969250689817
30
0
41
1
10
10.3079435270821
20
38.0870837881047
30
0
41
1
10
9.90165447329341
20
37.9059676052274
30
0
41
1
10
9.76842814056982
20
37.8428644174422
30
0
41
1
10
9.57185509555842
20
37.744080036068
30
0
41
1
10
9.50679720570039
20
37.7104203128559
30
0
41
1
10
9.37835931584303
20
37.6420360731437
30
0
41
1
10
9.3149350548901
20
37.6072918684044
30
0
41
1
10
9.00168607829102
20
37.4308471022575
30
0
41
1
10
8.76344828742162
20
37.2809936596243
30
0
41
1
10
8.30963504081856
20
36.9645103482153
30
0
41
1
10
8.09406753443051
20
36.7978760141893
30
0
41
1
10
7.78664486798198
20
36.5355105945935
30
0
41
1
10
7.68682949793859
20
36.4459838849724
30
0
41
1
10
7.5409915732815
20
36.3085877719226
30
0
41
1
10
7.49300338429049
20
36.2622457279512
30
0
41
1
10
7.39871073722375
20
36.168933948457
30
0
41
1
10
7.35235508974077
20
36.1219173484746
30
0
41
1
10
7.12441385726513
20
35.8850538034044
30
0
41
1
10
6.95431142198197
20
35.6898731010346
30
0
41
1
10
6.63611579279177
20
35.2885830304332
30
0
41
1
10
6.48802988911692
20
35.0824716093137
30
0
41
1
10
6.21196751048581
20
34.6596037717813
30
0
41
1
10
6.08399561077695
20
34.4428460931387
30
0
41
1
10
5.84665848574906
20
33.9988565429648
30
0
41
1
10
5.73729627096537
20
33.7716238615614
30
0
41
1
10
5.61146291574022
20
33.4810915639198
30
0
41
1
10
5.58682966850486
20
33.4226330338351
30
0
41
1
10
5.53873784212769
20
33.3053249230112
30
0
41
1
10
5.46832869888439
20
33.1287026457599
30
0
41
1
10
5.4029733913236
20
32.9501121322119
30
0
41
1
10
5.27868145349734
20
32.5903347296151
30
0
41
1
10
5.20437002393044
20
32.3470224395354
30
0
41
1
10
5.07137549330966
20
31.8535937630817
30
0
41
1
10
5.01269470093902
20
31.6034770871432
30
0
41
1
10
4.96121570861115
20
31.35
30
0
0
SPLINE
5
185
100
AcDbEntity
8
1
62
256
6
ByLayer
370
18
48
1
60
0
100
AcDbSpline
70
4
71
3
72
58
73
54
40
0
40
0
40
0
40
0
40
0.0624999999999995
40
0.0624999999999995
40
0.124999999999999
40
0.124999999999999
40
0.187499999999998
40
0.187499999999998
40
0.203124999999998
40
0.203124999999998
40
0.218749999999998
40
0.218749999999998
40
0.249999999999998
40
0.249999999999998
40
0.312499999999998
40
0.312499999999998
40
0.374999999999997
40
0.374999999999997
40
0.406249999999997
40
0.406249999999997
40
0.421874999999997
40
0.421874999999997
40
0.429687499999997
40
0.429687499999997
40
0.437499999999997
40
0.499999999999997
40
0.499999999999997
40
0.562499999999997
40
0.562499999999997
40
0.624999999999998
40
0.624999999999998
40
0.632812499999998
40
0.632812499999998
40
0.640624999999998
40
0.640624999999998
40
0.656249999999998
40
0.687499999999998
40
0.687499999999998
40
0.749999999999998
40
0.749999999999998
40
0.812499999999998
40
0.812499999999998
40
0.843749999999998
40
0.843749999999998
40
0.851562499999999
40
0.851562499999999
40
0.859374999999999
40
0.859374999999999
40
0.874999999999999
40
0.874999999999999
40
0.937499999999999
40
0.937499999999999
40
1
40
1
40
1
40
1
41
1
10
4.94999999999993
20
49.9649955869107
30
0
41
1
10
4.94999999999993
20
49.9648564514862
30
0
41
1
10
4.96639535724594
20
49.9614297711209
30
0
41
1
10
5.03079012918496
20
49.9483282305161
30
0
41
1
10
5.078792905775
20
49.9386528049884
30
0
41
1
10
5.20617528592703
20
49.913360558211
30
0
41
1
10
5.2855537250436
20
49.8977432003455
30
0
41
1
10
5.40481488311906
20
49.8746982349491
30
0
41
1
10
5.4296713505814
20
49.8699130944682
30
0
41
1
10
5.48141309188898
20
49.8599953876833
30
0
41
1
10
5.50833605914661
20
49.8548556940175
30
0
41
1
10
5.59176278263863
20
49.8390028750116
30
0
41
1
10
5.65098412594429
20
49.8278440931124
30
0
41
1
10
5.83923536919087
20
49.7927497543001
30
0
41
1
10
5.97882664442
20
49.7671969271402
30
0
41
1
10
6.28566007065069
20
49.7125601134017
30
0
41
1
10
6.45290276134619
20
49.6834747686273
30
0
41
1
10
6.72472807627176
20
49.6377773603114
30
0
41
1
10
6.81883642419393
20
49.6222000592038
30
0
41
1
10
6.96533658581001
20
49.5983914265066
30
0
41
1
10
7.01506001162426
20
49.5903814561262
30
0
41
1
10
7.09099523328789
20
49.5782654147636
30
0
41
1
10
7.1165240763516
20
49.574211187792
30
0
41
1
10
7.16789264653997
20
49.5660929330668
30
0
41
1
10
7.40060319140778
20
49.5294925582587
30
0
41
1
10
7.64713918623045
20
49.4923590230609
30
0
41
1
10
8.10670693309032
20
49.4264420405032
30
0
41
1
10
8.34713297584113
20
49.3935310568328
30
0
41
1
10
8.84934930388641
20
49.3287304702773
30
0
41
1
10
9.11113785088074
20
49.2968392696675
30
0
41
1
10
9.41807611856308
20
49.2620739608192
30
0
41
1
10
9.45235340070909
20
49.2582266370262
30
0
41
1
10
9.52125623397231
20
49.2505649163322
30
0
41
1
10
9.55590568536479
20
49.2467479240446
30
0
41
1
10
9.66018379123648
20
49.2353706337422
30
0
41
1
10
9.8699616226439
20
49.2129207084335
30
0
41
1
10
10.0833656513847
20
49.1914366408169
30
0
41
1
10
10.5149408311131
20
49.1498915200009
30
0
41
1
10
10.809002564692
20
49.1240922202927
30
0
41
1
10
11.4097370601155
20
49.076996069962
30
0
41
1
10
11.7164095384446
20
49.0556981620596
30
0
41
1
10
12.186090484687
20
49.027664215513
30
0
41
1
10
12.3442656931892
20
49.0189718879699
30
0
41
1
10
12.5440485131774
20
49.008980071156
30
0
41
1
10
12.5841083314372
20
49.0070253954911
30
0
41
1
10
12.6644358672602
20
49.003204909123
30
0
41
1
10
12.7047159750549
20
49.001338598664
30
0
41
1
10
12.8255808796394
20
48.9958879253751
30
0
41
1
10
12.9062796748493
20
48.9924474346058
30
0
41
1
10
13.3103808608993
20
48.9762212253996
30
0
41
1
10
13.635600603187
20
48.9663646229261
30
0
41
1
10
14.289891263086
20
48.9531432682525
30
0
41
1
10
14.6189620704916
20
48.9497781813156
30
0
41
1
10
14.95
20
48.9497781813156
30
0
0
SPLINE
5
186
100
AcDbEntity
8
1
62
256
6
ByLayer
370
18
48
1
60
0
100
AcDbSpline
70
4
71
3
72
8
73
4
40
0
40
0
40
0
40
0
40
1
40
1
40
1
40
1
41
1
10
18.0750000000001
20
-46.393105945446
30
0
41
1
10
17.6364884685872
20
-47.1737672945195
30
0
41
1
10
17.1975280498138
20
-47.9541774266956
30
0
41
1
10
16.7581782385005
20
-48.7343696378644
30
0
0
SPLINE
5
187
100
AcDbEntity
8
1
62
256
6
ByLayer
370
18
48
1
60
0
100
AcDbSpline
70
4
71
3
72
8
73
4
40
0
40
0
40
0
40
0
40
1
40
1
40
1
40
1
41
1
10
18.075
20
31.35
30
0
41
1
10
17.6421549277526
20
31.35
30
0
41
1
10
17.2029025605754
20
31.35
30
0
41
1
10
16.7581782385004
20
31.35
30
0
0
SPLINE
5
188
100
AcDbEntity
8
1
62
256
6
ByLayer
370
18
48
1
60
0
100
AcDbSpline
70
4
71
3
72
8
73
4
40
0
40
0
40
0
40
0
40
1
40
1
40
1
40
1
41
1
10
23.2418217614998
20
-48.7343696378644
30
0
41
1
10
22.8024719501865
20
-47.9541774266956
30
0
41
1
10
22.3635115314131
20
-47.1737672945195
30
0
41
1
10
21.9250000000001
20
-46.393105945446
30
0
0
SPLINE
5
189
100
AcDbEntity
8
1
62
256
6
ByLayer
370
18
48
1
60
0
100
AcDbSpline
70
4
71
3
72
8
73
4
40
0
40
0
40
0
40
0
40
1
40
1
40
1
40
1
41
1
10
23.2418217614997
20
31.35
30
0
41
1
10
22.7970974394247
20
31.35
30
0
41
1
10
22.3578450722475
20
31.35
30
0
41
1
10
21.925
20
31.35
30
0
0
SPLINE
5
18A
100
AcDbEntity
8
1
62
256
6
ByLayer
370
18
48
1
60
0
100
AcDbSpline
70
4
71
3
72
8
73
4
40
0
40
0
40
0
40
0
40
1
40
1
40
1
40
1
41
1
10
28.95
20
-48.0164324372396
30
0
41
1
10
28.716710876918
20
-48.2557877592673
30
0
41
1
10
28.4833769086862
20
-48.4950995430802
30
0
41
1
10
28.2500000000001
20
-48.7343696378644
30
0
0
SPLINE
5
18B
100
AcDbEntity
8
1
62
256
6
ByLayer
370
18
48
1
60
0
100
AcDbSpline
70
4
71
3
72
8
73
4
40
0
40
0
40
0
40
0
40
1
40
1
40
1
40
1
41
1
10
28.95
20
31.3500000000001
30
0
41
1
10
28.717385155116
20
31.35
30
0
41
1
10
28.4840015193126
20
31.35
30
0
41
1
10
28.2499999999999
20
31.35
30
0
0
SPLINE
5
18C
100
AcDbEntity
8
SK2
62
256
6
ByLayer
370
18
48
1
60
0
100
AcDbSpline
70
4
71
3
72
28
73
24
40
0
40
0
40
0
40
0
40
0.125000000000001
40
0.125000000000001
40
0.156250000000001
40
0.156250000000001
40
0.187500000000001
40
0.250000000000001
40
0.250000000000001
40
0.375000000000001
40
0.375000000000001
40
0.5
40
0.5
40
0.625
40
0.625
40
0.65625
40
0.65625
40
0.6875
40
0.749999999999999
40
0.749999999999999
40
0.875
40
0.875
40
1
40
1
40
1
40
1
41
1
10
43
20
-2.88675134594831
30
0
41
1
10
43
20
-2.65221904826029
30
0
41
1
10
43
20
-2.41557006562974
30
0
41
1
10
43
20
-2.11641922368605
30
0
41
1
10
43
20
-2.05638703215547
30
0
41
1
10
43
20
-1.93612762286966
30
0
41
1
10
43
20
-1.75564603469027
30
0
41
1
10
43
20
-1.57487575709826
30
0
41
1
10
43
20
-1.2129220795623
30
0
41
1
10
43
20
-0.971067172785979
30
0
41
1
10
43
20
-0.486130329323743
30
0
41
1
10
43
20
-0.243047512392934
30
0
41
1
10
43
20
0.24440611469322
30
0
41
1
10
43
20
0.488777132152023
30
0
41
1
10
43
20
0.79503316042323
30
0
41
1
10
43
20
0.856366764760509
30
0
41
1
10
43
20
0.978919544658424
30
0
41
1
10
43
20
1.1622391663725
30
0
41
1
10
43
20
1.34408632372157
30
0
41
1
10
43
20
1.705974785058
30
0
41
1
10
43
20
1.94482750453358
30
0
41
1
10
43
20
2.4185672669052
30
0
41
1
10
43
20
2.65345676163264
30
0
41
1
10
43
20
2.88675134594755
30
0
0
SPLINE
5
18D
100
AcDbEntity
8
SK2
62
256
6
ByLayer
370
18
48
1
60
0
100
AcDbSpline
70
4
71
3
72
28
73
24
40
0
40
0
40
0
40
0
40
0.125000000000001
40
0.125000000000001
40
0.156250000000001
40
0.156250000000001
40
0.187500000000001
40
0.250000000000001
40
0.250000000000001
40
0.375
40
0.375
40
0.5
40
0.5
40
0.624999999999999
40
0.624999999999999
40
0.656249999999999
40
0.656249999999999
40
0.687499999999999
40
0.749999999999999
40
0.749999999999999
40
0.875
40
0.875
40
1
40
1
40
1
40
1
41
1
10
53
20
-2.8867513459474
30
0
41
1
10
53
20
-2.65221904825898
30
0
41
1
10
53
20
-2.41557006562769
30
0
41
1
10
53
20
-2.11641922368258
30
0
41
1
10
53
20
-2.05638703215141
30
0
41
1
10
53
20
-1.93612762286605
30
0
41
1
10
53
20
-1.75564603468737
30
0
41
1
10
53
20
-1.57487575709638
30
0
41
1
10
53
20
-1.21292207956282
30
0
41
1
10
53
20
-0.971067172788622
30
0
41
1
10
53
20
-0.486130329331843
30
0
41
1
10
53
20
-0.24304751240436
30
0
41
1
10
53
20
0.244406114673893
30
0
41
1
10
53
20
0.488777132128149
30
0
41
1
10
53
20
0.795033160392819
30
0
41
1
10
53
20
0.856366764726829
30
0
41
1
10
53
20
0.978919544628297
30
0
41
1
10
53
20
1.16223916634743
30
0
41
1
10
53
20
1.34408632370082
30
0
41
1
10
53
20
1.70597478504504
30
0
41
1
10
53
20
1.94482750452463
30
0
41
1
10
53
20
2.41856726690244
30
0
41
1
10
53
20
2.6534567616321
30
0
41
1
10
53
20
2.88675134594848
30
0
0
SPLINE
5
18E
100
AcDbEntity
8
SK2
62
256
6
ByLayer
370
18
48
1
60
0
100
AcDbSpline
70
4
71
3
72
22
73
18
40
0
40
0
40
0
40
0
40
0.249999999999994
40
0.249999999999994
40
0.374999999999989
40
0.374999999999989
40
0.437499999999986
40
0.437499999999986
40
0.468749999999985
40
0.468749999999985
40
0.499999999999984
40
0.499999999999984
40
0.624999999999988
40
0.624999999999988
40
0.749999999999992
40
0.749999999999992
40
1
40
1
40
1
40
1
41
1
10
52.9999999999995
20
2.88675134594851
30
0
41
1
10
52.5912889637254
20
3.12272077276211
30
0
41
1
10
52.1791616003532
20
3.36066261694546
30
0
41
1
10
51.5535222715925
20
3.72187565182111
30
0
41
1
10
51.3437308096306
20
3.84299880885845
30
0
41
1
10
51.0269193101153
20
4.02591001338601
30
0
41
1
10
50.9209620455693
20
4.08708446859421
30
0
41
1
10
50.7614720200222
20
4.1791660777769
30
0
41
1
10
50.7081770285368
20
4.20993595545747
30
0
41
1
10
50.6015783236677
20
4.27148074640888
30
0
41
1
10
50.5483607058459
20
4.30220595238396
30
0
41
1
10
50.2826783312042
20
4.45559774290228
30
0
41
1
10
50.0714363751954
20
4.57755834306806
30
0
41
1
10
49.6513886515023
20
4.82007300941481
30
0
41
1
10
49.442580782273
20
4.94062828892322
30
0
41
1
10
48.8193808846491
20
5.30043291757534
30
0
41
1
10
48.4082022821818
20
5.53782699439486
30
0
41
1
10
48.0000000000005
20
5.77350269189606
30
0
0
SPLINE
5
18F
100
AcDbEntity
8
SK2
62
256
6
ByLayer
370
18
48
1
60
0
100
AcDbSpline
70
4
71
3
72
22
73
18
40
0
40
0
40
0
40
0
40
0.249999999999988
40
0.249999999999988
40
0.374999999999982
40
0.374999999999982
40
0.43749999999998
40
0.43749999999998
40
0.468749999999981
40
0.468749999999981
40
0.499999999999982
40
0.499999999999982
40
0.624999999999986
40
0.624999999999986
40
0.74999999999999
40
0.74999999999999
40
1
40
1
40
1
40
1
41
1
10
48.0000000000003
20
-5.77350269189637
30
0
41
1
10
47.5912889637262
20
-5.53753326508271
30
0
41
1
10
47.1791616003539
20
-5.29959142089933
30
0
41
1
10
46.5535222715931
20
-4.93837838602363
30
0
41
1
10
46.3437308096311
20
-4.81725522898626
30
0
41
1
10
46.0269193101158
20
-4.63434402445867
30
0
41
1
10
45.9209620455698
20
-4.57316956925047
30
0
41
1
10
45.7614720200227
20
-4.48108796006775
30
0
41
1
10
45.7081770285373
20
-4.45031808238721
30
0
41
1
10
45.6015783236682
20
-4.38877329143577
30
0
41
1
10
45.5483607058463
20
-4.35804808546067
30
0
41
1
10
45.2826783312046
20
-4.20465629494231
30
0
41
1
10
45.0714363751958
20
-4.08269569477653
30
0
41
1
10
44.6513886515025
20
-3.84018102842973
30
0
41
1
10
44.4425807822733
20
-3.71962574892132
30
0
41
1
10
43.8193808846492
20
-3.35982112026912
30
0
41
1
10
43.4082022821819
20
-3.12242704344956
30
0
41
1
10
43.0000000000005
20
-2.88675134594834
30
0
0
SPLINE
5
190
100
AcDbEntity
8
SK2
62
256
6
ByLayer
370
18
48
1
60
0
100
AcDbSpline
70
4
71
3
72
22
73
18
40
0
40
0
40
0
40
0
40
0.249999999999997
40
0.249999999999997
40
0.374999999999996
40
0.374999999999996
40
0.437499999999998
40
0.437499999999998
40
0.46875
40
0.46875
40
0.500000000000002
40
0.500000000000002
40
0.625000000000002
40
0.625000000000002
40
0.750000000000001
40
0.750000000000001
40
1
40
1
40
1
40
1
41
1
10
42.9999999999997
20
2.88675134594803
30
0
41
1
10
43.4087110362739
20
3.12272077276171
30
0
41
1
10
43.8208383996463
20
3.36066261694515
30
0
41
1
10
44.4464777284072
20
3.72187565182091
30
0
41
1
10
44.6562691903691
20
3.84299880885831
30
0
41
1
10
44.9730806898846
20
4.0259100133859
30
0
41
1
10
45.0790379544305
20
4.08708446859413
30
0
41
1
10
45.2385279799777
20
4.17916607777687
30
0
41
1
10
45.2918229714631
20
4.20993595545741
30
0
41
1
10
45.3984216763322
20
4.27148074640886
30
0
41
1
10
45.4516392941541
20
4.30220595238396
30
0
41
1
10
45.7173216687959
20
4.45559774290234
30
0
41
1
10
45.9285636248047
20
4.57755834306815
30
0
41
1
10
46.348611348498
20
4.82007300941498
30
0
41
1
10
46.5574192177273
20
4.94062828892342
30
0
41
1
10
47.1806191153514
20
5.30043291757565
30
0
41
1
10
47.5917977178189
20
5.53782699439526
30
0
41
1
10
48.0000000000003
20
5.77350269189654
30
0
0
SPLINE
5
191
100
AcDbEntity
8
SK2
62
256
6
ByLayer
370
18
48
1
60
0
100
AcDbSpline
70
4
71
3
72
22
73
18
40
0
40
0
40
0
40
0
40
0.250000000000007
40
0.250000000000007
40
0.375000000000013
40
0.375000000000013
40
0.437500000000015
40
0.437500000000015
40
0.468750000000015
40
0.468750000000015
40
0.500000000000015
40
0.500000000000015
40
0.625000000000011
40
0.625000000000011
40
0.750000000000008
40
0.750000000000008
40
1
40
1
40
1
40
1
41
1
10
48.0000000000005
20
-5.77350269189589
30
0
41
1
10
48.4087110362747
20
-5.53753326508223
30
0
41
1
10
48.820838399647
20
-5.29959142089882
30
0
41
1
10
49.4464777284078
20
-4.93837838602315
30
0
41
1
10
49.6562691903697
20
-4.81725522898574
30
0
41
1
10
49.9730806898851
20
-4.63434402445819
30
0
41
1
10
50.079037954431
20
-4.57316956924996
30
0
41
1
10
50.2385279799782
20
-4.48108796006724
30
0
41
1
10
50.2918229714636
20
-4.4503180823867
30
0
41
1
10
50.3984216763327
20
-4.38877329143526
30
0
41
1
10
50.4516392941546
20
-4.35804808546015
30
0
41
1
10
50.7173216687963
20
-4.20465629494183
30
0
41
1
10
50.9285636248051
20
-4.08269569477605
30
0
41
1
10
51.3486113484983
20
-3.84018102842924
30
0
41
1
10
51.5574192177276
20
-3.71962574892081
30
0
41
1
10
52.1806191153516
20
-3.35982112026863
30
0
41
1
10
52.591797717819
20
-3.12242704344908
30
0
41
1
10
53.0000000000003
20
-2.88675134594786
30
0
0
SPLINE
5
192
100
AcDbEntity
8
SK2
62
256
6
ByLayer
370
18
48
1
60
0
100
AcDbSpline
70
4
71
3
72
28
73
24
40
0
40
0
40
0
40
0
40
0.125
40
0.125
40
0.15625
40
0.15625
40
0.1875
40
0.25
40
0.25
40
0.374999999999999
40
0.374999999999999
40
0.499999999999999
40
0.499999999999999
40
0.624999999999998
40
0.624999999999998
40
0.656249999999998
40
0.656249999999998
40
0.687499999999998
40
0.749999999999998
40
0.749999999999998
40
0.874999999999999
40
0.874999999999999
40
1
40
1
40
1
40
1
41
1
10
71
20
-2.88675134594826
30
0
41
1
10
71
20
-2.65221904826026
30
0
41
1
10
71
20
-2.41557006562968
30
0
41
1
10
71
20
-2.116419223686
30
0
41
1
10
71
20
-2.05638703215541
30
0
41
1
10
71
20
-1.93612762286963
30
0
41
1
10
71
20
-1.75564603469024
30
0
41
1
10
71
20
-1.57487575709823
30
0
41
1
10
71
20
-1.21292207956225
30
0
41
1
10
71
20
-0.971067172785951
30
0
41
1
10
71
20
-0.486130329323686
30
0
41
1
10
71
20
-0.243047512392906
30
0
41
1
10
71
20
0.244406114693248
30
0
41
1
10
71
20
0.488777132152052
30
0
41
1
10
71
20
0.795033160423259
30
0
41
1
10
71
20
0.856366764760537
30
0
41
1
10
71
20
0.978919544658453
30
0
41
1
10
71
20
1.16223916637253
30
0
41
1
10
71
20
1.3440863237216
30
0
41
1
10
71
20
1.70597478505803
30
0
41
1
10
71
20
1.94482750453361
30
0
41
1
10
71
20
2.41856726690523
30
0
41
1
10
71
20
2.6534567616327
30
0
41
1
10
71
20
2.88675134594757
30
0
0
SPLINE
5
193
100
AcDbEntity
8
SK2
62
256
6
ByLayer
370
18
48
1
60
0
100
AcDbSpline
70
4
71
3
72
28
73
24
40
0
40
0
40
0
40
0
40
0.125
40
0.125
40
0.15625
40
0.15625
40
0.1875
40
0.25
40
0.25
40
0.375000000000001
40
0.375000000000001
40
0.500000000000001
40
0.500000000000001
40
0.625000000000002
40
0.625000000000002
40
0.656250000000002
40
0.656250000000002
40
0.687500000000002
40
0.750000000000002
40
0.750000000000002
40
0.875000000000001
40
0.875000000000001
40
1
40
1
40
1
40
1
41
1
10
81
20
-2.88675134594737
30
0
41
1
10
81
20
-2.65221904825896
30
0
41
1
10
81
20
-2.41557006562766
30
0
41
1
10
81
20
-2.11641922368256
30
0
41
1
10
81
20
-2.05638703215138
30
0
41
1
10
81
20
-1.93612762286602
30
0
41
1
10
81
20
-1.75564603468735
30
0
41
1
10
81
20
-1.57487575709635
30
0
41
1
10
81.0000000000001
20
-1.21292207956279
30
0
41
1
10
81
20
-0.971067172788594
30
0
41
1
10
81
20
-0.486130329331814
30
0
41
1
10
81
20
-0.243047512404331
30
0
41
1
10
81.0000000000001
20
0.244406114673922
30
0
41
1
10
81
20
0.488777132128178
30
0
41
1
10
81
20
0.795033160392848
30
0
41
1
10
81
20
0.856366764726857
30
0
41
1
10
81
20
0.978919544628326
30
0
41
1
10
81
20
1.16223916634746
30
0
41
1
10
81
20
1.34408632370085
30
0
41
1
10
81.0000000000001
20
1.7059747850451
30
0
41
1
10
81
20
1.94482750452468
30
0
41
1
10
81
20
2.41856726690247
30
0
41
1
10
81
20
2.65345676163213
30
0
41
1
10
81
20
2.88675134594851
30
0
0
SPLINE
5
194
100
AcDbEntity
8
SK2
62
256
6
ByLayer
370
18
48
1
60
0
100
AcDbSpline
70
4
71
3
72
22
73
18
40
0
40
0
40
0
40
0
40
0.250000000000012
40
0.250000000000012
40
0.375000000000019
40
0.375000000000019
40
0.437500000000019
40
0.437500000000019
40
0.468750000000019
40
0.468750000000019
40
0.500000000000019
40
0.500000000000019
40
0.625000000000013
40
0.625000000000013
40
0.750000000000006
40
0.750000000000006
40
1
40
1
40
1
40
1
41
1
10
80.9999999999995
20
2.88675134594854
30
0
41
1
10
80.5912889637254
20
3.12272077276214
30
0
41
1
10
80.1791616003532
20
3.36066261694552
30
0
41
1
10
79.5535222715925
20
3.72187565182114
30
0
41
1
10
79.3437308096306
20
3.84299880885851
30
0
41
1
10
79.0269193101153
20
4.02591001338604
30
0
41
1
10
78.9209620455694
20
4.08708446859424
30
0
41
1
10
78.7614720200222
20
4.17916607777696
30
0
41
1
10
78.7081770285368
20
4.2099359554575
30
0
41
1
10
78.6015783236678
20
4.27148074640891
30
0
41
1
10
78.5483607058459
20
4.30220595238401
30
0
41
1
10
78.2826783312042
20
4.45559774290234
30
0
41
1
10
78.0714363751955
20
4.57755834306809
30
0
41
1
10
77.6513886515023
20
4.82007300941487
30
0
41
1
10
77.442580782273
20
4.94062828892325
30
0
41
1
10
76.8193808846491
20
5.30043291757536
30
0
41
1
10
76.4082022821818
20
5.53782699439489
30
0
41
1
10
76.0000000000005
20
5.77350269189608
30
0
0
SPLINE
5
195
100
AcDbEntity
8
SK2
62
256
6
ByLayer
370
18
48
1
60
0
100
AcDbSpline
70
4
71
3
72
22
73
18
40
0
40
0
40
0
40
0
40
0.250000000000003
40
0.250000000000003
40
0.375000000000002
40
0.375000000000002
40
0.437500000000001
40
0.437500000000001
40
0.468750000000004
40
0.468750000000004
40
0.500000000000007
40
0.500000000000007
40
0.625000000000005
40
0.625000000000005
40
0.750000000000004
40
0.750000000000004
40
1
40
1
40
1
40
1
41
1
10
76.0000000000003
20
-5.77350269189631
30
0
41
1
10
75.5912889637262
20
-5.53753326508269
30
0
41
1
10
75.1791616003539
20
-5.29959142089928
30
0
41
1
10
74.5535222715931
20
-4.9383783860236
30
0
41
1
10
74.3437308096312
20
-4.81725522898623
30
0
41
1
10
74.0269193101158
20
-4.63434402445864
30
0
41
1
10
73.9209620455698
20
-4.57316956925044
30
0
41
1
10
73.7614720200227
20
-4.48108796006773
30
0
41
1
10
73.7081770285373
20
-4.45031808238716
30
0
41
1
10
73.6015783236682
20
-4.38877329143574
30
0
41
1
10
73.5483607058463
20
-4.35804808546064
30
0
41
1
10
73.2826783312046
20
-4.20465629494228
30
0
41
1
10
73.0714363751958
20
-4.0826956947765
30
0
41
1
10
72.6513886515025
20
-3.8401810284297
30
0
41
1
10
72.4425807822733
20
-3.71962574892129
30
0
41
1
10
71.8193808846493
20
-3.35982112026909
30
0
41
1
10
71.4082022821819
20
-3.12242704344953
30
0
41
1
10
71.0000000000005
20
-2.88675134594831
30
0
0
SPLINE
5
196
100
AcDbEntity
8
SK2
62
256
6
ByLayer
370
18
48
1
60
0
100
AcDbSpline
70
4
71
3
72
22
73
18
40
0
40
0
40
0
40
0
40
0.250000000000014
40
0.250000000000014
40
0.375000000000022
40
0.375000000000022
40
0.437500000000025
40
0.437500000000025
40
0.468750000000024
40
0.468750000000024
40
0.500000000000023
40
0.500000000000023
40
0.625000000000019
40
0.625000000000019
40
0.750000000000015
40
0.750000000000015
40
1
40
1
40
1
40
1
41
1
10
70.9999999999997
20
2.88675134594806
30
0
41
1
10
71.4087110362739
20
3.12272077276174
30
0
41
1
10
71.8208383996463
20
3.36066261694518
30
0
41
1
10
72.4464777284072
20
3.72187565182094
30
0
41
1
10
72.6562691903691
20
3.84299880885834
30
0
41
1
10
72.9730806898846
20
4.02591001338592
30
0
41
1
10
73.0790379544305
20
4.08708446859416
30
0
41
1
10
73.2385279799777
20
4.1791660777769
30
0
41
1
10
73.2918229714631
20
4.20993595545744
30
0
41
1
10
73.3984216763322
20
4.27148074640888
30
0
41
1
10
73.4516392941542
20
4.30220595238399
30
0
41
1
10
73.7173216687959
20
4.45559774290237
30
0
41
1
10
73.9285636248047
20
4.57755834306818
30
0
41
1
10
74.348611348498
20
4.82007300941501
30
0
41
1
10
74.5574192177273
20
4.94062828892345
30
0
41
1
10
75.1806191153515
20
5.30043291757571
30
0
41
1
10
75.5917977178189
20
5.53782699439529
30
0
41
1
10
76.0000000000003
20
5.77350269189657
30
0
0
SPLINE
5
197
100
AcDbEntity
8
SK2
62
256
6
ByLayer
370
18
48
1
60
0
100
AcDbSpline
70
4
71
3
72
22
73
18
40
0
40
0
40
0
40
0
40
0.249999999999994
40
0.249999999999994
40
0.374999999999991
40
0.374999999999991
40
0.437499999999989
40
0.437499999999989
40
0.468749999999988
40
0.468749999999988
40
0.499999999999988
40
0.499999999999988
40
0.62499999999999
40
0.62499999999999
40
0.749999999999994
40
0.749999999999994
40
1
40
1
40
1
40
1
41
1
10
76.0000000000005
20
-5.77350269189586
30
0
41
1
10
76.4087110362747
20
-5.53753326508223
30
0
41
1
10
76.820838399647
20
-5.29959142089879
30
0
41
1
10
77.4464777284078
20
-4.93837838602312
30
0
41
1
10
77.6562691903697
20
-4.81725522898572
30
0
41
1
10
77.9730806898851
20
-4.63434402445816
30
0
41
1
10
78.079037954431
20
-4.57316956924993
30
0
41
1
10
78.2385279799782
20
-4.48108796006721
30
0
41
1
10
78.2918229714636
20
-4.45031808238667
30
0
41
1
10
78.3984216763327
20
-4.38877329143523
30
0
41
1
10
78.4516392941546
20
-4.35804808546013
30
0
41
1
10
78.7173216687963
20
-4.2046562949418
30
0
41
1
10
78.9285636248051
20
-4.08269569477602
30
0
41
1
10
79.3486113484983
20
-3.84018102842921
30
0
41
1
10
79.5574192177276
20
-3.71962574892078
30
0
41
1
10
80.1806191153516
20
-3.35982112026861
30
0
41
1
10
80.591797717819
20
-3.12242704344905
30
0
41
1
10
81.0000000000003
20
-2.8867513459478
30
0
0
SPLINE
5
198
100
AcDbEntity
8
SK1
62
256
6
ByLayer
370
18
48
1
60
0
100
AcDbSpline
70
4
71
3
72
8
73
4
40
0
40
0
40
0
40
0
40
1
40
1
40
1
40
1
41
1
10
-48.25
20
32.2214193285101
30
0
41
1
10
-48.1701861715093
20
32.2200218734064
30
0
41
1
10
-48.0872675817396
20
32.2186394191731
30
0
41
1
10
-48.0000748840349
20
32.218019138109
30
0
0
SPLINE
5
199
100
AcDbEntity
8
SK1
62
256
6
ByLayer
370
18
48
1
60
0
100
AcDbSpline
70
4
71
3
72
24
73
20
40
0
40
0
40
0
40
0
40
0.25
40
0.25
40
0.375
40
0.375
40
0.5
40
0.5
40
0.625000000000001
40
0.625000000000001
40
0.750000000000001
40
0.750000000000001
40
0.875000000000001
40
0.875000000000001
40
0.90625
40
0.90625
40
0.937499999999999
40
0.937499999999999
40
1
40
1
40
1
40
1
41
1
10
-48.25
20
32.2214193285101
30
0
41
1
10
-48.3271925996521
20
32.1386292161066
30
0
41
1
10
-48.4027254536899
20
32.050930952745
30
0
41
1
10
-48.5122537211954
20
31.9125478699341
30
0
41
1
10
-48.5481267099528
20
31.865283010005
30
0
41
1
10
-48.6182019131828
20
31.768643632154
30
0
41
1
10
-48.6524094876907
20
31.7192660384394
30
0
41
1
10
-48.7185088967078
20
31.6186886425618
30
0
41
1
10
-48.7504117861866
20
31.5674825904549
30
0
41
1
10
-48.8107721610409
20
31.4637940025208
30
0
41
1
10
-48.8392511338386
20
31.411299830844
30
0
41
1
10
-48.8906794646078
20
31.3060996950025
30
0
41
1
10
-48.9136552967582
20
31.2533820293383
30
0
41
1
10
-48.936535416281
20
31.1885883728348
30
0
41
1
10
-48.940814242955
20
31.1756874081561
30
0
41
1
10
-48.948696824415
20
31.1500417843307
30
0
41
1
10
-48.9523016290037
20
31.1372862940232
30
0
41
1
10
-48.9618992672905
20
31.0996474846813
30
0
41
1
10
-48.9667024842
20
31.0752951187509
30
0
41
1
10
-48.9697166806892
20
31.051839579978
30
0
0
SPLINE
5
19A
100
AcDbEntity
8
SK1
62
256
6
ByLayer
370
18
48
1
60
0
100
AcDbSpline
70
4
71
3
72
70
73
66
40
0
40
0
40
0
40
0
40
0.124999999999972
40
0.124999999999972
40
0.187499999999958
40
0.187499999999958
40
0.249999999999944
40
0.249999999999944
40
0.312499999999931
40
0.312499999999931
40
0.343749999999922
40
0.343749999999922
40
0.374999999999914
40
0.374999999999914
40
0.406249999999905
40
0.406249999999905
40
0.421874999999901
40
0.421874999999901
40
0.437499999999897
40
0.437499999999897
40
0.453124999999893
40
0.453124999999893
40
0.468749999999889
40
0.468749999999889
40
0.484374999999885
40
0.484374999999885
40
0.492187499999883
40
0.492187499999883
40
0.496093749999883
40
0.496093749999883
40
0.499999999999883
40
0.499999999999883
40
0.507812499999888
40
0.507812499999888
40
0.511718749999891
40
0.511718749999891
40
0.515624999999893
40
0.515624999999893
40
0.523437499999897
40
0.523437499999897
40
0.531249999999901
40
0.531249999999901
40
0.539062499999905
40
0.539062499999905
40
0.54687499999991
40
0.54687499999991
40
0.562499999999912
40
0.562499999999912
40
0.578124999999915
40
0.578124999999915
40
0.593749999999918
40
0.593749999999918
40
0.624999999999924
40
0.624999999999924
40
0.656249999999931
40
0.656249999999931
40
0.687499999999937
40
0.687499999999937
40
0.74999999999995
40
0.74999999999995
40
0.812499999999963
40
0.812499999999963
40
0.874999999999975
40
0.874999999999975
40
1
40
1
40
1
40
1
41
1
10
-48.9697166806892
20
31.0518395799779
30
0
41
1
10
-48.9785930171012
20
30.9827666931837
30
0
41
1
10
-48.9898013946799
20
30.9116838812296
30
0
41
1
10
-49.010970746391
20
30.801728881565
30
0
41
1
10
-49.0187600784454
20
30.76450750334
30
0
41
1
10
-49.0360979042102
20
30.6886972475775
30
0
41
1
10
-49.0456412109662
20
30.6501124021635
30
0
41
1
10
-49.0669842456738
20
30.5711886630805
30
0
41
1
10
-49.0787823554537
20
30.5308288316398
30
0
41
1
10
-49.0987807186822
20
30.468755773989
30
0
41
1
10
-49.1058367731061
20
30.4477965169348
30
0
41
1
10
-49.120940239487
20
30.4051960411473
30
0
41
1
10
-49.1289839414118
20
30.3835573745707
30
0
41
1
10
-49.1464161598916
20
30.3393549341652
30
0
41
1
10
-49.1557915613357
20
30.3168123044037
30
0
41
1
10
-49.1712542660582
20
30.2822073879468
30
0
41
1
10
-49.1766471023967
20
30.2705321424927
30
0
41
1
10
-49.1880532434731
20
30.246816879459
30
0
41
1
10
-49.1940597200795
20
30.2347910097152
30
0
41
1
10
-49.206802147264
20
30.210463075518
30
0
41
1
10
-49.2135433509849
20
30.1981428720512
30
0
41
1
10
-49.2281075980202
20
30.173045634851
30
0
41
1
10
-49.2359160105215
20
30.1602747792963
30
0
41
1
10
-49.2533322974318
20
30.1339732063109
30
0
41
1
10
-49.262708398457
20
30.1207741623827
30
0
41
1
10
-49.2784969686657
20
30.1009697522192
30
0
41
1
10
-49.2840339729321
20
30.0944024637513
30
0
41
1
10
-49.2925946962344
20
30.0849475215286
30
0
41
1
10
-49.2955014637151
20
30.0818488030469
30
0
41
1
10
-49.3014361731391
20
30.0757719388758
30
0
41
1
10
-49.3044657180066
20
30.0727949345412
30
0
41
1
10
-49.313468788581
20
30.0643340487117
30
0
41
1
10
-49.3194469454136
20
30.0592250680205
30
0
41
1
10
-49.3283778259734
20
30.0523705687563
30
0
41
1
10
-49.3313357680737
20
30.0502326266784
30
0
41
1
10
-49.337073906878
20
30.0463292146682
30
0
41
1
10
-49.3398758296209
20
30.0445467352402
30
0
41
1
10
-49.3481015269572
20
30.0396531211837
30
0
41
1
10
-49.3533520880974
20
30.0369994700209
30
0
41
1
10
-49.3631210109243
20
30.0327937630131
30
0
41
1
10
-49.3676993612993
20
30.0312048005844
30
0
41
1
10
-49.3764011833092
20
30.0287905140654
30
0
41
1
10
-49.3805378391983
20
30.027967429531
30
0
41
1
10
-49.3883082638221
20
30.0269340203178
30
0
41
1
10
-49.3919628304064
20
30.0267166683029
30
0
41
1
10
-49.4024036858999
20
30.0267432061596
30
0
41
1
10
-49.4086755467698
20
30.0276547666116
30
0
41
1
10
-49.420330380932
20
30.0306315650748
30
0
41
1
10
-49.4257129893117
20
30.0327093730988
30
0
41
1
10
-49.4358013464841
20
30.0376918006764
30
0
41
1
10
-49.4404740786221
20
30.040580940088
30
0
41
1
10
-49.4536778614137
20
30.0501208287682
30
0
41
1
10
-49.4614087761094
20
30.0576287530105
30
0
41
1
10
-49.4755392658972
20
30.0740708478453
30
0
41
1
10
-49.4819254036185
20
30.083019413714
30
0
41
1
10
-49.4937409641775
20
30.1019414613385
30
0
41
1
10
-49.4991661019387
20
30.1119195336397
30
0
41
1
10
-49.5143429423717
20
30.1430306369774
30
0
41
1
10
-49.5230220224296
20
30.1653523999026
30
0
41
1
10
-49.5384223292373
20
30.2118316987656
30
0
41
1
10
-49.5451375152842
20
30.2360129904058
30
0
41
1
10
-49.5571465436213
20
30.285734397677
30
0
41
1
10
-49.5624346294612
20
30.3112800165527
30
0
41
1
10
-49.5766234575257
20
30.3895186065591
30
0
41
1
10
-49.5838746389943
20
30.4437885802401
30
0
41
1
10
-49.5895655549791
20
30.4995501889749
30
0
0
SPLINE
5
19B
100
AcDbEntity
8
SK1
62
256
6
ByLayer
370
18
48
1
60
0
100
AcDbSpline
70
4
71
3
72
34
73
30
40
0
40
0
40
0
40
0
40
0.03125
40
0.03125
40
0.0625
40
0.0625
40
0.125000000000001
40
0.125000000000001
40
0.187500000000001
40
0.187500000000001
40
0.250000000000002
40
0.250000000000002
40
0.312500000000002
40
0.312500000000002
40
0.343750000000002
40
0.343750000000002
40
0.375000000000002
40
0.375000000000002
40
0.500000000000002
40
0.500000000000002
40
0.625000000000002
40
0.625000000000002
40
0.750000000000001
40
0.750000000000001
40
0.875000000000001
40
0.875000000000001
40
0.937500000000001
40
0.937500000000001
40
1
40
1
40
1
40
1
41
1
10
-49.5895655549782
20
30.4995501889756
30
0
41
1
10
-49.5906351317007
20
30.510030280207
30
0
41
1
10
-49.5921127560824
20
30.5199078429214
30
0
41
1
10
-49.5958301896483
20
30.5385033474052
30
0
41
1
10
-49.5980733242939
20
30.5472325987984
30
0
41
1
10
-49.6058113909971
20
30.5717014639753
30
0
41
1
10
-49.6122375394779
20
30.5855321487869
30
0
41
1
10
-49.6267759139587
20
30.609288989262
30
0
41
1
10
-49.634886687367
20
30.619215523265
30
0
41
1
10
-49.65210942919
20
30.6359601335406
30
0
41
1
10
-49.6612223440854
20
30.642776372556
30
0
41
1
10
-49.6799383635281
20
30.653855855274
30
0
41
1
10
-49.689542877774
20
30.6581170912418
30
0
41
1
10
-49.7040333535638
20
30.6628783121557
30
0
41
1
10
-49.7088808008064
20
30.6641925247824
30
0
41
1
10
-49.7185317603699
20
30.6663048905636
30
0
41
1
10
-49.7233395104552
20
30.6671046788121
30
0
41
1
10
-49.747211496648
20
30.6699145816138
30
0
41
1
10
-49.7657469243847
20
30.6684012656593
30
0
41
1
10
-49.8002576291982
20
30.659373379087
30
0
41
1
10
-49.8162471080165
20
30.6518383513143
30
0
41
1
10
-49.8447041144178
20
30.6315404010519
30
0
41
1
10
-49.8571777745759
20
30.6187686284921
30
0
41
1
10
-49.8777805829282
20
30.5885037368819
30
0
41
1
10
-49.8859126594732
20
30.57100594764
30
0
41
1
10
-49.8942491836921
20
30.5415330190178
30
0
41
1
10
-49.8963843388715
20
30.5311706963509
30
0
41
1
10
-49.8992629101628
20
30.5094241876666
30
0
41
1
10
-49.9000000000001
20
30.4980716034621
30
0
41
1
10
-49.9000000000001
20
30.486325550098
30
0
0
SPLINE
5
19C
100
AcDbEntity
8
SK1
62
256
6
ByLayer
370
18
48
1
60
0
100
AcDbSpline
70
4
71
3
72
34
73
30
40
0
40
0
40
0
40
0
40
0.0312500000000007
40
0.0312500000000007
40
0.0625000000000014
40
0.0625000000000014
40
0.125000000000003
40
0.125000000000003
40
0.187500000000005
40
0.187500000000005
40
0.250000000000007
40
0.250000000000007
40
0.312500000000009
40
0.312500000000009
40
0.343750000000007
40
0.343750000000007
40
0.375000000000005
40
0.375000000000005
40
0.500000000000004
40
0.500000000000004
40
0.625000000000003
40
0.625000000000003
40
0.750000000000001
40
0.750000000000001
40
0.875
40
0.875
40
0.9375
40
0.9375
40
1
40
1
40
1
40
1
41
1
10
-49.5895655549782
20
-30.4995501889757
30
0
41
1
10
-49.590635128866
20
-30.5100302524322
30
0
41
1
10
-49.5921127463331
20
-30.5199077725872
30
0
41
1
10
-49.5958301509183
20
-30.5385031752347
30
0
41
1
10
-49.5980732281669
20
-30.5472322605517
30
0
41
1
10
-49.6058113389978
20
-30.5717013681046
30
0
41
1
10
-49.6122375259955
20
-30.5855321316441
30
0
41
1
10
-49.6267759592584
20
-30.6092890583971
30
0
41
1
10
-49.6348867534571
20
-30.6192155991345
30
0
41
1
10
-49.6521095088273
20
-30.635960199353
30
0
41
1
10
-49.6612224168293
20
-30.6427764210179
30
0
41
1
10
-49.6799383965105
20
-30.6538558694
30
0
41
1
10
-49.6895428780525
20
-30.6581170880887
30
0
41
1
10
-49.7040332900463
20
-30.662878292908
30
0
41
1
10
-49.7088807488955
20
-30.6641925125833
30
0
41
1
10
-49.7185317643562
20
-30.6663048922734
30
0
41
1
10
-49.7233395403919
20
-30.6671046840937
30
0
41
1
10
-49.7472116456447
20
-30.6699145921211
30
0
41
1
10
-49.7657471332943
20
-30.66840124174
30
0
41
1
10
-49.8002578924657
20
-30.6593732794862
30
0
41
1
10
-49.8162473661745
20
-30.6518382094738
30
0
41
1
10
-49.8447043216352
20
-30.6315402109467
30
0
41
1
10
-49.8571779360089
20
-30.6187684321095
30
0
41
1
10
-49.877780648273
20
-30.5885036001347
30
0
41
1
10
-49.8859126744471
20
-30.5710058767978
30
0
41
1
10
-49.8942491563155
20
-30.5415331247567
30
0
41
1
10
-49.8963843030189
20
-30.5311708738666
30
0
41
1
10
-49.8992628761555
20
-30.5094245379123
30
0
41
1
10
-49.9
20
-30.4980717145813
30
0
41
1
10
-49.9
20
-30.4863255500981
30
0
0
SPLINE
5
19D
100
AcDbEntity
8
SK1
62
256
6
ByLayer
370
18
48
1
60
0
100
AcDbSpline
70
4
71
3
72
70
73
66
40
0
40
0
40
0
40
0
40
0.124999999999989
40
0.124999999999989
40
0.187499999999985
40
0.187499999999985
40
0.24999999999998
40
0.24999999999998
40
0.312499999999976
40
0.312499999999976
40
0.343749999999974
40
0.343749999999974
40
0.374999999999972
40
0.374999999999972
40
0.40624999999997
40
0.40624999999997
40
0.421874999999969
40
0.421874999999969
40
0.437499999999968
40
0.437499999999968
40
0.453124999999967
40
0.453124999999967
40
0.468749999999966
40
0.468749999999966
40
0.484374999999965
40
0.484374999999965
40
0.492187499999961
40
0.492187499999961
40
0.49609374999996
40
0.49609374999996
40
0.499999999999958
40
0.499999999999958
40
0.507812499999952
40
0.507812499999952
40
0.511718749999952
40
0.511718749999952
40
0.515624999999952
40
0.515624999999952
40
0.523437499999952
40
0.523437499999952
40
0.531249999999953
40
0.531249999999953
40
0.539062499999953
40
0.539062499999953
40
0.546874999999953
40
0.546874999999953
40
0.562499999999954
40
0.562499999999954
40
0.578124999999955
40
0.578124999999955
40
0.593749999999956
40
0.593749999999956
40
0.624999999999958
40
0.624999999999958
40
0.656249999999961
40
0.656249999999961
40
0.687499999999963
40
0.687499999999963
40
0.749999999999971
40
0.749999999999971
40
0.812499999999978
40
0.812499999999978
40
0.874999999999986
40
0.874999999999986
40
1
40
1
40
1
40
1
41
1
10
-48.9697166806892
20
-31.051839579978
30
0
41
1
10
-48.9785920072054
20
-30.9827745518778
30
0
41
1
10
-48.9897988429113
20
-30.9117001184866
30
0
41
1
10
-49.0109647633667
20
-30.8017584669498
30
0
41
1
10
-49.018752765391
20
-30.7645416601613
30
0
41
1
10
-49.0360874261683
20
-30.6887408851895
30
0
41
1
10
-49.0456289023846
20
-30.6501609458562
30
0
41
1
10
-49.0669675034832
20
-30.5712475494472
30
0
41
1
10
-49.0787629361652
20
-30.5308934418214
30
0
41
1
10
-49.0987562930165
20
-30.4688294272677
30
0
41
1
10
-49.1058105146937
20
-30.4478732539891
30
0
41
1
10
-49.1209098209548
20
-30.4052791757413
30
0
41
1
10
-49.1289512012184
20
-30.3836438194118
30
0
41
1
10
-49.1463779452356
20
-30.3394484216825
30
0
41
1
10
-49.1557499117386
20
-30.3169102508101
30
0
41
1
10
-49.1712062282391
20
-30.2823125423261
30
0
41
1
10
-49.1765967098923
20
-30.270639828982
30
0
41
1
10
-49.187997429399
20
-30.2469300411002
30
0
41
1
10
-49.1940016588574
20
-30.2349054963983
30
0
41
1
10
-49.2067373070769
20
-30.2105832680141
30
0
41
1
10
-49.2134742645568
20
-30.1982668746687
30
0
41
1
10
-49.2280264993186
20
-30.1731804834021
30
0
41
1
10
-49.2358273164295
20
-30.1604165682773
30
0
41
1
10
-49.2532197444649
20
-30.1341354250804
30
0
41
1
10
-49.2626054593647
20
-30.1209142770372
30
0
41
1
10
-49.278375252735
20
-30.1011170203335
30
0
41
1
10
-49.2839152326934
20
-30.0945400212559
30
0
41
1
10
-49.2924720071773
20
-30.0850799204047
30
0
41
1
10
-49.295376635661
20
-30.0819802199017
30
0
41
1
10
-49.3013049674433
20
-30.07590284072
30
0
41
1
10
-49.3043370960416
20
-30.0729194623555
30
0
41
1
10
-49.3133471331076
20
-30.0644412999453
30
0
41
1
10
-49.319326158545
20
-30.0593250574942
30
0
41
1
10
-49.3282527570283
20
-30.0524630297553
30
0
41
1
10
-49.3312153507712
20
-30.0503179942726
30
0
41
1
10
-49.3369592386173
20
-30.0464039042838
30
0
41
1
10
-49.3397632724002
20
-30.0446168883957
30
0
41
1
10
-49.3479935042783
20
-30.0397111939901
30
0
41
1
10
-49.353250201828
20
-30.0370484824603
30
0
41
1
10
-49.363029831547
20
-30.0328279696566
30
0
41
1
10
-49.3676116126621
20
-30.0312334148453
30
0
41
1
10
-49.3763182059843
20
-30.0288093499522
30
0
41
1
10
-49.3804580471837
20
-30.0279815778646
30
0
41
1
10
-49.3882378147308
20
-30.0269399205925
30
0
41
1
10
-49.3918959362056
20
-30.0267193374018
30
0
41
1
10
-49.4023455028561
20
-30.0267374574299
30
0
41
1
10
-49.4086206278607
20
-30.0276450476097
30
0
41
1
10
-49.4202799499303
20
-30.0306144150719
30
0
41
1
10
-49.4256604855126
20
-30.0326871954358
30
0
41
1
10
-49.4357579429469
20
-30.0376666472005
30
0
41
1
10
-49.4404341462281
20
-30.0405548764118
30
0
41
1
10
-49.4536465627312
20
-30.0500926742598
30
0
41
1
10
-49.4613809145856
20
-30.0576000217039
30
0
41
1
10
-49.4755165521725
20
-30.0740407434774
30
0
41
1
10
-49.4819043194364
20
-30.0829885789797
30
0
41
1
10
-49.4937222729306
20
-30.1019086074983
30
0
41
1
10
-49.4991481547125
20
-30.1118854051319
30
0
41
1
10
-49.514326543323
20
-30.1429917109392
30
0
41
1
10
-49.5230060395861
20
-30.1653087850472
30
0
41
1
10
-49.5384114740619
20
-30.2117943224838
30
0
41
1
10
-49.5451285655854
20
-30.2359789659316
30
0
41
1
10
-49.5571407002954
20
-30.2857071777953
30
0
41
1
10
-49.5624299764209
20
-30.3112562572779
30
0
41
1
10
-49.5766217121048
20
-30.3895051882631
30
0
41
1
10
-49.5838739667782
20
-30.4437819936305
30
0
41
1
10
-49.589565554979
20
-30.499550188975
30
0
0
SPLINE
5
19E
100
AcDbEntity
8
SK1
62
256
6
ByLayer
370
18
48
1
60
0
100
AcDbSpline
70
4
71
3
72
24
73
20
40
0
40
0
40
0
40
0
40
0.250000000000001
40
0.250000000000001
40
0.375000000000002
40
0.375000000000002
40
0.500000000000003
40
0.500000000000003
40
0.625000000000003
40
0.625000000000003
40
0.750000000000004
40
0.750000000000004
40
0.875000000000005
40
0.875000000000005
40
0.906250000000003
40
0.906250000000003
40
0.937500000000001
40
0.937500000000001
40
1
40
1
40
1
40
1
41
1
10
-48.25
20
-32.2214193285102
30
0
41
1
10
-48.3271926111222
20
-32.1386292038047
30
0
41
1
10
-48.4027254550249
20
-32.0509309488243
30
0
41
1
10
-48.5122536734003
20
-31.9125479314377
30
0
41
1
10
-48.5481266401182
20
-31.8652831022076
30
0
41
1
10
-48.618201788153
20
-31.7686438086852
30
0
41
1
10
-48.6524093294458
20
-31.7192662685852
30
0
41
1
10
-48.7185086625097
20
-31.6186890095605
30
0
41
1
10
-48.7504115090574
20
-31.5674830406985
30
0
41
1
10
-48.8107717948452
20
-31.4637946573968
30
0
41
1
10
-48.8392507208948
20
-31.4113006072307
30
0
41
1
10
-48.8906789766632
20
-31.3061007614429
30
0
41
1
10
-48.9136547790546
20
-31.2533832647303
30
0
41
1
10
-48.9365349150508
20
-31.1885898499224
30
0
41
1
10
-48.9408137478882
20
-31.1756889350705
30
0
41
1
10
-48.9486963493385
20
-31.150043413723
30
0
41
1
10
-48.9523012357624
20
-31.1372877467467
30
0
41
1
10
-48.961899115855
20
-31.0996482574302
30
0
41
1
10
-48.9667024377093
20
-31.0752954805269
30
0
41
1
10
-48.9697166806892
20
-31.051839579978
30
0
0
SPLINE
5
19F
100
AcDbEntity
8
SK1
62
256
6
ByLayer
370
18
48
1
60
0
100
AcDbSpline
70
4
71
3
72
8
73
4
40
0
40
0
40
0
40
0
40
1
40
1
40
1
40
1
41
1
10
-48.2500000000025
20
-32.2214193285102
30
0
41
1
10
-48.1701858378083
20
-32.2200218675636
30
0
41
1
10
-48.0872671766727
20
-32.2186394162916
30
0
41
1
10
-48.0000748840348
20
-32.2180191381092
30
0
0
SPLINE
5
1A0
100
AcDbEntity
8
SK1
62
256
6
ByLayer
370
18
48
1
60
0
100
AcDbSpline
70
4
71
3
72
100
73
96
40
0
40
0
40
0
40
0
40
0.0238858420312776
40
0.0238858420312776
40
0.055131226470723
40
0.055131226470723
40
0.0707539186904458
40
0.0707539186904458
40
0.078565264800307
40
0.078565264800307
40
0.0863766109101684
40
0.0863766109101684
40
0.117621995349614
40
0.117621995349614
40
0.14886737978906
40
0.14886737978906
40
0.164490072008782
40
0.164490072008782
40
0.172301418118644
40
0.172301418118644
40
0.180112764228505
40
0.180112764228505
40
0.21135814866795
40
0.21135814866795
40
0.242603533107395
40
0.242603533107395
40
0.258226225327118
40
0.258226225327118
40
0.266037571436979
40
0.266037571436979
40
0.273848917546841
40
0.273848917546841
40
0.305094301986286
40
0.305094301986286
40
0.33633968642573
40
0.367585070865176
40
0.367585070865176
40
0.375396416975037
40
0.375396416975037
40
0.383207763084898
40
0.39883045530462
40
0.39883045530462
40
0.430075839744064
40
0.461321224183509
40
0.461321224183509
40
0.476943916403232
40
0.476943916403232
40
0.484755262513093
40
0.484755262513093
40
0.492566608622954
40
0.492566608622954
40
0.523811993062399
40
0.523811993062399
40
0.555057377501844
40
0.555057377501844
40
0.586302761941289
40
0.586302761941289
40
0.601925454161011
40
0.601925454161011
40
0.609736800270872
40
0.609736800270872
40
0.617548146380734
40
0.617548146380734
40
0.648793530820178
40
0.680038915259622
40
0.680038915259622
40
0.711284299699066
40
0.711284299699066
40
0.719095645808927
40
0.719095645808927
40
0.726906991918788
40
0.726906991918788
40
0.742529684138511
40
0.742529684138511
40
0.773775068577956
40
0.773775068577956
40
0.8050204530174
40
0.8050204530174
40
0.836265837456844
40
0.836265837456844
40
0.844077183566706
40
0.844077183566706
40
0.851888529676567
40
0.867511221896288
40
0.867511221896288
40
0.898756606335732
40
0.898756606335732
40
0.930001990775176
40
0.930001990775176
40
0.945624682994898
40
0.945624682994898
40
0.96124737521462
40
0.96124737521462
40
0.992492759654064
40
1
40
1
40
1
40
1
41
1
10
-7.81434279164702
20
37.6160019139768
30
0
41
1
10
-7.8143309452441
20
37.6160036592333
30
0
41
1
10
-7.82145189645868
20
37.6145615697201
30
0
41
1
10
-7.85398639016557
20
37.6079890454921
30
0
41
1
10
-7.88436169025053
20
37.6018587592899
30
0
41
1
10
-7.9478626297211
20
37.5891496233603
30
0
41
1
10
-7.97202496076235
20
37.584327300096
30
0
41
1
10
-8.01281842288566
20
37.5762238920478
30
0
41
1
10
-8.02719804135737
20
37.5733731876624
30
0
41
1
10
-8.05736797740434
20
37.5674069302578
30
0
41
1
10
-8.07314358608417
20
37.5642942690055
30
0
41
1
10
-8.15541671604804
20
37.5481048669995
30
0
41
1
10
-8.23207017172504
20
37.5331528904395
30
0
41
1
10
-8.40605338627101
20
37.4997459648323
30
0
41
1
10
-8.50338630322294
20
37.4812899916831
30
0
41
1
10
-8.66466593997006
20
37.4513060997541
30
0
41
1
10
-8.72097755367534
20
37.4409277790794
30
0
41
1
10
-8.80928859004135
20
37.424823312953
30
0
41
1
10
-8.83940017626215
20
37.4193596305243
30
0
41
1
10
-8.90059668695476
20
37.4083161368078
30
0
41
1
10
-8.93170940381957
20
37.4027311980643
30
0
41
1
10
-9.08980160651234
20
37.3745138275953
30
0
41
1
10
-9.22434516049198
20
37.3510060707369
30
0
41
1
10
-9.50882133136049
20
37.3026700550151
30
0
41
1
10
-9.65875653237987
20
37.2778407127451
30
0
41
1
10
-9.89502074972738
20
37.2399778514852
30
0
41
1
10
-9.97567274087328
20
37.2272534703191
30
0
41
1
10
-10.0995062223642
20
37.2080566596274
30
0
41
1
10
-10.141267832343
20
37.2016381782455
30
0
41
1
10
-10.2257164832329
20
37.1887766252454
30
0
41
1
10
-10.268263380102
20
37.1823548873661
30
0
41
1
10
-10.4825863455032
20
37.1503091954741
30
0
41
1
10
-10.6591151028225
20
37.1248758638604
30
0
41
1
10
-11.0219043219779
20
37.0748416966607
30
0
41
1
10
-11.3944280795168
20
37.0256391598448
30
0
41
1
10
-11.7861963197059
20
36.9788917937938
30
0
41
1
10
-12.0371658958116
20
36.9506844708766
30
0
41
1
10
-12.0877271193422
20
36.9450869320612
30
0
41
1
10
-12.1890952403971
20
36.9340392369721
30
0
41
1
10
-12.3415246943459
20
36.9176869799982
30
0
41
1
10
-12.495072902259
20
36.9020073941175
30
0
41
1
10
-12.8036374861119
20
36.8715829912882
30
0
41
1
10
-13.2189658117113
20
36.833510598003
30
0
41
1
10
-13.642018801178
20
36.8008098290912
30
0
41
1
10
-13.9622438041629
20
36.7784385960326
30
0
41
1
10
-14.0694754356938
20
36.7713405480661
30
0
41
1
10
-14.2310696927793
20
36.761249480338
30
0
41
1
10
-14.2850589639675
20
36.7579784591991
30
0
41
1
10
-14.3932891502435
20
36.7516246805944
30
0
41
1
10
-14.4475729623614
20
36.7485397853308
30
0
41
1
10
-14.7183259174543
20
36.7336627263858
30
0
41
1
10
-14.9337134652921
20
36.7234563940047
30
0
41
1
10
-15.3621199571432
20
36.7063373984835
30
0
41
1
10
-15.5751387632466
20
36.6994248914492
30
0
41
1
10
-15.9988028791435
20
36.6887973896278
30
0
41
1
10
-16.2094483431879
20
36.6850825376171
30
0
41
1
10
-16.523583770087
20
36.6818333037753
30
0
41
1
10
-16.6279895922839
20
36.6811373560974
30
0
41
1
10
-16.7841276018174
20
36.6806641778682
30
0
41
1
10
-16.8361578298839
20
36.6806016501545
30
0
41
1
10
-16.939740627904
20
36.6806647564302
30
0
41
1
10
-16.9912457215227
20
36.6807900862659
30
0
41
1
10
-17.2473507007046
20
36.6818701855072
30
0
41
1
10
-17.6480469082921
20
36.6864983624037
30
0
41
1
10
-18.0308478261488
20
36.6961681828052
30
0
41
1
10
-18.4045781572909
20
36.7079892290944
30
0
41
1
10
-18.586909326751
20
36.7149758964626
30
0
41
1
10
-18.8089119312429
20
36.7248201453047
30
0
41
1
10
-18.8530161673033
20
36.7268445060811
30
0
41
1
10
-18.9406229554332
20
36.7309982170252
30
0
41
1
10
-18.9841526281097
20
36.7331289394498
30
0
41
1
10
-19.1136492728623
20
36.7396605784225
30
0
41
1
10
-19.1980051024613
20
36.7441742643364
30
0
41
1
10
-19.4452185588362
20
36.7580919956344
30
0
41
1
10
-19.6022364149495
20
36.7678719858305
30
0
41
1
10
-19.9007220590616
20
36.7879222101687
30
0
41
1
10
-20.0421909145451
20
36.7981932526885
30
0
41
1
10
-20.309140922944
20
36.8187283621882
30
0
41
1
10
-20.4346258242081
20
36.8289932916957
30
0
41
1
10
-20.5808803797061
20
36.8415026446233
30
0
41
1
10
-20.609629024321
20
36.8439909982552
30
0
41
1
10
-20.6657008478369
20
36.8488969874556
30
0
41
1
10
-20.7477877772849
20
36.8561600354919
30
0
41
1
10
-20.8238605098264
20
36.8631042785771
30
0
41
1
10
-20.9680482129712
20
36.8764897079226
30
0
41
1
10
-21.0535834604935
20
36.8847417938078
30
0
41
1
10
-21.2033054236258
20
36.8995133540455
30
0
41
1
10
-21.2674946623101
20
36.9060334534641
30
0
41
1
10
-21.3471276490649
20
36.9142365164306
30
0
41
1
10
-21.3708912689803
20
36.9167081068455
30
0
41
1
10
-21.4126754407559
20
36.9210795741509
30
0
41
1
10
-21.4304990313832
20
36.9229587401183
30
0
41
1
10
-21.4748674579968
20
36.9276541815562
30
0
41
1
10
-21.4965760932789
20
36.9299821090757
30
0
41
1
10
-21.5000226713229
20
36.9303498489948
30
0
41
1
10
-21.5000026494946
20
36.9303474864695
30
0
0
SPLINE
5
1A1
100
AcDbEntity
8
SK1
62
256
6
ByLayer
370
18
48
1
60
0
100
AcDbSpline
70
4
71
3
72
104
73
100
40
0
40
0
40
0
40
0
40
0.0214338051558526
40
0.0214338051558526
40
0.0292415547602182
40
0.0292415547602182
40
0.0370493043645837
40
0.0370493043645837
40
0.0526648035733148
40
0.0526648035733148
40
0.0838958019907768
40
0.0838958019907768
40
0.115126800408239
40
0.115126800408239
40
0.122934550012604
40
0.122934550012604
40
0.13074229961697
40
0.13074229961697
40
0.146357798825701
40
0.146357798825701
40
0.177588797243163
40
0.177588797243163
40
0.208819795660624
40
0.208819795660624
40
0.224435294869355
40
0.224435294869355
40
0.232243044473721
40
0.232243044473721
40
0.240050794078086
40
0.240050794078086
40
0.271281792495548
40
0.271281792495548
40
0.302512790913011
40
0.302512790913011
40
0.318128290121742
40
0.318128290121742
40
0.325936039726107
40
0.325936039726107
40
0.333743789330472
40
0.333743789330472
40
0.364974787747934
40
0.364974787747934
40
0.396205786165395
40
0.427436784582857
40
0.427436784582857
40
0.435244534187222
40
0.435244534187222
40
0.443052283791588
40
0.443052283791588
40
0.458667783000318
40
0.458667783000318
40
0.489898781417779
40
0.521129779835241
40
0.521129779835241
40
0.552360778252702
40
0.552360778252702
40
0.567976277461433
40
0.567976277461433
40
0.583591776670164
40
0.583591776670164
40
0.614822775087625
40
0.614822775087625
40
0.646053773505086
40
0.646053773505086
40
0.661669272713817
40
0.661669272713817
40
0.669477022318182
40
0.669477022318182
40
0.677284771922547
40
0.677284771922547
40
0.708515770340007
40
0.739746768757467
40
0.739746768757467
40
0.770977767174928
40
0.770977767174928
40
0.786593266383657
40
0.786593266383657
40
0.794401015988022
40
0.794401015988022
40
0.802208765592387
40
0.802208765592387
40
0.833439764009847
40
0.833439764009847
40
0.864670762427308
40
0.864670762427308
40
0.895901760844768
40
0.895901760844768
40
0.903709510449134
40
0.903709510449134
40
0.911517260053499
40
0.927132759262229
40
0.927132759262229
40
0.95836375767969
40
0.95836375767969
40
0.989594756097151
40
0.989594756097151
40
0.997402505701517
40
0.997402505701517
40
1
40
1
40
1
40
1
41
1
10
-21.5000041354388
20
-36.9303474625341
30
0
41
1
10
-21.4999608845264
20
-36.9303422946319
30
0
41
1
10
-21.4943058568977
20
-36.9297369748125
30
0
41
1
10
-21.4788146901815
20
-36.9280844022563
30
0
41
1
10
-21.4739201863398
20
-36.9275628229828
30
0
41
1
10
-21.4625984188041
20
-36.9263587882752
30
0
41
1
10
-21.456159678233
20
-36.9256751175436
30
0
41
1
10
-21.4346038918093
20
-36.9233921087882
30
0
41
1
10
-21.4172853236873
20
-36.9215646027249
30
0
41
1
10
-21.3567175465797
20
-36.9152207223246
30
0
41
1
10
-21.3048787016907
20
-36.9098423275229
30
0
41
1
10
-21.1789309579673
20
-36.8970925582696
30
0
41
1
10
-21.1048206678252
20
-36.8897206477529
30
0
41
1
10
-20.9982266626119
20
-36.8794674924612
30
0
41
1
10
-20.9762083560189
20
-36.877365038639
30
0
41
1
10
-20.9307649649809
20
-36.8730620891702
30
0
41
1
10
-20.9073116441753
20
-36.8708589697204
30
0
41
1
10
-20.8350267778472
20
-36.8641299500312
30
0
41
1
10
-20.7844346280646
20
-36.8594994391821
30
0
41
1
10
-20.6256720613504
20
-36.8452686128388
30
0
41
1
10
-20.5105338999628
20
-36.8353289800472
30
0
41
1
10
-20.2623510498034
20
-36.8150389241277
30
0
41
1
10
-20.1293043334719
20
-36.8046876711257
30
0
41
1
10
-19.91638920189
20
-36.7892298094071
30
0
41
1
10
-19.8431890827454
20
-36.7840888488859
30
0
41
1
10
-19.730018892489
20
-36.7764444530324
30
0
41
1
10
-19.6918185387117
20
-36.7739133512502
30
0
41
1
10
-19.6146633567857
20
-36.7689052849555
30
0
41
1
10
-19.5756796286263
20
-36.7664263623772
30
0
41
1
10
-19.3787599051635
20
-36.7541757720302
30
0
41
1
10
-19.2148365238776
20
-36.744836639178
30
0
41
1
10
-18.8747060959729
20
-36.7275433503458
30
0
41
1
10
-18.6984974556378
20
-36.7195884919542
30
0
41
1
10
-18.4250584232746
20
-36.7090407437918
30
0
41
1
10
-18.3323883185654
20
-36.7057556503408
30
0
41
1
10
-18.191084045122
20
-36.7012188650766
30
0
41
1
10
-18.1435992640363
20
-36.6997717581898
30
0
41
1
10
-18.0478586633436
20
-36.6970154697969
30
0
41
1
10
-17.999653619819
20
-36.6957079602148
30
0
41
1
10
-17.7578685588756
20
-36.6895608632595
30
0
41
1
10
-17.5611877471659
20
-36.6858688417225
30
0
41
1
10
-17.1615918134346
20
-36.6812078751488
30
0
41
1
10
-16.7557600995883
20
-36.6792706883382
30
0
41
1
10
-16.337639291229
20
-36.6833084047731
30
0
41
1
10
-16.0724270604448
20
-36.6878676419242
30
0
41
1
10
-16.0191898703303
20
-36.6888812978831
30
0
41
1
10
-15.9123231813235
20
-36.6911165651665
30
0
41
1
10
-15.8587245631855
20
-36.6923378179717
30
0
41
1
10
-15.6981171897024
20
-36.6962984120905
30
0
41
1
10
-15.5910468347989
20
-36.6993396267423
30
0
41
1
10
-15.2698405249356
20
-36.7096640573479
30
0
41
1
10
-14.8415784063018
20
-36.7266323994577
30
0
41
1
10
-14.4133472399135
20
-36.7499812987965
30
0
41
1
10
-13.9851301278561
20
-36.77650436602
30
0
41
1
10
-13.77102861071
20
-36.7913529689849
30
0
41
1
10
-13.4498827823393
20
-36.8159916819972
30
0
41
1
10
-13.3435218403948
20
-36.8245465128171
30
0
41
1
10
-13.1324691999272
20
-36.8422802842674
30
0
41
1
10
-13.0277242446182
20
-36.8514633165786
30
0
41
1
10
-12.7158020909691
20
-36.8799092160374
30
0
41
1
10
-12.5109326313958
20
-36.9000690563235
30
0
41
1
10
-12.1073058848507
20
-36.9425045735183
30
0
41
1
10
-11.9085482732514
20
-36.9647806292254
30
0
41
1
10
-11.6150846181188
20
-36.9995676956445
30
0
41
1
10
-11.5180434948078
20
-37.0113921032897
30
0
41
1
10
-11.3736757629307
20
-37.0294435408716
30
0
41
1
10
-11.3257522711256
20
-37.0355131453339
30
0
41
1
10
-11.2303086104432
20
-37.047752391391
30
0
41
1
10
-11.1827930088945
20
-37.0539217032554
30
0
41
1
10
-10.947483899805
20
-37.0848401707009
30
0
41
1
10
-10.5834454180355
20
-37.1350219327149
30
0
41
1
10
-10.2439178705042
20
-37.1857536590411
30
0
41
1
10
-9.91680582136412
20
-37.2363058560044
30
0
41
1
10
-9.7594556403358
20
-37.261493092313
30
0
41
1
10
-9.53315123438242
20
-37.2987717627024
30
0
41
1
10
-9.45933976558801
20
-37.3111139183836
30
0
41
1
10
-9.35114147531012
20
-37.3294504599706
30
0
41
1
10
-9.31544598229635
20
-37.3355417155964
30
0
41
1
10
-9.24528651889085
20
-37.3475917734859
30
0
41
1
10
-9.21079474785212
20
-37.3535551599553
30
0
41
1
10
-9.04126021025348
20
-37.3830467128493
30
0
41
1
10
-8.91496798581709
20
-37.4055997258587
30
0
41
1
10
-8.68102049697195
20
-37.4481731269532
30
0
41
1
10
-8.57336408604834
20
-37.4681944204207
30
0
41
1
10
-8.37723597964056
20
-37.5052140736219
30
0
41
1
10
-8.28875977321565
20
-37.5222136809379
30
0
41
1
10
-8.19090987217122
20
-37.5412230011621
30
0
41
1
10
-8.17197900693107
20
-37.5449126248416
30
0
41
1
10
-8.13542173547236
20
-37.5520576280708
30
0
41
1
10
-8.0828343665674
20
-37.5623670168447
30
0
41
1
10
-8.03692789472021
20
-37.5714414484335
30
0
41
1
10
-7.95392293194833
20
-37.5879127414501
30
0
41
1
10
-7.91030798153002
20
-37.5966581461133
30
0
41
1
10
-7.84653768425606
20
-37.6094845934289
30
0
41
1
10
-7.82638053715206
20
-37.6135660976588
30
0
41
1
10
-7.81631631923312
20
-37.6156028036189
30
0
41
1
10
-7.81506199719574
20
-37.6158567492838
30
0
41
1
10
-7.81441441613345
20
-37.6159878508591
30
0
41
1
10
-7.81433786566048
20
-37.6160033471239
30
0
41
1
10
-7.8143467852065
20
-37.6160015404199
30
0
0
SPLINE
5
1A2
100
AcDbEntity
8
SK1
62
256
6
ByLayer
370
18
48
1
60
0
100
AcDbSpline
70
4
71
3
72
54
73
50
40
0
40
0
40
0
40
0
40
0.0312500000000012
40
0.0312500000000012
40
0.0625000000000024
40
0.0625000000000024
40
0.125000000000004
40
0.125000000000004
40
0.250000000000007
40
0.250000000000007
40
0.375000000000011
40
0.375000000000011
40
0.40625000000001
40
0.40625000000001
40
0.43750000000001
40
0.500000000000011
40
0.500000000000011
40
0.625000000000015
40
0.625000000000015
40
0.687500000000016
40
0.687500000000016
40
0.750000000000017
40
0.750000000000017
40
0.781250000000016
40
0.781250000000016
40
0.812500000000016
40
0.812500000000016
40
0.843750000000015
40
0.843750000000015
40
0.875000000000014
40
0.875000000000014
40
0.906250000000014
40
0.906250000000014
40
0.914062500000012
40
0.914062500000012
40
0.921875000000011
40
0.921875000000011
40
0.93750000000001
40
0.93750000000001
40
0.945312500000009
40
0.945312500000009
40
0.953125000000007
40
0.953125000000007
40
0.968750000000005
40
0.976562500000003
40
0.976562500000003
40
0.984375000000002
40
0.984375000000002
40
1
40
1
40
1
40
1
41
1
10
-39.8
20
33.7318671810039
30
0
41
1
10
-39.7999999999999
20
33.7145710701311
30
0
41
1
10
-39.8008000946281
20
33.6971565007765
30
0
41
1
10
-39.8039168623025
20
33.662196221347
30
0
41
1
10
-39.8062335132834
20
33.6446342134734
30
0
41
1
10
-39.8153484367684
20
33.5917053852178
30
0
41
1
10
-39.8243080567448
20
33.5560957915865
30
0
41
1
10
-39.8591124485095
20
33.4483170327042
30
0
41
1
10
-39.8928472522366
20
33.3751982231631
30
0
41
1
10
-39.9786760357966
20
33.2265304775473
30
0
41
1
10
-40.0307804205494
20
33.1509812446763
30
0
41
1
10
-40.1063660693582
20
33.0550850028676
30
0
41
1
10
-40.1219937947638
20
33.035852199307
30
0
41
1
10
-40.1541498540921
20
32.9973928162118
30
0
41
1
10
-40.2037751165397
20
32.9396636457768
30
0
41
1
10
-40.2574425199022
20
32.8818159360059
30
0
41
1
10
-40.3699446706122
20
32.7659816807454
30
0
41
1
10
-40.4517476783099
20
32.688560134193
30
0
41
1
10
-40.5849329745246
20
32.572369990688
30
0
41
1
10
-40.6310900751579
20
32.5336324584858
30
0
41
1
10
-40.7273802545145
20
32.456248481954
30
0
41
1
10
-40.7774939797117
20
32.4175986160054
30
0
41
1
10
-40.8564695396308
20
32.3598547383014
30
0
41
1
10
-40.88345848061
20
32.3406304247495
30
0
41
1
10
-40.9388920650189
20
32.3023874881927
30
0
41
1
10
-40.9672925131056
20
32.2833959934678
30
0
41
1
10
-41.0258361258168
20
32.245788614309
30
0
41
1
10
-41.0559730128129
20
32.2271708721062
30
0
41
1
10
-41.1186305548425
20
32.1905053329399
30
0
41
1
10
-41.1510308179744
20
32.1725200428503
30
0
41
1
10
-41.2188385127876
20
32.1377315395356
30
0
41
1
10
-41.2542332468957
20
32.1209048401273
30
0
41
1
10
-41.3015842990544
20
32.1011135781885
30
0
41
1
10
-41.3112139355684
20
32.097219144498
30
0
41
1
10
-41.3308439340923
20
32.0895800189203
30
0
41
1
10
-41.3408651858732
20
32.0858280947414
30
0
41
1
10
-41.3713588597964
20
32.0749170218882
30
0
41
1
10
-41.3922831904341
20
32.0680860715368
30
0
41
1
10
-41.4248486397641
20
32.0587260689411
30
0
41
1
10
-41.4359013558928
20
32.0557546283677
30
0
41
1
10
-41.4584661089438
20
32.0501584370334
30
0
41
1
10
-41.4700314002366
20
32.0475237786973
30
0
41
1
10
-41.5049753605481
20
32.0403392906634
30
0
41
1
10
-41.5405101097732
20
32.0345573260281
30
0
41
1
10
-41.5770691708597
20
32.031213916461
30
0
41
1
10
-41.6016844245104
20
32.0295626507329
30
0
41
1
10
-41.6141876951168
20
32.0290255903479
30
0
41
1
10
-41.6514384574835
20
32.0283362059759
30
0
41
1
10
-41.6758884507612
20
32.0290885535356
30
0
41
1
10
-41.7000000000014
20
32.0309069691633
30
0
0
SPLINE
5
1A3
100
AcDbEntity
8
SK1
62
256
6
ByLayer
370
18
48
1
60
0
100
AcDbSpline
70
4
71
3
72
20
73
16
40
0
40
0
40
0
40
0
40
0.0624999999999996
40
0.0624999999999996
40
0.124999999999999
40
0.124999999999999
40
0.249999999999998
40
0.249999999999998
40
0.374999999999998
40
0.374999999999998
40
0.499999999999997
40
0.499999999999997
40
0.749999999999998
40
0.749999999999998
40
1
40
1
40
1
40
1
41
1
10
-41.7
20
32.0309069691676
30
0
41
1
10
-41.8292303865967
20
32.0406531099988
30
0
41
1
10
-41.9587402151836
20
32.0495880288662
30
0
41
1
10
-42.2181916807764
20
32.0662053277564
30
0
41
1
10
-42.3481340998353
20
32.0738854313833
30
0
41
1
10
-42.7384836861428
20
32.0954119185672
30
0
41
1
10
-42.9994066846656
20
32.1077633929635
30
0
41
1
10
-43.5222154791105
20
32.1296814395211
30
0
41
1
10
-43.7841056976777
20
32.1392351380778
30
0
41
1
10
-44.3086156108632
20
32.1562368503895
30
0
41
1
10
-44.5712371095368
20
32.1636796127771
30
0
41
1
10
-45.3599684301978
20
32.183511338927
30
0
41
1
10
-45.8869332192805
20
32.1934382596067
30
0
41
1
10
-46.9424227013034
20
32.2088227892335
30
0
41
1
10
-47.4709561074664
20
32.214255034391
30
0
41
1
10
-48.0000748840305
20
32.2180191381098
30
0
0
SPLINE
5
1A4
100
AcDbEntity
8
SK1
62
256
6
ByLayer
370
18
48
1
60
0
100
AcDbSpline
70
4
71
3
72
48
73
44
40
0
40
0
40
0
40
0
40
0.0078124999999993
40
0.0078124999999993
40
0.0156249999999986
40
0.0156249999999986
40
0.0234374999999979
40
0.0234374999999979
40
0.0273437499999983
40
0.0273437499999983
40
0.0312499999999987
40
0.0312499999999987
40
0.0468749999999985
40
0.0468749999999985
40
0.0624999999999983
40
0.0624999999999983
40
0.0781249999999982
40
0.0781249999999982
40
0.093749999999998
40
0.093749999999998
40
0.124999999999999
40
0.124999999999999
40
0.156249999999999
40
0.156249999999999
40
0.1875
40
0.1875
40
0.25
40
0.25
40
0.312500000000001
40
0.312500000000001
40
0.375000000000002
40
0.375000000000002
40
0.437500000000002
40
0.437500000000002
40
0.500000000000003
40
0.500000000000003
40
0.625000000000002
40
0.625000000000002
40
0.750000000000001
40
0.750000000000001
40
0.875000000000001
40
0.875000000000001
40
1
40
1
40
1
40
1
41
1
10
-39.778558650078
20
-31.6931118380393
30
0
41
1
10
-39.7883868929647
20
-31.7025532223723
30
0
41
1
10
-39.7998706288389
20
-31.7112964132592
30
0
41
1
10
-39.8252016759508
20
-31.727785998335
30
0
41
1
10
-39.8390578213016
20
-31.7355286667195
30
0
41
1
10
-39.8685800443004
20
-31.750250722256
30
0
41
1
10
-39.8842499492025
20
-31.7572284952427
30
0
41
1
10
-39.9088364476932
20
-31.7672390262543
30
0
41
1
10
-39.9172164474952
20
-31.7704998116272
30
0
41
1
10
-39.9341558223724
20
-31.7768308195506
30
0
41
1
10
-39.9427338921214
20
-31.7799088406371
30
0
41
1
10
-39.9860999153235
20
-31.7949150039898
30
0
41
1
10
-40.0222836011686
20
-31.8057165804868
30
0
41
1
10
-40.0965785854911
20
-31.8257640107126
30
0
41
1
10
-40.1347044611034
20
-31.8349980967299
30
0
41
1
10
-40.2123544869192
20
-31.8523378844301
30
0
41
1
10
-40.2518838303321
20
-31.8604393937541
30
0
41
1
10
-40.3320141072488
20
-31.8757777665964
30
0
41
1
10
-40.3726666338483
20
-31.8830200024942
30
0
41
1
10
-40.4951266360556
20
-31.9035883692501
30
0
41
1
10
-40.5776697606834
20
-31.915826027001
30
0
41
1
10
-40.7439405062895
20
-31.9383679597266
30
0
41
1
10
-40.8276763429015
20
-31.9486588126606
30
0
41
1
10
-40.9960139224065
20
-31.9678276439839
30
0
41
1
10
-41.0806186654916
20
-31.9767007208723
30
0
41
1
10
-41.33543416251
20
-32.0016868475027
30
0
41
1
10
-41.5066306756243
20
-32.0161921309117
30
0
41
1
10
-41.8507484759028
20
-32.0423921766892
30
0
41
1
10
-42.0236820904267
20
-32.0540667991598
30
0
41
1
10
-42.3708095889411
20
-32.0753644737565
30
0
41
1
10
-42.5450843964524
20
-32.0849837750873
30
0
41
1
10
-42.8940811800661
20
-32.1026167213463
30
0
41
1
10
-43.0688393204492
20
-32.1106302325481
30
0
41
1
10
-43.4187678624608
20
-32.1253844913356
30
0
41
1
10
-43.5939388196759
20
-32.1321235129213
30
0
41
1
10
-44.1199599676554
20
-32.1507735448825
30
0
41
1
10
-44.4713128141199
20
-32.1611349844006
30
0
41
1
10
-45.1749837599867
20
-32.178891275667
30
0
41
1
10
-45.5273054366393
20
-32.1862750140274
30
0
41
1
10
-46.2326933029751
20
-32.1987617510054
30
0
41
1
10
-46.5857610311104
20
-32.2038599700751
30
0
41
1
10
-47.2924944621188
20
-32.2122309846564
30
0
41
1
10
-47.6461609228116
20
-32.2155014257993
30
0
41
1
10
-48.0000748840304
20
-32.2180191381099
30
0
0
SPLINE
5
1A5
100
AcDbEntity
8
SK1
62
256
6
ByLayer
370
18
48
1
60
0
100
AcDbSpline
70
4
71
3
72
30
73
26
40
0
40
0
40
0
40
0
40
0.125000000000001
40
0.125000000000001
40
0.250000000000002
40
0.250000000000002
40
0.375000000000003
40
0.375000000000003
40
0.500000000000003
40
0.500000000000003
40
0.625000000000004
40
0.625000000000004
40
0.750000000000005
40
0.750000000000005
40
0.812500000000004
40
0.812500000000004
40
0.875000000000002
40
0.875000000000002
40
0.937500000000001
40
0.937500000000001
40
0.968749999999999
40
0.968749999999999
40
0.984375
40
0.984375
40
1
40
1
40
1
40
1
41
1
10
-36.7000000000011
20
-30.5167400608155
30
0
41
1
10
-36.8506709106858
20
-30.5527315407427
30
0
41
1
10
-37.0000536735529
20
-30.5896420168468
30
0
41
1
10
-37.2957818766288
20
-30.6656298693689
30
0
41
1
10
-37.44212940243
20
-30.7047057578746
30
0
41
1
10
-37.7311755276813
20
-30.7854607682416
30
0
41
1
10
-37.8738777626771
20
-30.8271372964159
30
0
41
1
10
-38.1547862550161
20
-30.9136978932481
30
0
41
1
10
-38.2929993722038
20
-30.958577067925
30
0
41
1
10
-38.563697833774
20
-31.052421750569
30
0
41
1
10
-38.6962321779394
20
-31.1013909032134
30
0
41
1
10
-38.9535199055933
20
-31.2047247335559
30
0
41
1
10
-39.0766267398936
20
-31.258428756578
30
0
41
1
10
-39.2504780956698
20
-31.3429614515447
30
0
41
1
10
-39.3066168755561
20
-31.3718055420265
30
0
41
1
10
-39.4146820998372
20
-31.4310434676065
30
0
41
1
10
-39.4666107278892
20
-31.4614364993235
30
0
41
1
10
-39.5654932840106
20
-31.5240527860465
30
0
41
1
10
-39.6124508238217
20
-31.5562747122699
30
0
41
1
10
-39.6783892375735
20
-31.6062624057088
30
0
41
1
10
-39.6996167056853
20
-31.6232016368542
30
0
41
1
10
-39.7302067583249
20
-31.649070789322
30
0
41
1
10
-39.7401947032164
20
-31.6577706366487
30
0
41
1
10
-39.7597296975045
20
-31.6753325395168
30
0
41
1
10
-39.7692891468385
20
-31.6842072002859
30
0
41
1
10
-39.7785586500778
20
-31.6931118380393
30
0
0
SPLINE
5
1A6
100
AcDbEntity
8
SK1
62
256
6
ByLayer
370
18
48
1
60
0
100
AcDbSpline
70
4
71
3
72
50
73
46
40
0
40
0
40
0
40
0
40
0.0156249999999889
40
0.0156249999999889
40
0.0234374999999828
40
0.0234374999999828
40
0.0312499999999768
40
0.0312499999999768
40
0.0468749999999647
40
0.0468749999999647
40
0.054687499999962
40
0.054687499999962
40
0.0624999999999593
40
0.0624999999999593
40
0.0781249999999593
40
0.0781249999999593
40
0.0937499999999594
40
0.0937499999999594
40
0.109374999999959
40
0.109374999999959
40
0.124999999999959
40
0.124999999999959
40
0.156249999999959
40
0.156249999999959
40
0.18749999999996
40
0.18749999999996
40
0.21874999999996
40
0.21874999999996
40
0.24999999999996
40
0.24999999999996
40
0.312499999999964
40
0.312499999999964
40
0.374999999999969
40
0.374999999999969
40
0.499999999999983
40
0.499999999999983
40
0.562499999999987
40
0.562499999999987
40
0.624999999999992
40
0.624999999999992
40
0.749999999999995
40
0.749999999999995
40
0.874999999999997
40
0.874999999999997
40
1
40
1
40
1
40
1
41
1
10
-36.7
20
-30.5167400608164
30
0
41
1
10
-36.6861760057711
20
-30.5134378573018
30
0
41
1
10
-36.6719236192518
20
-30.5108892459393
30
0
41
1
10
-36.6497726064996
20
-30.5084288522914
30
0
41
1
10
-36.6422597446632
20
-30.5078365983351
30
0
41
1
10
-36.6269468849827
20
-30.5071589463332
30
0
41
1
10
-36.6191045834997
20
-30.5070782908792
30
0
41
1
10
-36.5958394754029
20
-30.5076493122667
30
0
41
1
10
-36.5804742375449
20
-30.5090929182694
30
0
41
1
10
-36.5576335628327
20
-30.5127783281781
30
0
41
1
10
-36.5501004416419
20
-30.5142557100426
30
0
41
1
10
-36.5354423486814
20
-30.5176064302121
30
0
41
1
10
-36.5282751131219
20
-30.519486290667
30
0
41
1
10
-36.5072050500108
20
-30.5256707052649
30
0
41
1
10
-36.49368013741
20
-30.5305497512156
30
0
41
1
10
-36.4683289496342
20
-30.5411194270436
30
0
41
1
10
-36.4563799297747
20
-30.5468414483073
30
0
41
1
10
-36.4335727273276
20
-30.5589376700893
30
0
41
1
10
-36.4226910078859
20
-30.5653305504942
30
0
41
1
10
-36.4019102061098
20
-30.5785563181124
30
0
41
1
10
-36.3920943798003
20
-30.58533272851
30
0
41
1
10
-36.3639622379691
20
-30.6060308129229
30
0
41
1
10
-36.3469408538926
20
-30.6203152750523
30
0
41
1
10
-36.3151727496401
20
-30.6494987224847
30
0
41
1
10
-36.3004429011484
20
-30.664402704273
30
0
41
1
10
-36.272663942593
20
-30.6946459721731
30
0
41
1
10
-36.25959332707
20
-30.710023998788
30
0
41
1
10
-36.2349763421032
20
-30.7408303858341
30
0
41
1
10
-36.2234077468714
20
-30.7562814464429
30
0
41
1
10
-36.1904370426651
20
-30.802725501164
30
0
41
1
10
-36.1707455744194
20
-30.8338067335522
30
0
41
1
10
-36.1344790632362
20
-30.896045397797
30
0
41
1
10
-36.1179231578378
20
-30.9272048762935
30
0
41
1
10
-36.0717993238637
20
-31.0206707065773
30
0
41
1
10
-36.0457186531499
20
-31.0829582265782
30
0
41
1
10
-36.0112013735234
20
-31.176078536837
30
0
41
1
10
-36.0004790582839
20
-31.2070846709192
30
0
41
1
10
-35.9804074810478
20
-31.2688986166914
30
0
41
1
10
-35.9710667512765
20
-31.299679825393
30
0
41
1
10
-35.9448540024585
20
-31.3916417224263
30
0
41
1
10
-35.9297771234306
20
-31.4524405088437
30
0
41
1
10
-35.9034606976511
20
-31.573002406175
30
0
41
1
10
-35.8922289556274
20
-31.6327656209781
30
0
41
1
10
-35.8730490415186
20
-31.751243792232
30
0
41
1
10
-35.8651043543943
20
-31.8099588001334
30
0
41
1
10
-35.8586343515166
20
-31.8681445143571
30
0
0
SPLINE
5
1A7
100
AcDbEntity
8
SK1
62
256
6
ByLayer
370
18
48
1
60
0
100
AcDbSpline
70
4
71
3
72
34
73
30
40
0
40
0
40
0
40
0
40
0.0312499999999984
40
0.0312499999999984
40
0.0624999999999967
40
0.0624999999999967
40
0.124999999999998
40
0.124999999999998
40
0.187499999999999
40
0.187499999999999
40
0.250000000000001
40
0.250000000000001
40
0.312500000000002
40
0.312500000000002
40
0.375000000000003
40
0.375000000000003
40
0.500000000000002
40
0.500000000000002
40
0.625000000000002
40
0.625000000000002
40
0.750000000000001
40
0.750000000000001
40
0.875
40
0.875
40
0.906250000000001
40
0.906250000000001
40
0.937500000000001
40
0.937500000000001
40
1
40
1
40
1
40
1
41
1
10
-35.8586343515165
20
-31.8681445143572
30
0
41
1
10
-35.8559584193055
20
-31.8922095773651
30
0
41
1
10
-35.8518135153311
20
-31.9163638905433
30
0
41
1
10
-35.8409285844262
20
-31.964131951572
30
0
41
1
10
-35.8341896585341
20
-31.9878129216072
30
0
41
1
10
-35.8106132186994
20
-32.0583025828621
30
0
41
1
10
-35.7904281681568
20
-32.1045597838675
30
0
41
1
10
-35.7439822297338
20
-32.1958854178849
30
0
41
1
10
-35.7177324522673
20
-32.2409545810473
30
0
41
1
10
-35.6615604551228
20
-32.3301279018396
30
0
41
1
10
-35.6316363321779
20
-32.3742317028649
30
0
41
1
10
-35.5699034913987
20
-32.4616320223601
30
0
41
1
10
-35.5380898463449
20
-32.5049279973811
30
0
41
1
10
-35.4738846774947
20
-32.5908206651138
30
0
41
1
10
-35.4414888109944
20
-32.6334169185666
30
0
41
1
10
-35.3448966005915
20
-32.7602674648848
30
0
41
1
10
-35.2813492424227
20
-32.8436033441989
30
0
41
1
10
-35.1616455253844
20
-33.0078777750666
30
0
41
1
10
-35.105424529817
20
-33.0888330619472
30
0
41
1
10
-35.0042274646478
20
-33.2484814297211
30
0
41
1
10
-34.9592222794925
20
-33.3271729985641
30
0
41
1
10
-34.8839372794758
20
-33.4823184480597
30
0
41
1
10
-34.8536295063491
20
-33.5587714504724
30
0
41
1
10
-34.8273626619223
20
-33.6529305027061
30
0
41
1
10
-34.8226923405656
20
-33.6716918907441
30
0
41
1
10
-34.8145899823543
20
-33.7090734310725
30
0
41
1
10
-34.8111615157959
20
-33.7276856282373
30
0
41
1
10
-34.8028771809869
20
-33.7830433478833
30
0
41
1
10
-34.7999999999999
20
-33.8193960990672
30
0
41
1
10
-34.7999999999999
20
-33.8551849401856
30
0
0
LINE
5
8A
100
AcDbEntity
8
80
62
256
6
ByLayer
370
18
48
1
60
0
100
AcDbLine
10
0
20
0
30
0
11
-5
21
0
31
0
39
0
210
0
220
0
230
1
0
LINE
5
8B
100
AcDbEntity
8
4
62
256
6
ByLayer
370
18
48
0.05
60
0
100
AcDbLine
10
0
20
0
30
0
11
100
21
0
31
0
39
0
210
0
220
0
230
1
0
LINE
5
8D
100
AcDbEntity
8
81
62
256
6
ByLayer
370
18
48
1
60
0
100
AcDbLine
10
100
20
0
30
0
11
105
21
0
31
0
39
0
210
0
220
0
230
1
0
LINE
5
8E
100
AcDbEntity
8
1
62
256
6
ByLayer
370
18
48
1
60
0
100
AcDbLine
10
21.525
20
44.869591
30
0
11
18.475
21
44.869591
31
0
39
0
210
0
220
0
230
1
0
LINE
5
90
100
AcDbEntity
8
1
62
256
6
ByLayer
370
13
48
1
60
0
100
AcDbLine
10
18.475
20
44.869591
30
0
11
18.475
21
33.628531
31
0
39
0
210
0
220
0
230
1
0
LINE
5
91
100
AcDbEntity
8
1
62
256
6
ByLayer
370
18
48
1
60
0
100
AcDbLine
10
28.95
20
48.235047
30
0
11
28.95
21
38.002865
31
0
39
0
210
0
220
0
230
1
0
LINE
5
92
100
AcDbEntity
8
1
62
256
6
ByLayer
370
13
48
1
60
0
100
AcDbLine
10
21.525
20
44.869591
30
0
11
21.525
21
33.628531
31
0
39
0
210
0
220
0
230
1
0
LINE
5
93
100
AcDbEntity
8
1
62
256
6
ByLayer
370
18
48
1
60
0
100
AcDbLine
10
28.95
20
31.35
30
0
11
28.95
21
38.002865
31
0
39
0
210
0
220
0
230
1
0
LINE
5
94
100
AcDbEntity
8
1
62
256
6
ByLayer
370
18
48
1
60
0
100
AcDbLine
10
18.075
20
34.173354
30
0
11
18.075
21
35.929935
31
0
39
0
210
0
220
0
230
1
0
LINE
5
95
100
AcDbEntity
8
1
62
256
6
ByLayer
370
18
48
1
60
0
100
AcDbLine
10
21.925
20
35.929935
30
0
11
21.925
21
34.173354
31
0
39
0
210
0
220
0
230
1
0
LINE
5
96
100
AcDbEntity
8
1
62
256
6
ByLayer
370
18
48
1
60
0
100
AcDbLine
10
21.525
20
33.628531
30
0
11
18.475
21
33.628531
31
0
39
0
210
0
220
0
230
1
0
LINE
5
97
100
AcDbEntity
8
1
62
256
6
ByLayer
370
18
48
1
60
0
100
AcDbLine
10
21.925
20
46.619334
30
0
11
21.925
21
35.929935
31
0
39
0
210
0
220
0
230
1
0
LINE
5
98
100
AcDbEntity
8
1
62
256
6
ByLayer
370
18
48
1
60
0
100
AcDbLine
10
28.25
20
38.906024
30
0
11
28.25
21
48.949778
31
0
39
0
210
0
220
0
230
1
0
LINE
5
99
100
AcDbEntity
8
1
62
256
6
ByLayer
370
18
48
1
60
0
100
AcDbLine
10
28.25
20
48.949778
30
0
11
23.241822
21
48.949778
31
0
39
0
210
0
220
0
230
1
0
LINE
5
9A
100
AcDbEntity
8
1
62
256
6
ByLayer
370
18
48
1
60
0
100
AcDbLine
10
23.241822
20
48.949778
30
0
11
23.241822
21
38.906024
31
0
39
0
210
0
220
0
230
1
0
LINE
5
9B
100
AcDbEntity
8
1
62
256
6
ByLayer
370
18
48
1
60
0
100
AcDbLine
10
28.25
20
38.906024
30
0
11
23.241822
21
38.906024
31
0
39
0
210
0
220
0
230
1
0
LINE
5
9C
100
AcDbEntity
8
1
62
256
6
ByLayer
370
18
48
1
60
0
100
AcDbLine
10
18.075
20
46.619334
30
0
11
18.075
21
35.929935
31
0
39
0
210
0
220
0
230
1
0
LINE
5
9D
100
AcDbEntity
8
1
62
256
6
ByLayer
370
13
48
1
60
0
100
AcDbLine
10
30.624598
20
-35.8
30
0
11
30.624598
21
35.8
31
0
39
0
210
0
220
0
230
1
0
LINE
5
9E
100
AcDbEntity
8
1
62
256
6
ByLayer
370
18
48
1
60
0
100
AcDbLine
10
100
20
28
30
0
11
100
21
-28
31
0
39
0
210
0
220
0
230
1
0
LINE
5
9F
100
AcDbEntity
8
1
62
256
6
ByLayer
370
18
48
1
60
0
100
AcDbLine
10
92
20
-36
30
0
11
92
21
36
31
0
39
0
210
0
220
0
230
1
0
LINE
5
A0
100
AcDbEntity
8
1
62
256
6
ByLayer
370
18
48
1
60
0
100
AcDbLine
10
31.45
20
36
30
0
11
31.45
21
-36
31
0
39
0
210
0
220
0
230
1
0
LINE
5
A1
100
AcDbEntity
8
1
62
256
6
ByLayer
370
13
48
1
60
0
100
AcDbLine
10
30.77989
20
-35.820445
30
0
11
30.77989
21
35.820445
31
0
39
0
210
0
220
0
230
1
0
LINE
5
A2
100
AcDbEntity
8
1
62
256
6
ByLayer
370
13
48
1
60
0
100
AcDbLine
10
29.95
20
-35.8
30
0
11
29.95
21
35.8
31
0
39
0
210
0
220
0
230
1
0
LINE
5
A3
100
AcDbEntity
8
1
62
256
6
ByLayer
370
13
48
1
60
0
100
AcDbLine
10
14.657967
20
38.906024
30
0
11
14.657967
21
31.35
31
0
39
0
210
0
220
0
230
1
0
LINE
5
A4
100
AcDbEntity
8
1
62
256
6
ByLayer
370
18
48
1
60
0
100
AcDbLine
10
21.525
20
-44.634495
30
0
11
18.475
21
-44.634495
31
0
39
0
210
0
220
0
230
1
0
LINE
5
A5
100
AcDbEntity
8
1
62
256
6
ByLayer
370
18
48
1
60
0
100
AcDbLine
10
21.525
20
31.35
30
0
11
18.475
21
31.35
31
0
39
0
210
0
220
0
230
1
0
LINE
5
A6
100
AcDbEntity
8
1
62
256
6
ByLayer
370
13
48
1
60
0
100
AcDbLine
10
18.475
20
-8.827456
30
0
11
18.475
21
-44.634495
31
0
39
0
210
0
220
0
230
1
0
LINE
5
A7
100
AcDbEntity
8
1
62
256
6
ByLayer
370
13
48
1
60
0
100
AcDbLine
10
18.475
20
7.13671
30
0
11
18.475
21
-7.13671
31
0
39
0
210
0
220
0
230
1
0
LINE
5
A8
100
AcDbEntity
8
1
62
256
6
ByLayer
370
13
48
1
60
0
100
AcDbLine
10
18.475
20
31.35
30
0
11
18.475
21
8.827456
31
0
39
0
210
0
220
0
230
1
0
LINE
5
A9
100
AcDbEntity
8
1
62
256
6
ByLayer
370
13
48
1
60
0
100
AcDbLine
10
21.525
20
31.35
30
0
11
21.525
21
8.827456
31
0
39
0
210
0
220
0
230
1
0
LINE
5
AA
100
AcDbEntity
8
1
62
256
6
ByLayer
370
13
48
1
60
0
100
AcDbLine
10
21.525
20
7.13671
30
0
11
21.525
21
-7.13671
31
0
39
0
210
0
220
0
230
1
0
LINE
5
AB
100
AcDbEntity
8
1
62
256
6
ByLayer
370
13
48
1
60
0
100
AcDbLine
10
21.525
20
-8.827456
30
0
11
21.525
21
-44.634495
31
0
39
0
210
0
220
0
230
1
0
LINE
5
AC
100
AcDbEntity
8
1
62
256
6
ByLayer
370
18
48
1
60
0
100
AcDbLine
10
0
20
-49.265
30
0
11
0
21
49.265
31
0
39
0
210
0
220
0
230
1
0
LINE
5
AD
100
AcDbEntity
8
1
62
256
6
ByLayer
370
18
48
1
60
0
100
AcDbLine
10
0.7
20
-49.965
30
0
11
0.7
21
49.965
31
0
39
0
210
0
220
0
230
1
0
LINE
5
AE
100
AcDbEntity
8
1
62
256
6
ByLayer
370
18
48
1
60
0
100
AcDbLine
10
4.95
20
-49.954567
30
0
11
4.95
21
-49.965
31
0
39
0
210
0
220
0
230
1
0
LINE
5
AF
100
AcDbEntity
8
1
62
256
6
ByLayer
370
18
48
1
60
0
100
AcDbLine
10
16.758178
20
-48.73437
30
0
11
14.95
21
-48.73437
31
0
39
0
210
0
220
0
230
1
0
LINE
5
B0
100
AcDbEntity
8
1
62
256
6
ByLayer
370
18
48
1
60
0
100
AcDbLine
10
16.758178
20
31.35
30
0
11
4.961216
21
31.35
31
0
39
0
210
0
220
0
230
1
0
LINE
5
B1
100
AcDbEntity
8
1
62
256
6
ByLayer
370
18
48
1
60
0
100
AcDbLine
10
16.758178
20
38.906024
30
0
11
14.657967
21
38.906024
31
0
39
0
210
0
220
0
230
1
0
LINE
5
B2
100
AcDbEntity
8
1
62
256
6
ByLayer
370
18
48
1
60
0
100
AcDbLine
10
16.758178
20
38.906024
30
0
11
16.758178
21
48.949778
31
0
39
0
210
0
220
0
230
1
0
LINE
5
B3
100
AcDbEntity
8
1
62
256
6
ByLayer
370
18
48
1
60
0
100
AcDbLine
10
16.758178
20
48.949778
30
0
11
14.95
21
48.949778
31
0
39
0
210
0
220
0
230
1
0
LINE
5
B4
100
AcDbEntity
8
1
62
256
6
ByLayer
370
18
48
1
60
0
100
AcDbLine
10
18.075
20
31.35
30
0
11
18.075
21
-46.393106
31
0
39
0
210
0
220
0
230
1
0
LINE
5
B5
100
AcDbEntity
8
1
62
256
6
ByLayer
370
18
48
1
60
0
100
AcDbLine
10
16.758178
20
-48.73437
30
0
11
16.758178
21
31.35
31
0
39
0
210
0
220
0
230
1
0
LINE
5
B6
100
AcDbEntity
8
1
62
256
6
ByLayer
370
18
48
1
60
0
100
AcDbLine
10
21.925
20
31.35
30
0
11
21.925
21
-46.393106
31
0
39
0
210
0
220
0
230
1
0
LINE
5
B7
100
AcDbEntity
8
1
62
256
6
ByLayer
370
18
48
1
60
0
100
AcDbLine
10
28.25
20
-48.73437
30
0
11
23.241822
21
-48.73437
31
0
39
0
210
0
220
0
230
1
0
LINE
5
B8
100
AcDbEntity
8
1
62
256
6
ByLayer
370
18
48
1
60
0
100
AcDbLine
10
28.25
20
31.35
30
0
11
23.241822
21
31.35
31
0
39
0
210
0
220
0
230
1
0
LINE
5
B9
100
AcDbEntity
8
1
62
256
6
ByLayer
370
18
48
1
60
0
100
AcDbLine
10
23.241822
20
31.35
30
0
11
23.241822
21
-48.73437
31
0
39
0
210
0
220
0
230
1
0
LINE
5
BA
100
AcDbEntity
8
1
62
256
6
ByLayer
370
18
48
1
60
0
100
AcDbLine
10
28.95
20
31.35
30
0
11
28.95
21
-48.016432
31
0
39
0
210
0
220
0
230
1
0
LINE
5
BB
100
AcDbEntity
8
1
62
256
6
ByLayer
370
18
48
1
60
0
100
AcDbLine
10
28.25
20
-48.73437
30
0
11
28.25
21
31.35
31
0
39
0
210
0
220
0
230
1
0
LINE
5
BC
100
AcDbEntity
8
SK1
62
256
6
ByLayer
370
13
48
1
60
0
100
AcDbLine
10
-41.7
20
32.225
30
0
11
-41.7
21
32.030907
31
0
39
0
210
0
220
0
230
1
0
LINE
5
BE
100
AcDbEntity
8
SK1
62
256
6
ByLayer
370
18
48
1
60
0
100
AcDbLine
10
-48.25
20
32.225
30
0
11
-48.25
21
32.221419
31
0
39
0
210
0
220
0
230
1
0
LINE
5
BF
100
AcDbEntity
8
SK1
62
256
6
ByLayer
370
18
48
1
60
0
100
AcDbLine
10
-48.25
20
-32.225
30
0
11
-48.25
21
-32.221419
31
0
39
0
210
0
220
0
230
1
0
LINE
5
C0
100
AcDbEntity
8
SK1
62
256
6
ByLayer
370
13
48
1
60
0
100
AcDbLine
10
-36.7
20
-31.693112
30
0
11
-36.7
21
-32.225
31
0
39
0
210
0
220
0
230
1
0
LINE
5
C1
100
AcDbEntity
8
SK1
62
256
6
ByLayer
370
13
48
1
60
0
100
AcDbLine
10
-49.589566
20
30.49955
30
0
11
-48.969717
21
31.05184
31
0
39
0
210
0
220
0
230
1
0
LINE
5
C2
100
AcDbEntity
8
SK1
62
256
6
ByLayer
370
13
48
1
60
0
100
AcDbLine
10
-49.589566
20
-30.49955
30
0
11
-48.969717
21
-31.05184
31
0
39
0
210
0
220
0
230
1
0
LINE
5
C3
100
AcDbEntity
8
SK1
62
256
6
ByLayer
370
13
48
1
60
0
100
AcDbLine
10
-36.7
20
-31.693112
30
0
11
-39.778559
21
-31.693112
31
0
39
0
210
0
220
0
230
1
0
LINE
5
C4
100
AcDbEntity
8
SK1
62
256
6
ByLayer
370
13
48
1
60
0
100
AcDbLine
10
-36.7
20
-31.693112
30
0
11
-36.7
21
-30.51674
31
0
39
0
210
0
220
0
230
1
0
LINE
5
C5
100
AcDbEntity
8
SK1
62
256
6
ByLayer
370
18
48
1
60
0
100
AcDbLine
10
-49.9
20
-30.486326
30
0
11
-49.9
21
30.486326
31
0
39
0
210
0
220
0
230
1
0
LINE
5
C6
100
AcDbEntity
8
SK1
62
256
6
ByLayer
370
18
48
1
60
0
100
AcDbLine
10
-2.066987
20
-37.632252
30
0
11
-2.066987
21
37.632252
31
0
39
0
210
0
220
0
230
1
0
LINE
5
C7
100
AcDbEntity
8
SK1
62
256
6
ByLayer
370
18
48
1
60
0
100
AcDbLine
10
-39.8
20
36.013514
30
0
11
-39.8
21
33.731867
31
0
39
0
210
0
220
0
230
1
0
LINE
5
C8
100
AcDbEntity
8
SK1
62
256
6
ByLayer
370
13
48
1
60
0
100
AcDbLine
10
-48.000075
20
32.218019
30
0
11
-48.000075
21
-32.218019
31
0
39
0
210
0
220
0
230
1
0
LINE
5
C9
100
AcDbEntity
8
SK1
62
256
6
ByLayer
370
18
48
1
60
0
100
AcDbLine
10
-34.8
20
-33.855185
30
0
11
-34.8
21
-36.264015
31
0
39
0
210
0
220
0
230
1
0
LINE
5
CA
100
AcDbEntity
8
SK1
62
256
6
ByLayer
370
18
48
1
60
0
100
AcDbLine
10
-2.5
20
-37.882252
30
0
11
-2.5
21
37.882252
31
0
39
0
210
0
220
0
230
1
0
LINE
5
CB
100
AcDbEntity
8
SK1
62
256
6
ByLayer
370
13
48
1
60
0
100
AcDbLine
10
-0.8
20
-37.632252
30
0
11
-0.8
21
37.632252
31
0
39
0
210
0
220
0
230
1
0
LINE
5
CC
100
AcDbEntity
8
1
62
256
6
ByLayer
370
18
48
1
60
0
100
AcDbLine
10
4.95
20
49.965
30
0
11
4.949139
21
49.965
31
0
39
0
210
0
220
0
230
1
0
LINE
5
CD
100
AcDbEntity
8
1
62
256
6
ByLayer
370
18
48
1
60
0
100
AcDbLine
10
4.949139
20
49.965
30
0
11
4.948785
21
49.965
31
0
39
0
210
0
220
0
230
1
0
LINE
5
CE
100
AcDbEntity
8
1
62
256
6
ByLayer
370
18
48
1
60
0
100
AcDbLine
10
30.624598
20
35.8
30
0
11
29.95
21
35.8
31
0
39
0
210
0
220
0
230
1
0
LINE
5
CF
100
AcDbEntity
8
1
62
256
6
ByLayer
370
18
48
1
60
0
100
AcDbLine
10
29.95
20
-35.8
30
0
11
30.624598
21
-35.8
31
0
39
0
210
0
220
0
230
1
0
LINE
5
D0
100
AcDbEntity
8
1
62
256
6
ByLayer
370
18
48
1
60
0
100
AcDbLine
10
100
20
28
30
0
11
92
21
36
31
0
39
0
210
0
220
0
230
1
0
LINE
5
D1
100
AcDbEntity
8
1
62
256
6
ByLayer
370
18
48
1
60
0
100
AcDbLine
10
92
20
-36
30
0
11
100
21
-28
31
0
39
0
210
0
220
0
230
1
0
LINE
5
D2
100
AcDbEntity
8
1
62
256
6
ByLayer
370
18
48
1
60
0
100
AcDbLine
10
31.45
20
-36
30
0
11
92
21
-36
31
0
39
0
210
0
220
0
230
1
0
LINE
5
D3
100
AcDbEntity
8
1
62
256
6
ByLayer
370
18
48
1
60
0
100
AcDbLine
10
92
20
36
30
0
11
31.45
21
36
31
0
39
0
210
0
220
0
230
1
0
LINE
5
D4
100
AcDbEntity
8
1
62
256
6
ByLayer
370
18
48
1
60
0
100
AcDbLine
10
30.77989
20
-35.820445
30
0
11
31.45
21
-36
31
0
39
0
210
0
220
0
230
1
0
LINE
5
D5
100
AcDbEntity
8
1
62
256
6
ByLayer
370
18
48
1
60
0
100
AcDbLine
10
31.45
20
36
30
0
11
30.77989
21
35.820445
31
0
39
0
210
0
220
0
230
1
0
LINE
5
D6
100
AcDbEntity
8
1
62
256
6
ByLayer
370
18
48
1
60
0
100
AcDbLine
10
0
20
-49.265
30
0
11
0.7
21
-49.965
31
0
39
0
210
0
220
0
230
1
0
LINE
5
D7
100
AcDbEntity
8
1
62
256
6
ByLayer
370
18
48
1
60
0
100
AcDbLine
10
0.7
20
49.965
30
0
11
0
21
49.265
31
0
39
0
210
0
220
0
230
1
0
LINE
5
D8
100
AcDbEntity
8
1
62
256
6
ByLayer
370
18
48
1
60
0
100
AcDbLine
10
4.948785
20
49.965
30
0
11
0.7
21
49.965
31
0
39
0
210
0
220
0
230
1
0
LINE
5
D9
100
AcDbEntity
8
1
62
256
6
ByLayer
370
18
48
1
60
0
100
AcDbLine
10
0.7
20
-49.965
30
0
11
4.95
21
-49.965
31
0
39
0
210
0
220
0
230
1
0
LINE
5
DA
100
AcDbEntity
8
1
62
256
6
ByLayer
370
18
48
1
60
0
100
AcDbLine
10
41.928687
20
-25.043129
30
0
11
41.948227
21
-24.885803
31
0
39
0
210
0
220
0
230
1
0
LINE
5
DB
100
AcDbEntity
8
1
62
256
6
ByLayer
370
18
48
1
60
0
100
AcDbLine
10
37.051773
20
-24.885803
30
0
11
37.071313
21
-25.043129
31
0
39
0
210
0
220
0
230
1
0
LINE
5
DC
100
AcDbEntity
8
1
62
256
6
ByLayer
370
18
48
1
60
0
100
AcDbLine
10
37.071313
20
25.043129
30
0
11
37.051773
21
24.885803
31
0
39
0
210
0
220
0
230
1
0
LINE
5
DD
100
AcDbEntity
8
1
62
256
6
ByLayer
370
18
48
1
60
0
100
AcDbLine
10
41.948227
20
24.885803
30
0
11
41.928687
21
25.043129
31
0
39
0
210
0
220
0
230
1
0
LINE
5
DE
100
AcDbEntity
8
1
62
256
6
ByLayer
370
18
48
1
60
0
100
AcDbLine
10
41.928687
20
-25.043129
30
0
11
41.948227
21
-24.885803
31
0
39
0
210
0
220
0
230
1
0
LINE
5
DF
100
AcDbEntity
8
1
62
256
6
ByLayer
370
18
48
1
60
0
100
AcDbLine
10
37.051773
20
-24.885803
30
0
11
37.071313
21
-25.043129
31
0
39
0
210
0
220
0
230
1
0
LINE
5
E0
100
AcDbEntity
8
1
62
256
6
ByLayer
370
18
48
1
60
0
100
AcDbLine
10
37.071313
20
25.043129
30
0
11
37.051773
21
24.885803
31
0
39
0
210
0
220
0
230
1
0
LINE
5
E1
100
AcDbEntity
8
1
62
256
6
ByLayer
370
18
48
1
60
0
100
AcDbLine
10
41.948227
20
24.885803
30
0
11
41.928687
21
25.043129
31
0
39
0
210
0
220
0
230
1
0
LINE
5
E2
100
AcDbEntity
8
SK1
62
256
6
ByLayer
370
18
48
1
60
0
100
AcDbLine
10
-41.7
20
32.225
30
0
11
-48.25
21
32.225
31
0
39
0
210
0
220
0
230
1
0
LINE
5
E3
100
AcDbEntity
8
SK1
62
256
6
ByLayer
370
18
48
1
60
0
100
AcDbLine
10
-49.849203
20
-30.625797
30
0
11
-48.25
21
-32.225
31
0
39
0
210
0
220
0
230
1
0
LINE
5
E4
100
AcDbEntity
8
SK1
62
256
6
ByLayer
370
18
48
1
60
0
100
AcDbLine
10
-48.25
20
32.225
30
0
11
-49.849203
21
30.625797
31
0
39
0
210
0
220
0
230
1
0
LINE
5
E5
100
AcDbEntity
8
SK1
62
256
6
ByLayer
370
18
48
1
60
0
100
AcDbLine
10
-48.25
20
-32.225
30
0
11
-36.7
21
-32.225
31
0
39
0
210
0
220
0
230
1
0
LINE
5
E6
100
AcDbEntity
8
SK1
62
256
6
ByLayer
370
18
48
1
60
0
100
AcDbLine
10
-0.8
20
37.632252
30
0
11
-2.066987
21
37.632252
31
0
39
0
210
0
220
0
230
1
0
LINE
5
E7
100
AcDbEntity
8
SK1
62
256
6
ByLayer
370
18
48
1
60
0
100
AcDbLine
10
-2.066987
20
-37.632252
30
0
11
-0.8
21
-37.632252
31
0
39
0
210
0
220
0
230
1
0
LINE
5
E8
100
AcDbEntity
8
SK1
62
256
6
ByLayer
370
18
48
1
60
0
100
AcDbLine
10
-2.066987
20
37.632252
30
0
11
-2.5
21
37.882252
31
0
39
0
210
0
220
0
230
1
0
LINE
5
E9
100
AcDbEntity
8
SK1
62
256
6
ByLayer
370
18
48
1
60
0
100
AcDbLine
10
-2.5
20
-37.882252
30
0
11
-2.066987
21
-37.632252
31
0
39
0
210
0
220
0
230
1
0
LINE
5
EA
100
AcDbEntity
8
SK1
62
256
6
ByLayer
370
18
48
1
60
0
100
AcDbLine
10
-34.8
20
-36.264015
30
0
11
-21.480951
21
-36.931302
31
0
39
0
210
0
220
0
230
1
0
LINE
5
EB
100
AcDbEntity
8
SK1
62
256
6
ByLayer
370
18
48
1
60
0
100
AcDbLine
10
-7.82303
20
-37.615567
30
0
11
-2.5
21
-37.882252
31
0
39
0
210
0
220
0
230
1
0
LINE
5
EC
100
AcDbEntity
8
SK1
62
256
6
ByLayer
370
18
48
1
60
0
100
AcDbLine
10
-2.5
20
37.882252
30
0
11
-7.833372
21
37.615048
31
0
39
0
210
0
220
0
230
1
0
LINE
5
ED
100
AcDbEntity
8
SK1
62
256
6
ByLayer
370
18
48
1
60
0
100
AcDbLine
10
-21.490774
20
36.93081
30
0
11
-39.8
21
36.013514
31
0
39
0
210
0
220
0
230
1
0
LINE
5
EE
100
AcDbEntity
8
1
62
256
6
ByLayer
370
18
48
1
60
0
100
AcDbLine
10
37.071313
20
25.043129
30
0
11
37.051773
21
24.885803
31
0
39
0
210
0
220
0
230
1
0
LINE
5
EF
100
AcDbEntity
8
1
62
256
6
ByLayer
370
18
48
1
60
0
100
AcDbLine
10
41.948227
20
24.885803
30
0
11
41.928687
21
25.043129
31
0
39
0
210
0
220
0
230
1
0
LINE
5
F0
100
AcDbEntity
8
1
62
256
6
ByLayer
370
18
48
1
60
0
100
AcDbLine
10
100.048693
20
15.073517
30
0
11
99.999996
21
15.164396
31
0
39
0
210
0
220
0
230
1
0
LINE
5
F1
100
AcDbEntity
8
1
62
256
6
ByLayer
370
18
48
1
60
0
100
AcDbLine
10
99.999996
20
-15.164396
30
0
11
100.048693
21
-15.073517
31
0
39
0
210
0
220
0
230
1
0
LINE
5
F2
100
AcDbEntity
8
1
62
256
6
ByLayer
370
18
48
1
60
0
100
AcDbLine
10
100.048693
20
15.073517
30
0
11
99.999996
21
15.164396
31
0
39
0
210
0
220
0
230
1
0
LINE
5
F3
100
AcDbEntity
8
SK2
62
256
6
ByLayer
370
18
48
1
60
0
100
AcDbLine
10
126.87201
20
36
30
0
11
126.87201
21
-36
31
0
39
0
210
0
220
0
230
1
0
LINE
5
F5
100
AcDbEntity
8
SK2
62
256
6
ByLayer
370
18
48
1
60
0
100
AcDbLine
10
93.5875
20
-36
30
0
11
128.87201
21
-36
31
0
39
0
210
0
220
0
230
1
0
LINE
5
F6
100
AcDbEntity
8
SK2
62
256
6
ByLayer
370
18
48
1
60
0
100
AcDbLine
10
93.5875
20
36
30
0
11
128.87201
21
36
31
0
39
0
210
0
220
0
230
1
0
LINE
5
F7
100
AcDbEntity
8
1
62
256
6
ByLayer
370
18
48
1
60
1
100
AcDbLine
10
126.87201
20
-36
30
0
11
126.411226
21
-32.500002
31
0
39
0
210
0
220
0
230
1
0
LINE
5
F8
100
AcDbEntity
8
1
62
256
6
ByLayer
370
18
48
1
60
1
100
AcDbLine
10
126.411226
20
-32.500002
30
0
11
127.332794
21
-32.499998
31
0
39
0
210
0
220
0
230
1
0
LINE
5
F9
100
AcDbEntity
8
1
62
256
6
ByLayer
370
18
48
1
60
1
100
AcDbLine
10
127.332794
20
-32.499998
30
0
11
126.87201
21
-36
31
0
39
0
210
0
220
0
230
1
0
LINE
5
FA
100
AcDbEntity
8
1
62
256
6
ByLayer
370
18
48
1
60
1
100
AcDbLine
10
126.87201
20
36
30
0
11
127.332794
21
32.500002
31
0
39
0
210
0
220
0
230
1
0
LINE
5
FB
100
AcDbEntity
8
1
62
256
6
ByLayer
370
18
48
1
60
1
100
AcDbLine
10
127.332794
20
32.500002
30
0
11
126.411226
21
32.499998
31
0
39
0
210
0
220
0
230
1
0
LINE
5
FC
100
AcDbEntity
8
1
62
256
6
ByLayer
370
18
48
1
60
1
100
AcDbLine
10
126.411226
20
32.499998
30
0
11
126.87201
21
36
31
0
39
0
210
0
220
0
230
1
0
LINE
5
FD
100
AcDbEntity
8
SK2
62
256
6
ByLayer
370
18
48
1
60
0
100
AcDbLine
10
-66.875025
20
-49.965
30
0
11
-66.875025
21
49.965
31
0
39
0
210
0
220
0
230
1
0
LINE
5
FE
100
AcDbEntity
8
SK2
62
256
6
ByLayer
370
18
48
1
60
0
100
AcDbLine
10
-0.8875
20
49.965
30
0
11
-68.875025
21
49.965
31
0
39
0
210
0
220
0
230
1
0
LINE
5
FF
100
AcDbEntity
8
SK2
62
256
6
ByLayer
370
18
48
1
60
0
100
AcDbLine
10
-0.8875
20
-49.965
30
0
11
-68.875025
21
-49.965
31
0
39
0
210
0
220
0
230
1
0
LINE
5
100
100
AcDbEntity
8
1
62
256
6
ByLayer
370
18
48
1
60
1
100
AcDbLine
10
-66.875025
20
49.965
30
0
11
-66.414241
21
46.465002
31
0
39
0
210
0
220
0
230
1
0
LINE
5
101
100
AcDbEntity
8
1
62
256
6
ByLayer
370
18
48
1
60
1
100
AcDbLine
10
-66.414241
20
46.465002
30
0
11
-67.335809
21
46.464998
31
0
39
0
210
0
220
0
230
1
0
LINE
5
102
100
AcDbEntity
8
1
62
256
6
ByLayer
370
18
48
1
60
1
100
AcDbLine
10
-67.335809
20
46.464998
30
0
11
-66.875025
21
49.965
31
0
39
0
210
0
220
0
230
1
0
LINE
5
103
100
AcDbEntity
8
1
62
256
6
ByLayer
370
18
48
1
60
1
100
AcDbLine
10
-66.875025
20
-49.965
30
0
11
-67.335809
21
-46.465002
31
0
39
0
210
0
220
0
230
1
0
LINE
5
104
100
AcDbEntity
8
1
62
256
6
ByLayer
370
18
48
1
60
1
100
AcDbLine
10
-67.335809
20
-46.465002
30
0
11
-66.414241
21
-46.464998
31
0
39
0
210
0
220
0
230
1
0
LINE
5
105
100
AcDbEntity
8
1
62
256
6
ByLayer
370
18
48
1
60
1
100
AcDbLine
10
-66.414241
20
-46.464998
30
0
11
-66.875025
21
-49.965
31
0
39
0
210
0
220
0
230
1
0
LINE
5
106
100
AcDbEntity
8
2
62
256
6
ByLayer
370
18
48
1
60
0
100
AcDbLine
10
28.95
20
62.815
30
0
11
100
21
62.815
31
0
39
0
210
0
220
0
230
1
0
LINE
5
107
100
AcDbEntity
8
2
62
256
6
ByLayer
370
18
48
1
60
0
100
AcDbLine
10
100
20
29.5875
30
0
11
100
21
64.815
31
0
39
0
210
0
220
0
230
1
0
LINE
5
108
100
AcDbEntity
8
2
62
256
6
ByLayer
370
18
48
1
60
0
100
AcDbLine
10
28.95
20
49.822547
30
0
11
28.95
21
64.815
31
0
39
0
210
0
220
0
230
1
0
LINE
5
109
100
AcDbEntity
8
1
62
256
6
ByLayer
370
18
48
1
60
1
100
AcDbLine
10
100
20
62.815
30
0
11
96.500002
21
62.354216
31
0
39
0
210
0
220
0
230
1
0
LINE
5
10A
100
AcDbEntity
8
1
62
256
6
ByLayer
370
18
48
1
60
1
100
AcDbLine
10
96.500002
20
62.354216
30
0
11
96.499998
21
63.275784
31
0
39
0
210
0
220
0
230
1
0
LINE
5
10B
100
AcDbEntity
8
1
62
256
6
ByLayer
370
18
48
1
60
1
100
AcDbLine
10
96.499998
20
63.275784
30
0
11
100
21
62.815
31
0
39
0
210
0
220
0
230
1
0
LINE
5
10C
100
AcDbEntity
8
1
62
256
6
ByLayer
370
18
48
1
60
1
100
AcDbLine
10
28.95
20
62.815
30
0
11
32.449998
21
63.275784
31
0
39
0
210
0
220
0
230
1
0
LINE
5
10D
100
AcDbEntity
8
1
62
256
6
ByLayer
370
18
48
1
60
1
100
AcDbLine
10
32.449998
20
63.275784
30
0
11
32.450002
21
62.354216
31
0
39
0
210
0
220
0
230
1
0
LINE
5
10E
100
AcDbEntity
8
1
62
256
6
ByLayer
370
18
48
1
60
1
100
AcDbLine
10
32.450002
20
62.354216
30
0
11
28.95
21
62.815
31
0
39
0
210
0
220
0
230
1
0
LINE
5
10F
100
AcDbEntity
8
SK2
62
256
6
ByLayer
370
18
48
1
60
0
100
AcDbLine
10
100
20
72.815
30
0
11
0
21
72.815
31
0
39
0
210
0
220
0
230
1
0
LINE
5
110
100
AcDbEntity
8
SK2
62
256
6
ByLayer
370
18
48
1
60
0
100
AcDbLine
10
0
20
50.8525
30
0
11
0
21
74.815
31
0
39
0
210
0
220
0
230
1
0
LINE
5
111
100
AcDbEntity
8
SK2
62
256
6
ByLayer
370
18
48
1
60
0
100
AcDbLine
10
100
20
29.5875
30
0
11
100
21
74.815
31
0
39
0
210
0
220
0
230
1
0
LINE
5
112
100
AcDbEntity
8
1
62
256
6
ByLayer
370
18
48
1
60
1
100
AcDbLine
10
0
20
72.815
30
0
11
3.499998
21
73.275784
31
0
39
0
210
0
220
0
230
1
0
LINE
5
113
100
AcDbEntity
8
1
62
256
6
ByLayer
370
18
48
1
60
1
100
AcDbLine
10
3.499998
20
73.275784
30
0
11
3.500002
21
72.354216
31
0
39
0
210
0
220
0
230
1
0
LINE
5
114
100
AcDbEntity
8
1
62
256
6
ByLayer
370
18
48
1
60
1
100
AcDbLine
10
3.500002
20
72.354216
30
0
11
0
21
72.815
31
0
39
0
210
0
220
0
230
1
0
LINE
5
115
100
AcDbEntity
8
1
62
256
6
ByLayer
370
18
48
1
60
1
100
AcDbLine
10
100
20
72.815
30
0
11
96.500002
21
72.354216
31
0
39
0
210
0
220
0
230
1
0
LINE
5
116
100
AcDbEntity
8
1
62
256
6
ByLayer
370
18
48
1
60
1
100
AcDbLine
10
96.500002
20
72.354216
30
0
11
96.499998
21
73.275784
31
0
39
0
210
0
220
0
230
1
0
LINE
5
117
100
AcDbEntity
8
1
62
256
6
ByLayer
370
18
48
1
60
1
100
AcDbLine
10
96.499998
20
73.275784
30
0
11
100
21
72.815
31
0
39
0
210
0
220
0
230
1
0
LINE
5
118
100
AcDbEntity
8
SK2
62
256
6
ByLayer
370
18
48
1
60
0
100
AcDbLine
10
-49.9
20
72.815
30
0
11
0
21
72.815
31
0
39
0
210
0
220
0
230
1
0
LINE
5
119
100
AcDbEntity
8
SK2
62
256
6
ByLayer
370
18
48
1
60
0
100
AcDbLine
10
0
20
50.8525
30
0
11
0
21
74.815
31
0
39
0
210
0
220
0
230
1
0
LINE
5
11A
100
AcDbEntity
8
SK2
62
256
6
ByLayer
370
18
48
1
60
0
100
AcDbLine
10
-49.9
20
32.073826
30
0
11
-49.9
21
74.815
31
0
39
0
210
0
220
0
230
1
0
LINE
5
11B
100
AcDbEntity
8
1
62
256
6
ByLayer
370
18
48
1
60
1
100
AcDbLine
10
0
20
72.815
30
0
11
-3.499998
21
72.354216
31
0
39
0
210
0
220
0
230
1
0
LINE
5
11C
100
AcDbEntity
8
1
62
256
6
ByLayer
370
18
48
1
60
1
100
AcDbLine
10
-3.499998
20
72.354216
30
0
11
-3.500002
21
73.275784
31
0
39
0
210
0
220
0
230
1
0
LINE
5
11D
100
AcDbEntity
8
1
62
256
6
ByLayer
370
18
48
1
60
1
100
AcDbLine
10
-3.500002
20
73.275784
30
0
11
0
21
72.815
31
0
39
0
210
0
220
0
230
1
0
LINE
5
11E
100
AcDbEntity
8
1
62
256
6
ByLayer
370
18
48
1
60
1
100
AcDbLine
10
-49.9
20
72.815
30
0
11
-46.400002
21
73.275784
31
0
39
0
210
0
220
0
230
1
0
LINE
5
11F
100
AcDbEntity
8
1
62
256
6
ByLayer
370
18
48
1
60
1
100
AcDbLine
10
-46.400002
20
73.275784
30
0
11
-46.399998
21
72.354216
31
0
39
0
210
0
220
0
230
1
0
LINE
5
120
100
AcDbEntity
8
1
62
256
6
ByLayer
370
18
48
1
60
1
100
AcDbLine
10
-46.399998
20
72.354216
30
0
11
-49.9
21
72.815
31
0
39
0
210
0
220
0
230
1
0
LINE
5
1AC
100
AcDbEntity
8
1
62
256
6
ByLayer
370
18
48
1
60
1
100
AcDbLine
10
126.87201
20
-36
30
0
11
126.411226
21
-32.500002
31
0
39
0
210
0
220
0
230
1
0
LINE
5
1AD
100
AcDbEntity
8
1
62
256
6
ByLayer
370
18
48
1
60
1
100
AcDbLine
10
126.411226
20
-32.500002
30
0
11
127.332794
21
-32.499998
31
0
39
0
210
0
220
0
230
1
0
LINE
5
1AE
100
AcDbEntity
8
1
62
256
6
ByLayer
370
18
48
1
60
1
100
AcDbLine
10
127.332794
20
-32.499998
30
0
11
126.87201
21
-36
31
0
39
0
210
0
220
0
230
1
0
LINE
5
1B0
100
AcDbEntity
8
1
62
256
6
ByLayer
370
18
48
1
60
1
100
AcDbLine
10
126.87201
20
36
30
0
11
127.332794
21
32.500002
31
0
39
0
210
0
220
0
230
1
0
LINE
5
1B1
100
AcDbEntity
8
1
62
256
6
ByLayer
370
18
48
1
60
1
100
AcDbLine
10
127.332794
20
32.500002
30
0
11
126.411226
21
32.499998
31
0
39
0
210
0
220
0
230
1
0
LINE
5
1B2
100
AcDbEntity
8
1
62
256
6
ByLayer
370
18
48
1
60
1
100
AcDbLine
10
126.411226
20
32.499998
30
0
11
126.87201
21
36
31
0
39
0
210
0
220
0
230
1
0
LINE
5
1B6
100
AcDbEntity
8
1
62
256
6
ByLayer
370
18
48
1
60
1
100
AcDbLine
10
-66.875025
20
49.965
30
0
11
-66.414241
21
46.465002
31
0
39
0
210
0
220
0
230
1
0
LINE
5
1B7
100
AcDbEntity
8
1
62
256
6
ByLayer
370
18
48
1
60
1
100
AcDbLine
10
-66.414241
20
46.465002
30
0
11
-67.335809
21
46.464998
31
0
39
0
210
0
220
0
230
1
0
LINE
5
1B8
100
AcDbEntity
8
1
62
256
6
ByLayer
370
18
48
1
60
1
100
AcDbLine
10
-67.335809
20
46.464998
30
0
11
-66.875025
21
49.965
31
0
39
0
210
0
220
0
230
1
0
LINE
5
1BA
100
AcDbEntity
8
1
62
256
6
ByLayer
370
18
48
1
60
1
100
AcDbLine
10
-66.875025
20
-49.965
30
0
11
-67.335809
21
-46.465002
31
0
39
0
210
0
220
0
230
1
0
LINE
5
1BB
100
AcDbEntity
8
1
62
256
6
ByLayer
370
18
48
1
60
1
100
AcDbLine
10
-67.335809
20
-46.465002
30
0
11
-66.414241
21
-46.464998
31
0
39
0
210
0
220
0
230
1
0
LINE
5
1BC
100
AcDbEntity
8
1
62
256
6
ByLayer
370
18
48
1
60
1
100
AcDbLine
10
-66.414241
20
-46.464998
30
0
11
-66.875025
21
-49.965
31
0
39
0
210
0
220
0
230
1
0
LINE
5
1BF
100
AcDbEntity
8
1
62
256
6
ByLayer
370
18
48
1
60
1
100
AcDbLine
10
100
20
62.815
30
0
11
96.500002
21
62.354216
31
0
39
0
210
0
220
0
230
1
0
LINE
5
1C0
100
AcDbEntity
8
1
62
256
6
ByLayer
370
18
48
1
60
1
100
AcDbLine
10
96.500002
20
62.354216
30
0
11
96.499998
21
63.275784
31
0
39
0
210
0
220
0
230
1
0
LINE
5
1C1
100
AcDbEntity
8
1
62
256
6
ByLayer
370
18
48
1
60
1
100
AcDbLine
10
96.499998
20
63.275784
30
0
11
100
21
62.815
31
0
39
0
210
0
220
0
230
1
0
LINE
5
1C3
100
AcDbEntity
8
1
62
256
6
ByLayer
370
18
48
1
60
1
100
AcDbLine
10
28.95
20
62.815
30
0
11
32.449998
21
63.275784
31
0
39
0
210
0
220
0
230
1
0
LINE
5
1C4
100
AcDbEntity
8
1
62
256
6
ByLayer
370
18
48
1
60
1
100
AcDbLine
10
32.449998
20
63.275784
30
0
11
32.450002
21
62.354216
31
0
39
0
210
0
220
0
230
1
0
LINE
5
1C5
100
AcDbEntity
8
1
62
256
6
ByLayer
370
18
48
1
60
1
100
AcDbLine
10
32.450002
20
62.354216
30
0
11
28.95
21
62.815
31
0
39
0
210
0
220
0
230
1
0
LINE
5
1C8
100
AcDbEntity
8
1
62
256
6
ByLayer
370
18
48
1
60
1
100
AcDbLine
10
0
20
72.815
30
0
11
3.499998
21
73.275784
31
0
39
0
210
0
220
0
230
1
0
LINE
5
1C9
100
AcDbEntity
8
1
62
256
6
ByLayer
370
18
48
1
60
1
100
AcDbLine
10
3.499998
20
73.275784
30
0
11
3.500002
21
72.354216
31
0
39
0
210
0
220
0
230
1
0
LINE
5
1CA
100
AcDbEntity
8
1
62
256
6
ByLayer
370
18
48
1
60
1
100
AcDbLine
10
3.500002
20
72.354216
30
0
11
0
21
72.815
31
0
39
0
210
0
220
0
230
1
0
LINE
5
1CC
100
AcDbEntity
8
1
62
256
6
ByLayer
370
18
48
1
60
1
100
AcDbLine
10
100
20
72.815
30
0
11
96.500002
21
72.354216
31
0
39
0
210
0
220
0
230
1
0
LINE
5
1CD
100
AcDbEntity
8
1
62
256
6
ByLayer
370
18
48
1
60
1
100
AcDbLine
10
96.500002
20
72.354216
30
0
11
96.499998
21
73.275784
31
0
39
0
210
0
220
0
230
1
0
LINE
5
1CE
100
AcDbEntity
8
1
62
256
6
ByLayer
370
18
48
1
60
1
100
AcDbLine
10
96.499998
20
73.275784
30
0
11
100
21
72.815
31
0
39
0
210
0
220
0
230
1
0
LINE
5
1D1
100
AcDbEntity
8
1
62
256
6
ByLayer
370
18
48
1
60
1
100
AcDbLine
10
0
20
72.815
30
0
11
-3.499998
21
72.354216
31
0
39
0
210
0
220
0
230
1
0
LINE
5
1D2
100
AcDbEntity
8
1
62
256
6
ByLayer
370
18
48
1
60
1
100
AcDbLine
10
-3.499998
20
72.354216
30
0
11
-3.500002
21
73.275784
31
0
39
0
210
0
220
0
230
1
0
LINE
5
1D3
100
AcDbEntity
8
1
62
256
6
ByLayer
370
18
48
1
60
1
100
AcDbLine
10
-3.500002
20
73.275784
30
0
11
0
21
72.815
31
0
39
0
210
0
220
0
230
1
0
LINE
5
1D5
100
AcDbEntity
8
1
62
256
6
ByLayer
370
18
48
1
60
1
100
AcDbLine
10
-49.9
20
72.815
30
0
11
-46.400002
21
73.275784
31
0
39
0
210
0
220
0
230
1
0
LINE
5
1D6
100
AcDbEntity
8
1
62
256
6
ByLayer
370
18
48
1
60
1
100
AcDbLine
10
-46.400002
20
73.275784
30
0
11
-46.399998
21
72.354216
31
0
39
0
210
0
220
0
230
1
0
LINE
5
1D7
100
AcDbEntity
8
1
62
256
6
ByLayer
370
18
48
1
60
1
100
AcDbLine
10
-46.399998
20
72.354216
30
0
11
-49.9
21
72.815
31
0
39
0
210
0
220
0
230
1
0
MTEXT
5
1A8
100
AcDbEntity
8
SK2
62
256
6
ByLayer
370
18
48
1
60
0
100
AcDbMText
10
125.307377
20
-4.530622
30
0
210
0
220
0
230
1
1
%%c
40
3.5
41
0
44
1.084337
50
90
71
7
72
5
7
iso_b_vert
0
MTEXT
5
1AB
100
AcDbEntity
8
SK2
62
256
6
ByLayer
370
18
48
1
60
0
100
AcDbMText
10
125.307377
20
2.442034
30
0
210
0
220
0
230
1
1
\W0.6740;72
40
3.5
41
0
44
1.084337
50
90
71
7
72
5
7
iso_b_vert
0
MTEXT
5
1B4
100
AcDbEntity
8
SK2
62
256
6
ByLayer
370
18
48
1
60
0
100
AcDbMText
10
-68.439659
20
-5.400922
30
0
210
0
220
0
230
1
1
%%c
40
3.5
41
0
44
1.084337
50
90
71
7
72
5
7
iso_b_vert
0
MTEXT
5
1B5
100
AcDbEntity
8
SK2
62
256
6
ByLayer
370
18
48
1
60
0
100
AcDbMText
10
-68.439659
20
1.571734
30
0
210
0
220
0
230
1
1
\W0.6217;100
40
3.5
41
0
44
1.084337
50
90
71
7
72
5
7
iso_b_vert
0
MTEXT
5
1BE
100
AcDbEntity
8
2
62
256
6
ByLayer
370
18
48
1
60
0
100
AcDbMText
10
63.007467
20
63.847634
30
0
210
0
220
0
230
1
1
\W0.6351;71
40
3.5
41
0
44
1.084337
50
0
71
7
72
5
7
iso_b_vert
0
MTEXT
5
1C7
100
AcDbEntity
8
SK2
62
256
6
ByLayer
370
18
48
1
60
0
100
AcDbMText
10
47.224734
20
73.847634
30
0
210
0
220
0
230
1
1
\W0.6217;100
40
3.5
41
0
44
1.084337
50
0
71
7
72
5
7
iso_b_vert
0
MTEXT
5
1D0
100
AcDbEntity
8
SK2
62
256
6
ByLayer
370
18
48
1
60
0
100
AcDbMText
10
-29.055966
20
73.847634
30
0
210
0
220
0
230
1
1
\W0.7756;49.9
40
3.5
41
0
44
1.084337
50
0
71
7
72
5
7
iso_b_vert
0
MTEXT
5
1D9
100
AcDbEntity
8
SK6
62
256
6
ByLayer
370
18
48
1
60
0
100
AcDbMText
10
54.983324
20
-92.114886
30
0
210
0
220
0
230
1
1
\W0.7498;HA10-WE32-B072-100
40
3
41
0
44
1.084337
50
0
71
7
72
5
7
iso_b_vert
0
HATCH
5
1AF
100
AcDbEntity
8
SK2
62
256
6
ByLayer
370
13
48
1
60
0
100
AcDbHatch
10
0
20
0
30
0
210
0
220
0
230
1
2
ANSI31
70
0
71
0
91
1
92
5
93
3
72
1
10
126.872010088275
20
-35.9999999999999
11
126.411226346722
21
-32.5000016925531
72
1
10
126.411226346722
20
-32.5000016925531
11
127.332793829828
21
-32.4999983074467
72
1
10
127.332793829828
20
-32.4999983074467
11
126.872010088275
21
-35.9999999999999
97
0
75
0
76
1
52
0
41
0.0062
77
0
78
1
53
45
43
0
44
0
45
-0.0139193969876572
46
0.0139193969876572
79
0
47
0
98
1
10
0
20
0
0
HATCH
5
1B3
100
AcDbEntity
8
SK2
62
256
6
ByLayer
370
13
48
1
60
0
100
AcDbHatch
10
0
20
0
30
0
210
0
220
0
230
1
2
ANSI31
70
0
71
0
91
1
92
5
93
3
72
1
10
126.872010088275
20
36.0000000000001
11
127.332793829828
21
32.5000016925533
72
1
10
127.332793829828
20
32.5000016925533
11
126.411226346722
21
32.499998307447
72
1
10
126.411226346722
20
32.499998307447
11
126.872010088275
21
36.0000000000001
97
0
75
0
76
1
52
0
41
0.0062
77
0
78
1
53
45
43
0
44
0
45
-0.0139193969876572
46
0.0139193969876572
79
0
47
0
98
1
10
0
20
0
0
HATCH
5
1B9
100
AcDbEntity
8
SK2
62
256
6
ByLayer
370
13
48
1
60
0
100
AcDbHatch
10
0
20
0
30
0
210
0
220
0
230
1
2
ANSI31
70
0
71
0
91
1
92
5
93
3
72
1
10
-66.8750250000001
20
49.965
11
-66.4142412584473
21
46.4650016925532
72
1
10
-66.4142412584473
20
46.4650016925532
11
-67.3358087415529
21
46.4649983074468
72
1
10
-67.3358087415529
20
46.4649983074468
11
-66.8750250000001
21
49.965
97
0
75
0
76
1
52
0
41
0.0062
77
0
78
1
53
45
43
0
44
0
45
-0.0139193969876572
46
0.0139193969876572
79
0
47
0
98
1
10
0
20
0
0
HATCH
5
1BD
100
AcDbEntity
8
SK2
62
256
6
ByLayer
370
13
48
1
60
0
100
AcDbHatch
10
0
20
0
30
0
210
0
220
0
230
1
2
ANSI31
70
0
71
0
91
1
92
5
93
3
72
1
10
-66.8750250000001
20
-49.965
11
-67.3358087415529
21
-46.4650016925532
72
1
10
-67.3358087415529
20
-46.4650016925532
11
-66.4142412584473
21
-46.4649983074468
72
1
10
-66.4142412584473
20
-46.4649983074468
11
-66.8750250000001
21
-49.965
97
0
75
0
76
1
52
0
41
0.0062
77
0
78
1
53
45
43
0
44
0
45
-0.0139193969876572
46
0.0139193969876572
79
0
47
0
98
1
10
0
20
0
0
HATCH
5
1C2
100
AcDbEntity
8
2
62
256
6
ByLayer
370
13
48
1
60
0
100
AcDbHatch
10
0
20
0
30
0
210
0
220
0
230
1
2
ANSI31
70
0
71
0
91
1
92
5
93
3
72
1
10
100
20
62.8150000000001
11
96.5000016925532
21
62.3542162584473
72
1
10
96.5000016925532
20
62.3542162584473
11
96.4999983074468
21
63.2757837415529
72
1
10
96.4999983074468
20
63.2757837415529
11
100
21
62.8150000000001
97
0
75
0
76
1
52
0
41
0.0062
77
0
78
1
53
45
43
0
44
0
45
-0.0139193969876572
46
0.0139193969876572
79
0
47
0
98
1
10
0
20
0
0
HATCH
5
1C6
100
AcDbEntity
8
2
62
256
6
ByLayer
370
13
48
1
60
0
100
AcDbHatch
10
0
20
0
30
0
210
0
220
0
230
1
2
ANSI31
70
0
71
0
91
1
92
5
93
3
72
1
10
28.95
20
62.8150000000001
11
32.4499983074468
21
63.2757837415529
72
1
10
32.4499983074468
20
63.2757837415529
11
32.4500016925532
21
62.3542162584473
72
1
10
32.4500016925532
20
62.3542162584473
11
28.95
21
62.8150000000001
97
0
75
0
76
1
52
0
41
0.0062
77
0
78
1
53
45
43
0
44
0
45
-0.0139193969876572
46
0.0139193969876572
79
0
47
0
98
1
10
0
20
0
0
HATCH
5
1CB
100
AcDbEntity
8
SK2
62
256
6
ByLayer
370
13
48
1
60
0
100
AcDbHatch
10
0
20
0
30
0
210
0
220
0
230
1
2
ANSI31
70
0
71
0
91
1
92
5
93
3
72
1
10
0
20
72.8150000000001
11
3.49999830744682
21
73.2757837415529
72
1
10
3.49999830744682
20
73.2757837415529
11
3.50000169255318
21
72.3542162584473
72
1
10
3.50000169255318
20
72.3542162584473
11
0
21
72.8150000000001
97
0
75
0
76
1
52
0
41
0.0062
77
0
78
1
53
45
43
0
44
0
45
-0.0139193969876572
46
0.0139193969876572
79
0
47
0
98
1
10
0
20
0
0
HATCH
5
1CF
100
AcDbEntity
8
SK2
62
256
6
ByLayer
370
13
48
1
60
0
100
AcDbHatch
10
0
20
0
30
0
210
0
220
0
230
1
2
ANSI31
70
0
71
0
91
1
92
5
93
3
72
1
10
100
20
72.8150000000001
11
96.5000016925532
21
72.3542162584473
72
1
10
96.5000016925532
20
72.3542162584473
11
96.4999983074468
21
73.2757837415529
72
1
10
96.4999983074468
20
73.2757837415529
11
100
21
72.8150000000001
97
0
75
0
76
1
52
0
41
0.0062
77
0
78
1
53
45
43
0
44
0
45
-0.0139193969876572
46
0.0139193969876572
79
0
47
0
98
1
10
0
20
0
0
HATCH
5
1D4
100
AcDbEntity
8
SK2
62
256
6
ByLayer
370
13
48
1
60
0
100
AcDbHatch
10
0
20
0
30
0
210
0
220
0
230
1
2
ANSI31
70
0
71
0
91
1
92
5
93
3
72
1
10
0
20
72.8150000000001
11
-3.4999983074468
21
72.3542162584473
72
1
10
-3.4999983074468
20
72.3542162584473
11
-3.5000016925532
21
73.2757837415529
72
1
10
-3.5000016925532
20
73.2757837415529
11
0
21
72.8150000000001
97
0
75
0
76
1
52
0
41
0.0062
77
0
78
1
53
45
43
0
44
0
45
-0.0139193969876572
46
0.0139193969876572
79
0
47
0
98
1
10
0
20
0
0
HATCH
5
1D8
100
AcDbEntity
8
SK2
62
256
6
ByLayer
370
13
48
1
60
0
100
AcDbHatch
10
0
20
0
30
0
210
0
220
0
230
1
2
ANSI31
70
0
71
0
91
1
92
5
93
3
72
1
10
-49.9
20
72.8150000000001
11
-46.4000016925532
21
73.2757837415529
72
1
10
-46.4000016925532
20
73.2757837415529
11
-46.3999983074468
21
72.3542162584473
72
1
10
-46.3999983074468
20
72.3542162584473
11
-49.9
21
72.8150000000001
97
0
75
0
76
1
52
0
41
0.0062
77
0
78
1
53
45
43
0
44
0
45
-0.0139193969876572
46
0.0139193969876572
79
0
47
0
98
1
10
0
20
0
0
ENDSEC
0
SECTION
2
OBJECTS
0
DICTIONARY
5
247
330
0
100
AcDbDictionary
280
0
281
1
3
ACAD_GROUP
350
248
3
ACAD_MLINESTYLE
350
249
0
DICTIONARY
5
248
330
0
100
AcDbDictionary
280
0
281
1
0
DICTIONARY
5
249
330
0
100
AcDbDictionary
280
0
281
1
3
Standard
350
18
0
MLINESTYLE
5
18
330
249
100
AcDbMlineStyle
2
Standard
70
0
3

62
256
51
90
52
90
71
2
49
-0.5
62
256
6
ByLayer
49
0.5
62
256
6
ByLayer
0
RASTERVARIABLES
5
236
330

100
AcDbRasterVariables
90
0
70
1
71
1
72
1
0
ENDSEC
0
EOF
