0
SECTION
2
HEADER
9
$ACADVER
1
AC1015
9
$DWGCODEPAGE
3
ANSI_1252
9
$HANDSEED
5
256
9
$ANGBASE
50
0
9
$ANGDIR
70
0
9
$ATTMODE
70
1
9
$AUNITS
70
0
9
$AUPREC
70
0
9
$CECOLOR
62
256
9
$CELTSCALE
40
1
9
$CELTYPE
6
ByLayer
9
$CELWEIGHT
370
18
9
$CLAYER
8
0
9
$CMLJUST
70
0
9
$CMLSCALE
40
1
9
$CMLSTYLE
2
Standard
9
$DIMSTYLE
2
Standard
9
$TEXTSIZE
40
0.2
9
$TEXTSTYLE
7
Standard
9
$LUNITS
70
2
9
$LUPREC
70
4
9
$EXTNAMES
290
1
9
$INSUNITS
70
4
9
$LTSCALE
40
1
9
$LWDISPLAY
290
1
9
$PDMODE
70
0
9
$PDSIZE
40
0
9
$PLINEGEN
70
0
0
ENDSEC
0
SECTION
2
CLASSES
0
CLASS
1
RASTERVARIABLES
2
AcDbRasterVariables
3
ISM
90
0
280
0
281
0
0
ENDSEC
0
SECTION
2
TABLES
0
TABLE
2
VPORT
5
24c
100
AcDbSymbolTable
0
VPORT
5
1
100
AcDbSymbolTableRecord
100
AcDbViewportTableRecord
2
*Active
70
0
10
0
20
0
11
1
21
1
12
-1
22
1
13
0
23
0
14
0.5
24
0.5
15
10
25
10
16
0
26
0
36
1
17
0
27
0
37
0
0
ENDTAB
0
TABLE
2
LTYPE
5
24d
100
AcDbSymbolTable
0
LTYPE
5
14
100
AcDbSymbolTableRecord
100
AcDbLinetypeTableRecord
70
0
2
ByBlock
3

72
65
73
0
40
0
0
LTYPE
5
15
100
AcDbSymbolTableRecord
100
AcDbLinetypeTableRecord
70
0
2
ByLayer
3

72
65
73
0
40
0
0
LTYPE
5
16
100
AcDbSymbolTableRecord
100
AcDbLinetypeTableRecord
70
0
2
Continuous
3
Solid line
72
65
73
0
40
0
0
LTYPE
5
6E
100
AcDbSymbolTableRecord
100
AcDbLinetypeTableRecord
70
0
2
CENTER
3
____ _ ____ _ ____ _ ____
72
65
73
4
40
47.5
49
22
74
0
49
-8.5
74
0
49
8.5
74
0
49
-8.5
74
0
0
LTYPE
5
6F
100
AcDbSymbolTableRecord
100
AcDbLinetypeTableRecord
70
0
2
DASHED
3
__ __ __ __ __ __ __ __ __
72
65
73
2
40
25.72
49
12.86
74
0
49
-12.86
74
0
0
ENDTAB
0
TABLE
2
LAYER
5
24e
100
AcDbSymbolTable
0
LAYER
5
10
100
AcDbSymbolTableRecord
100
AcDbLayerTableRecord
2
0
70
0
62
7
6
Continuous
290
1
370
-3
390
0
0
LAYER
5
71
100
AcDbSymbolTableRecord
100
AcDbLayerTableRecord
2
2
70
0
62
7
6
Continuous
290
1
370
-3
390
0
0
LAYER
5
84
100
AcDbSymbolTableRecord
100
AcDbLayerTableRecord
2
81
70
0
62
-3
6
Continuous
290
1
370
-3
390
0
0
LAYER
5
86
100
AcDbSymbolTableRecord
100
AcDbLayerTableRecord
2
80
70
0
62
-6
6
Continuous
290
1
370
-3
390
0
0
LAYER
5
89
100
AcDbSymbolTableRecord
100
AcDbLayerTableRecord
2
4
70
0
62
-2
6
CENTER
290
1
370
-3
390
0
0
LAYER
5
8C
100
AcDbSymbolTableRecord
100
AcDbLayerTableRecord
2
1
70
0
62
4
6
Continuous
290
1
370
-3
390
0
0
LAYER
5
239
100
AcDbSymbolTableRecord
100
AcDbLayerTableRecord
2
SK1
70
0
62
4
6
Continuous
290
1
370
-3
390
0
0
LAYER
5
23a
100
AcDbSymbolTableRecord
100
AcDbLayerTableRecord
2
SK2
70
0
62
7
6
Continuous
290
1
370
-3
390
0
0
LAYER
5
23b
100
AcDbSymbolTableRecord
100
AcDbLayerTableRecord
2
SK6
70
0
62
5
6
Continuous
290
1
370
-3
390
0
0
ENDTAB
0
TABLE
2
STYLE
5
24f
100
AcDbSymbolTable
0
STYLE
5
11
100
AcDbSymbolTableRecord
100
AcDbTextStyleTableRecord
2
Standard
3
txt
70
0
71
0
40
0
41
1
42
0
50
0
0
STYLE
5
1AB
100
AcDbSymbolTableRecord
100
AcDbTextStyleTableRecord
2
iso_b_vert
3
simplex.shx
70
0
71
0
40
0
41
1
42
0
50
0
0
STYLE
5
1AC
100
AcDbSymbolTableRecord
100
AcDbTextStyleTableRecord
2
DWGDirectTextStyle
3
simplex
70
0
71
0
40
0
41
1
42
0
50
0
0
ENDTAB
0
TABLE
2
DIMSTYLE
5
250
100
AcDbSymbolTable
100
AcDbDimStyleTable
0
DIMSTYLE
105
27
100
AcDbSymbolTableRecord
100
AcDbDimStyleTableRecord
2
Standard
70
0
3
<>
41
0.18
42
0.0625
44
0.18
140
0.18
147
0.09
73
0
74
0
77
1
271
2
275
0
278
52
280
0
340
11
0
ENDTAB
0
TABLE
2
VIEW
5
251
100
AcDbSymbolTable
0
ENDTAB
0
TABLE
2
UCS
5
252
100
AcDbSymbolTable
0
ENDTAB
0
TABLE
2
APPID
5
253
100
AcDbSymbolTable
0
APPID
5
12
100
AcDbSymbolTableRecord
100
AcDbRegAppTableRecord
2
ACAD
70
0
0
APPID
5
235
100
AcDbSymbolTableRecord
100
AcDbRegAppTableRecord
2
ACAD_MLEADERVER
70
0
0
ENDTAB
0
TABLE
2
BLOCK_RECORD
5
254
100
AcDbSymbolTable
0
BLOCK_RECORD
5
1F
100
AcDbSymbolTableRecord
100
AcDbBlockTableRecord
2
*Model_Space
340
0
70
0
0
BLOCK_RECORD
5
1B
100
AcDbSymbolTableRecord
100
AcDbBlockTableRecord
2
*Paper_Space
340
0
70
0
0
BLOCK_RECORD
5
23
100
AcDbSymbolTableRecord
100
AcDbBlockTableRecord
2
*Paper_Space0
340
0
70
0
0
ENDTAB
0
ENDSEC
0
SECTION
2
BLOCKS
0
BLOCK
5
20
100
AcDbEntity
8
0
100
AcDbBlockBegin
2
*Model_Space
70
0
10
0
20
0
30
0
3
*Model_Space
0
ENDBLK
5
21
100
AcDbEntity
8
0
100
AcDbBlockEnd
0
BLOCK
5
1C
100
AcDbEntity
8
0
100
AcDbBlockBegin
2
*Paper_Space
70
0
10
0
20
0
30
0
3
*Paper_Space
0
ENDBLK
5
1D
100
AcDbEntity
8
0
100
AcDbBlockEnd
0
BLOCK
5
24
100
AcDbEntity
8
0
100
AcDbBlockBegin
2
*Paper_Space0
70
0
10
0
20
0
30
0
3
*Paper_Space0
0
ENDBLK
5
25
100
AcDbEntity
8
0
100
AcDbBlockEnd
0
ENDSEC
0
SECTION
2
ENTITIES
0
ARC
5
122
100
AcDbEntity
8
SK2
62
256
6
ByLayer
370
18
48
1
60
0
100
AcDbCircle
39
0
10
60
20
0
30
0
40
4.61880215351674
210
0
220
0
230
1
100
AcDbArc
50
150
51
210
0
ARC
5
123
100
AcDbEntity
8
SK2
62
256
6
ByLayer
370
18
48
1
60
0
100
AcDbCircle
39
0
10
60
20
0
30
0
40
4.61880215351674
210
0
220
0
230
1
100
AcDbArc
50
330
51
30
0
ARC
5
124
100
AcDbEntity
8
SK2
62
256
6
ByLayer
370
18
48
1
60
0
100
AcDbCircle
39
0
10
60
20
0
30
0
40
4.61880215351674
210
0
220
0
230
1
100
AcDbArc
50
30
51
90
0
ARC
5
125
100
AcDbEntity
8
SK2
62
256
6
ByLayer
370
18
48
1
60
0
100
AcDbCircle
39
0
10
60
20
0
30
0
40
4.61880215351674
210
0
220
0
230
1
100
AcDbArc
50
210
51
270
0
ARC
5
126
100
AcDbEntity
8
SK2
62
256
6
ByLayer
370
18
48
1
60
0
100
AcDbCircle
39
0
10
60
20
0
30
0
40
4.61880215351674
210
0
220
0
230
1
100
AcDbArc
50
90
51
150
0
ARC
5
127
100
AcDbEntity
8
SK2
62
256
6
ByLayer
370
18
48
1
60
0
100
AcDbCircle
39
0
10
60
20
0
30
0
40
4.61880215351674
210
0
220
0
230
1
100
AcDbArc
50
270
51
330
0
ARC
5
128
100
AcDbEntity
8
1
62
256
6
ByLayer
370
18
48
1
60
0
100
AcDbCircle
39
0
10
27.624598
20
26.4
30
0
40
0.600000000000001
210
0
220
0
230
1
100
AcDbArc
50
270
51
285
0
ARC
5
129
100
AcDbEntity
8
1
62
256
6
ByLayer
370
18
48
1
60
0
100
AcDbCircle
39
0
10
27.624598
20
-26.4
30
0
40
0.600000000000001
210
0
220
0
230
1
100
AcDbArc
50
75
51
90
0
ARC
5
12A
100
AcDbEntity
8
1
62
256
6
ByLayer
370
18
48
1
60
0
100
AcDbCircle
39
0
10
26.55
20
26.4
30
0
40
0.599999999999998
210
0
220
0
230
1
100
AcDbArc
50
180
51
270
0
ARC
5
12B
100
AcDbEntity
8
1
62
256
6
ByLayer
370
18
48
1
60
0
100
AcDbCircle
39
0
10
26.55
20
-26.4
30
0
40
0.599999999999998
210
0
220
0
230
1
100
AcDbArc
50
90
51
180
0
ARC
5
12C
100
AcDbEntity
8
SK1
62
256
6
ByLayer
370
18
48
1
60
0
100
AcDbCircle
39
0
10
-27.2
20
22.245
30
0
40
1.4
210
0
220
0
230
1
100
AcDbArc
50
270
51
304.922922
0
ARC
5
12D
100
AcDbEntity
8
SK1
62
256
6
ByLayer
370
18
48
1
60
0
100
AcDbCircle
39
0
10
-23.2
20
-22.245
30
0
40
1.4
210
0
220
0
230
1
100
AcDbArc
50
40.841223
51
90
0
ARC
5
12E
100
AcDbEntity
8
SK1
62
256
6
ByLayer
370
18
48
1
60
0
100
AcDbCircle
39
0
10
-0.45
20
24.570431
30
0
40
0.600000000000001
210
0
220
0
230
1
100
AcDbArc
50
270
51
318.590378
0
ARC
5
12F
100
AcDbEntity
8
SK1
62
256
6
ByLayer
370
18
48
1
60
0
100
AcDbCircle
39
0
10
-0.45
20
-24.570431
30
0
40
0.600000000000001
210
0
220
0
230
1
100
AcDbArc
50
41.409622
51
90
0
ARC
5
130
100
AcDbEntity
8
1
62
256
6
ByLayer
370
18
48
1
60
0
100
AcDbCircle
39
0
10
34
20
18.454986
30
0
40
1.52
210
0
220
0
230
1
100
AcDbArc
50
35.251863
51
144.742477
0
CIRCLE
5
121
100
AcDbEntity
8
SK2
62
256
6
ByLayer
370
18
48
1
60
0
100
AcDbCircle
10
60
20
0
30
0
40
6.5
39
0
210
0
220
0
230
1
0
ELLIPSE
5
131
100
AcDbEntity
8
1
62
256
6
ByLayer
370
18
48
1
60
0
100
AcDbEllipse
10
34
20
19.972651
30
0
11
2.00000000000004
21
0
31
0
210
0
220
0
230
1
40
0.62932
41
-0.871399415011893
42
0
0
ELLIPSE
5
132
100
AcDbEntity
8
1
62
256
6
ByLayer
370
18
48
1
60
0
100
AcDbEllipse
10
34
20
19.972651
30
0
11
2.00000000000004
21
0
31
0
210
0
220
0
230
1
40
0.62932
41
0
42
-2.23435946025424
0
ELLIPSE
5
133
100
AcDbEntity
8
1
62
256
6
ByLayer
370
18
48
1
60
0
100
AcDbEllipse
10
34
20
-19.972651
30
0
11
-2.00000000000004
21
-6.43257148935663E-16
31
0
210
0
220
0
230
1
40
0.62932
41
-0.89663030781551
42
0
0
ELLIPSE
5
134
100
AcDbEntity
8
1
62
256
6
ByLayer
370
18
48
1
60
0
100
AcDbEllipse
10
34
20
-19.972651
30
0
11
-2.00000000000004
21
-6.43257148935663E-16
31
0
210
0
220
0
230
1
40
0.62932
41
0
42
1.57079631880074
0
ELLIPSE
5
135
100
AcDbEntity
8
1
62
256
6
ByLayer
370
18
48
1
60
0
100
AcDbEllipse
10
34
20
-19.972651
30
0
11
-2.00000000000004
21
-6.43257148935663E-16
31
0
210
0
220
0
230
1
40
0.62932
41
1.57079635077728
42
-2.19774064777308
0
ELLIPSE
5
136
100
AcDbEntity
8
1
62
256
6
ByLayer
370
18
48
1
60
0
100
AcDbEllipse
10
18
20
8.677456
30
0
11
-1.75
21
-5.62850005318694E-16
31
0
210
0
220
0
230
1
40
0.909961
41
-1.57079643071357
42
-1.03289677078831
0
ELLIPSE
5
137
100
AcDbEntity
8
1
62
256
6
ByLayer
370
18
48
1
60
0
100
AcDbEllipse
10
18
20
8.677456
30
0
11
-1.75
21
-5.62850005318694E-16
31
0
210
0
220
0
230
1
40
0.909961
41
-2.10525981430568
42
-1.57079643071357
0
ELLIPSE
5
138
100
AcDbEntity
8
1
62
256
6
ByLayer
370
18
48
1
60
0
100
AcDbEllipse
10
18
20
-8.677456
30
0
11
1.75
21
0
31
0
210
0
220
0
230
1
40
0.909961
41
-2.11291715535362
42
-1.02838029489243
0
ELLIPSE
5
139
100
AcDbEntity
8
1
62
256
6
ByLayer
370
18
48
1
60
0
100
AcDbEllipse
10
18
20
3.992678
30
0
11
-1.75
21
-5.62850005318694E-16
31
0
210
0
220
0
230
1
40
0.981627
41
-1.57079652902395
42
-0.377187843517458
0
ELLIPSE
5
13A
100
AcDbEntity
8
1
62
256
6
ByLayer
370
18
48
1
60
0
100
AcDbEllipse
10
18
20
3.992678
30
0
11
-1.75
21
-5.62850005318694E-16
31
0
210
0
220
0
230
1
40
0.981627
41
-2.78777063552699
42
-1.57079595759539
0
ELLIPSE
5
13B
100
AcDbEntity
8
1
62
256
6
ByLayer
370
18
48
1
60
0
100
AcDbEllipse
10
18
20
-3.992678
30
0
11
1.75
21
0
31
0
210
0
220
0
230
1
40
0.981627
41
-2.77775696100372
42
-0.372278977560744
0
ELLIPSE
5
13C
100
AcDbEntity
8
1
62
256
6
ByLayer
370
18
48
1
60
0
100
AcDbEllipse
10
34
20
-18.07681
30
0
11
-1.44
21
-4.63145147233668E-16
31
0
210
0
220
0
230
1
40
0.62932
41
1.24112517472894
42
1.57079632299943
0
ELLIPSE
5
13D
100
AcDbEntity
8
1
62
256
6
ByLayer
370
18
48
1
60
0
100
AcDbEllipse
10
34
20
-18.07681
30
0
11
-1.44
21
-4.63145147233668E-16
31
0
210
0
220
0
230
1
40
0.62932
41
1.57079632299943
42
1.90046747101765
0
ELLIPSE
5
13E
100
AcDbEntity
8
1
62
256
6
ByLayer
370
18
48
1
60
0
100
AcDbEllipse
10
34
20
-18.833161
30
0
11
1.44
21
0
31
0
210
0
220
0
230
1
40
0.62932
41
-2.58425410787097
42
-0.557337933174098
0
ELLIPSE
5
13F
100
AcDbEntity
8
1
62
256
6
ByLayer
370
18
48
1
60
0
100
AcDbEllipse
10
34
20
-19.791677
30
0
11
-1.44
21
-4.63145147233668E-16
31
0
210
0
220
0
230
1
40
0.62932
41
0
42
6.28318530717959
0
ELLIPSE
5
140
100
AcDbEntity
8
1
62
256
6
ByLayer
370
18
48
1
60
0
100
AcDbEllipse
10
34
20
-19.667807
30
0
11
-1.95620240091251
21
-6.29170589576027E-16
31
0
210
0
220
0
230
1
40
0.62932
41
0.0708821131325119
42
1.08375119486577
0
ELLIPSE
5
141
100
AcDbEntity
8
1
62
256
6
ByLayer
370
18
48
1
60
0
100
AcDbEllipse
10
34
20
-19.667807
30
0
11
-1.95620240091251
21
-6.29170589576027E-16
31
0
210
0
220
0
230
1
40
0.62932
41
2.05784140874596
42
3.07071046676191
0
ELLIPSE
5
142
100
AcDbEntity
8
1
62
256
6
ByLayer
370
18
48
1
60
0
100
AcDbEllipse
10
34
20
-19.791677
30
0
11
1.78225748207288
21
0
31
0
210
0
220
0
230
1
40
0.62932
41
-1.57079622658828
42
0
0
ELLIPSE
5
143
100
AcDbEntity
8
1
62
256
6
ByLayer
370
18
48
1
60
0
100
AcDbEllipse
10
34
20
-19.791677
30
0
11
1.78225748207288
21
0
31
0
210
0
220
0
230
1
40
0.62932
41
0
42
0.807781696964813
0
ELLIPSE
5
144
100
AcDbEntity
8
1
62
256
6
ByLayer
370
18
48
1
60
0
100
AcDbEllipse
10
34
20
-19.791677
30
0
11
1.78225748207288
21
0
31
0
210
0
220
0
230
1
40
0.62932
41
2.33381052904735
42
-1.57079622658831
0
ELLIPSE
5
145
100
AcDbEntity
8
1
62
256
6
ByLayer
370
18
48
1
60
0
100
AcDbEllipse
10
34
20
19.791677
30
0
11
1.44
21
0
31
0
210
0
220
0
230
1
40
0.62932
41
0
42
6.28318530717959
0
ELLIPSE
5
146
100
AcDbEntity
8
1
62
256
6
ByLayer
370
18
48
1
60
0
100
AcDbEllipse
10
34
20
19.791677
30
0
11
-1.78225748207288
21
-5.73224933293715E-16
31
0
210
0
220
0
230
1
40
0.62932
41
2.33390897587937
42
0
0
ELLIPSE
5
147
100
AcDbEntity
8
1
62
256
6
ByLayer
370
18
48
1
60
0
100
AcDbEllipse
10
34
20
19.791677
30
0
11
-1.78225748207288
21
-5.73224933293715E-16
31
0
210
0
220
0
230
1
40
0.62932
41
0
42
0.807683915310168
0
ELLIPSE
5
148
100
AcDbEntity
8
1
62
256
6
ByLayer
370
18
48
1
60
0
100
AcDbEllipse
10
34
20
19.667807
30
0
11
1.95620240091251
21
0
31
0
210
0
220
0
230
1
40
0.62932
41
2.05774317835861
42
3.07061255319956
0
ELLIPSE
5
149
100
AcDbEntity
8
1
62
256
6
ByLayer
370
18
48
1
60
0
100
AcDbEllipse
10
34
20
19.667807
30
0
11
1.95620240091251
21
0
31
0
210
0
220
0
230
1
40
0.62932
41
0.0709800266956354
42
1.08384942525453
0
ELLIPSE
5
14A
100
AcDbEntity
8
1
62
256
6
ByLayer
370
18
48
1
60
0
100
AcDbEllipse
10
34
20
-18.07681
30
0
11
-1.44
21
-4.63145147233668E-16
31
0
210
0
220
0
230
1
40
0.62932
41
1.24112517472894
42
1.57079632299943
0
ELLIPSE
5
14B
100
AcDbEntity
8
1
62
256
6
ByLayer
370
18
48
1
60
0
100
AcDbEllipse
10
34
20
-18.07681
30
0
11
-1.44
21
-4.63145147233668E-16
31
0
210
0
220
0
230
1
40
0.62932
41
1.57079632299943
42
1.90046747101765
0
ELLIPSE
5
14C
100
AcDbEntity
8
1
62
256
6
ByLayer
370
18
48
1
60
0
100
AcDbEllipse
10
34
20
-18.833161
30
0
11
1.44
21
0
31
0
210
0
220
0
230
1
40
0.62932
41
-2.58425410787097
42
-0.557337933174098
0
ELLIPSE
5
14D
100
AcDbEntity
8
1
62
256
6
ByLayer
370
18
48
1
60
0
100
AcDbEllipse
10
34
20
-19.791677
30
0
11
-1.44
21
-4.63145147233668E-16
31
0
210
0
220
0
230
1
40
0.62932
41
0
42
6.28318530717959
0
ELLIPSE
5
14E
100
AcDbEntity
8
1
62
256
6
ByLayer
370
18
48
1
60
0
100
AcDbEllipse
10
34
20
-19.791677
30
0
11
1.78225748207288
21
0
31
0
210
0
220
0
230
1
40
0.62932
41
-1.57079622658828
42
0
0
ELLIPSE
5
14F
100
AcDbEntity
8
1
62
256
6
ByLayer
370
18
48
1
60
0
100
AcDbEllipse
10
34
20
-19.791677
30
0
11
1.78225748207288
21
0
31
0
210
0
220
0
230
1
40
0.62932
41
0
42
0.807781696964813
0
ELLIPSE
5
150
100
AcDbEntity
8
1
62
256
6
ByLayer
370
18
48
1
60
0
100
AcDbEllipse
10
34
20
-19.791677
30
0
11
1.78225748207288
21
0
31
0
210
0
220
0
230
1
40
0.62932
41
2.33381052904735
42
-1.57079622658831
0
ELLIPSE
5
151
100
AcDbEntity
8
1
62
256
6
ByLayer
370
18
48
1
60
0
100
AcDbEllipse
10
34
20
-19.667807
30
0
11
-1.95620240091251
21
-6.29170589576027E-16
31
0
210
0
220
0
230
1
40
0.62932
41
0.0708821131325119
42
1.08375119486577
0
ELLIPSE
5
152
100
AcDbEntity
8
1
62
256
6
ByLayer
370
18
48
1
60
0
100
AcDbEllipse
10
34
20
-19.667807
30
0
11
-1.95620240091251
21
-6.29170589576027E-16
31
0
210
0
220
0
230
1
40
0.62932
41
2.05784140874596
42
3.07071046676191
0
ELLIPSE
5
153
100
AcDbEntity
8
1
62
256
6
ByLayer
370
18
48
1
60
0
100
AcDbEllipse
10
34
20
19.791677
30
0
11
1.44
21
0
31
0
210
0
220
0
230
1
40
0.62932
41
0
42
6.28318530717959
0
ELLIPSE
5
154
100
AcDbEntity
8
1
62
256
6
ByLayer
370
18
48
1
60
0
100
AcDbEllipse
10
34
20
19.791677
30
0
11
-1.78225748207288
21
-5.73224933293715E-16
31
0
210
0
220
0
230
1
40
0.62932
41
2.33390897587937
42
0
0
ELLIPSE
5
155
100
AcDbEntity
8
1
62
256
6
ByLayer
370
18
48
1
60
0
100
AcDbEllipse
10
34
20
19.791677
30
0
11
-1.78225748207288
21
-5.73224933293715E-16
31
0
210
0
220
0
230
1
40
0.62932
41
0
42
0.807683915310168
0
ELLIPSE
5
156
100
AcDbEntity
8
1
62
256
6
ByLayer
370
18
48
1
60
0
100
AcDbEllipse
10
34
20
19.667807
30
0
11
1.95620240091251
21
0
31
0
210
0
220
0
230
1
40
0.62932
41
2.05774317835861
42
3.07061255319956
0
ELLIPSE
5
157
100
AcDbEntity
8
1
62
256
6
ByLayer
370
18
48
1
60
0
100
AcDbEllipse
10
34
20
19.667807
30
0
11
1.95620240091251
21
0
31
0
210
0
220
0
230
1
40
0.62932
41
0.0709800266956354
42
1.08384942525453
0
ELLIPSE
5
158
100
AcDbEntity
8
SK1
62
256
6
ByLayer
370
13
48
1
60
0
100
AcDbEllipse
10
-23.2
20
-21.778508
30
0
11
1.4
21
0
31
0
210
0
220
0
230
1
40
0.891007
41
1.10550655851979
42
1.5707963267949
0
ELLIPSE
5
159
100
AcDbEntity
8
1
62
256
6
ByLayer
370
18
48
1
60
0
100
AcDbEllipse
10
34
20
19.791677
30
0
11
1.44
21
0
31
0
210
0
220
0
230
1
40
0.62932
41
0
42
6.28318530717959
0
ELLIPSE
5
15A
100
AcDbEntity
8
1
62
256
6
ByLayer
370
18
48
1
60
0
100
AcDbEllipse
10
34
20
19.667807
30
0
11
1.95620240091251
21
0
31
0
210
0
220
0
230
1
40
0.62932
41
2.05774317835861
42
3.07061255319955
0
ELLIPSE
5
15B
100
AcDbEntity
8
1
62
256
6
ByLayer
370
18
48
1
60
0
100
AcDbEllipse
10
34
20
19.667807
30
0
11
1.95620240091251
21
0
31
0
210
0
220
0
230
1
40
0.62932
41
0.070980026695621
42
1.08384942525453
0
ELLIPSE
5
15C
100
AcDbEntity
8
1
62
256
6
ByLayer
370
18
48
1
60
0
100
AcDbEllipse
10
34
20
19.791677
30
0
11
-1.78225748207288
21
-5.73224933293715E-16
31
0
210
0
220
0
230
1
40
0.62932
41
2.33390897587936
42
0
0
ELLIPSE
5
15D
100
AcDbEntity
8
1
62
256
6
ByLayer
370
18
48
1
60
0
100
AcDbEllipse
10
34
20
19.791677
30
0
11
-1.78225748207288
21
-5.73224933293715E-16
31
0
210
0
220
0
230
1
40
0.62932
41
0
42
0.807683915310161
0
ELLIPSE
5
15E
100
AcDbEntity
8
1
62
256
6
ByLayer
370
18
48
1
60
0
100
AcDbEllipse
10
85
20
-9.714325
30
0
11
-0.0440848327875691
21
1.29925229556006
31
0
210
0
220
0
230
1
40
0.027451
41
-3.09401663365558
42
-2.46137956860346
0
ELLIPSE
5
15F
100
AcDbEntity
8
1
62
256
6
ByLayer
370
18
48
1
60
0
100
AcDbEllipse
10
85
20
-9.714325
30
0
11
-0.0440848327875691
21
1.29925229556006
31
0
210
0
220
0
230
1
40
0.027451
41
-2.46137956860354
42
-0.890583139699497
0
ELLIPSE
5
160
100
AcDbEntity
8
1
62
256
6
ByLayer
370
18
48
1
60
0
100
AcDbEllipse
10
85
20
9.714325
30
0
11
0.0440848327875623
21
1.29925229556006
31
0
210
0
220
0
230
1
40
0.027451
41
-2.25100922786134
42
-0.680212731549729
0
ELLIPSE
5
161
100
AcDbEntity
8
1
62
256
6
ByLayer
370
18
48
1
60
0
100
AcDbEllipse
10
85
20
9.714325
30
0
11
0.0440848327875623
21
1.29925229556006
31
0
210
0
220
0
230
1
40
0.027451
41
-0.680212731549729
42
-0.0475719680743502
0
ELLIPSE
5
162
100
AcDbEntity
8
1
62
256
6
ByLayer
370
18
48
1
60
0
100
AcDbEllipse
10
85
20
9.714325
30
0
11
0.0440848327875623
21
1.29925229556006
31
0
210
0
220
0
230
1
40
0.027451
41
-2.25100922786134
42
-0.680212731549729
0
ELLIPSE
5
163
100
AcDbEntity
8
1
62
256
6
ByLayer
370
18
48
1
60
0
100
AcDbEllipse
10
85
20
9.714325
30
0
11
0.0440848327875623
21
1.29925229556006
31
0
210
0
220
0
230
1
40
0.027451
41
-0.680212731549729
42
-0.0475719680743004
0
POINT
5
70
100
AcDbEntity
8
2
62
256
6
ByLayer
370
18
48
1
60
0
100
AcDbPoint
10
34
20
20.205795
30
0
39
0
210
0
220
0
230
1
50
360
0
POINT
5
72
100
AcDbEntity
8
2
62
256
6
ByLayer
370
18
48
1
60
0
100
AcDbPoint
10
60
20
0
30
0
39
0
210
0
220
0
230
1
50
360
0
POINT
5
73
100
AcDbEntity
8
2
62
256
6
ByLayer
370
18
48
1
60
0
100
AcDbPoint
10
85
20
0
30
0
39
0
210
0
220
0
230
1
50
360
0
POINT
5
74
100
AcDbEntity
8
2
62
256
6
ByLayer
370
18
48
1
60
0
100
AcDbPoint
10
34
20
20.205795
30
0
39
0
210
0
220
0
230
1
50
360
0
POINT
5
75
100
AcDbEntity
8
2
62
256
6
ByLayer
370
18
48
1
60
0
100
AcDbPoint
10
34
20
21.760087
30
0
39
0
210
0
220
0
230
1
50
360
0
POINT
5
76
100
AcDbEntity
8
2
62
256
6
ByLayer
370
18
48
1
60
0
100
AcDbPoint
10
31
20
0
30
0
39
0
210
0
220
0
230
1
50
360
0
POINT
5
77
100
AcDbEntity
8
2
62
256
6
ByLayer
370
18
48
1
60
0
100
AcDbPoint
10
85
20
9.714325
30
0
39
0
210
0
220
0
230
1
50
360
0
POINT
5
78
100
AcDbEntity
8
2
62
256
6
ByLayer
370
18
48
1
60
0
100
AcDbPoint
10
85
20
0
30
0
39
0
210
0
220
0
230
1
50
360
0
POINT
5
79
100
AcDbEntity
8
2
62
256
6
ByLayer
370
18
48
1
60
0
100
AcDbPoint
10
60
20
0
30
0
39
0
210
0
220
0
230
1
50
360
0
POINT
5
7A
100
AcDbEntity
8
2
62
256
6
ByLayer
370
18
48
1
60
0
100
AcDbPoint
10
85
20
0
30
0
39
0
210
0
220
0
230
1
50
360
0
POINT
5
7B
100
AcDbEntity
8
2
62
256
6
ByLayer
370
18
48
1
60
0
100
AcDbPoint
10
60
20
0
30
0
39
0
210
0
220
0
230
1
50
360
0
POINT
5
7C
100
AcDbEntity
8
2
62
256
6
ByLayer
370
18
48
1
60
0
100
AcDbPoint
10
25.95
20
0
30
0
39
0
210
0
220
0
230
1
50
360
0
POINT
5
7D
100
AcDbEntity
8
2
62
256
6
ByLayer
370
18
48
1
60
0
100
AcDbPoint
10
85
20
0
30
0
39
0
210
0
220
0
230
1
50
360
0
POINT
5
7E
100
AcDbEntity
8
2
62
256
6
ByLayer
370
18
48
1
60
0
100
AcDbPoint
10
85
20
0
30
0
39
0
210
0
220
0
230
1
50
360
0
POINT
5
7F
100
AcDbEntity
8
2
62
256
6
ByLayer
370
18
48
1
60
0
100
AcDbPoint
10
85
20
0
30
0
39
0
210
0
220
0
230
1
50
360
0
POINT
5
80
100
AcDbEntity
8
2
62
256
6
ByLayer
370
18
48
1
60
0
100
AcDbPoint
10
0
20
0
30
0
39
0
210
0
220
0
230
1
50
360
0
POINT
5
81
100
AcDbEntity
8
2
62
256
6
ByLayer
370
18
48
1
60
0
100
AcDbPoint
10
85
20
0
30
0
39
0
210
0
220
0
230
1
50
360
0
POINT
5
82
100
AcDbEntity
8
2
62
256
6
ByLayer
370
18
48
1
60
0
100
AcDbPoint
10
31
20
0
30
0
39
0
210
0
220
0
230
1
50
360
0
POINT
5
83
100
AcDbEntity
8
81
62
256
6
ByLayer
370
18
48
1
60
0
100
AcDbPoint
10
85
20
0
30
0
39
0
210
0
220
0
230
1
50
360
0
POINT
5
85
100
AcDbEntity
8
80
62
256
6
ByLayer
370
18
48
1
60
0
100
AcDbPoint
10
0
20
0
30
0
39
0
210
0
220
0
230
1
50
360
0
SPLINE
5
164
100
AcDbEntity
8
1
62
256
6
ByLayer
370
18
48
1
60
0
100
AcDbSpline
70
4
71
3
72
8
73
4
40
0
40
0
40
0
40
0
40
1
40
1
40
1
40
1
41
1
10
25.95
20
29.9142205940586
30
0
41
1
10
25.783382336586
20
30.086718788344
30
0
41
1
10
25.6167148649415
20
30.2591685807661
30
0
41
1
10
25.45
20
30.4315723180713
30
0
0
SPLINE
5
165
100
AcDbEntity
8
1
62
256
6
ByLayer
370
18
48
1
60
0
100
AcDbSpline
70
4
71
3
72
8
73
4
40
0
40
0
40
0
40
0
40
1
40
1
40
1
40
1
41
1
10
21.3746123234133
20
30.4315723180713
30
0
41
1
10
20.8902935147948
20
29.5640826443993
30
0
41
1
10
20.4069881139936
20
28.6960191551286
30
0
41
1
10
19.925
20
27.8272318284486
30
0
0
SPLINE
5
166
100
AcDbEntity
8
1
62
256
6
ByLayer
370
18
48
1
60
0
100
AcDbSpline
70
4
71
3
72
8
73
4
40
0
40
0
40
0
40
0
40
1
40
1
40
1
40
1
41
1
10
16.075
20
27.8272318284486
30
0
41
1
10
15.5930118860063
20
28.6960191551286
30
0
41
1
10
15.1097064852051
20
29.5640826443993
30
0
41
1
10
14.6253876765866
20
30.4315723180713
30
0
0
SPLINE
5
167
100
AcDbEntity
8
1
62
256
6
ByLayer
370
18
48
1
60
0
100
AcDbSpline
70
4
71
3
72
12
73
8
40
0
40
0
40
0
40
0
40
0.25
40
0.25
40
0.5
40
0.5
40
1
40
1
40
1
40
1
41
1
10
16.075
20
21.0858397386545
30
0
41
1
10
15.9575543463047
20
21.3652183811888
30
0
41
1
10
15.8391567902152
20
21.6442532423245
30
0
41
1
10
15.6006785184763
20
22.2014716575895
30
0
41
1
10
15.4805909149784
20
22.4796718922849
30
0
41
1
10
15.1179575685047
20
23.3131299657863
30
0
41
1
10
14.8730455409432
20
23.8672472232375
30
0
41
1
10
14.6253876765866
20
24.4200409500067
30
0
0
SPLINE
5
168
100
AcDbEntity
8
1
62
256
6
ByLayer
370
18
48
1
60
0
100
AcDbSpline
70
4
71
3
72
8
73
4
40
0
40
0
40
0
40
0
40
1
40
1
40
1
40
1
41
1
10
25.95
20
23.7722190802626
30
0
41
1
10
25.7839428389179
20
23.9885552271468
30
0
41
1
10
25.6172335326702
20
24.2045278276533
30
0
41
1
10
25.4499999999999
20
24.4200409500067
30
0
0
SPLINE
5
169
100
AcDbEntity
8
1
62
256
6
ByLayer
370
18
48
1
60
0
100
AcDbSpline
70
4
71
3
72
12
73
8
40
0
40
0
40
0
40
0
40
0.500000000000001
40
0.500000000000001
40
0.75
40
0.75
40
1
40
1
40
1
40
1
41
1
10
21.3746123234133
20
24.4200409500068
30
0
41
1
10
21.1269480166304
20
23.8672328431859
30
0
41
1
10
20.8820296891945
20
23.313101136971
30
0
41
1
10
20.5193871561882
20
22.47962126342
30
0
41
1
10
20.3992965345052
20
22.2014137408366
30
0
41
1
10
20.1608123241297
20
21.6441807026864
30
0
41
1
10
20.0424022933999
20
21.3651152361162
30
0
41
1
10
19.925
20
21.0858397386545
30
0
0
SPLINE
5
16A
100
AcDbEntity
8
1
62
256
6
ByLayer
370
18
48
1
60
0
100
AcDbSpline
70
4
71
3
72
52
73
48
40
0
40
0
40
0
40
0
40
0.0625000000000009
40
0.0625000000000009
40
0.125000000000002
40
0.125000000000002
40
0.156250000000002
40
0.156250000000002
40
0.171875000000005
40
0.171875000000005
40
0.187500000000008
40
0.187500000000008
40
0.250000000000009
40
0.31250000000001
40
0.31250000000001
40
0.32812500000001
40
0.32812500000001
40
0.343750000000011
40
0.375000000000008
40
0.375000000000008
40
0.437500000000005
40
0.437500000000005
40
0.468750000000004
40
0.468750000000004
40
0.484375000000003
40
0.484375000000003
40
0.500000000000002
40
0.500000000000002
40
0.562500000000003
40
0.625000000000003
40
0.625000000000003
40
0.656250000000003
40
0.656250000000003
40
0.687500000000003
40
0.687500000000003
40
0.750000000000002
40
0.750000000000002
40
0.781250000000002
40
0.781250000000002
40
0.812500000000002
40
0.812500000000002
40
0.875000000000001
40
0.9375
40
0.9375
40
0.96875
40
0.96875
40
1
40
1
40
1
40
1
41
1
10
16.475
20
17.5834806976042
30
0
41
1
10
16.5131913232135
20
17.6356400010526
30
0
41
1
10
16.555455160368
20
17.6851012200768
30
0
41
1
10
16.6478009638929
20
17.7789189868855
30
0
41
1
10
16.6978839475418
20
17.8232746435516
30
0
41
1
10
16.7789435239476
20
17.8859940289634
30
0
41
1
10
16.8069557155953
20
17.9062628011664
30
0
41
1
10
16.8505015589457
20
17.935692316367
30
0
41
1
10
16.8652488722836
20
17.9453230710113
30
0
41
1
10
16.8950371680023
20
17.9641221469431
30
0
41
1
10
16.910101924586
20
17.9733067015478
30
0
41
1
10
16.9862682240961
20
18.0181710676171
30
0
41
1
10
17.1135048019649
20
18.083208317781
30
0
41
1
10
17.2513051323545
20
18.1351304202462
30
0
41
1
10
17.340852835611
20
18.1633757378613
30
0
41
1
10
17.3589510261372
20
18.1688174006424
30
0
41
1
10
17.3952241179028
20
18.1791975883318
30
0
41
1
10
17.4498427753161
20
18.1940439799827
30
0
41
1
10
17.5050795190823
20
18.2067537936931
30
0
41
1
10
17.6163637965048
20
18.2293796390629
30
0
41
1
10
17.691630903465
20
18.2407510129895
30
0
41
1
10
17.8061588831876
20
18.2522263132465
30
0
41
1
10
17.844606956195
20
18.2551180074906
30
0
41
1
10
17.9026967272745
20
18.2580243290622
30
0
41
1
10
17.9221663084688
20
18.2587548948534
30
0
41
1
10
17.9610107977542
20
18.2597262135564
30
0
41
1
10
17.9803927501871
20
18.2599684300752
30
0
41
1
10
18.0771038623367
20
18.2599793960361
30
0
41
1
10
18.2305754564871
20
18.2523491052793
30
0
41
1
10
18.3815722297398
20
18.2297489735089
30
0
41
1
10
18.4938641285014
20
18.2069930234637
30
0
41
1
10
18.53118989199
20
18.1984144688029
30
0
41
1
10
18.6044182748904
20
18.179554176381
30
0
41
1
10
18.6404572010122
20
18.1692486073201
30
0
41
1
10
18.7468816355557
20
18.1357460199801
30
0
41
1
10
18.8155819965158
20
18.1099745989849
30
0
41
1
10
18.9152578724162
20
18.0661113512754
30
0
41
1
10
18.9479189224545
20
18.0506197251854
30
0
41
1
10
19.012089924821
20
18.017850795655
30
0
41
1
10
19.0436842374209
20
18.0005169079059
30
0
41
1
10
19.1354026811123
20
17.9465252426151
30
0
41
1
10
19.250303463002
20
17.8689160540892
30
0
41
1
10
19.3508323679639
20
17.7802152843766
30
0
41
1
10
19.420705897915
20
17.7093648178742
30
0
41
1
10
19.4431211599626
20
17.6849649636698
30
0
41
1
10
19.4857083394232
20
17.6350705152685
30
0
41
1
10
19.5059044140918
20
17.609560245944
30
0
41
1
10
19.525
20
17.5834806976043
30
0
0
SPLINE
5
16B
100
AcDbEntity
8
1
62
256
6
ByLayer
370
18
48
1
60
0
100
AcDbSpline
70
4
71
3
72
52
73
48
40
0
40
0
40
0
40
0
40
0.0625000000000044
40
0.0625000000000044
40
0.125000000000009
40
0.125000000000009
40
0.156250000000012
40
0.156250000000012
40
0.171875000000013
40
0.171875000000013
40
0.187500000000014
40
0.187500000000014
40
0.25000000000002
40
0.312500000000027
40
0.312500000000027
40
0.328125000000028
40
0.328125000000028
40
0.343750000000029
40
0.375000000000027
40
0.375000000000027
40
0.437500000000024
40
0.437500000000024
40
0.468750000000023
40
0.468750000000023
40
0.484375000000022
40
0.484375000000022
40
0.500000000000022
40
0.500000000000022
40
0.562500000000022
40
0.625000000000022
40
0.625000000000022
40
0.656250000000022
40
0.656250000000022
40
0.687500000000022
40
0.687500000000022
40
0.75000000000002
40
0.75000000000002
40
0.781250000000018
40
0.781250000000018
40
0.812500000000016
40
0.812500000000016
40
0.875000000000012
40
0.937500000000008
40
0.937500000000008
40
0.968750000000004
40
0.968750000000004
40
1
40
1
40
1
40
1
41
1
10
19.525
20
-17.5834806976042
30
0
41
1
10
19.4868086767865
20
-17.6356400010525
30
0
41
1
10
19.444544839632
20
-17.6851012200768
30
0
41
1
10
19.3521990361071
20
-17.7789189868855
30
0
41
1
10
19.3021160524582
20
-17.8232746435515
30
0
41
1
10
19.2210564760524
20
-17.8859940289633
30
0
41
1
10
19.1930442844047
20
-17.9062628011664
30
0
41
1
10
19.1494984410542
20
-17.9356923163669
30
0
41
1
10
19.1347511277164
20
-17.9453230710112
30
0
41
1
10
19.1049628319977
20
-17.964122146943
30
0
41
1
10
19.0898980754139
20
-17.9733067015478
30
0
41
1
10
19.0137317759039
20
-18.0181710676171
30
0
41
1
10
18.8864951980351
20
-18.0832083177809
30
0
41
1
10
18.7486948676454
20
-18.1351304202462
30
0
41
1
10
18.659147164389
20
-18.1633757378613
30
0
41
1
10
18.6410489738628
20
-18.1688174006424
30
0
41
1
10
18.6047758820972
20
-18.1791975883318
30
0
41
1
10
18.5501572246839
20
-18.1940439799827
30
0
41
1
10
18.4949204809177
20
-18.206753793693
30
0
41
1
10
18.3836362034952
20
-18.2293796390628
30
0
41
1
10
18.308369096535
20
-18.2407510129894
30
0
41
1
10
18.1938411168124
20
-18.2522263132465
30
0
41
1
10
18.155393043805
20
-18.2551180074906
30
0
41
1
10
18.0973032727255
20
-18.2580243290621
30
0
41
1
10
18.0778336915313
20
-18.2587548948533
30
0
41
1
10
18.0389892022457
20
-18.2597262135563
30
0
41
1
10
18.0196072498129
20
-18.2599684300751
30
0
41
1
10
17.9228961376632
20
-18.2599793960361
30
0
41
1
10
17.7694245064372
20
-18.2523494020451
30
0
41
1
10
17.6184277702601
20
-18.2297489735088
30
0
41
1
10
17.5061358714986
20
-18.2069930234636
30
0
41
1
10
17.46881010801
20
-18.1984144688028
30
0
41
1
10
17.3955817251096
20
-18.1795541763809
30
0
41
1
10
17.3595427989878
20
-18.16924860732
30
0
41
1
10
17.2531183644443
20
-18.13574601998
30
0
41
1
10
17.1844180034842
20
-18.1099745989848
30
0
41
1
10
17.0847421275838
20
-18.0661113512754
30
0
41
1
10
17.0520810775455
20
-18.0506197251853
30
0
41
1
10
16.987910075179
20
-18.0178507956549
30
0
41
1
10
16.9563157625791
20
-18.0005169079058
30
0
41
1
10
16.8645973188877
20
-17.946525242615
30
0
41
1
10
16.749696536998
20
-17.8689160540891
30
0
41
1
10
16.6491676320361
20
-17.7802152843765
30
0
41
1
10
16.579294102085
20
-17.7093648178741
30
0
41
1
10
16.5568788400374
20
-17.6849649636697
30
0
41
1
10
16.5142916605768
20
-17.6350705152684
30
0
41
1
10
16.4940955859082
20
-17.6095602459439
30
0
41
1
10
16.475
20
-17.5834806976042
30
0
0
SPLINE
5
16C
100
AcDbEntity
8
1
62
256
6
ByLayer
370
18
48
1
60
0
100
AcDbSpline
70
4
71
3
72
52
73
48
40
0
40
0
40
0
40
0
40
0.0625000000000013
40
0.0625000000000013
40
0.125000000000003
40
0.125000000000003
40
0.156250000000005
40
0.156250000000005
40
0.171875000000008
40
0.171875000000008
40
0.18750000000001
40
0.18750000000001
40
0.250000000000012
40
0.312500000000014
40
0.312500000000014
40
0.328125000000015
40
0.328125000000015
40
0.343750000000015
40
0.375000000000014
40
0.375000000000014
40
0.437500000000013
40
0.437500000000013
40
0.468750000000012
40
0.468750000000012
40
0.484375000000012
40
0.484375000000012
40
0.500000000000011
40
0.500000000000011
40
0.562500000000013
40
0.625000000000014
40
0.625000000000014
40
0.656250000000014
40
0.656250000000014
40
0.687500000000015
40
0.687500000000015
40
0.750000000000013
40
0.750000000000013
40
0.781250000000012
40
0.781250000000012
40
0.812500000000011
40
0.812500000000011
40
0.875000000000005
40
0.9375
40
0.9375
40
0.96875
40
0.96875
40
1
40
1
40
1
40
1
41
1
10
19.525
20
16.230601400091
30
0
41
1
10
19.4868086767864
20
16.175830651572
30
0
41
1
10
19.4445448396319
20
16.1235765324235
30
0
41
1
10
19.3521990361071
20
16.0239672420608
30
0
41
1
10
19.3021160524582
20
15.9766125032621
30
0
41
1
10
19.2210564760524
20
15.9093546103711
30
0
41
1
10
19.1930442844046
20
15.8875663672026
30
0
41
1
10
19.1494984410542
20
15.8558626405861
30
0
41
1
10
19.1347511277164
20
15.8454759050084
30
0
41
1
10
19.1049628319977
20
15.8251800306268
30
0
41
1
10
19.0898980754139
20
15.8152534092799
30
0
41
1
10
19.0137317759039
20
15.7667160545081
30
0
41
1
10
18.8864951980351
20
15.6960418033308
30
0
41
1
10
18.7486948676454
20
15.6392420148952
30
0
41
1
10
18.6591471643889
20
15.6082748474798
30
0
41
1
10
18.6410489738628
20
15.6023047874346
30
0
41
1
10
18.6047758820971
20
15.5909101826729
30
0
41
1
10
18.5501572246839
20
15.5746027417
30
0
41
1
10
18.4949204809177
20
15.5606184533738
30
0
41
1
10
18.3836362034951
20
15.5357049532121
30
0
41
1
10
18.3083690965349
20
15.5231568310926
30
0
41
1
10
18.1938411168124
20
15.5104882763165
30
0
41
1
10
18.1553930438049
20
15.5072941418848
30
0
41
1
10
18.0973032727254
20
15.5040834803131
30
0
41
1
10
18.0778336915312
20
15.5032762999706
30
0
41
1
10
18.0389892022457
20
15.5022030884862
30
0
41
1
10
18.0196072498129
20
15.501935440669
30
0
41
1
10
17.9228961376632
20
15.5019233236847
30
0
41
1
10
17.7694245435128
20
15.5103579761503
30
0
41
1
10
17.6184277702601
20
15.5352979119201
30
0
41
1
10
17.5061358714986
20
15.5603552125928
30
0
41
1
10
17.4688101080099
20
15.5697940766895
30
0
41
1
10
17.3955817251096
20
15.5905211866752
30
0
41
1
10
17.3595427989878
20
15.6018357051644
30
0
41
1
10
17.2531183644443
20
15.6385677492125
30
0
41
1
10
17.1844180034841
20
15.6667623225412
30
0
41
1
10
17.0847421275837
20
15.7145716614806
30
0
41
1
10
17.0520810775454
20
15.7314305538862
30
0
41
1
10
16.9879100751789
20
15.7670218060773
30
0
41
1
10
16.956315762579
20
15.785815182398
30
0
41
1
10
16.8645973188877
20
15.8442281361304
30
0
41
1
10
16.7496965369979
20
15.9278758442663
30
0
41
1
10
16.649167632036
20
16.0225872482432
30
0
41
1
10
16.579294102085
20
16.0978168840039
30
0
41
1
10
16.5568788400374
20
16.1236581486908
30
0
41
1
10
16.5142916605768
20
16.1763492687084
30
0
41
1
10
16.4940955859081
20
16.2032161343921
30
0
41
1
10
16.475
20
16.230601400091
30
0
0
SPLINE
5
16D
100
AcDbEntity
8
1
62
256
6
ByLayer
370
18
48
1
60
0
100
AcDbSpline
70
4
71
3
72
52
73
48
40
0
40
0
40
0
40
0
40
0.0625000000000071
40
0.0625000000000071
40
0.125000000000014
40
0.125000000000014
40
0.156250000000017
40
0.156250000000017
40
0.171875000000019
40
0.171875000000019
40
0.187500000000021
40
0.187500000000021
40
0.25000000000002
40
0.312500000000019
40
0.312500000000019
40
0.328125000000019
40
0.328125000000019
40
0.343750000000018
40
0.375000000000019
40
0.375000000000019
40
0.437500000000022
40
0.437500000000022
40
0.468750000000023
40
0.468750000000023
40
0.484375000000023
40
0.484375000000023
40
0.500000000000024
40
0.500000000000024
40
0.562500000000021
40
0.625000000000018
40
0.625000000000018
40
0.656250000000017
40
0.656250000000017
40
0.687500000000015
40
0.687500000000015
40
0.750000000000012
40
0.750000000000012
40
0.781250000000011
40
0.781250000000011
40
0.81250000000001
40
0.81250000000001
40
0.875000000000007
40
0.937500000000003
40
0.937500000000003
40
0.968750000000002
40
0.968750000000002
40
1
40
1
40
1
40
1
41
1
10
16.475
20
-16.230601400091
30
0
41
1
10
16.5131913232136
20
-16.175830651572
30
0
41
1
10
16.5554551603681
20
-16.1235765324235
30
0
41
1
10
16.6478009638929
20
-16.0239672420608
30
0
41
1
10
16.6978839475418
20
-15.9766125032621
30
0
41
1
10
16.7789435239476
20
-15.9093546103711
30
0
41
1
10
16.8069557155954
20
-15.8875663672025
30
0
41
1
10
16.8505015589458
20
-15.8558626405861
30
0
41
1
10
16.8652488722836
20
-15.8454759050084
30
0
41
1
10
16.8950371680023
20
-15.8251800306267
30
0
41
1
10
16.9101019245861
20
-15.8152534092798
30
0
41
1
10
16.9862682240961
20
-15.7667160545081
30
0
41
1
10
17.1135048019649
20
-15.6960418033308
30
0
41
1
10
17.2513051323546
20
-15.6392420148952
30
0
41
1
10
17.340852835611
20
-15.6082748474797
30
0
41
1
10
17.3589510261372
20
-15.6023047874346
30
0
41
1
10
17.3952241179028
20
-15.5909101826728
30
0
41
1
10
17.4498427753161
20
-15.5746027417
30
0
41
1
10
17.5050795190823
20
-15.5606184533737
30
0
41
1
10
17.6163637965049
20
-15.535704953212
30
0
41
1
10
17.6916309034651
20
-15.5231568310926
30
0
41
1
10
17.8061588831876
20
-15.5104882763164
30
0
41
1
10
17.844606956195
20
-15.5072941418847
30
0
41
1
10
17.9026967272745
20
-15.504083480313
30
0
41
1
10
17.9221663084688
20
-15.5032762999705
30
0
41
1
10
17.9610107977543
20
-15.5022030884861
30
0
41
1
10
17.9803927501871
20
-15.5019354406689
30
0
41
1
10
18.0771038623368
20
-15.5019233236846
30
0
41
1
10
18.2305754935628
20
-15.5103577906518
30
0
41
1
10
18.3815722297399
20
-15.53529791192
30
0
41
1
10
18.4938641285014
20
-15.5603552125928
30
0
41
1
10
18.53118989199
20
-15.5697940766894
30
0
41
1
10
18.6044182748904
20
-15.5905211866751
30
0
41
1
10
18.6404572010122
20
-15.6018357051643
30
0
41
1
10
18.7468816355557
20
-15.6385677492124
30
0
41
1
10
18.8155819965159
20
-15.6667623225411
30
0
41
1
10
18.9152578724163
20
-15.7145716614805
30
0
41
1
10
18.9479189224545
20
-15.7314305538861
30
0
41
1
10
19.0120899248211
20
-15.7670218060772
30
0
41
1
10
19.0436842374209
20
-15.7858151823979
30
0
41
1
10
19.1354026811123
20
-15.8442281361302
30
0
41
1
10
19.2503034630021
20
-15.9278758442662
30
0
41
1
10
19.350832367964
20
-16.022587248243
30
0
41
1
10
19.420705897915
20
-16.0978168840038
30
0
41
1
10
19.4431211599626
20
-16.1236581486907
30
0
41
1
10
19.4857083394232
20
-16.1763492687083
30
0
41
1
10
19.5059044140919
20
-16.203216134392
30
0
41
1
10
19.525
20
-16.2306014000909
30
0
0
SPLINE
5
16E
100
AcDbEntity
8
1
62
256
6
ByLayer
370
18
48
1
60
0
100
AcDbSpline
70
4
71
3
72
52
73
48
40
0
40
0
40
0
40
0
40
0.062500000000009
40
0.062500000000009
40
0.125000000000018
40
0.125000000000018
40
0.156250000000023
40
0.156250000000023
40
0.171875000000023
40
0.171875000000023
40
0.187500000000024
40
0.187500000000024
40
0.250000000000024
40
0.312500000000023
40
0.312500000000023
40
0.328125000000023
40
0.328125000000023
40
0.343750000000023
40
0.375000000000021
40
0.375000000000021
40
0.437500000000016
40
0.437500000000016
40
0.468750000000014
40
0.468750000000014
40
0.484375000000013
40
0.484375000000013
40
0.500000000000012
40
0.500000000000012
40
0.562500000000011
40
0.625000000000009
40
0.625000000000009
40
0.656250000000009
40
0.656250000000009
40
0.687500000000008
40
0.687500000000008
40
0.750000000000007
40
0.750000000000007
40
0.781250000000006
40
0.781250000000006
40
0.812500000000005
40
0.812500000000005
40
0.875000000000004
40
0.937500000000002
40
0.937500000000002
40
0.968750000000001
40
0.968750000000001
40
1
40
1
40
1
40
1
41
1
10
16.475
20
12.1692581906231
30
0
41
1
10
16.5131913232135
20
12.2301178264302
30
0
41
1
10
16.555455160368
20
12.2879054858374
30
0
41
1
10
16.6478009638929
20
12.3976356429975
30
0
41
1
10
16.6978839475418
20
12.4495772220851
30
0
41
1
10
16.7789435239476
20
12.5230948267255
30
0
41
1
10
16.8069557155953
20
12.546865914497
30
0
41
1
10
16.8505015589457
20
12.5813970227831
30
0
41
1
10
16.8652488722836
20
12.5927000911883
30
0
41
1
10
16.8950371680023
20
12.6147685814487
30
0
41
1
10
16.910101924586
20
12.6255530494013
30
0
41
1
10
16.9862682240961
20
12.6782442009625
30
0
41
1
10
17.1135048019649
20
12.7547026658694
30
0
41
1
10
17.2513051323546
20
12.8158336314504
30
0
41
1
10
17.340852835611
20
12.8491049769813
30
0
41
1
10
17.3589510261372
20
12.8555159056377
30
0
41
1
10
17.3952241179028
20
12.8677465650791
30
0
41
1
10
17.4498427753161
20
12.8852420628534
30
0
41
1
10
17.5050795190823
20
12.9002254430041
30
0
41
1
10
17.6163637965048
20
12.9269031973855
30
0
41
1
10
17.691630903465
20
12.9403174920613
30
0
41
1
10
17.8061588831876
20
12.9538557677287
30
0
41
1
10
17.844606956195
20
12.9572677378175
30
0
41
1
10
17.9026967272745
20
12.960697056001
30
0
41
1
10
17.9221663084688
20
12.961559115121
30
0
41
1
10
17.9610107977542
20
12.9627052671934
30
0
41
1
10
17.9803927501871
20
12.9629910870839
30
0
41
1
10
18.0771038623368
20
12.9630040270357
30
0
41
1
10
18.2305754564871
20
12.9539993691372
30
0
41
1
10
18.3815722297398
20
12.9273387610449
30
0
41
1
10
18.4938641285014
20
12.900507472215
30
0
41
1
10
18.53118989199
20
12.8903943389559
30
0
41
1
10
18.6044182748904
20
12.8681661348699
30
0
41
1
10
18.6404572010122
20
12.8560229573153
30
0
41
1
10
18.7468816355557
20
12.8165586143721
30
0
41
1
10
18.8155819965158
20
12.7862158835517
30
0
41
1
10
18.9152578724162
20
12.7346150745764
30
0
41
1
10
18.9479189224545
20
12.7163970509795
30
0
41
1
10
19.012089924821
20
12.6778778580254
30
0
41
1
10
19.0436842374209
20
12.6575102811593
30
0
41
1
10
19.1354026811123
20
12.5940992781155
30
0
41
1
10
19.250303463002
20
12.5030266718522
30
0
41
1
10
19.3508323679639
20
12.3991526888183
30
0
41
1
10
19.420705897915
20
12.3162839933899
30
0
41
1
10
19.4431211599626
20
12.2877612887184
30
0
41
1
10
19.4857083394232
20
12.2294724470794
30
0
41
1
10
19.5059044140918
20
12.1996878878974
30
0
41
1
10
19.525
20
12.1692581906231
30
0
0
SPLINE
5
16F
100
AcDbEntity
8
1
62
256
6
ByLayer
370
18
48
1
60
0
100
AcDbSpline
70
4
71
3
72
52
73
48
40
0
40
0
40
0
40
0
40
0.0625000000000042
40
0.0625000000000042
40
0.125000000000008
40
0.125000000000008
40
0.15625000000001
40
0.15625000000001
40
0.171875000000012
40
0.171875000000012
40
0.187500000000013
40
0.187500000000013
40
0.250000000000023
40
0.312500000000032
40
0.312500000000032
40
0.328125000000034
40
0.328125000000034
40
0.343750000000036
40
0.375000000000037
40
0.375000000000037
40
0.437500000000038
40
0.437500000000038
40
0.468750000000039
40
0.468750000000039
40
0.484375000000039
40
0.484375000000039
40
0.50000000000004
40
0.50000000000004
40
0.562500000000035
40
0.625000000000031
40
0.625000000000031
40
0.656250000000029
40
0.656250000000029
40
0.687500000000027
40
0.687500000000027
40
0.75000000000002
40
0.75000000000002
40
0.781250000000017
40
0.781250000000017
40
0.812500000000014
40
0.812500000000014
40
0.875000000000009
40
0.937500000000003
40
0.937500000000003
40
0.968750000000002
40
0.968750000000002
40
1
40
1
40
1
40
1
41
1
10
19.525
20
-12.169258190623
30
0
41
1
10
19.4868086767864
20
-12.2301178264302
30
0
41
1
10
19.444544839632
20
-12.2879054858373
30
0
41
1
10
19.3521990361071
20
-12.3976356429975
30
0
41
1
10
19.3021160524582
20
-12.449577222085
30
0
41
1
10
19.2210564760524
20
-12.5230948267254
30
0
41
1
10
19.1930442844047
20
-12.5468659144969
30
0
41
1
10
19.1494984410542
20
-12.5813970227831
30
0
41
1
10
19.1347511277164
20
-12.5927000911883
30
0
41
1
10
19.1049628319977
20
-12.6147685814487
30
0
41
1
10
19.0898980754139
20
-12.6255530494012
30
0
41
1
10
19.0137317759039
20
-12.6782442009625
30
0
41
1
10
18.8864951980351
20
-12.7547026658694
30
0
41
1
10
18.7486948676454
20
-12.8158336314504
30
0
41
1
10
18.659147164389
20
-12.8491049769813
30
0
41
1
10
18.6410489738628
20
-12.8555159056377
30
0
41
1
10
18.6047758820972
20
-12.8677465650791
30
0
41
1
10
18.5501572246839
20
-12.8852420628533
30
0
41
1
10
18.4949204809177
20
-12.900225443004
30
0
41
1
10
18.3836362034952
20
-12.9269031973855
30
0
41
1
10
18.3083690965349
20
-12.9403174920612
30
0
41
1
10
18.1938411168124
20
-12.9538557677286
30
0
41
1
10
18.155393043805
20
-12.9572677378174
30
0
41
1
10
18.0973032727255
20
-12.9606970560009
30
0
41
1
10
18.0778336915312
20
-12.9615591151209
30
0
41
1
10
18.0389892022457
20
-12.9627052671933
30
0
41
1
10
18.0196072498129
20
-12.9629910870838
30
0
41
1
10
17.9228961376632
20
-12.9630040270356
30
0
41
1
10
17.7694245064372
20
-12.9539996850597
30
0
41
1
10
17.6184277702601
20
-12.9273387610448
30
0
41
1
10
17.5061358714986
20
-12.9005074722149
30
0
41
1
10
17.46881010801
20
-12.8903943389558
30
0
41
1
10
17.3955817251096
20
-12.8681661348698
30
0
41
1
10
17.3595427989878
20
-12.8560229573152
30
0
41
1
10
17.2531183644443
20
-12.816558614372
30
0
41
1
10
17.1844180034842
20
-12.7862158835515
30
0
41
1
10
17.0847421275837
20
-12.7346150745763
30
0
41
1
10
17.0520810775455
20
-12.7163970509793
30
0
41
1
10
16.9879100751789
20
-12.6778778580253
30
0
41
1
10
16.9563157625791
20
-12.6575102811592
30
0
41
1
10
16.8645973188877
20
-12.5940992781154
30
0
41
1
10
16.749696536998
20
-12.5030266718521
30
0
41
1
10
16.649167632036
20
-12.3991526888182
30
0
41
1
10
16.579294102085
20
-12.3162839933898
30
0
41
1
10
16.5568788400374
20
-12.2877612887183
30
0
41
1
10
16.5142916605768
20
-12.2294724470793
30
0
41
1
10
16.4940955859082
20
-12.1996878878973
30
0
41
1
10
16.475
20
-12.169258190623
30
0
0
SPLINE
5
170
100
AcDbEntity
8
1
62
256
6
ByLayer
370
18
48
1
60
0
100
AcDbSpline
70
2053
71
3
72
145
73
141
40
0
40
0
40
0
40
0
40
0.015625000000002
40
0.0312500000000039
40
0.0468750000000059
40
0.0468750000000059
40
0.0546875000000074
40
0.0546875000000074
40
0.0625000000000089
40
0.0625000000000089
40
0.0937500000000153
40
0.0937500000000153
40
0.101562500000017
40
0.101562500000017
40
0.109375000000019
40
0.109375000000019
40
0.125000000000023
40
0.125000000000023
40
0.15625000000003
40
0.15625000000003
40
0.164062500000031
40
0.164062500000031
40
0.171875000000033
40
0.171875000000033
40
0.187500000000036
40
0.203125000000039
40
0.203125000000039
40
0.21093750000004
40
0.21093750000004
40
0.218750000000042
40
0.218750000000042
40
0.250000000000049
40
0.250000000000049
40
0.265625000000052
40
0.265625000000052
40
0.273437500000053
40
0.273437500000053
40
0.281250000000055
40
0.281250000000055
40
0.296875000000057
40
0.312500000000059
40
0.312500000000059
40
0.320312500000059
40
0.324218750000059
40
0.324218750000059
40
0.328125000000059
40
0.328125000000059
40
0.34375000000006
40
0.359375000000061
40
0.375000000000061
40
0.375000000000061
40
0.382812500000061
40
0.382812500000061
40
0.390625000000061
40
0.390625000000061
40
0.406250000000062
40
0.421875000000062
40
0.421875000000062
40
0.429687500000063
40
0.429687500000063
40
0.437500000000063
40
0.437500000000063
40
0.453125000000063
40
0.468750000000063
40
0.468750000000063
40
0.476562500000063
40
0.476562500000063
40
0.484375000000063
40
0.484375000000063
40
0.500000000000062
40
0.515625000000061
40
0.515625000000061
40
0.531250000000061
40
0.531250000000061
40
0.54687500000006
40
0.562500000000059
40
0.578125000000059
40
0.578125000000059
40
0.582031250000058
40
0.582031250000058
40
0.585937500000057
40
0.585937500000057
40
0.593750000000057
40
0.593750000000057
40
0.625000000000056
40
0.625000000000056
40
0.632812500000055
40
0.632812500000055
40
0.640625000000054
40
0.640625000000054
40
0.656250000000053
40
0.656250000000053
40
0.68750000000005
40
0.68750000000005
40
0.69531250000005
40
0.69531250000005
40
0.70312500000005
40
0.70312500000005
40
0.71875000000005
40
0.73437500000005
40
0.75000000000005
40
0.75000000000005
40
0.75781250000005
40
0.75781250000005
40
0.765625000000051
40
0.765625000000051
40
0.781250000000051
40
0.796875000000051
40
0.796875000000051
40
0.804687500000051
40
0.804687500000051
40
0.812500000000051
40
0.812500000000051
40
0.828125000000049
40
0.843750000000048
40
0.843750000000048
40
0.859375000000046
40
0.859375000000046
40
0.863281250000045
40
0.863281250000045
40
0.867187500000045
40
0.875000000000042
40
0.875000000000042
40
0.890625000000038
40
0.906250000000034
40
0.906250000000034
40
0.914062500000031
40
0.914062500000031
40
0.921875000000029
40
0.921875000000029
40
0.937500000000023
40
0.953125000000018
40
0.953125000000018
40
0.960937500000015
40
0.960937500000015
40
0.968750000000013
40
0.968750000000013
40
0.984375000000006
40
0.984375000000006
40
1
40
1
40
1
40
1
41
1
10
32.2007223334824
20
21.0420343186639
30
0
41
1
10
32.2482329812728
20
21.075703606936
30
0
41
1
10
32.3482580731145
20
21.1394495081299
30
0
41
1
10
32.5127045243722
20
21.2249359830356
30
0
41
1
10
32.6318282339544
20
21.2753924167734
30
0
41
1
10
32.7247928495877
20
21.3107939435492
30
0
41
1
10
32.756214789862
20
21.3221205664442
30
0
41
1
10
32.8197223385577
20
21.343788606687
30
0
41
1
10
32.8518376400256
20
21.3541413402597
30
0
41
1
10
33.0141894422219
20
21.4035608423421
30
0
41
1
10
33.1497025855528
20
21.435665156892
30
0
41
1
10
33.3261251247954
20
21.4667725923841
30
0
41
1
10
33.3617702255454
20
21.4725394650928
30
0
41
1
10
33.4337580151295
20
21.4831476527819
30
0
41
1
10
33.4698318069143
20
21.4879495420535
30
0
41
1
10
33.5782876178716
20
21.500887735464
30
0
41
1
10
33.6509035382291
20
21.5075603152165
30
0
41
1
10
33.8696661265947
20
21.5218867940426
30
0
41
1
10
34.0167191546369
20
21.5239084265787
30
0
41
1
10
34.2021057893783
20
21.5166914531267
30
0
41
1
10
34.2391121108715
20
21.5147601047954
30
0
41
1
10
34.3125770692964
20
21.5099548398067
30
0
41
1
10
34.3490993340868
20
21.5070785698924
30
0
41
1
10
34.4580440319488
20
21.4970444763499
30
0
41
1
10
34.6016471266162
20
21.4799240965161
30
0
41
1
10
34.7419588723086
20
21.4553125648316
30
0
41
1
10
34.8459319231373
20
21.4339536443815
30
0
41
1
10
34.8803791190563
20
21.4263497040393
30
0
41
1
10
34.9488434613267
20
21.4101461021914
30
0
41
1
10
34.9828939201125
20
21.4015341702166
30
0
41
1
10
35.1502350582511
20
21.3564148415583
30
0
41
1
10
35.2763126496629
20
21.3134736286026
30
0
41
1
10
35.4538507109652
20
21.2385190839803
30
0
41
1
10
35.5110870376568
20
21.211764650248
30
0
41
1
10
35.5939129778627
20
21.168820883029
30
0
41
1
10
35.6210912131408
20
21.1539917059041
30
0
41
1
10
35.6739288876573
20
21.1236356442038
30
0
41
1
10
35.6996029223008
20
21.1081065202584
30
0
41
1
10
35.7744213532324
20
21.0604670633724
30
0
41
1
10
35.868311784403
20
20.994145688796
30
0
41
1
10
35.9505323695699
20
20.9221137250421
30
0
41
1
10
36.0077148262909
20
20.8658462431492
30
0
41
1
10
36.0351834500861
20
20.8371507396215
30
0
41
1
10
36.0609274033809
20
20.8075833774919
30
0
41
1
10
36.0777010084592
20
20.7876741961645
30
0
41
1
10
36.0858972157799
20
20.7776146840618
30
0
41
1
10
36.1256545709286
20
20.7271214980833
30
0
41
1
10
36.1818600801012
20
20.6446218193725
30
0
41
1
10
36.2444542052023
20
20.5157103640895
30
0
41
1
10
36.2716229051749
20
20.4262321477298
30
0
41
1
10
36.286336418567
20
20.3577282763499
30
0
41
1
10
36.2902960229004
20
20.3346139195443
30
0
41
1
10
36.2962159986625
20
20.2884576385075
30
0
41
1
10
36.2981930610933
20
20.2653567183901
30
0
41
1
10
36.3012271957714
20
20.1959854088025
30
0
41
1
10
36.297560824424
20
20.1033071088715
30
0
41
1
10
36.2786642148496
20
20.0102734624728
30
0
41
1
10
36.2586803758931
20
19.9403759197834
30
0
41
1
10
36.2510448490972
20
19.9170459179168
30
0
41
1
10
36.2338094335045
20
19.8703909322363
30
0
41
1
10
36.2242795304104
20
19.8472528933889
30
0
41
1
10
36.1930215755786
20
19.7783992045731
30
0
41
1
10
36.1442447860056
20
19.6880852359412
30
0
41
1
10
36.0816508246832
20
19.600755134517
30
0
41
1
10
36.0295116124258
20
19.5364178855003
30
0
41
1
10
36.011264663434
20
19.5151659429826
30
0
41
1
10
35.9730146732163
20
19.4730618590419
30
0
41
1
10
35.9529859730913
20
19.4521908718535
30
0
41
1
10
35.8909321997489
20
19.3908744220443
30
0
41
1
10
35.8025640997628
20
19.3121072338007
30
0
41
1
10
35.7033388602952
20
19.2392258035906
30
0
41
1
10
35.598723864346
20
19.1693308447738
30
0
41
1
10
35.5436818812759
20
19.1358544584393
30
0
41
1
10
35.428249217841
20
19.0721109265488
30
0
41
1
10
35.3091555302604
20
19.0124966854365
30
0
41
1
10
35.1199892348044
20
18.9351288889783
30
0
41
1
10
34.9869582559934
20
18.8915855266704
30
0
41
1
10
34.9016200233998
20
18.8669495758157
30
0
41
1
10
34.884442439243
20
18.8621515892754
30
0
41
1
10
34.8498656149401
20
18.8528168276041
30
0
41
1
10
34.8324467041826
20
18.8482753658278
30
0
41
1
10
34.7801011741107
20
18.8351082724688
30
0
41
1
10
34.7450315322042
20
18.8269235338785
30
0
41
1
10
34.5688385183455
20
18.7889155879134
30
0
41
1
10
34.4252037869694
20
18.7677665054484
30
0
41
1
10
34.2423612137513
20
18.752851554957
30
0
41
1
10
34.2056263159633
20
18.7504491651618
30
0
41
1
10
34.131819268866
20
18.7468227262351
30
0
41
1
10
34.0946792273361
20
18.7455977324634
30
0
41
1
10
33.9832091916813
20
18.7437344733482
30
0
41
1
10
33.9093753834747
20
18.744903447447
30
0
41
1
10
33.6892676716575
20
18.7554137012317
30
0
41
1
10
33.5443749802793
20
18.7717013086969
30
0
41
1
10
33.3656113277134
20
18.8037878511528
30
0
41
1
10
33.3299772168174
20
18.8107961153851
30
0
41
1
10
33.2589516049818
20
18.8260170362313
30
0
41
1
10
33.2237475893603
20
18.8341912501912
30
0
41
1
10
33.1194820130154
20
18.8602735276676
30
0
41
1
10
32.9836720468487
20
18.8992798841781
30
0
41
1
10
32.7894402151898
20
18.9701480174108
30
0
41
1
10
32.666346752456
20
19.0256224590172
30
0
41
1
10
32.5765245066485
20
19.0703974803212
30
0
41
1
10
32.5469919848631
20
19.0858618897299
30
0
41
1
10
32.4894325415304
20
19.117499359152
30
0
41
1
10
32.4613195915399
20
19.1337136950442
30
0
41
1
10
32.3789576542466
20
19.183517529944
30
0
41
1
10
32.2744044125716
20
19.2530127732321
30
0
41
1
10
32.1803572454603
20
19.3285482068697
30
0
41
1
10
32.1138718071649
20
19.3874796629026
30
0
41
1
10
32.0923862229412
20
19.4075041646066
30
0
41
1
10
32.0508020716998
20
19.4483260509185
30
0
41
1
10
32.0306652187863
20
19.4691707191281
30
0
41
1
10
31.9730442111449
20
19.5321601242067
30
0
41
1
10
31.9032225333725
20
19.6177310860058
30
0
41
1
10
31.8471517988694
20
19.7063021034605
30
0
41
1
10
31.7980315290651
20
19.7963423583324
30
0
41
1
10
31.776945727083
20
19.8420969592482
30
0
41
1
10
31.7551138862022
20
19.9002232589361
30
0
41
1
10
31.7509685804115
20
19.9119132551286
30
0
41
1
10
31.7431712223575
20
19.9352873780166
30
0
41
1
10
31.7322172946328
20
19.9703267076282
30
0
41
1
10
31.7234635134073
20
20.0052991784703
30
0
41
1
10
31.7088443573301
20
20.0751523007994
30
0
41
1
10
31.6970419900067
20
20.1680445020947
30
0
41
1
10
31.7004912837879
20
20.2604282733667
30
0
41
1
10
31.7089235025822
20
20.3295237315035
30
0
41
1
10
31.7127160658519
20
20.3525509282184
30
0
41
1
10
31.7222729214018
20
20.3984252828645
30
0
41
1
10
31.7280034839208
20
20.4211225652837
30
0
41
1
10
31.747984070973
20
20.4885157514028
30
0
41
1
10
31.782046033197
20
20.5765137665081
30
0
41
1
10
31.8305897057476
20
20.6609449431751
30
0
41
1
10
31.8724560061892
20
20.7229567379899
30
0
41
1
10
31.8873228682147
20
20.7434084229786
30
0
41
1
10
31.9189048769697
20
20.7838744658536
30
0
41
1
10
31.9356303176771
20
20.8038925884236
30
0
41
1
10
31.9880888800899
20
20.862717298072
30
0
41
1
10
32.0262472829796
20
20.9004980033985
30
0
41
1
10
32.1087970879582
20
20.9733138081408
30
0
41
1
10
32.153211685692
20
21.0083650303919
30
0
41
1
10
32.2007223334824
20
21.0420343186639
30
0
0
SPLINE
5
171
100
AcDbEntity
8
1
62
256
6
ByLayer
370
18
48
1
60
0
100
AcDbSpline
70
2053
71
3
72
156
73
152
40
0
40
0
40
0
40
0
40
0.0156249999999998
40
0.0312499999999997
40
0.0468749999999995
40
0.0468749999999995
40
0.0546874999999998
40
0.0546874999999998
40
0.0625
40
0.0625
40
0.078124999999999
40
0.093749999999998
40
0.093749999999998
40
0.0976562499999976
40
0.0976562499999976
40
0.101562499999997
40
0.101562499999997
40
0.109374999999996
40
0.109374999999996
40
0.124999999999996
40
0.140624999999995
40
0.140624999999995
40
0.148437499999994
40
0.148437499999994
40
0.152343749999994
40
0.152343749999994
40
0.156249999999995
40
0.171874999999995
40
0.187499999999995
40
0.187499999999995
40
0.195312499999996
40
0.199218749999996
40
0.199218749999996
40
0.203124999999996
40
0.203124999999996
40
0.218749999999996
40
0.234374999999997
40
0.249999999999997
40
0.249999999999997
40
0.253906249999997
40
0.253906249999997
40
0.257812499999998
40
0.265624999999997
40
0.265624999999997
40
0.281249999999997
40
0.296874999999997
40
0.296874999999997
40
0.304687499999998
40
0.304687499999998
40
0.312499999999999
40
0.312499999999999
40
0.343750000000006
40
0.343750000000006
40
0.359375000000009
40
0.359375000000009
40
0.36328125000001
40
0.36328125000001
40
0.36718750000001
40
0.37500000000001
40
0.37500000000001
40
0.406250000000008
40
0.406250000000008
40
0.414062500000008
40
0.414062500000008
40
0.421875000000008
40
0.421875000000008
40
0.437500000000007
40
0.453125000000006
40
0.468750000000006
40
0.468750000000006
40
0.472656250000005
40
0.472656250000005
40
0.476562500000005
40
0.476562500000005
40
0.484375000000005
40
0.484375000000005
40
0.500000000000004
40
0.515625000000003
40
0.515625000000003
40
0.523437500000003
40
0.527343750000003
40
0.527343750000003
40
0.531250000000003
40
0.531250000000003
40
0.546875000000003
40
0.562500000000002
40
0.578125000000002
40
0.578125000000002
40
0.582031250000002
40
0.582031250000002
40
0.585937500000002
40
0.585937500000002
40
0.593750000000002
40
0.593750000000002
40
0.609375000000002
40
0.625000000000002
40
0.625000000000002
40
0.632812500000002
40
0.632812500000002
40
0.636718750000002
40
0.636718750000002
40
0.640625000000002
40
0.656250000000002
40
0.671875000000002
40
0.671875000000002
40
0.679687500000003
40
0.683593750000004
40
0.683593750000004
40
0.687500000000004
40
0.687500000000004
40
0.703125000000003
40
0.718750000000003
40
0.734375000000002
40
0.734375000000002
40
0.738281250000002
40
0.738281250000002
40
0.742187500000002
40
0.750000000000002
40
0.750000000000002
40
0.781250000000002
40
0.781250000000002
40
0.789062500000002
40
0.789062500000002
40
0.796875000000002
40
0.796875000000002
40
0.8125
40
0.828124999999999
40
0.828124999999999
40
0.843749999999998
40
0.843749999999998
40
0.874999999999993
40
0.874999999999993
40
0.890624999999992
40
0.890624999999992
40
0.898437499999991
40
0.898437499999991
40
0.902343749999991
40
0.902343749999991
40
0.90624999999999
40
0.90624999999999
40
0.937499999999992
40
0.937499999999992
40
0.953124999999993
40
0.953124999999993
40
0.960937499999994
40
0.960937499999994
40
0.968749999999995
40
0.968749999999995
40
0.984374999999998
40
0.984374999999998
40
1
40
1
40
1
40
1
41
1
10
32.2460507588723
20
-21.0731136078863
30
0
41
1
10
32.1967762135467
20
-21.0404214507159
30
0
41
1
10
32.1045240337429
20
-20.9723769277368
30
0
41
1
10
31.9847015686396
20
-20.8622625230896
30
0
41
1
10
31.9173231082444
20
-20.7833007337389
30
0
41
1
10
31.8716768388869
20
-20.7218641331542
30
0
41
1
10
31.8573759197189
20
-20.7011442907935
30
0
41
1
10
31.8306684302602
20
-20.6593581727776
30
0
41
1
10
31.8182457575495
20
-20.6382702910942
30
0
41
1
10
31.7837397096155
20
-20.5744204258866
30
0
41
1
10
31.7450866811626
20
-20.4877252715677
30
0
41
1
10
31.7211423929541
20
-20.3978361251941
30
0
41
1
10
31.7109152376936
20
-20.3406123011362
30
0
41
1
10
31.7091072870669
20
-20.3291152849858
30
0
41
1
10
31.7059722923146
20
-20.3060152231093
30
0
41
1
10
31.7046441998979
20
-20.2943961000398
30
0
41
1
10
31.7014068546658
20
-20.2595681757222
30
0
41
1
10
31.700235921923
20
-20.236350145771
30
0
41
1
10
31.6996248220468
20
-20.1666969361995
30
0
41
1
10
31.7065329342166
20
-20.0738275750286
30
0
41
1
10
31.7286098807515
20
-19.9809737829655
30
0
41
1
10
31.7509230803231
20
-19.9113546853806
30
0
41
1
10
31.7593218251988
20
-19.8881519727552
30
0
41
1
10
31.7733865470694
20
-19.8533563959684
30
0
41
1
10
31.7783262325983
20
-19.8417449370478
30
0
41
1
10
31.7886423938656
20
-19.8186497030723
30
0
41
1
10
31.8155501380617
20
-19.7611771150077
30
0
41
1
10
31.873840595133
20
-19.6600804106851
30
0
41
1
10
31.939228223944
20
-19.5735447930786
30
0
41
1
10
31.993345951677
20
-19.5099276575124
30
0
41
1
10
32.0216762022407
20
-19.4784408498036
30
0
41
1
10
32.0519332637205
20
-19.4474500965133
30
0
41
1
10
32.0725362524531
20
-19.4269016952371
30
0
41
1
10
32.0830593268552
20
-19.4166788730581
30
0
41
1
10
32.1364639525505
20
-19.3661275637624
30
0
41
1
10
32.2273764838838
20
-19.2883909590777
30
0
41
1
10
32.3794860107498
20
-19.1810335322156
30
0
41
1
10
32.4912645086226
20
-19.1156834714077
30
0
41
1
10
32.5644248499873
20
-19.0768593789334
30
0
41
1
10
32.5792402151596
20
-19.0691869825484
30
0
41
1
10
32.6090636187767
20
-19.0541174744805
30
0
41
1
10
32.6541184603537
20
-19.0319089290655
30
0
41
1
10
32.7001191359484
20
-19.0108754080671
30
0
41
1
10
32.793356687594
20
-18.9703551119883
30
0
41
1
10
32.9209637250271
20
-18.9204458124828
30
0
41
1
10
33.0550333161782
20
-18.8787318632088
30
0
41
1
10
33.1580333623017
20
-18.8505866078556
30
0
41
1
10
33.1927753931499
20
-18.8417290718303
30
0
41
1
10
33.2630897276043
20
-18.8250843002138
30
0
41
1
10
33.2985155167059
20
-18.8173339475265
30
0
41
1
10
33.4760526709925
20
-18.781602891209
30
0
41
1
10
33.6202772829735
20
-18.762392789637
30
0
41
1
10
33.8398273470133
20
-18.7474397742029
30
0
41
1
10
33.9135498949679
20
-18.7447801411845
30
0
41
1
10
34.0063970643539
20
-18.7444518161042
30
0
41
1
10
34.0250168165204
20
-18.7445368068436
30
0
41
1
10
34.0621391651513
20
-18.7450067782837
30
0
41
1
10
34.117708546899
20
-18.7461610942672
30
0
41
1
10
34.1729392963081
20
-18.748648414838
30
0
41
1
10
34.3563002863906
20
-18.7598558465607
30
0
41
1
10
34.5006364434804
20
-18.7780818210815
30
0
41
1
10
34.6780865493621
20
-18.812443735582
30
0
41
1
10
34.7134267949056
20
-18.8198996355383
30
0
41
1
10
34.7838017050274
20
-18.8359974615228
30
0
41
1
10
34.8189024267516
20
-18.8446596151456
30
0
41
1
10
34.9226697154234
20
-18.8721681756567
30
0
41
1
10
35.0575510739552
20
-18.9130165179328
30
0
41
1
10
35.2496612097658
20
-18.9864037622207
30
0
41
1
10
35.3708819946289
20
-19.0433511866187
30
0
41
1
10
35.4444256322073
20
-19.081503489627
30
0
41
1
10
35.4590231267115
20
-19.0892622461703
30
0
41
1
10
35.4879925927572
20
-19.1050388771783
30
0
41
1
10
35.5023792116964
20
-19.1130655515119
30
0
41
1
10
35.5449669332046
20
-19.13740564138
30
0
41
1
10
35.5726610840031
20
-19.1540126472277
30
0
41
1
10
35.6536810048626
20
-19.2049457492455
30
0
41
1
10
35.7562161045534
20
-19.2758167861811
30
0
41
1
10
35.8478479165829
20
-19.3524368986014
30
0
41
1
10
35.9123913971793
20
-19.4120581941163
30
0
41
1
10
35.9436163226629
20
-19.4424088044107
30
0
41
1
10
35.9732347428164
20
-19.4735793252101
30
0
41
1
10
35.9926181859936
20
-19.4945435621975
30
0
41
1
10
36.0021425616731
20
-19.50513356932
30
0
41
1
10
36.0486527170963
20
-19.5583276856973
30
0
41
1
10
36.1158781743186
20
-19.644845866826
30
0
41
1
10
36.1956598757456
20
-19.778582621115
30
0
41
1
10
36.2347453704325
20
-19.870302359862
30
0
41
1
10
36.2546094809361
20
-19.9284344360324
30
0
41
1
10
36.2583535202952
20
-19.940101338631
30
0
41
1
10
36.2653777347993
20
-19.9635168035736
30
0
41
1
10
36.2686579378212
20
-19.9752689916774
30
0
41
1
10
36.2777407461736
20
-20.0104308511231
30
0
41
1
10
36.2828088281734
20
-20.0338176647934
30
0
41
1
10
36.2951058644428
20
-20.1038142739179
30
0
41
1
10
36.3037633958621
20
-20.1967061111721
30
0
41
1
10
36.297160416971
20
-20.2887200992193
30
0
41
1
10
36.286394123946
20
-20.3574008383679
30
0
41
1
10
36.2818345636966
20
-20.3802394686703
30
0
41
1
10
36.2735105538654
20
-20.4144150065514
30
0
41
1
10
36.2704845422621
20
-20.4258039586658
30
0
41
1
10
36.263971887536
20
-20.4484238086901
30
0
41
1
10
36.2465171637741
20
-20.5046494016478
30
0
41
1
10
36.2047424839838
20
-20.6030017672037
30
0
41
1
10
36.1533145444236
20
-20.6865543720426
30
0
41
1
10
36.1093841702467
20
-20.7478017037648
30
0
41
1
10
36.0860768760919
20
-20.7780706005108
30
0
41
1
10
36.0607330568442
20
-20.8078088861883
30
0
41
1
10
36.0433806920426
20
-20.8275163952295
30
0
41
1
10
36.0344767972923
20
-20.8373093720267
30
0
41
1
10
35.9890700676611
20
-20.8857059808591
30
0
41
1
10
35.9103755547879
20
-20.9599659182464
30
0
41
1
10
35.7749139394692
20
-21.0623965614358
30
0
41
1
10
35.6731176271538
20
-21.1249108775861
30
0
41
1
10
35.6058368237971
20
-21.1621895481941
30
0
41
1
10
35.5921955970864
20
-21.1695557081226
30
0
41
1
10
35.5646932301099
20
-21.1840314249567
30
0
41
1
10
35.5230555963311
20
-21.2053901184795
30
0
41
1
10
35.4802817049921
20
-21.225704110651
30
0
41
1
10
35.3352266001886
20
-21.2911634332008
30
0
41
1
10
35.2113310047728
20
-21.3363844984914
30
0
41
1
10
35.0467124127666
20
-21.3843610762683
30
0
41
1
10
35.0132631674998
20
-21.3935334444473
30
0
41
1
10
34.945507859011
20
-21.410971467702
30
0
41
1
10
34.9113962089582
20
-21.4191882936949
30
0
41
1
10
34.8083752542559
20
-21.4423762586222
30
0
41
1
10
34.6691883926914
20
-21.4694026656105
30
0
41
1
10
34.5264383343395
20
-21.4889214973578
30
0
41
1
10
34.381901152013
20
-21.5047076865459
30
0
41
1
10
34.3086929260375
20
-21.5107372643193
30
0
41
1
10
34.0865854323502
20
-21.5230682187852
30
0
41
1
10
33.9394506613629
20
-21.5234471651845
30
0
41
1
10
33.7200974955008
20
-21.512729635272
30
0
41
1
10
33.6472061931472
20
-21.5072612137224
30
0
41
1
10
33.5382159950999
20
-21.496140744282
30
0
41
1
10
33.5019438200598
20
-21.4919466854764
30
0
41
1
10
33.4476242339055
20
-21.4849065195127
30
0
41
1
10
33.429528968016
20
-21.4824339561865
30
0
41
1
10
33.3935606773208
20
-21.4772644647616
30
0
41
1
10
33.3756634770436
20
-21.4745645349812
30
0
41
1
10
33.2153641463953
20
-21.4492352746632
30
0
41
1
10
33.0783401608016
20
-21.4194699858169
30
0
41
1
10
32.8809277684283
20
-21.3637575801596
30
0
41
1
10
32.816486723777
20
-21.343329336139
30
0
41
1
10
32.721949125733
20
-21.3097456562925
30
0
41
1
10
32.6907479920118
20
-21.2980398668458
30
0
41
1
10
32.6296607135097
20
-21.2738496809816
30
0
41
1
10
32.5997048609804
20
-21.2613424176548
30
0
41
1
10
32.5115884052447
20
-21.2225797979018
30
0
41
1
10
32.4551746580784
20
-21.1950867523058
30
0
41
1
10
32.347045077934
20
-21.136700604594
30
0
41
1
10
32.2953253041979
20
-21.1058057650567
30
0
41
1
10
32.2460507588723
20
-21.0731136078863
30
0
0
SPLINE
5
172
100
AcDbEntity
8
1
62
256
6
ByLayer
370
18
48
1
60
0
100
AcDbSpline
70
2053
71
3
72
208
73
204
40
0
40
0
40
0
40
0
40
0.0156250000000008
40
0.0156250000000008
40
0.0312500000000016
40
0.0312500000000016
40
0.0468750000000024
40
0.0468750000000024
40
0.0625000000000032
40
0.0625000000000032
40
0.078125000000004
40
0.078125000000004
40
0.0859375000000043
40
0.0859375000000043
40
0.0898437500000046
40
0.0898437500000046
40
0.0917968750000046
40
0.0917968750000046
40
0.0937500000000047
40
0.109375000000006
40
0.125000000000006
40
0.125000000000006
40
0.132812500000007
40
0.132812500000007
40
0.134765625000007
40
0.134765625000007
40
0.136718750000007
40
0.136718750000007
40
0.140625000000007
40
0.140625000000007
40
0.156250000000008
40
0.156250000000008
40
0.171875000000009
40
0.171875000000009
40
0.175781250000009
40
0.175781250000009
40
0.179687500000009
40
0.179687500000009
40
0.187500000000009
40
0.187500000000009
40
0.20312500000001
40
0.20312500000001
40
0.210937500000011
40
0.210937500000011
40
0.214843750000011
40
0.214843750000011
40
0.218750000000011
40
0.218750000000011
40
0.234375000000011
40
0.234375000000011
40
0.250000000000011
40
0.250000000000011
40
0.265625000000011
40
0.265625000000011
40
0.269531250000011
40
0.269531250000011
40
0.273437500000011
40
0.28125000000001
40
0.28125000000001
40
0.29687500000001
40
0.29687500000001
40
0.312500000000009
40
0.312500000000009
40
0.320312500000009
40
0.320312500000009
40
0.324218750000009
40
0.324218750000009
40
0.328125000000009
40
0.328125000000009
40
0.343750000000009
40
0.343750000000009
40
0.359375000000008
40
0.375000000000007
40
0.375000000000007
40
0.382812500000007
40
0.382812500000007
40
0.386718750000006
40
0.386718750000006
40
0.390625000000006
40
0.390625000000006
40
0.406250000000005
40
0.421875000000004
40
0.421875000000004
40
0.437500000000002
40
0.437500000000002
40
0.445312500000002
40
0.445312500000002
40
0.449218750000002
40
0.449218750000002
40
0.453125000000002
40
0.453125000000002
40
0.468750000000001
40
0.468750000000001
40
0.484375
40
0.484375
40
0.499999999999999
40
0.499999999999999
40
0.507812499999998
40
0.507812499999998
40
0.509765624999998
40
0.509765624999998
40
0.511718749999998
40
0.515624999999998
40
0.515624999999998
40
0.531249999999997
40
0.531249999999997
40
0.546874999999996
40
0.546874999999996
40
0.554687499999996
40
0.554687499999996
40
0.558593749999996
40
0.558593749999996
40
0.562499999999996
40
0.562499999999996
40
0.578124999999995
40
0.578124999999995
40
0.593749999999995
40
0.593749999999995
40
0.601562499999995
40
0.601562499999995
40
0.605468749999995
40
0.607421874999995
40
0.607421874999995
40
0.609374999999995
40
0.609374999999995
40
0.624999999999995
40
0.624999999999995
40
0.640624999999994
40
0.640624999999994
40
0.648437499999994
40
0.648437499999994
40
0.650390624999994
40
0.650390624999994
40
0.652343749999994
40
0.652343749999994
40
0.656249999999994
40
0.656249999999994
40
0.671874999999993
40
0.671874999999993
40
0.687499999999992
40
0.687499999999992
40
0.691406249999992
40
0.691406249999992
40
0.693359374999992
40
0.693359374999992
40
0.695312499999992
40
0.703124999999992
40
0.703124999999992
40
0.718749999999992
40
0.718749999999992
40
0.734374999999992
40
0.734374999999992
40
0.738281249999992
40
0.738281249999992
40
0.742187499999992
40
0.749999999999992
40
0.749999999999992
40
0.765624999999992
40
0.765624999999992
40
0.781249999999991
40
0.781249999999991
40
0.785156249999991
40
0.785156249999991
40
0.789062499999991
40
0.789062499999991
40
0.79687499999999
40
0.79687499999999
40
0.81249999999999
40
0.81249999999999
40
0.82812499999999
40
0.84374999999999
40
0.84374999999999
40
0.84765624999999
40
0.84765624999999
40
0.85156249999999
40
0.85937499999999
40
0.85937499999999
40
0.874999999999991
40
0.890624999999991
40
0.890624999999991
40
0.906249999999991
40
0.906249999999991
40
0.910156249999992
40
0.910156249999992
40
0.914062499999992
40
0.921874999999992
40
0.921874999999992
40
0.937499999999993
40
0.937499999999993
40
0.953124999999995
40
0.953124999999995
40
0.968749999999996
40
0.968749999999996
40
0.972656249999996
40
0.972656249999996
40
0.976562499999997
40
0.984374999999998
40
0.992187499999999
40
0.992187499999999
40
0.996093749999999
40
0.998046875
40
0.998046875
40
1
40
1
40
1
40
1
41
1
10
53.2625900255604
20
-6.02924665315996
30
0
41
1
10
53.0331316431006
20
-5.8403611706714
30
0
41
1
10
52.8142510293231
20
-5.64194646493027
30
0
41
1
10
52.3978686622137
20
-5.2256100871347
30
0
41
1
10
52.2003634749989
20
-5.00769203339874
30
0
41
1
10
51.827693220247
20
-4.55122767060607
30
0
41
1
10
51.6525196082772
20
-4.31268976424846
30
0
41
1
10
51.3263834749055
20
-3.81301806371801
30
0
41
1
10
51.1782804516916
20
-3.55623484291073
30
0
41
1
10
50.9124647660357
20
-3.02849164818844
30
0
41
1
10
50.7947431004297
20
-2.75752752650311
30
0
41
1
10
50.642080531297
20
-2.33983417508961
30
0
41
1
10
50.5951884946952
20
-2.19872452262493
30
0
41
1
10
50.531076055434
20
-1.984125187264
30
0
41
1
10
50.510743525426
20
-1.91210262074773
30
0
41
1
10
50.4818378285929
20
-1.80331691313839
30
0
41
1
10
50.4724598869295
20
-1.76689553183331
30
0
41
1
10
50.4542954863994
20
-1.694021776657
30
0
41
1
10
50.3752080449593
20
-1.36588305990591
30
0
41
1
10
50.2704191214569
20
-0.742584569250909
30
0
41
1
10
50.2453422523919
20
-0.150195059318435
30
0
41
1
10
50.2546291400571
20
0.296297139425661
30
0
41
1
10
50.2624166658244
20
0.445495247477851
30
0
41
1
10
50.2781453688662
20
0.632462038866947
30
0
41
1
10
50.2815910364091
20
0.669878870614696
30
0
41
1
10
50.2890863301069
20
0.744759793627395
30
0
41
1
10
50.2931377301266
20
0.782233414548131
30
0
41
1
10
50.3061504701865
20
0.894294261062129
30
0
41
1
10
50.3159833813361
20
0.968663725226946
30
0
41
1
10
50.3708319293951
20
1.33885366462985
30
0
41
1
10
50.4328466947894
20
1.62971671896273
30
0
41
1
10
50.5913592323311
20
2.20142096310195
30
0
41
1
10
50.6878627938449
20
2.48226041947675
30
0
41
1
10
50.8297022122299
20
2.82717841196453
30
0
41
1
10
50.8591334137529
20
2.89585466859293
30
0
41
1
10
50.9201249639125
20
3.03259277784764
30
0
41
1
10
50.9515908428504
20
3.10043908185844
30
0
41
1
10
51.0486300018658
20
3.302002325291
30
0
41
1
10
51.1169280347123
20
3.43393815317756
30
0
41
1
10
51.3322045455913
20
3.82274826226293
30
0
41
1
10
51.4895339560852
20
4.07264597478152
30
0
41
1
10
51.7451601893586
20
4.43438406404317
30
0
41
1
10
51.8336492312902
20
4.55277319020232
30
0
41
1
10
51.9712363282977
20
4.72713314347504
30
0
41
1
10
52.0179080644927
20
4.78471554564246
30
0
41
1
10
52.1128643912521
20
4.89881202988866
30
0
41
1
10
52.1611940465292
20
4.95537721758089
30
0
41
1
10
52.4063455670149
20
5.23495060569002
30
0
41
1
10
52.6123617471841
20
5.44682598209474
30
0
41
1
10
53.0428429807393
20
5.84888377530405
30
0
41
1
10
53.267314052268
20
6.03905847348301
30
0
41
1
10
53.7340837486549
20
6.39872131755234
30
0
41
1
10
53.9763846822225
20
6.56820625232751
30
0
41
1
10
54.2903762638703
20
6.76733560304584
30
0
41
1
10
54.3536083349679
20
6.80644403074248
30
0
41
1
10
54.4806795061567
20
6.88309603392796
30
0
41
1
10
54.672314848692
20
6.99579887581922
30
0
41
1
10
54.8669918749635
20
7.10179712437181
30
0
41
1
10
55.2603192211785
20
7.30509367955673
30
0
41
1
10
55.5278261613237
20
7.42904575483655
30
0
41
1
10
56.0732159328349
20
7.65451445197277
30
0
41
1
10
56.3510996230588
20
7.756028807185
30
0
41
1
10
56.7757676220434
20
7.89152534394512
30
0
41
1
10
56.9186327995115
20
7.93389018888786
30
0
41
1
10
57.1349207905798
20
7.99319972973567
30
0
41
1
10
57.2073741963656
20
8.01226741630347
30
0
41
1
10
57.3522937857307
20
8.04882214834555
30
0
41
1
10
57.4248395124382
20
8.06633182307417
30
0
41
1
10
57.7879937039648
20
8.15008603688622
30
0
41
1
10
58.0798763430043
20
8.20497307539944
30
0
41
1
10
58.6662968167779
20
8.2912324558051
30
0
41
1
10
59.2553730938962
20
8.35397127251008
30
0
41
1
10
59.849753003638
20
8.36991746500112
30
0
41
1
10
60.2975669130948
20
8.36399313788351
30
0
41
1
10
60.4471768277915
20
8.35903322723635
30
0
41
1
10
60.6721089241568
20
8.3470308681641
30
0
41
1
10
60.7469930953432
20
8.34227805014311
30
0
41
1
10
60.8963182523334
20
8.33129640279986
30
0
41
1
10
60.9708005413538
20
8.32506540901818
30
0
41
1
10
61.3423184565887
20
8.29023946478296
30
0
41
1
10
61.9310386956761
20
8.21106913183093
30
0
41
1
10
62.5085833100996
20
8.08577655884218
30
0
41
1
10
63.0805337451755
20
7.93722722344097
30
0
41
1
10
63.3637124386198
20
7.8513268702595
30
0
41
1
10
63.7841795033198
20
7.70442336615892
30
0
41
1
10
63.9236172622542
20
7.65244162108621
30
0
41
1
10
64.1316727242378
20
7.5698204045276
30
0
41
1
10
64.200700001224
20
7.54155938968273
30
0
41
1
10
64.3377687914946
20
7.48373931469351
30
0
41
1
10
64.4058634752555
20
7.45415923959249
30
0
41
1
10
64.7441524935547
20
7.30292048073954
30
0
41
1
10
65.0078089955024
20
7.17127113888228
30
0
41
1
10
65.5212880393248
20
6.88656589362822
30
0
41
1
10
65.7711116759583
20
6.73351214596772
30
0
41
1
10
66.2566365358905
20
6.40525860312209
30
0
41
1
10
66.4923410873616
20
6.23006466402103
30
0
41
1
10
66.8347399100881
20
5.94953656621325
30
0
41
1
10
66.9470092404735
20
5.85306450717511
30
0
41
1
10
67.0849224907561
20
5.72859566526643
30
0
41
1
10
67.1123819681453
20
5.70350894701485
30
0
41
1
10
67.166905318669
20
5.65308360253275
30
0
41
1
10
67.248154099798
20
5.57701628436189
30
0
41
1
10
67.3277950583437
20
5.49965978140062
30
0
41
1
10
67.5896881734203
20
5.23892801498872
30
0
41
1
10
67.7877879154243
20
5.02116169180454
30
0
41
1
10
68.1605754900514
20
4.56657575292647
30
0
41
1
10
68.3352689894798
20
4.32976118083263
30
0
41
1
10
68.5786697432396
20
3.95920949340038
30
0
41
1
10
68.656689511626
20
3.83313138793261
30
0
41
1
10
68.768836728138
20
3.63997984411654
30
0
41
1
10
68.8054284255783
20
3.57487955167747
30
0
41
1
10
68.8768402122633
20
3.44347923048755
30
0
41
1
10
68.9115234621251
20
3.3774338339847
30
0
41
1
10
69.0798410204179
20
3.04548225175944
30
0
41
1
10
69.1982219437145
20
2.77441603674089
30
0
41
1
10
69.4021239117387
20
2.22109372857349
30
0
41
1
10
69.4876489996837
20
1.93883912064547
30
0
41
1
10
69.5902067972437
20
1.50665372045071
30
0
41
1
10
69.6200952274726
20
1.36112166582922
30
0
41
1
10
69.6582527057489
20
1.14053613013272
30
0
41
1
10
69.6756617073104
20
1.0296711871338
30
0
41
1
10
69.6905126581376
20
0.917929117366583
30
0
41
1
10
69.6998382789236
20
0.843237186256516
30
0
41
1
10
69.7042176624359
20
0.805752993068239
30
0
41
1
10
69.7408975886661
20
0.468598518665118
30
0
41
1
10
69.7541901858698
20
0.170142214890433
30
0
41
1
10
69.7435307551257
20
-0.424383830113612
30
0
41
1
10
69.7195747700689
20
-0.720453326601159
30
0
41
1
10
69.6557842264391
20
-1.16277489880977
30
0
41
1
10
69.629868477907
20
-1.30991774074235
30
0
41
1
10
69.5915944694557
20
-1.49347061868025
30
0
41
1
10
69.5836455062017
20
-1.53016239882192
30
0
41
1
10
69.5671568625278
20
-1.60350823135482
30
0
41
1
10
69.5586091353822
20
-1.6401950368874
30
0
41
1
10
69.5321434880827
20
-1.74992162504995
30
0
41
1
10
69.5134125730434
20
-1.82260065511593
30
0
41
1
10
69.4144378165547
20
-2.1836882608178
30
0
41
1
10
69.3182863447396
20
-2.46519640706754
30
0
41
1
10
69.0940961949715
20
-3.01445580557379
30
0
41
1
10
68.9660499442166
20
-3.2822036643725
30
0
41
1
10
68.7865877195672
20
-3.60857787576117
30
0
41
1
10
68.749722379538
20
-3.67343608305092
30
0
41
1
10
68.6929671394752
20
-3.77010065590517
30
0
41
1
10
68.6738014260037
20
-3.80222482842544
30
0
41
1
10
68.6350945455959
20
-3.86608729643206
30
0
41
1
10
68.5373222084189
20
-4.02488916564047
30
0
41
1
10
68.4345943434815
20
-4.17948415328055
30
0
41
1
10
68.1789159900422
20
-4.54279880294573
30
0
41
1
10
67.9963161648487
20
-4.77474738480896
30
0
41
1
10
67.6081007635343
20
-5.21941718159673
30
0
41
1
10
67.402480367129
20
-5.4321339121648
30
0
41
1
10
67.1313388945819
20
-5.68637958093333
30
0
41
1
10
67.0763754567573
20
-5.73666619430813
30
0
41
1
10
66.9655521510268
20
-5.83562321563087
30
0
41
1
10
66.7977906293346
20
-5.98180512534563
30
0
41
1
10
66.6255366108645
20
-6.121377633316
30
0
41
1
10
66.2752089244784
20
-6.39201910487625
30
0
41
1
10
66.033912885611
20
-6.56113167266486
30
0
41
1
10
65.5363305425558
20
-6.87775281284894
30
0
41
1
10
65.2800422551357
20
-7.025257983947
30
0
41
1
10
64.9503281310493
20
-7.19633541154943
30
0
41
1
10
64.8839165347976
20
-7.22988409563683
30
0
41
1
10
64.7501519282242
20
-7.29564658638935
30
0
41
1
10
64.682761675794
20
-7.32787578685546
30
0
41
1
10
64.4800565276907
20
-7.42215481842325
30
0
41
1
10
64.3439358334079
20
-7.48193569705873
30
0
41
1
10
63.9326849384238
20
-7.65231463053001
30
0
41
1
10
63.654672098883
20
-7.75396978069381
30
0
41
1
10
63.0911271802025
20
-7.93420670809857
30
0
41
1
10
62.520061221859
20
-8.0913645616256
30
0
41
1
10
61.9339167437923
20
-8.20266188637345
30
0
41
1
10
61.5627395931556
20
-8.25760683334329
30
0
41
1
10
61.4882474258923
20
-8.26786318962994
30
0
41
1
10
61.3394673788451
20
-8.28681871727522
30
0
41
1
10
61.1163465152012
20
-8.3129545987193
30
0
41
1
10
60.8933717898891
20
-8.33227534215331
30
0
41
1
10
60.4476144415213
20
-8.36197209595565
30
0
41
1
10
59.8537829059943
20
-8.37775088128143
30
0
41
1
10
59.2609621299176
20
-8.34652018818738
30
0
41
1
10
58.6686512510033
20
-8.29152939438259
30
0
41
1
10
58.3727507122708
20
-8.25215642677165
30
0
41
1
10
58.0032036282311
20
-8.18755654470252
30
0
41
1
10
57.9293495655383
20
-8.17387037740517
30
0
41
1
10
57.7823769007624
20
-8.14508633544827
30
0
41
1
10
57.5627640497728
20
-8.09974708464893
30
0
41
1
10
57.34566517704
20
-8.04797016738249
30
0
41
1
10
56.9147762991776
20
-7.93590978236423
30
0
41
1
10
56.6319221389335
20
-7.84987964972018
30
0
41
1
10
56.0749569667864
20
-7.65512953278844
30
0
41
1
10
55.8008452806061
20
-7.54641165706511
30
0
41
1
10
55.2615212695584
20
-7.30561506395398
30
0
41
1
10
54.9963070780039
20
-7.17354186243927
30
0
41
1
10
54.6706112742154
20
-6.99296986910545
30
0
41
1
10
54.6057804106132
20
-6.95608622135268
30
0
41
1
10
54.4772012397835
20
-6.88103280484287
30
0
41
1
10
54.2857728105287
20
-6.76642026018604
30
0
41
1
10
53.9739285064707
20
-6.56520122009994
30
0
41
1
10
53.732202766924
20
-6.39317827859711
30
0
41
1
10
53.5538632960985
20
-6.25991939133178
30
0
41
1
10
53.4654326159322
20
-6.19222901369113
30
0
41
1
10
53.3781234041358
20
-6.1229231209368
30
0
41
1
10
53.3201681242036
20
-6.07635718919198
30
0
41
1
10
53.2912723233679
20
-6.05285733847103
30
0
41
1
10
53.2625900255604
20
-6.02924665315996
30
0
0
SPLINE
5
173
100
AcDbEntity
8
1
62
256
6
ByLayer
370
18
48
1
60
0
100
AcDbSpline
70
4
71
3
72
52
73
48
40
0
40
0
40
0
40
0
40
0.0625000000000003
40
0.0625000000000003
40
0.125000000000001
40
0.125000000000001
40
0.15625
40
0.15625
40
0.171874999999999
40
0.171874999999999
40
0.187499999999998
40
0.187499999999998
40
0.249999999999991
40
0.312499999999985
40
0.312499999999985
40
0.328124999999983
40
0.328124999999983
40
0.343749999999982
40
0.374999999999981
40
0.374999999999981
40
0.437499999999979
40
0.437499999999979
40
0.468749999999978
40
0.468749999999978
40
0.484374999999978
40
0.484374999999978
40
0.499999999999977
40
0.499999999999977
40
0.562499999999979
40
0.62499999999998
40
0.62499999999998
40
0.65624999999998
40
0.65624999999998
40
0.687499999999981
40
0.687499999999981
40
0.749999999999984
40
0.749999999999984
40
0.781249999999985
40
0.781249999999985
40
0.812499999999987
40
0.812499999999987
40
0.874999999999991
40
0.937499999999995
40
0.937499999999995
40
0.968749999999997
40
0.968749999999997
40
1
40
1
40
1
40
1
41
1
10
19.525
20
10.6070107729665
30
0
41
1
10
19.4868086767864
20
10.5443921370143
30
0
41
1
10
19.4445448396319
20
10.4847232541501
30
0
41
1
10
19.3521990361071
20
10.3710920803132
30
0
41
1
10
19.3021160524582
20
10.3171303990357
30
0
41
1
10
19.2210564760524
20
10.2405557761169
30
0
41
1
10
19.1930442844046
20
10.2157612129988
30
0
41
1
10
19.1494984410542
20
10.1796982562142
30
0
41
1
10
19.1347511277164
20
10.1678859791006
30
0
41
1
10
19.1049628319977
20
10.144809285099
30
0
41
1
10
19.0898980754139
20
10.1335249806683
30
0
41
1
10
19.0137317759039
20
10.0783598013234
30
0
41
1
10
18.8864951980351
20
9.99810440202509
30
0
41
1
10
18.7486948676454
20
9.93368795652896
30
0
41
1
10
18.6591471643889
20
9.89858324515504
30
0
41
1
10
18.6410489738628
20
9.89181640211447
30
0
41
1
10
18.6047758820971
20
9.8789024582351
30
0
41
1
10
18.5501572246839
20
9.86042283638415
30
0
41
1
10
18.4949204809177
20
9.84458100393078
30
0
41
1
10
18.3836362034951
20
9.8163623459493
30
0
41
1
10
18.3083690965349
20
9.80215542489776
30
0
41
1
10
18.1938411168124
20
9.78781340463101
30
0
41
1
10
18.1553930438049
20
9.78419771885243
30
0
41
1
10
18.0973032727254
20
9.7805634053158
30
0
41
1
10
18.0778336915312
20
9.77964974066586
30
0
41
1
10
18.0389892022457
20
9.77843495631808
30
0
41
1
10
18.0196072498129
20
9.77813200657948
30
0
41
1
10
17.9228961376632
20
9.77811829132881
30
0
41
1
10
17.7694245435128
20
9.78766474594292
30
0
41
1
10
17.6184277702601
20
9.8159013839585
30
0
41
1
10
17.5061358714986
20
9.84428280154012
30
0
41
1
10
17.4688101080099
20
9.8549754164201
30
0
41
1
10
17.3955817251096
20
9.87846105930973
30
0
41
1
10
17.3595427989878
20
9.89128383844226
30
0
41
1
10
17.2531183644443
20
9.93292345777999
30
0
41
1
10
17.1844180034841
20
9.96489835975117
30
0
41
1
10
17.0847421275837
20
10.0191571511299
30
0
41
1
10
17.0520810775454
20
10.0382961290576
30
0
41
1
10
16.9879100751789
20
10.0787163637089
30
0
41
1
10
16.956315762579
20
10.1000670133718
30
0
41
1
10
16.8645973188877
20
10.1664560790588
30
0
41
1
10
16.7496965369979
20
10.2615960719921
30
0
41
1
10
16.649167632036
20
10.3695186588664
30
0
41
1
10
16.579294102085
20
10.4553370465733
30
0
41
1
10
16.5568788400374
20
10.4848306471201
30
0
41
1
10
16.5142916605768
20
10.5450032525931
30
0
41
1
10
16.4940955859081
20
10.5757015791062
30
0
41
1
10
16.475
20
10.6070107729665
30
0
0
SPLINE
5
174
100
AcDbEntity
8
1
62
256
6
ByLayer
370
18
48
1
60
0
100
AcDbSpline
70
4
71
3
72
52
73
48
40
0
40
0
40
0
40
0
40
0.0625000000000119
40
0.0625000000000119
40
0.125000000000024
40
0.125000000000024
40
0.156250000000032
40
0.156250000000032
40
0.171875000000034
40
0.171875000000034
40
0.187500000000036
40
0.187500000000036
40
0.250000000000038
40
0.31250000000004
40
0.31250000000004
40
0.32812500000004
40
0.32812500000004
40
0.343750000000041
40
0.375000000000038
40
0.375000000000038
40
0.437500000000034
40
0.437500000000034
40
0.468750000000031
40
0.468750000000031
40
0.48437500000003
40
0.48437500000003
40
0.500000000000029
40
0.500000000000029
40
0.562500000000027
40
0.625000000000025
40
0.625000000000025
40
0.656250000000024
40
0.656250000000024
40
0.687500000000023
40
0.687500000000023
40
0.75000000000002
40
0.75000000000002
40
0.781250000000018
40
0.781250000000018
40
0.812500000000015
40
0.812500000000015
40
0.87500000000001
40
0.937500000000005
40
0.937500000000005
40
0.968750000000003
40
0.968750000000003
40
1
40
1
40
1
40
1
41
1
10
16.475
20
-10.6070107729664
30
0
41
1
10
16.5131913232136
20
-10.5443921370143
30
0
41
1
10
16.5554551603681
20
-10.4847232541501
30
0
41
1
10
16.6478009638929
20
-10.3710920803132
30
0
41
1
10
16.6978839475418
20
-10.3171303990357
30
0
41
1
10
16.7789435239476
20
-10.2405557761168
30
0
41
1
10
16.8069557155953
20
-10.2157612129988
30
0
41
1
10
16.8505015589458
20
-10.1796982562142
30
0
41
1
10
16.8652488722836
20
-10.1678859791006
30
0
41
1
10
16.8950371680023
20
-10.1448092850989
30
0
41
1
10
16.9101019245861
20
-10.1335249806682
30
0
41
1
10
16.9862682240961
20
-10.0783598013233
30
0
41
1
10
17.1135048019649
20
-9.99810440202504
30
0
41
1
10
17.2513051323546
20
-9.93368795652893
30
0
41
1
10
17.340852835611
20
-9.89858324515498
30
0
41
1
10
17.3589510261372
20
-9.89181640211442
30
0
41
1
10
17.3952241179028
20
-9.87890245823505
30
0
41
1
10
17.4498427753161
20
-9.86042283638409
30
0
41
1
10
17.5050795190823
20
-9.84458100393073
30
0
41
1
10
17.6163637965048
20
-9.81636234594922
30
0
41
1
10
17.691630903465
20
-9.80215542489771
30
0
41
1
10
17.8061588831876
20
-9.78781340463095
30
0
41
1
10
17.844606956195
20
-9.78419771885234
30
0
41
1
10
17.9026967272745
20
-9.78056340531575
30
0
41
1
10
17.9221663084688
20
-9.77964974066578
30
0
41
1
10
17.9610107977543
20
-9.77843495631802
30
0
41
1
10
17.9803927501871
20
-9.7781320065794
30
0
41
1
10
18.0771038623368
20
-9.77811829132872
30
0
41
1
10
18.2305754935628
20
-9.7876645049671
30
0
41
1
10
18.3815722297399
20
-9.81590138395842
30
0
41
1
10
18.4938641285014
20
-9.84428280154003
30
0
41
1
10
18.53118989199
20
-9.85497541642002
30
0
41
1
10
18.6044182748904
20
-9.87846105930961
30
0
41
1
10
18.6404572010122
20
-9.89128383844218
30
0
41
1
10
18.7468816355557
20
-9.93292345777991
30
0
41
1
10
18.8155819965158
20
-9.96489835975106
30
0
41
1
10
18.9152578724162
20
-10.0191571511298
30
0
41
1
10
18.9479189224545
20
-10.0382961290575
30
0
41
1
10
19.0120899248211
20
-10.0787163637088
30
0
41
1
10
19.0436842374209
20
-10.1000670133717
30
0
41
1
10
19.1354026811123
20
-10.1664560790587
30
0
41
1
10
19.2503034630021
20
-10.261596071992
30
0
41
1
10
19.350832367964
20
-10.3695186588663
30
0
41
1
10
19.420705897915
20
-10.4553370465732
30
0
41
1
10
19.4431211599626
20
-10.48483064712
30
0
41
1
10
19.4857083394232
20
-10.545003252593
30
0
41
1
10
19.5059044140919
20
-10.5757015791061
30
0
41
1
10
19.525
20
-10.6070107729664
30
0
0
SPLINE
5
175
100
AcDbEntity
8
1
62
256
6
ByLayer
370
18
48
1
60
0
100
AcDbSpline
70
4
71
3
72
52
73
48
40
0
40
0
40
0
40
0
40
0.0625000000000127
40
0.0625000000000127
40
0.125000000000025
40
0.125000000000025
40
0.156250000000032
40
0.156250000000032
40
0.171875000000035
40
0.171875000000035
40
0.187500000000037
40
0.187500000000037
40
0.250000000000042
40
0.312500000000047
40
0.312500000000047
40
0.328125000000048
40
0.328125000000048
40
0.34375000000005
40
0.37500000000005
40
0.37500000000005
40
0.43750000000005
40
0.43750000000005
40
0.46875000000005
40
0.46875000000005
40
0.48437500000005
40
0.48437500000005
40
0.50000000000005
40
0.50000000000005
40
0.562500000000044
40
0.625000000000039
40
0.625000000000039
40
0.656250000000036
40
0.656250000000036
40
0.687500000000033
40
0.687500000000033
40
0.750000000000029
40
0.750000000000029
40
0.781250000000025
40
0.781250000000025
40
0.812500000000022
40
0.812500000000022
40
0.875000000000014
40
0.937500000000007
40
0.937500000000007
40
0.968750000000004
40
0.968750000000004
40
1
40
1
40
1
40
1
41
1
10
16.475
20
6.08256053862559
30
0
41
1
10
16.5131913232136
20
6.14875739362768
30
0
41
1
10
16.555455160368
20
6.21167813815893
30
0
41
1
10
16.6478009638929
20
6.33125697971621
30
0
41
1
10
16.6978839475418
20
6.38791418129557
30
0
41
1
10
16.7789435239476
20
6.46816741062787
30
0
41
1
10
16.8069557155953
20
6.49412721987309
30
0
41
1
10
16.8505015589457
20
6.53185172670342
30
0
41
1
10
16.8652488722836
20
6.54420249950999
30
0
41
1
10
16.8950371680023
20
6.5683208958138
30
0
41
1
10
16.9101019245861
20
6.58010932569815
30
0
41
1
10
16.9862682240961
20
6.63771554132742
30
0
41
1
10
17.1135043632959
20
6.7213707318422
30
0
41
1
10
17.2513051323546
20
6.78833183584044
30
0
41
1
10
17.340852835611
20
6.82479062943611
30
0
41
1
10
17.3589510261372
20
6.83181655502966
30
0
41
1
10
17.3952241179028
20
6.84522181803516
30
0
41
1
10
17.4498427753161
20
6.86439961794036
30
0
41
1
10
17.5050795190823
20
6.88082858055878
30
0
41
1
10
17.6163637965048
20
6.91008402699762
30
0
41
1
10
17.691630903465
20
6.92479996636314
30
0
41
1
10
17.8061588831876
20
6.93965309017213
30
0
41
1
10
17.844606956195
20
6.94339679009536
30
0
41
1
10
17.9026967272745
20
6.94715960022205
30
0
41
1
10
17.9221663084688
20
6.94810551514655
30
0
41
1
10
17.9610107977542
20
6.94936316404238
30
0
41
1
10
17.9803927501871
20
6.94967679285188
30
0
41
1
10
18.0771038623368
20
6.94969099173079
30
0
41
1
10
18.2305754935628
20
6.93980988314104
30
0
41
1
10
18.3815722297398
20
6.91056175055311
30
0
41
1
10
18.4938641285014
20
6.88113782423093
30
0
41
1
10
18.53118989199
20
6.87004896572745
30
0
41
1
10
18.6044182748904
20
6.84568118407398
30
0
41
1
10
18.6404572010122
20
6.83237143195063
30
0
41
1
10
18.7468816355557
20
6.78912613927818
30
0
41
1
10
18.8155819965158
20
6.75588884276831
30
0
41
1
10
18.9152578724162
20
6.69940194144635
30
0
41
1
10
18.9479189224545
20
6.67946425122693
30
0
41
1
10
19.012089924821
20
6.63732337158424
30
0
41
1
10
19.0436842374209
20
6.61504762114134
30
0
41
1
10
19.1354026811123
20
6.54572138246812
30
0
41
1
10
19.250303463002
20
6.44621804518866
30
0
41
1
10
19.350832367964
20
6.33291094167322
30
0
41
1
10
19.420705897915
20
6.24260335462122
30
0
41
1
10
19.4431211599626
20
6.21153396868371
30
0
41
1
10
19.4857083394232
20
6.14807178447586
30
0
41
1
10
19.5059044140918
20
6.11565883491855
30
0
41
1
10
19.525
20
6.08256053862564
30
0
0
SPLINE
5
176
100
AcDbEntity
8
1
62
256
6
ByLayer
370
18
48
1
60
0
100
AcDbSpline
70
4
71
3
72
52
73
48
40
0
40
0
40
0
40
0
40
0.0625000000000001
40
0.0625000000000001
40
0.125
40
0.125
40
0.156249999999999
40
0.156249999999999
40
0.171874999999998
40
0.171874999999998
40
0.187499999999998
40
0.187499999999998
40
0.25
40
0.312500000000003
40
0.312500000000003
40
0.328125000000003
40
0.328125000000003
40
0.343750000000004
40
0.375000000000003
40
0.375000000000003
40
0.4375
40
0.4375
40
0.468749999999999
40
0.468749999999999
40
0.484374999999999
40
0.484374999999999
40
0.499999999999998
40
0.499999999999998
40
0.562499999999998
40
0.624999999999999
40
0.624999999999999
40
0.656249999999999
40
0.656249999999999
40
0.687499999999999
40
0.687499999999999
40
0.750000000000002
40
0.750000000000002
40
0.781250000000002
40
0.781250000000002
40
0.812500000000002
40
0.812500000000002
40
0.875000000000001
40
0.937499999999999
40
0.937499999999999
40
0.96875
40
0.96875
40
1
40
1
40
1
40
1
41
1
10
19.525
20
-6.08256053862556
30
0
41
1
10
19.4868086767864
20
-6.14875739362765
30
0
41
1
10
19.4445448396319
20
-6.2116781381589
30
0
41
1
10
19.3521990361071
20
-6.33125697971619
30
0
41
1
10
19.3021160524582
20
-6.38791418129554
30
0
41
1
10
19.2210564760524
20
-6.46816741062784
30
0
41
1
10
19.1930442844047
20
-6.49412721987304
30
0
41
1
10
19.1494984410542
20
-6.53185172670337
30
0
41
1
10
19.1347511277164
20
-6.54420249950996
30
0
41
1
10
19.1049628319977
20
-6.56832089581377
30
0
41
1
10
19.0898980754139
20
-6.58010932569809
30
0
41
1
10
19.0137317759039
20
-6.63771554132737
30
0
41
1
10
18.8864951980351
20
-6.72137011403402
30
0
41
1
10
18.7486948676454
20
-6.78833183584038
30
0
41
1
10
18.659147164389
20
-6.82479062943605
30
0
41
1
10
18.6410489738628
20
-6.8318165550296
30
0
41
1
10
18.6047758820972
20
-6.8452218180351
30
0
41
1
10
18.5501572246839
20
-6.86439961794031
30
0
41
1
10
18.4949204809177
20
-6.88082858055873
30
0
41
1
10
18.3836362034951
20
-6.91008402699757
30
0
41
1
10
18.3083690965349
20
-6.92479996636305
30
0
41
1
10
18.1938411168124
20
-6.93965309017207
30
0
41
1
10
18.155393043805
20
-6.94339679009531
30
0
41
1
10
18.0973032727254
20
-6.94715960022197
30
0
41
1
10
18.0778336915312
20
-6.94810551514649
30
0
41
1
10
18.0389892022457
20
-6.9493631640423
30
0
41
1
10
18.0196072498129
20
-6.94967679285179
30
0
41
1
10
17.9228961376632
20
-6.94969099173073
30
0
41
1
10
17.7694245435129
20
-6.93980956551965
30
0
41
1
10
17.6184277702601
20
-6.91056175055303
30
0
41
1
10
17.5061358714986
20
-6.88113782423085
30
0
41
1
10
17.46881010801
20
-6.87004896572736
30
0
41
1
10
17.3955817251096
20
-6.8456811840739
30
0
41
1
10
17.3595427989878
20
-6.83237143195052
30
0
41
1
10
17.2531183644443
20
-6.7891261392781
30
0
41
1
10
17.1844180034842
20
-6.75588884276823
30
0
41
1
10
17.0847421275837
20
-6.69940194144627
30
0
41
1
10
17.0520810775455
20
-6.67946425122682
30
0
41
1
10
16.9879100751789
20
-6.63732337158413
30
0
41
1
10
16.9563157625791
20
-6.61504762114123
30
0
41
1
10
16.8645973188877
20
-6.545721382468
30
0
41
1
10
16.7496965369979
20
-6.44621804518854
30
0
41
1
10
16.649167632036
20
-6.33291094167311
30
0
41
1
10
16.579294102085
20
-6.24260335462111
30
0
41
1
10
16.5568788400374
20
-6.2115339686836
30
0
41
1
10
16.5142916605768
20
-6.14807178447575
30
0
41
1
10
16.4940955859081
20
-6.11565883491843
30
0
41
1
10
16.475
20
-6.08256053862553
30
0
0
SPLINE
5
177
100
AcDbEntity
8
1
62
256
6
ByLayer
370
18
48
1
60
0
100
AcDbSpline
70
4
71
3
72
52
73
48
40
0
40
0
40
0
40
0
40
0.0624999999999983
40
0.0624999999999983
40
0.124999999999997
40
0.124999999999997
40
0.156249999999994
40
0.156249999999994
40
0.171874999999993
40
0.171874999999993
40
0.187499999999992
40
0.187499999999992
40
0.24999999999999
40
0.312499999999988
40
0.312499999999988
40
0.328124999999987
40
0.328124999999987
40
0.343749999999987
40
0.374999999999989
40
0.374999999999989
40
0.437499999999992
40
0.437499999999992
40
0.468749999999994
40
0.468749999999994
40
0.484374999999995
40
0.484374999999995
40
0.499999999999995
40
0.499999999999995
40
0.562499999999993
40
0.624999999999991
40
0.624999999999991
40
0.65624999999999
40
0.65624999999999
40
0.687499999999989
40
0.687499999999989
40
0.749999999999989
40
0.749999999999989
40
0.78124999999999
40
0.78124999999999
40
0.81249999999999
40
0.81249999999999
40
0.874999999999992
40
0.937499999999995
40
0.937499999999995
40
0.968749999999998
40
0.968749999999998
40
1
40
1
40
1
40
1
41
1
10
19.525
20
4.39727504184239
30
0
41
1
10
19.4868086767864
20
4.33026883424901
30
0
41
1
10
19.4445448396319
20
4.2664824996358
30
0
41
1
10
19.3521990361071
20
4.14510871908146
30
0
41
1
10
19.3021160524582
20
4.08752202642347
30
0
41
1
10
19.2210564760524
20
4.00586219933035
30
0
41
1
10
19.1930442844047
20
3.97943146776817
30
0
41
1
10
19.1494984410542
20
3.94100212554869
30
0
41
1
10
19.1347511277164
20
3.92841705521303
30
0
41
1
10
19.1049628319977
20
3.90383476337578
30
0
41
1
10
19.0898980754139
20
3.89181634832065
30
0
41
1
10
19.0137317759039
20
3.8330717809958
30
0
41
1
10
18.8864951980351
20
3.74767015971878
30
0
41
1
10
18.7486948676454
20
3.67919672019565
30
0
41
1
10
18.6591471643889
20
3.64189435680262
30
0
41
1
10
18.6410489738628
20
3.63470466759034
30
0
41
1
10
18.6047758820972
20
3.62098501118811
30
0
41
1
10
18.5501572246839
20
3.60135439530453
30
0
41
1
10
18.4949204809177
20
3.58453044090757
30
0
41
1
10
18.3836362034951
20
3.55456599263886
30
0
41
1
10
18.3083690965349
20
3.53948534937439
30
0
41
1
10
18.1938411168124
20
3.52426240594025
30
0
41
1
10
18.155393043805
20
3.52042497218653
30
0
41
1
10
18.0973032727254
20
3.51656783942963
30
0
41
1
10
18.0778336915312
20
3.51559817972628
30
0
41
1
10
18.0389892022457
20
3.51430895169156
30
0
41
1
10
18.0196072498129
20
3.51398744108229
30
0
41
1
10
17.9228961376632
20
3.51397288547221
30
0
41
1
10
17.7694245435129
20
3.52410360363302
30
0
41
1
10
17.6184277702601
20
3.55407658278222
30
0
41
1
10
17.5061358714986
20
3.58421375561872
30
0
41
1
10
17.46881010801
20
3.59556924568148
30
0
41
1
10
17.3955817251096
20
3.62051560110993
30
0
41
1
10
17.3595427989878
20
3.63413805206946
30
0
41
1
10
17.2531183644443
20
3.678384234703
30
0
41
1
10
17.1844180034841
20
3.71237252714314
30
0
41
1
10
17.0847421275837
20
3.77008242151149
30
0
41
1
10
17.0520810775454
20
3.79044386199391
30
0
41
1
10
16.9879100751789
20
3.83345945050354
30
0
41
1
10
16.9563157625791
20
3.85618753320904
30
0
41
1
10
16.8645973188877
20
3.9268840405114
30
0
41
1
10
16.7496965369979
20
4.02825886708578
30
0
41
1
10
16.649167632036
20
4.14342881752521
30
0
41
1
10
16.579294102085
20
4.23509361941078
30
0
41
1
10
16.5568788400374
20
4.26660973475578
30
0
41
1
10
16.5142916605768
20
4.33093867792599
30
0
41
1
10
16.4940955859081
20
4.36377207085809
30
0
41
1
10
16.475
20
4.39727504184245
30
0
0
SPLINE
5
178
100
AcDbEntity
8
1
62
256
6
ByLayer
370
18
48
1
60
0
100
AcDbSpline
70
4
71
3
72
52
73
48
40
0
40
0
40
0
40
0
40
0.0625000000000126
40
0.0625000000000126
40
0.125000000000025
40
0.125000000000025
40
0.156250000000031
40
0.156250000000031
40
0.171875000000034
40
0.171875000000034
40
0.187500000000036
40
0.187500000000036
40
0.25000000000004
40
0.312500000000045
40
0.312500000000045
40
0.328125000000046
40
0.328125000000046
40
0.343750000000047
40
0.375000000000047
40
0.375000000000047
40
0.437500000000047
40
0.437500000000047
40
0.468750000000047
40
0.468750000000047
40
0.484375000000047
40
0.484375000000047
40
0.500000000000047
40
0.500000000000047
40
0.562500000000041
40
0.625000000000035
40
0.625000000000035
40
0.656250000000032
40
0.656250000000032
40
0.68750000000003
40
0.68750000000003
40
0.750000000000024
40
0.750000000000024
40
0.781250000000021
40
0.781250000000021
40
0.812500000000018
40
0.812500000000018
40
0.875000000000012
40
0.937500000000006
40
0.937500000000006
40
0.968750000000003
40
0.968750000000003
40
1
40
1
40
1
40
1
41
1
10
16.475
20
-4.39727504184236
30
0
41
1
10
16.5131913232136
20
-4.33026883424898
30
0
41
1
10
16.5554551603681
20
-4.26648249963577
30
0
41
1
10
16.6478009638929
20
-4.14510871908143
30
0
41
1
10
16.6978839475418
20
-4.08752202642344
30
0
41
1
10
16.7789435239476
20
-4.00586219933032
30
0
41
1
10
16.8069557155953
20
-3.97943146776814
30
0
41
1
10
16.8505015589458
20
-3.94100212554866
30
0
41
1
10
16.8652488722836
20
-3.928417055213
30
0
41
1
10
16.8950371680023
20
-3.90383476337575
30
0
41
1
10
16.9101019245861
20
-3.89181634832059
30
0
41
1
10
16.9862682240961
20
-3.83307178099574
30
0
41
1
10
17.1135048019649
20
-3.74767015971872
30
0
41
1
10
17.2513051323546
20
-3.67919672019559
30
0
41
1
10
17.340852835611
20
-3.6418943568026
30
0
41
1
10
17.3589510261372
20
-3.63470466759029
30
0
41
1
10
17.3952241179028
20
-3.62098501118805
30
0
41
1
10
17.4498427753161
20
-3.60135439530444
30
0
41
1
10
17.5050795190823
20
-3.58453044090751
30
0
41
1
10
17.6163637965048
20
-3.55456599263877
30
0
41
1
10
17.691630903465
20
-3.5394853493743
30
0
41
1
10
17.8061588831876
20
-3.52426240594019
30
0
41
1
10
17.844606956195
20
-3.52042497218645
30
0
41
1
10
17.9026967272745
20
-3.51656783942957
30
0
41
1
10
17.9221663084688
20
-3.5155981797262
30
0
41
1
10
17.9610107977543
20
-3.5143089516915
30
0
41
1
10
17.9803927501871
20
-3.51398744108221
30
0
41
1
10
18.0771038623368
20
-3.51397288547213
30
0
41
1
10
18.2305754935628
20
-3.52410332049624
30
0
41
1
10
18.3815722297399
20
-3.55407658278213
30
0
41
1
10
18.4938641285014
20
-3.58421375561863
30
0
41
1
10
18.53118989199
20
-3.59556924568136
30
0
41
1
10
18.6044182748904
20
-3.62051560110982
30
0
41
1
10
18.6404572010122
20
-3.63413805206938
30
0
41
1
10
18.7468816355557
20
-3.67838423470289
30
0
41
1
10
18.8155819965158
20
-3.71237252714306
30
0
41
1
10
18.9152578724162
20
-3.77008242151138
30
0
41
1
10
18.9479189224545
20
-3.79044386199379
30
0
41
1
10
19.012089924821
20
-3.83345945050345
30
0
41
1
10
19.0436842374209
20
-3.85618753320892
30
0
41
1
10
19.1354026811123
20
-3.92688404051128
30
0
41
1
10
19.250303463002
20
-4.02825886708567
30
0
41
1
10
19.350832367964
20
-4.14342881752509
30
0
41
1
10
19.420705897915
20
-4.23509361941066
30
0
41
1
10
19.4431211599626
20
-4.26660973475566
30
0
41
1
10
19.4857083394232
20
-4.33093867792584
30
0
41
1
10
19.5059044140919
20
-4.36377207085798
30
0
41
1
10
19.525
20
-4.39727504184234
30
0
0
SPLINE
5
179
100
AcDbEntity
8
1
62
256
6
ByLayer
370
18
48
1
60
0
100
AcDbSpline
70
4
71
3
72
18
73
14
40
0
40
0
40
0
40
0
40
0.250000000000004
40
0.250000000000004
40
0.375000000000004
40
0.375000000000004
40
0.500000000000003
40
0.500000000000003
40
0.625000000000002
40
0.625000000000002
40
0.750000000000001
40
0.750000000000001
40
1
40
1
40
1
40
1
41
1
10
19.925
20
26.697103190234
30
0
41
1
10
19.925
20
26.6698685852525
30
0
41
1
10
19.9224731220319
20
26.6428008079355
30
0
41
1
10
19.9148171455652
20
26.6024543576674
30
0
41
1
10
19.9115996570472
20
26.589007869633
30
0
41
1
10
19.9039472157243
20
26.5626603688927
30
0
41
1
10
19.8995068479357
20
26.5497093197238
30
0
41
1
10
19.8893945845804
20
26.5242537963244
30
0
41
1
10
19.8837052336603
20
26.5117157078946
30
0
41
1
10
19.8711326634775
20
26.4872501038808
30
0
41
1
10
19.8643009268049
20
26.4754142610501
30
0
41
1
10
19.8422015430664
20
26.4410741899467
30
0
41
1
10
19.8253462606135
20
26.4197253830844
30
0
41
1
10
19.8062602725373
20
26.4
30
0
0
SPLINE
5
17A
100
AcDbEntity
8
1
62
256
6
ByLayer
370
18
48
1
60
0
100
AcDbSpline
70
4
71
3
72
26
73
22
40
0
40
0
40
0
40
0
40
0.250000000000024
40
0.250000000000024
40
0.375000000000036
40
0.375000000000036
40
0.500000000000048
40
0.500000000000048
40
0.625000000000056
40
0.625000000000056
40
0.750000000000063
40
0.750000000000063
40
0.812500000000062
40
0.812500000000062
40
0.875000000000061
40
0.875000000000061
40
0.906250000000051
40
0.906250000000051
40
0.93750000000004
40
0.93750000000004
40
1
40
1
40
1
40
1
41
1
10
19.8062602725373
20
26.4
30
0
41
1
10
19.7940965948292
20
26.4
30
0
41
1
10
19.7805948871375
20
26.4
30
0
41
1
10
19.7573398153967
20
26.4
30
0
41
1
10
19.749101730686
20
26.4
30
0
41
1
10
19.7314550314071
20
26.4
30
0
41
1
10
19.7220419248778
20
26.4
30
0
41
1
10
19.7015999939951
20
26.4
30
0
41
1
10
19.6905668771768
20
26.4
30
0
41
1
10
19.6661255684364
20
26.4
30
0
41
1
10
19.6528645548572
20
26.4
30
0
41
1
10
19.6303061592548
20
26.4
30
0
41
1
10
19.6224072259904
20
26.4
30
0
41
1
10
19.6056945143669
20
26.4
30
0
41
1
10
19.5968739568959
20
26.4
30
0
41
1
10
19.5826568687739
20
26.4
30
0
41
1
10
19.577721121873
20
26.4
30
0
41
1
10
19.5676852979551
20
26.4
30
0
41
1
10
19.5625702138709
20
26.4
30
0
41
1
10
19.5468992171813
20
26.4
30
0
41
1
10
19.5358590822777
20
26.4
30
0
41
1
10
19.5249999999999
20
26.4
30
0
0
SPLINE
5
17B
100
AcDbEntity
8
1
62
256
6
ByLayer
370
18
48
1
60
0
100
AcDbSpline
70
4
71
3
72
32
73
28
40
0
40
0
40
0
40
0
40
0.124999999999992
40
0.124999999999992
40
0.249999999999985
40
0.249999999999985
40
0.281249999999983
40
0.281249999999983
40
0.312499999999981
40
0.312499999999981
40
0.374999999999977
40
0.374999999999977
40
0.49999999999997
40
0.49999999999997
40
0.562499999999969
40
0.562499999999969
40
0.593749999999971
40
0.593749999999971
40
0.624999999999972
40
0.624999999999972
40
0.749999999999983
40
0.749999999999983
40
0.874999999999994
40
0.874999999999994
40
0.937499999999997
40
0.937499999999997
40
1
40
1
40
1
40
1
41
1
10
19.525
20
17.5834806976043
30
0
41
1
10
19.5622257722493
20
17.5326400828398
30
0
41
1
10
19.5945540477172
20
17.4837709145101
30
0
41
1
10
19.6502751353692
20
17.385809564816
30
0
41
1
10
19.6736593922955
20
17.3367730980135
30
0
41
1
10
19.6973388066952
20
17.2733476112501
30
0
41
1
10
19.7017954531887
20
17.260556318764
30
0
41
1
10
19.7101445492717
20
17.2347100837203
30
0
41
1
10
19.7140405161275
20
17.2216387005083
30
0
41
1
10
19.7248000309275
20
17.1822265904381
30
0
41
1
10
19.7307633876758
20
17.1556115350388
30
0
41
1
10
19.7450941258959
20
17.0743282741437
30
0
41
1
10
19.7499173582746
20
17.0181632092858
30
0
41
1
10
19.75003974825
20
16.9301110113541
30
0
41
1
10
19.7488912538172
20
16.9001401020892
30
0
41
1
10
19.7453483394831
20
16.8542877881334
30
0
41
1
10
19.7438637724502
20
16.838855392939
30
0
41
1
10
19.7402785478741
20
16.807711681923
30
0
41
1
10
19.7381740269327
20
16.7919827488977
30
0
41
1
10
19.7261954023969
20
16.7133571248931
30
0
41
1
10
19.7119380543277
20
16.6500117336235
30
0
41
1
10
19.6743437734414
20
16.5245006582798
30
0
41
1
10
19.6510085472785
20
16.4623315712261
30
0
41
1
10
19.6088439545667
20
16.3718879296942
30
0
41
1
10
19.5936282036746
20
16.3423092294412
30
0
41
1
10
19.561007612055
20
16.2850154421057
30
0
41
1
10
19.5435796738199
20
16.2572467885351
30
0
41
1
10
19.5250000000015
20
16.2306014000895
30
0
0
SPLINE
5
17C
100
AcDbEntity
8
1
62
256
6
ByLayer
370
18
48
1
60
0
100
AcDbSpline
70
4
71
3
72
32
73
28
40
0
40
0
40
0
40
0
40
0.124999999999998
40
0.124999999999998
40
0.249999999999996
40
0.249999999999996
40
0.281249999999996
40
0.281249999999996
40
0.312499999999995
40
0.312499999999995
40
0.374999999999995
40
0.374999999999995
40
0.499999999999999
40
0.499999999999999
40
0.562499999999999
40
0.562499999999999
40
0.593750000000001
40
0.593750000000001
40
0.625000000000002
40
0.625000000000002
40
0.750000000000001
40
0.750000000000001
40
0.875
40
0.875
40
0.9375
40
0.9375
40
1
40
1
40
1
40
1
41
1
10
19.525
20
12.1692581906231
30
0
41
1
10
19.5622257722493
20
12.1099372048311
30
0
41
1
10
19.5945540477172
20
12.0514555137903
30
0
41
1
10
19.6502751353693
20
11.9332132340507
30
0
41
1
10
19.6736593922955
20
11.8734925654131
30
0
41
1
10
19.6973388066952
20
11.7965822670498
30
0
41
1
10
19.7017954531887
20
11.7810872439873
30
0
41
1
10
19.7101445492717
20
11.7498328466777
30
0
41
1
10
19.7140405161275
20
11.7340537908139
30
0
41
1
10
19.7248000309276
20
11.6865918658699
30
0
41
1
10
19.7307633876758
20
11.6546927954511
30
0
41
1
10
19.7450941258959
20
11.5579345614434
30
0
41
1
10
19.7499173582746
20
11.4919739496654
30
0
41
1
10
19.7500397482501
20
11.3902680493042
30
0
41
1
10
19.7488912538172
20
11.3559148251436
30
0
41
1
10
19.7453483394831
20
11.3037312093318
30
0
41
1
10
19.7438637724502
20
11.2862284197144
30
0
41
1
10
19.7402785478741
20
11.2510184083222
30
0
41
1
10
19.7381740269327
20
11.2332915725756
30
0
41
1
10
19.7261954023969
20
11.1449220122847
30
0
41
1
10
19.7119380543277
20
11.0745080404172
30
0
41
1
10
19.6743437734414
20
10.935418858235
30
0
41
1
10
19.6510085472785
20
10.8667414663276
30
0
41
1
10
19.6088439545667
20
10.7661926607265
30
0
41
1
10
19.5936282036746
20
10.733197290257
30
0
41
1
10
19.561007612055
20
10.668867196194
30
0
41
1
10
19.5435796738199
20
10.6374740754395
30
0
41
1
10
19.5250000000015
20
10.6070107729652
30
0
0
SPLINE
5
17D
100
AcDbEntity
8
1
62
256
6
ByLayer
370
18
48
1
60
0
100
AcDbSpline
70
4
71
3
72
32
73
28
40
0
40
0
40
0
40
0
40
0.124999999999995
40
0.124999999999995
40
0.24999999999999
40
0.24999999999999
40
0.281249999999991
40
0.281249999999991
40
0.312499999999991
40
0.312499999999991
40
0.374999999999991
40
0.374999999999991
40
0.499999999999991
40
0.499999999999991
40
0.56249999999999
40
0.56249999999999
40
0.59374999999999
40
0.59374999999999
40
0.62499999999999
40
0.62499999999999
40
0.749999999999993
40
0.749999999999993
40
0.874999999999996
40
0.874999999999996
40
0.937499999999998
40
0.937499999999998
40
1
40
1
40
1
40
1
41
1
10
19.525
20
6.08256053862564
30
0
41
1
10
19.5622257722493
20
6.01803726892518
30
0
41
1
10
19.5945540477172
20
5.95317476273078
30
0
41
1
10
19.6502751353693
20
5.82118564014885
30
0
41
1
10
19.6736593922955
20
5.75408094333287
30
0
41
1
10
19.6973388066952
20
5.66793590870156
30
0
41
1
10
19.7017954531887
20
5.65059341250409
30
0
41
1
10
19.7101445492718
20
5.61565797589981
30
0
41
1
10
19.7140405161275
20
5.59804320052314
30
0
41
1
10
19.7248000309276
20
5.54515421423409
30
0
41
1
10
19.7307633876758
20
5.50973387650564
30
0
41
1
10
19.7450941258959
20
5.40284754480078
30
0
41
1
10
19.7499173582746
20
5.33073638001073
30
0
41
1
10
19.7500397482501
20
5.22099706146614
30
0
41
1
10
19.7488912538172
20
5.18415988704615
30
0
41
1
10
19.7453483394831
20
5.12852864429595
30
0
41
1
10
19.7438637724502
20
5.10992266719632
30
0
41
1
10
19.7402785478741
20
5.07259206626298
30
0
41
1
10
19.7381740269327
20
5.05384691556071
30
0
41
1
10
19.7261954023969
20
4.96061673495407
30
0
41
1
10
19.7119380543277
20
4.8870252697844
30
0
41
1
10
19.6743437734414
20
4.74204407111463
30
0
41
1
10
19.6510085472785
20
4.67065349796411
30
0
41
1
10
19.6088439545667
20
4.56555587129904
30
0
41
1
10
19.5936282036746
20
4.53096716003833
30
0
41
1
10
19.561007612055
20
4.46315565048744
30
0
41
1
10
19.5435796738199
20
4.42987285139978
30
0
41
1
10
19.5250000000015
20
4.39727504184151
30
0
0
SPLINE
5
17E
100
AcDbEntity
8
1
62
256
6
ByLayer
370
18
48
1
60
0
100
AcDbSpline
70
4
71
3
72
32
73
28
40
0
40
0
40
0
40
0
40
0.125000000000005
40
0.125000000000005
40
0.250000000000011
40
0.250000000000011
40
0.281250000000012
40
0.281250000000012
40
0.312500000000013
40
0.312500000000013
40
0.375000000000014
40
0.375000000000014
40
0.500000000000016
40
0.500000000000016
40
0.562500000000017
40
0.562500000000017
40
0.593750000000016
40
0.593750000000016
40
0.625000000000016
40
0.625000000000016
40
0.75000000000001
40
0.75000000000001
40
0.875000000000004
40
0.875000000000004
40
0.937500000000002
40
0.937500000000002
40
1
40
1
40
1
40
1
41
1
10
19.525
20
-4.39727504184231
30
0
41
1
10
19.5622257722493
20
-4.46258720212572
30
0
41
1
10
19.5945540477172
20
-4.53009002909832
30
0
41
1
10
19.6502751353693
20
-4.66867550134617
30
0
41
1
10
19.6736593922956
20
-4.73976768015046
30
0
41
1
10
19.6973388066952
20
-4.8306393556951
30
0
41
1
10
19.7017954531887
20
-4.84891472825549
30
0
41
1
10
19.7101445492718
20
-4.88566426077159
30
0
41
1
10
19.7140405161275
20
-4.90416115310475
30
0
41
1
10
19.7248000309276
20
-4.9595627272837
30
0
41
1
10
19.7307633876759
20
-4.99648396900861
30
0
41
1
10
19.7450941258959
20
-5.10710058564638
30
0
41
1
10
19.7499173582746
20
-5.18063336510286
30
0
41
1
10
19.7500397482501
20
-5.29040742678771
30
0
41
1
10
19.7488912538173
20
-5.32691494893038
30
0
41
1
10
19.7453483394831
20
-5.38156114250992
30
0
41
1
10
19.7438637724502
20
-5.39975762939505
30
0
41
1
10
19.7402785478741
20
-5.43611769128913
30
0
41
1
10
19.7381740269327
20
-5.45430085327988
30
0
41
1
10
19.726195402397
20
-5.54440853907869
30
0
41
1
10
19.7119380543278
20
-5.61447736777072
30
0
41
1
10
19.6743437734414
20
-5.75192831278738
30
0
41
1
10
19.6510085472785
20
-5.81930901699786
30
0
41
1
10
19.6088439545667
20
-5.91939349294728
30
0
41
1
10
19.5936282036747
20
-5.95248681896439
30
0
41
1
10
19.561007612055
20
-6.0179405353457
30
0
41
1
10
19.5435796738199
20
-6.0503564705221
30
0
41
1
10
19.5250000000015
20
-6.08256053862587
30
0
0
SPLINE
5
17F
100
AcDbEntity
8
1
62
256
6
ByLayer
370
18
48
1
60
0
100
AcDbSpline
70
4
71
3
72
32
73
28
40
0
40
0
40
0
40
0
40
0.124999999999992
40
0.124999999999992
40
0.249999999999984
40
0.249999999999984
40
0.281249999999984
40
0.281249999999984
40
0.312499999999983
40
0.312499999999983
40
0.374999999999986
40
0.374999999999986
40
0.49999999999999
40
0.49999999999999
40
0.56249999999999
40
0.56249999999999
40
0.593749999999992
40
0.593749999999992
40
0.624999999999994
40
0.624999999999994
40
0.749999999999997
40
0.749999999999997
40
0.875000000000001
40
0.875000000000001
40
0.937500000000001
40
0.937500000000001
40
1
40
1
40
1
40
1
41
1
10
19.525
20
-10.6070107729664
30
0
41
1
10
19.5622257722493
20
-10.6680462879571
30
0
41
1
10
19.5945540477172
20
-10.7322662995786
30
0
41
1
10
19.6502751353693
20
-10.864844704443
30
0
41
1
10
19.6736593922956
20
-10.9332315359755
30
0
41
1
10
19.6973388066952
20
-11.0204144425216
30
0
41
1
10
19.7017954531887
20
-11.0379369251551
30
0
41
1
10
19.7101445492718
20
-11.0731339736729
30
0
41
1
10
19.7140405161275
20
-11.0908301715477
30
0
41
1
10
19.7248000309276
20
-11.1437528097954
30
0
41
1
10
19.7307633876759
20
-11.1789138582145
30
0
41
1
10
19.7450941258959
20
-11.283779277902
30
0
41
1
10
19.7499173582746
20
-11.3528295448331
30
0
41
1
10
19.7500397482501
20
-11.4546109539273
30
0
41
1
10
19.7488912538173
20
-11.4882477308808
30
0
41
1
10
19.7453483394831
20
-11.5382904977565
30
0
41
1
10
19.7438637724502
20
-11.5549033250084
30
0
41
1
10
19.7402785478741
20
-11.5880040229454
30
0
41
1
10
19.7381740269327
20
-11.6045094649068
30
0
41
1
10
19.726195402397
20
-11.6860927754484
30
0
41
1
10
19.7119380543278
20
-11.7488508527877
30
0
41
1
10
19.6743437734414
20
-11.8715742168949
30
0
41
1
10
19.6510085472786
20
-11.9315367914003
30
0
41
1
10
19.6088439545667
20
-12.0211903049733
30
0
41
1
10
19.5936282036747
20
-12.0509356915809
30
0
41
1
10
19.5610076120551
20
-12.1101414942389
30
0
41
1
10
19.5435796738199
20
-12.1396506230695
30
0
41
1
10
19.5250000000015
20
-12.1692581906229
30
0
0
SPLINE
5
180
100
AcDbEntity
8
1
62
256
6
ByLayer
370
18
48
1
60
0
100
AcDbSpline
70
4
71
3
72
32
73
28
40
0
40
0
40
0
40
0
40
0.125000000000018
40
0.125000000000018
40
0.250000000000035
40
0.250000000000035
40
0.281250000000037
40
0.281250000000037
40
0.312500000000039
40
0.312500000000039
40
0.375000000000043
40
0.375000000000043
40
0.500000000000045
40
0.500000000000045
40
0.562500000000047
40
0.562500000000047
40
0.593750000000047
40
0.593750000000047
40
0.625000000000046
40
0.625000000000046
40
0.750000000000033
40
0.750000000000033
40
0.87500000000002
40
0.87500000000002
40
0.93750000000001
40
0.93750000000001
40
1
40
1
40
1
40
1
41
1
10
19.525
20
-16.2306014000909
30
0
41
1
10
19.5622257722493
20
-16.2839874375133
30
0
41
1
10
19.5945540477172
20
-16.3413758257175
30
0
41
1
10
19.6502751353693
20
-16.4606208594385
30
0
41
1
10
19.6736593922956
20
-16.5225232765014
30
0
41
1
10
19.6973388066952
20
-16.6011996727531
30
0
41
1
10
19.7017954531887
20
-16.6170009702799
30
0
41
1
10
19.7101445492718
20
-16.6487005402947
30
0
41
1
10
19.7140405161275
20
-16.6646181489992
30
0
41
1
10
19.7248000309276
20
-16.7121373379005
30
0
41
1
10
19.7307633876759
20
-16.7435951878805
30
0
41
1
10
19.7450941258959
20
-16.8369145308307
30
0
41
1
10
19.7499173582746
20
-16.8976665564927
30
0
41
1
10
19.7500397482501
20
-16.9858308561256
30
0
41
1
10
19.7488912538173
20
-17.0147381142403
30
0
41
1
10
19.7453483394831
20
-17.0574120831477
30
0
41
1
10
19.7438637724502
20
-17.0715232232875
30
0
41
1
10
19.7402785478741
20
-17.0995354074297
30
0
41
1
10
19.7381740269327
20
-17.1134510360111
30
0
41
1
10
19.726195402397
20
-17.1820016645665
30
0
41
1
10
19.7119380543278
20
-17.2339809692081
30
0
41
1
10
19.6743437734414
20
-17.335195039767
30
0
41
1
10
19.6510085472785
20
-17.3844259431538
30
0
41
1
10
19.6088439545667
20
-17.4586942269172
30
0
41
1
10
19.5936282036747
20
-17.4834479393156
30
0
41
1
10
19.5610076120551
20
-17.5331341061696
30
0
41
1
10
19.5435796738199
20
-17.5581057494972
30
0
41
1
10
19.5250000000015
20
-17.5834806976038
30
0
0
SPLINE
5
181
100
AcDbEntity
8
1
62
256
6
ByLayer
370
18
48
1
60
0
100
AcDbSpline
70
4
71
3
72
28
73
24
40
0
40
0
40
0
40
0
40
0.0748212973332982
40
0.0748212973332982
40
0.19046863516664
40
0.19046863516664
40
0.306115972999981
40
0.306115972999981
40
0.421763310833322
40
0.421763310833322
40
0.537410648666664
40
0.537410648666664
40
0.653057986500005
40
0.653057986500005
40
0.768705324333343
40
0.768705324333343
40
0.826528993250008
40
0.826528993250008
40
0.884352662166672
40
0.884352662166672
40
0.942176331083336
40
0.942176331083336
40
1
40
1
40
1
40
1
41
1
10
19.8677200000013
20
-26.4
30
0
41
1
10
19.8642337517215
20
-26.4
30
0
41
1
10
19.8605607994627
20
-26.4
30
0
41
1
10
19.8507055228471
20
-26.4
30
0
41
1
10
19.8442344836365
20
-26.4
30
0
41
1
10
19.8302256509178
20
-26.4
30
0
41
1
10
19.822703201059
20
-26.4
30
0
41
1
10
19.8064372623682
20
-26.4
30
0
41
1
10
19.7976959923051
20
-26.4
30
0
41
1
10
19.7787004633519
20
-26.4
30
0
41
1
10
19.7684515593262
20
-26.4
30
0
41
1
10
19.7459364641738
20
-26.4
30
0
41
1
10
19.7336864060722
20
-26.4
30
0
41
1
10
19.7061726787183
20
-26.4
30
0
41
1
10
19.6909725350734
20
-26.4
30
0
41
1
10
19.6640406321409
20
-26.4
30
0
41
1
10
19.6545107395918
20
-26.4
30
0
41
1
10
19.6338830913967
20
-26.4
30
0
41
1
10
19.6228019250377
20
-26.4
30
0
41
1
10
19.598147986261
20
-26.4
30
0
41
1
10
19.5849441081097
20
-26.4
30
0
41
1
10
19.5558575509739
20
-26.4
30
0
41
1
10
19.5407541033155
20
-26.4
30
0
41
1
10
19.525
20
-26.4
30
0
0
SPLINE
5
182
100
AcDbEntity
8
1
62
256
6
ByLayer
370
18
48
1
60
0
100
AcDbSpline
70
4
71
3
72
28
73
24
40
0
40
0
40
0
40
0
40
0.0312500000000065
40
0.0312500000000065
40
0.0625000000000131
40
0.0625000000000131
40
0.125000000000008
40
0.125000000000008
40
0.187500000000004
40
0.187500000000004
40
0.249999999999999
40
0.249999999999999
40
0.374999999999994
40
0.374999999999994
40
0.437499999999993
40
0.437499999999993
40
0.499999999999993
40
0.499999999999993
40
0.624999999999996
40
0.624999999999996
40
0.75
40
0.75
40
1
40
1
40
1
40
1
41
1
10
16.475
20
26.4
30
0
41
1
10
16.4695218117318
20
26.4
30
0
41
1
10
16.4639592722497
20
26.4
30
0
41
1
10
16.4531012812887
20
26.4
30
0
41
1
10
16.4477658912544
20
26.4
30
0
41
1
10
16.4320152361728
20
26.4
30
0
41
1
10
16.4218199762313
20
26.4
30
0
41
1
10
16.4028703180137
20
26.4
30
0
41
1
10
16.3939703778979
20
26.4
30
0
41
1
10
16.3770195476014
20
26.4
30
0
41
1
10
16.3690789387687
20
26.4
30
0
41
1
10
16.3466671821828
20
26.4
30
0
41
1
10
16.333431755631
20
26.4
30
0
41
1
10
16.3151061332821
20
26.4
30
0
41
1
10
16.3092743290003
20
26.4
30
0
41
1
10
16.2981587768622
20
26.4
30
0
41
1
10
16.2928571530061
20
26.4
30
0
41
1
10
16.2775791502381
20
26.4
30
0
41
1
10
16.26822240469
20
26.4
30
0
41
1
10
16.2507042143622
20
26.4
30
0
41
1
10
16.2425476678601
20
26.4
30
0
41
1
10
16.2194851817063
20
26.4
30
0
41
1
10
16.2059660040617
20
26.4
30
0
41
1
10
16.1937397274627
20
26.4
30
0
0
SPLINE
5
183
100
AcDbEntity
8
1
62
256
6
ByLayer
370
18
48
1
60
0
100
AcDbSpline
70
4
71
3
72
20
73
16
40
0
40
0
40
0
40
0
40
0.125000000000007
40
0.125000000000007
40
0.250000000000014
40
0.250000000000014
40
0.37500000000002
40
0.37500000000002
40
0.500000000000027
40
0.500000000000027
40
0.750000000000029
40
0.750000000000029
40
0.875000000000015
40
0.875000000000015
40
1
40
1
40
1
40
1
41
1
10
16.1937397274627
20
26.3999999999999
30
0
41
1
10
16.1842797092231
20
26.4097769359917
30
0
41
1
10
16.1752865639471
20
26.4200440728326
30
0
41
1
10
16.1582472360248
20
26.4415726253043
30
0
41
1
10
16.1502374972282
20
26.4527970849149
30
0
41
1
10
16.1354195864134
20
26.4758754239811
30
0
41
1
10
16.1285798508723
20
26.4877681435603
30
0
41
1
10
16.1160373835992
20
26.5122597909401
30
0
41
1
10
16.1103918987635
20
26.5247523636766
30
0
41
1
10
16.0953550131522
20
26.5627233580421
30
0
41
1
10
16.0877979661197
20
26.5887831485574
30
0
41
1
10
16.080138445853
20
26.6289838896701
30
0
41
1
10
16.0781975852373
20
26.6426443681837
30
0
41
1
10
16.0756328445336
20
26.6699147719109
30
0
41
1
10
16.075
20
26.6835224093342
30
0
41
1
10
16.075
20
26.697103190234
30
0
0
SPLINE
5
184
100
AcDbEntity
8
1
62
256
6
ByLayer
370
18
48
1
60
0
100
AcDbSpline
70
4
71
3
72
40
73
36
40
0
40
0
40
0
40
0
40
0.0156465734178396
40
0.0156465734178396
40
0.0312931468356792
40
0.0312931468356792
40
0.0469397202535189
40
0.0469397202535189
40
0.0625862936713585
40
0.0625862936713585
40
0.0782328670891981
40
0.0782328670891981
40
0.0938794405070377
40
0.0938794405070377
40
0.125172587342711
40
0.125172587342711
40
0.156465734178384
40
0.156465734178384
40
0.187758881014057
40
0.187758881014057
40
0.250345174685401
40
0.250345174685401
40
0.312931468356741
40
0.312931468356741
40
0.375517762028081
40
0.375517762028081
40
0.43810405569942
40
0.43810405569942
40
0.50069034937076
40
0.50069034937076
40
0.62586293671344
40
0.62586293671344
40
0.75103552405612
40
0.75103552405612
40
1
40
1
40
1
40
1
41
1
10
16.475
20
-26.4
30
0
41
1
10
16.4673226919549
20
-26.4
30
0
41
1
10
16.4596313914733
20
-26.4
30
0
41
1
10
16.4443522436319
20
-26.4
30
0
41
1
10
16.4369772923286
20
-26.4
30
0
41
1
10
16.4226671530006
20
-26.4
30
0
41
1
10
16.4156891178927
20
-26.4
30
0
41
1
10
16.4024395960546
20
-26.4
30
0
41
1
10
16.3961337977332
20
-26.4
30
0
41
1
10
16.3840205954807
20
-26.4
30
0
41
1
10
16.3782140529183
20
-26.4
30
0
41
1
10
16.367007662028
20
-26.4
30
0
41
1
10
16.36160864823
20
-26.4
30
0
41
1
10
16.3461431413254
20
-26.4
30
0
41
1
10
16.336700018815
20
-26.4
30
0
41
1
10
16.3189863257432
20
-26.4
30
0
41
1
10
16.3107230075455
20
-26.4
30
0
41
1
10
16.295078277987
20
-26.4
30
0
41
1
10
16.2876895460749
20
-26.4
30
0
41
1
10
16.2667934398
20
-26.4
30
0
41
1
10
16.2544360687867
20
-26.4
30
0
41
1
10
16.2317610364964
20
-26.4
30
0
41
1
10
16.2214615373228
20
-26.4
30
0
41
1
10
16.2023941560713
20
-26.4
30
0
41
1
10
16.1936321375888
20
-26.4
30
0
41
1
10
16.1773412140386
20
-26.4
30
0
41
1
10
16.1698146974544
20
-26.4
30
0
41
1
10
16.1558069562402
20
-26.4
30
0
41
1
10
16.149320560564
20
-26.4
30
0
41
1
10
16.1313301316802
20
-26.4
30
0
41
1
10
16.1212477874993
20
-26.4
30
0
41
1
10
16.1041941300891
20
-26.4
30
0
41
1
10
16.0972316710737
20
-26.4
30
0
41
1
10
16.0806251378141
20
-26.4
30
0
41
1
10
16.0750506599792
20
-26.4
30
0
41
1
10
16.0750049999997
20
-26.4
30
0
0
SPLINE
5
185
100
AcDbEntity
8
1
62
256
6
ByLayer
370
18
48
1
60
0
100
AcDbSpline
70
4
71
3
72
32
73
28
40
0
40
0
40
0
40
0
40
0.124999999999986
40
0.124999999999986
40
0.249999999999973
40
0.249999999999973
40
0.281249999999969
40
0.281249999999969
40
0.312499999999965
40
0.312499999999965
40
0.374999999999961
40
0.374999999999961
40
0.499999999999953
40
0.499999999999953
40
0.562499999999951
40
0.562499999999951
40
0.593749999999953
40
0.593749999999953
40
0.624999999999954
40
0.624999999999954
40
0.749999999999969
40
0.749999999999969
40
0.874999999999983
40
0.874999999999983
40
0.937499999999992
40
0.937499999999992
40
1
40
1
40
1
40
1
41
1
10
16.475
20
-17.5834806976042
30
0
41
1
10
16.4377742277507
20
-17.5326400828397
30
0
41
1
10
16.4054459522828
20
-17.48377091451
30
0
41
1
10
16.3497248646308
20
-17.3858095648159
30
0
41
1
10
16.3263406077045
20
-17.3367730980134
30
0
41
1
10
16.3026611933048
20
-17.27334761125
30
0
41
1
10
16.2982045468113
20
-17.260556318764
30
0
41
1
10
16.2898554507283
20
-17.2347100837202
30
0
41
1
10
16.2859594838726
20
-17.2216387005082
30
0
41
1
10
16.2751999690725
20
-17.182226590438
30
0
41
1
10
16.2692366123242
20
-17.1556115350387
30
0
41
1
10
16.2549058741042
20
-17.0743282741437
30
0
41
1
10
16.2500826417255
20
-17.0181632092857
30
0
41
1
10
16.24996025175
20
-16.9301110113541
30
0
41
1
10
16.2511087461828
20
-16.9001401020891
30
0
41
1
10
16.2546516605169
20
-16.8542877881334
30
0
41
1
10
16.2561362275498
20
-16.8388553929389
30
0
41
1
10
16.2597214521259
20
-16.807711681923
30
0
41
1
10
16.2618259730674
20
-16.7919827488977
30
0
41
1
10
16.2738045976031
20
-16.7133571248931
30
0
41
1
10
16.2880619456723
20
-16.6500117336234
30
0
41
1
10
16.3256562265586
20
-16.5245006582798
30
0
41
1
10
16.3489914527215
20
-16.4623315712261
30
0
41
1
10
16.3911560454333
20
-16.3718879296942
30
0
41
1
10
16.4063717963254
20
-16.3423092294412
30
0
41
1
10
16.438992387945
20
-16.2850154421057
30
0
41
1
10
16.4564203261801
20
-16.2572467885351
30
0
41
1
10
16.4749999999985
20
-16.2306014000895
30
0
0
SPLINE
5
186
100
AcDbEntity
8
1
62
256
6
ByLayer
370
18
48
1
60
0
100
AcDbSpline
70
4
71
3
72
32
73
28
40
0
40
0
40
0
40
0
40
0.125000000000016
40
0.125000000000016
40
0.250000000000032
40
0.250000000000032
40
0.281250000000032
40
0.281250000000032
40
0.312500000000032
40
0.312500000000032
40
0.375000000000031
40
0.375000000000031
40
0.500000000000027
40
0.500000000000027
40
0.562500000000024
40
0.562500000000024
40
0.593750000000024
40
0.593750000000024
40
0.625000000000023
40
0.625000000000023
40
0.750000000000015
40
0.750000000000015
40
0.875000000000006
40
0.875000000000006
40
0.937500000000003
40
0.937500000000003
40
1
40
1
40
1
40
1
41
1
10
16.475
20
-12.169258190623
30
0
41
1
10
16.4377742277507
20
-12.109937204831
30
0
41
1
10
16.4054459522828
20
-12.0514555137902
30
0
41
1
10
16.3497248646308
20
-11.9332132340506
30
0
41
1
10
16.3263406077045
20
-11.873492565413
30
0
41
1
10
16.3026611933048
20
-11.7965822670497
30
0
41
1
10
16.2982045468113
20
-11.7810872439872
30
0
41
1
10
16.2898554507283
20
-11.7498328466777
30
0
41
1
10
16.2859594838726
20
-11.7340537908138
30
0
41
1
10
16.2751999690725
20
-11.6865918658698
30
0
41
1
10
16.2692366123242
20
-11.654692795451
30
0
41
1
10
16.2549058741042
20
-11.5579345614433
30
0
41
1
10
16.2500826417254
20
-11.4919739496652
30
0
41
1
10
16.24996025175
20
-11.3902680493041
30
0
41
1
10
16.2511087461828
20
-11.3559148251435
30
0
41
1
10
16.2546516605169
20
-11.3037312093317
30
0
41
1
10
16.2561362275498
20
-11.2862284197143
30
0
41
1
10
16.259721452126
20
-11.2510184083221
30
0
41
1
10
16.2618259730674
20
-11.2332915725756
30
0
41
1
10
16.2738045976031
20
-11.1449220122847
30
0
41
1
10
16.2880619456723
20
-11.0745080404172
30
0
41
1
10
16.3256562265586
20
-10.935418858235
30
0
41
1
10
16.3489914527215
20
-10.8667414663276
30
0
41
1
10
16.3911560454333
20
-10.7661926607264
30
0
41
1
10
16.4063717963254
20
-10.733197290257
30
0
41
1
10
16.438992387945
20
-10.668867196194
30
0
41
1
10
16.4564203261801
20
-10.6374740754395
30
0
41
1
10
16.4749999999985
20
-10.6070107729652
30
0
0
SPLINE
5
187
100
AcDbEntity
8
1
62
256
6
ByLayer
370
18
48
1
60
0
100
AcDbSpline
70
4
71
3
72
32
73
28
40
0
40
0
40
0
40
0
40
0.124999999999998
40
0.124999999999998
40
0.249999999999996
40
0.249999999999996
40
0.281249999999996
40
0.281249999999996
40
0.312499999999996
40
0.312499999999996
40
0.374999999999997
40
0.374999999999997
40
0.499999999999999
40
0.499999999999999
40
0.5625
40
0.5625
40
0.593750000000001
40
0.593750000000001
40
0.625000000000001
40
0.625000000000001
40
0.750000000000001
40
0.750000000000001
40
0.875000000000002
40
0.875000000000002
40
0.937500000000001
40
0.937500000000001
40
1
40
1
40
1
40
1
41
1
10
16.475
20
-6.08256053862553
30
0
41
1
10
16.4377742277507
20
-6.01803726892504
30
0
41
1
10
16.4054459522828
20
-5.95317476273067
30
0
41
1
10
16.3497248646307
20
-5.82118564014874
30
0
41
1
10
16.3263406077045
20
-5.75408094333275
30
0
41
1
10
16.3026611933048
20
-5.66793590870145
30
0
41
1
10
16.2982045468113
20
-5.65059341250398
30
0
41
1
10
16.2898554507283
20
-5.61565797589969
30
0
41
1
10
16.2859594838726
20
-5.59804320052305
30
0
41
1
10
16.2751999690725
20
-5.545154214234
30
0
41
1
10
16.2692366123242
20
-5.50973387650555
30
0
41
1
10
16.2549058741041
20
-5.40284754480069
30
0
41
1
10
16.2500826417254
20
-5.33073638001062
30
0
41
1
10
16.24996025175
20
-5.22099706146605
30
0
41
1
10
16.2511087461828
20
-5.18415988704606
30
0
41
1
10
16.2546516605169
20
-5.1285286442959
30
0
41
1
10
16.2561362275498
20
-5.10992266719623
30
0
41
1
10
16.2597214521259
20
-5.0725920662629
30
0
41
1
10
16.2618259730674
20
-5.05384691556065
30
0
41
1
10
16.2738045976031
20
-4.96061673495402
30
0
41
1
10
16.2880619456723
20
-4.88702526978434
30
0
41
1
10
16.3256562265586
20
-4.74204407111458
30
0
41
1
10
16.3489914527215
20
-4.67065349796405
30
0
41
1
10
16.3911560454333
20
-4.56555587129901
30
0
41
1
10
16.4063717963254
20
-4.5309671600383
30
0
41
1
10
16.438992387945
20
-4.46315565048741
30
0
41
1
10
16.4564203261801
20
-4.42987285139975
30
0
41
1
10
16.4749999999985
20
-4.39727504184148
30
0
0
SPLINE
5
188
100
AcDbEntity
8
1
62
256
6
ByLayer
370
18
48
1
60
0
100
AcDbSpline
70
4
71
3
72
32
73
28
40
0
40
0
40
0
40
0
40
0.125
40
0.125
40
0.25
40
0.25
40
0.28125
40
0.28125
40
0.312500000000001
40
0.312500000000001
40
0.375000000000001
40
0.375000000000001
40
0.500000000000001
40
0.500000000000001
40
0.562500000000001
40
0.562500000000001
40
0.593750000000002
40
0.593750000000002
40
0.625000000000002
40
0.625000000000002
40
0.750000000000003
40
0.750000000000003
40
0.875000000000004
40
0.875000000000004
40
0.937500000000002
40
0.937500000000002
40
1
40
1
40
1
40
1
41
1
10
16.475
20
4.39727504184245
30
0
41
1
10
16.4377742277507
20
4.46258720212586
30
0
41
1
10
16.4054459522828
20
4.53009002909846
30
0
41
1
10
16.3497248646307
20
4.66867550134629
30
0
41
1
10
16.3263406077045
20
4.73976768015055
30
0
41
1
10
16.3026611933048
20
4.83063935569521
30
0
41
1
10
16.2982045468113
20
4.84891472825561
30
0
41
1
10
16.2898554507283
20
4.88566426077168
30
0
41
1
10
16.2859594838725
20
4.90416115310484
30
0
41
1
10
16.2751999690725
20
4.95956272728378
30
0
41
1
10
16.2692366123242
20
4.99648396900869
30
0
41
1
10
16.2549058741041
20
5.10710058564646
30
0
41
1
10
16.2500826417254
20
5.18063336510292
30
0
41
1
10
16.2499602517499
20
5.29040742678777
30
0
41
1
10
16.2511087461828
20
5.32691494893044
30
0
41
1
10
16.2546516605169
20
5.38156114251001
30
0
41
1
10
16.2561362275498
20
5.39975762939511
30
0
41
1
10
16.2597214521259
20
5.43611769128918
30
0
41
1
10
16.2618259730673
20
5.45430085327993
30
0
41
1
10
16.2738045976031
20
5.54440853907875
30
0
41
1
10
16.2880619456723
20
5.61447736777075
30
0
41
1
10
16.3256562265586
20
5.75192831278741
30
0
41
1
10
16.3489914527215
20
5.81930901699792
30
0
41
1
10
16.3911560454333
20
5.91939349294731
30
0
41
1
10
16.4063717963254
20
5.95248681896445
30
0
41
1
10
16.438992387945
20
6.01794053534573
30
0
41
1
10
16.4564203261801
20
6.05035647052213
30
0
41
1
10
16.4749999999985
20
6.0825605386259
30
0
0
SPLINE
5
189
100
AcDbEntity
8
1
62
256
6
ByLayer
370
18
48
1
60
0
100
AcDbSpline
70
4
71
3
72
32
73
28
40
0
40
0
40
0
40
0
40
0.125000000000003
40
0.125000000000003
40
0.250000000000006
40
0.250000000000006
40
0.281250000000007
40
0.281250000000007
40
0.312500000000009
40
0.312500000000009
40
0.375000000000011
40
0.375000000000011
40
0.500000000000014
40
0.500000000000014
40
0.562500000000015
40
0.562500000000015
40
0.593750000000014
40
0.593750000000014
40
0.625000000000013
40
0.625000000000013
40
0.750000000000008
40
0.750000000000008
40
0.875000000000002
40
0.875000000000002
40
0.937500000000001
40
0.937500000000001
40
1
40
1
40
1
40
1
41
1
10
16.475
20
10.6070107729665
30
0
41
1
10
16.4377742277507
20
10.6680462879572
30
0
41
1
10
16.4054459522828
20
10.7322662995787
30
0
41
1
10
16.3497248646307
20
10.8648447044431
30
0
41
1
10
16.3263406077045
20
10.9332315359757
30
0
41
1
10
16.3026611933048
20
11.0204144425217
30
0
41
1
10
16.2982045468113
20
11.0379369251552
30
0
41
1
10
16.2898554507283
20
11.073133973673
30
0
41
1
10
16.2859594838725
20
11.0908301715478
30
0
41
1
10
16.2751999690725
20
11.1437528097954
30
0
41
1
10
16.2692366123241
20
11.1789138582146
30
0
41
1
10
16.2549058741041
20
11.2837792779021
30
0
41
1
10
16.2500826417254
20
11.3528295448332
30
0
41
1
10
16.2499602517499
20
11.4546109539274
30
0
41
1
10
16.2511087461828
20
11.4882477308808
30
0
41
1
10
16.2546516605169
20
11.5382904977566
30
0
41
1
10
16.2561362275498
20
11.5549033250084
30
0
41
1
10
16.2597214521259
20
11.5880040229455
30
0
41
1
10
16.2618259730673
20
11.6045094649068
30
0
41
1
10
16.2738045976031
20
11.6860927754484
30
0
41
1
10
16.2880619456723
20
11.7488508527878
30
0
41
1
10
16.3256562265586
20
11.8715742168949
30
0
41
1
10
16.3489914527215
20
11.9315367914003
30
0
41
1
10
16.3911560454333
20
12.0211903049734
30
0
41
1
10
16.4063717963254
20
12.0509356915809
30
0
41
1
10
16.438992387945
20
12.1101414942389
30
0
41
1
10
16.4564203261801
20
12.1396506230695
30
0
41
1
10
16.4749999999985
20
12.169258190623
30
0
0
SPLINE
5
18A
100
AcDbEntity
8
1
62
256
6
ByLayer
370
18
48
1
60
0
100
AcDbSpline
70
4
71
3
72
32
73
28
40
0
40
0
40
0
40
0
40
0.125000000000015
40
0.125000000000015
40
0.25000000000003
40
0.25000000000003
40
0.28125000000003
40
0.28125000000003
40
0.312500000000031
40
0.312500000000031
40
0.375000000000033
40
0.375000000000033
40
0.500000000000034
40
0.500000000000034
40
0.56250000000003
40
0.56250000000003
40
0.593750000000029
40
0.593750000000029
40
0.625000000000027
40
0.625000000000027
40
0.750000000000018
40
0.750000000000018
40
0.875000000000008
40
0.875000000000008
40
0.937500000000004
40
0.937500000000004
40
1
40
1
40
1
40
1
41
1
10
16.475
20
16.230601400091
30
0
41
1
10
16.4377742277507
20
16.2839874375134
30
0
41
1
10
16.4054459522829
20
16.3413758257175
30
0
41
1
10
16.3497248646308
20
16.4606208594385
30
0
41
1
10
16.3263406077045
20
16.5225232765013
30
0
41
1
10
16.3026611933048
20
16.6011996727532
30
0
41
1
10
16.2982045468113
20
16.6170009702799
30
0
41
1
10
16.2898554507283
20
16.6487005402947
30
0
41
1
10
16.2859594838725
20
16.6646181489993
30
0
41
1
10
16.2751999690725
20
16.7121373379005
30
0
41
1
10
16.2692366123242
20
16.7435951878805
30
0
41
1
10
16.2549058741041
20
16.8369145308305
30
0
41
1
10
16.2500826417254
20
16.8976665564926
30
0
41
1
10
16.2499602517499
20
16.9858308561256
30
0
41
1
10
16.2511087461828
20
17.0147381142403
30
0
41
1
10
16.2546516605169
20
17.0574120831477
30
0
41
1
10
16.2561362275498
20
17.0715232232876
30
0
41
1
10
16.2597214521259
20
17.0995354074298
30
0
41
1
10
16.2618259730674
20
17.1134510360113
30
0
41
1
10
16.2738045976031
20
17.1820016645665
30
0
41
1
10
16.2880619456722
20
17.2339809692081
30
0
41
1
10
16.3256562265586
20
17.335195039767
30
0
41
1
10
16.3489914527215
20
17.3844259431538
30
0
41
1
10
16.3911560454333
20
17.4586942269173
30
0
41
1
10
16.4063717963254
20
17.4834479393157
30
0
41
1
10
16.438992387945
20
17.5331341061697
30
0
41
1
10
16.4564203261801
20
17.5581057494973
30
0
41
1
10
16.4749999999985
20
17.5834806976038
30
0
0
SPLINE
5
18B
100
AcDbEntity
8
1
62
256
6
ByLayer
370
18
48
1
60
0
100
AcDbSpline
70
4
71
3
72
8
73
4
40
0
40
0
40
0
40
0
40
1
40
1
40
1
40
1
41
1
10
16.075
20
-27.5194446025754
30
0
41
1
10
15.5933771502786
20
-28.3972829993794
30
0
41
1
10
15.1100404143129
20
-29.2741992018061
30
0
41
1
10
14.6253876765867
20
-30.1503829784963
30
0
0
SPLINE
5
18C
100
AcDbEntity
8
1
62
256
6
ByLayer
370
18
48
1
60
0
100
AcDbSpline
70
4
71
3
72
12
73
8
40
0
40
0
40
0
40
0
40
0.25
40
0.25
40
0.5
40
0.5
40
1
40
1
40
1
40
1
41
1
10
16.075
20
19.85
30
0
41
1
10
15.9575543463047
20
19.85
30
0
41
1
10
15.8391567902152
20
19.85
30
0
41
1
10
15.6006785184763
20
19.85
30
0
41
1
10
15.4805909149784
20
19.85
30
0
41
1
10
15.1179575685047
20
19.85
30
0
41
1
10
14.8730455409432
20
19.85
30
0
41
1
10
14.6253876765866
20
19.85
30
0
0
SPLINE
5
18D
100
AcDbEntity
8
1
62
256
6
ByLayer
370
18
48
1
60
0
100
AcDbSpline
70
4
71
3
72
8
73
4
40
0
40
0
40
0
40
0
40
1
40
1
40
1
40
1
41
1
10
25.95
20
-29.6281216709733
30
0
41
1
10
25.7833972320879
20
-29.8022699946348
30
0
41
1
10
25.6167293283391
20
-29.9763562682361
30
0
41
1
10
25.45
20
-30.1503829784963
30
0
0
SPLINE
5
18E
100
AcDbEntity
8
1
62
256
6
ByLayer
370
18
48
1
60
0
100
AcDbSpline
70
4
71
3
72
8
73
4
40
0
40
0
40
0
40
0
40
1
40
1
40
1
40
1
41
1
10
25.95
20
19.85
30
0
41
1
10
25.7839428389179
20
19.85
30
0
41
1
10
25.6172335326703
20
19.85
30
0
41
1
10
25.45
20
19.85
30
0
0
SPLINE
5
18F
100
AcDbEntity
8
1
62
256
6
ByLayer
370
18
48
1
60
0
100
AcDbSpline
70
4
71
3
72
8
73
4
40
0
40
0
40
0
40
0
40
1
40
1
40
1
40
1
41
1
10
21.3746123234134
20
-30.1503829784963
30
0
41
1
10
20.8899595856872
20
-29.2741992018061
30
0
41
1
10
20.4066228497215
20
-28.3972829993794
30
0
41
1
10
19.925
20
-27.5194446025754
30
0
0
SPLINE
5
190
100
AcDbEntity
8
1
62
256
6
ByLayer
370
18
48
1
60
0
100
AcDbSpline
70
4
71
3
72
12
73
8
40
0
40
0
40
0
40
0
40
0.500000000000001
40
0.500000000000001
40
0.75
40
0.75
40
1
40
1
40
1
40
1
41
1
10
21.3746123234133
20
19.85
30
0
41
1
10
21.1269480166303
20
19.85
30
0
41
1
10
20.8820296891945
20
19.85
30
0
41
1
10
20.5193871561882
20
19.85
30
0
41
1
10
20.3992965345052
20
19.85
30
0
41
1
10
20.1608123241297
20
19.85
30
0
41
1
10
20.0424022933999
20
19.85
30
0
41
1
10
19.925
20
19.85
30
0
0
SPLINE
5
191
100
AcDbEntity
8
1
62
256
6
ByLayer
370
18
48
1
60
0
100
AcDbSpline
70
4
71
3
72
53
73
49
40
0
40
0
40
0
40
0
40
0.0624999999999989
40
0.0624999999999989
40
0.124999999999998
40
0.124999999999998
40
0.187499999999997
40
0.187499999999997
40
0.203124999999996
40
0.203124999999996
40
0.218749999999996
40
0.218749999999996
40
0.249999999999996
40
0.249999999999996
40
0.312499999999996
40
0.312499999999996
40
0.374999999999995
40
0.374999999999995
40
0.406249999999995
40
0.406249999999995
40
0.421874999999995
40
0.421874999999995
40
0.437499999999995
40
0.437499999999995
40
0.499999999999996
40
0.499999999999996
40
0.562499999999997
40
0.562499999999997
40
0.624999999999997
40
0.624999999999997
40
0.640624999999997
40
0.640624999999997
40
0.656249999999997
40
0.687499999999998
40
0.687499999999998
40
0.749999999999998
40
0.749999999999998
40
0.812499999999998
40
0.812499999999998
40
0.843749999999998
40
0.843749999999998
40
0.859374999999998
40
0.859374999999998
40
0.874999999999999
40
0.874999999999999
40
0.937499999999999
40
0.937499999999999
40
1
40
1
40
1
40
1
41
1
10
12.9500000000001
20
-30.1503829784963
30
0
41
1
10
12.6841313593866
20
-30.1503829784963
30
0
41
1
10
12.420647498405
20
-30.1543453879131
30
0
41
1
10
11.8982638705436
20
-30.1697869707438
30
0
41
1
10
11.6393646026073
20
-30.1812667142531
30
0
41
1
10
11.1260959657866
20
-30.2113619657957
30
0
41
1
10
10.8717264718108
20
-30.2299778939183
30
0
41
1
10
10.5566391253125
20
-30.2574763990119
30
0
41
1
10
10.4937656966584
20
-30.2631875405795
30
0
41
1
10
10.3683093033381
20
-30.2750269307959
30
0
41
1
10
10.3057219374419
20
-30.2811564366936
30
0
41
1
10
10.1194618268704
20
-30.3000493570683
30
0
41
1
10
9.99692951457197
20
-30.3133501209502
30
0
41
1
10
9.63413312205714
20
-30.3551895350746
30
0
41
1
10
9.39865793344256
20
-30.3856634558139
30
0
41
1
10
8.940131299683
20
-30.4508771444522
30
0
41
1
10
8.71708027746823
20
-30.4856182415107
30
0
41
1
10
8.39183435684629
20
-30.5402922027968
30
0
41
1
10
8.28497698908885
20
-30.5589441303185
30
0
41
1
10
8.12705594765475
20
-30.5874838229592
30
0
41
1
10
8.07474052483528
20
-30.5971038147968
30
0
41
1
10
7.97132476718414
20
-30.616438827492
30
0
41
1
10
7.92022166488198
20
-30.6261537581164
30
0
41
1
10
7.66769106088231
20
-30.674925228277
30
0
41
1
10
7.47519443651626
20
-30.7145691260908
30
0
41
1
10
7.10865483934174
20
-30.7941358726583
30
0
41
1
10
6.93461315369416
20
-30.8340604486317
30
0
41
1
10
6.60496316861747
20
-30.913266496599
30
0
41
1
10
6.4493532968248
20
-30.9525496389802
30
0
41
1
10
6.26671018689768
20
-31.0006744484451
30
0
41
1
10
6.23077961689896
20
-31.0102499429787
30
0
41
1
10
6.16050409576218
20
-31.0291838688348
30
0
41
1
10
6.05731623933843
20
-31.0572994179036
30
0
41
1
10
5.96073307416356
20
-31.0845086951601
30
0
41
1
10
5.77624844381896
20
-31.1375890198019
30
0
41
1
10
5.66481288123558
20
-31.1711913504447
30
0
41
1
10
5.46492163805175
20
-31.2341535567076
30
0
41
1
10
5.37646500709749
20
-31.2635146855691
30
0
41
1
10
5.26144287268468
20
-31.3038663020077
30
0
41
1
10
5.22605148530565
20
-31.3167016610253
30
0
41
1
10
5.177495584958
20
-31.3349653649219
30
0
41
1
10
5.16207042207301
20
-31.340887023016
30
0
41
1
10
5.13289039673251
20
-31.3523337498622
30
0
41
1
10
5.11911462028147
20
-31.3578665960225
30
0
41
1
10
5.05428379043079
20
-31.3845694043971
30
0
41
1
10
5.01534301301413
20
-31.4028553327579
30
0
41
1
10
4.96320171145769
20
-31.433046335086
30
0
41
1
10
4.95000000000004
20
-31.4449518407133
30
0
41
1
10
4.95000000000004
20
-31.4535466005028
30
0
0
SPLINE
5
192
100
AcDbEntity
8
1
62
256
6
ByLayer
370
18
48
1
60
0
100
AcDbSpline
70
4
71
3
72
45
73
41
40
0
40
0
40
0
40
0
40
0.0624999999999973
40
0.0624999999999973
40
0.124999999999995
40
0.124999999999995
40
0.187499999999992
40
0.187499999999992
40
0.203124999999991
40
0.203124999999991
40
0.218749999999991
40
0.218749999999991
40
0.249999999999989
40
0.249999999999989
40
0.312499999999988
40
0.312499999999988
40
0.374999999999986
40
0.374999999999986
40
0.406249999999985
40
0.421874999999985
40
0.421874999999985
40
0.437499999999985
40
0.437499999999985
40
0.499999999999986
40
0.499999999999986
40
0.562499999999987
40
0.562499999999987
40
0.624999999999989
40
0.624999999999989
40
0.640624999999989
40
0.640624999999989
40
0.65624999999999
40
0.65624999999999
40
0.687499999999992
40
0.687499999999992
40
0.749999999999994
40
0.749999999999994
40
0.874999999999997
40
0.874999999999997
40
1
40
1
40
1
40
1
41
1
10
12.1956203456893
20
24.4200409500066
30
0
41
1
10
11.9759339284872
20
24.4200409500066
30
0
41
1
10
11.7583248060651
20
24.4127074179386
30
0
41
1
10
11.3270848993937
20
24.3839386530956
30
0
41
1
10
11.1134547056098
20
24.3625011198197
30
0
41
1
10
10.6901035240453
20
24.3056038437389
30
0
41
1
10
10.4803827549287
20
24.2701435456968
30
0
41
1
10
10.220690132804
20
24.2168315972934
30
0
41
1
10
10.1688747482696
20
24.2057188174181
30
0
41
1
10
10.0654915217627
20
24.1825826465595
30
0
41
1
10
10.0138582555167
20
24.1705425488761
30
0
41
1
10
9.86011701382463
20
24.1332343953866
30
0
41
1
10
9.75899909269461
20
24.1067468964487
30
0
41
1
10
9.45963651748903
20
24.0225304764548
30
0
41
1
10
9.265375646222
20
23.9600575830852
30
0
41
1
10
8.88695628215879
20
23.8226742810017
30
0
41
1
10
8.70279973502869
20
23.7477618111635
30
0
41
1
10
8.43391201880758
20
23.6260043199279
30
0
41
1
10
8.30130718635604
20
23.5627752021059
30
0
41
1
10
8.17143577115013
20
23.49598276546
30
0
41
1
10
8.08546060652208
20
23.450656686642
30
0
41
1
10
8.04288957259081
20
23.4276543776726
30
0
41
1
10
7.83231360064806
20
23.311091922816
30
0
41
1
10
7.67087988193623
20
23.212752963373
30
0
41
1
10
7.36101732450726
20
23.006176053876
30
0
41
1
10
7.212591550095
20
22.8979363634043
30
0
41
1
10
6.92796256802129
20
22.6716713696083
30
0
41
1
10
6.79176136423069
20
22.5536449583075
30
0
41
1
10
6.62877486055859
20
22.3999925415235
30
0
41
1
10
6.59654118645173
20
22.3689558373227
30
0
41
1
10
6.53279309131622
20
22.3062689833205
30
0
41
1
10
6.50131318166939
20
22.2746516436256
30
0
41
1
10
6.4082738883651
20
22.179234275698
30
0
41
1
10
6.34801389290462
20
22.1147708752695
30
0
41
1
10
6.17226321560696
20
21.9188742079099
30
0
41
1
10
6.06179410768453
20
21.7849365427041
30
0
41
1
10
5.74865705723417
20
21.3734069993164
30
0
41
1
10
5.56418709064178
20
21.0861176330193
30
0
41
1
10
5.2365249073159
20
20.4866364512197
30
0
41
1
10
5.09337039057024
20
20.1744346090999
30
0
41
1
10
4.9682154922603
20
19.85
30
0
0
SPLINE
5
193
100
AcDbEntity
8
1
62
256
6
ByLayer
370
18
48
1
60
0
100
AcDbSpline
70
4
71
3
72
53
73
49
40
0
40
0
40
0
40
0
40
0.0624999999999991
40
0.0624999999999991
40
0.124999999999998
40
0.124999999999998
40
0.187499999999997
40
0.187499999999997
40
0.203124999999997
40
0.203124999999997
40
0.218749999999997
40
0.218749999999997
40
0.249999999999997
40
0.249999999999997
40
0.312499999999996
40
0.312499999999996
40
0.374999999999996
40
0.374999999999996
40
0.406249999999996
40
0.406249999999996
40
0.421874999999996
40
0.421874999999996
40
0.437499999999996
40
0.437499999999996
40
0.499999999999996
40
0.499999999999996
40
0.562499999999997
40
0.562499999999997
40
0.624999999999997
40
0.624999999999997
40
0.640624999999997
40
0.640624999999997
40
0.656249999999997
40
0.687499999999997
40
0.687499999999997
40
0.749999999999998
40
0.749999999999998
40
0.812499999999998
40
0.812499999999998
40
0.843749999999998
40
0.843749999999998
40
0.859374999999999
40
0.859374999999999
40
0.874999999999999
40
0.874999999999999
40
0.937499999999999
40
0.937499999999999
40
1
40
1
40
1
40
1
41
1
10
4.94999999999996
20
31.4699951342545
30
0
41
1
10
4.94999999999996
20
31.469847608931
30
0
41
1
10
4.96316148456387
20
31.4663482437805
30
0
41
1
10
5.01483326253899
20
31.4529824401189
30
0
41
1
10
5.05334632259851
20
31.443115398359
30
0
41
1
10
5.15552174838172
20
31.4173251944317
30
0
41
1
10
5.21918321366852
20
31.4014014637225
30
0
41
1
10
5.31481265858466
20
31.3779016832463
30
0
41
1
10
5.33474305466231
20
31.373021977824
30
0
41
1
10
5.37622898172657
20
31.3629078986405
30
0
41
1
10
5.39780590833237
20
31.3576684102907
30
0
41
1
10
5.46462463571697
20
31.3415165236844
30
0
41
1
10
5.51204881427506
20
31.3301472965835
30
0
41
1
10
5.66277602046245
20
31.2943892951813
30
0
41
1
10
5.77451273201857
20
31.2683509878206
30
0
41
1
10
6.02006473104041
20
31.2126594055855
30
0
41
1
10
6.15388041729031
20
31.183004697794
30
0
41
1
10
6.37134836873921
20
31.1363910865799
30
0
41
1
10
6.44663359836227
20
31.1204980223429
30
0
41
1
10
6.56382727681552
20
31.0962003530904
30
0
41
1
10
6.60363097354943
20
31.0880191489026
30
0
41
1
10
6.68455656030858
20
31.071541452173
30
0
41
1
10
6.72557231063075
20
31.0632664878015
30
0
41
1
10
6.93338647885227
20
31.0217492547395
30
0
41
1
10
7.10836961999721
20
30.9880811451731
30
0
41
1
10
7.4754039610805
20
30.9207839071198
30
0
41
1
10
7.66745608423184
20
30.8871531261034
30
0
41
1
10
8.06876163464801
20
30.8208678222671
30
0
41
1
10
8.27801337795111
20
30.7882116103006
30
0
41
1
10
8.55074524405742
20
30.7486137736258
30
0
41
1
10
8.60592716662771
20
30.7407450951663
30
0
41
1
10
8.71690520462974
20
30.72521871645
30
0
41
1
10
8.88436668666481
20
30.7022336947395
30
0
41
1
10
9.05478427646676
20
30.6802165246349
30
0
41
1
10
9.399516964133
20
30.6376146650815
30
0
41
1
10
9.63452623072502
20
30.6111232682603
30
0
41
1
10
10.1149153789438
20
30.5627093850563
30
0
41
1
10
10.3602948471897
20
30.5407858131469
30
0
41
1
10
10.736364153485
20
30.5119001269116
30
0
41
1
10
10.8630563144907
20
30.5029384070805
30
0
41
1
10
11.0551489977476
20
30.4905711455268
30
0
41
1
10
11.1195899808493
20
30.4866243994951
30
0
41
1
10
11.2485709831097
20
30.4791355756795
30
0
41
1
10
11.3131637273305
20
30.4755896793322
30
0
41
1
10
11.6366359254661
20
30.4588636800731
30
0
41
1
10
11.8970373100373
20
30.4486945546454
30
0
41
1
10
12.4210740916657
20
30.4350490385152
30
0
41
1
10
12.6847093748942
20
30.4315723180712
30
0
41
1
10
12.95
20
30.4315723180713
30
0
0
SPLINE
5
194
100
AcDbEntity
8
SK2
62
256
6
ByLayer
370
18
48
1
60
0
100
AcDbSpline
70
4
71
3
72
27
73
23
40
0
40
0
40
0
40
0
40
0.125
40
0.125
40
0.187499999999999
40
0.187499999999999
40
0.249999999999999
40
0.249999999999999
40
0.374999999999999
40
0.374999999999999
40
0.499999999999999
40
0.499999999999999
40
0.624999999999999
40
0.624999999999999
40
0.656249999999999
40
0.656249999999999
40
0.687499999999999
40
0.749999999999999
40
0.749999999999999
40
0.874999999999999
40
0.874999999999999
40
1
40
1
40
1
40
1
41
1
10
56
20
-2.3094010767586
30
0
41
1
10
56
20
-2.12177523860822
30
0
41
1
10
56
20
-1.93245605250377
30
0
41
1
10
56
20
-1.64527124423782
30
0
41
1
10
56
20
-1.54892775044442
30
0
41
1
10
56
20
-1.35631142039432
30
0
41
1
10
56
20
-1.25990060567858
30
0
41
1
10
56
20
-0.970337663649815
30
0
41
1
10
56
20
-0.776853738228738
30
0
41
1
10
56
20
-0.388904263458954
30
0
41
1
10
56
20
-0.194438009914336
30
0
41
1
10
56
20
0.195524891754587
30
0
41
1
10
56
20
0.391021705721641
30
0
41
1
10
56
20
0.63602652833859
30
0
41
1
10
56
20
0.685093411808452
30
0
41
1
10
56
20
0.783135635726751
30
0
41
1
10
56
20
0.929791333098024
30
0
41
1
10
56
20
1.07526905897728
30
0
41
1
10
56
20
1.36477982804644
30
0
41
1
10
56
20
1.55586200362689
30
0
41
1
10
56
20
1.93485381352417
30
0
41
1
10
56
20
2.12276540930614
30
0
41
1
10
56
20
2.30940107675806
30
0
0
SPLINE
5
195
100
AcDbEntity
8
SK2
62
256
6
ByLayer
370
18
48
1
60
0
100
AcDbSpline
70
4
71
3
72
27
73
23
40
0
40
0
40
0
40
0
40
0.125
40
0.125
40
0.1875
40
0.1875
40
0.25
40
0.25
40
0.375
40
0.375
40
0.499999999999999
40
0.499999999999999
40
0.624999999999999
40
0.624999999999999
40
0.656249999999999
40
0.656249999999999
40
0.687499999999999
40
0.749999999999999
40
0.749999999999999
40
0.875
40
0.875
40
1
40
1
40
1
40
1
41
1
10
64
20
-2.30940107675789
30
0
41
1
10
64
20
-2.12177523860714
30
0
41
1
10
64
20
-1.93245605250212
30
0
41
1
10
64
20
-1.64527124423483
30
0
41
1
10
64
20
-1.54892775044149
30
0
41
1
10
64
20
-1.35631142039227
30
0
41
1
10
64
20
-1.25990060567707
30
0
41
1
10
64
20
-0.970337663650241
30
0
41
1
10
64
20
-0.776853738230869
30
0
41
1
10
64
20
-0.388904263465435
30
0
41
1
10
64
20
-0.194438009923459
30
0
41
1
10
64
20
0.195524891739154
30
0
41
1
10
64
20
0.391021705702542
30
0
41
1
10
64
20
0.636026528314289
30
0
41
1
10
64
20
0.68509341178148
30
0
41
1
10
64
20
0.783135635702649
30
0
41
1
10
64
20
0.929791333077986
30
0
41
1
10
64
20
1.07526905896069
30
0
41
1
10
64
20
1.36477982803606
30
0
41
1
10
64
20
1.55586200361975
30
0
41
1
10
64
20
1.93485381352198
30
0
41
1
10
64
20
2.12276540930571
30
0
41
1
10
64
20
2.3094010767588
30
0
0
SPLINE
5
196
100
AcDbEntity
8
SK2
62
256
6
ByLayer
370
18
48
1
60
0
100
AcDbSpline
70
4
71
3
72
22
73
18
40
0
40
0
40
0
40
0
40
0.249999999999997
40
0.249999999999997
40
0.374999999999996
40
0.374999999999996
40
0.437499999999995
40
0.437499999999995
40
0.468749999999993
40
0.468749999999993
40
0.499999999999991
40
0.499999999999991
40
0.624999999999993
40
0.624999999999993
40
0.749999999999995
40
0.749999999999995
40
1
40
1
40
1
40
1
41
1
10
63.9999999999996
20
2.30940107675883
30
0
41
1
10
63.6730313198006
20
2.49817653228828
30
0
41
1
10
63.3433295762051
20
2.68852992270544
30
0
41
1
10
62.842818330342
20
2.97750022523695
30
0
41
1
10
62.6749852325625
20
3.07439870941889
30
0
41
1
10
62.4215361395206
20
3.22072761151244
30
0
41
1
10
62.3367703632205
20
3.26966715527738
30
0
41
1
10
62.20917839547
20
3.34333241220458
30
0
41
1
10
62.166542459295
20
3.36794828143235
30
0
41
1
10
62.08126339165
20
3.41718417409345
30
0
41
1
10
62.0386892480233
20
3.44176436737686
30
0
41
1
10
61.8261431137991
20
3.56447793518638
30
0
41
1
10
61.6571494010137
20
3.66204650075437
30
0
41
1
10
61.3211109976401
20
3.85605836340025
30
0
41
1
10
61.1540646257355
20
3.95250263118646
30
0
41
1
10
60.6555045695627
20
4.24034641382505
30
0
41
1
10
60.326561716812
20
4.43026165840865
30
0
41
1
10
60.0000000000004
20
4.6188021535169
30
0
0
SPLINE
5
197
100
AcDbEntity
8
SK2
62
256
6
ByLayer
370
18
48
1
60
0
100
AcDbSpline
70
4
71
3
72
22
73
18
40
0
40
0
40
0
40
0
40
0.250000000000005
40
0.250000000000005
40
0.375000000000005
40
0.375000000000005
40
0.437500000000005
40
0.437500000000005
40
0.468750000000003
40
0.468750000000003
40
0.500000000000001
40
0.500000000000001
40
0.625000000000001
40
0.625000000000001
40
0.750000000000001
40
0.750000000000001
40
1
40
1
40
1
40
1
41
1
10
60.0000000000003
20
-4.61880215351707
30
0
41
1
10
59.6730313198012
20
-4.43002669798756
30
0
41
1
10
59.3433295762057
20
-4.2396733075704
30
0
41
1
10
58.8428183303425
20
-3.95070300503886
30
0
41
1
10
58.6749852325629
20
-3.8538045208569
30
0
41
1
10
58.4215361395211
20
-3.70747561876328
30
0
41
1
10
58.3367703632209
20
-3.65853607499835
30
0
41
1
10
58.2091783954704
20
-3.58487081807115
30
0
41
1
10
58.1665424592954
20
-3.56025494884338
30
0
41
1
10
58.0812633916504
20
-3.51101905618228
30
0
41
1
10
58.0386892480236
20
-3.48643886289887
30
0
41
1
10
57.8261431137995
20
-3.36372529508932
30
0
41
1
10
57.657149401014
20
-3.2661567295213
30
0
41
1
10
57.3211109976403
20
-3.07214486687539
30
0
41
1
10
57.1540646257357
20
-2.97570059908915
30
0
41
1
10
56.6555045695628
20
-2.68785681645053
30
0
41
1
10
56.3265617168121
20
-2.49794157186688
30
0
41
1
10
56.0000000000004
20
-2.30940107675863
30
0
0
SPLINE
5
198
100
AcDbEntity
8
SK2
62
256
6
ByLayer
370
18
48
1
60
0
100
AcDbSpline
70
4
71
3
72
22
73
18
40
0
40
0
40
0
40
0
40
0.249999999999997
40
0.249999999999997
40
0.374999999999995
40
0.374999999999995
40
0.437499999999995
40
0.437499999999995
40
0.468749999999994
40
0.468749999999994
40
0.499999999999993
40
0.499999999999993
40
0.624999999999994
40
0.624999999999994
40
0.749999999999996
40
0.749999999999996
40
1
40
1
40
1
40
1
41
1
10
55.9999999999997
20
2.30940107675843
30
0
41
1
10
56.3269686801989
20
2.49817653228797
30
0
41
1
10
56.6566704237944
20
2.68852992270516
30
0
41
1
10
57.1571816696577
20
2.97750022523678
30
0
41
1
10
57.3250147674373
20
3.07439870941875
30
0
41
1
10
57.5784638604793
20
3.22072761151239
30
0
41
1
10
57.6632296367794
20
3.26966715527732
30
0
41
1
10
57.79082160453
20
3.34333241220455
30
0
41
1
10
57.8334575407049
20
3.36794828143232
30
0
41
1
10
57.91873660835
20
3.41718417409342
30
0
41
1
10
57.9613107519767
20
3.44176436737683
30
0
41
1
10
58.1738568862009
20
3.5644779351864
30
0
41
1
10
58.3428505989864
20
3.66204650075443
30
0
41
1
10
58.6788890023602
20
3.85605836340036
30
0
41
1
10
58.8459353742648
20
3.95250263118663
30
0
41
1
10
59.3444954304378
20
4.24034641382531
30
0
41
1
10
59.6734382831886
20
4.43026165840899
30
0
41
1
10
60.0000000000003
20
4.61880215351727
30
0
0
SPLINE
5
199
100
AcDbEntity
8
SK2
62
256
6
ByLayer
370
18
48
1
60
0
100
AcDbSpline
70
4
71
3
72
22
73
18
40
0
40
0
40
0
40
0
40
0.249999999999998
40
0.249999999999998
40
0.374999999999998
40
0.374999999999998
40
0.437499999999999
40
0.437499999999999
40
0.468750000000002
40
0.468750000000002
40
0.500000000000005
40
0.500000000000005
40
0.625000000000004
40
0.625000000000004
40
0.750000000000002
40
0.750000000000002
40
1
40
1
40
1
40
1
41
1
10
60.0000000000004
20
-4.6188021535167
30
0
41
1
10
60.3269686801995
20
-4.43002669798719
30
0
41
1
10
60.656670423795
20
-4.23967330757003
30
0
41
1
10
61.1571816696582
20
-3.95070300503846
30
0
41
1
10
61.3250147674378
20
-3.8538045208565
30
0
41
1
10
61.5784638604797
20
-3.70747561876289
30
0
41
1
10
61.6632296367798
20
-3.65853607499795
30
0
41
1
10
61.7908216045303
20
-3.58487081807076
30
0
41
1
10
61.8334575407053
20
-3.56025494884295
30
0
41
1
10
61.9187366083503
20
-3.51101905618188
30
0
41
1
10
61.9613107519771
20
-3.48643886289847
30
0
41
1
10
62.1738568862012
20
-3.36372529508893
30
0
41
1
10
62.3428505989866
20
-3.2661567295209
30
0
41
1
10
62.6788890023604
20
-3.07214486687499
30
0
41
1
10
62.845935374265
20
-2.97570059908875
30
0
41
1
10
63.3444954304379
20
-2.68785681645014
30
0
41
1
10
63.6734382831887
20
-2.49794157186648
30
0
41
1
10
64.0000000000003
20
-2.30940107675824
30
0
0
SPLINE
5
19A
100
AcDbEntity
8
SK1
62
256
6
ByLayer
370
18
48
1
60
0
100
AcDbSpline
70
4
71
3
72
18
73
14
40
0
40
0
40
0
40
0
40
0.250000000000001
40
0.250000000000001
40
0.500000000000001
40
0.500000000000001
40
0.750000000000002
40
0.750000000000002
40
0.875000000000005
40
0.875000000000005
40
0.937500000000002
40
0.937500000000002
40
1
40
1
40
1
40
1
41
1
10
-30.7600449304189
20
20.8343104848551
30
0
41
1
10
-30.8005304154139
20
20.7918881709064
30
0
41
1
10
-30.8391903531166
20
20.7469260607629
30
0
41
1
10
-30.9108217653087
20
20.6529591687477
30
0
41
1
10
-30.943814215293
20
20.6039429118275
30
0
41
1
10
-31.0007051058619
20
20.5035329740631
30
0
41
1
10
-31.0245900063635
20
20.4521521216929
30
0
41
1
10
-31.0497392711237
20
20.3751260478414
30
0
41
1
10
-31.0563287210784
20
20.3494639101468
30
0
41
1
10
-31.063030146255
20
20.3111943706256
30
0
41
1
10
-31.0647340784536
20
20.2984745440864
30
0
41
1
10
-31.0670149104397
20
20.2731305676871
30
0
41
1
10
-31.0675855446075
20
20.2605639218972
30
0
41
1
10
-31.0675798041817
20
20.2481331121862
30
0
0
SPLINE
5
19B
100
AcDbEntity
8
SK1
62
256
6
ByLayer
370
18
48
1
60
0
100
AcDbSpline
70
4
71
3
72
86
73
82
40
0
40
0
40
0
40
0
40
0.0624999999999983
40
0.0624999999999983
40
0.0937499999999974
40
0.0937499999999974
40
0.124999999999997
40
0.124999999999997
40
0.187499999999994
40
0.187499999999994
40
0.249999999999991
40
0.249999999999991
40
0.312499999999989
40
0.312499999999989
40
0.343749999999989
40
0.343749999999989
40
0.374999999999988
40
0.374999999999988
40
0.406249999999988
40
0.406249999999988
40
0.421874999999987
40
0.421874999999987
40
0.437499999999985
40
0.437499999999985
40
0.453124999999984
40
0.453124999999984
40
0.468749999999982
40
0.468749999999982
40
0.476562499999981
40
0.476562499999981
40
0.484374999999979
40
0.484374999999979
40
0.488281249999979
40
0.488281249999979
40
0.492187499999978
40
0.492187499999978
40
0.496093749999978
40
0.496093749999978
40
0.499999999999977
40
0.499999999999977
40
0.503906249999977
40
0.503906249999977
40
0.507812499999976
40
0.507812499999976
40
0.511718749999976
40
0.511718749999976
40
0.515624999999975
40
0.515624999999975
40
0.519531249999974
40
0.519531249999974
40
0.523437499999974
40
0.523437499999974
40
0.531249999999973
40
0.531249999999973
40
0.539062499999972
40
0.539062499999972
40
0.546874999999971
40
0.546874999999971
40
0.562499999999969
40
0.562499999999969
40
0.570312499999969
40
0.570312499999969
40
0.578124999999969
40
0.578124999999969
40
0.59374999999997
40
0.59374999999997
40
0.624999999999972
40
0.624999999999972
40
0.656249999999974
40
0.656249999999974
40
0.687499999999976
40
0.687499999999976
40
0.749999999999981
40
0.749999999999981
40
0.812499999999986
40
0.812499999999986
40
0.874999999999991
40
0.874999999999991
40
0.937499999999995
40
0.937499999999995
40
1
40
1
40
1
40
1
41
1
10
-31.067579804184
20
20.2481331121841
30
0
41
1
10
-31.0675534944618
20
20.1911597856753
30
0
41
1
10
-31.0690558583241
20
20.1327741063364
30
0
41
1
10
-31.0736621072266
20
20.0430219075264
30
0
41
1
10
-31.0755906353231
20
20.0127413090277
30
0
41
1
10
-31.0802571154676
20
19.9514322792556
30
0
41
1
10
-31.0829974034256
20
19.9203812011913
30
0
41
1
10
-31.0924642131351
20
19.826239197435
30
0
41
1
10
-31.1004220625196
20
19.7622140214972
30
0
41
1
10
-31.1199565860123
20
19.6313861300772
30
0
41
1
10
-31.1315271698419
20
19.564588089038
30
0
41
1
10
-31.1589046603601
20
19.4277405219717
30
0
41
1
10
-31.1746938353416
20
19.3577046054785
30
0
41
1
10
-31.2024758774279
20
19.2495051974341
30
0
41
1
10
-31.2124252963353
20
19.2129101040809
30
0
41
1
10
-31.2339927105697
20
19.1384392427516
30
0
41
1
10
-31.2456060572184
20
19.1005670427537
30
0
41
1
10
-31.2709792540053
20
19.0231751470158
30
0
41
1
10
-31.2847256462684
20
18.9836657805355
30
0
41
1
10
-31.3076349170296
20
18.9226443416616
30
0
41
1
10
-31.3156569641315
20
18.9020078862318
30
0
41
1
10
-31.3326874790758
20
18.8599778724939
30
0
41
1
10
-31.341701164681
20
18.8385743913987
30
0
41
1
10
-31.3608233426832
20
18.7952713494675
30
0
41
1
10
-31.3709464893782
20
18.7733230470748
30
0
41
1
10
-31.3927919059664
20
18.7285820626644
30
0
41
1
10
-31.4044944590443
20
18.7057997916501
30
0
41
1
10
-31.4239883582009
20
18.6706019767577
30
0
41
1
10
-31.4308149321346
20
18.6586949934503
30
0
41
1
10
-31.4453956080378
20
18.6343947370948
30
0
41
1
10
-31.4530557654096
20
18.622154938751
30
0
41
1
10
-31.4653492412449
20
18.6036004795753
30
0
41
1
10
-31.4695822857497
20
18.5973828732255
30
0
41
1
10
-31.4783891894126
20
18.5848650231498
30
0
41
1
10
-31.4829727634803
20
18.5785532873022
30
0
41
1
10
-31.4924136602904
20
18.5660436560969
30
0
41
1
10
-31.497286078152
20
18.5598227499318
30
0
41
1
10
-31.5074175429105
20
18.5474672073921
30
0
41
1
10
-31.5127238662877
20
18.5412803972508
30
0
41
1
10
-31.5235957862033
20
18.5292996144481
30
0
41
1
10
-31.5291348980288
20
18.5235298212489
30
0
41
1
10
-31.5404573490385
20
18.5125125338401
30
0
41
1
10
-31.5462755116749
20
18.507246961145
30
0
41
1
10
-31.5575913831422
20
18.4978187661359
30
0
41
1
10
-31.563158093263
20
18.4935838229719
30
0
41
1
10
-31.5741148986059
20
18.4860415905396
30
0
41
1
10
-31.5793792463082
20
18.4828239231665
30
0
41
1
10
-31.5893645662357
20
18.4774067133031
30
0
41
1
10
-31.5941222968212
20
18.4751824829452
30
0
41
1
10
-31.6032525606002
20
18.4715282175915
30
0
41
1
10
-31.6075274015997
20
18.4701359167857
30
0
41
1
10
-31.6196906075382
20
18.4669401985274
30
0
41
1
10
-31.6269330534931
20
18.466100003416
30
0
41
1
10
-31.6403110922465
20
18.4660680710015
30
0
41
1
10
-31.6463256675158
20
18.4668859982831
30
0
41
1
10
-31.6574282757023
20
18.4695940233431
30
0
41
1
10
-31.6625218827957
20
18.4714926148467
30
0
41
1
10
-31.6768223458771
20
18.4783548432816
30
0
41
1
10
-31.6850668922222
20
18.4844634595283
30
0
41
1
10
-31.6962705838447
20
18.4950103016331
30
0
41
1
10
-31.6998078881761
20
18.4987699724355
30
0
41
1
10
-31.7065166064257
20
18.5066358998743
30
0
41
1
10
-31.7096928259576
20
18.510746378881
30
0
41
1
10
-31.7187824019299
20
18.5235153597215
30
0
41
1
10
-31.7242614259409
20
18.532606671829
30
0
41
1
10
-31.7394468363423
20
18.5611278832272
30
0
41
1
10
-31.747924482385
20
18.5817822166385
30
0
41
1
10
-31.7628981589617
20
18.625065554227
30
0
41
1
10
-31.7693720151981
20
18.64771665499
30
0
41
1
10
-31.7809369288604
20
18.6943968091887
30
0
41
1
10
-31.786021053383
20
18.7184327712306
30
0
41
1
10
-31.7997362280606
20
18.7920724690002
30
0
41
1
10
-31.8068581343075
20
18.8432018313593
30
0
41
1
10
-31.8186080933067
20
18.9475497247692
30
0
41
1
10
-31.8232228848856
20
19.0008439746506
30
0
41
1
10
-31.830741184381
20
19.1089538003139
30
0
41
1
10
-31.833636252087
20
19.1637768794168
30
0
41
1
10
-31.8381282453342
20
19.2745770820052
30
0
41
1
10
-31.8397219190265
20
19.3305570963743
30
0
41
1
10
-31.8418206354993
20
19.4434849146371
30
0
41
1
10
-31.842324491531
20
19.5004337735467
30
0
41
1
10
-31.8423156651183
20
19.5578384055689
30
0
0
SPLINE
5
19C
100
AcDbEntity
8
SK1
62
256
6
ByLayer
370
18
48
1
60
0
100
AcDbSpline
70
4
71
3
72
18
73
14
40
0
40
0
40
0
40
0
40
0.166666958713054
40
0.166666958713054
40
0.333333917426107
40
0.333333917426107
40
0.416667396782634
40
0.416667396782634
40
0.500000876139161
40
0.500000876139161
40
0.666667834852218
40
0.666667834852218
40
1
40
1
40
1
40
1
41
1
10
-31.8423156651183
20
19.5578384055689
30
0
41
1
10
-31.8423124272907
20
19.5788963723869
30
0
41
1
10
-31.8431055341368
20
19.5975685905954
30
0
41
1
10
-31.8461332488021
20
19.6302930095945
30
0
41
1
10
-31.8483658607326
20
19.6443467555886
30
0
41
1
10
-31.8525270681002
20
19.6621382086598
30
0
41
1
10
-31.8540411937332
20
19.6674890511835
30
0
41
1
10
-31.8572417896358
20
19.677060393639
30
0
41
1
10
-31.8589305375732
20
19.6812911054726
30
0
41
1
10
-31.8641630878528
20
19.6924445631542
30
0
41
1
10
-31.8678718502193
20
19.6978331558005
30
0
41
1
10
-31.8789048309218
20
19.7086925976544
30
0
41
1
10
-31.8861179583109
20
19.7089022512623
30
0
41
1
10
-31.8914145245959
20
19.7035854342919
30
0
0
SPLINE
5
19D
100
AcDbEntity
8
SK1
62
256
6
ByLayer
370
18
48
1
60
0
100
AcDbSpline
70
4
71
3
72
18
73
14
40
0
40
0
40
0
40
0
40
0.166666666666672
40
0.166666666666672
40
0.333333333333344
40
0.333333333333344
40
0.416666666666677
40
0.416666666666677
40
0.50000000000001
40
0.50000000000001
40
0.666666666666676
40
0.666666666666676
40
1
40
1
40
1
40
1
41
1
10
-31.8423156651183
20
-19.557838405569
30
0
41
1
10
-31.8423124272776
20
-19.5788964574041
30
0
41
1
10
-31.8431055401534
20
-19.5975686520516
30
0
41
1
10
-31.8461332411618
20
-19.6302929305892
30
0
41
1
10
-31.8483658328874
20
-19.6443465600596
30
0
41
1
10
-31.8525269753938
20
-19.6621378505255
30
0
41
1
10
-31.8540411331186
20
-19.6674888528559
30
0
41
1
10
-31.8572417503739
20
-19.6770602932875
30
0
41
1
10
-31.8589305081703
20
-19.6812910376212
30
0
41
1
10
-31.8641630823175
20
-19.6924445617111
30
0
41
1
10
-31.86787185249
20
-19.6978331581021
30
0
41
1
10
-31.8789048656756
20
-19.7086926317288
30
0
41
1
10
-31.886117982338
20
-19.7089022277163
30
0
41
1
10
-31.8914145256276
20
-19.7035854332563
30
0
0
SPLINE
5
19E
100
AcDbEntity
8
SK1
62
256
6
ByLayer
370
18
48
1
60
0
100
AcDbSpline
70
4
71
3
72
86
73
82
40
0
40
0
40
0
40
0
40
0.0625000000000026
40
0.0625000000000026
40
0.0937500000000035
40
0.0937500000000035
40
0.125000000000004
40
0.125000000000004
40
0.187500000000005
40
0.187500000000005
40
0.250000000000005
40
0.250000000000005
40
0.312500000000005
40
0.312500000000005
40
0.343750000000006
40
0.343750000000006
40
0.375000000000007
40
0.375000000000007
40
0.406250000000007
40
0.406250000000007
40
0.421875000000007
40
0.421875000000007
40
0.437500000000007
40
0.437500000000007
40
0.453125000000007
40
0.453125000000007
40
0.468750000000007
40
0.468750000000007
40
0.476562500000007
40
0.476562500000007
40
0.484375000000007
40
0.484375000000007
40
0.488281250000006
40
0.488281250000006
40
0.492187500000005
40
0.492187500000005
40
0.496093750000004
40
0.496093750000004
40
0.500000000000003
40
0.500000000000003
40
0.503906250000002
40
0.503906250000002
40
0.507812500000001
40
0.507812500000001
40
0.51171875
40
0.51171875
40
0.515624999999999
40
0.515624999999999
40
0.519531249999998
40
0.519531249999998
40
0.523437499999997
40
0.523437499999997
40
0.531249999999997
40
0.531249999999997
40
0.539062499999996
40
0.539062499999996
40
0.546874999999996
40
0.546874999999996
40
0.562499999999995
40
0.562499999999995
40
0.570312499999995
40
0.570312499999995
40
0.578124999999995
40
0.578124999999995
40
0.593749999999995
40
0.593749999999995
40
0.624999999999996
40
0.624999999999996
40
0.656249999999996
40
0.656249999999996
40
0.687499999999997
40
0.687499999999997
40
0.749999999999997
40
0.749999999999997
40
0.812499999999998
40
0.812499999999998
40
0.874999999999999
40
0.874999999999999
40
0.937499999999999
40
0.937499999999999
40
1
40
1
40
1
40
1
41
1
10
-31.067579804184
20
-20.2481331121841
30
0
41
1
10
-31.0675534944799
20
-20.1911598250595
30
0
41
1
10
-31.0690558562391
20
-20.1327741785481
30
0
41
1
10
-31.0736621007992
20
-20.0430220169692
30
0
41
1
10
-31.0755906272496
20
-20.0127414288743
30
0
41
1
10
-31.080257104053
20
-19.9514324154455
30
0
41
1
10
-31.0829973921192
20
-19.9203813292839
30
0
41
1
10
-31.0924641772114
20
-19.8262395233603
30
0
41
1
10
-31.1004220038532
20
-19.7622144791398
30
0
41
1
10
-31.1199564688365
20
-19.6313868500958
30
0
41
1
10
-31.1315270169387
20
-19.5645889397036
30
0
41
1
10
-31.1589044208933
20
-19.4277416325859
30
0
41
1
10
-31.1746935451899
20
-19.3577058453325
30
0
41
1
10
-31.2024754952608
20
-19.2495066308991
30
0
41
1
10
-31.2124248807956
20
-19.2129116020518
30
0
41
1
10
-31.2339922209399
20
-19.1384408702743
30
0
41
1
10
-31.2456055269336
20
-19.1005687352885
30
0
41
1
10
-31.2709786311793
20
-19.0231769716379
30
0
41
1
10
-31.2847249717861
20
-18.9836676720972
30
0
41
1
10
-31.3076341494911
20
-18.9226463385899
30
0
41
1
10
-31.3156561629301
20
-18.9020099191337
30
0
41
1
10
-31.3326866023335
20
-18.8599799806348
30
0
41
1
10
-31.3417002622532
20
-18.8385764999578
30
0
41
1
10
-31.3608223753417
20
-18.7952734750922
30
0
41
1
10
-31.3709454828759
20
-18.7733251884509
30
0
41
1
10
-31.3927907938227
20
-18.7285842604353
30
0
41
1
10
-31.4044932816838
20
-18.705802029268
30
0
41
1
10
-31.4239870332908
20
-18.6706043130995
30
0
41
1
10
-31.4308135055291
20
-18.6586974427099
30
0
41
1
10
-31.4453941233627
20
-18.6343971398108
30
0
41
1
10
-31.453054242257
20
-18.622157326487
30
0
41
1
10
-31.465347631389
20
-18.6036028649066
30
0
41
1
10
-31.4695806420624
20
-18.5973852611454
30
0
41
1
10
-31.4783874629757
20
-18.5848674254362
30
0
41
1
10
-31.4829710051464
20
-18.5785556772674
30
0
41
1
10
-31.4924118347875
20
-18.5660460149064
30
0
41
1
10
-31.4972842123299
20
-18.5598250962616
30
0
41
1
10
-31.5074155755051
20
-18.5474695357939
30
0
41
1
10
-31.5127218227735
20
-18.5412827337069
30
0
41
1
10
-31.5235937264866
20
-18.5293017997569
30
0
41
1
10
-31.5291328199053
20
-18.5235319382215
30
0
41
1
10
-31.540455206301
20
-18.5125145240029
30
0
41
1
10
-31.5462733934334
20
-18.5072488249712
30
0
41
1
10
-31.5575893391609
20
-18.4978203702407
30
0
41
1
10
-31.5631560757219
20
-18.4935853099657
30
0
41
1
10
-31.5741129152167
20
-18.4860428576641
30
0
41
1
10
-31.5793773870242
20
-18.4828250180029
30
0
41
1
10
-31.5893628312424
20
-18.4774075684557
30
0
41
1
10
-31.5941206124756
20
-18.4751832342693
30
0
41
1
10
-31.6032509622764
20
-18.4715287801372
30
0
41
1
10
-31.6075259110806
20
-18.4701363725632
30
0
41
1
10
-31.6196892919795
20
-18.4669404158795
30
0
41
1
10
-31.626931817693
20
-18.4661001055432
30
0
41
1
10
-31.6403099849974
20
-18.4660679744844
30
0
41
1
10
-31.6463246677904
20
-18.4668858294531
30
0
41
1
10
-31.6574273993907
20
-18.4695937346039
30
0
41
1
10
-31.6625210547536
20
-18.4714922786134
30
0
41
1
10
-31.6768216409587
20
-18.4783543828114
30
0
41
1
10
-31.6850662410959
20
-18.4844629399588
30
0
41
1
10
-31.6962699976864
20
-18.4950097031546
30
0
41
1
10
-31.6998073256464
20
-18.4987693542862
30
0
41
1
10
-31.7065160959732
20
-18.5066352599659
30
0
41
1
10
-31.709692338417
20
-18.5107457302964
30
0
41
1
10
-31.7187819764966
20
-18.5235146894651
30
0
41
1
10
-31.7242610332234
20
-18.5326059928096
30
0
41
1
10
-31.7394465274052
20
-18.5611271858249
30
0
41
1
10
-31.7479242105624
20
-18.581781517225
30
0
41
1
10
-31.7628979469376
20
-18.6250648550227
30
0
41
1
10
-31.7693718252074
20
-18.647715958541
30
0
41
1
10
-31.780936775267
20
-18.6943961188109
30
0
41
1
10
-31.7860209140009
20
-18.7184320842854
30
0
41
1
10
-31.7997361246821
20
-18.7920717910877
30
0
41
1
10
-31.80685805216
20
-18.8432011946923
30
0
41
1
10
-31.8186080449852
20
-18.9475492027824
30
0
41
1
10
-31.8232228476894
20
-19.0008435080291
30
0
41
1
10
-31.8307411640382
20
-19.1089534395516
30
0
41
1
10
-31.8336362373556
20
-19.1637765692048
30
0
41
1
10
-31.8381282388223
20
-19.2745768682288
30
0
41
1
10
-31.8397219150848
20
-19.3305569284987
30
0
41
1
10
-31.8418206348239
20
-19.4434848340781
30
0
41
1
10
-31.842324491537
20
-19.5004337344101
30
0
41
1
10
-31.8423156651183
20
-19.557838405569
30
0
0
SPLINE
5
19F
100
AcDbEntity
8
SK1
62
256
6
ByLayer
370
18
48
1
60
0
100
AcDbSpline
70
4
71
3
72
18
73
14
40
0
40
0
40
0
40
0
40
0.250000000000001
40
0.250000000000001
40
0.500000000000002
40
0.500000000000002
40
0.750000000000004
40
0.750000000000004
40
0.875000000000002
40
0.875000000000002
40
0.937500000000001
40
0.937500000000001
40
1
40
1
40
1
40
1
41
1
10
-30.7600449304188
20
-20.8343104848552
30
0
41
1
10
-30.8005304147294
20
-20.7918881716236
30
0
41
1
10
-30.8391903518078
20
-20.7469260622839
30
0
41
1
10
-30.9108217629845
20
-20.6529591719925
30
0
41
1
10
-30.9438142125762
20
-20.6039429159931
30
0
41
1
10
-31.0007051028081
20
-20.5035329800824
30
0
41
1
10
-31.0245900033695
20
-20.4521521286419
30
0
41
1
10
-31.0497392687942
20
-20.3751260560864
30
0
41
1
10
-31.0563287190667
20
-20.3494639188073
30
0
41
1
10
-31.0630301448817
20
-20.3111943798815
30
0
41
1
10
-31.0647340773198
20
-20.2984745535364
30
0
41
1
10
-31.0670149098383
20
-20.2731305775175
30
0
41
1
10
-31.0675855446106
20
-20.2605639288718
30
0
41
1
10
-31.0675798041816
20
-20.2481331121862
30
0
0
SPLINE
5
1A0
100
AcDbEntity
8
SK1
62
256
6
ByLayer
370
18
48
1
60
0
100
AcDbSpline
70
4
71
3
72
88
73
84
40
0
40
0
40
0
40
0
40
0.0056544307399655
40
0.0056544307399655
40
0.0369018305940462
40
0.0369018305940462
40
0.0681492304481269
40
0.0681492304481269
40
0.0993966303022075
40
0.0993966303022075
40
0.130644030156288
40
0.130644030156288
40
0.146267730083329
40
0.154079580046849
40
0.154079580046849
40
0.161891430010369
40
0.161891430010369
40
0.19313882986445
40
0.19313882986445
40
0.22438622971853
40
0.255633629572611
40
0.255633629572611
40
0.286881029426692
40
0.286881029426692
40
0.318128429280773
40
0.349375829134854
40
0.349375829134854
40
0.357187679098374
40
0.357187679098374
40
0.364999529061894
40
0.364999529061894
40
0.380623228988935
40
0.380623228988935
40
0.411870628843017
40
0.443118028697098
40
0.47436542855118
40
0.47436542855118
40
0.4821772785147
40
0.4821772785147
40
0.489989128478221
40
0.505612828405262
40
0.505612828405262
40
0.536860228259345
40
0.568107628113427
40
0.568107628113427
40
0.583731328040469
40
0.591543178003989
40
0.591543178003989
40
0.59935502796751
40
0.59935502796751
40
0.630602427821592
40
0.661849827675675
40
0.661849827675675
40
0.693097227529757
40
0.693097227529757
40
0.708720927456798
40
0.708720927456798
40
0.716532777420319
40
0.716532777420319
40
0.72434462738384
40
0.755592027237922
40
0.786839427092004
40
0.786839427092004
40
0.818086826946087
40
0.818086826946087
40
0.825898676909608
40
0.825898676909608
40
0.833710526873128
40
0.833710526873128
40
0.84933422680017
40
0.84933422680017
40
0.880581626654253
40
0.880581626654253
40
0.911829026508336
40
0.911829026508336
40
0.927452726435378
40
0.927452726435378
40
0.935264576398899
40
0.935264576398899
40
0.94307642636242
40
0.94307642636242
40
0.974323826216503
40
1
40
1
40
1
40
1
41
1
10
-4.3016863439214
20
24.1051159293765
30
0
41
1
10
-4.30169084773497
20
24.1051151127991
30
0
41
1
10
-4.30195541613149
20
24.1050609596388
30
0
41
1
10
-4.30536782734261
20
24.1043613496406
30
0
41
1
10
-4.31614758031967
20
24.1021487344219
30
0
41
1
10
-4.35340135419196
20
24.0945493849193
30
0
41
1
10
-4.37987586635512
20
24.0891622982116
30
0
41
1
10
-4.44891908335144
20
24.0752540951658
30
0
41
1
10
-4.49082342534541
20
24.0668680204953
30
0
41
1
10
-4.58858282604818
20
24.0475686672466
30
0
41
1
10
-4.64444078155667
20
24.0366546474642
30
0
41
1
10
-4.73844404924647
20
24.0186053787488
30
0
41
1
10
-4.78800454267861
20
24.0091607772999
30
0
41
1
10
-4.84140347098595
20
23.9991239778133
30
0
41
1
10
-4.87785826413317
20
23.9923052546659
30
0
41
1
10
-4.89653960027903
20
23.9888272932572
30
0
41
1
10
-4.99173167448069
20
23.9711959322813
30
0
41
1
10
-5.07345418982887
20
23.9563429896812
30
0
41
1
10
-5.24740534000269
20
23.9255225815658
30
0
41
1
10
-5.43186504620503
20
23.8935884692672
30
0
41
1
10
-5.63680740863747
20
23.860102163332
30
0
41
1
10
-5.8520397693638
20
23.8261603582413
30
0
41
1
10
-5.96329638868777
20
23.8092009654145
30
0
41
1
10
-6.19248673236713
20
23.7756466629153
30
0
41
1
10
-6.42843812096747
20
23.7424444263185
30
0
41
1
10
-6.67763908592313
20
23.7104975621619
30
0
41
1
10
-6.83756376255465
20
23.6910903973563
30
0
41
1
10
-6.8697578623145
20
23.6872369385211
30
0
41
1
10
-6.93456709288282
20
23.6795901478982
30
0
41
1
10
-6.96722049481698
20
23.6757924910873
30
0
41
1
10
-7.06542972331472
20
23.6645400714812
30
0
41
1
10
-7.13127877974433
20
23.6572200536679
30
0
41
1
10
-7.32993264071047
20
23.6358334985277
30
0
41
1
10
-7.59774955390748
20
23.6088486303023
30
0
41
1
10
-8.00814620129327
20
23.5734005827058
30
0
41
1
10
-8.28756103674436
20
23.5534012244308
30
0
41
1
10
-8.46407198051796
20
23.5421243095026
30
0
41
1
10
-8.49947362982947
20
23.5399299494132
30
0
41
1
10
-8.57011605624487
20
23.5356859859621
30
0
41
1
10
-8.67596912924523
20
23.5295286298487
30
0
41
1
10
-8.78149389774403
20
23.5239938959418
30
0
41
1
10
-8.99211137104625
20
23.5137463672139
30
0
41
1
10
-9.27178423802961
20
23.5022744878207
30
0
41
1
10
-9.54916793577307
20
23.4950973017089
30
0
41
1
10
-9.75632742419704
20
23.4912897893957
30
0
41
1
10
-9.85968725372068
20
23.4897798453115
30
0
41
1
10
-9.96270970268506
20
23.4888535724898
30
0
41
1
10
-10.0313153038411
20
23.4883649467269
30
0
41
1
10
-10.0656252034762
20
23.4881849823938
30
0
41
1
10
-10.2363031957403
20
23.4876073519397
30
0
41
1
10
-10.5038418468566
20
23.4887333733928
30
0
41
1
10
-10.7605101095889
20
23.4934823130593
30
0
41
1
10
-11.0117058741089
20
23.4998104833313
30
0
41
1
10
-11.1345680915786
20
23.5037645043528
30
0
41
1
10
-11.3146131107252
20
23.5107053328383
30
0
41
1
10
-11.3739188052124
20
23.5131872031446
30
0
41
1
10
-11.461782695779
20
23.5171398196357
30
0
41
1
10
-11.4909139860094
20
23.5184969051107
30
0
41
1
10
-11.548690092314
20
23.5212781537709
30
0
41
1
10
-11.6915745504052
20
23.5283836560045
30
0
41
1
10
-11.9349352689428
20
23.5424044329511
30
0
41
1
10
-12.1317688860197
20
23.5559372766504
30
0
41
1
10
-12.3186581544296
20
23.5696743005681
30
0
41
1
10
-12.4071325015711
20
23.5766454521324
30
0
41
1
10
-12.5111847229628
20
23.5852786082452
30
0
41
1
10
-12.5316672485766
20
23.5870011677319
30
0
41
1
10
-12.5719645232395
20
23.5904327471602
30
0
41
1
10
-12.5918036439564
20
23.5921439390935
30
0
41
1
10
-12.649958032955
20
23.5972189430162
30
0
41
1
10
-12.6870041217728
20
23.6005318083987
30
0
41
1
10
-12.793029641511
20
23.610202809527
30
0
41
1
10
-12.856909343449
20
23.6162927534537
30
0
41
1
10
-12.9710489508254
20
23.62747803454
30
0
41
1
10
-13.0213099416692
20
23.6325738325079
30
0
41
1
10
-13.0861551596527
20
23.6392727492728
30
0
41
1
10
-13.1060090734278
20
23.6413483233523
30
0
41
1
10
-13.1330725294575
20
23.6442008161261
30
0
41
1
10
-13.1416405258964
20
23.6451081679137
30
0
41
1
10
-13.1578543559826
20
23.6468317534131
30
0
41
1
10
-13.1654843884349
20
23.6476463125307
30
0
41
1
10
-13.2010817699801
20
23.6514592160886
30
0
41
1
10
-13.2384580636305
20
23.6555336746401
30
0
41
1
10
-13.2500488309689
20
23.6568082699286
30
0
41
1
10
-13.2500010274287
20
23.6568035144408
30
0
0
SPLINE
5
1A1
100
AcDbEntity
8
SK1
62
256
6
ByLayer
370
18
48
1
60
0
100
AcDbSpline
70
4
71
3
72
99
73
95
40
0
40
0
40
0
40
0
40
0.0087713589540368
40
0.0087713589540368
40
0.0165813077589135
40
0.0165813077589135
40
0.0243912565637902
40
0.0243912565637902
40
0.0556310517832969
40
0.0556310517832969
40
0.0868708470028037
40
0.0868708470028037
40
0.102490744612557
40
0.102490744612557
40
0.110300693417434
40
0.110300693417434
40
0.118110642222311
40
0.118110642222311
40
0.149350437441817
40
0.149350437441817
40
0.180590232661324
40
0.180590232661324
40
0.196210130271078
40
0.196210130271078
40
0.204020079075955
40
0.204020079075955
40
0.211830027880831
40
0.211830027880831
40
0.243069823100339
40
0.243069823100339
40
0.274309618319846
40
0.274309618319846
40
0.289929515929599
40
0.297739464734476
40
0.297739464734476
40
0.305549413539353
40
0.305549413539353
40
0.336789208758861
40
0.336789208758861
40
0.368029003978368
40
0.399268799197876
40
0.399268799197876
40
0.41488869680763
40
0.41488869680763
40
0.430508594417384
40
0.430508594417384
40
0.461748389636892
40
0.492988184856401
40
0.492988184856401
40
0.508608082466155
40
0.516418031271032
40
0.516418031271032
40
0.52422798007591
40
0.52422798007591
40
0.555467775295418
40
0.586707570514926
40
0.617947365734434
40
0.617947365734434
40
0.633567263344188
40
0.633567263344188
40
0.649187160953942
40
0.649187160953942
40
0.68042695617345
40
0.711666751392958
40
0.711666751392958
40
0.742906546612466
40
0.742906546612466
40
0.75852644422222
40
0.75852644422222
40
0.766336393027097
40
0.766336393027097
40
0.774146341831974
40
0.805386137051481
40
0.836625932270989
40
0.836625932270989
40
0.867865727490496
40
0.867865727490496
40
0.875675676295373
40
0.875675676295373
40
0.88348562510025
40
0.88348562510025
40
0.899105522710004
40
0.899105522710004
40
0.930345317929512
40
0.930345317929512
40
0.961585113149019
40
0.961585113149019
40
0.977205010758774
40
0.977205010758774
40
0.98501495956365
40
0.98501495956365
40
0.992824908368527
40
0.992824908368527
40
1
40
1
40
1
40
1
41
1
10
-13.2500000042117
20
-23.6568035699056
30
0
41
1
10
-13.2499852096326
20
-23.6568019379447
30
0
41
1
10
-13.2493450947235
20
-23.6567316630699
30
0
41
1
10
-13.2469365039879
20
-23.6564673089889
30
0
41
1
10
-13.2452991642845
20
-23.6562876585973
30
0
41
1
10
-13.2410429449998
20
-23.6558212498927
30
0
41
1
10
-13.238422655649
20
-23.6555343371857
30
0
41
1
10
-13.2228904369507
20
-23.6538365505641
30
0
41
1
10
-13.2027059118385
20
-23.6516353933438
30
0
41
1
10
-13.1472632100579
20
-23.6456924894018
30
0
41
1
10
-13.1120040591079
20
-23.6419504904621
30
0
41
1
10
-13.0477814830663
20
-23.6353053849914
30
0
41
1
10
-13.0244813481594
20
-23.6329185076143
30
0
41
1
10
-12.9866550651022
20
-23.6290978139931
30
0
41
1
10
-12.9735673760034
20
-23.6277843087307
30
0
41
1
10
-12.9465940156616
20
-23.6250971100961
30
0
41
1
10
-12.9326897576672
20
-23.6237215317615
30
0
41
1
10
-12.8611124023998
20
-23.6166960900214
30
0
41
1
10
-12.7972883829372
20
-23.6106036598319
30
0
41
1
10
-12.6570409007133
20
-23.5977871756569
30
0
41
1
10
-12.5806158295877
20
-23.5910625891893
30
0
41
1
10
-12.4566140370219
20
-23.5807407804376
30
0
41
1
10
-12.4137163910493
20
-23.5772611251988
30
0
41
1
10
-12.3470080832681
20
-23.5720144807512
30
0
41
1
10
-12.3243587430964
20
-23.5702596739445
30
0
41
1
10
-12.2785103065266
20
-23.5667647000925
30
0
41
1
10
-12.2552856904667
20
-23.5650224806888
30
0
41
1
10
-12.1376841190669
20
-23.5563507829001
30
0
41
1
10
-12.0388838172258
20
-23.5495398741343
30
0
41
1
10
-11.8322424541654
20
-23.5364971188834
30
0
41
1
10
-11.7244000562005
20
-23.5302647562708
30
0
41
1
10
-11.5559397289975
20
-23.5215939255662
30
0
41
1
10
-11.4700325268677
20
-23.5174279856824
30
0
41
1
10
-11.3815971444373
20
-23.5135634252247
30
0
41
1
10
-11.3220754526997
20
-23.5110593916302
30
0
41
1
10
-11.292040288245
20
-23.5098440427786
30
0
41
1
10
-11.1412090975778
20
-23.5039896941272
30
0
41
1
10
-11.0178624240849
20
-23.4999929024078
30
0
41
1
10
-10.7660399087142
20
-23.4935952418476
30
0
41
1
10
-10.5090870676334
20
-23.4887940776504
30
0
41
1
10
-10.242038690245
20
-23.4876189889922
30
0
41
1
10
-10.0379253701214
20
-23.4882641360031
30
0
41
1
10
-9.96909745915053
20
-23.4887360245954
30
0
41
1
10
-9.83135291982146
20
-23.4902017560846
30
0
41
1
10
-9.76234395534391
20
-23.4911947338096
30
0
41
1
10
-9.55491657989549
20
-23.4949624386458
30
0
41
1
10
-9.27728095010185
20
-23.5020900472767
30
0
41
1
10
-8.99756793694368
20
-23.5135091808747
30
0
41
1
10
-8.78700252968954
20
-23.5237125008811
30
0
41
1
10
-8.68152435641586
20
-23.5292238822118
30
0
41
1
10
-8.57574943133041
20
-23.5353553168573
30
0
41
1
10
-8.50516629236199
20
-23.5395813403766
30
0
41
1
10
-8.46980183964926
20
-23.5417661028801
30
0
41
1
10
-8.29331585260806
20
-23.5530052448838
30
0
41
1
10
-8.01401881209087
20
-23.5729390326172
30
0
41
1
10
-7.60401258929519
20
-23.6082658901943
30
0
41
1
10
-7.3365835574412
20
-23.6351503889625
30
0
41
1
10
-7.13826597722017
20
-23.6564527074369
30
0
41
1
10
-7.07253642101861
20
-23.6637432476213
30
0
41
1
10
-6.9418441646939
20
-23.6786844046452
30
0
41
1
10
-6.87677097778636
20
-23.6863493221285
30
0
41
1
10
-6.68462051554097
20
-23.709619843392
30
0
41
1
10
-6.43547363472476
20
-23.741501597346
30
0
41
1
10
-6.20019551432105
20
-23.7745513711411
30
0
41
1
10
-5.97193167710209
20
-23.8079061106606
30
0
41
1
10
-5.86130586018856
20
-23.824736486798
30
0
41
1
10
-5.70084746445249
20
-23.8499869407451
30
0
41
1
10
-5.64827648052714
20
-23.8584043682081
30
0
41
1
10
-5.57083822625769
20
-23.8710008366057
30
0
41
1
10
-5.54527212997708
20
-23.8751931570183
30
0
41
1
10
-5.49491518416578
20
-23.8835134163765
30
0
41
1
10
-5.37077964737088
20
-23.9041834667715
30
0
41
1
10
-5.162978688686
20
-23.9401092886478
30
0
41
1
10
-5.00050606880195
20
-23.9695954701138
30
0
41
1
10
-4.84949796142111
20
-23.9975184722948
30
0
41
1
10
-4.77972332880707
20
-24.0106992370933
30
0
41
1
10
-4.70013346056197
20
-24.0259579533634
30
0
41
1
10
-4.68459802487294
20
-24.0289486829332
30
0
41
1
10
-4.65430866683162
20
-24.0348014035447
30
0
41
1
10
-4.63961951812659
20
-24.0376508796205
30
0
41
1
10
-4.59697075937376
20
-24.0459525421521
30
0
41
1
10
-4.57040176631843
20
-24.0511632490484
30
0
41
1
10
-4.49623484469879
20
-24.0657907722911
30
0
41
1
10
-4.45416284893423
20
-24.074203866331
30
0
41
1
10
-4.38483973098329
20
-24.0881571163303
30
0
41
1
10
-4.35758717148457
20
-24.0936977199571
30
0
41
1
10
-4.32823260598512
20
-24.0996826801603
30
0
41
1
10
-4.32037224999968
20
-24.101289709509
30
0
41
1
10
-4.31155750899617
20
-24.1030935224463
30
0
41
1
10
-4.30911679194931
20
-24.1035933832659
30
0
41
1
10
-4.3052652665865
20
-24.1043824412738
30
0
41
1
10
-4.30384855157047
20
-24.104672847056
30
0
41
1
10
-4.3020958103488
20
-24.1050321672241
30
0
41
1
10
-4.30168021960942
20
-24.1051172412247
30
0
41
1
10
-4.30168578202985
20
-24.1051159706438
30
0
0
SPLINE
5
1A2
100
AcDbEntity
8
SK1
62
256
6
ByLayer
370
18
48
1
60
0
100
AcDbSpline
70
4
71
3
72
48
73
44
40
0
40
0
40
0
40
0
40
0.125
40
0.125
40
0.187500000000001
40
0.187500000000001
40
0.250000000000002
40
0.250000000000002
40
0.375000000000004
40
0.375000000000004
40
0.500000000000006
40
0.500000000000006
40
0.562500000000007
40
0.562500000000007
40
0.593750000000007
40
0.625000000000006
40
0.625000000000006
40
0.687500000000008
40
0.687500000000008
40
0.75000000000001
40
0.75000000000001
40
0.812500000000011
40
0.812500000000011
40
0.843750000000013
40
0.843750000000013
40
0.875000000000014
40
0.875000000000014
40
0.906250000000015
40
0.906250000000015
40
0.921875000000014
40
0.921875000000014
40
0.937500000000013
40
0.937500000000013
40
0.945312500000012
40
0.945312500000012
40
0.95312500000001
40
0.95312500000001
40
0.968750000000007
40
0.984375000000003
40
0.984375000000003
40
0.992187500000002
40
0.992187500000002
40
1
40
1
40
1
40
1
41
1
10
-25.8
20
21.8338164768251
30
0
41
1
10
-25.8
20
21.7915616932458
30
0
41
1
10
-25.8090351025927
20
21.7478886231866
30
0
41
1
10
-25.8346249276201
20
21.6803274915862
30
0
41
1
10
-25.8451736895935
20
21.6574593703769
30
0
41
1
10
-25.8701328331009
20
21.6110688835369
30
0
41
1
10
-25.8844279552089
20
21.5877568927844
30
0
41
1
10
-25.9323193271322
20
21.5174811379225
30
0
41
1
10
-25.9708950458691
20
21.4701766351094
30
0
41
1
10
-26.0597609446709
20
21.3747376968518
30
0
41
1
10
-26.110046951095
20
21.3266019341388
30
0
41
1
10
-26.1937594442119
20
21.2538676785148
30
0
41
1
10
-26.2230510956807
20
21.2295349064355
30
0
41
1
10
-26.2691019693368
20
21.1929233351457
30
0
41
1
10
-26.3005081848897
20
21.1684781899147
30
0
41
1
10
-26.333365133678
20
21.143967917257
30
0
41
1
10
-26.3836133703914
20
21.1072837145488
30
0
41
1
10
-26.4184363723703
20
21.0828939039856
30
0
41
1
10
-26.4910775441697
20
21.0343527408063
30
0
41
1
10
-26.5289288892006
20
21.0101707773758
30
0
41
1
10
-26.6081703997843
20
20.9624296091495
30
0
41
1
10
-26.64952079047
20
20.9388574261358
30
0
41
1
10
-26.7155571452228
20
20.9043825860995
30
0
41
1
10
-26.7381850495635
20
20.8930763850153
30
0
41
1
10
-26.7849643407706
20
20.8710565078676
30
0
41
1
10
-26.8091240203117
20
20.8603320584472
30
0
41
1
10
-26.8596629929598
20
20.8397526331818
30
0
41
1
10
-26.8860248460639
20
20.8298902068594
30
0
41
1
10
-26.9281901973078
20
20.8161652083246
30
0
41
1
10
-26.9425890117265
20
20.8118063042743
30
0
41
1
10
-26.9720526096038
20
20.8036833762741
30
0
41
1
10
-26.9871413088019
20
20.7999110001801
30
0
41
1
10
-27.0104414007835
20
20.7947971843858
30
0
41
1
10
-27.0183196500098
20
20.793183683286
30
0
41
1
10
-27.034326472393
20
20.790161750743
30
0
41
1
10
-27.0424360016077
20
20.7887581757635
30
0
41
1
10
-27.0667844525407
20
20.7849461963152
30
0
41
1
10
-27.0995297022306
20
20.7808835265937
30
0
41
1
10
-27.1328814273506
20
20.7790296636822
30
0
41
1
10
-27.1581348648262
20
20.778512286374
30
0
41
1
10
-27.1666027794188
20
20.7784864100351
30
0
41
1
10
-27.1833765602225
20
20.7787216300466
30
0
41
1
10
-27.1917124319091
20
20.7789815897089
30
0
41
1
10
-27.2000000000002
20
20.7793761248439
30
0
0
SPLINE
5
1A3
100
AcDbEntity
8
SK1
62
256
6
ByLayer
370
18
48
1
60
0
100
AcDbSpline
70
4
71
3
72
16
73
12
40
0
40
0
40
0
40
0
40
0.125
40
0.125
40
0.25
40
0.25
40
0.5
40
0.5
40
0.75
40
0.75
40
1
40
1
40
1
40
1
41
1
10
-27.2
20
20.7793761248443
30
0
41
1
10
-27.3465084704316
20
20.7863507570322
30
0
41
1
10
-27.4933392710782
20
20.7923486729526
30
0
41
1
10
-27.7874608596438
20
20.8029531916225
30
0
41
1
10
-27.9347534192272
20
20.8075544019376
30
0
41
1
10
-28.3771606158457
20
20.819759502092
30
0
41
1
10
-28.6727964516897
20
20.825790183271
30
0
41
1
10
-29.264977486922
20
20.8351189775986
30
0
41
1
10
-29.5615295006588
20
20.8383963493286
30
0
41
1
10
-30.1552999798452
20
20.842957994204
30
0
41
1
10
-30.4525208487845
20
20.8442349515119
30
0
41
1
10
-30.75
20
20.8447435124634
30
0
0
SPLINE
5
1A4
100
AcDbEntity
8
SK1
62
256
6
ByLayer
370
18
48
1
60
0
100
AcDbSpline
70
4
71
3
72
8
73
4
40
0
40
0
40
0
40
0
40
1
40
1
40
1
40
1
41
1
10
-30.7600449304189
20
20.8343104848551
30
0
41
1
10
-30.7567195771121
20
20.8377949233395
30
0
41
1
10
-30.7533711052716
20
20.8412726012232
30
0
41
1
10
-30.7500000000001
20
20.8447435124634
30
0
0
SPLINE
5
1A5
100
AcDbEntity
8
SK1
62
256
6
ByLayer
370
18
48
1
60
0
100
AcDbSpline
70
4
71
3
72
8
73
4
40
0
40
0
40
0
40
0
40
1
40
1
40
1
40
1
41
1
10
-30.7600449304189
20
-20.8343104848552
30
0
41
1
10
-30.756719577112
20
-20.8377949233395
30
0
41
1
10
-30.7533711052715
20
-20.8412726012233
30
0
41
1
10
-30.75
20
-20.8447435124635
30
0
0
SPLINE
5
1A6
100
AcDbEntity
8
SK1
62
256
6
ByLayer
370
18
48
1
60
0
100
AcDbSpline
70
4
71
3
72
48
73
44
40
0
40
0
40
0
40
0
40
0.0078125000000029
40
0.0078125000000029
40
0.0117187500000039
40
0.0117187500000039
40
0.0156250000000049
40
0.0156250000000049
40
0.0234375000000062
40
0.0234375000000062
40
0.0273437500000056
40
0.0273437500000056
40
0.0312500000000051
40
0.0312500000000051
40
0.0468750000000054
40
0.0468750000000054
40
0.0546875000000058
40
0.0546875000000058
40
0.0625000000000061
40
0.0625000000000061
40
0.0781250000000061
40
0.0781250000000061
40
0.093750000000006
40
0.093750000000006
40
0.125000000000006
40
0.125000000000006
40
0.156250000000006
40
0.156250000000006
40
0.187500000000005
40
0.187500000000005
40
0.250000000000005
40
0.250000000000005
40
0.312500000000005
40
0.312500000000005
40
0.375000000000004
40
0.375000000000004
40
0.500000000000003
40
0.500000000000003
40
0.625000000000003
40
0.625000000000003
40
0.750000000000002
40
0.750000000000002
40
1
40
1
40
1
40
1
41
1
10
-25.5425277000733
20
-20.5310987896625
30
0
41
1
10
-25.5424866524493
20
-20.5377595157758
30
0
41
1
10
-25.5443996177115
20
-20.5441621349729
30
0
41
1
10
-25.5498260363246
20
-20.5534283165569
30
0
41
1
10
-25.5520760790827
20
-20.5564759113347
30
0
41
1
10
-25.5573101036936
20
-20.5623915967856
30
0
41
1
10
-25.5602721094709
20
-20.5652422340536
30
0
41
1
10
-25.5700357633368
20
-20.5735214268276
30
0
41
1
10
-25.5777075299035
20
-20.5786795995788
30
0
41
1
10
-25.5905272785954
20
-20.5860091477294
30
0
41
1
10
-25.5950327425296
20
-20.588388487539
30
0
41
1
10
-25.6043172552081
20
-20.5929713908391
30
0
41
1
10
-25.6091076136297
20
-20.5951821780027
30
0
41
1
10
-25.6336877859024
20
-20.6058938697355
30
0
41
1
10
-25.6553048352399
20
-20.6133995829618
30
0
41
1
10
-25.6894552907456
20
-20.6237187962718
30
0
41
1
10
-25.7011675499743
20
-20.6270034036478
30
0
41
1
10
-25.7248910903238
20
-20.6332595576441
30
0
41
1
10
-25.736907523363
20
-20.6362337758315
30
0
41
1
10
-25.7733299679821
20
-20.6447852445169
30
0
41
1
10
-25.7981045047198
20
-20.6499959064268
30
0
41
1
10
-25.8483407330243
20
-20.6597337696669
30
0
41
1
10
-25.8738055279616
20
-20.6642578831378
30
0
41
1
10
-25.9509783769488
20
-20.677056049382
30
0
41
1
10
-26.0034518762885
20
-20.6845688821774
30
0
41
1
10
-26.1096994215091
20
-20.6983016062924
30
0
41
1
10
-26.1635670288403
20
-20.7045185894087
30
0
41
1
10
-26.2717116976341
20
-20.7159696930636
30
0
41
1
10
-26.3260167846635
20
-20.7212054554966
30
0
41
1
10
-26.4894487871299
20
-20.7358258109984
30
0
41
1
10
-26.5990835328443
20
-20.7441422469168
30
0
41
1
10
-26.8192048384954
20
-20.7589852207331
30
0
41
1
10
-26.9296992743999
20
-20.7654951651219
30
0
41
1
10
-27.1512979175437
20
-20.7772351363018
30
0
41
1
10
-27.2624047508887
20
-20.7824596302222
30
0
41
1
10
-27.5964205203507
20
-20.7966754914719
30
0
41
1
10
-27.8200133978855
20
-20.8042331062643
30
0
41
1
10
-28.2683752278496
20
-20.8168899057133
30
0
41
1
10
-28.4932076423441
20
-20.8219699125511
30
0
41
1
10
-28.943448072148
20
-20.8303447229384
30
0
41
1
10
-29.1688306799267
20
-20.8336327789899
30
0
41
1
10
-29.8455774169519
20
-20.8414517215489
30
0
41
1
10
-30.2975310572492
20
-20.8439699858667
30
0
41
1
10
-30.7499999999995
20
-20.8447435124654
30
0
0
SPLINE
5
1A7
100
AcDbEntity
8
SK1
62
256
6
ByLayer
370
18
48
1
60
0
100
AcDbSpline
70
4
71
3
72
39
73
35
40
0
40
0
40
0
40
0
40
0.125000000000001
40
0.125000000000001
40
0.250000000000003
40
0.250000000000003
40
0.312500000000002
40
0.312500000000002
40
0.375000000000001
40
0.375000000000001
40
0.499999999999999
40
0.499999999999999
40
0.562499999999997
40
0.562499999999997
40
0.624999999999995
40
0.624999999999995
40
0.687499999999993
40
0.687499999999993
40
0.749999999999991
40
0.749999999999991
40
0.765624999999992
40
0.765624999999992
40
0.781249999999992
40
0.812499999999996
40
0.812499999999996
40
0.875000000000001
40
0.875000000000001
40
0.890625000000002
40
0.890625000000002
40
0.906250000000003
40
0.906250000000003
40
0.937500000000002
40
0.937500000000002
40
1
40
1
40
1
40
1
41
1
10
-23.2
20
-19.4725065681035
30
0
41
1
10
-23.3288822760823
20
-19.5016611109117
30
0
41
1
10
-23.4566085328625
20
-19.5317405045093
30
0
41
1
10
-23.709213430336
20
-19.5941774716457
30
0
41
1
10
-23.8340962494108
20
-19.6265317023516
30
0
41
1
10
-24.0187082837799
20
-19.677232886736
30
0
41
1
10
-24.0797913868924
20
-19.694496688762
30
0
41
1
10
-24.200915979195
20
-19.7298576158015
30
0
41
1
10
-24.2609773696518
20
-19.7479623878937
30
0
41
1
10
-24.438487808556
20
-19.8034487178427
30
0
41
1
10
-24.5535683637336
20
-19.8420607367676
30
0
41
1
10
-24.7196027575471
20
-19.9032543323204
30
0
41
1
10
-24.773842202661
20
-19.9242019114612
30
0
41
1
10
-24.8796917387139
20
-19.9674046998998
30
0
41
1
10
-24.9313039673143
20
-19.9896588460959
30
0
41
1
10
-25.0313347407062
20
-20.0357554210027
30
0
41
1
10
-25.0797571435844
20
-20.05959593101
30
0
41
1
10
-25.1726098615665
20
-20.1092622957197
30
0
41
1
10
-25.2170477986617
20
-20.1350843598542
30
0
41
1
10
-25.2693535347922
20
-20.168974094603
30
0
41
1
10
-25.2796684139003
20
-20.1758452837683
30
0
41
1
10
-25.2998506982644
20
-20.1896964353787
30
0
41
1
10
-25.3294396013905
20
-20.2106251900732
30
0
41
1
10
-25.3568842676043
20
-20.2320301629567
30
0
41
1
10
-25.4086340830927
20
-20.2755373707948
30
0
41
1
10
-25.4389691743766
20
-20.3054671422381
30
0
41
1
10
-25.4704822938724
20
-20.3443020221435
30
0
41
1
10
-25.476462972097
20
-20.3521404997321
30
0
41
1
10
-25.4877430528607
20
-20.3679687608919
30
0
41
1
10
-25.493044766956
20
-20.3759653754049
30
0
41
1
10
-25.5077499298598
20
-20.3999871517767
30
0
41
1
10
-25.5160024518012
20
-20.4161081023829
30
0
41
1
10
-25.5359144945261
20
-20.4648034817868
30
0
41
1
10
-25.5427334623992
20
-20.4977100970872
30
0
41
1
10
-25.5425277000732
20
-20.5310987896625
30
0
0
SPLINE
5
1A8
100
AcDbEntity
8
SK1
62
256
6
ByLayer
370
18
48
1
60
0
100
AcDbSpline
70
4
71
3
72
47
73
43
40
0
40
0
40
0
40
0
40
0.0156250000000046
40
0.0156250000000046
40
0.0234375000000051
40
0.0234375000000051
40
0.0312500000000057
40
0.0390625000000063
40
0.0390625000000063
40
0.0468750000000068
40
0.0468750000000068
40
0.0546875000000074
40
0.0546875000000074
40
0.062500000000008
40
0.062500000000008
40
0.0781250000000091
40
0.0781250000000091
40
0.0937500000000102
40
0.0937500000000102
40
0.125000000000011
40
0.125000000000011
40
0.156250000000011
40
0.156250000000011
40
0.187500000000012
40
0.187500000000012
40
0.250000000000011
40
0.250000000000011
40
0.31250000000001
40
0.31250000000001
40
0.375000000000009
40
0.375000000000009
40
0.437500000000008
40
0.437500000000008
40
0.500000000000007
40
0.500000000000007
40
0.625000000000006
40
0.625000000000006
40
0.750000000000004
40
0.750000000000004
40
0.875000000000002
40
0.875000000000002
40
1
40
1
40
1
40
1
41
1
10
-23.2
20
-19.4725065681035
30
0
41
1
10
-23.1876502058549
20
-19.4697129132037
30
0
41
1
10
-23.1748847628704
20
-19.4677095952296
30
0
41
1
10
-23.1549749737367
20
-19.466157639329
30
0
41
1
10
-23.1481913924222
20
-19.4658835478517
30
0
41
1
10
-23.1344191007228
20
-19.4658826701871
30
0
41
1
10
-23.1207360257474
20
-19.4664268355751
30
0
41
1
10
-23.1072250219997
20
-19.4680222298313
30
0
41
1
10
-23.0937973918534
20
-19.4701267885901
30
0
41
1
10
-23.087121379511
20
-19.4714388483733
30
0
41
1
10
-23.0742011186608
20
-19.4744591367796
30
0
41
1
10
-23.0679075323669
20
-19.4761738220355
30
0
41
1
10
-23.055611409666
20
-19.4799600039438
30
0
41
1
10
-23.0495832603172
20
-19.4820417325072
30
0
41
1
10
-23.0320849540334
20
-19.4886830221184
30
0
41
1
10
-23.0212468954272
20
-19.4936013220225
30
0
41
1
10
-23.0007372116293
20
-19.5041240369258
30
0
41
1
10
-22.9910708411293
20
-19.5097315965184
30
0
41
1
10
-22.9634130695384
20
-19.5273350722551
30
0
41
1
10
-22.9472402693794
20
-19.5397543365689
30
0
41
1
10
-22.9175875502966
20
-19.565252644424
30
0
41
1
10
-22.9041214995746
20
-19.5783630327019
30
0
41
1
10
-22.8790263084779
20
-19.6050439254086
30
0
41
1
10
-22.8673842425326
20
-19.6186491846309
30
0
41
1
10
-22.8347029279809
20
-19.6597296361821
30
0
41
1
10
-22.8159778532693
20
-19.6872751764782
30
0
41
1
10
-22.7821753639825
20
-19.7424251458119
30
0
41
1
10
-22.7671474854473
20
-19.770034592822
30
0
41
1
10
-22.7397133648154
20
-19.8252022723899
30
0
41
1
10
-22.7273210218034
20
-19.8527619238739
30
0
41
1
10
-22.7045649261451
20
-19.907764702779
30
0
41
1
10
-22.6942063909283
20
-19.9352083672446
30
0
41
1
10
-22.6751447135572
20
-19.9899367440811
30
0
41
1
10
-22.6664374888591
20
-20.0172441643864
30
0
41
1
10
-22.642472352795
20
-20.0987162767482
30
0
41
1
10
-22.6293619628606
20
-20.1523533009539
30
0
41
1
10
-22.6075152914703
20
-20.25827682567
30
0
41
1
10
-22.5987947413251
20
-20.3105632252964
30
0
41
1
10
-22.5850628252629
20
-20.4137845853807
30
0
41
1
10
-22.5800572202371
20
-20.4647195203596
30
0
41
1
10
-22.5734309866201
20
-20.5652333068998
30
0
41
1
10
-22.5718123036207
20
-20.6148121662063
30
0
41
1
10
-22.571845502751
20
-20.6637088720743
30
0
0
SPLINE
5
1A9
100
AcDbEntity
8
SK1
62
256
6
ByLayer
370
18
48
1
60
0
100
AcDbSpline
70
4
71
3
72
32
73
28
40
0
40
0
40
0
40
0
40
0.0312500000000006
40
0.0312500000000006
40
0.0625000000000011
40
0.125000000000002
40
0.125000000000002
40
0.187500000000003
40
0.187500000000003
40
0.250000000000005
40
0.250000000000005
40
0.312500000000006
40
0.312500000000006
40
0.375000000000007
40
0.375000000000007
40
0.500000000000007
40
0.500000000000007
40
0.625000000000006
40
0.625000000000006
40
0.687500000000005
40
0.718750000000005
40
0.718750000000005
40
0.750000000000004
40
0.750000000000004
40
0.875000000000002
40
0.875000000000002
40
1
40
1
40
1
40
1
41
1
10
-22.5718455027507
20
-20.6637088720743
30
0
41
1
10
-22.5718561699141
20
-20.6794198001792
30
0
41
1
10
-22.5707069976314
20
-20.6952545580683
30
0
41
1
10
-22.5661848882145
20
-20.7266036490614
30
0
41
1
10
-22.5560980856072
20
-20.7732489028711
30
0
41
1
10
-22.5371368339948
20
-20.8188378574837
30
0
41
1
10
-22.5062120999328
20
-20.8788303309107
30
0
41
1
10
-22.4879468028426
20
-20.9084310154558
30
0
41
1
10
-22.4478950273711
20
-20.9669643221895
30
0
41
1
10
-22.4260976476506
20
-20.9959133431428
30
0
41
1
10
-22.3806910139219
20
-21.0531392587971
30
0
41
1
10
-22.3570803767931
20
-21.081417168411
30
0
41
1
10
-22.309202230497
20
-21.137418456526
30
0
41
1
10
-22.284930410253
20
-21.1651413111397
30
0
41
1
10
-22.2123773774188
20
-21.2475918157347
30
0
41
1
10
-22.1644141108179
20
-21.3016087266559
30
0
41
1
10
-22.0738164746222
20
-21.4080818281547
30
0
41
1
10
-22.0311367098062
20
-21.4605332412429
30
0
41
1
10
-21.9734283630934
20
-21.5381443266205
30
0
41
1
10
-21.9461426455466
20
-21.5766818028347
30
0
41
1
10
-21.9216111145438
20
-21.6148274767515
30
0
41
1
10
-21.9059132654255
20
-21.6401715074986
30
0
41
1
10
-21.8983866812794
20
-21.6528109985588
30
0
41
1
10
-21.8625911451137
20
-21.7156478281075
30
0
41
1
10
-21.8398505722067
20
-21.7647068671358
30
0
41
1
10
-21.8085681732411
20
-21.8603107583691
30
0
41
1
10
-21.8
20
-21.9068562324133
30
0
41
1
10
-21.8
20
-21.9520839046692
30
0
0
LINE
5
87
100
AcDbEntity
8
80
62
256
6
ByLayer
370
18
48
1
60
0
100
AcDbLine
10
0
20
0
30
0
11
-5
21
0
31
0
39
0
210
0
220
0
230
1
0
LINE
5
88
100
AcDbEntity
8
4
62
256
6
ByLayer
370
18
48
0.05
60
0
100
AcDbLine
10
0
20
0
30
0
11
85
21
0
31
0
39
0
210
0
220
0
230
1
0
LINE
5
8A
100
AcDbEntity
8
81
62
256
6
ByLayer
370
18
48
1
60
0
100
AcDbLine
10
85
20
0
30
0
11
90
21
0
31
0
39
0
210
0
220
0
230
1
0
LINE
5
8B
100
AcDbEntity
8
1
62
256
6
ByLayer
370
18
48
1
60
0
100
AcDbLine
10
25.45
20
30.431572
30
0
11
21.374612
21
30.431572
31
0
39
0
210
0
220
0
230
1
0
LINE
5
8D
100
AcDbEntity
8
1
62
256
6
ByLayer
370
18
48
1
60
0
100
AcDbLine
10
25.95
20
29.914221
30
0
11
25.95
21
23.772219
31
0
39
0
210
0
220
0
230
1
0
LINE
5
8E
100
AcDbEntity
8
1
62
256
6
ByLayer
370
18
48
1
60
0
100
AcDbLine
10
25.45
20
24.420041
30
0
11
25.45
21
30.431572
31
0
39
0
210
0
220
0
230
1
0
LINE
5
8F
100
AcDbEntity
8
1
62
256
6
ByLayer
370
18
48
1
60
0
100
AcDbLine
10
19.925
20
27.827232
30
0
11
19.925
21
21.08584
31
0
39
0
210
0
220
0
230
1
0
LINE
5
90
100
AcDbEntity
8
1
62
256
6
ByLayer
370
18
48
1
60
0
100
AcDbLine
10
21.374612
20
30.431572
30
0
11
21.374612
21
24.420041
31
0
39
0
210
0
220
0
230
1
0
LINE
5
91
100
AcDbEntity
8
1
62
256
6
ByLayer
370
18
48
1
60
0
100
AcDbLine
10
16.075
20
27.827232
30
0
11
16.075
21
21.08584
31
0
39
0
210
0
220
0
230
1
0
LINE
5
92
100
AcDbEntity
8
1
62
256
6
ByLayer
370
18
48
1
60
0
100
AcDbLine
10
16.075
20
19.85
30
0
11
16.075
21
21.08584
31
0
39
0
210
0
220
0
230
1
0
LINE
5
93
100
AcDbEntity
8
1
62
256
6
ByLayer
370
18
48
1
60
0
100
AcDbLine
10
25.95
20
19.85
30
0
11
25.95
21
23.772219
31
0
39
0
210
0
220
0
230
1
0
LINE
5
94
100
AcDbEntity
8
1
62
256
6
ByLayer
370
18
48
1
60
0
100
AcDbLine
10
19.925
20
21.08584
30
0
11
19.925
21
19.85
31
0
39
0
210
0
220
0
230
1
0
LINE
5
95
100
AcDbEntity
8
1
62
256
6
ByLayer
370
18
48
1
60
0
100
AcDbLine
10
25.45
20
24.420041
30
0
11
21.374612
21
24.420041
31
0
39
0
210
0
220
0
230
1
0
LINE
5
96
100
AcDbEntity
8
1
62
256
6
ByLayer
370
18
48
1
60
0
100
AcDbLine
10
19.525
20
26.4
30
0
11
16.475
21
26.4
31
0
39
0
210
0
220
0
230
1
0
LINE
5
97
100
AcDbEntity
8
1
62
256
6
ByLayer
370
18
48
1
60
0
100
AcDbLine
10
19.525
20
-26.4
30
0
11
16.475
21
-26.4
31
0
39
0
210
0
220
0
230
1
0
LINE
5
98
100
AcDbEntity
8
1
62
256
6
ByLayer
370
13
48
1
60
0
100
AcDbLine
10
12.19562
20
24.420041
30
0
11
12.19562
21
19.85
31
0
39
0
210
0
220
0
230
1
0
LINE
5
99
100
AcDbEntity
8
1
62
256
6
ByLayer
370
13
48
1
60
0
100
AcDbLine
10
27.624598
20
-25.8
30
0
11
27.624598
21
25.8
31
0
39
0
210
0
220
0
230
1
0
LINE
5
9A
100
AcDbEntity
8
1
62
256
6
ByLayer
370
18
48
1
60
0
100
AcDbLine
10
28.45
20
26
30
0
11
28.45
21
-26
31
0
39
0
210
0
220
0
230
1
0
LINE
5
9B
100
AcDbEntity
8
1
62
256
6
ByLayer
370
13
48
1
60
0
100
AcDbLine
10
27.77989
20
-25.820445
30
0
11
27.77989
21
25.820445
31
0
39
0
210
0
220
0
230
1
0
LINE
5
9C
100
AcDbEntity
8
1
62
256
6
ByLayer
370
18
48
1
60
0
100
AcDbLine
10
80
20
-26
30
0
11
80
21
26
31
0
39
0
210
0
220
0
230
1
0
LINE
5
9D
100
AcDbEntity
8
1
62
256
6
ByLayer
370
18
48
1
60
0
100
AcDbLine
10
85
20
21
30
0
11
85
21
-21
31
0
39
0
210
0
220
0
230
1
0
LINE
5
9E
100
AcDbEntity
8
1
62
256
6
ByLayer
370
13
48
1
60
0
100
AcDbLine
10
26.55
20
-25.8
30
0
11
26.55
21
25.8
31
0
39
0
210
0
220
0
230
1
0
LINE
5
9F
100
AcDbEntity
8
1
62
256
6
ByLayer
370
13
48
1
60
0
100
AcDbLine
10
19.525
20
26.4
30
0
11
19.525
21
17.583481
31
0
39
0
210
0
220
0
230
1
0
LINE
5
A0
100
AcDbEntity
8
1
62
256
6
ByLayer
370
13
48
1
60
0
100
AcDbLine
10
19.525
20
16.230601
30
0
11
19.525
21
12.169258
31
0
39
0
210
0
220
0
230
1
0
LINE
5
A1
100
AcDbEntity
8
1
62
256
6
ByLayer
370
13
48
1
60
0
100
AcDbLine
10
19.525
20
10.607011
30
0
11
19.525
21
6.082561
31
0
39
0
210
0
220
0
230
1
0
LINE
5
A2
100
AcDbEntity
8
1
62
256
6
ByLayer
370
13
48
1
60
0
100
AcDbLine
10
19.525
20
4.397275
30
0
11
19.525
21
-4.397275
31
0
39
0
210
0
220
0
230
1
0
LINE
5
A3
100
AcDbEntity
8
1
62
256
6
ByLayer
370
13
48
1
60
0
100
AcDbLine
10
19.525
20
-6.082561
30
0
11
19.525
21
-10.607011
31
0
39
0
210
0
220
0
230
1
0
LINE
5
A4
100
AcDbEntity
8
1
62
256
6
ByLayer
370
13
48
1
60
0
100
AcDbLine
10
19.525
20
-12.169258
30
0
11
19.525
21
-16.230601
31
0
39
0
210
0
220
0
230
1
0
LINE
5
A5
100
AcDbEntity
8
1
62
256
6
ByLayer
370
13
48
1
60
0
100
AcDbLine
10
19.525
20
-17.583481
30
0
11
19.525
21
-26.4
31
0
39
0
210
0
220
0
230
1
0
LINE
5
A6
100
AcDbEntity
8
1
62
256
6
ByLayer
370
13
48
1
60
0
100
AcDbLine
10
16.475
20
-17.583481
30
0
11
16.475
21
-26.4
31
0
39
0
210
0
220
0
230
1
0
LINE
5
A7
100
AcDbEntity
8
1
62
256
6
ByLayer
370
13
48
1
60
0
100
AcDbLine
10
16.475
20
-12.169258
30
0
11
16.475
21
-16.230601
31
0
39
0
210
0
220
0
230
1
0
LINE
5
A8
100
AcDbEntity
8
1
62
256
6
ByLayer
370
13
48
1
60
0
100
AcDbLine
10
16.475
20
-6.082561
30
0
11
16.475
21
-10.607011
31
0
39
0
210
0
220
0
230
1
0
LINE
5
A9
100
AcDbEntity
8
1
62
256
6
ByLayer
370
13
48
1
60
0
100
AcDbLine
10
16.475
20
4.397275
30
0
11
16.475
21
-4.397275
31
0
39
0
210
0
220
0
230
1
0
LINE
5
AA
100
AcDbEntity
8
1
62
256
6
ByLayer
370
13
48
1
60
0
100
AcDbLine
10
16.475
20
10.607011
30
0
11
16.475
21
6.082561
31
0
39
0
210
0
220
0
230
1
0
LINE
5
AB
100
AcDbEntity
8
1
62
256
6
ByLayer
370
13
48
1
60
0
100
AcDbLine
10
16.475
20
16.230601
30
0
11
16.475
21
12.169258
31
0
39
0
210
0
220
0
230
1
0
LINE
5
AC
100
AcDbEntity
8
1
62
256
6
ByLayer
370
13
48
1
60
0
100
AcDbLine
10
16.475
20
26.4
30
0
11
16.475
21
17.583481
31
0
39
0
210
0
220
0
230
1
0
LINE
5
AD
100
AcDbEntity
8
1
62
256
6
ByLayer
370
18
48
1
60
0
100
AcDbLine
10
16.075
20
19.85
30
0
11
16.075
21
-27.519445
31
0
39
0
210
0
220
0
230
1
0
LINE
5
AE
100
AcDbEntity
8
1
62
256
6
ByLayer
370
18
48
1
60
0
100
AcDbLine
10
25.95
20
19.85
30
0
11
25.95
21
-29.628122
31
0
39
0
210
0
220
0
230
1
0
LINE
5
AF
100
AcDbEntity
8
1
62
256
6
ByLayer
370
18
48
1
60
0
100
AcDbLine
10
25.45
20
-30.150383
30
0
11
21.374612
21
-30.150383
31
0
39
0
210
0
220
0
230
1
0
LINE
5
B0
100
AcDbEntity
8
1
62
256
6
ByLayer
370
18
48
1
60
0
100
AcDbLine
10
25.45
20
-30.150383
30
0
11
25.45
21
19.85
31
0
39
0
210
0
220
0
230
1
0
LINE
5
B1
100
AcDbEntity
8
1
62
256
6
ByLayer
370
18
48
1
60
0
100
AcDbLine
10
25.45
20
19.85
30
0
11
21.374612
21
19.85
31
0
39
0
210
0
220
0
230
1
0
LINE
5
B2
100
AcDbEntity
8
1
62
256
6
ByLayer
370
18
48
1
60
0
100
AcDbLine
10
0
20
-30.97
30
0
11
0
21
30.97
31
0
39
0
210
0
220
0
230
1
0
LINE
5
B3
100
AcDbEntity
8
1
62
256
6
ByLayer
370
18
48
1
60
0
100
AcDbLine
10
21.374612
20
19.85
30
0
11
21.374612
21
-30.150383
31
0
39
0
210
0
220
0
230
1
0
LINE
5
B4
100
AcDbEntity
8
1
62
256
6
ByLayer
370
18
48
1
60
0
100
AcDbLine
10
19.925
20
19.85
30
0
11
19.925
21
-27.519445
31
0
39
0
210
0
220
0
230
1
0
LINE
5
B5
100
AcDbEntity
8
1
62
256
6
ByLayer
370
18
48
1
60
0
100
AcDbLine
10
0.5
20
-31.47
30
0
11
0.5
21
31.47
31
0
39
0
210
0
220
0
230
1
0
LINE
5
B6
100
AcDbEntity
8
1
62
256
6
ByLayer
370
18
48
1
60
0
100
AcDbLine
10
4.95
20
-31.453547
30
0
11
4.95
21
-31.47
31
0
39
0
210
0
220
0
230
1
0
LINE
5
B7
100
AcDbEntity
8
1
62
256
6
ByLayer
370
18
48
1
60
0
100
AcDbLine
10
14.625388
20
-30.150383
30
0
11
12.95
21
-30.150383
31
0
39
0
210
0
220
0
230
1
0
LINE
5
B8
100
AcDbEntity
8
1
62
256
6
ByLayer
370
18
48
1
60
0
100
AcDbLine
10
14.625388
20
-30.150383
30
0
11
14.625388
21
19.85
31
0
39
0
210
0
220
0
230
1
0
LINE
5
B9
100
AcDbEntity
8
1
62
256
6
ByLayer
370
18
48
1
60
0
100
AcDbLine
10
14.625388
20
19.85
30
0
11
4.968215
21
19.85
31
0
39
0
210
0
220
0
230
1
0
LINE
5
BA
100
AcDbEntity
8
1
62
256
6
ByLayer
370
18
48
1
60
0
100
AcDbLine
10
14.625388
20
24.420041
30
0
11
12.19562
21
24.420041
31
0
39
0
210
0
220
0
230
1
0
LINE
5
BB
100
AcDbEntity
8
1
62
256
6
ByLayer
370
18
48
1
60
0
100
AcDbLine
10
14.625388
20
24.420041
30
0
11
14.625388
21
30.431572
31
0
39
0
210
0
220
0
230
1
0
LINE
5
BC
100
AcDbEntity
8
1
62
256
6
ByLayer
370
18
48
1
60
0
100
AcDbLine
10
14.625388
20
30.431572
30
0
11
12.95
21
30.431572
31
0
39
0
210
0
220
0
230
1
0
LINE
5
BD
100
AcDbEntity
8
SK1
62
256
6
ByLayer
370
13
48
1
60
0
100
AcDbLine
10
-27.2
20
20.845
30
0
11
-27.2
21
20.779376
31
0
39
0
210
0
220
0
230
1
0
LINE
5
BF
100
AcDbEntity
8
SK1
62
256
6
ByLayer
370
18
48
1
60
0
100
AcDbLine
10
-30.75
20
20.845
30
0
11
-30.75
21
20.844744
31
0
39
0
210
0
220
0
230
1
0
LINE
5
C0
100
AcDbEntity
8
SK1
62
256
6
ByLayer
370
18
48
1
60
0
100
AcDbLine
10
-30.75
20
-20.845
30
0
11
-30.75
21
-20.844744
31
0
39
0
210
0
220
0
230
1
0
LINE
5
C1
100
AcDbEntity
8
SK1
62
256
6
ByLayer
370
13
48
1
60
0
100
AcDbLine
10
-23.2
20
-20.531099
30
0
11
-23.2
21
-20.845
31
0
39
0
210
0
220
0
230
1
0
LINE
5
C2
100
AcDbEntity
8
SK1
62
256
6
ByLayer
370
13
48
1
60
0
100
AcDbLine
10
-23.2
20
-20.531099
30
0
11
-25.542528
21
-20.531099
31
0
39
0
210
0
220
0
230
1
0
LINE
5
C3
100
AcDbEntity
8
SK1
62
256
6
ByLayer
370
13
48
1
60
0
100
AcDbLine
10
-23.2
20
-20.531099
30
0
11
-23.2
21
-19.472507
31
0
39
0
210
0
220
0
230
1
0
LINE
5
C4
100
AcDbEntity
8
SK1
62
256
6
ByLayer
370
13
48
1
60
0
100
AcDbLine
10
-31.842316
20
19.557838
30
0
11
-31.06758
21
20.248133
31
0
39
0
210
0
220
0
230
1
0
LINE
5
C5
100
AcDbEntity
8
SK1
62
256
6
ByLayer
370
13
48
1
60
0
100
AcDbLine
10
-31.842316
20
-19.557838
30
0
11
-31.06758
21
-20.248133
31
0
39
0
210
0
220
0
230
1
0
LINE
5
C6
100
AcDbEntity
8
SK1
62
256
6
ByLayer
370
18
48
1
60
0
100
AcDbLine
10
-31.9
20
-19.672662
30
0
11
-31.9
21
19.672662
31
0
39
0
210
0
220
0
230
1
0
LINE
5
C7
100
AcDbEntity
8
SK1
62
256
6
ByLayer
370
13
48
1
60
0
100
AcDbLine
10
-0.45
20
-23.970431
30
0
11
-0.45
21
23.970431
31
0
39
0
210
0
220
0
230
1
0
LINE
5
C8
100
AcDbEntity
8
SK1
62
256
6
ByLayer
370
18
48
1
60
0
100
AcDbLine
10
-1.566987
20
-23.970431
30
0
11
-1.566987
21
23.970431
31
0
39
0
210
0
220
0
230
1
0
LINE
5
C9
100
AcDbEntity
8
SK1
62
256
6
ByLayer
370
18
48
1
60
0
100
AcDbLine
10
-2
20
-24.220431
30
0
11
-2
21
24.220431
31
0
39
0
210
0
220
0
230
1
0
LINE
5
CA
100
AcDbEntity
8
SK1
62
256
6
ByLayer
370
18
48
1
60
0
100
AcDbLine
10
-25.8
20
21.833816
30
0
11
-25.8
21
23.028046
31
0
39
0
210
0
220
0
230
1
0
LINE
5
CB
100
AcDbEntity
8
SK1
62
256
6
ByLayer
370
13
48
1
60
0
100
AcDbLine
10
-30.760045
20
20.83431
30
0
11
-30.760045
21
-20.83431
31
0
39
0
210
0
220
0
230
1
0
LINE
5
CC
100
AcDbEntity
8
SK1
62
256
6
ByLayer
370
18
48
1
60
0
100
AcDbLine
10
-21.8
20
-23.228447
30
0
11
-21.8
21
-21.952084
31
0
39
0
210
0
220
0
230
1
0
LINE
5
CD
100
AcDbEntity
8
1
62
256
6
ByLayer
370
18
48
1
60
0
100
AcDbLine
10
27.624598
20
25.8
30
0
11
26.55
21
25.8
31
0
39
0
210
0
220
0
230
1
0
LINE
5
CE
100
AcDbEntity
8
1
62
256
6
ByLayer
370
18
48
1
60
0
100
AcDbLine
10
26.55
20
-25.8
30
0
11
27.624598
21
-25.8
31
0
39
0
210
0
220
0
230
1
0
LINE
5
CF
100
AcDbEntity
8
1
62
256
6
ByLayer
370
18
48
1
60
0
100
AcDbLine
10
28.45
20
-26
30
0
11
80
21
-26
31
0
39
0
210
0
220
0
230
1
0
LINE
5
D0
100
AcDbEntity
8
1
62
256
6
ByLayer
370
18
48
1
60
0
100
AcDbLine
10
80
20
26
30
0
11
28.45
21
26
31
0
39
0
210
0
220
0
230
1
0
LINE
5
D1
100
AcDbEntity
8
1
62
256
6
ByLayer
370
18
48
1
60
0
100
AcDbLine
10
27.77989
20
-25.820445
30
0
11
28.45
21
-26
31
0
39
0
210
0
220
0
230
1
0
LINE
5
D2
100
AcDbEntity
8
1
62
256
6
ByLayer
370
18
48
1
60
0
100
AcDbLine
10
28.45
20
26
30
0
11
27.77989
21
25.820445
31
0
39
0
210
0
220
0
230
1
0
LINE
5
D3
100
AcDbEntity
8
1
62
256
6
ByLayer
370
18
48
1
60
0
100
AcDbLine
10
85
20
21
30
0
11
80
21
26
31
0
39
0
210
0
220
0
230
1
0
LINE
5
D4
100
AcDbEntity
8
1
62
256
6
ByLayer
370
18
48
1
60
0
100
AcDbLine
10
80
20
-26
30
0
11
85
21
-21
31
0
39
0
210
0
220
0
230
1
0
LINE
5
D5
100
AcDbEntity
8
1
62
256
6
ByLayer
370
18
48
1
60
0
100
AcDbLine
10
0
20
-30.97
30
0
11
0.5
21
-31.47
31
0
39
0
210
0
220
0
230
1
0
LINE
5
D6
100
AcDbEntity
8
1
62
256
6
ByLayer
370
18
48
1
60
0
100
AcDbLine
10
0.5
20
31.47
30
0
11
0
21
30.97
31
0
39
0
210
0
220
0
230
1
0
LINE
5
D7
100
AcDbEntity
8
1
62
256
6
ByLayer
370
18
48
1
60
0
100
AcDbLine
10
4.948964
20
31.47
30
0
11
4.948569
21
31.47
31
0
39
0
210
0
220
0
230
1
0
LINE
5
D8
100
AcDbEntity
8
1
62
256
6
ByLayer
370
18
48
1
60
0
100
AcDbLine
10
4.948569
20
31.47
30
0
11
0.5
21
31.47
31
0
39
0
210
0
220
0
230
1
0
LINE
5
D9
100
AcDbEntity
8
1
62
256
6
ByLayer
370
18
48
1
60
0
100
AcDbLine
10
0.5
20
-31.47
30
0
11
4.95
21
-31.47
31
0
39
0
210
0
220
0
230
1
0
LINE
5
DA
100
AcDbEntity
8
1
62
256
6
ByLayer
370
18
48
1
60
0
100
AcDbLine
10
34.834111
20
-20.782871
30
0
11
34.915518
21
-20.75574
31
0
39
0
210
0
220
0
230
1
0
LINE
5
DB
100
AcDbEntity
8
1
62
256
6
ByLayer
370
18
48
1
60
0
100
AcDbLine
10
33.084482
20
-20.75574
30
0
11
33.165889
21
-20.782871
31
0
39
0
210
0
220
0
230
1
0
LINE
5
DC
100
AcDbEntity
8
1
62
256
6
ByLayer
370
18
48
1
60
0
100
AcDbLine
10
33.165889
20
20.782871
30
0
11
33.084482
21
20.75574
31
0
39
0
210
0
220
0
230
1
0
LINE
5
DD
100
AcDbEntity
8
1
62
256
6
ByLayer
370
18
48
1
60
0
100
AcDbLine
10
34.915518
20
20.75574
30
0
11
34.834111
21
20.782871
31
0
39
0
210
0
220
0
230
1
0
LINE
5
DE
100
AcDbEntity
8
1
62
256
6
ByLayer
370
18
48
1
60
0
100
AcDbLine
10
34.834111
20
-20.782871
30
0
11
34.915518
21
-20.75574
31
0
39
0
210
0
220
0
230
1
0
LINE
5
DF
100
AcDbEntity
8
1
62
256
6
ByLayer
370
18
48
1
60
0
100
AcDbLine
10
33.084482
20
-20.75574
30
0
11
33.165889
21
-20.782871
31
0
39
0
210
0
220
0
230
1
0
LINE
5
E0
100
AcDbEntity
8
1
62
256
6
ByLayer
370
18
48
1
60
0
100
AcDbLine
10
33.165889
20
20.782871
30
0
11
33.084482
21
20.75574
31
0
39
0
210
0
220
0
230
1
0
LINE
5
E1
100
AcDbEntity
8
1
62
256
6
ByLayer
370
18
48
1
60
0
100
AcDbLine
10
34.915518
20
20.75574
30
0
11
34.834111
21
20.782871
31
0
39
0
210
0
220
0
230
1
0
LINE
5
E2
100
AcDbEntity
8
SK1
62
256
6
ByLayer
370
18
48
1
60
0
100
AcDbLine
10
-27.2
20
20.845
30
0
11
-30.75
21
20.845
31
0
39
0
210
0
220
0
230
1
0
LINE
5
E3
100
AcDbEntity
8
SK1
62
256
6
ByLayer
370
18
48
1
60
0
100
AcDbLine
10
-31.892671
20
-19.702329
30
0
11
-30.75
21
-20.845
31
0
39
0
210
0
220
0
230
1
0
LINE
5
E4
100
AcDbEntity
8
SK1
62
256
6
ByLayer
370
18
48
1
60
0
100
AcDbLine
10
-30.75
20
20.845
30
0
11
-31.892663
21
19.702337
31
0
39
0
210
0
220
0
230
1
0
LINE
5
E5
100
AcDbEntity
8
SK1
62
256
6
ByLayer
370
18
48
1
60
0
100
AcDbLine
10
-30.75
20
-20.845
30
0
11
-23.2
21
-20.845
31
0
39
0
210
0
220
0
230
1
0
LINE
5
E6
100
AcDbEntity
8
SK1
62
256
6
ByLayer
370
18
48
1
60
0
100
AcDbLine
10
-0.45
20
23.970431
30
0
11
-1.566987
21
23.970431
31
0
39
0
210
0
220
0
230
1
0
LINE
5
E7
100
AcDbEntity
8
SK1
62
256
6
ByLayer
370
18
48
1
60
0
100
AcDbLine
10
-1.566987
20
-23.970431
30
0
11
-0.45
21
-23.970431
31
0
39
0
210
0
220
0
230
1
0
LINE
5
E8
100
AcDbEntity
8
SK1
62
256
6
ByLayer
370
18
48
1
60
0
100
AcDbLine
10
-1.566987
20
23.970431
30
0
11
-2
21
24.220431
31
0
39
0
210
0
220
0
230
1
0
LINE
5
E9
100
AcDbEntity
8
SK1
62
256
6
ByLayer
370
18
48
1
60
0
100
AcDbLine
10
-2
20
-24.220431
30
0
11
-1.566987
21
-23.970431
31
0
39
0
210
0
220
0
230
1
0
LINE
5
EA
100
AcDbEntity
8
SK1
62
256
6
ByLayer
370
18
48
1
60
0
100
AcDbLine
10
-21.8
20
-23.228447
30
0
11
-13.239771
21
-23.657316
31
0
39
0
210
0
220
0
230
1
0
LINE
5
EB
100
AcDbEntity
8
SK1
62
256
6
ByLayer
370
18
48
1
60
0
100
AcDbLine
10
-4.314641
20
-24.104467
30
0
11
-2
21
-24.220431
31
0
39
0
210
0
220
0
230
1
0
LINE
5
EC
100
AcDbEntity
8
SK1
62
256
6
ByLayer
370
18
48
1
60
0
100
AcDbLine
10
-2
20
24.220431
30
0
11
-4.314784
21
24.10446
31
0
39
0
210
0
220
0
230
1
0
LINE
5
ED
100
AcDbEntity
8
SK1
62
256
6
ByLayer
370
18
48
1
60
0
100
AcDbLine
10
-13.237585
20
23.657426
30
0
11
-25.8
21
23.028046
31
0
39
0
210
0
220
0
230
1
0
LINE
5
EE
100
AcDbEntity
8
1
62
256
6
ByLayer
370
18
48
1
60
0
100
AcDbLine
10
33.165889
20
20.782871
30
0
11
33.084482
21
20.75574
31
0
39
0
210
0
220
0
230
1
0
LINE
5
EF
100
AcDbEntity
8
1
62
256
6
ByLayer
370
18
48
1
60
0
100
AcDbLine
10
34.915518
20
20.75574
30
0
11
34.834111
21
20.782871
31
0
39
0
210
0
220
0
230
1
0
LINE
5
F0
100
AcDbEntity
8
1
62
256
6
ByLayer
370
18
48
1
60
0
100
AcDbLine
10
85
20
-11.097988
30
0
11
85.045731
21
-11.012049
31
0
39
0
210
0
220
0
230
1
0
LINE
5
F1
100
AcDbEntity
8
1
62
256
6
ByLayer
370
18
48
1
60
0
100
AcDbLine
10
85.045731
20
11.012049
30
0
11
85
21
11.097988
31
0
39
0
210
0
220
0
230
1
0
LINE
5
F2
100
AcDbEntity
8
1
62
256
6
ByLayer
370
18
48
1
60
0
100
AcDbLine
10
85.045731
20
11.012049
30
0
11
85
21
11.097988
31
0
39
0
210
0
220
0
230
1
0
LINE
5
F3
100
AcDbEntity
8
SK2
62
256
6
ByLayer
370
18
48
1
60
0
100
AcDbLine
10
111.835242
20
26
30
0
11
111.835242
21
-26
31
0
39
0
210
0
220
0
230
1
0
LINE
5
F5
100
AcDbEntity
8
SK2
62
256
6
ByLayer
370
18
48
1
60
0
100
AcDbLine
10
81.5875
20
-26
30
0
11
113.835242
21
-26
31
0
39
0
210
0
220
0
230
1
0
LINE
5
F6
100
AcDbEntity
8
SK2
62
256
6
ByLayer
370
18
48
1
60
0
100
AcDbLine
10
81.5875
20
26
30
0
11
113.835242
21
26
31
0
39
0
210
0
220
0
230
1
0
LINE
5
F7
100
AcDbEntity
8
1
62
256
6
ByLayer
370
18
48
1
60
1
100
AcDbLine
10
111.835242
20
-26
30
0
11
111.374458
21
-22.500002
31
0
39
0
210
0
220
0
230
1
0
LINE
5
F8
100
AcDbEntity
8
1
62
256
6
ByLayer
370
18
48
1
60
1
100
AcDbLine
10
111.374458
20
-22.500002
30
0
11
112.296025
21
-22.499998
31
0
39
0
210
0
220
0
230
1
0
LINE
5
F9
100
AcDbEntity
8
1
62
256
6
ByLayer
370
18
48
1
60
1
100
AcDbLine
10
112.296025
20
-22.499998
30
0
11
111.835242
21
-26
31
0
39
0
210
0
220
0
230
1
0
LINE
5
FA
100
AcDbEntity
8
1
62
256
6
ByLayer
370
18
48
1
60
1
100
AcDbLine
10
111.835242
20
26
30
0
11
112.296025
21
22.500002
31
0
39
0
210
0
220
0
230
1
0
LINE
5
FB
100
AcDbEntity
8
1
62
256
6
ByLayer
370
18
48
1
60
1
100
AcDbLine
10
112.296025
20
22.500002
30
0
11
111.374458
21
22.499998
31
0
39
0
210
0
220
0
230
1
0
LINE
5
FC
100
AcDbEntity
8
1
62
256
6
ByLayer
370
18
48
1
60
1
100
AcDbLine
10
111.374458
20
22.499998
30
0
11
111.835242
21
26
31
0
39
0
210
0
220
0
230
1
0
LINE
5
FD
100
AcDbEntity
8
SK2
62
256
6
ByLayer
370
18
48
1
60
0
100
AcDbLine
10
-48.875025
20
-31.47
30
0
11
-48.875025
21
31.47
31
0
39
0
210
0
220
0
230
1
0
LINE
5
FE
100
AcDbEntity
8
SK2
62
256
6
ByLayer
370
18
48
1
60
0
100
AcDbLine
10
-1.0875
20
31.47
30
0
11
-50.875025
21
31.47
31
0
39
0
210
0
220
0
230
1
0
LINE
5
FF
100
AcDbEntity
8
SK2
62
256
6
ByLayer
370
18
48
1
60
0
100
AcDbLine
10
-1.0875
20
-31.47
30
0
11
-50.875025
21
-31.47
31
0
39
0
210
0
220
0
230
1
0
LINE
5
100
100
AcDbEntity
8
1
62
256
6
ByLayer
370
18
48
1
60
1
100
AcDbLine
10
-48.875025
20
31.47
30
0
11
-48.414241
21
27.970002
31
0
39
0
210
0
220
0
230
1
0
LINE
5
101
100
AcDbEntity
8
1
62
256
6
ByLayer
370
18
48
1
60
1
100
AcDbLine
10
-48.414241
20
27.970002
30
0
11
-49.335809
21
27.969998
31
0
39
0
210
0
220
0
230
1
0
LINE
5
102
100
AcDbEntity
8
1
62
256
6
ByLayer
370
18
48
1
60
1
100
AcDbLine
10
-49.335809
20
27.969998
30
0
11
-48.875025
21
31.47
31
0
39
0
210
0
220
0
230
1
0
LINE
5
103
100
AcDbEntity
8
1
62
256
6
ByLayer
370
18
48
1
60
1
100
AcDbLine
10
-48.875025
20
-31.47
30
0
11
-49.335809
21
-27.970002
31
0
39
0
210
0
220
0
230
1
0
LINE
5
104
100
AcDbEntity
8
1
62
256
6
ByLayer
370
18
48
1
60
1
100
AcDbLine
10
-49.335809
20
-27.970002
30
0
11
-48.414241
21
-27.969998
31
0
39
0
210
0
220
0
230
1
0
LINE
5
105
100
AcDbEntity
8
1
62
256
6
ByLayer
370
18
48
1
60
1
100
AcDbLine
10
-48.414241
20
-27.969998
30
0
11
-48.875025
21
-31.47
31
0
39
0
210
0
220
0
230
1
0
LINE
5
106
100
AcDbEntity
8
2
62
256
6
ByLayer
370
18
48
1
60
0
100
AcDbLine
10
25.95
20
44.32
30
0
11
85
21
44.32
31
0
39
0
210
0
220
0
230
1
0
LINE
5
107
100
AcDbEntity
8
2
62
256
6
ByLayer
370
18
48
1
60
0
100
AcDbLine
10
85
20
22.5875
30
0
11
85
21
46.32
31
0
39
0
210
0
220
0
230
1
0
LINE
5
108
100
AcDbEntity
8
2
62
256
6
ByLayer
370
18
48
1
60
0
100
AcDbLine
10
25.95
20
31.501721
30
0
11
25.95
21
46.32
31
0
39
0
210
0
220
0
230
1
0
LINE
5
109
100
AcDbEntity
8
1
62
256
6
ByLayer
370
18
48
1
60
1
100
AcDbLine
10
85
20
44.32
30
0
11
81.500002
21
43.859216
31
0
39
0
210
0
220
0
230
1
0
LINE
5
10A
100
AcDbEntity
8
1
62
256
6
ByLayer
370
18
48
1
60
1
100
AcDbLine
10
81.500002
20
43.859216
30
0
11
81.499998
21
44.780784
31
0
39
0
210
0
220
0
230
1
0
LINE
5
10B
100
AcDbEntity
8
1
62
256
6
ByLayer
370
18
48
1
60
1
100
AcDbLine
10
81.499998
20
44.780784
30
0
11
85
21
44.32
31
0
39
0
210
0
220
0
230
1
0
LINE
5
10C
100
AcDbEntity
8
1
62
256
6
ByLayer
370
18
48
1
60
1
100
AcDbLine
10
25.95
20
44.32
30
0
11
29.449998
21
44.780784
31
0
39
0
210
0
220
0
230
1
0
LINE
5
10D
100
AcDbEntity
8
1
62
256
6
ByLayer
370
18
48
1
60
1
100
AcDbLine
10
29.449998
20
44.780784
30
0
11
29.450002
21
43.859216
31
0
39
0
210
0
220
0
230
1
0
LINE
5
10E
100
AcDbEntity
8
1
62
256
6
ByLayer
370
18
48
1
60
1
100
AcDbLine
10
29.450002
20
43.859216
30
0
11
25.95
21
44.32
31
0
39
0
210
0
220
0
230
1
0
LINE
5
10F
100
AcDbEntity
8
SK2
62
256
6
ByLayer
370
18
48
1
60
0
100
AcDbLine
10
85
20
54.32
30
0
11
0
21
54.32
31
0
39
0
210
0
220
0
230
1
0
LINE
5
110
100
AcDbEntity
8
SK2
62
256
6
ByLayer
370
18
48
1
60
0
100
AcDbLine
10
0
20
32.5575
30
0
11
0
21
56.32
31
0
39
0
210
0
220
0
230
1
0
LINE
5
111
100
AcDbEntity
8
SK2
62
256
6
ByLayer
370
18
48
1
60
0
100
AcDbLine
10
85
20
22.5875
30
0
11
85
21
56.32
31
0
39
0
210
0
220
0
230
1
0
LINE
5
112
100
AcDbEntity
8
1
62
256
6
ByLayer
370
18
48
1
60
1
100
AcDbLine
10
0
20
54.32
30
0
11
3.499998
21
54.780784
31
0
39
0
210
0
220
0
230
1
0
LINE
5
113
100
AcDbEntity
8
1
62
256
6
ByLayer
370
18
48
1
60
1
100
AcDbLine
10
3.499998
20
54.780784
30
0
11
3.500002
21
53.859216
31
0
39
0
210
0
220
0
230
1
0
LINE
5
114
100
AcDbEntity
8
1
62
256
6
ByLayer
370
18
48
1
60
1
100
AcDbLine
10
3.500002
20
53.859216
30
0
11
0
21
54.32
31
0
39
0
210
0
220
0
230
1
0
LINE
5
115
100
AcDbEntity
8
1
62
256
6
ByLayer
370
18
48
1
60
1
100
AcDbLine
10
85
20
54.32
30
0
11
81.500002
21
53.859216
31
0
39
0
210
0
220
0
230
1
0
LINE
5
116
100
AcDbEntity
8
1
62
256
6
ByLayer
370
18
48
1
60
1
100
AcDbLine
10
81.500002
20
53.859216
30
0
11
81.499998
21
54.780784
31
0
39
0
210
0
220
0
230
1
0
LINE
5
117
100
AcDbEntity
8
1
62
256
6
ByLayer
370
18
48
1
60
1
100
AcDbLine
10
81.499998
20
54.780784
30
0
11
85
21
54.32
31
0
39
0
210
0
220
0
230
1
0
LINE
5
118
100
AcDbEntity
8
SK2
62
256
6
ByLayer
370
18
48
1
60
0
100
AcDbLine
10
-31.9
20
54.32
30
0
11
0
21
54.32
31
0
39
0
210
0
220
0
230
1
0
LINE
5
119
100
AcDbEntity
8
SK2
62
256
6
ByLayer
370
18
48
1
60
0
100
AcDbLine
10
0
20
32.5575
30
0
11
0
21
56.32
31
0
39
0
210
0
220
0
230
1
0
LINE
5
11A
100
AcDbEntity
8
SK2
62
256
6
ByLayer
370
18
48
1
60
0
100
AcDbLine
10
-31.9
20
21.260162
30
0
11
-31.9
21
56.32
31
0
39
0
210
0
220
0
230
1
0
LINE
5
11B
100
AcDbEntity
8
1
62
256
6
ByLayer
370
18
48
1
60
1
100
AcDbLine
10
0
20
54.32
30
0
11
-3.499998
21
53.859216
31
0
39
0
210
0
220
0
230
1
0
LINE
5
11C
100
AcDbEntity
8
1
62
256
6
ByLayer
370
18
48
1
60
1
100
AcDbLine
10
-3.499998
20
53.859216
30
0
11
-3.500002
21
54.780784
31
0
39
0
210
0
220
0
230
1
0
LINE
5
11D
100
AcDbEntity
8
1
62
256
6
ByLayer
370
18
48
1
60
1
100
AcDbLine
10
-3.500002
20
54.780784
30
0
11
0
21
54.32
31
0
39
0
210
0
220
0
230
1
0
LINE
5
11E
100
AcDbEntity
8
1
62
256
6
ByLayer
370
18
48
1
60
1
100
AcDbLine
10
-31.9
20
54.32
30
0
11
-28.400002
21
54.780784
31
0
39
0
210
0
220
0
230
1
0
LINE
5
11F
100
AcDbEntity
8
1
62
256
6
ByLayer
370
18
48
1
60
1
100
AcDbLine
10
-28.400002
20
54.780784
30
0
11
-28.399998
21
53.859216
31
0
39
0
210
0
220
0
230
1
0
LINE
5
120
100
AcDbEntity
8
1
62
256
6
ByLayer
370
18
48
1
60
1
100
AcDbLine
10
-28.399998
20
53.859216
30
0
11
-31.9
21
54.32
31
0
39
0
210
0
220
0
230
1
0
LINE
5
1AE
100
AcDbEntity
8
1
62
256
6
ByLayer
370
18
48
1
60
1
100
AcDbLine
10
111.835242
20
-26
30
0
11
111.374458
21
-22.500002
31
0
39
0
210
0
220
0
230
1
0
LINE
5
1AF
100
AcDbEntity
8
1
62
256
6
ByLayer
370
18
48
1
60
1
100
AcDbLine
10
111.374458
20
-22.500002
30
0
11
112.296025
21
-22.499998
31
0
39
0
210
0
220
0
230
1
0
LINE
5
1B0
100
AcDbEntity
8
1
62
256
6
ByLayer
370
18
48
1
60
1
100
AcDbLine
10
112.296025
20
-22.499998
30
0
11
111.835242
21
-26
31
0
39
0
210
0
220
0
230
1
0
LINE
5
1B2
100
AcDbEntity
8
1
62
256
6
ByLayer
370
18
48
1
60
1
100
AcDbLine
10
111.835242
20
26
30
0
11
112.296025
21
22.500002
31
0
39
0
210
0
220
0
230
1
0
LINE
5
1B3
100
AcDbEntity
8
1
62
256
6
ByLayer
370
18
48
1
60
1
100
AcDbLine
10
112.296025
20
22.500002
30
0
11
111.374458
21
22.499998
31
0
39
0
210
0
220
0
230
1
0
LINE
5
1B4
100
AcDbEntity
8
1
62
256
6
ByLayer
370
18
48
1
60
1
100
AcDbLine
10
111.374458
20
22.499998
30
0
11
111.835242
21
26
31
0
39
0
210
0
220
0
230
1
0
LINE
5
1B8
100
AcDbEntity
8
1
62
256
6
ByLayer
370
18
48
1
60
1
100
AcDbLine
10
-48.875025
20
31.47
30
0
11
-48.414241
21
27.970002
31
0
39
0
210
0
220
0
230
1
0
LINE
5
1B9
100
AcDbEntity
8
1
62
256
6
ByLayer
370
18
48
1
60
1
100
AcDbLine
10
-48.414241
20
27.970002
30
0
11
-49.335809
21
27.969998
31
0
39
0
210
0
220
0
230
1
0
LINE
5
1BA
100
AcDbEntity
8
1
62
256
6
ByLayer
370
18
48
1
60
1
100
AcDbLine
10
-49.335809
20
27.969998
30
0
11
-48.875025
21
31.47
31
0
39
0
210
0
220
0
230
1
0
LINE
5
1BC
100
AcDbEntity
8
1
62
256
6
ByLayer
370
18
48
1
60
1
100
AcDbLine
10
-48.875025
20
-31.47
30
0
11
-49.335809
21
-27.970002
31
0
39
0
210
0
220
0
230
1
0
LINE
5
1BD
100
AcDbEntity
8
1
62
256
6
ByLayer
370
18
48
1
60
1
100
AcDbLine
10
-49.335809
20
-27.970002
30
0
11
-48.414241
21
-27.969998
31
0
39
0
210
0
220
0
230
1
0
LINE
5
1BE
100
AcDbEntity
8
1
62
256
6
ByLayer
370
18
48
1
60
1
100
AcDbLine
10
-48.414241
20
-27.969998
30
0
11
-48.875025
21
-31.47
31
0
39
0
210
0
220
0
230
1
0
LINE
5
1C1
100
AcDbEntity
8
1
62
256
6
ByLayer
370
18
48
1
60
1
100
AcDbLine
10
85
20
44.32
30
0
11
81.500002
21
43.859216
31
0
39
0
210
0
220
0
230
1
0
LINE
5
1C2
100
AcDbEntity
8
1
62
256
6
ByLayer
370
18
48
1
60
1
100
AcDbLine
10
81.500002
20
43.859216
30
0
11
81.499998
21
44.780784
31
0
39
0
210
0
220
0
230
1
0
LINE
5
1C3
100
AcDbEntity
8
1
62
256
6
ByLayer
370
18
48
1
60
1
100
AcDbLine
10
81.499998
20
44.780784
30
0
11
85
21
44.32
31
0
39
0
210
0
220
0
230
1
0
LINE
5
1C5
100
AcDbEntity
8
1
62
256
6
ByLayer
370
18
48
1
60
1
100
AcDbLine
10
25.95
20
44.32
30
0
11
29.449998
21
44.780784
31
0
39
0
210
0
220
0
230
1
0
LINE
5
1C6
100
AcDbEntity
8
1
62
256
6
ByLayer
370
18
48
1
60
1
100
AcDbLine
10
29.449998
20
44.780784
30
0
11
29.450002
21
43.859216
31
0
39
0
210
0
220
0
230
1
0
LINE
5
1C7
100
AcDbEntity
8
1
62
256
6
ByLayer
370
18
48
1
60
1
100
AcDbLine
10
29.450002
20
43.859216
30
0
11
25.95
21
44.32
31
0
39
0
210
0
220
0
230
1
0
LINE
5
1CA
100
AcDbEntity
8
1
62
256
6
ByLayer
370
18
48
1
60
1
100
AcDbLine
10
0
20
54.32
30
0
11
3.499998
21
54.780784
31
0
39
0
210
0
220
0
230
1
0
LINE
5
1CB
100
AcDbEntity
8
1
62
256
6
ByLayer
370
18
48
1
60
1
100
AcDbLine
10
3.499998
20
54.780784
30
0
11
3.500002
21
53.859216
31
0
39
0
210
0
220
0
230
1
0
LINE
5
1CC
100
AcDbEntity
8
1
62
256
6
ByLayer
370
18
48
1
60
1
100
AcDbLine
10
3.500002
20
53.859216
30
0
11
0
21
54.32
31
0
39
0
210
0
220
0
230
1
0
LINE
5
1CE
100
AcDbEntity
8
1
62
256
6
ByLayer
370
18
48
1
60
1
100
AcDbLine
10
85
20
54.32
30
0
11
81.500002
21
53.859216
31
0
39
0
210
0
220
0
230
1
0
LINE
5
1CF
100
AcDbEntity
8
1
62
256
6
ByLayer
370
18
48
1
60
1
100
AcDbLine
10
81.500002
20
53.859216
30
0
11
81.499998
21
54.780784
31
0
39
0
210
0
220
0
230
1
0
LINE
5
1D0
100
AcDbEntity
8
1
62
256
6
ByLayer
370
18
48
1
60
1
100
AcDbLine
10
81.499998
20
54.780784
30
0
11
85
21
54.32
31
0
39
0
210
0
220
0
230
1
0
LINE
5
1D3
100
AcDbEntity
8
1
62
256
6
ByLayer
370
18
48
1
60
1
100
AcDbLine
10
0
20
54.32
30
0
11
-3.499998
21
53.859216
31
0
39
0
210
0
220
0
230
1
0
LINE
5
1D4
100
AcDbEntity
8
1
62
256
6
ByLayer
370
18
48
1
60
1
100
AcDbLine
10
-3.499998
20
53.859216
30
0
11
-3.500002
21
54.780784
31
0
39
0
210
0
220
0
230
1
0
LINE
5
1D5
100
AcDbEntity
8
1
62
256
6
ByLayer
370
18
48
1
60
1
100
AcDbLine
10
-3.500002
20
54.780784
30
0
11
0
21
54.32
31
0
39
0
210
0
220
0
230
1
0
LINE
5
1D7
100
AcDbEntity
8
1
62
256
6
ByLayer
370
18
48
1
60
1
100
AcDbLine
10
-31.9
20
54.32
30
0
11
-28.400002
21
54.780784
31
0
39
0
210
0
220
0
230
1
0
LINE
5
1D8
100
AcDbEntity
8
1
62
256
6
ByLayer
370
18
48
1
60
1
100
AcDbLine
10
-28.400002
20
54.780784
30
0
11
-28.399998
21
53.859216
31
0
39
0
210
0
220
0
230
1
0
LINE
5
1D9
100
AcDbEntity
8
1
62
256
6
ByLayer
370
18
48
1
60
1
100
AcDbLine
10
-28.399998
20
53.859216
30
0
11
-31.9
21
54.32
31
0
39
0
210
0
220
0
230
1
0
MTEXT
5
1AA
100
AcDbEntity
8
SK2
62
256
6
ByLayer
370
18
48
1
60
0
100
AcDbMText
10
110.270608
20
-4.530622
30
0
210
0
220
0
230
1
1
%%c
40
3.5
41
0
44
1.084337
50
90
71
7
72
5
7
iso_b_vert
0
MTEXT
5
1AD
100
AcDbEntity
8
SK2
62
256
6
ByLayer
370
18
48
1
60
0
100
AcDbMText
10
110.270608
20
2.442034
30
0
210
0
220
0
230
1
1
\W0.6740;52
40
3.5
41
0
44
1.084337
50
90
71
7
72
5
7
iso_b_vert
0
MTEXT
5
1B6
100
AcDbEntity
8
SK2
62
256
6
ByLayer
370
18
48
1
60
0
100
AcDbMText
10
-50.439659
20
-4.530622
30
0
210
0
220
0
230
1
1
%%c
40
3.5
41
0
44
1.084337
50
90
71
7
72
5
7
iso_b_vert
0
MTEXT
5
1B7
100
AcDbEntity
8
SK2
62
256
6
ByLayer
370
18
48
1
60
0
100
AcDbMText
10
-50.439659
20
2.442034
30
0
210
0
220
0
230
1
1
\W0.6740;63
40
3.5
41
0
44
1.084337
50
90
71
7
72
5
7
iso_b_vert
0
MTEXT
5
1C0
100
AcDbEntity
8
2
62
256
6
ByLayer
370
18
48
1
60
0
100
AcDbMText
10
53.570034
20
45.352634
30
0
210
0
220
0
230
1
1
\W0.6927;59
40
3.5
41
0
44
1.084337
50
0
71
7
72
5
7
iso_b_vert
0
MTEXT
5
1C9
100
AcDbEntity
8
SK2
62
256
6
ByLayer
370
18
48
1
60
0
100
AcDbMText
10
40.595034
20
55.352634
30
0
210
0
220
0
230
1
1
\W0.6740;85
40
3.5
41
0
44
1.084337
50
0
71
7
72
5
7
iso_b_vert
0
MTEXT
5
1D2
100
AcDbEntity
8
SK2
62
256
6
ByLayer
370
18
48
1
60
0
100
AcDbMText
10
-19.434266
20
55.352634
30
0
210
0
220
0
230
1
1
\W0.6662;31.9
40
3.5
41
0
44
1.084337
50
0
71
7
72
5
7
iso_b_vert
0
MTEXT
5
1DB
100
AcDbEntity
8
SK6
62
256
6
ByLayer
370
18
48
1
60
0
100
AcDbMText
10
55.715054
20
-92.114886
30
0
210
0
220
0
230
1
1
\W0.7775;HA06-WE20-B052-085
40
3
41
0
44
1.084337
50
0
71
7
72
5
7
iso_b_vert
0
HATCH
5
1B1
100
AcDbEntity
8
SK2
62
256
6
ByLayer
370
13
48
1
60
0
100
AcDbHatch
10
0
20
0
30
0
210
0
220
0
230
1
2
ANSI31
70
0
71
0
91
1
92
5
93
3
72
1
10
111.835241627749
20
-25.9999999999999
11
111.374457886196
21
-22.5000016925531
72
1
10
111.374457886196
20
-22.5000016925531
11
112.296025369302
21
-22.4999983074467
72
1
10
112.296025369302
20
-22.4999983074467
11
111.835241627749
21
-25.9999999999999
97
0
75
0
76
1
52
0
41
0.0062
77
0
78
1
53
45
43
0
44
0
45
-0.0139193969876572
46
0.0139193969876572
79
0
47
0
98
1
10
0
20
0
0
HATCH
5
1B5
100
AcDbEntity
8
SK2
62
256
6
ByLayer
370
13
48
1
60
0
100
AcDbHatch
10
0
20
0
30
0
210
0
220
0
230
1
2
ANSI31
70
0
71
0
91
1
92
5
93
3
72
1
10
111.835241627749
20
26.0000000000001
11
112.296025369302
21
22.5000016925533
72
1
10
112.296025369302
20
22.5000016925533
11
111.374457886196
21
22.4999983074469
72
1
10
111.374457886196
20
22.4999983074469
11
111.835241627749
21
26.0000000000001
97
0
75
0
76
1
52
0
41
0.0062
77
0
78
1
53
45
43
0
44
0
45
-0.0139193969876572
46
0.0139193969876572
79
0
47
0
98
1
10
0
20
0
0
HATCH
5
1BB
100
AcDbEntity
8
SK2
62
256
6
ByLayer
370
13
48
1
60
0
100
AcDbHatch
10
0
20
0
30
0
210
0
220
0
230
1
2
ANSI31
70
0
71
0
91
1
92
5
93
3
72
1
10
-48.875025
20
31.47
11
-48.4142412584472
21
27.9700016925532
72
1
10
-48.4142412584472
20
27.9700016925532
11
-49.3358087415528
21
27.9699983074468
72
1
10
-49.3358087415528
20
27.9699983074468
11
-48.875025
21
31.47
97
0
75
0
76
1
52
0
41
0.0062
77
0
78
1
53
45
43
0
44
0
45
-0.0139193969876572
46
0.0139193969876572
79
0
47
0
98
1
10
0
20
0
0
HATCH
5
1BF
100
AcDbEntity
8
SK2
62
256
6
ByLayer
370
13
48
1
60
0
100
AcDbHatch
10
0
20
0
30
0
210
0
220
0
230
1
2
ANSI31
70
0
71
0
91
1
92
5
93
3
72
1
10
-48.875025
20
-31.47
11
-49.3358087415528
21
-27.9700016925532
72
1
10
-49.3358087415528
20
-27.9700016925532
11
-48.4142412584472
21
-27.9699983074468
72
1
10
-48.4142412584472
20
-27.9699983074468
11
-48.875025
21
-31.47
97
0
75
0
76
1
52
0
41
0.0062
77
0
78
1
53
45
43
0
44
0
45
-0.0139193969876572
46
0.0139193969876572
79
0
47
0
98
1
10
0
20
0
0
HATCH
5
1C4
100
AcDbEntity
8
2
62
256
6
ByLayer
370
13
48
1
60
0
100
AcDbHatch
10
0
20
0
30
0
210
0
220
0
230
1
2
ANSI31
70
0
71
0
91
1
92
5
93
3
72
1
10
85
20
44.3200000000001
11
81.5000016925532
21
43.8592162584473
72
1
10
81.5000016925532
20
43.8592162584473
11
81.4999983074468
21
44.7807837415529
72
1
10
81.4999983074468
20
44.7807837415529
11
85
21
44.3200000000001
97
0
75
0
76
1
52
0
41
0.0062
77
0
78
1
53
45
43
0
44
0
45
-0.0139193969876572
46
0.0139193969876572
79
0
47
0
98
1
10
0
20
0
0
HATCH
5
1C8
100
AcDbEntity
8
2
62
256
6
ByLayer
370
13
48
1
60
0
100
AcDbHatch
10
0
20
0
30
0
210
0
220
0
230
1
2
ANSI31
70
0
71
0
91
1
92
5
93
3
72
1
10
25.95
20
44.3200000000001
11
29.4499983074468
21
44.7807837415529
72
1
10
29.4499983074468
20
44.7807837415529
11
29.4500016925532
21
43.8592162584473
72
1
10
29.4500016925532
20
43.8592162584473
11
25.95
21
44.3200000000001
97
0
75
0
76
1
52
0
41
0.0062
77
0
78
1
53
45
43
0
44
0
45
-0.0139193969876572
46
0.0139193969876572
79
0
47
0
98
1
10
0
20
0
0
HATCH
5
1CD
100
AcDbEntity
8
SK2
62
256
6
ByLayer
370
13
48
1
60
0
100
AcDbHatch
10
0
20
0
30
0
210
0
220
0
230
1
2
ANSI31
70
0
71
0
91
1
92
5
93
3
72
1
10
0
20
54.3200000000001
11
3.4999983074468
21
54.7807837415529
72
1
10
3.4999983074468
20
54.7807837415529
11
3.5000016925532
21
53.8592162584473
72
1
10
3.5000016925532
20
53.8592162584473
11
0
21
54.3200000000001
97
0
75
0
76
1
52
0
41
0.0062
77
0
78
1
53
45
43
0
44
0
45
-0.0139193969876572
46
0.0139193969876572
79
0
47
0
98
1
10
0
20
0
0
HATCH
5
1D1
100
AcDbEntity
8
SK2
62
256
6
ByLayer
370
13
48
1
60
0
100
AcDbHatch
10
0
20
0
30
0
210
0
220
0
230
1
2
ANSI31
70
0
71
0
91
1
92
5
93
3
72
1
10
85
20
54.3200000000001
11
81.5000016925532
21
53.8592162584473
72
1
10
81.5000016925532
20
53.8592162584473
11
81.4999983074468
21
54.7807837415529
72
1
10
81.4999983074468
20
54.7807837415529
11
85
21
54.3200000000001
97
0
75
0
76
1
52
0
41
0.0062
77
0
78
1
53
45
43
0
44
0
45
-0.0139193969876572
46
0.0139193969876572
79
0
47
0
98
1
10
0
20
0
0
HATCH
5
1D6
100
AcDbEntity
8
SK2
62
256
6
ByLayer
370
13
48
1
60
0
100
AcDbHatch
10
0
20
0
30
0
210
0
220
0
230
1
2
ANSI31
70
0
71
0
91
1
92
5
93
3
72
1
10
0
20
54.3200000000001
11
-3.4999983074468
21
53.8592162584473
72
1
10
-3.4999983074468
20
53.8592162584473
11
-3.5000016925532
21
54.7807837415529
72
1
10
-3.5000016925532
20
54.7807837415529
11
0
21
54.3200000000001
97
0
75
0
76
1
52
0
41
0.0062
77
0
78
1
53
45
43
0
44
0
45
-0.0139193969876572
46
0.0139193969876572
79
0
47
0
98
1
10
0
20
0
0
HATCH
5
1DA
100
AcDbEntity
8
SK2
62
256
6
ByLayer
370
13
48
1
60
0
100
AcDbHatch
10
0
20
0
30
0
210
0
220
0
230
1
2
ANSI31
70
0
71
0
91
1
92
5
93
3
72
1
10
-31.9
20
54.3200000000001
11
-28.4000016925532
21
54.7807837415529
72
1
10
-28.4000016925532
20
54.7807837415529
11
-28.3999983074468
21
53.8592162584473
72
1
10
-28.3999983074468
20
53.8592162584473
11
-31.9
21
54.3200000000001
97
0
75
0
76
1
52
0
41
0.0062
77
0
78
1
53
45
43
0
44
0
45
-0.0139193969876572
46
0.0139193969876572
79
0
47
0
98
1
10
0
20
0
0
ENDSEC
0
SECTION
2
OBJECTS
0
DICTIONARY
5
249
330
0
100
AcDbDictionary
280
0
281
1
3
ACAD_GROUP
350
24a
3
ACAD_MLINESTYLE
350
24b
0
DICTIONARY
5
24a
330
0
100
AcDbDictionary
280
0
281
1
0
DICTIONARY
5
24b
330
0
100
AcDbDictionary
280
0
281
1
3
Standard
350
18
0
MLINESTYLE
5
18
330
24b
100
AcDbMlineStyle
2
Standard
70
0
3

62
256
51
90
52
90
71
2
49
-0.5
62
256
6
ByLayer
49
0.5
62
256
6
ByLayer
0
RASTERVARIABLES
5
238
330

100
AcDbRasterVariables
90
0
70
1
71
1
72
1
0
ENDSEC
0
EOF
