0
SECTION
2
HEADER
9
$ACADVER
1
AC1015
9
$DWGCODEPAGE
3
ANSI_1252
9
$HANDSEED
5
23f
9
$ANGBASE
50
0
9
$ANGDIR
70
0
9
$ATTMODE
70
1
9
$AUNITS
70
0
9
$AUPREC
70
0
9
$CECOLOR
62
256
9
$CELTSCALE
40
1
9
$CELTYPE
6
ByLayer
9
$CELWEIGHT
370
18
9
$CLAYER
8
0
9
$CMLJUST
70
0
9
$CMLSCALE
40
1
9
$CMLSTYLE
2
Standard
9
$DIMSTYLE
2
Standard
9
$TEXTSIZE
40
0.2
9
$TEXTSTYLE
7
Standard
9
$LUNITS
70
2
9
$LUPREC
70
4
9
$EXTNAMES
290
1
9
$INSUNITS
70
4
9
$LTSCALE
40
1
9
$LWDISPLAY
290
1
9
$PDMODE
70
0
9
$PDSIZE
40
0
9
$PLINEGEN
70
0
0
ENDSEC
0
SECTION
2
CLASSES
0
CLASS
1
RASTERVARIABLES
2
AcDbRasterVariables
3
ISM
90
0
280
0
281
0
0
ENDSEC
0
SECTION
2
TABLES
0
TABLE
2
VPORT
5
235
100
AcDbSymbolTable
0
VPORT
5
1
100
AcDbSymbolTableRecord
100
AcDbViewportTableRecord
2
*Active
70
0
10
0
20
0
11
1
21
1
12
-1
22
1
13
0
23
0
14
0.5
24
0.5
15
10
25
10
16
0
26
0
36
1
17
0
27
0
37
0
0
ENDTAB
0
TABLE
2
LTYPE
5
236
100
AcDbSymbolTable
0
LTYPE
5
14
100
AcDbSymbolTableRecord
100
AcDbLinetypeTableRecord
70
0
2
ByBlock
3

72
65
73
0
40
0
0
LTYPE
5
15
100
AcDbSymbolTableRecord
100
AcDbLinetypeTableRecord
70
0
2
ByLayer
3

72
65
73
0
40
0
0
LTYPE
5
16
100
AcDbSymbolTableRecord
100
AcDbLinetypeTableRecord
70
0
2
Continuous
3
Solid line
72
65
73
0
40
0
0
LTYPE
5
6E
100
AcDbSymbolTableRecord
100
AcDbLinetypeTableRecord
70
0
2
CENTER
3
____ _ ____ _ ____ _ ____
72
65
73
4
40
47.5
49
22
74
0
49
-8.5
74
0
49
8.5
74
0
49
-8.5
74
0
0
LTYPE
5
6F
100
AcDbSymbolTableRecord
100
AcDbLinetypeTableRecord
70
0
2
DASHED
3
__ __ __ __ __ __ __ __ __
72
65
73
2
40
25.72
49
12.86
74
0
49
-12.86
74
0
0
ENDTAB
0
TABLE
2
LAYER
5
237
100
AcDbSymbolTable
0
LAYER
5
10
100
AcDbSymbolTableRecord
100
AcDbLayerTableRecord
2
0
70
0
62
7
6
Continuous
290
1
370
-3
390
0
0
LAYER
5
71
100
AcDbSymbolTableRecord
100
AcDbLayerTableRecord
2
2
70
0
62
7
6
Continuous
290
1
370
-3
390
0
0
LAYER
5
84
100
AcDbSymbolTableRecord
100
AcDbLayerTableRecord
2
81
70
0
62
-3
6
Continuous
290
1
370
-3
390
0
0
LAYER
5
86
100
AcDbSymbolTableRecord
100
AcDbLayerTableRecord
2
80
70
0
62
-6
6
Continuous
290
1
370
-3
390
0
0
LAYER
5
88
100
AcDbSymbolTableRecord
100
AcDbLayerTableRecord
2
4
70
0
62
-2
6
CENTER
290
1
370
-3
390
0
0
LAYER
5
8C
100
AcDbSymbolTableRecord
100
AcDbLayerTableRecord
2
1
70
0
62
4
6
Continuous
290
1
370
-3
390
0
0
LAYER
5
222
100
AcDbSymbolTableRecord
100
AcDbLayerTableRecord
2
SK1
70
0
62
4
6
Continuous
290
1
370
-3
390
0
0
LAYER
5
223
100
AcDbSymbolTableRecord
100
AcDbLayerTableRecord
2
SK2
70
0
62
7
6
Continuous
290
1
370
-3
390
0
0
LAYER
5
224
100
AcDbSymbolTableRecord
100
AcDbLayerTableRecord
2
SK6
70
0
62
5
6
Continuous
290
1
370
-3
390
0
0
ENDTAB
0
TABLE
2
STYLE
5
238
100
AcDbSymbolTable
0
STYLE
5
11
100
AcDbSymbolTableRecord
100
AcDbTextStyleTableRecord
2
Standard
3
txt
70
0
71
0
40
0
41
1
42
0
50
0
0
STYLE
5
194
100
AcDbSymbolTableRecord
100
AcDbTextStyleTableRecord
2
iso_b_vert
3
simplex.shx
70
0
71
0
40
0
41
1
42
0
50
0
0
STYLE
5
195
100
AcDbSymbolTableRecord
100
AcDbTextStyleTableRecord
2
DWGDirectTextStyle
3
simplex
70
0
71
0
40
0
41
1
42
0
50
0
0
ENDTAB
0
TABLE
2
DIMSTYLE
5
239
100
AcDbSymbolTable
100
AcDbDimStyleTable
0
DIMSTYLE
105
27
100
AcDbSymbolTableRecord
100
AcDbDimStyleTableRecord
2
Standard
70
0
3
<>
41
0.18
42
0.0625
44
0.18
140
0.18
147
0.09
73
0
74
0
77
1
271
2
275
0
278
52
280
0
340
11
0
ENDTAB
0
TABLE
2
VIEW
5
23a
100
AcDbSymbolTable
0
ENDTAB
0
TABLE
2
UCS
5
23b
100
AcDbSymbolTable
0
ENDTAB
0
TABLE
2
APPID
5
23c
100
AcDbSymbolTable
0
APPID
5
12
100
AcDbSymbolTableRecord
100
AcDbRegAppTableRecord
2
ACAD
70
0
0
APPID
5
21E
100
AcDbSymbolTableRecord
100
AcDbRegAppTableRecord
2
ACAD_MLEADERVER
70
0
0
ENDTAB
0
TABLE
2
BLOCK_RECORD
5
23d
100
AcDbSymbolTable
0
BLOCK_RECORD
5
1F
100
AcDbSymbolTableRecord
100
AcDbBlockTableRecord
2
*Model_Space
340
0
70
0
0
BLOCK_RECORD
5
1B
100
AcDbSymbolTableRecord
100
AcDbBlockTableRecord
2
*Paper_Space
340
0
70
0
0
BLOCK_RECORD
5
23
100
AcDbSymbolTableRecord
100
AcDbBlockTableRecord
2
*Paper_Space0
340
0
70
0
0
ENDTAB
0
ENDSEC
0
SECTION
2
BLOCKS
0
BLOCK
5
20
100
AcDbEntity
8
0
100
AcDbBlockBegin
2
*Model_Space
70
0
10
0
20
0
30
0
3
*Model_Space
0
ENDBLK
5
21
100
AcDbEntity
8
0
100
AcDbBlockEnd
0
BLOCK
5
1C
100
AcDbEntity
8
0
100
AcDbBlockBegin
2
*Paper_Space
70
0
10
0
20
0
30
0
3
*Paper_Space
0
ENDBLK
5
1D
100
AcDbEntity
8
0
100
AcDbBlockEnd
0
BLOCK
5
24
100
AcDbEntity
8
0
100
AcDbBlockBegin
2
*Paper_Space0
70
0
10
0
20
0
30
0
3
*Paper_Space0
0
ENDBLK
5
25
100
AcDbEntity
8
0
100
AcDbBlockEnd
0
ENDSEC
0
SECTION
2
ENTITIES
0
ARC
5
11E
100
AcDbEntity
8
SK2
62
256
6
ByLayer
370
18
48
1
60
0
100
AcDbCircle
39
0
10
67.5
20
0
30
0
40
2.775
210
0
220
0
230
1
100
AcDbArc
50
180
51
240
0
ARC
5
11F
100
AcDbEntity
8
SK2
62
256
6
ByLayer
370
18
48
1
60
0
100
AcDbCircle
39
0
10
67.5
20
0
30
0
40
2.775
210
0
220
0
230
1
100
AcDbArc
50
60
51
120
0
ARC
5
120
100
AcDbEntity
8
SK2
62
256
6
ByLayer
370
18
48
1
60
0
100
AcDbCircle
39
0
10
67.5
20
0
30
0
40
2.775
210
0
220
0
230
1
100
AcDbArc
50
240
51
300
0
ARC
5
121
100
AcDbEntity
8
SK2
62
256
6
ByLayer
370
18
48
1
60
0
100
AcDbCircle
39
0
10
67.5
20
0
30
0
40
2.775
210
0
220
0
230
1
100
AcDbArc
50
120
51
180
0
ARC
5
122
100
AcDbEntity
8
SK2
62
256
6
ByLayer
370
18
48
1
60
0
100
AcDbCircle
39
0
10
67.5
20
0
30
0
40
2.775
210
0
220
0
230
1
100
AcDbArc
50
0
51
60
0
ARC
5
123
100
AcDbEntity
8
SK2
62
256
6
ByLayer
370
18
48
1
60
0
100
AcDbCircle
39
0
10
67.5
20
0
30
0
40
2.775
210
0
220
0
230
1
100
AcDbArc
50
300
51
0
0
ARC
5
126
100
AcDbEntity
8
1
62
256
6
ByLayer
370
18
48
1
60
0
100
AcDbCircle
39
0
10
40.124598
20
18.3
30
0
40
0.600000000000001
210
0
220
0
230
1
100
AcDbArc
50
270
51
285
0
ARC
5
127
100
AcDbEntity
8
1
62
256
6
ByLayer
370
18
48
1
60
0
100
AcDbCircle
39
0
10
40.124598
20
-18.3
30
0
40
0.600000000000001
210
0
220
0
230
1
100
AcDbArc
50
75
51
90
0
ARC
5
128
100
AcDbEntity
8
1
62
256
6
ByLayer
370
18
48
1
60
0
100
AcDbCircle
39
0
10
38.95
20
27.7
30
0
40
10
210
0
220
0
230
1
100
AcDbArc
50
180
51
270
0
ARC
5
129
100
AcDbEntity
8
1
62
256
6
ByLayer
370
18
48
1
60
0
100
AcDbCircle
39
0
10
38.95
20
-27.7
30
0
40
10
210
0
220
0
230
1
100
AcDbArc
50
90
51
180
0
ARC
5
12A
100
AcDbEntity
8
SK1
62
256
6
ByLayer
370
18
48
1
60
0
100
AcDbCircle
39
0
10
-41.7
20
34.125
30
0
40
1.9
210
0
220
0
230
1
100
AcDbArc
50
270
51
313.91428
0
ARC
5
12B
100
AcDbEntity
8
SK1
62
256
6
ByLayer
370
18
48
1
60
0
100
AcDbCircle
39
0
10
-36.7
20
-34.125
30
0
40
1.9
210
0
220
0
230
1
100
AcDbArc
50
34.902187
51
90
0
ARC
5
12C
100
AcDbEntity
8
SK1
62
256
6
ByLayer
370
18
48
1
60
0
100
AcDbCircle
39
0
10
-0.8
20
38.632252
30
0
40
1
210
0
220
0
230
1
100
AcDbArc
50
270
51
323.130102
0
ARC
5
12D
100
AcDbEntity
8
SK1
62
256
6
ByLayer
370
18
48
1
60
0
100
AcDbCircle
39
0
10
-0.8
20
-38.632252
30
0
40
1
210
0
220
0
230
1
100
AcDbArc
50
36.869898
51
90
0
ARC
5
12E
100
AcDbEntity
8
1
62
256
6
ByLayer
370
18
48
1
60
0
100
AcDbCircle
39
0
10
45
20
12.779329
30
0
40
1.52
210
0
220
0
230
1
100
AcDbArc
50
38.418736
51
141.575603
0
CIRCLE
5
124
100
AcDbEntity
8
SK2
62
256
6
ByLayer
370
18
48
1
60
0
100
AcDbCircle
10
67.5
20
0
30
0
40
4.255
39
0
210
0
220
0
230
1
0
CIRCLE
5
125
100
AcDbEntity
8
SK2
62
256
6
ByLayer
370
18
48
1
60
0
100
AcDbCircle
10
67.5
20
0
30
0
40
3.495
39
0
210
0
220
0
230
1
0
ELLIPSE
5
12F
100
AcDbEntity
8
1
62
256
6
ByLayer
370
18
48
1
60
0
100
AcDbEllipse
10
45
20
-14.417076
30
0
11
-2.00000000000004
21
-6.43257148935663E-16
31
0
210
0
220
0
230
1
40
0.573576
41
-0.775776854298625
42
0
0
ELLIPSE
5
130
100
AcDbEntity
8
1
62
256
6
ByLayer
370
18
48
1
60
0
100
AcDbEllipse
10
45
20
-14.417076
30
0
11
-2.00000000000004
21
-6.43257148935663E-16
31
0
210
0
220
0
230
1
40
0.573576
41
0
42
1.57079620201487
0
ELLIPSE
5
131
100
AcDbEntity
8
1
62
256
6
ByLayer
370
18
48
1
60
0
100
AcDbEllipse
10
45
20
-14.417076
30
0
11
-2.00000000000004
21
-6.43257148935663E-16
31
0
210
0
220
0
230
1
40
0.573576
41
1.57079620113489
42
-2.36581549164686
0
ELLIPSE
5
132
100
AcDbEntity
8
1
62
256
6
ByLayer
370
18
48
1
60
0
100
AcDbEllipse
10
45
20
14.417076
30
0
11
2.00000000000004
21
0
31
0
210
0
220
0
230
1
40
0.573576
41
-0.775678848439629
42
0
0
ELLIPSE
5
133
100
AcDbEntity
8
1
62
256
6
ByLayer
370
18
48
1
60
0
100
AcDbEllipse
10
45
20
14.417076
30
0
11
2.00000000000004
21
0
31
0
210
0
220
0
230
1
40
0.573576
41
0
42
-2.36591349640559
0
ELLIPSE
5
134
100
AcDbEntity
8
1
62
256
6
ByLayer
370
18
48
1
60
0
100
AcDbEllipse
10
20
20
-7.629233
30
0
11
1.75
21
0
31
0
210
0
220
0
230
1
40
0.984808
41
-3.08180417172497
42
-0.0617518050809027
0
ELLIPSE
5
135
100
AcDbEntity
8
1
62
256
6
ByLayer
370
18
48
1
60
0
100
AcDbEllipse
10
20
20
7.629233
30
0
11
-1.75
21
-5.62850005318694E-16
31
0
210
0
220
0
230
1
40
0.984808
41
-1.57079655876472
42
-0.125860244287692
0
ELLIPSE
5
136
100
AcDbEntity
8
1
62
256
6
ByLayer
370
18
48
1
60
0
100
AcDbEllipse
10
20
20
7.629233
30
0
11
-1.75
21
-5.62850005318694E-16
31
0
210
0
220
0
230
1
40
0.984808
41
-3.06570356230511
42
-1.57079655876473
0
ELLIPSE
5
137
100
AcDbEntity
8
1
62
256
6
ByLayer
370
18
48
1
60
0
100
AcDbEllipse
10
45
20
-13.177945
30
0
11
1.44
21
0
31
0
210
0
220
0
230
1
40
0.573576
41
-2.48342942071749
42
-0.658163853488147
0
ELLIPSE
5
138
100
AcDbEntity
8
1
62
256
6
ByLayer
370
18
48
1
60
0
100
AcDbEllipse
10
45
20
-14.18827
30
0
11
-1.44
21
-4.63145147233668E-16
31
0
210
0
220
0
230
1
40
0.573576
41
0
42
6.28318530717959
0
ELLIPSE
5
139
100
AcDbEntity
8
1
62
256
6
ByLayer
370
18
48
1
60
0
100
AcDbEllipse
10
45
20
-14.18827
30
0
11
1.78225748207288
21
0
31
0
210
0
220
0
230
1
40
0.573576
41
-1.57079622647451
42
0
0
ELLIPSE
5
13A
100
AcDbEntity
8
1
62
256
6
ByLayer
370
18
48
1
60
0
100
AcDbEllipse
10
45
20
-14.18827
30
0
11
1.78225748207288
21
0
31
0
210
0
220
0
230
1
40
0.573576
41
0
42
0.486259859271109
0
ELLIPSE
5
13B
100
AcDbEntity
8
1
62
256
6
ByLayer
370
18
48
1
60
0
100
AcDbEllipse
10
45
20
-14.18827
30
0
11
1.78225748207288
21
0
31
0
210
0
220
0
230
1
40
0.573576
41
2.65533308527604
42
-1.57079622647455
0
ELLIPSE
5
13C
100
AcDbEntity
8
1
62
256
6
ByLayer
370
18
48
1
60
0
100
AcDbEllipse
10
45
20
-14.057704
30
0
11
-1.95620240091251
21
-6.29170589576027E-16
31
0
210
0
220
0
230
1
40
0.573576
41
0.0895355785992417
42
0.869632503298913
0
ELLIPSE
5
13D
100
AcDbEntity
8
1
62
256
6
ByLayer
370
18
48
1
60
0
100
AcDbEllipse
10
45
20
-14.057704
30
0
11
-1.95620240091251
21
-6.29170589576027E-16
31
0
210
0
220
0
230
1
40
0.573576
41
2.27196052593007
42
3.05205762650823
0
ELLIPSE
5
13E
100
AcDbEntity
8
1
62
256
6
ByLayer
370
18
48
1
60
0
100
AcDbEllipse
10
45
20
14.18827
30
0
11
1.44
21
0
31
0
210
0
220
0
230
1
40
0.573576
41
0
42
6.28318530717959
0
ELLIPSE
5
13F
100
AcDbEntity
8
1
62
256
6
ByLayer
370
18
48
1
60
0
100
AcDbEllipse
10
45
20
14.18827
30
0
11
-1.78225748207288
21
-5.73224933293715E-16
31
0
210
0
220
0
230
1
40
0.573576
41
2.65543154022629
42
0
0
ELLIPSE
5
140
100
AcDbEntity
8
1
62
256
6
ByLayer
370
18
48
1
60
0
100
AcDbEllipse
10
45
20
14.18827
30
0
11
-1.78225748207288
21
-5.73224933293715E-16
31
0
210
0
220
0
230
1
40
0.573576
41
0
42
0.486161404337549
0
ELLIPSE
5
141
100
AcDbEntity
8
1
62
256
6
ByLayer
370
18
48
1
60
0
100
AcDbEllipse
10
45
20
14.057704
30
0
11
1.95620240091251
21
0
31
0
210
0
220
0
230
1
40
0.573576
41
2.27186238011958
42
3.0519594965437
0
ELLIPSE
5
142
100
AcDbEntity
8
1
62
256
6
ByLayer
370
18
48
1
60
0
100
AcDbEllipse
10
45
20
14.057704
30
0
11
1.95620240091251
21
0
31
0
210
0
220
0
230
1
40
0.573576
41
0.0896337085540697
42
0.869730649092464
0
ELLIPSE
5
143
100
AcDbEntity
8
1
62
256
6
ByLayer
370
18
48
1
60
0
100
AcDbEllipse
10
45
20
-13.177945
30
0
11
1.44
21
0
31
0
210
0
220
0
230
1
40
0.573576
41
-2.48342942071749
42
-0.658163853488147
0
ELLIPSE
5
144
100
AcDbEntity
8
1
62
256
6
ByLayer
370
18
48
1
60
0
100
AcDbEllipse
10
45
20
-14.18827
30
0
11
-1.44
21
-4.63145147233668E-16
31
0
210
0
220
0
230
1
40
0.573576
41
0
42
6.28318530717959
0
ELLIPSE
5
145
100
AcDbEntity
8
1
62
256
6
ByLayer
370
18
48
1
60
0
100
AcDbEllipse
10
45
20
-14.057704
30
0
11
-1.95620240091251
21
-6.29170589576027E-16
31
0
210
0
220
0
230
1
40
0.573576
41
0.0895355785992417
42
0.869632503298913
0
ELLIPSE
5
146
100
AcDbEntity
8
1
62
256
6
ByLayer
370
18
48
1
60
0
100
AcDbEllipse
10
45
20
-14.057704
30
0
11
-1.95620240091251
21
-6.29170589576027E-16
31
0
210
0
220
0
230
1
40
0.573576
41
2.27196052593007
42
3.05205762650823
0
ELLIPSE
5
147
100
AcDbEntity
8
1
62
256
6
ByLayer
370
18
48
1
60
0
100
AcDbEllipse
10
45
20
-14.18827
30
0
11
1.78225748207288
21
0
31
0
210
0
220
0
230
1
40
0.573576
41
-1.57079622647451
42
0
0
ELLIPSE
5
148
100
AcDbEntity
8
1
62
256
6
ByLayer
370
18
48
1
60
0
100
AcDbEllipse
10
45
20
-14.18827
30
0
11
1.78225748207288
21
0
31
0
210
0
220
0
230
1
40
0.573576
41
0
42
0.486259859271109
0
ELLIPSE
5
149
100
AcDbEntity
8
1
62
256
6
ByLayer
370
18
48
1
60
0
100
AcDbEllipse
10
45
20
-14.18827
30
0
11
1.78225748207288
21
0
31
0
210
0
220
0
230
1
40
0.573576
41
2.65533308527604
42
-1.57079622647455
0
ELLIPSE
5
14A
100
AcDbEntity
8
1
62
256
6
ByLayer
370
18
48
1
60
0
100
AcDbEllipse
10
45
20
14.18827
30
0
11
1.44
21
0
31
0
210
0
220
0
230
1
40
0.573576
41
0
42
6.28318530717959
0
ELLIPSE
5
14B
100
AcDbEntity
8
1
62
256
6
ByLayer
370
18
48
1
60
0
100
AcDbEllipse
10
45
20
14.18827
30
0
11
-1.78225748207288
21
-5.73224933293715E-16
31
0
210
0
220
0
230
1
40
0.573576
41
2.65543154022629
42
0
0
ELLIPSE
5
14C
100
AcDbEntity
8
1
62
256
6
ByLayer
370
18
48
1
60
0
100
AcDbEllipse
10
45
20
14.18827
30
0
11
-1.78225748207288
21
-5.73224933293715E-16
31
0
210
0
220
0
230
1
40
0.573576
41
0
42
0.486161404337549
0
ELLIPSE
5
14D
100
AcDbEntity
8
1
62
256
6
ByLayer
370
18
48
1
60
0
100
AcDbEllipse
10
45
20
14.057704
30
0
11
1.95620240091251
21
0
31
0
210
0
220
0
230
1
40
0.573576
41
2.27186238011958
42
3.0519594965437
0
ELLIPSE
5
14E
100
AcDbEntity
8
1
62
256
6
ByLayer
370
18
48
1
60
0
100
AcDbEllipse
10
45
20
14.057704
30
0
11
1.95620240091251
21
0
31
0
210
0
220
0
230
1
40
0.573576
41
0.0896337085540697
42
0.869730649092464
0
ELLIPSE
5
14F
100
AcDbEntity
8
SK1
62
256
6
ByLayer
370
13
48
1
60
0
100
AcDbEllipse
10
-36.7
20
-33.386024
30
0
11
1.9
21
0
31
0
210
0
220
0
230
1
40
0.891007
41
1.11205041920186
42
1.5707963267949
0
ELLIPSE
5
150
100
AcDbEntity
8
1
62
256
6
ByLayer
370
18
48
1
60
0
100
AcDbEllipse
10
90
20
7.249496
30
0
11
0.046464728074644
21
1.2991693611862
31
0
210
0
220
0
230
1
40
0.025019
41
-2.18121453917652
42
-0.610417987575883
0
ELLIPSE
5
151
100
AcDbEntity
8
1
62
256
6
ByLayer
370
18
48
1
60
0
100
AcDbEllipse
10
90
20
7.249496
30
0
11
0.046464728074644
21
1.2991693611862
31
0
210
0
220
0
230
1
40
0.025019
41
-0.610417987575883
42
-0.0433674591874808
0
ELLIPSE
5
152
100
AcDbEntity
8
1
62
256
6
ByLayer
370
18
48
1
60
0
100
AcDbEllipse
10
90
20
-7.249496
30
0
11
-0.0464647280746496
21
1.2991693611862
31
0
210
0
220
0
230
1
40
0.025019
41
-3.0982384210527
42
-2.53117581987996
0
ELLIPSE
5
153
100
AcDbEntity
8
1
62
256
6
ByLayer
370
18
48
1
60
0
100
AcDbEllipse
10
90
20
-7.249496
30
0
11
-0.0464647280746496
21
1.2991693611862
31
0
210
0
220
0
230
1
40
0.025019
41
-2.53117447876636
42
-0.960377983362143
0
ELLIPSE
5
154
100
AcDbEntity
8
1
62
256
6
ByLayer
370
18
48
1
60
0
100
AcDbEllipse
10
90
20
7.249496
30
0
11
0.046464728074644
21
1.2991693611862
31
0
210
0
220
0
230
1
40
0.025019
41
-2.18121453917652
42
-0.610417987575883
0
ELLIPSE
5
155
100
AcDbEntity
8
1
62
256
6
ByLayer
370
18
48
1
60
0
100
AcDbEllipse
10
90
20
7.249496
30
0
11
0.046464728074644
21
1.2991693611862
31
0
210
0
220
0
230
1
40
0.025019
41
-0.610417987575883
42
-0.0433674591876173
0
ELLIPSE
5
156
100
AcDbEntity
8
1
62
256
6
ByLayer
370
18
48
1
60
0
100
AcDbEllipse
10
45
20
14.18827
30
0
11
1.44
21
0
31
0
210
0
220
0
230
1
40
0.573576
41
0
42
6.28318530717959
0
ELLIPSE
5
157
100
AcDbEntity
8
1
62
256
6
ByLayer
370
18
48
1
60
0
100
AcDbEllipse
10
45
20
14.057704
30
0
11
1.95620240091251
21
0
31
0
210
0
220
0
230
1
40
0.573576
41
2.2718623801196
42
3.05195949654372
0
ELLIPSE
5
158
100
AcDbEntity
8
1
62
256
6
ByLayer
370
18
48
1
60
0
100
AcDbEllipse
10
45
20
14.057704
30
0
11
1.95620240091251
21
0
31
0
210
0
220
0
230
1
40
0.573576
41
0.0896337085540886
42
0.869730649092477
0
ELLIPSE
5
159
100
AcDbEntity
8
1
62
256
6
ByLayer
370
18
48
1
60
0
100
AcDbEllipse
10
45
20
14.18827
30
0
11
-1.78225748207288
21
-5.73224933293715E-16
31
0
210
0
220
0
230
1
40
0.573576
41
2.65543154022631
42
0
0
ELLIPSE
5
15A
100
AcDbEntity
8
1
62
256
6
ByLayer
370
18
48
1
60
0
100
AcDbEllipse
10
45
20
14.18827
30
0
11
-1.78225748207288
21
-5.73224933293715E-16
31
0
210
0
220
0
230
1
40
0.573576
41
0
42
0.486161404337549
0
POINT
5
70
100
AcDbEntity
8
2
62
256
6
ByLayer
370
18
48
1
60
0
100
AcDbPoint
10
45
20
14.662822
30
0
39
0
210
0
220
0
230
1
50
360
0
POINT
5
72
100
AcDbEntity
8
2
62
256
6
ByLayer
370
18
48
1
60
0
100
AcDbPoint
10
90
20
0
30
0
39
0
210
0
220
0
230
1
50
360
0
POINT
5
73
100
AcDbEntity
8
2
62
256
6
ByLayer
370
18
48
1
60
0
100
AcDbPoint
10
90
20
0
30
0
39
0
210
0
220
0
230
1
50
360
0
POINT
5
74
100
AcDbEntity
8
2
62
256
6
ByLayer
370
18
48
1
60
0
100
AcDbPoint
10
42
20
0
30
0
39
0
210
0
220
0
230
1
50
360
0
POINT
5
75
100
AcDbEntity
8
2
62
256
6
ByLayer
370
18
48
1
60
0
100
AcDbPoint
10
90
20
7.249496
30
0
39
0
210
0
220
0
230
1
50
360
0
POINT
5
76
100
AcDbEntity
8
2
62
256
6
ByLayer
370
18
48
1
60
0
100
AcDbPoint
10
90
20
0
30
0
39
0
210
0
220
0
230
1
50
360
0
POINT
5
77
100
AcDbEntity
8
2
62
256
6
ByLayer
370
18
48
1
60
0
100
AcDbPoint
10
28.95
20
0
30
0
39
0
210
0
220
0
230
1
50
360
0
POINT
5
78
100
AcDbEntity
8
2
62
256
6
ByLayer
370
18
48
1
60
0
100
AcDbPoint
10
67.5
20
0
30
0
39
0
210
0
220
0
230
1
50
360
0
POINT
5
79
100
AcDbEntity
8
2
62
256
6
ByLayer
370
18
48
1
60
0
100
AcDbPoint
10
45
20
14.662822
30
0
39
0
210
0
220
0
230
1
50
360
0
POINT
5
7A
100
AcDbEntity
8
2
62
256
6
ByLayer
370
18
48
1
60
0
100
AcDbPoint
10
67.5
20
0
30
0
39
0
210
0
220
0
230
1
50
360
0
POINT
5
7B
100
AcDbEntity
8
2
62
256
6
ByLayer
370
18
48
1
60
0
100
AcDbPoint
10
45
20
16.301126
30
0
39
0
210
0
220
0
230
1
50
360
0
POINT
5
7C
100
AcDbEntity
8
2
62
256
6
ByLayer
370
18
48
1
60
0
100
AcDbPoint
10
90
20
0
30
0
39
0
210
0
220
0
230
1
50
360
0
POINT
5
7D
100
AcDbEntity
8
2
62
256
6
ByLayer
370
18
48
1
60
0
100
AcDbPoint
10
0
20
0
30
0
39
0
210
0
220
0
230
1
50
360
0
POINT
5
7E
100
AcDbEntity
8
2
62
256
6
ByLayer
370
18
48
1
60
0
100
AcDbPoint
10
90
20
0
30
0
39
0
210
0
220
0
230
1
50
360
0
POINT
5
7F
100
AcDbEntity
8
2
62
256
6
ByLayer
370
18
48
1
60
0
100
AcDbPoint
10
90
20
0
30
0
39
0
210
0
220
0
230
1
50
360
0
POINT
5
80
100
AcDbEntity
8
2
62
256
6
ByLayer
370
18
48
1
60
0
100
AcDbPoint
10
42
20
0
30
0
39
0
210
0
220
0
230
1
50
360
0
POINT
5
81
100
AcDbEntity
8
2
62
256
6
ByLayer
370
18
48
1
60
0
100
AcDbPoint
10
67.5
20
0
30
0
39
0
210
0
220
0
230
1
50
360
0
POINT
5
82
100
AcDbEntity
8
2
62
256
6
ByLayer
370
18
48
1
60
0
100
AcDbPoint
10
90
20
0
30
0
39
0
210
0
220
0
230
1
50
360
0
POINT
5
83
100
AcDbEntity
8
81
62
256
6
ByLayer
370
18
48
1
60
0
100
AcDbPoint
10
90
20
0
30
0
39
0
210
0
220
0
230
1
50
360
0
POINT
5
85
100
AcDbEntity
8
80
62
256
6
ByLayer
370
18
48
1
60
0
100
AcDbPoint
10
0
20
0
30
0
39
0
210
0
220
0
230
1
50
360
0
SPLINE
5
15B
100
AcDbEntity
8
1
62
256
6
ByLayer
370
18
48
1
60
0
100
AcDbSpline
70
2053
71
3
72
154
73
150
40
0
40
0
40
0
40
0
40
0.0156250000000003
40
0.0156250000000003
40
0.0312500000000007
40
0.046875000000001
40
0.046875000000001
40
0.054687500000001
40
0.054687500000001
40
0.062500000000001
40
0.062500000000001
40
0.093750000000001
40
0.093750000000001
40
0.101562500000001
40
0.101562500000001
40
0.109375
40
0.109375
40
0.125000000000001
40
0.125000000000001
40
0.156250000000004
40
0.156250000000004
40
0.164062500000005
40
0.164062500000005
40
0.171875000000006
40
0.171875000000006
40
0.187500000000007
40
0.203125000000009
40
0.203125000000009
40
0.21093750000001
40
0.214843750000009
40
0.214843750000009
40
0.218750000000009
40
0.218750000000009
40
0.250000000000006
40
0.250000000000006
40
0.265625000000004
40
0.265625000000004
40
0.273437500000004
40
0.273437500000004
40
0.277343750000004
40
0.277343750000004
40
0.281250000000004
40
0.296875000000001
40
0.312499999999998
40
0.312499999999998
40
0.328124999999995
40
0.328124999999995
40
0.332031249999995
40
0.332031249999995
40
0.335937499999994
40
0.343749999999994
40
0.343749999999994
40
0.359374999999994
40
0.374999999999994
40
0.374999999999994
40
0.382812499999994
40
0.382812499999994
40
0.390624999999994
40
0.390624999999994
40
0.406249999999994
40
0.421874999999995
40
0.421874999999995
40
0.429687499999995
40
0.429687499999995
40
0.433593749999995
40
0.433593749999995
40
0.437499999999995
40
0.453124999999996
40
0.468749999999998
40
0.468749999999998
40
0.476562499999998
40
0.476562499999998
40
0.484374999999998
40
0.484374999999998
40
0.499999999999999
40
0.515624999999999
40
0.515624999999999
40
0.523437499999999
40
0.523437499999999
40
0.531249999999999
40
0.531249999999999
40
0.546874999999999
40
0.546874999999999
40
0.562499999999999
40
0.578124999999999
40
0.578124999999999
40
0.58203125
40
0.58203125
40
0.5859375
40
0.5859375
40
0.593750000000001
40
0.593750000000001
40
0.625000000000005
40
0.625000000000005
40
0.640625000000007
40
0.640625000000007
40
0.656250000000008
40
0.656250000000008
40
0.68750000000001
40
0.68750000000001
40
0.69531250000001
40
0.69531250000001
40
0.70312500000001
40
0.70312500000001
40
0.718750000000008
40
0.734375000000006
40
0.750000000000004
40
0.750000000000004
40
0.753906250000004
40
0.753906250000004
40
0.757812500000004
40
0.757812500000004
40
0.765625000000004
40
0.765625000000004
40
0.781250000000003
40
0.796875000000002
40
0.796875000000002
40
0.812500000000001
40
0.812500000000001
40
0.828125
40
0.843749999999999
40
0.859374999999998
40
0.859374999999998
40
0.863281249999998
40
0.863281249999998
40
0.867187499999998
40
0.867187499999998
40
0.874999999999998
40
0.874999999999998
40
0.890624999999998
40
0.906249999999998
40
0.906249999999998
40
0.914062499999998
40
0.914062499999998
40
0.917968749999998
40
0.917968749999998
40
0.921874999999998
40
0.937499999999998
40
0.953124999999998
40
0.953124999999998
40
0.960937499999998
40
0.960937499999998
40
0.968749999999998
40
0.968749999999998
40
0.984374999999999
40
0.984374999999999
40
0.992187499999999
40
0.992187499999999
40
1
40
1
40
1
40
1
41
1
10
43.2486941985409
20
15.4231229259978
30
0
41
1
10
43.2980936333532
20
15.4509818377456
30
0
41
1
10
43.3498523095088
20
15.4771730957649
30
0
41
1
10
43.4578777763552
20
15.5264761925372
30
0
41
1
10
43.5704124547796
20
15.5726989420928
30
0
41
1
10
43.6918276092668
20
15.6130623060585
30
0
41
1
10
43.7862649487833
20
15.6411832747049
30
0
41
1
10
43.8181354679942
20
15.6501454493896
30
0
41
1
10
43.8824678434056
20
15.6672286636051
30
0
41
1
10
43.9149577266826
20
15.6753580469912
30
0
41
1
10
44.0789956578811
20
15.7140093627268
30
0
41
1
10
44.2152658994117
20
15.7386070678259
30
0
41
1
10
44.3918745912805
20
15.7618399819664
30
0
41
1
10
44.4275125684939
20
15.7661069956743
30
0
41
1
10
44.4994312714564
20
15.7738760897276
30
0
41
1
10
44.5354976556551
20
15.7773543773786
30
0
41
1
10
44.6437546725682
20
15.7865775113119
30
0
41
1
10
44.7161149945105
20
15.7911260972401
30
0
41
1
10
44.933749528263
20
15.8001263536545
30
0
41
1
10
45.0795723669852
20
15.7999834174468
30
0
41
1
10
45.2627976023532
20
15.7918690389672
30
0
41
1
10
45.2994945104948
20
15.7898422764243
30
0
41
1
10
45.3722310821636
20
15.7850241448265
30
0
41
1
10
45.4083659516927
20
15.7822292705395
30
0
41
1
10
45.5160803192074
20
15.7726974413452
30
0
41
1
10
45.6578615311921
20
15.7569340965437
30
0
41
1
10
45.7959977659371
20
15.7350202973982
30
0
41
1
10
45.8982071075446
20
15.7161862949231
30
0
41
1
10
45.9489630376715
20
15.7061685436512
30
0
41
1
10
45.999185109227
20
15.6952202339411
30
0
41
1
10
46.0325463126686
20
15.6877105735901
30
0
41
1
10
46.0491852659089
20
15.6838457100568
30
0
41
1
10
46.1976471772114
20
15.6482745823623
30
0
41
1
10
46.3215029127953
20
15.6109137616532
30
0
41
1
10
46.49529194436
20
15.5458119137001
30
0
41
1
10
46.5512086225707
20
15.5225903543869
30
0
41
1
10
46.6319523156718
20
15.4853118521214
30
0
41
1
10
46.6583440196706
20
15.4724771714773
30
0
41
1
10
46.697123575433
20
15.4525834464893
30
0
41
1
10
46.709905553824
20
15.4458496044359
30
0
41
1
10
46.7350507031478
20
15.4322443756924
30
0
41
1
10
46.7969538520511
20
15.3978392574147
30
0
41
1
10
46.8998491528953
20
15.3323861740503
30
0
41
1
10
46.9792782647881
20
15.2690302861572
30
0
41
1
10
47.0525582379717
20
15.2029331526753
30
0
41
1
10
47.0861248332398
20
15.1685146194308
30
0
41
1
10
47.1240324823961
20
15.1236300265964
30
0
41
1
10
47.1314172185292
20
15.1145507498239
30
0
41
1
10
47.1456871328057
20
15.096314767159
30
0
41
1
10
47.1663747150831
20
15.0688078111924
30
0
41
1
10
47.1849308304485
20
15.0408408974756
30
0
41
1
10
47.2192323508912
20
14.9842882049701
30
0
41
1
10
47.257482909038
20
14.9072352159594
30
0
41
1
10
47.2807539792929
20
14.8267774799824
30
0
41
1
10
47.2924097782166
20
14.7650916669584
30
0
41
1
10
47.2953299606534
20
14.7442704223942
30
0
41
1
10
47.2991664422224
20
14.7023190754617
30
0
41
1
10
47.3000747355109
20
14.6813155726388
30
0
41
1
10
47.2998359309901
20
14.6182224197014
30
0
41
1
10
47.2916304338485
20
14.5338771300224
30
0
41
1
10
47.2679742954177
20
14.4491207399654
30
0
41
1
10
47.2443826298586
20
14.385422132939
30
0
41
1
10
47.2355419951029
20
14.3641674955426
30
0
41
1
10
47.2207918242293
20
14.332256893959
30
0
41
1
10
47.2156223832046
20
14.3216081175513
30
0
41
1
10
47.204848926167
20
14.3004275916368
30
0
41
1
10
47.1767895190829
20
14.2476948635868
30
0
41
1
10
47.1163639785559
20
14.154720308311
30
0
41
1
10
47.0490361054495
20
14.0748766946098
30
0
41
1
10
46.9934607039005
20
14.016098630028
30
0
41
1
10
46.974087395382
20
13.9966904750104
30
0
41
1
10
46.9336295125722
20
13.9582576672458
30
0
41
1
10
46.9125064955626
20
13.9392047259552
30
0
41
1
10
46.8472517609093
20
13.883241884452
30
0
41
1
10
46.7548564337177
20
13.8114235007337
30
0
41
1
10
46.6521198567183
20
13.7451584101901
30
0
41
1
10
46.5712348784468
20
13.6975884349562
30
0
41
1
10
46.5436332718895
20
13.6820872239579
30
0
41
1
10
46.4871435431513
20
13.6518112594919
30
0
41
1
10
46.4582204986695
20
13.6370195441704
30
0
41
1
10
46.3697226608086
20
13.5938750939364
30
0
41
1
10
46.3090433947582
20
13.5670453991454
30
0
41
1
10
46.1844702756187
20
13.5171690839026
30
0
41
1
10
46.0566817681904
20
13.4710769044719
30
0
41
1
10
45.92256062141
20
13.4325908094648
30
0
41
1
10
45.836730880647
20
13.4109866418409
30
0
41
1
10
45.8194645118078
20
13.4067885334755
30
0
41
1
10
45.784729411771
20
13.3986405823487
30
0
41
1
10
45.7672430936089
20
13.3946871760989
30
0
41
1
10
45.7147251032919
20
13.3832564629291
30
0
41
1
10
45.679572549995
20
13.3761927260215
30
0
41
1
10
45.5031217928569
20
13.3436149656811
30
0
41
1
10
45.359777932677
20
13.3262601690323
30
0
41
1
10
45.1415407631293
20
13.3132652867233
30
0
41
1
10
45.0682056756804
20
13.3111189427076
30
0
41
1
10
44.9206183157113
20
13.3113472735968
30
0
41
1
10
44.847398800707
20
13.3137173261141
30
0
41
1
10
44.6294081908263
20
13.3273678065461
30
0
41
1
10
44.4862904551943
20
13.345139568472
30
0
41
1
10
44.3102006573144
20
13.3782088173791
30
0
41
1
10
44.2751242426909
20
13.3853693529409
30
0
41
1
10
44.2052605871368
20
13.4008007301019
30
0
41
1
10
44.1704652774029
20
13.4090776431493
30
0
41
1
10
44.0676204797904
20
13.4353072865049
30
0
41
1
10
43.9338465086265
20
13.4741594040514
30
0
41
1
10
43.7430732601217
20
13.5436756207113
30
0
41
1
10
43.6225485978711
20
13.5974313544782
30
0
41
1
10
43.5493845485367
20
13.6333823153792
30
0
41
1
10
43.5348601950376
20
13.6406904476494
30
0
41
1
10
43.5060315901536
20
13.6555446094795
30
0
41
1
10
43.4917116033331
20
13.6630995069258
30
0
41
1
10
43.4493128177899
20
13.6860007662411
30
0
41
1
10
43.4217344560571
20
13.7016130582864
30
0
41
1
10
43.341035465625
20
13.7494533047656
30
0
41
1
10
43.2388584427128
20
13.8159110482342
30
0
41
1
10
43.1474862937201
20
13.8875033851402
30
0
41
1
10
43.0616613611732
20
13.9616380101975
30
0
41
1
10
43.0214964765702
20
14.0000025433644
30
0
41
1
10
42.9471420040881
20
14.0792251849688
30
0
41
1
10
42.8800485030339
20
14.1595578317257
30
0
41
1
10
42.8007158947653
20
14.2830737136581
30
0
41
1
10
42.7621348688149
20
14.3673108917401
30
0
41
1
10
42.7426672949579
20
14.4205417667131
30
0
41
1
10
42.7390066503597
20
14.4312171856464
30
0
41
1
10
42.7321579411809
20
14.4526267481847
30
0
41
1
10
42.7289661267907
20
14.4633763302139
30
0
41
1
10
42.720159710961
20
14.4955271424768
30
0
41
1
10
42.7152981080682
20
14.5168697375275
30
0
41
1
10
42.7036842011158
20
14.5806237800316
30
0
41
1
10
42.6961066912747
20
14.6648992130092
30
0
41
1
10
42.7041111685003
20
14.7477152123284
30
0
41
1
10
42.7160491489073
20
14.8092798328377
30
0
41
1
10
42.7210194298728
20
14.829710140357
30
0
41
1
10
42.7299903735056
20
14.8602187157918
30
0
41
1
10
42.7332351083865
20
14.8703674422748
30
0
41
1
10
42.7401888476072
20
14.89049492328
30
0
41
1
10
42.7587621559938
20
14.9404660823272
30
0
41
1
10
42.8026802298278
20
15.0273602611481
30
0
41
1
10
42.8561574895923
20
15.1004996974126
30
0
41
1
10
42.9016685127972
20
15.1538733777108
30
0
41
1
10
42.9177410579957
20
15.1714174414569
30
0
41
1
10
42.9517093462914
20
15.206016580043
30
0
41
1
10
42.9696269808845
20
15.2230856779522
30
0
41
1
10
43.0255919356246
20
15.2730851397396
30
0
41
1
10
43.0659974449082
20
15.3049765144176
30
0
41
1
10
43.1311199304532
20
15.3507846871383
30
0
41
1
10
43.1535813184992
20
15.3657152651175
30
0
41
1
10
43.2000079503208
20
15.3949135890597
30
0
41
1
10
43.2239944811348
20
15.4091934701239
30
0
41
1
10
43.2486941985409
20
15.4231229259978
30
0
0
SPLINE
5
15C
100
AcDbEntity
8
1
62
256
6
ByLayer
370
18
48
1
60
0
100
AcDbSpline
70
2053
71
3
72
199
73
195
40
0
40
0
40
0
40
0
40
0.0156249999999971
40
0.0156249999999971
40
0.0312499999999942
40
0.0312499999999942
40
0.0468749999999913
40
0.0468749999999913
40
0.0546874999999903
40
0.0546874999999903
40
0.0585937499999897
40
0.0585937499999897
40
0.0624999999999891
40
0.0624999999999891
40
0.0781249999999866
40
0.0781249999999866
40
0.0937499999999841
40
0.0937499999999841
40
0.101562499999983
40
0.101562499999983
40
0.105468749999982
40
0.105468749999982
40
0.109374999999982
40
0.109374999999982
40
0.124999999999979
40
0.124999999999979
40
0.140624999999977
40
0.140624999999977
40
0.148437499999976
40
0.148437499999976
40
0.152343749999975
40
0.152343749999975
40
0.156249999999974
40
0.156249999999974
40
0.171874999999972
40
0.171874999999972
40
0.18749999999997
40
0.18749999999997
40
0.195312499999969
40
0.195312499999969
40
0.199218749999968
40
0.199218749999968
40
0.203124999999968
40
0.203124999999968
40
0.218749999999965
40
0.218749999999965
40
0.234374999999963
40
0.234374999999963
40
0.238281249999962
40
0.238281249999962
40
0.242187499999962
40
0.249999999999961
40
0.249999999999961
40
0.265624999999959
40
0.265624999999959
40
0.281249999999957
40
0.281249999999957
40
0.285156249999956
40
0.285156249999956
40
0.289062499999956
40
0.296874999999954
40
0.296874999999954
40
0.312499999999951
40
0.312499999999951
40
0.328124999999947
40
0.328124999999947
40
0.332031249999947
40
0.332031249999947
40
0.335937499999946
40
0.335937499999946
40
0.343749999999946
40
0.343749999999946
40
0.359374999999945
40
0.359374999999945
40
0.374999999999945
40
0.390624999999944
40
0.390624999999944
40
0.394531249999944
40
0.394531249999944
40
0.398437499999944
40
0.406249999999944
40
0.406249999999944
40
0.421874999999947
40
0.437499999999949
40
0.437499999999949
40
0.453124999999951
40
0.453124999999951
40
0.457031249999952
40
0.457031249999952
40
0.460937499999953
40
0.468749999999955
40
0.468749999999955
40
0.484374999999958
40
0.484374999999958
40
0.499999999999962
40
0.499999999999962
40
0.515624999999965
40
0.515624999999965
40
0.519531249999966
40
0.519531249999966
40
0.523437499999967
40
0.531249999999969
40
0.531249999999969
40
0.546874999999973
40
0.546874999999973
40
0.562499999999977
40
0.562499999999977
40
0.578124999999981
40
0.578124999999981
40
0.582031249999982
40
0.582031249999982
40
0.585937499999983
40
0.593749999999984
40
0.593749999999984
40
0.609374999999986
40
0.609374999999986
40
0.624999999999988
40
0.624999999999988
40
0.626953124999989
40
0.626953124999989
40
0.628906249999989
40
0.632812499999989
40
0.640624999999989
40
0.640624999999989
40
0.65624999999999
40
0.65624999999999
40
0.66406249999999
40
0.66406249999999
40
0.66796874999999
40
0.66992187499999
40
0.66992187499999
40
0.67187499999999
40
0.67187499999999
40
0.687499999999991
40
0.687499999999991
40
0.703124999999992
40
0.703124999999992
40
0.710937499999992
40
0.710937499999992
40
0.718749999999992
40
0.718749999999992
40
0.734374999999993
40
0.734374999999993
40
0.749999999999993
40
0.749999999999993
40
0.753906249999993
40
0.753906249999993
40
0.757812499999992
40
0.765624999999992
40
0.765624999999992
40
0.781249999999991
40
0.781249999999991
40
0.79687499999999
40
0.79687499999999
40
0.800781249999991
40
0.800781249999991
40
0.804687499999991
40
0.81249999999999
40
0.81249999999999
40
0.828124999999989
40
0.828124999999989
40
0.843749999999988
40
0.843749999999988
40
0.851562499999987
40
0.851562499999987
40
0.855468749999987
40
0.855468749999987
40
0.859374999999987
40
0.859374999999987
40
0.87499999999999
40
0.87499999999999
40
0.890624999999992
40
0.906249999999994
40
0.906249999999994
40
0.914062499999994
40
0.914062499999994
40
0.921874999999995
40
0.921874999999995
40
0.937499999999996
40
0.953124999999997
40
0.953124999999997
40
0.968749999999998
40
0.968749999999998
40
0.976562499999998
40
0.976562499999998
40
0.984374999999998
40
0.984374999999998
40
0.992187499999998
40
0.992187499999998
40
0.996093749999999
40
0.998046874999999
40
0.9990234375
40
0.9990234375
40
1
40
1
40
1
40
1
41
1
10
64.0610687654652
20
-5.19451997297474
30
0
41
1
10
63.8692310505624
20
-5.10138773912189
30
0
41
1
10
63.6829842174036
20
-5.00080508087299
30
0
41
1
10
63.3215156510761
20
-4.78474366194214
30
0
41
1
10
63.1462933495738
20
-4.66926601933093
30
0
41
1
10
62.8070490977293
20
-4.42295869410762
30
0
41
1
10
62.6430248090656
20
-4.29213267174671
30
0
41
1
10
62.4057991413361
20
-4.08364170354466
30
0
41
1
10
62.3281954974483
20
-4.01209827051855
30
0
41
1
10
62.2140814401401
20
-3.90157403598147
30
0
41
1
10
62.1764255698958
20
-3.86419741896515
30
0
41
1
10
62.101895365675
20
-3.78834584774072
30
0
41
1
10
62.0650938478634
20
-3.74994287684544
30
0
41
1
10
61.8840102966416
20
-3.55614903688118
30
0
41
1
10
61.7478885653198
20
-3.39484244209879
30
0
41
1
10
61.4935244711562
20
-3.05925344671587
30
0
41
1
10
61.3752782128322
20
-2.88497416562515
30
0
41
1
10
61.212100549996
20
-2.61314788154095
30
0
41
1
10
61.1600787500642
20
-2.52080061228151
30
0
41
1
10
61.0857573589735
20
-2.37954567827541
30
0
41
1
10
61.0616025479915
20
-2.33200471079218
30
0
41
1
10
61.0145624485789
20
-2.23598558153319
30
0
41
1
10
60.9916532757536
20
-2.18744897754999
30
0
41
1
10
60.8811224123322
20
-1.9440661522722
30
0
41
1
10
60.8049181162002
20
-1.74598051765861
30
0
41
1
10
60.6770295443774
20
-1.34298658241031
30
0
41
1
10
60.6253431324276
20
-1.13807894110261
30
0
41
1
10
60.5668904813182
20
-0.82538731224804
30
0
41
1
10
60.5505924628245
20
-0.720266632601977
30
0
41
1
10
60.5310776017633
20
-0.561205913546161
30
0
41
1
10
60.5253951730275
20
-0.50795559119058
30
0
41
1
10
60.5157072332964
20
-0.400985656457863
30
0
41
1
10
60.511698447064
20
-0.347208295323924
30
0
41
1
10
60.4959737712893
20
-0.077750229993228
30
0
41
1
10
60.4973473767697
20
0.136179209189152
30
0
41
1
10
60.5268135746872
20
0.560903692891003
30
0
41
1
10
60.5549099420997
20
0.771698304065694
30
0
41
1
10
60.6169062830613
20
1.08556659656151
30
0
41
1
10
60.640887229581
20
1.18980133451686
30
0
41
1
10
60.6818701626739
20
1.34556803557294
30
0
41
1
10
60.6963943685686
20
1.39748096203198
30
0
41
1
10
60.7269441009611
20
1.50051546005074
30
0
41
1
10
60.7429733450578
20
1.55166434935268
30
0
41
1
10
60.8268089070256
20
1.80560969978711
30
0
41
1
10
60.9056458962889
20
2.00302654872942
30
0
41
1
10
61.085381772035
20
2.38717185965365
30
0
41
1
10
61.1862862081781
20
2.57389750108763
30
0
41
1
10
61.3258179679913
20
2.80086722763997
30
0
41
1
10
61.3544175272275
20
2.84597086703059
30
0
41
1
10
61.412864641481
20
2.93539395686076
30
0
41
1
10
61.5021851849314
20
3.06801364739388
30
0
41
1
10
61.5963311077051
20
3.19621450968921
30
0
41
1
10
61.7908049857031
20
3.44698716561049
30
0
41
1
10
61.9286783194931
20
3.60668041356422
30
0
41
1
10
62.2200423425894
20
3.91202218503634
30
0
41
1
10
62.3735361893187
20
4.05766749185938
30
0
41
1
10
62.5750022883188
20
4.23120686201867
30
0
41
1
10
62.6157485810681
20
4.26546142213596
30
0
41
1
10
62.6978293475458
20
4.33282424168883
30
0
41
1
10
62.8219619692532
20
4.43225847545659
30
0
41
1
10
62.9490745229511
20
4.52696720277021
30
0
41
1
10
63.2071675729714
20
4.7102962886722
30
0
41
1
10
63.3843769532515
20
4.82441402344844
30
0
41
1
10
63.7487937845724
20
5.03714253039217
30
0
41
1
10
63.9360024578322
20
5.13575100542312
30
0
41
1
10
64.1762691099708
20
5.24944282519465
30
0
41
1
10
64.2246359372489
20
5.27170161880795
30
0
41
1
10
64.3219995372766
20
5.31525872276862
30
0
41
1
10
64.371041073208
20
5.33657501336748
30
0
41
1
10
64.5185173426178
20
5.39883094492012
30
0
41
1
10
64.6174462103665
20
5.43814713827715
30
0
41
1
10
64.9160296255519
20
5.54970603890803
30
0
41
1
10
65.1174772891652
20
5.61557354037376
30
0
41
1
10
65.5250560922919
20
5.73083921041246
30
0
41
1
10
65.9373194441531
20
5.82963157680152
30
0
41
1
10
66.3589783367007
20
5.89566849714771
30
0
41
1
10
66.6255274790821
20
5.92650172581119
30
0
41
1
10
66.679049031975
20
5.93215084494864
30
0
41
1
10
66.7860665400282
20
5.94236349213949
30
0
41
1
10
66.9464866308954
20
5.95605090693212
30
0
41
1
10
67.1065915289497
20
5.96489930566977
30
0
41
1
10
67.426387372261
20
5.97624777539551
30
0
41
1
10
67.8516793920248
20
5.9744753733348
30
0
41
1
10
68.274798017319
20
5.93937316534129
30
0
41
1
10
68.6968229699137
20
5.88744465646357
30
0
41
1
10
68.9072887102892
20
5.85306899296432
30
0
41
1
10
69.1696680050422
20
5.79921839786991
30
0
41
1
10
69.2221679178649
20
5.78788942537091
30
0
41
1
10
69.3267876244187
20
5.76419846615198
30
0
41
1
10
69.4830435881105
20
5.72713908383344
30
0
41
1
10
69.6372994326729
20
5.68554839091035
30
0
41
1
10
69.9431814082189
20
5.59638127068862
30
0
41
1
10
70.1436019009998
20
5.52896905314677
30
0
41
1
10
70.5375068581745
20
5.37818288123472
30
0
41
1
10
70.7309918457277
20
5.29481041569801
30
0
41
1
10
71.1109105621263
20
5.1116276296323
30
0
41
1
10
71.2973457747946
20
5.01182123917127
30
0
41
1
10
71.5257798372512
20
4.87616264147067
30
0
41
1
10
71.5712798060421
20
4.8484566356729
30
0
41
1
10
71.6616049680079
20
4.79205837340589
30
0
41
1
10
71.7958453418119
20
4.70613089224122
30
0
41
1
10
71.9263666371907
20
4.61622387238469
30
0
41
1
10
72.1824706748015
20
4.43108806832524
30
0
41
1
10
72.346635351181
20
4.30058324047255
30
0
41
1
10
72.6616160192357
20
4.02498621446745
30
0
41
1
10
72.8124346506516
20
3.87989731076286
30
0
41
1
10
73.1000602989766
20
3.5742001754322
30
0
41
1
10
73.2368732744821
20
3.41359902764412
30
0
41
1
10
73.398354608715
20
3.202154705136
30
0
41
1
10
73.4302189845783
20
3.15926404299532
30
0
41
1
10
73.4927239543297
20
3.07271140229105
30
0
41
1
10
73.5845556327546
20
2.94185900302506
30
0
41
1
10
73.6706078000745
20
2.80792699564299
30
0
41
1
10
73.8349292683875
20
2.53589549621768
30
0
41
1
10
73.9341248820053
20
2.34899768986074
30
0
41
1
10
74.1108360560777
20
1.9634935617766
30
0
41
1
10
74.1883597686412
20
1.76489176851138
30
0
41
1
10
74.2623296113716
20
1.53426534435164
30
0
41
1
10
74.2703657909994
20
1.50853190939455
30
0
41
1
10
74.2860066672805
20
1.45705614620351
30
0
41
1
10
74.3088443625933
20
1.37975887034233
30
0
41
1
10
74.3577748493391
20
1.19881389438763
30
0
41
1
10
74.3922898621287
20
1.04272071754829
30
0
41
1
10
74.4514515411328
20
0.729206291803479
30
0
41
1
10
74.4777626519424
20
0.518429433048993
30
0
41
1
10
74.4971679229396
20
0.1995583566314
30
0
41
1
10
74.5002859518034
20
0.0928161689192279
30
0
41
1
10
74.4998261703021
20
-0.0679900249017464
30
0
41
1
10
74.4983114235554
20
-0.148566432469352
30
0
41
1
10
74.4948414909893
20
-0.229406546783451
30
0
41
1
10
74.4920902121137
20
-0.283359024999839
30
0
41
1
10
74.4904942394273
20
-0.310378391733252
30
0
41
1
10
74.4742144451165
20
-0.552865138254276
30
0
41
1
10
74.4460964359884
20
-0.765119295144189
30
0
41
1
10
74.3640493623179
20
-1.18341968138634
30
0
41
1
10
74.3101150465455
20
-1.38946464342229
30
0
41
1
10
74.2102528412861
20
-1.69399151436039
30
0
41
1
10
74.1737984878778
20
-1.79474215812013
30
0
41
1
10
74.0945424817384
20
-1.9947280742598
30
0
41
1
10
74.0520815318087
20
-2.09309718669817
30
0
41
1
10
73.9167675660134
20
-2.38311087939894
30
0
41
1
10
73.8159265612479
20
-2.56988549297154
30
0
41
1
10
73.594294660129
20
-2.93121775314305
30
0
41
1
10
73.473498748934
20
-3.10577210463725
30
0
41
1
10
73.3103713541233
20
-3.31661256508232
30
0
41
1
10
73.2770998163407
20
-3.3584564427544
30
0
41
1
10
73.2096568182946
20
-3.44103255859392
30
0
41
1
10
73.1070667059089
20
-3.563330573549
30
0
41
1
10
73.0002975832312
20
-3.68105209208517
30
0
41
1
10
72.7813830627043
20
-3.91064573772999
30
0
41
1
10
72.6282872358364
20
-4.05592603174029
30
0
41
1
10
72.3084102296171
20
-4.33180083790381
30
0
41
1
10
72.1416266623623
20
-4.46239236804755
30
0
41
1
10
71.9246819783083
20
-4.61667597465257
30
0
41
1
10
71.8808392639854
20
-4.64710221404329
30
0
41
1
10
71.7926863457225
20
-4.70680465021917
30
0
41
1
10
71.6596290595556
20
-4.79472401004813
30
0
41
1
10
71.5241279560733
20
-4.87783766222492
30
0
41
1
10
71.2499433166504
20
-5.03785293049606
30
0
41
1
10
71.0629179355169
20
-5.13626276660375
30
0
41
1
10
70.6805984575126
20
-5.31717078430145
30
0
41
1
10
70.4853034756499
20
-5.39966690079456
30
0
41
1
10
70.186133466247
20
-5.51157924828362
30
0
41
1
10
70.0853704593211
20
-5.54690783554625
30
0
41
1
10
69.9326476503863
20
-5.59691879556479
30
0
41
1
10
69.8814511699768
20
-5.61309842384063
30
0
41
1
10
69.7789821651
20
-5.64432421442933
30
0
41
1
10
69.7276562505588
20
-5.65938854122498
30
0
41
1
10
69.4705740780358
20
-5.73200105801823
30
0
41
1
10
69.2634627607517
20
-5.78144031330856
30
0
41
1
10
68.8464173472238
20
-5.86357269744227
30
0
41
1
10
68.4265485616283
20
-5.92895513505735
30
0
41
1
10
68.0010403880539
20
-5.96107879639285
30
0
41
1
10
67.6797512345453
20
-5.97248180741735
30
0
41
1
10
67.5722947021974
20
-5.97416466128976
30
0
41
1
10
67.3566480883291
20
-5.97321744231675
30
0
41
1
10
67.2492052229026
20
-5.97059025825129
30
0
41
1
10
66.9280855775092
20
-5.95636634190782
30
0
41
1
10
66.5030657035206
20
-5.92051415563398
30
0
41
1
10
66.0841914896628
20
-5.85149883560319
30
0
41
1
10
65.668390256832
20
-5.76579743248635
30
0
41
1
10
65.4620258587314
20
-5.7146053879849
30
0
41
1
10
65.1548367300388
20
-5.62490160720816
30
0
41
1
10
65.0528338383897
20
-5.59284420889836
30
0
41
1
10
64.849631494151
20
-5.52430309732384
30
0
41
1
10
64.7488756833287
20
-5.48796742438546
30
0
41
1
10
64.5492395358461
20
-5.41121416846323
30
0
41
1
10
64.4503282261723
20
-5.37078621447779
30
0
41
1
10
64.3033274259215
20
-5.30703362121986
30
0
41
1
10
64.2301686984902
20
-5.27437933674957
30
0
41
1
10
64.1454177150543
20
-5.23490984257469
30
0
41
1
10
64.1092250259378
20
-5.21769873113544
30
0
41
1
10
64.0851253184082
20
-5.20615879401367
30
0
41
1
10
64.0730586226466
20
-5.20034073759055
30
0
41
1
10
64.0610687654652
20
-5.19451997297474
30
0
0
SPLINE
5
15D
100
AcDbEntity
8
1
62
256
6
ByLayer
370
18
48
1
60
0
100
AcDbSpline
70
2053
71
3
72
155
73
151
40
0
40
0
40
0
40
0
40
0.0156250000000041
40
0.0312500000000082
40
0.0312500000000082
40
0.0468750000000123
40
0.0468750000000123
40
0.0546875000000143
40
0.0546875000000143
40
0.0625000000000163
40
0.0625000000000163
40
0.0781250000000198
40
0.0937500000000233
40
0.0937500000000233
40
0.0976562500000242
40
0.0976562500000242
40
0.101562500000025
40
0.101562500000025
40
0.109375000000027
40
0.109375000000027
40
0.12500000000003
40
0.140625000000033
40
0.140625000000033
40
0.148437500000035
40
0.148437500000035
40
0.156250000000036
40
0.156250000000036
40
0.171875000000039
40
0.187500000000043
40
0.187500000000043
40
0.195312500000044
40
0.195312500000044
40
0.199218750000046
40
0.199218750000046
40
0.203125000000047
40
0.218750000000054
40
0.234375000000062
40
0.234375000000062
40
0.242187500000065
40
0.246093750000067
40
0.246093750000067
40
0.250000000000069
40
0.250000000000069
40
0.265625000000074
40
0.281250000000078
40
0.296875000000083
40
0.296875000000083
40
0.304687500000085
40
0.304687500000085
40
0.312500000000086
40
0.312500000000086
40
0.343750000000095
40
0.343750000000095
40
0.351562500000096
40
0.355468750000096
40
0.355468750000096
40
0.359375000000096
40
0.359375000000096
40
0.375000000000094
40
0.375000000000094
40
0.40625000000009
40
0.40625000000009
40
0.414062500000089
40
0.414062500000089
40
0.417968750000089
40
0.417968750000089
40
0.421875000000088
40
0.437500000000087
40
0.453125000000086
40
0.468750000000085
40
0.468750000000085
40
0.476562500000085
40
0.476562500000085
40
0.484375000000085
40
0.484375000000085
40
0.500000000000082
40
0.51562500000008
40
0.51562500000008
40
0.523437500000079
40
0.527343750000079
40
0.527343750000079
40
0.531250000000078
40
0.531250000000078
40
0.546875000000076
40
0.562500000000073
40
0.562500000000073
40
0.57812500000007
40
0.57812500000007
40
0.585937500000069
40
0.585937500000069
40
0.593750000000068
40
0.593750000000068
40
0.609375000000066
40
0.625000000000064
40
0.625000000000064
40
0.632812500000063
40
0.632812500000063
40
0.640625000000062
40
0.640625000000062
40
0.65625000000006
40
0.671875000000058
40
0.671875000000058
40
0.679687500000057
40
0.679687500000057
40
0.683593750000056
40
0.683593750000056
40
0.687500000000055
40
0.703125000000051
40
0.718750000000046
40
0.718750000000046
40
0.726562500000044
40
0.726562500000044
40
0.734375000000041
40
0.734375000000041
40
0.750000000000036
40
0.750000000000036
40
0.781250000000027
40
0.781250000000027
40
0.789062500000025
40
0.789062500000025
40
0.796875000000024
40
0.796875000000024
40
0.812500000000021
40
0.828125000000018
40
0.828125000000018
40
0.835937500000017
40
0.835937500000017
40
0.843750000000017
40
0.843750000000017
40
0.875000000000012
40
0.875000000000012
40
0.89062500000001
40
0.89062500000001
40
0.894531250000009
40
0.894531250000009
40
0.898437500000008
40
0.898437500000008
40
0.906250000000008
40
0.906250000000008
40
0.937500000000006
40
0.937500000000006
40
0.953125000000005
40
0.953125000000005
40
0.960937500000005
40
0.960937500000005
40
0.968750000000005
40
0.968750000000005
40
0.984375000000002
40
0.984375000000002
40
1
40
1
40
1
40
1
41
1
10
43.240837042641
20
-15.4186663154976
30
0
41
1
10
43.1917247086468
20
-15.3906493350237
30
0
41
1
10
43.0997403754324
20
-15.3321279354489
30
0
41
1
10
43.0200661930839
20
-15.268493397988
30
0
41
1
10
42.9466489349698
20
-15.2021625563646
30
0
41
1
10
42.9130677511167
20
-15.1676495560086
30
0
41
1
10
42.8676152544823
20
-15.1136932575899
30
0
41
1
10
42.8533826297002
20
-15.0954537148326
30
0
41
1
10
42.82683922147
20
-15.0586034631462
30
0
41
1
10
42.8145096212393
20
-15.0399705245571
30
0
41
1
10
42.7803204966496
20
-14.9834418151781
30
0
41
1
10
42.742187536778
20
-14.9063923327599
30
0
41
1
10
42.719012687133
20
-14.8258713087257
30
0
41
1
10
42.7093659543729
20
-14.7744023424291
30
0
41
1
10
42.7076790929564
20
-14.7640512870943
30
0
41
1
10
42.7047969592389
20
-14.7432327841964
30
0
41
1
10
42.7036015388011
20
-14.7327554715509
30
0
41
1
10
42.7007775477598
20
-14.7013430444669
30
0
41
1
10
42.6999006200498
20
-14.6803687824464
30
0
41
1
10
42.7002256070829
20
-14.6173491064771
30
0
41
1
10
42.7085257069358
20
-14.5330638921651
30
0
41
1
10
42.7322810084227
20
-14.4482920975689
30
0
41
1
10
42.755965853752
20
-14.3845529910435
30
0
41
1
10
42.7648406901621
20
-14.3632800218475
30
0
41
1
10
42.7845853641173
20
-14.320686028088
30
0
41
1
10
42.7953821921944
20
-14.2995256392002
30
0
41
1
10
42.830402262213
20
-14.2365972504286
30
0
41
1
10
42.8841496248384
20
-14.1540358657684
30
0
41
1
10
42.9515514149898
20
-14.0742056634651
30
0
41
1
10
43.0072100419254
20
-14.015414708936
30
0
41
1
10
43.0266157258455
20
-13.9959984271219
30
0
41
1
10
43.057016446423
20
-13.9671562366429
30
0
41
1
10
43.0673790753381
20
-13.9575773792281
30
0
41
1
10
43.0884346795718
20
-13.9386076309346
30
0
41
1
10
43.1419379514528
20
-13.891620592235
30
0
41
1
10
43.2458498626146
20
-13.810927302088
30
0
41
1
10
43.3486207681025
20
-13.7446947998847
30
0
41
1
10
43.4295644232108
20
-13.6971326742026
30
0
41
1
10
43.4710042598198
20
-13.6738805433172
30
0
41
1
10
43.513905997874
20
-13.6514406238346
30
0
41
1
10
43.5428340351752
20
-13.6366637738449
30
0
41
1
10
43.5574748909336
20
-13.6293607331306
30
0
41
1
10
43.6311370645041
20
-13.593485693939
30
0
41
1
10
43.7523909877992
20
-13.5399164626572
30
0
41
1
10
43.9440416246301
20
-13.4708432272756
30
0
41
1
10
44.0782369760749
20
-13.4323703193664
30
0
41
1
10
44.1813302852101
20
-13.4064505239305
30
0
41
1
10
44.2161861093426
20
-13.3982840897406
30
0
41
1
10
44.286112037704
20
-13.3830842821757
30
0
41
1
10
44.3212217621588
20
-13.3760379564368
30
0
41
1
10
44.4974895946768
20
-13.3435349964227
30
0
41
1
10
44.6407862233338
20
-13.3262011792204
30
0
41
1
10
44.8227262287876
20
-13.3153994181044
30
0
41
1
10
44.8775214156235
20
-13.3129795849123
30
0
41
1
10
44.9326409523078
20
-13.311810035959
30
0
41
1
10
44.9694600889308
20
-13.3113109653139
30
0
41
1
10
44.9879262854332
20
-13.3112020084323
30
0
41
1
10
45.0800145086344
20
-13.3113637499685
30
0
41
1
10
45.1531413599893
20
-13.313741503731
30
0
41
1
10
45.3709385980736
20
-13.3274089114876
30
0
41
1
10
45.5140396081823
20
-13.3451834355328
30
0
41
1
10
45.690238697089
20
-13.378295890204
30
0
41
1
10
45.7253435325235
20
-13.3854670727541
30
0
41
1
10
45.7777937100684
20
-13.3970606509085
30
0
41
1
10
45.7952421184638
20
-13.4010651242373
30
0
41
1
10
45.8298846811805
20
-13.4093098670924
30
0
41
1
10
45.9159701935156
20
-13.4305389699665
30
0
41
1
10
46.066300224409
20
-13.4742104050174
30
0
41
1
10
46.2570196660464
20
-13.5437125329943
30
0
41
1
10
46.3776055362007
20
-13.5975006757367
30
0
41
1
10
46.465479798176
20
-13.6406895039908
30
0
41
1
10
46.4944164639104
20
-13.6556032041054
30
0
41
1
10
46.5508454304528
20
-13.686089792483
30
0
41
1
10
46.5783809080228
20
-13.7016799916093
30
0
41
1
10
46.6589737951209
20
-13.7494616412166
30
0
41
1
10
46.7610689753772
20
-13.8158619435217
30
0
41
1
10
46.8524513626664
20
-13.8874518620051
30
0
41
1
10
46.9168524785076
20
-13.9430773405274
30
0
41
1
10
46.948017375901
20
-13.9713741772796
30
0
41
1
10
46.9775868887775
20
-14.0004038963961
30
0
41
1
10
46.9969395192699
20
-14.0199211952717
30
0
41
1
10
47.006448964426
20
-14.0297765629296
30
0
41
1
10
47.0528317771318
20
-14.0792002787101
30
0
41
1
10
47.119842305681
20
-14.1594216721947
30
0
41
1
10
47.172732007698
20
-14.2417251937965
30
0
41
1
10
47.2184877120257
20
-14.3250141815621
30
0
41
1
10
47.2377994737095
20
-14.3671513446991
30
0
41
1
10
47.2611934876147
20
-14.4310884915944
30
0
41
1
10
47.2680766432133
20
-14.4525915274106
30
0
41
1
10
47.2798054101867
20
-14.4953882913489
30
0
41
1
10
47.28466516466
20
-14.516700772159
30
0
41
1
10
47.2962833037908
20
-14.5803799640738
30
0
41
1
10
47.3038918014398
20
-14.664596817796
30
0
41
1
10
47.2959269948712
20
-14.7474317414412
30
0
41
1
10
47.2840059492272
20
-14.8090386173411
30
0
41
1
10
47.279039168381
20
-14.8294876956649
30
0
41
1
10
47.2670776889034
20
-14.8702126485718
30
0
41
1
10
47.2601312661853
20
-14.8903205124051
30
0
41
1
10
47.2365000467544
20
-14.9498106762625
30
0
41
1
10
47.1975386502257
20
-15.0269993100978
30
0
41
1
10
47.144109355869
20
-15.1001550517958
30
0
41
1
10
47.098610089141
20
-15.1535622786608
30
0
41
1
10
47.0825374238466
20
-15.1711210881407
30
0
41
1
10
47.0570531852809
20
-15.1970975109226
30
0
41
1
10
47.0483186129271
20
-15.2057054563209
30
0
41
1
10
47.0304832464594
20
-15.2227120454813
30
0
41
1
10
46.9849341017287
20
-15.2647474849768
30
0
41
1
10
46.8944800132027
20
-15.3362042265065
30
0
41
1
10
46.802495934407
20
-15.3941580860393
30
0
41
1
10
46.7292025960371
20
-15.4356325591734
30
0
41
1
10
46.7040525951221
20
-15.4491249583588
30
0
41
1
10
46.6523049543189
20
-15.4754537694925
30
0
41
1
10
46.6256359116138
20
-15.4883213341349
30
0
41
1
10
46.5441418951908
20
-15.5256278988052
30
0
41
1
10
46.4877690261139
20
-15.5488241597374
30
0
41
1
10
46.3127735807727
20
-15.6137529780544
30
0
41
1
10
46.1883276246319
20
-15.6508699007367
30
0
41
1
10
46.0230113004391
20
-15.6900092415446
30
0
41
1
10
45.9894609977066
20
-15.697466248064
30
0
41
1
10
45.9220537472925
20
-15.7115121655031
30
0
41
1
10
45.8881133174494
20
-15.7181215583008
30
0
41
1
10
45.7855952339291
20
-15.7367469164176
30
0
41
1
10
45.6470495180405
20
-15.7583797992823
30
0
41
1
10
45.5048587244383
20
-15.7738479378696
30
0
41
1
10
45.3968357010966
20
-15.7831504034719
30
0
41
1
10
45.3605976560034
20
-15.785867347752
30
0
41
1
10
45.2876538837977
20
-15.7905261579252
30
0
41
1
10
45.2509111844272
20
-15.7924674336522
30
0
41
1
10
45.0678554488739
20
-15.8001448214468
30
0
41
1
10
44.9220956681078
20
-15.7999656228751
30
0
41
1
10
44.7044560907623
20
-15.7904631781119
30
0
41
1
10
44.6320773570652
20
-15.7857441534789
30
0
41
1
10
44.5418193668544
20
-15.7778347809516
30
0
41
1
10
44.5237785635986
20
-15.7761521089107
30
0
41
1
10
44.4877187859817
20
-15.7725822795388
30
0
41
1
10
44.469681621831
20
-15.7706929127976
30
0
41
1
10
44.4158662639286
20
-15.764743290619
30
0
41
1
10
44.3803150782679
20
-15.7603957273636
30
0
41
1
10
44.2041615678251
20
-15.7367664979074
30
0
41
1
10
44.0683228919957
20
-15.7118719059155
30
0
41
1
10
43.8722225031525
20
-15.6650770552831
30
0
41
1
10
43.8081403472417
20
-15.6478915498919
30
0
41
1
10
43.714031757634
20
-15.6195534218242
30
0
41
1
10
43.6830910586184
20
-15.6097051922578
30
0
41
1
10
43.6224686758069
20
-15.5893232500285
30
0
41
1
10
43.5927253797646
20
-15.5787712317145
30
0
41
1
10
43.5051923491716
20
-15.5460171947938
30
0
41
1
10
43.4490952743346
20
-15.5227201382337
30
0
41
1
10
43.3414808182181
20
-15.4730566718675
30
0
41
1
10
43.2899493766353
20
-15.4466832959716
30
0
41
1
10
43.240837042641
20
-15.4186663154976
30
0
0
SPLINE
5
15E
100
AcDbEntity
8
1
62
256
6
ByLayer
370
18
48
1
60
0
100
AcDbSpline
70
4
71
3
72
8
73
4
40
0
40
0
40
0
40
0
40
1
40
1
40
1
40
1
41
1
10
23.2418217614995
20
48.9497781813156
30
0
41
1
10
22.8025473277701
20
48.1731525519585
30
0
41
1
10
22.3635905977073
20
47.39634688913
30
0
41
1
10
21.9249999999999
20
46.6193337496943
30
0
0
SPLINE
5
15F
100
AcDbEntity
8
1
62
256
6
ByLayer
370
18
48
1
60
0
100
AcDbSpline
70
4
71
3
72
8
73
4
40
0
40
0
40
0
40
0
40
1
40
1
40
1
40
1
41
1
10
23.2418217614996
20
38.9060242764537
30
0
41
1
10
22.7970974394246
20
37.9167868306778
30
0
41
1
10
22.3578450722474
20
36.9249075564605
30
0
41
1
10
21.9249999999999
20
35.9299348769989
30
0
0
SPLINE
5
160
100
AcDbEntity
8
1
62
256
6
ByLayer
370
18
48
1
60
0
100
AcDbSpline
70
4
71
3
72
8
73
4
40
0
40
0
40
0
40
0
40
1
40
1
40
1
40
1
41
1
10
28.9499999999999
20
48.2350472581919
30
0
41
1
10
28.7167026129473
20
48.4733261949083
30
0
41
1
10
28.4833687655885
20
48.7115693312277
30
0
41
1
10
28.2499999999999
20
48.9497781813156
30
0
0
SPLINE
5
161
100
AcDbEntity
8
1
62
256
6
ByLayer
370
18
48
1
60
0
100
AcDbSpline
70
4
71
3
72
8
73
4
40
0
40
0
40
0
40
0
40
1
40
1
40
1
40
1
41
1
10
28.9499999999999
20
38.0028646946517
30
0
41
1
10
28.717385155116
20
38.3044148652845
30
0
41
1
10
28.4840015193126
20
38.6055081962349
30
0
41
1
10
28.2499999999999
20
38.9060242764537
30
0
0
SPLINE
5
162
100
AcDbEntity
8
1
62
256
6
ByLayer
370
18
48
1
60
0
100
AcDbSpline
70
4
71
3
72
31
73
27
40
0
40
0
40
0
40
0
40
0.125000000000028
40
0.125000000000028
40
0.187500000000034
40
0.187500000000034
40
0.25000000000004
40
0.25000000000004
40
0.37500000000005
40
0.37500000000005
40
0.437500000000052
40
0.437500000000052
40
0.500000000000054
40
0.500000000000054
40
0.562500000000057
40
0.562500000000057
40
0.625000000000059
40
0.687500000000061
40
0.687500000000061
40
0.750000000000064
40
0.750000000000064
40
0.875000000000032
40
0.875000000000032
40
0.937500000000016
40
0.937500000000016
40
1
40
1
40
1
40
1
41
1
10
18.4749999999999
20
44.8695908606264
30
0
41
1
10
18.4484556444191
20
44.8695908606264
30
0
41
1
10
18.4222300438813
20
44.8722717150157
30
0
41
1
10
18.3833634690742
20
44.8802612375092
30
0
41
1
10
18.3704317402705
20
44.8836086465467
30
0
41
1
10
18.3449919953364
20
44.8916031205519
30
0
41
1
10
18.3325725560145
20
44.8962154709821
30
0
41
1
10
18.2961845648489
20
44.9118344485013
30
0
41
1
10
18.2730780593056
20
44.9246060481416
30
0
41
1
10
18.2401788836795
20
44.9473681033131
30
0
41
1
10
18.2295782445169
20
44.9555175513783
30
0
41
1
10
18.209311057912
20
44.9727619998869
30
0
41
1
10
18.1996103375619
20
44.9818802389841
30
0
41
1
10
18.1810779535537
20
45.001112540586
30
0
41
1
10
18.1723267536417
20
45.0111473400235
30
0
41
1
10
18.1559361639675
20
45.0318850743754
30
0
41
1
10
18.1406160308637
20
45.0533339332648
30
0
41
1
10
18.1274016867925
20
45.0761817076197
30
0
41
1
10
18.1152528907664
20
45.0997373456858
30
0
41
1
10
18.1096878543853
20
45.111936042883
30
0
41
1
10
18.0949091403934
20
45.1489555575994
30
0
41
1
10
18.0875231030774
20
45.1742669785694
30
0
41
1
10
18.0800458409527
20
45.2131566601964
30
0
41
1
10
18.0781579509292
20
45.2262747296619
30
0
41
1
10
18.0756269732035
20
45.2528297076614
30
0
41
1
10
18.0749999999999
20
45.2661389922157
30
0
41
1
10
18.0749999999999
20
45.2793571509137
30
0
0
SPLINE
5
163
100
AcDbEntity
8
1
62
256
6
ByLayer
370
18
48
1
60
0
100
AcDbSpline
70
4
71
3
72
30
73
26
40
0
40
0
40
0
40
0
40
0.124999999999955
40
0.124999999999955
40
0.156249999999953
40
0.156249999999953
40
0.187499999999952
40
0.249999999999948
40
0.249999999999948
40
0.312499999999945
40
0.312499999999945
40
0.374999999999942
40
0.437499999999939
40
0.437499999999939
40
0.499999999999936
40
0.499999999999936
40
0.62499999999996
40
0.62499999999996
40
0.749999999999984
40
0.749999999999984
40
0.812499999999981
40
0.812499999999981
40
0.874999999999978
40
0.874999999999978
40
1
40
1
40
1
40
1
41
1
10
18.4749999999999
20
33.6285314130725
30
0
41
1
10
18.4434838302957
20
33.6285314130725
30
0
41
1
10
18.4127975282274
20
33.6335518723001
30
0
41
1
10
18.3754018775674
20
33.6456486409895
30
0
41
1
10
18.3679858516776
20
33.6483612494705
30
0
41
1
10
18.3534843618351
20
33.6542690703275
30
0
41
1
10
18.3321375755528
20
33.6638839351814
30
0
41
1
10
18.3119368186066
20
33.6756275863122
30
0
41
1
10
18.2859434693282
20
33.6930337131096
30
0
41
1
10
18.2734002721151
20
33.7026442763956
30
0
41
1
10
18.2498192952165
20
33.7229542702785
30
0
41
1
10
18.2275536968053
20
33.7444680902724
30
0
41
1
10
18.2076288622268
20
33.76812416259
30
0
41
1
10
18.1887837730621
20
33.7927684111128
30
0
41
1
10
18.1798737240508
20
33.8056298293941
30
0
41
1
10
18.1548765239319
20
33.845320879834
30
0
41
1
10
18.1407213141959
20
33.8728515265702
30
0
41
1
10
18.1166036414079
20
33.9297003685217
30
0
41
1
10
18.1066511625443
20
33.9590228204263
30
0
41
1
10
18.0946732864747
20
34.0042645694071
30
0
41
1
10
18.0911932840926
20
34.0195026136709
30
0
41
1
10
18.0852755048811
20
34.0499981717234
30
0
41
1
10
18.0828262569596
20
34.0652982105631
30
0
41
1
10
18.0769553354023
20
34.1113497637789
30
0
41
1
10
18.0749999999999
20
34.1422516398011
30
0
41
1
10
18.0749999999999
20
34.1733540203475
30
0
0
SPLINE
5
164
100
AcDbEntity
8
1
62
256
6
ByLayer
370
18
48
1
60
0
100
AcDbSpline
70
4
71
3
72
30
73
26
40
0
40
0
40
0
40
0
40
0.125000000000019
40
0.125000000000019
40
0.187500000000012
40
0.187500000000012
40
0.250000000000005
40
0.250000000000005
40
0.374999999999992
40
0.374999999999992
40
0.43749999999999
40
0.43749999999999
40
0.499999999999987
40
0.499999999999987
40
0.62499999999997
40
0.62499999999997
40
0.687499999999978
40
0.687499999999978
40
0.749999999999986
40
0.749999999999986
40
0.812499999999993
40
0.812499999999993
40
0.875000000000001
40
0.875000000000001
40
1
40
1
40
1
40
1
41
1
10
21.9250000000227
20
45.2793571509099
30
0
41
1
10
21.9250000000225
20
45.2526271959507
30
0
41
1
10
21.9224702320171
20
45.2263263466329
30
0
41
1
10
21.9150279070761
20
45.1874938001563
30
0
41
1
10
21.9119347879334
20
45.1746534853615
30
0
41
1
10
21.9044957734936
20
45.1491853548289
30
0
41
1
10
21.9001219702071
20
45.1364987669532
30
0
41
1
10
21.8853400702993
20
45.0995017490213
30
0
41
1
10
21.8732629096745
20
45.0760730842746
30
0
41
1
10
21.851836540537
20
45.0427711988123
30
0
41
1
10
21.8441388562989
20
45.0319795298714
30
0
41
1
10
21.8275873615171
20
45.0110391387326
30
0
41
1
10
21.8188155077439
20
45.0010010695113
30
0
41
1
10
21.7912962752999
20
44.9724452388068
30
0
41
1
10
21.7712561461913
20
44.9553423658858
30
0
41
1
10
21.7385981386279
20
44.9326544978527
30
0
41
1
10
21.7272194749053
20
44.9255614720513
30
0
41
1
10
21.7039181381344
20
44.9126247687907
30
0
41
1
10
21.6919842719134
20
44.90676457949
30
0
41
1
10
21.6675504216864
20
44.8962599287919
30
0
41
1
10
21.6549980971922
20
44.8915997995026
30
0
41
1
10
21.6295670243209
20
44.8836084660223
30
0
41
1
10
21.6167445016848
20
44.880288261731
30
0
41
1
10
21.5779642071672
20
44.8723020631289
30
0
41
1
10
21.5516968166702
20
44.8695908606264
30
0
41
1
10
21.5249999999999
20
44.8695908606264
30
0
0
SPLINE
5
165
100
AcDbEntity
8
1
62
256
6
ByLayer
370
18
48
1
60
0
100
AcDbSpline
70
4
71
3
72
32
73
28
40
0
40
0
40
0
40
0
40
0.0625000000000026
40
0.0625000000000026
40
0.125000000000005
40
0.125000000000005
40
0.25000000000001
40
0.25000000000001
40
0.312500000000014
40
0.312500000000014
40
0.375000000000019
40
0.375000000000019
40
0.500000000000028
40
0.500000000000028
40
0.56250000000002
40
0.56250000000002
40
0.625000000000013
40
0.625000000000013
40
0.750000000000009
40
0.750000000000009
40
0.812500000000006
40
0.812500000000006
40
0.875000000000004
40
0.875000000000004
40
0.937500000000002
40
0.937500000000002
40
1
40
1
40
1
40
1
41
1
10
21.9249999999999
20
34.1733540203475
30
0
41
1
10
21.9249999999999
20
34.1577441557297
30
0
41
1
10
21.9245016761415
20
34.1421211416387
30
0
41
1
10
21.9225309625992
20
34.1111379919021
30
0
41
1
10
21.9210589133899
20
34.0957350218261
30
0
41
1
10
21.9151868880886
20
34.0497911614099
30
0
41
1
10
21.9093431109087
20
34.0195131222784
30
0
41
1
10
21.8974980740979
20
33.9746566784797
30
0
41
1
10
21.8930336997148
20
33.9597984761669
30
0
41
1
10
21.8830000961516
20
33.9302832158826
30
0
41
1
10
21.8774184903454
20
33.9156100206178
30
0
41
1
10
21.8591819896764
20
33.8726228962078
30
0
41
1
10
21.844983132377
20
33.8450985960815
30
0
41
1
10
21.820200559237
20
33.8057474995698
30
0
41
1
10
21.8113550357057
20
33.7929552210946
30
0
41
1
10
21.7923549663909
20
33.7680977629427
30
0
41
1
10
21.7822317389738
20
33.7560880110446
30
0
41
1
10
21.7503563397751
20
33.722019316658
30
0
41
1
10
21.7269594387175
20
33.7016524159592
30
0
41
1
10
21.6878456918739
20
33.6754928423141
30
0
41
1
10
21.6741340457279
20
33.667542013257
30
0
41
1
10
21.6460786379621
20
33.6537839415104
30
0
41
1
10
21.631693322953
20
33.6479335657893
30
0
41
1
10
21.6021681168187
20
33.6384033351323
30
0
41
1
10
21.5869812296857
20
33.6347149886803
30
0
41
1
10
21.5559767767759
20
33.6297563285023
30
0
41
1
10
21.5404838485859
20
33.6285314130726
30
0
41
1
10
21.5249999999999
20
33.6285314130726
30
0
0
SPLINE
5
166
100
AcDbEntity
8
1
62
256
6
ByLayer
370
18
48
1
60
0
100
AcDbSpline
70
4
71
3
72
8
73
4
40
0
40
0
40
0
40
0
40
1
40
1
40
1
40
1
41
1
10
18.0749999999999
20
46.6193337496943
30
0
41
1
10
17.6364094022924
20
47.39634688913
30
0
41
1
10
17.1974526722297
20
48.1731525519585
30
0
41
1
10
16.7581782385002
20
48.9497781813156
30
0
0
SPLINE
5
167
100
AcDbEntity
8
1
62
256
6
ByLayer
370
18
48
1
60
0
100
AcDbSpline
70
4
71
3
72
8
73
4
40
0
40
0
40
0
40
0
40
1
40
1
40
1
40
1
41
1
10
18.0749999999999
20
35.9299348769989
30
0
41
1
10
17.6421549277524
20
36.9249075564605
30
0
41
1
10
17.2029025605752
20
37.9167868306778
30
0
41
1
10
16.7581782385002
20
38.9060242764537
30
0
0
SPLINE
5
168
100
AcDbEntity
8
1
62
256
6
ByLayer
370
18
48
1
60
0
100
AcDbSpline
70
4
71
3
72
52
73
48
40
0
40
0
40
0
40
0
40
0.0625000000000033
40
0.0625000000000033
40
0.125000000000007
40
0.125000000000007
40
0.156250000000008
40
0.156250000000008
40
0.171875000000007
40
0.171875000000007
40
0.187500000000007
40
0.187500000000007
40
0.250000000000009
40
0.312500000000011
40
0.312500000000011
40
0.32812500000001
40
0.32812500000001
40
0.343750000000009
40
0.375000000000008
40
0.375000000000008
40
0.437500000000005
40
0.437500000000005
40
0.468750000000005
40
0.468750000000005
40
0.484375000000003
40
0.484375000000003
40
0.500000000000002
40
0.500000000000002
40
0.562499999999999
40
0.624999999999996
40
0.624999999999996
40
0.656249999999995
40
0.656249999999995
40
0.687499999999995
40
0.687499999999995
40
0.749999999999994
40
0.749999999999994
40
0.781249999999995
40
0.781249999999995
40
0.812499999999995
40
0.812499999999995
40
0.874999999999997
40
0.937499999999998
40
0.937499999999998
40
0.968749999999999
40
0.968749999999999
40
1
40
1
40
1
40
1
41
1
10
21.5249999999999
20
-8.82745624824847
30
0
41
1
10
21.4868069191871
20
-8.89405662171509
30
0
41
1
10
21.4445393521353
20
-8.95738557328835
30
0
41
1
10
21.3521820525016
20
-9.07777667488131
30
0
41
1
10
21.3020913073826
20
-9.13483797258414
30
0
41
1
10
21.2210176285771
20
-9.21568410815618
30
0
41
1
10
21.1930003321057
20
-9.24183934221432
30
0
41
1
10
21.149446353562
20
-9.27985231561829
30
0
41
1
10
21.1346970561601
20
-9.29229762208834
30
0
41
1
10
21.1049044143237
20
-9.31660228793911
30
0
41
1
10
21.0898374884483
20
-9.32848243337543
30
0
41
1
10
21.0136604445854
20
-9.38653975566427
30
0
41
1
10
20.8864073112503
20
-9.47086828252665
30
0
41
1
10
20.7485963096023
20
-9.53838905803218
30
0
41
1
10
20.6590455338953
20
-9.57515479974677
30
0
41
1
10
20.6409479910476
20
-9.5822395988682
30
0
41
1
10
20.604677041367
20
-9.5957573232204
30
0
41
1
10
20.5500618332411
20
-9.61509657435272
30
0
41
1
10
20.4948292946161
20
-9.63166507308728
30
0
41
1
10
20.3835545576633
20
-9.6611697729906
30
0
41
1
10
20.3082953177791
20
-9.67601216104057
30
0
41
1
10
20.1937818779664
20
-9.69099236742505
30
0
41
1
10
20.1553391080919
20
-9.6947679875538
30
0
41
1
10
20.0972580378111
20
-9.69856254593415
30
0
41
1
10
20.0777917736343
20
-9.69951633011652
30
0
41
1
10
20.0389567133675
20
-9.7007842015534
30
0
41
1
10
20.0195793242683
20
-9.70110026133048
30
0
41
1
10
19.9228902915988
20
-9.7011133144054
30
0
41
1
10
19.7694493182327
20
-9.69114502340111
30
0
41
1
10
19.6184745206942
20
-9.66164390750939
30
0
41
1
10
19.5061960782848
20
-9.63196802955139
30
0
41
1
10
19.4688732577009
20
-9.62078432294808
30
0
41
1
10
19.3956486621456
20
-9.59620893091775
30
0
41
1
10
19.3596109906602
20
-9.58278629233345
30
0
41
1
10
19.2531888136588
20
-9.53917684240369
30
0
41
1
10
19.1844879565526
20
-9.50566279471801
30
0
41
1
10
19.0848097952276
20
-9.44871626293647
30
0
41
1
10
19.0521477244274
20
-9.42861793964062
30
0
41
1
10
18.9879743860365
20
-9.38614199014484
30
0
41
1
10
18.956375608148
20
-9.36368915668089
30
0
41
1
10
18.864636913287
20
-9.29381338114013
30
0
41
1
10
18.7497151339958
20
-9.19354381990993
30
0
41
1
10
18.6491776746127
20
-9.0794331837854
30
0
41
1
10
18.5793021095526
20
-8.98851999372246
30
0
41
1
10
18.5568862804427
20
-8.95724713254137
30
0
41
1
10
18.5142942130732
20
-8.89337354521533
30
0
41
1
10
18.4940965129715
20
-8.86075638714124
30
0
41
1
10
18.4749999999999
20
-8.82745624824821
30
0
0
SPLINE
5
169
100
AcDbEntity
8
1
62
256
6
ByLayer
370
18
48
1
60
0
100
AcDbSpline
70
4
71
3
72
52
73
48
40
0
40
0
40
0
40
0
40
0.0625000000000115
40
0.0625000000000115
40
0.125000000000023
40
0.125000000000023
40
0.156250000000027
40
0.156250000000027
40
0.171875000000031
40
0.171875000000031
40
0.187500000000035
40
0.187500000000035
40
0.250000000000045
40
0.312500000000055
40
0.312500000000055
40
0.328125000000057
40
0.328125000000057
40
0.343750000000059
40
0.37500000000006
40
0.37500000000006
40
0.437500000000059
40
0.437500000000059
40
0.46875000000006
40
0.46875000000006
40
0.48437500000006
40
0.48437500000006
40
0.50000000000006
40
0.50000000000006
40
0.562500000000054
40
0.625000000000047
40
0.625000000000047
40
0.656250000000044
40
0.656250000000044
40
0.68750000000004
40
0.68750000000004
40
0.750000000000034
40
0.750000000000034
40
0.781250000000029
40
0.781250000000029
40
0.812500000000025
40
0.812500000000025
40
0.875000000000017
40
0.93750000000001
40
0.93750000000001
40
0.968750000000005
40
0.968750000000005
40
1
40
1
40
1
40
1
41
1
10
18.4749999999999
20
8.82745624824827
30
0
41
1
10
18.5131930808127
20
8.8940566217149
30
0
41
1
10
18.5554606478646
20
8.95738557328815
30
0
41
1
10
18.6478179474982
20
9.07777667488114
30
0
41
1
10
18.6979086926172
20
9.13483797258397
30
0
41
1
10
18.7789823714226
20
9.21568410815601
30
0
41
1
10
18.8069996678941
20
9.24183934221418
30
0
41
1
10
18.8505536464377
20
9.27985231561814
30
0
41
1
10
18.8653029438397
20
9.29229762208817
30
0
41
1
10
18.895095585676
20
9.31660228793893
30
0
41
1
10
18.9101625115514
20
9.32848243337529
30
0
41
1
10
18.9863395554144
20
9.38653975566416
30
0
41
1
10
19.1135926887494
20
9.47086828252654
30
0
41
1
10
19.2514036903974
20
9.5383890580321
30
0
41
1
10
19.3409544661044
20
9.57515479974671
30
0
41
1
10
19.3590520089521
20
9.58223959886814
30
0
41
1
10
19.3953229586327
20
9.59575732322034
30
0
41
1
10
19.4499381667586
20
9.61509657435269
30
0
41
1
10
19.5051707053836
20
9.63166507308725
30
0
41
1
10
19.6164454423364
20
9.6611697729906
30
0
41
1
10
19.6917046822206
20
9.67601216104057
30
0
41
1
10
19.8062181220334
20
9.69099236742508
30
0
41
1
10
19.8446608919078
20
9.6947679875538
30
0
41
1
10
19.9027419621885
20
9.69856254593418
30
0
41
1
10
19.9222082263654
20
9.69951633011655
30
0
41
1
10
19.9610432866322
20
9.70078420155346
30
0
41
1
10
19.9804206757313
20
9.70110026133054
30
0
41
1
10
20.0771097084009
20
9.70111331440546
30
0
41
1
10
20.230550681767
20
9.69114502340119
30
0
41
1
10
20.3815254793055
20
9.6616439075095
30
0
41
1
10
20.4938039217149
20
9.63196802955153
30
0
41
1
10
20.5311267422988
20
9.62078432294823
30
0
41
1
10
20.6043513378542
20
9.5962089309179
30
0
41
1
10
20.6403890093395
20
9.58278629233362
30
0
41
1
10
20.7468111863409
20
9.53917684240386
30
0
41
1
10
20.8155120434471
20
9.50566279471821
30
0
41
1
10
20.9151902047721
20
9.4487162629367
30
0
41
1
10
20.9478522755724
20
9.42861793964084
30
0
41
1
10
21.0120256139633
20
9.38614199014506
30
0
41
1
10
21.0436243918518
20
9.36368915668112
30
0
41
1
10
21.1353630867128
20
9.29381338114038
30
0
41
1
10
21.250284866004
20
9.19354381991019
30
0
41
1
10
21.3508223253871
20
9.07943318378571
30
0
41
1
10
21.4206978904472
20
8.98851999372275
30
0
41
1
10
21.4431137195571
20
8.95724713254168
30
0
41
1
10
21.4857057869267
20
8.89337354521564
30
0
41
1
10
21.5059034870283
20
8.86075638714155
30
0
41
1
10
21.5249999999999
20
8.82745624824852
30
0
0
SPLINE
5
16A
100
AcDbEntity
8
1
62
256
6
ByLayer
370
18
48
1
60
0
100
AcDbSpline
70
4
71
3
72
52
73
48
40
0
40
0
40
0
40
0
40
0.0625000000000011
40
0.0625000000000011
40
0.125000000000002
40
0.125000000000002
40
0.156250000000002
40
0.156250000000002
40
0.171875000000001
40
0.171875000000001
40
0.1875
40
0.1875
40
0.249999999999996
40
0.312499999999993
40
0.312499999999993
40
0.328124999999991
40
0.328124999999991
40
0.343749999999988
40
0.374999999999983
40
0.374999999999983
40
0.437499999999973
40
0.437499999999973
40
0.468749999999969
40
0.468749999999969
40
0.484374999999968
40
0.484374999999968
40
0.499999999999968
40
0.499999999999968
40
0.562499999999968
40
0.624999999999969
40
0.624999999999969
40
0.65624999999997
40
0.65624999999997
40
0.687499999999972
40
0.687499999999972
40
0.749999999999975
40
0.749999999999975
40
0.781249999999979
40
0.781249999999979
40
0.812499999999982
40
0.812499999999982
40
0.874999999999987
40
0.937499999999993
40
0.937499999999993
40
0.968749999999996
40
0.968749999999996
40
1
40
1
40
1
40
1
41
1
10
21.5249999999999
20
7.13671025908155
30
0
41
1
10
21.4868069191871
20
7.06966982881326
30
0
41
1
10
21.4445393521353
20
7.00587025666854
30
0
41
1
10
21.3521820525016
20
6.8845033059232
30
0
41
1
10
21.3020913073826
20
6.82693670265496
30
0
41
1
10
21.2210176285771
20
6.74532595300238
30
0
41
1
10
21.1930003321057
20
6.71891474029701
30
0
41
1
10
21.149446353562
20
6.68051865864226
30
0
41
1
10
21.1346970561601
20
6.66794601142817
30
0
41
1
10
21.1049044143237
20
6.6433892216121
30
0
41
1
10
21.0898374884483
20
6.63138408428497
30
0
41
1
10
21.0136604445854
20
6.57270811008968
30
0
41
1
10
20.8864073112503
20
6.48743024054045
30
0
41
1
10
20.7485963096023
20
6.41908820971204
30
0
41
1
10
20.6590455338953
20
6.38186424615398
30
0
41
1
10
20.6409479910476
20
6.37469050014113
30
0
41
1
10
20.604677041367
20
6.36100202225879
30
0
41
1
10
20.5500618332411
20
6.34141684334605
30
0
41
1
10
20.494829294616
20
6.32463383686243
30
0
41
1
10
20.3835545576633
20
6.29474411539374
30
0
41
1
10
20.3082953177791
20
6.27970369831229
30
0
41
1
10
20.1937818779663
20
6.26452270090061
30
0
41
1
10
20.1553391080919
20
6.26069619257268
30
0
41
1
10
20.0972580378111
20
6.25685043140464
30
0
41
1
10
20.0777917736343
20
6.25588375910306
30
0
41
1
10
20.0389567133675
20
6.25459875053053
30
0
41
1
10
20.0195793242683
20
6.25427841514934
30
0
41
1
10
19.9228902915988
20
6.25426518554403
30
0
41
1
10
19.7694493182327
20
6.26436884348036
30
0
41
1
10
19.6184745206942
20
6.29426373645663
30
0
41
1
10
19.5061960782848
20
6.32432695479454
30
0
41
1
10
19.4688732577009
20
6.33565546844019
30
0
41
1
10
19.3956486621456
20
6.36054510369161
30
0
41
1
10
19.3596109906602
20
6.37413758752498
30
0
41
1
10
19.2531888136588
20
6.41829070974694
30
0
41
1
10
19.1844879565526
20
6.45221272773583
30
0
41
1
10
19.0848097952276
20
6.50982371252897
30
0
41
1
10
19.0521477244274
20
6.53015227110109
30
0
41
1
10
18.9879743860364
20
6.57310349914562
30
0
41
1
10
18.956375608148
20
6.59580214597722
30
0
41
1
10
18.864636913287
20
6.666422677425
30
0
41
1
10
18.7497151339958
20
6.76770948571956
30
0
41
1
10
18.6491776746127
20
6.88283276927351
30
0
41
1
10
18.5793021095526
20
6.97448376243381
30
0
41
1
10
18.5568862804427
20
7.00599948201602
30
0
41
1
10
18.5142942130731
20
7.07034433321843
30
0
41
1
10
18.4940965129715
20
7.10319009210409
30
0
41
1
10
18.4749999999999
20
7.13671025908181
30
0
0
SPLINE
5
16B
100
AcDbEntity
8
1
62
256
6
ByLayer
370
18
48
1
60
0
100
AcDbSpline
70
4
71
3
72
52
73
48
40
0
40
0
40
0
40
0
40
0.0624999999999928
40
0.0624999999999928
40
0.124999999999985
40
0.124999999999985
40
0.156249999999981
40
0.156249999999981
40
0.171874999999977
40
0.171874999999977
40
0.187499999999974
40
0.187499999999974
40
0.249999999999962
40
0.312499999999951
40
0.312499999999951
40
0.32812499999995
40
0.32812499999995
40
0.343749999999949
40
0.374999999999948
40
0.374999999999948
40
0.437499999999951
40
0.437499999999951
40
0.468749999999953
40
0.468749999999953
40
0.484374999999956
40
0.484374999999956
40
0.499999999999959
40
0.499999999999959
40
0.562499999999961
40
0.624999999999963
40
0.624999999999963
40
0.656249999999966
40
0.656249999999966
40
0.687499999999968
40
0.687499999999968
40
0.749999999999973
40
0.749999999999973
40
0.781249999999978
40
0.781249999999978
40
0.812499999999982
40
0.812499999999982
40
0.874999999999987
40
0.937499999999993
40
0.937499999999993
40
0.968749999999997
40
0.968749999999997
40
1
40
1
40
1
40
1
41
1
10
18.4749999999999
20
-7.13671025908175
30
0
41
1
10
18.5131930808127
20
-7.06966982881349
30
0
41
1
10
18.5554606478646
20
-7.00587025666874
30
0
41
1
10
18.6478179474982
20
-6.88450330592337
30
0
41
1
10
18.6979086926172
20
-6.82693670265513
30
0
41
1
10
18.7789823714227
20
-6.74532595300255
30
0
41
1
10
18.8069996678941
20
-6.71891474029718
30
0
41
1
10
18.8505536464378
20
-6.68051865864243
30
0
41
1
10
18.8653029438397
20
-6.66794601142834
30
0
41
1
10
18.8950955856761
20
-6.64338922161224
30
0
41
1
10
18.9101625115514
20
-6.63138408428512
30
0
41
1
10
18.9863395554144
20
-6.57270811008979
30
0
41
1
10
19.1135926887495
20
-6.48743024054053
30
0
41
1
10
19.2514036903974
20
-6.41908820971213
30
0
41
1
10
19.3409544661044
20
-6.38186424615404
30
0
41
1
10
19.3590520089521
20
-6.37469050014118
30
0
41
1
10
19.3953229586328
20
-6.36100202225884
30
0
41
1
10
19.4499381667586
20
-6.34141684334611
30
0
41
1
10
19.5051707053837
20
-6.32463383686246
30
0
41
1
10
19.6164454423364
20
-6.29474411539377
30
0
41
1
10
19.6917046822206
20
-6.27970369831229
30
0
41
1
10
19.8062181220334
20
-6.26452270090061
30
0
41
1
10
19.8446608919078
20
-6.26069619257265
30
0
41
1
10
19.9027419621886
20
-6.25685043140462
30
0
41
1
10
19.9222082263654
20
-6.25588375910303
30
0
41
1
10
19.9610432866322
20
-6.25459875053048
30
0
41
1
10
19.9804206757314
20
-6.25427841514932
30
0
41
1
10
20.0771097084009
20
-6.25426518554394
30
0
41
1
10
20.230550681767
20
-6.26436884348027
30
0
41
1
10
20.3815254793055
20
-6.29426373645651
30
0
41
1
10
20.4938039217149
20
-6.32432695479443
30
0
41
1
10
20.5311267422988
20
-6.33565546844002
30
0
41
1
10
20.6043513378542
20
-6.36054510369146
30
0
41
1
10
20.6403890093395
20
-6.37413758752481
30
0
41
1
10
20.7468111863409
20
-6.41829070974677
30
0
41
1
10
20.8155120434472
20
-6.45221272773566
30
0
41
1
10
20.9151902047721
20
-6.50982371252874
30
0
41
1
10
20.9478522755724
20
-6.53015227110086
30
0
41
1
10
21.0120256139633
20
-6.57310349914539
30
0
41
1
10
21.0436243918518
20
-6.59580214597699
30
0
41
1
10
21.1353630867128
20
-6.66642267742478
30
0
41
1
10
21.250284866004
20
-6.76770948571931
30
0
41
1
10
21.3508223253871
20
-6.88283276927322
30
0
41
1
10
21.4206978904472
20
-6.97448376243352
30
0
41
1
10
21.4431137195572
20
-7.00599948201571
30
0
41
1
10
21.4857057869267
20
-7.07034433321812
30
0
41
1
10
21.5059034870283
20
-7.10319009210377
30
0
41
1
10
21.5249999999999
20
-7.1367102590815
30
0
0
SPLINE
5
16C
100
AcDbEntity
8
1
62
256
6
ByLayer
370
18
48
1
60
0
100
AcDbSpline
70
4
71
3
72
30
73
26
40
0
40
0
40
0
40
0
40
0.0624999999999995
40
0.0624999999999995
40
0.124999999999999
40
0.187499999999998
40
0.187499999999998
40
0.249999999999998
40
0.249999999999998
40
0.375000000000012
40
0.375000000000012
40
0.437500000000021
40
0.437500000000021
40
0.500000000000031
40
0.500000000000031
40
0.625000000000038
40
0.625000000000038
40
0.687500000000037
40
0.687500000000037
40
0.750000000000036
40
0.812500000000035
40
0.812500000000035
40
0.875000000000034
40
0.875000000000034
40
1
40
1
40
1
40
1
41
1
10
18.475
20
-44.6344954491478
30
0
41
1
10
18.4616847979077
20
-44.6344954491478
30
0
41
1
10
18.4482319859099
20
-44.6351906384268
30
0
41
1
10
18.4217536095184
20
-44.6379322295662
30
0
41
1
10
18.3955718787085
20
-44.6420141914964
30
0
41
1
10
18.3699704552135
20
-44.6487182284649
30
0
41
1
10
18.3446613431872
20
-44.6567430528606
30
0
41
1
10
18.332089597359
20
-44.6614445089548
30
0
41
1
10
18.2953093716651
20
-44.6773890308172
30
0
41
1
10
18.2722157062745
20
-44.6903364922936
30
0
41
1
10
18.2396300763836
20
-44.713096473663
30
0
41
1
10
18.2291132506191
20
-44.7212437793673
30
0
41
1
10
18.2087863511855
20
-44.7386867351014
30
0
41
1
10
18.1991008672812
20
-44.7478791620445
30
0
41
1
10
18.1716106460909
20
-44.7766402360769
30
0
41
1
10
18.1552722742638
20
-44.7974548350275
30
0
41
1
10
18.1337397189047
20
-44.8311312371395
30
0
41
1
10
18.1270502063933
20
-44.842805222197
30
0
41
1
10
18.1149450839625
20
-44.8664998596966
30
0
41
1
10
18.1040369676839
20
-44.8906473842248
30
0
41
1
10
18.0954655871354
20
-44.9156790122305
30
0
41
1
10
18.0880672270644
20
-44.9411544522898
30
0
41
1
10
18.0849476893669
20
-44.9541508067768
30
0
41
1
10
18.0774508125185
20
-44.9935864531736
30
0
41
1
10
18.0749999999997
20
-45.0199555519468
30
0
41
1
10
18.075
20
-45.0464003445382
30
0
0
SPLINE
5
16D
100
AcDbEntity
8
1
62
256
6
ByLayer
370
18
48
1
60
0
100
AcDbSpline
70
4
71
3
72
32
73
28
40
0
40
0
40
0
40
0
40
0.125000000000002
40
0.125000000000002
40
0.250000000000005
40
0.250000000000005
40
0.281250000000004
40
0.281250000000004
40
0.312500000000004
40
0.312500000000004
40
0.375000000000006
40
0.375000000000006
40
0.500000000000006
40
0.500000000000006
40
0.562500000000006
40
0.562500000000006
40
0.593750000000004
40
0.593750000000004
40
0.625000000000003
40
0.625000000000003
40
0.750000000000003
40
0.750000000000003
40
0.875000000000002
40
0.875000000000002
40
0.937500000000001
40
0.937500000000001
40
1
40
1
40
1
40
1
41
1
10
18.4749999999999
20
-8.82745624824821
30
0
41
1
10
18.4377864466611
20
-8.76256395630304
30
0
41
1
10
18.4054492427887
20
-8.69722547386348
30
0
41
1
10
18.349710814951
20
-8.56422661798968
30
0
41
1
10
18.3263174295068
20
-8.49658590374037
30
0
41
1
10
18.3026347247877
20
-8.40980695132876
30
0
41
1
10
18.2981777768653
20
-8.39233946392307
30
0
41
1
10
18.2898288157941
20
-8.3571595028848
30
0
41
1
10
18.2859353635673
20
-8.33943418600848
30
0
41
1
10
18.2751840579966
20
-8.28623216802922
30
0
41
1
10
18.2692244159246
20
-8.25061249335542
30
0
41
1
10
18.2549017237893
20
-8.14316707428324
30
0
41
1
10
18.250079691989
20
-8.07073664892098
30
0
41
1
10
18.2499616171529
20
-7.96061919661557
30
0
41
1
10
18.251111974268
20
-7.92367239491395
30
0
41
1
10
18.2546595041354
20
-7.86790025401407
30
0
41
1
10
18.2561459141043
20
-7.84925120805957
30
0
41
1
10
18.2597356429362
20
-7.81184177844324
30
0
41
1
10
18.261839368491
20
-7.79309330691439
30
0
41
1
10
18.2738091220134
20
-7.69986645461572
30
0
41
1
10
18.2880551680473
20
-7.62630143925585
30
0
41
1
10
18.3256409102618
20
-7.48138135487187
30
0
41
1
10
18.3489787734402
20
-7.41002551449401
30
0
41
1
10
18.3911622507963
20
-7.30494817339951
30
0
41
1
10
18.4063797715671
20
-7.27037709534628
30
0
41
1
10
18.4390017274133
20
-7.20258607374535
30
0
41
1
10
18.4564279174874
20
-7.16930989168472
30
0
41
1
10
18.4749999999983
20
-7.13671025908081
30
0
0
SPLINE
5
16E
100
AcDbEntity
8
1
62
256
6
ByLayer
370
18
48
1
60
0
100
AcDbSpline
70
4
71
3
72
32
73
28
40
0
40
0
40
0
40
0
40
0.124999999999998
40
0.124999999999998
40
0.249999999999996
40
0.249999999999996
40
0.281249999999996
40
0.281249999999996
40
0.312499999999995
40
0.312499999999995
40
0.374999999999994
40
0.374999999999994
40
0.49999999999999
40
0.49999999999999
40
0.562499999999988
40
0.562499999999988
40
0.593749999999989
40
0.593749999999989
40
0.624999999999989
40
0.624999999999989
40
0.749999999999992
40
0.749999999999992
40
0.874999999999994
40
0.874999999999994
40
0.937499999999997
40
0.937499999999997
40
1
40
1
40
1
40
1
41
1
10
18.4749999999999
20
7.13671025908181
30
0
41
1
10
18.4377864466611
20
7.20203132181248
30
0
41
1
10
18.4054492427887
20
7.26951057032861
30
0
41
1
10
18.349710814951
20
7.40805388100139
30
0
41
1
10
18.3263174295068
20
7.47912642561619
30
0
41
1
10
18.3026347247877
20
7.57000440345777
30
0
41
1
10
18.2981777768653
20
7.58828255509042
30
0
41
1
10
18.289828815794
20
7.62504133175256
30
0
41
1
10
18.2859353635673
20
7.64353518078508
30
0
41
1
10
18.2751840579965
20
7.69892859380758
30
0
41
1
10
18.2692244159246
20
7.73586111078598
30
0
41
1
10
18.2549017237893
20
7.84657353992498
30
0
41
1
10
18.250079691989
20
7.92025447498548
30
0
41
1
10
18.2499616171529
20
8.03040138417367
30
0
41
1
10
18.2511119742679
20
8.067057902915
30
0
41
1
10
18.2546595041353
20
8.12196385028312
30
0
41
1
10
18.2561459141042
20
8.14025293669152
30
0
41
1
10
18.2597356429362
20
8.17680976898617
30
0
41
1
10
18.261839368491
20
8.1950655995098
30
0
41
1
10
18.2738091220133
20
8.28555846015999
30
0
41
1
10
18.2880551680473
20
8.35604500871304
30
0
41
1
10
18.3256409102618
20
8.49443673746634
30
0
41
1
10
18.3489787734402
20
8.56234083732664
30
0
41
1
10
18.3911622507963
20
8.6632026849372
30
0
41
1
10
18.4063797715671
20
8.6965372611941
30
0
41
1
10
18.4390017274133
20
8.76244493810512
30
0
41
1
10
18.4564279174874
20
8.7950706012949
30
0
41
1
10
18.4749999999983
20
8.82745624824864
30
0
0
SPLINE
5
16F
100
AcDbEntity
8
1
62
256
6
ByLayer
370
18
48
1
60
0
100
AcDbSpline
70
4
71
3
72
30
73
26
40
0
40
0
40
0
40
0
40
0.125181098487307
40
0.125181098487307
40
0.156476373109144
40
0.156476373109144
40
0.18777164773098
40
0.250362196974653
40
0.250362196974653
40
0.312952746218326
40
0.312952746218326
40
0.375543295461999
40
0.438133844705672
40
0.438133844705672
40
0.500724393949345
40
0.500724393949345
40
0.625905492436721
40
0.625905492436721
40
0.751086590924098
40
0.751086590924098
40
0.813677140167771
40
0.813677140167771
40
0.876267689411444
40
0.876267689411444
40
1
40
1
40
1
40
1
41
1
10
18.4749999999999
20
31.35
30
0
41
1
10
18.4434838302957
20
31.3500000000001
30
0
41
1
10
18.4127975282274
20
31.35
30
0
41
1
10
18.3754018775674
20
31.35
30
0
41
1
10
18.3679858516776
20
31.35
30
0
41
1
10
18.3534843618351
20
31.35
30
0
41
1
10
18.3321375755528
20
31.35
30
0
41
1
10
18.3119368186066
20
31.35
30
0
41
1
10
18.2859434693282
20
31.35
30
0
41
1
10
18.2734002721151
20
31.35
30
0
41
1
10
18.2498192952165
20
31.35
30
0
41
1
10
18.2275536968053
20
31.35
30
0
41
1
10
18.2076288622268
20
31.35
30
0
41
1
10
18.1887837730621
20
31.3500000000001
30
0
41
1
10
18.1798737240508
20
31.35
30
0
41
1
10
18.1548765239319
20
31.35
30
0
41
1
10
18.1407213141959
20
31.35
30
0
41
1
10
18.1166036414079
20
31.35
30
0
41
1
10
18.1066511625443
20
31.35
30
0
41
1
10
18.0946732864747
20
31.35
30
0
41
1
10
18.0911932840926
20
31.35
30
0
41
1
10
18.0852755048811
20
31.35
30
0
41
1
10
18.0828262569596
20
31.35
30
0
41
1
10
18.0770006336154
20
31.35
30
0
41
1
10
18.0750347747071
20
31.35
30
0
41
1
10
18.0750049999999
20
31.35
30
0
0
SPLINE
5
170
100
AcDbEntity
8
1
62
256
6
ByLayer
370
18
48
1
60
0
100
AcDbSpline
70
4
71
3
72
31
73
27
40
0
40
0
40
0
40
0
40
0.062500000000024
40
0.062500000000024
40
0.125000000000048
40
0.125000000000048
40
0.250000000000093
40
0.250000000000093
40
0.3125000000001
40
0.3125000000001
40
0.375000000000107
40
0.375000000000107
40
0.500000000000094
40
0.500000000000094
40
0.562500000000082
40
0.562500000000082
40
0.625000000000069
40
0.687500000000056
40
0.687500000000056
40
0.750000000000044
40
0.750000000000044
40
0.875000000000033
40
0.875000000000033
40
0.937500000000017
40
0.937500000000017
40
1
40
1
40
1
40
1
41
1
10
21.925
20
-45.0464003445336
30
0
41
1
10
21.925
20
-45.0331626603318
30
0
41
1
10
21.924381495682
20
-45.0198947900488
30
0
41
1
10
21.9218726395178
20
-44.9932969770096
30
0
41
1
10
21.9199785565725
20
-44.9800081055474
30
0
41
1
10
21.9125069641338
20
-44.9408759852542
30
0
41
1
10
21.905136106865
20
-44.9154933320043
30
0
41
1
10
21.8904718366959
20
-44.8784843675956
30
0
41
1
10
21.8849526780864
20
-44.8662777778366
30
0
41
1
10
21.8727654232931
20
-44.8424668183442
30
0
41
1
10
21.8661456968194
20
-44.8309442994393
30
0
41
1
10
21.8447456214817
20
-44.7974983998839
30
0
41
1
10
21.8284392770504
20
-44.7766858300516
30
0
41
1
10
21.8008015924791
20
-44.7477804442197
30
0
41
1
10
21.7910273232173
20
-44.7385200855485
30
0
41
1
10
21.7708356920273
20
-44.7212068053836
30
0
41
1
10
21.7499032721751
20
-44.7049883620198
30
0
41
1
10
21.727505134293
20
-44.6909361532664
30
0
41
1
10
21.7043606202102
20
-44.6779870393273
30
0
41
1
10
21.6923744597047
20
-44.672046490774
30
0
41
1
10
21.6555104913066
20
-44.6560758480441
30
0
41
1
10
21.6302617191813
20
-44.6480861211985
30
0
41
1
10
21.5914053943373
20
-44.6399847983876
30
0
41
1
10
21.578288218471
20
-44.6379363339769
30
0
41
1
10
21.5517131422165
20
-44.6351851835537
30
0
41
1
10
21.5382858068624
20
-44.6344954491478
30
0
41
1
10
21.525
20
-44.6344954491478
30
0
0
SPLINE
5
171
100
AcDbEntity
8
1
62
256
6
ByLayer
370
18
48
1
60
0
100
AcDbSpline
70
4
71
3
72
32
73
28
40
0
40
0
40
0
40
0
40
0.0596037018534026
40
0.0596037018534026
40
0.122296788396515
40
0.122296788396515
40
0.24768296148274
40
0.24768296148274
40
0.310376048025853
40
0.310376048025853
40
0.373069134568965
40
0.373069134568965
40
0.49845530765519
40
0.49845530765519
40
0.561148394198303
40
0.561148394198303
40
0.623841480741415
40
0.623841480741415
40
0.74922765382761
40
0.74922765382761
40
0.811920740370708
40
0.811920740370708
40
0.874613826913805
40
0.874613826913805
40
0.937306913456903
40
0.937306913456903
40
1
40
1
40
1
40
1
41
1
10
21.9249999999982
20
31.35
30
0
41
1
10
21.9249451847941
20
31.35
30
0
41
1
10
21.9244531198127
20
31.35
30
0
41
1
10
21.9225309625992
20
31.35
30
0
41
1
10
21.9210589133899
20
31.35
30
0
41
1
10
21.9151868880887
20
31.3500000000001
30
0
41
1
10
21.9093431109087
20
31.35
30
0
41
1
10
21.8974980740979
20
31.35
30
0
41
1
10
21.8930336997148
20
31.35
30
0
41
1
10
21.8830000961516
20
31.3500000000001
30
0
41
1
10
21.8774184903454
20
31.35
30
0
41
1
10
21.8591819896764
20
31.3500000000001
30
0
41
1
10
21.844983132377
20
31.35
30
0
41
1
10
21.820200559237
20
31.35
30
0
41
1
10
21.8113550357057
20
31.35
30
0
41
1
10
21.7923549663909
20
31.35
30
0
41
1
10
21.7822317389738
20
31.35
30
0
41
1
10
21.7503563397751
20
31.35
30
0
41
1
10
21.7269594387175
20
31.35
30
0
41
1
10
21.6878456918739
20
31.35
30
0
41
1
10
21.6741340457279
20
31.35
30
0
41
1
10
21.6460786379621
20
31.35
30
0
41
1
10
21.631693322953
20
31.35
30
0
41
1
10
21.6021681168187
20
31.35
30
0
41
1
10
21.5869812296857
20
31.35
30
0
41
1
10
21.5559767767759
20
31.35
30
0
41
1
10
21.5404838485859
20
31.35
30
0
41
1
10
21.5249999999999
20
31.35
30
0
0
SPLINE
5
172
100
AcDbEntity
8
1
62
256
6
ByLayer
370
18
48
1
60
0
100
AcDbSpline
70
4
71
3
72
32
73
28
40
0
40
0
40
0
40
0
40
0.125000000000009
40
0.125000000000009
40
0.250000000000017
40
0.250000000000017
40
0.281250000000017
40
0.281250000000017
40
0.312500000000016
40
0.312500000000016
40
0.375000000000012
40
0.375000000000012
40
0.50000000000001
40
0.50000000000001
40
0.562500000000007
40
0.562500000000007
40
0.593750000000006
40
0.593750000000006
40
0.625000000000006
40
0.625000000000006
40
0.750000000000004
40
0.750000000000004
40
0.875000000000002
40
0.875000000000002
40
0.937500000000001
40
0.937500000000001
40
1
40
1
40
1
40
1
41
1
10
21.5249999999999
20
8.82745624824852
30
0
41
1
10
21.5622135533388
20
8.76256395630335
30
0
41
1
10
21.5945507572112
20
8.69722547386377
30
0
41
1
10
21.6502891850489
20
8.56422661798993
30
0
41
1
10
21.6736825704932
20
8.49658590374059
30
0
41
1
10
21.6973652752123
20
8.40980695132896
30
0
41
1
10
21.7018222231346
20
8.39233946392326
30
0
41
1
10
21.7101711842059
20
8.35715950288497
30
0
41
1
10
21.7140646364326
20
8.33943418600865
30
0
41
1
10
21.7248159420034
20
8.28623216802939
30
0
41
1
10
21.7307755840754
20
8.25061249335559
30
0
41
1
10
21.7450982762107
20
8.14316707428335
30
0
41
1
10
21.749920308011
20
8.0707366489211
30
0
41
1
10
21.7500383828471
20
7.9606191966156
30
0
41
1
10
21.748888025732
20
7.92367239491401
30
0
41
1
10
21.7453404958646
20
7.8679002540141
30
0
41
1
10
21.7438540858957
20
7.8492512080596
30
0
41
1
10
21.7402643570638
20
7.81184177844324
30
0
41
1
10
21.738160631509
20
7.79309330691439
30
0
41
1
10
21.7261908779866
20
7.69986645461566
30
0
41
1
10
21.7119448319527
20
7.62630143925577
30
0
41
1
10
21.6743590897381
20
7.48138135487179
30
0
41
1
10
21.6510212265597
20
7.41002551449387
30
0
41
1
10
21.6088377492036
20
7.30494817339934
30
0
41
1
10
21.5936202284328
20
7.27037709534608
30
0
41
1
10
21.5609982725866
20
7.20258607374515
30
0
41
1
10
21.5435720825124
20
7.16930989168452
30
0
41
1
10
21.5250000000015
20
7.13671025908059
30
0
0
SPLINE
5
173
100
AcDbEntity
8
1
62
256
6
ByLayer
370
18
48
1
60
0
100
AcDbSpline
70
4
71
3
72
32
73
28
40
0
40
0
40
0
40
0
40
0.125000000000004
40
0.125000000000004
40
0.250000000000008
40
0.250000000000008
40
0.28125000000001
40
0.28125000000001
40
0.312500000000012
40
0.312500000000012
40
0.375000000000015
40
0.375000000000015
40
0.500000000000021
40
0.500000000000021
40
0.562500000000023
40
0.562500000000023
40
0.593750000000022
40
0.593750000000022
40
0.625000000000021
40
0.625000000000021
40
0.750000000000014
40
0.750000000000014
40
0.875000000000007
40
0.875000000000007
40
0.937500000000003
40
0.937500000000003
40
1
40
1
40
1
40
1
41
1
10
21.5249999999999
20
-7.1367102590815
30
0
41
1
10
21.5622135533388
20
-7.20203132181217
30
0
41
1
10
21.5945507572112
20
-7.26951057032832
30
0
41
1
10
21.6502891850489
20
-7.40805388100117
30
0
41
1
10
21.6736825704932
20
-7.47912642561596
30
0
41
1
10
21.6973652752123
20
-7.5700044034576
30
0
41
1
10
21.7018222231347
20
-7.58828255509022
30
0
41
1
10
21.7101711842059
20
-7.62504133175239
30
0
41
1
10
21.7140646364327
20
-7.64353518078494
30
0
41
1
10
21.7248159420035
20
-7.69892859380744
30
0
41
1
10
21.7307755840754
20
-7.73586111078583
30
0
41
1
10
21.7450982762107
20
-7.84657353992489
30
0
41
1
10
21.749920308011
20
-7.92025447498543
30
0
41
1
10
21.7500383828471
20
-8.03040138417364
30
0
41
1
10
21.7488880257321
20
-8.067057902915
30
0
41
1
10
21.7453404958647
20
-8.12196385028315
30
0
41
1
10
21.7438540858958
20
-8.14025293669155
30
0
41
1
10
21.7402643570638
20
-8.1768097689862
30
0
41
1
10
21.738160631509
20
-8.19506559950983
30
0
41
1
10
21.7261908779866
20
-8.28555846016008
30
0
41
1
10
21.7119448319527
20
-8.35604500871312
30
0
41
1
10
21.6743590897382
20
-8.49443673746646
30
0
41
1
10
21.6510212265597
20
-8.56234083732679
30
0
41
1
10
21.6088377492036
20
-8.66320268493737
30
0
41
1
10
21.5936202284328
20
-8.69653726119429
30
0
41
1
10
21.5609982725866
20
-8.76244493810532
30
0
41
1
10
21.5435720825124
20
-8.79507060129512
30
0
41
1
10
21.5250000000016
20
-8.82745624824884
30
0
0
SPLINE
5
174
100
AcDbEntity
8
1
62
256
6
ByLayer
370
18
48
1
60
0
100
AcDbSpline
70
4
71
3
72
8
73
4
40
0
40
0
40
0
40
0
40
1
40
1
40
1
40
1
41
1
10
23.2418217614997
20
-48.7343696378644
30
0
41
1
10
22.8024719501863
20
-47.9541774266956
30
0
41
1
10
22.3635115314129
20
-47.1737672945195
30
0
41
1
10
21.925
20
-46.393105945446
30
0
0
SPLINE
5
175
100
AcDbEntity
8
1
62
256
6
ByLayer
370
18
48
1
60
0
100
AcDbSpline
70
4
71
3
72
8
73
4
40
0
40
0
40
0
40
0
40
1
40
1
40
1
40
1
41
1
10
23.2418217614996
20
31.35
30
0
41
1
10
22.7970974394246
20
31.35
30
0
41
1
10
22.3578450722474
20
31.35
30
0
41
1
10
21.9249999999999
20
31.35
30
0
0
SPLINE
5
176
100
AcDbEntity
8
1
62
256
6
ByLayer
370
18
48
1
60
0
100
AcDbSpline
70
4
71
3
72
8
73
4
40
0
40
0
40
0
40
0
40
1
40
1
40
1
40
1
41
1
10
28.95
20
-48.0164324372396
30
0
41
1
10
28.716710876918
20
-48.2557877592673
30
0
41
1
10
28.4833769086862
20
-48.4950995430802
30
0
41
1
10
28.2500000000001
20
-48.7343696378644
30
0
0
SPLINE
5
177
100
AcDbEntity
8
1
62
256
6
ByLayer
370
18
48
1
60
0
100
AcDbSpline
70
4
71
3
72
8
73
4
40
0
40
0
40
0
40
0
40
1
40
1
40
1
40
1
41
1
10
28.95
20
31.3500000000001
30
0
41
1
10
28.717385155116
20
31.35
30
0
41
1
10
28.4840015193126
20
31.35
30
0
41
1
10
28.2499999999999
20
31.35
30
0
0
SPLINE
5
178
100
AcDbEntity
8
1
62
256
6
ByLayer
370
18
48
1
60
0
100
AcDbSpline
70
4
71
3
72
8
73
4
40
0
40
0
40
0
40
0
40
1
40
1
40
1
40
1
41
1
10
18.075
20
-46.393105945446
30
0
41
1
10
17.636488468587
20
-47.1737672945195
30
0
41
1
10
17.1975280498137
20
-47.9541774266956
30
0
41
1
10
16.7581782385003
20
-48.7343696378644
30
0
0
SPLINE
5
179
100
AcDbEntity
8
1
62
256
6
ByLayer
370
18
48
1
60
0
100
AcDbSpline
70
4
71
3
72
8
73
4
40
0
40
0
40
0
40
0
40
1
40
1
40
1
40
1
41
1
10
18.0749999999999
20
31.35
30
0
41
1
10
17.6421549277524
20
31.35
30
0
41
1
10
17.2029025605752
20
31.35
30
0
41
1
10
16.7581782385002
20
31.35
30
0
0
SPLINE
5
17A
100
AcDbEntity
8
1
62
256
6
ByLayer
370
18
48
1
60
0
100
AcDbSpline
70
4
71
3
72
55
73
51
40
0
40
0
40
0
40
0
40
0.0624999999999992
40
0.0624999999999992
40
0.124999999999998
40
0.124999999999998
40
0.187499999999998
40
0.187499999999998
40
0.203124999999997
40
0.203124999999997
40
0.218749999999997
40
0.218749999999997
40
0.249999999999997
40
0.249999999999997
40
0.312499999999995
40
0.312499999999995
40
0.374999999999994
40
0.374999999999994
40
0.406249999999994
40
0.406249999999994
40
0.421874999999993
40
0.421874999999993
40
0.437499999999993
40
0.437499999999993
40
0.499999999999992
40
0.499999999999992
40
0.562499999999991
40
0.562499999999991
40
0.62499999999999
40
0.62499999999999
40
0.632812499999991
40
0.632812499999991
40
0.640624999999991
40
0.640624999999991
40
0.656249999999991
40
0.687499999999992
40
0.687499999999992
40
0.749999999999993
40
0.749999999999993
40
0.812499999999995
40
0.812499999999995
40
0.843749999999996
40
0.843749999999996
40
0.859374999999996
40
0.859374999999996
40
0.874999999999997
40
0.874999999999997
40
0.937499999999998
40
0.937499999999998
40
1
40
1
40
1
40
1
41
1
10
14.9500000000001
20
-48.7343696378644
30
0
41
1
10
14.6186180770483
20
-48.7343696378644
30
0
41
1
10
14.2901293667462
20
-48.7380932241918
30
0
41
1
10
13.6387232911421
20
-48.7526151918802
30
0
41
1
10
13.3158065177085
20
-48.7634141371864
30
0
41
1
10
12.6754919299054
20
-48.7917402554333
30
0
41
1
10
12.3580939389171
20
-48.809267872866
30
0
41
1
10
11.9648592282068
20
-48.8351718883636
30
0
41
1
10
11.8863883176173
20
-48.8405524220114
30
0
41
1
10
11.7298017686215
20
-48.8517076682971
30
0
41
1
10
11.6515991381983
20
-48.8574894582082
30
0
41
1
10
11.4187515333456
20
-48.8753220985444
30
0
41
1
10
11.2655498884333
20
-48.8878806568078
30
0
41
1
10
10.811895150555
20
-48.9273980953649
30
0
41
1
10
10.517377974707
20
-48.9561972782341
30
0
41
1
10
9.94380215106827
20
-49.0178549347292
30
0
41
1
10
9.664743946877
20
-49.0507146985876
30
0
41
1
10
9.2578074013154
20
-49.1024378176854
30
0
41
1
10
9.12410716979446
20
-49.1200845666749
30
0
41
1
10
8.92651453327991
20
-49.1470866090043
30
0
41
1
10
8.8611435080926
20
-49.1561759362458
30
0
41
1
10
8.73139739917741
20
-49.1745189755888
30
0
41
1
10
8.66727138387012
20
-49.1837374881247
30
0
41
1
10
8.35046385487286
20
-49.2300062218261
30
0
41
1
10
8.10907647024374
20
-49.267602508421
30
0
41
1
10
7.64966054039311
20
-49.3429973753042
30
0
41
1
10
7.43163375382832
20
-49.380797599762
30
0
41
1
10
7.01889930623042
20
-49.4556861023258
30
0
41
1
10
6.82418992981576
20
-49.4927759662818
30
0
41
1
10
6.61863457130431
20
-49.5335844296443
30
0
41
1
10
6.59598297197473
20
-49.5381059367661
30
0
41
1
10
6.55105770947233
20
-49.547121570508
30
0
41
1
10
6.52877521323919
20
-49.5516175187617
30
0
41
1
10
6.46267533310359
20
-49.5650253864375
30
0
41
1
10
6.3333005491273
20
-49.5915542938287
30
0
41
1
10
6.21230230261048
20
-49.617172972123
30
0
41
1
10
5.98129593649497
20
-49.6670683357459
30
0
41
1
10
5.84191861237488
20
-49.6985422181599
30
0
41
1
10
5.5921360950997
20
-49.7572475370043
30
0
41
1
10
5.48173027698678
20
-49.7844801347868
30
0
41
1
10
5.33828630346619
20
-49.8216503380533
30
0
41
1
10
5.29417252865383
20
-49.8334271708375
30
0
41
1
10
5.23367267386439
20
-49.8501079866212
30
0
41
1
10
5.21443098384972
20
-49.8555101959131
30
0
41
1
10
5.17800678971318
20
-49.8659342277255
30
0
41
1
10
5.16081455682297
20
-49.8709584653659
30
0
41
1
10
5.07992001326329
20
-49.8951321864374
30
0
41
1
10
5.03138034853981
20
-49.9114393168579
30
0
41
1
10
4.96642087804364
20
-49.93777114671
30
0
41
1
10
4.95000000000004
20
-49.9477962365168
30
0
41
1
10
4.95000000000004
20
-49.9545671986056
30
0
0
SPLINE
5
17B
100
AcDbEntity
8
1
62
256
6
ByLayer
370
18
48
1
60
0
100
AcDbSpline
70
4
71
3
72
54
73
50
40
0
40
0
40
0
40
0
40
0.0625000000000046
40
0.0625000000000046
40
0.125000000000009
40
0.125000000000009
40
0.156250000000011
40
0.156250000000011
40
0.171875000000013
40
0.171875000000013
40
0.179687500000013
40
0.179687500000013
40
0.187500000000014
40
0.250000000000017
40
0.250000000000017
40
0.31250000000002
40
0.31250000000002
40
0.343750000000022
40
0.343750000000022
40
0.359375000000023
40
0.359375000000023
40
0.375000000000023
40
0.375000000000023
40
0.437500000000022
40
0.437500000000022
40
0.50000000000002
40
0.50000000000002
40
0.531250000000019
40
0.531250000000019
40
0.546875000000018
40
0.546875000000018
40
0.562500000000017
40
0.562500000000017
40
0.625000000000014
40
0.625000000000014
40
0.687500000000012
40
0.687500000000012
40
0.75000000000001
40
0.75000000000001
40
0.812500000000008
40
0.812500000000008
40
0.828125000000007
40
0.828125000000007
40
0.843750000000006
40
0.875000000000005
40
0.875000000000005
40
0.937500000000002
40
0.937500000000002
40
1
40
1
40
1
40
1
41
1
10
14.6579668481793
20
38.9060242764537
30
0
41
1
10
14.3262055454705
20
38.9060242764537
30
0
41
1
10
13.9982314324205
20
38.8927740584742
30
0
41
1
10
13.3494884639966
20
38.8409468046657
30
0
41
1
10
13.0287211904854
20
38.8023638648199
30
0
41
1
10
12.552897130635
20
38.7255085306534
30
0
41
1
10
12.3951788176721
20
38.6967182657897
30
0
41
1
10
12.1599425935178
20
38.6487040358918
30
0
41
1
10
12.0817541728103
20
38.631893977704
30
0
41
1
10
11.9648088811361
20
38.6054573881724
30
0
41
1
10
11.9258505361288
20
38.5964336327105
30
0
41
1
10
11.8482629583255
20
38.578028176335
30
0
41
1
10
11.5005289804831
20
38.4935751366774
30
0
41
1
10
11.1652705504387
20
38.3946725236202
30
0
41
1
10
10.5875999459265
20
38.1969250689817
30
0
41
1
10
10.3079435270821
20
38.0870837881047
30
0
41
1
10
9.90165447329341
20
37.9059676052274
30
0
41
1
10
9.76842814056982
20
37.8428644174422
30
0
41
1
10
9.57185509555842
20
37.744080036068
30
0
41
1
10
9.50679720570039
20
37.7104203128559
30
0
41
1
10
9.37835931584303
20
37.6420360731437
30
0
41
1
10
9.3149350548901
20
37.6072918684044
30
0
41
1
10
9.00168607829102
20
37.4308471022575
30
0
41
1
10
8.76344828742162
20
37.2809936596243
30
0
41
1
10
8.30963504081856
20
36.9645103482153
30
0
41
1
10
8.09406753443051
20
36.7978760141893
30
0
41
1
10
7.78664486798198
20
36.5355105945935
30
0
41
1
10
7.68682949793859
20
36.4459838849724
30
0
41
1
10
7.5409915732815
20
36.3085877719226
30
0
41
1
10
7.49300338429049
20
36.2622457279512
30
0
41
1
10
7.39871073722375
20
36.168933948457
30
0
41
1
10
7.35235508974077
20
36.1219173484746
30
0
41
1
10
7.12441385726513
20
35.8850538034044
30
0
41
1
10
6.95431142198197
20
35.6898731010346
30
0
41
1
10
6.63611579279177
20
35.2885830304332
30
0
41
1
10
6.48802988911692
20
35.0824716093137
30
0
41
1
10
6.21196751048581
20
34.6596037717813
30
0
41
1
10
6.08399561077695
20
34.4428460931387
30
0
41
1
10
5.84665848574906
20
33.9988565429648
30
0
41
1
10
5.73729627096537
20
33.7716238615614
30
0
41
1
10
5.61146291574025
20
33.4810915639198
30
0
41
1
10
5.58682966850486
20
33.4226330338351
30
0
41
1
10
5.53873784212769
20
33.3053249230112
30
0
41
1
10
5.46832869888439
20
33.1287026457599
30
0
41
1
10
5.4029733913236
20
32.9501121322119
30
0
41
1
10
5.27868145349734
20
32.5903347296151
30
0
41
1
10
5.20437002393044
20
32.3470224395354
30
0
41
1
10
5.07137549330966
20
31.8535937630817
30
0
41
1
10
5.01269470093902
20
31.6034770871432
30
0
41
1
10
4.96121570861115
20
31.35
30
0
0
SPLINE
5
17C
100
AcDbEntity
8
1
62
256
6
ByLayer
370
18
48
1
60
0
100
AcDbSpline
70
4
71
3
72
58
73
54
40
0
40
0
40
0
40
0
40
0.0624999999999995
40
0.0624999999999995
40
0.124999999999999
40
0.124999999999999
40
0.187499999999998
40
0.187499999999998
40
0.203124999999998
40
0.203124999999998
40
0.218749999999998
40
0.218749999999998
40
0.249999999999998
40
0.249999999999998
40
0.312499999999998
40
0.312499999999998
40
0.374999999999997
40
0.374999999999997
40
0.406249999999997
40
0.406249999999997
40
0.421874999999997
40
0.421874999999997
40
0.429687499999997
40
0.429687499999997
40
0.437499999999997
40
0.499999999999997
40
0.499999999999997
40
0.562499999999997
40
0.562499999999997
40
0.624999999999998
40
0.624999999999998
40
0.632812499999998
40
0.632812499999998
40
0.640624999999998
40
0.640624999999998
40
0.656249999999998
40
0.687499999999998
40
0.687499999999998
40
0.749999999999998
40
0.749999999999998
40
0.812499999999998
40
0.812499999999998
40
0.843749999999998
40
0.843749999999998
40
0.851562499999999
40
0.851562499999999
40
0.859374999999999
40
0.859374999999999
40
0.874999999999999
40
0.874999999999999
40
0.937499999999999
40
0.937499999999999
40
1
40
1
40
1
40
1
41
1
10
4.94999999999993
20
49.9649955869107
30
0
41
1
10
4.94999999999993
20
49.9648564514862
30
0
41
1
10
4.96639535724594
20
49.9614297711209
30
0
41
1
10
5.03079012918496
20
49.9483282305161
30
0
41
1
10
5.078792905775
20
49.9386528049884
30
0
41
1
10
5.20617528592703
20
49.913360558211
30
0
41
1
10
5.2855537250436
20
49.8977432003455
30
0
41
1
10
5.40481488311906
20
49.8746982349491
30
0
41
1
10
5.4296713505814
20
49.8699130944682
30
0
41
1
10
5.48141309188898
20
49.8599953876833
30
0
41
1
10
5.50833605914661
20
49.8548556940175
30
0
41
1
10
5.59176278263863
20
49.8390028750116
30
0
41
1
10
5.65098412594429
20
49.8278440931124
30
0
41
1
10
5.83923536919087
20
49.7927497543001
30
0
41
1
10
5.97882664442
20
49.7671969271402
30
0
41
1
10
6.28566007065069
20
49.7125601134017
30
0
41
1
10
6.45290276134619
20
49.6834747686273
30
0
41
1
10
6.72472807627176
20
49.6377773603114
30
0
41
1
10
6.81883642419393
20
49.6222000592038
30
0
41
1
10
6.96533658581001
20
49.5983914265066
30
0
41
1
10
7.01506001162426
20
49.5903814561262
30
0
41
1
10
7.09099523328789
20
49.5782654147636
30
0
41
1
10
7.1165240763516
20
49.574211187792
30
0
41
1
10
7.16789264653997
20
49.5660929330668
30
0
41
1
10
7.40060319140778
20
49.5294925582587
30
0
41
1
10
7.64713918623045
20
49.4923590230609
30
0
41
1
10
8.10670693309032
20
49.4264420405032
30
0
41
1
10
8.34713297584113
20
49.3935310568328
30
0
41
1
10
8.84934930388641
20
49.3287304702773
30
0
41
1
10
9.11113785088074
20
49.2968392696675
30
0
41
1
10
9.41807611856308
20
49.2620739608192
30
0
41
1
10
9.45235340070909
20
49.2582266370262
30
0
41
1
10
9.52125623397231
20
49.2505649163322
30
0
41
1
10
9.55590568536479
20
49.2467479240446
30
0
41
1
10
9.66018379123648
20
49.2353706337422
30
0
41
1
10
9.8699616226439
20
49.2129207084335
30
0
41
1
10
10.0833656513847
20
49.1914366408169
30
0
41
1
10
10.5149408311131
20
49.1498915200009
30
0
41
1
10
10.809002564692
20
49.1240922202927
30
0
41
1
10
11.4097370601155
20
49.076996069962
30
0
41
1
10
11.7164095384446
20
49.0556981620596
30
0
41
1
10
12.186090484687
20
49.027664215513
30
0
41
1
10
12.3442656931892
20
49.0189718879699
30
0
41
1
10
12.5440485131774
20
49.008980071156
30
0
41
1
10
12.5841083314372
20
49.0070253954911
30
0
41
1
10
12.6644358672602
20
49.003204909123
30
0
41
1
10
12.7047159750549
20
49.001338598664
30
0
41
1
10
12.8255808796394
20
48.9958879253751
30
0
41
1
10
12.9062796748493
20
48.9924474346058
30
0
41
1
10
13.3103808608993
20
48.9762212253996
30
0
41
1
10
13.635600603187
20
48.9663646229261
30
0
41
1
10
14.289891263086
20
48.9531432682525
30
0
41
1
10
14.6189620704916
20
48.9497781813156
30
0
41
1
10
14.95
20
48.9497781813156
30
0
0
SPLINE
5
17D
100
AcDbEntity
8
SK2
62
256
6
ByLayer
370
18
48
1
60
0
100
AcDbSpline
70
4
71
3
72
32
73
28
40
0
40
0
40
0
40
0
40
0.125
40
0.125
40
0.1875
40
0.1875
40
0.25
40
0.25
40
0.374999999999999
40
0.374999999999999
40
0.499999999999999
40
0.499999999999999
40
0.531249999999999
40
0.531249999999999
40
0.562499999999999
40
0.562499999999999
40
0.624999999999999
40
0.624999999999999
40
0.749999999999999
40
0.749999999999999
40
0.875
40
0.875
40
0.90625
40
0.90625
40
0.9375
40
0.9375
40
1
40
1
40
1
40
1
41
1
10
64.725
20
1.60214699700131
30
0
41
1
10
64.7250000000001
20
1.4781805896026
30
0
41
1
10
64.7250000000001
20
1.35182970607661
30
0
41
1
10
64.725
20
1.15747442796876
30
0
41
1
10
64.725
20
1.09183662072303
30
0
41
1
10
64.725
20
0.95885168032251
30
0
41
1
10
64.725
20
0.892049566436611
30
0
41
1
10
64.725
20
0.69062254685241
30
0
41
1
10
64.725
20
0.554974948051836
30
0
41
1
10
64.725
20
0.280483721240898
30
0
41
1
10
64.725
20
0.141636552919209
30
0
41
1
10
64.725
20
-0.0341499128574867
30
0
41
1
10
64.725
20
-0.0694982458400375
30
0
41
1
10
64.725
20
-0.140013954394561
30
0
41
1
10
64.725
20
-0.175120907982546
30
0
41
1
10
64.725
20
-0.280003246247134
30
0
41
1
10
64.725
20
-0.349339859614503
30
0
41
1
10
64.725
20
-0.555719924272097
30
0
41
1
10
64.725
20
-0.691133337520711
30
0
41
1
10
64.725
20
-0.958336516040703
30
0
41
1
10
64.725
20
-1.09012948156283
30
0
41
1
10
64.725
20
-1.25304423478866
30
0
41
1
10
64.7250000000001
20
-1.28548931660384
30
0
41
1
10
64.725
20
-1.34987997432015
30
0
41
1
10
64.725
20
-1.38186350434969
30
0
41
1
10
64.725
20
-1.47722716275649
30
0
41
1
10
64.725
20
-1.54002165011144
30
0
41
1
10
64.725
20
-1.60214699700126
30
0
0
SPLINE
5
17E
100
AcDbEntity
8
SK2
62
256
6
ByLayer
370
18
48
1
60
0
100
AcDbSpline
70
4
71
3
72
29
73
25
40
0
40
0
40
0
40
0
40
0.124999999999997
40
0.124999999999997
40
0.249999999999995
40
0.249999999999995
40
0.374999999999992
40
0.374999999999992
40
0.437499999999996
40
0.437499999999996
40
0.468749999999998
40
0.468749999999998
40
0.5
40
0.5
40
0.625000000000008
40
0.625000000000008
40
0.750000000000016
40
0.750000000000016
40
0.781250000000019
40
0.781250000000019
40
0.812500000000021
40
0.875000000000014
40
0.875000000000014
40
1
40
1
40
1
40
1
41
1
10
67.5
20
3.20429399400251
30
0
41
1
10
67.3915916751266
20
3.14170441845448
30
0
41
1
10
67.2819421621365
20
3.07839824261313
30
0
41
1
10
67.059474923591
20
2.949956722553
30
0
41
1
10
66.946656651991
20
2.88482106307524
30
0
41
1
10
66.7170183145187
20
2.75223930711931
30
0
41
1
10
66.600195530976
20
2.68479164159351
30
0
41
1
10
66.4212565777312
20
2.58148118876903
30
0
41
1
10
66.3609922368218
20
2.54668755532251
30
0
41
1
10
66.2695811909616
20
2.49391136338821
30
0
41
1
10
66.2390543226238
20
2.47628666773588
30
0
41
1
10
66.1782356656882
20
2.44117299978237
30
0
41
1
10
66.1478906715952
20
2.42365330927416
30
0
41
1
10
65.9964840884089
20
2.33623867771451
30
0
41
1
10
65.8763820817253
20
2.26689775182555
30
0
41
1
10
65.6380642904718
20
2.12930491089261
30
0
41
1
10
65.5198466248885
20
2.06105190984513
30
0
41
1
10
65.3730994479205
20
1.97632738771986
30
0
41
1
10
65.3438659265123
20
1.95944940626549
30
0
41
1
10
65.285766781504
20
1.92590584925523
30
0
41
1
10
65.1990971204771
20
1.87586709713079
30
0
41
1
10
65.1137711058928
20
1.82660409964166
30
0
41
1
10
64.9446871946049
20
1.72898345794397
30
0
41
1
10
64.8340471227507
20
1.66510538267579
30
0
41
1
10
64.7249999999999
20
1.60214699700123
30
0
0
SPLINE
5
17F
100
AcDbEntity
8
SK2
62
256
6
ByLayer
370
18
48
1
60
0
100
AcDbSpline
70
4
71
3
72
29
73
25
40
0
40
0
40
0
40
0
40
0.124999999999997
40
0.124999999999997
40
0.249999999999994
40
0.249999999999994
40
0.374999999999992
40
0.374999999999992
40
0.437499999999985
40
0.437499999999985
40
0.468749999999982
40
0.468749999999982
40
0.499999999999978
40
0.499999999999978
40
0.624999999999976
40
0.624999999999976
40
0.749999999999973
40
0.749999999999973
40
0.781249999999972
40
0.781249999999972
40
0.812499999999972
40
0.874999999999981
40
0.874999999999981
40
1
40
1
40
1
40
1
41
1
10
67.5
20
3.20429399400251
30
0
41
1
10
67.6084083248734
20
3.14170441845448
30
0
41
1
10
67.7180578378635
20
3.07839824261313
30
0
41
1
10
67.940525076409
20
2.949956722553
30
0
41
1
10
68.053343348009
20
2.88482106307524
30
0
41
1
10
68.2829816854814
20
2.75223930711931
30
0
41
1
10
68.399804469024
20
2.68479164159351
30
0
41
1
10
68.5787434222688
20
2.58148118876906
30
0
41
1
10
68.6390077631782
20
2.54668755532251
30
0
41
1
10
68.7304188090385
20
2.49391136338821
30
0
41
1
10
68.7609456773762
20
2.47628666773588
30
0
41
1
10
68.8217643343118
20
2.44117299978237
30
0
41
1
10
68.8521093284049
20
2.42365330927419
30
0
41
1
10
69.0035159115911
20
2.33623867771451
30
0
41
1
10
69.1236179182746
20
2.26689775182555
30
0
41
1
10
69.3619357095282
20
2.12930491089261
30
0
41
1
10
69.4801533751115
20
2.06105190984513
30
0
41
1
10
69.6269005520795
20
1.97632738771986
30
0
41
1
10
69.6561340734877
20
1.95944940626549
30
0
41
1
10
69.714233218496
20
1.92590584925526
30
0
41
1
10
69.8009028795228
20
1.87586709713082
30
0
41
1
10
69.8862288941072
20
1.82660409964166
30
0
41
1
10
70.0553128053951
20
1.728983457944
30
0
41
1
10
70.1659528772492
20
1.66510538267582
30
0
41
1
10
70.2750000000001
20
1.60214699700126
30
0
0
SPLINE
5
180
100
AcDbEntity
8
SK2
62
256
6
ByLayer
370
18
48
1
60
0
100
AcDbSpline
70
4
71
3
72
32
73
28
40
0
40
0
40
0
40
0
40
0.125
40
0.125
40
0.187499999999999
40
0.187499999999999
40
0.249999999999999
40
0.249999999999999
40
0.374999999999999
40
0.374999999999999
40
0.499999999999999
40
0.499999999999999
40
0.531249999999999
40
0.531249999999999
40
0.562499999999999
40
0.562499999999999
40
0.624999999999999
40
0.624999999999999
40
0.75
40
0.75
40
0.875
40
0.875
40
0.90625
40
0.90625
40
0.9375
40
0.9375
40
1
40
1
40
1
40
1
41
1
10
70.275
20
1.60214699700131
30
0
41
1
10
70.275
20
1.4781805896026
30
0
41
1
10
70.275
20
1.35182970607661
30
0
41
1
10
70.275
20
1.15747442796879
30
0
41
1
10
70.275
20
1.09183662072303
30
0
41
1
10
70.275
20
0.95885168032251
30
0
41
1
10
70.275
20
0.89204956643664
30
0
41
1
10
70.275
20
0.69062254685241
30
0
41
1
10
70.275
20
0.554974948051836
30
0
41
1
10
70.275
20
0.280483721240927
30
0
41
1
10
70.275
20
0.141636552919209
30
0
41
1
10
70.275
20
-0.0341499128574867
30
0
41
1
10
70.275
20
-0.0694982458400091
30
0
41
1
10
70.275
20
-0.140013954394533
30
0
41
1
10
70.275
20
-0.175120907982517
30
0
41
1
10
70.275
20
-0.280003246247134
30
0
41
1
10
70.275
20
-0.349339859614474
30
0
41
1
10
70.275
20
-0.555719924272069
30
0
41
1
10
70.275
20
-0.691133337520711
30
0
41
1
10
70.275
20
-0.958336516040703
30
0
41
1
10
70.275
20
-1.0901294815628
30
0
41
1
10
70.275
20
-1.25304423478863
30
0
41
1
10
70.275
20
-1.28548931660382
30
0
41
1
10
70.275
20
-1.34987997432015
30
0
41
1
10
70.275
20
-1.38186350434969
30
0
41
1
10
70.275
20
-1.47722716275649
30
0
41
1
10
70.275
20
-1.54002165011141
30
0
41
1
10
70.275
20
-1.60214699700123
30
0
0
SPLINE
5
181
100
AcDbEntity
8
SK2
62
256
6
ByLayer
370
18
48
1
60
0
100
AcDbSpline
70
4
71
3
72
29
73
25
40
0
40
0
40
0
40
0
40
0.12499999999999
40
0.12499999999999
40
0.249999999999979
40
0.249999999999979
40
0.374999999999969
40
0.374999999999969
40
0.437499999999969
40
0.437499999999969
40
0.468749999999969
40
0.468749999999969
40
0.499999999999969
40
0.499999999999969
40
0.624999999999969
40
0.624999999999969
40
0.749999999999969
40
0.749999999999969
40
0.781249999999969
40
0.781249999999969
40
0.812499999999968
40
0.874999999999979
40
0.874999999999979
40
1
40
1
40
1
40
1
41
1
10
70.275
20
-1.60214699700111
30
0
41
1
10
70.1665916751266
20
-1.66473657254914
30
0
41
1
10
70.0569421621366
20
-1.72804274839049
30
0
41
1
10
69.834474923591
20
-1.85648426845063
30
0
41
1
10
69.721656651991
20
-1.92161992792842
30
0
41
1
10
69.4920183145186
20
-2.05420168388431
30
0
41
1
10
69.3751955309761
20
-2.12164934941012
30
0
41
1
10
69.1962565777311
20
-2.22495980223459
30
0
41
1
10
69.1359922368218
20
-2.25975343568112
30
0
41
1
10
69.0445811909616
20
-2.31252962761545
30
0
41
1
10
69.0140543226238
20
-2.33015432326775
30
0
41
1
10
68.9532356656882
20
-2.36526799122129
30
0
41
1
10
68.9228906715952
20
-2.38278768172947
30
0
41
1
10
68.7714840884089
20
-2.47020231328915
30
0
41
1
10
68.6513820817254
20
-2.5395432391781
30
0
41
1
10
68.4130642904717
20
-2.67713608011104
30
0
41
1
10
68.2948466248885
20
-2.74538908115849
30
0
41
1
10
68.1480994479205
20
-2.83011360328376
30
0
41
1
10
68.1188659265123
20
-2.84699158473813
30
0
41
1
10
68.060766781504
20
-2.8805351417484
30
0
41
1
10
67.9740971204772
20
-2.93057389387283
30
0
41
1
10
67.8887711058928
20
-2.97983689136197
30
0
41
1
10
67.7196871946049
20
-3.07745753305966
30
0
41
1
10
67.6090471227508
20
-3.14133560832784
30
0
41
1
10
67.4999999999999
20
-3.20429399400237
30
0
0
SPLINE
5
182
100
AcDbEntity
8
SK2
62
256
6
ByLayer
370
18
48
1
60
0
100
AcDbSpline
70
4
71
3
72
29
73
25
40
0
40
0
40
0
40
0
40
0.125000000000006
40
0.125000000000006
40
0.250000000000012
40
0.250000000000012
40
0.375000000000018
40
0.375000000000018
40
0.437500000000016
40
0.437500000000016
40
0.468750000000015
40
0.468750000000015
40
0.500000000000014
40
0.500000000000014
40
0.62500000000002
40
0.62500000000002
40
0.750000000000026
40
0.750000000000026
40
0.781250000000027
40
0.781250000000027
40
0.812500000000027
40
0.875000000000018
40
0.875000000000018
40
1
40
1
40
1
40
1
41
1
10
64.725
20
-1.60214699700111
30
0
41
1
10
64.8334083248734
20
-1.66473657254914
30
0
41
1
10
64.9430578378635
20
-1.72804274839049
30
0
41
1
10
65.165525076409
20
-1.85648426845063
30
0
41
1
10
65.278343348009
20
-1.92161992792842
30
0
41
1
10
65.5079816854813
20
-2.05420168388431
30
0
41
1
10
65.624804469024
20
-2.12164934941012
30
0
41
1
10
65.8037434222689
20
-2.22495980223459
30
0
41
1
10
65.8640077631781
20
-2.25975343568112
30
0
41
1
10
65.9554188090384
20
-2.31252962761545
30
0
41
1
10
65.9859456773762
20
-2.33015432326775
30
0
41
1
10
66.0467643343118
20
-2.36526799122126
30
0
41
1
10
66.0771093284049
20
-2.38278768172947
30
0
41
1
10
66.2285159115911
20
-2.47020231328912
30
0
41
1
10
66.3486179182747
20
-2.53954323917807
30
0
41
1
10
66.5869357095283
20
-2.67713608011101
30
0
41
1
10
66.7051533751115
20
-2.74538908115849
30
0
41
1
10
66.8519005520795
20
-2.83011360328376
30
0
41
1
10
66.8811340734877
20
-2.84699158473813
30
0
41
1
10
66.939233218496
20
-2.8805351417484
30
0
41
1
10
67.0259028795228
20
-2.93057389387283
30
0
41
1
10
67.1112288941072
20
-2.97983689136197
30
0
41
1
10
67.2803128053951
20
-3.07745753305966
30
0
41
1
10
67.3909528772492
20
-3.14133560832784
30
0
41
1
10
67.5000000000001
20
-3.20429399400237
30
0
0
SPLINE
5
183
100
AcDbEntity
8
SK1
62
256
6
ByLayer
370
18
48
1
60
0
100
AcDbSpline
70
4
71
3
72
8
73
4
40
0
40
0
40
0
40
0
40
1
40
1
40
1
40
1
41
1
10
-48.25
20
32.2214193285101
30
0
41
1
10
-48.1701861715093
20
32.2200218734064
30
0
41
1
10
-48.0872675817396
20
32.2186394191731
30
0
41
1
10
-48.0000748840349
20
32.218019138109
30
0
0
SPLINE
5
184
100
AcDbEntity
8
SK1
62
256
6
ByLayer
370
18
48
1
60
0
100
AcDbSpline
70
4
71
3
72
24
73
20
40
0
40
0
40
0
40
0
40
0.25
40
0.25
40
0.375
40
0.375
40
0.5
40
0.5
40
0.625000000000001
40
0.625000000000001
40
0.750000000000001
40
0.750000000000001
40
0.875000000000001
40
0.875000000000001
40
0.90625
40
0.90625
40
0.937499999999999
40
0.937499999999999
40
1
40
1
40
1
40
1
41
1
10
-48.25
20
32.2214193285101
30
0
41
1
10
-48.3271925996521
20
32.1386292161066
30
0
41
1
10
-48.4027254536899
20
32.050930952745
30
0
41
1
10
-48.5122537211954
20
31.9125478699341
30
0
41
1
10
-48.5481267099528
20
31.865283010005
30
0
41
1
10
-48.6182019131828
20
31.768643632154
30
0
41
1
10
-48.6524094876907
20
31.7192660384394
30
0
41
1
10
-48.7185088967078
20
31.6186886425618
30
0
41
1
10
-48.7504117861866
20
31.5674825904549
30
0
41
1
10
-48.8107721610409
20
31.4637940025208
30
0
41
1
10
-48.8392511338386
20
31.411299830844
30
0
41
1
10
-48.8906794646078
20
31.3060996950025
30
0
41
1
10
-48.9136552967582
20
31.2533820293383
30
0
41
1
10
-48.936535416281
20
31.1885883728348
30
0
41
1
10
-48.940814242955
20
31.1756874081561
30
0
41
1
10
-48.948696824415
20
31.1500417843307
30
0
41
1
10
-48.9523016290037
20
31.1372862940232
30
0
41
1
10
-48.9618992672905
20
31.0996474846813
30
0
41
1
10
-48.9667024842
20
31.0752951187509
30
0
41
1
10
-48.9697166806892
20
31.051839579978
30
0
0
SPLINE
5
185
100
AcDbEntity
8
SK1
62
256
6
ByLayer
370
18
48
1
60
0
100
AcDbSpline
70
4
71
3
72
70
73
66
40
0
40
0
40
0
40
0
40
0.124999999999972
40
0.124999999999972
40
0.187499999999958
40
0.187499999999958
40
0.249999999999944
40
0.249999999999944
40
0.312499999999931
40
0.312499999999931
40
0.343749999999922
40
0.343749999999922
40
0.374999999999914
40
0.374999999999914
40
0.406249999999905
40
0.406249999999905
40
0.421874999999901
40
0.421874999999901
40
0.437499999999897
40
0.437499999999897
40
0.453124999999893
40
0.453124999999893
40
0.468749999999889
40
0.468749999999889
40
0.484374999999885
40
0.484374999999885
40
0.492187499999883
40
0.492187499999883
40
0.496093749999883
40
0.496093749999883
40
0.499999999999883
40
0.499999999999883
40
0.507812499999888
40
0.507812499999888
40
0.511718749999891
40
0.511718749999891
40
0.515624999999893
40
0.515624999999893
40
0.523437499999897
40
0.523437499999897
40
0.531249999999901
40
0.531249999999901
40
0.539062499999905
40
0.539062499999905
40
0.54687499999991
40
0.54687499999991
40
0.562499999999912
40
0.562499999999912
40
0.578124999999915
40
0.578124999999915
40
0.593749999999918
40
0.593749999999918
40
0.624999999999924
40
0.624999999999924
40
0.656249999999931
40
0.656249999999931
40
0.687499999999937
40
0.687499999999937
40
0.74999999999995
40
0.74999999999995
40
0.812499999999963
40
0.812499999999963
40
0.874999999999975
40
0.874999999999975
40
1
40
1
40
1
40
1
41
1
10
-48.9697166806892
20
31.0518395799779
30
0
41
1
10
-48.9785930171012
20
30.9827666931837
30
0
41
1
10
-48.9898013946799
20
30.9116838812296
30
0
41
1
10
-49.010970746391
20
30.801728881565
30
0
41
1
10
-49.0187600784454
20
30.76450750334
30
0
41
1
10
-49.0360979042102
20
30.6886972475775
30
0
41
1
10
-49.0456412109662
20
30.6501124021635
30
0
41
1
10
-49.0669842456738
20
30.5711886630805
30
0
41
1
10
-49.0787823554537
20
30.5308288316398
30
0
41
1
10
-49.0987807186822
20
30.468755773989
30
0
41
1
10
-49.1058367731061
20
30.4477965169348
30
0
41
1
10
-49.120940239487
20
30.4051960411473
30
0
41
1
10
-49.1289839414118
20
30.3835573745707
30
0
41
1
10
-49.1464161598916
20
30.3393549341652
30
0
41
1
10
-49.1557915613357
20
30.3168123044037
30
0
41
1
10
-49.1712542660582
20
30.2822073879468
30
0
41
1
10
-49.1766471023967
20
30.2705321424927
30
0
41
1
10
-49.1880532434731
20
30.246816879459
30
0
41
1
10
-49.1940597200795
20
30.2347910097152
30
0
41
1
10
-49.206802147264
20
30.210463075518
30
0
41
1
10
-49.2135433509849
20
30.1981428720512
30
0
41
1
10
-49.2281075980202
20
30.173045634851
30
0
41
1
10
-49.2359160105215
20
30.1602747792963
30
0
41
1
10
-49.2533322974318
20
30.1339732063109
30
0
41
1
10
-49.262708398457
20
30.1207741623827
30
0
41
1
10
-49.2784969686657
20
30.1009697522192
30
0
41
1
10
-49.2840339729321
20
30.0944024637513
30
0
41
1
10
-49.2925946962344
20
30.0849475215286
30
0
41
1
10
-49.2955014637151
20
30.0818488030469
30
0
41
1
10
-49.3014361731391
20
30.0757719388758
30
0
41
1
10
-49.3044657180066
20
30.0727949345412
30
0
41
1
10
-49.313468788581
20
30.0643340487117
30
0
41
1
10
-49.3194469454136
20
30.0592250680205
30
0
41
1
10
-49.3283778259734
20
30.0523705687563
30
0
41
1
10
-49.3313357680737
20
30.0502326266784
30
0
41
1
10
-49.337073906878
20
30.0463292146682
30
0
41
1
10
-49.3398758296209
20
30.0445467352402
30
0
41
1
10
-49.3481015269572
20
30.0396531211837
30
0
41
1
10
-49.3533520880974
20
30.0369994700209
30
0
41
1
10
-49.3631210109243
20
30.0327937630131
30
0
41
1
10
-49.3676993612993
20
30.0312048005844
30
0
41
1
10
-49.3764011833092
20
30.0287905140654
30
0
41
1
10
-49.3805378391983
20
30.027967429531
30
0
41
1
10
-49.3883082638221
20
30.0269340203178
30
0
41
1
10
-49.3919628304064
20
30.0267166683029
30
0
41
1
10
-49.4024036858999
20
30.0267432061596
30
0
41
1
10
-49.4086755467698
20
30.0276547666116
30
0
41
1
10
-49.420330380932
20
30.0306315650748
30
0
41
1
10
-49.4257129893117
20
30.0327093730988
30
0
41
1
10
-49.4358013464841
20
30.0376918006764
30
0
41
1
10
-49.4404740786221
20
30.040580940088
30
0
41
1
10
-49.4536778614137
20
30.0501208287682
30
0
41
1
10
-49.4614087761094
20
30.0576287530105
30
0
41
1
10
-49.4755392658972
20
30.0740708478453
30
0
41
1
10
-49.4819254036185
20
30.083019413714
30
0
41
1
10
-49.4937409641775
20
30.1019414613385
30
0
41
1
10
-49.4991661019387
20
30.1119195336397
30
0
41
1
10
-49.5143429423717
20
30.1430306369774
30
0
41
1
10
-49.5230220224296
20
30.1653523999026
30
0
41
1
10
-49.5384223292373
20
30.2118316987656
30
0
41
1
10
-49.5451375152842
20
30.2360129904058
30
0
41
1
10
-49.5571465436213
20
30.285734397677
30
0
41
1
10
-49.5624346294612
20
30.3112800165527
30
0
41
1
10
-49.5766234575257
20
30.3895186065591
30
0
41
1
10
-49.5838746389943
20
30.4437885802401
30
0
41
1
10
-49.5895655549791
20
30.4995501889749
30
0
0
SPLINE
5
186
100
AcDbEntity
8
SK1
62
256
6
ByLayer
370
18
48
1
60
0
100
AcDbSpline
70
4
71
3
72
34
73
30
40
0
40
0
40
0
40
0
40
0.03125
40
0.03125
40
0.0625
40
0.0625
40
0.125000000000001
40
0.125000000000001
40
0.187500000000001
40
0.187500000000001
40
0.250000000000002
40
0.250000000000002
40
0.312500000000002
40
0.312500000000002
40
0.343750000000002
40
0.343750000000002
40
0.375000000000002
40
0.375000000000002
40
0.500000000000002
40
0.500000000000002
40
0.625000000000002
40
0.625000000000002
40
0.750000000000001
40
0.750000000000001
40
0.875000000000001
40
0.875000000000001
40
0.937500000000001
40
0.937500000000001
40
1
40
1
40
1
40
1
41
1
10
-49.5895655549782
20
30.4995501889756
30
0
41
1
10
-49.5906351317007
20
30.510030280207
30
0
41
1
10
-49.5921127560824
20
30.5199078429214
30
0
41
1
10
-49.5958301896483
20
30.5385033474052
30
0
41
1
10
-49.5980733242939
20
30.5472325987984
30
0
41
1
10
-49.6058113909971
20
30.5717014639753
30
0
41
1
10
-49.6122375394779
20
30.5855321487869
30
0
41
1
10
-49.6267759139587
20
30.609288989262
30
0
41
1
10
-49.634886687367
20
30.619215523265
30
0
41
1
10
-49.65210942919
20
30.6359601335406
30
0
41
1
10
-49.6612223440854
20
30.642776372556
30
0
41
1
10
-49.6799383635281
20
30.653855855274
30
0
41
1
10
-49.689542877774
20
30.6581170912418
30
0
41
1
10
-49.7040333535638
20
30.6628783121557
30
0
41
1
10
-49.7088808008064
20
30.6641925247824
30
0
41
1
10
-49.7185317603699
20
30.6663048905636
30
0
41
1
10
-49.7233395104552
20
30.6671046788121
30
0
41
1
10
-49.747211496648
20
30.6699145816138
30
0
41
1
10
-49.7657469243847
20
30.6684012656593
30
0
41
1
10
-49.8002576291982
20
30.659373379087
30
0
41
1
10
-49.8162471080165
20
30.6518383513143
30
0
41
1
10
-49.8447041144178
20
30.6315404010519
30
0
41
1
10
-49.8571777745759
20
30.6187686284921
30
0
41
1
10
-49.8777805829282
20
30.5885037368819
30
0
41
1
10
-49.8859126594732
20
30.57100594764
30
0
41
1
10
-49.8942491836921
20
30.5415330190178
30
0
41
1
10
-49.8963843388715
20
30.5311706963509
30
0
41
1
10
-49.8992629101628
20
30.5094241876666
30
0
41
1
10
-49.9000000000001
20
30.4980716034621
30
0
41
1
10
-49.9000000000001
20
30.486325550098
30
0
0
SPLINE
5
187
100
AcDbEntity
8
SK1
62
256
6
ByLayer
370
18
48
1
60
0
100
AcDbSpline
70
4
71
3
72
34
73
30
40
0
40
0
40
0
40
0
40
0.0312500000000007
40
0.0312500000000007
40
0.0625000000000014
40
0.0625000000000014
40
0.125000000000003
40
0.125000000000003
40
0.187500000000005
40
0.187500000000005
40
0.250000000000007
40
0.250000000000007
40
0.312500000000009
40
0.312500000000009
40
0.343750000000007
40
0.343750000000007
40
0.375000000000005
40
0.375000000000005
40
0.500000000000004
40
0.500000000000004
40
0.625000000000003
40
0.625000000000003
40
0.750000000000001
40
0.750000000000001
40
0.875
40
0.875
40
0.9375
40
0.9375
40
1
40
1
40
1
40
1
41
1
10
-49.5895655549782
20
-30.4995501889757
30
0
41
1
10
-49.590635128866
20
-30.5100302524322
30
0
41
1
10
-49.5921127463331
20
-30.5199077725872
30
0
41
1
10
-49.5958301509183
20
-30.5385031752347
30
0
41
1
10
-49.5980732281669
20
-30.5472322605517
30
0
41
1
10
-49.6058113389978
20
-30.5717013681046
30
0
41
1
10
-49.6122375259955
20
-30.5855321316441
30
0
41
1
10
-49.6267759592584
20
-30.6092890583971
30
0
41
1
10
-49.6348867534571
20
-30.6192155991345
30
0
41
1
10
-49.6521095088273
20
-30.635960199353
30
0
41
1
10
-49.6612224168293
20
-30.6427764210179
30
0
41
1
10
-49.6799383965105
20
-30.6538558694
30
0
41
1
10
-49.6895428780525
20
-30.6581170880887
30
0
41
1
10
-49.7040332900463
20
-30.662878292908
30
0
41
1
10
-49.7088807488955
20
-30.6641925125833
30
0
41
1
10
-49.7185317643562
20
-30.6663048922734
30
0
41
1
10
-49.7233395403919
20
-30.6671046840937
30
0
41
1
10
-49.7472116456447
20
-30.6699145921211
30
0
41
1
10
-49.7657471332943
20
-30.66840124174
30
0
41
1
10
-49.8002578924657
20
-30.6593732794862
30
0
41
1
10
-49.8162473661745
20
-30.6518382094738
30
0
41
1
10
-49.8447043216352
20
-30.6315402109467
30
0
41
1
10
-49.8571779360089
20
-30.6187684321095
30
0
41
1
10
-49.877780648273
20
-30.5885036001347
30
0
41
1
10
-49.8859126744471
20
-30.5710058767978
30
0
41
1
10
-49.8942491563155
20
-30.5415331247567
30
0
41
1
10
-49.8963843030189
20
-30.5311708738666
30
0
41
1
10
-49.8992628761555
20
-30.5094245379123
30
0
41
1
10
-49.9
20
-30.4980717145813
30
0
41
1
10
-49.9
20
-30.4863255500981
30
0
0
SPLINE
5
188
100
AcDbEntity
8
SK1
62
256
6
ByLayer
370
18
48
1
60
0
100
AcDbSpline
70
4
71
3
72
70
73
66
40
0
40
0
40
0
40
0
40
0.124999999999989
40
0.124999999999989
40
0.187499999999985
40
0.187499999999985
40
0.24999999999998
40
0.24999999999998
40
0.312499999999976
40
0.312499999999976
40
0.343749999999974
40
0.343749999999974
40
0.374999999999972
40
0.374999999999972
40
0.40624999999997
40
0.40624999999997
40
0.421874999999969
40
0.421874999999969
40
0.437499999999968
40
0.437499999999968
40
0.453124999999967
40
0.453124999999967
40
0.468749999999966
40
0.468749999999966
40
0.484374999999965
40
0.484374999999965
40
0.492187499999961
40
0.492187499999961
40
0.49609374999996
40
0.49609374999996
40
0.499999999999958
40
0.499999999999958
40
0.507812499999952
40
0.507812499999952
40
0.511718749999952
40
0.511718749999952
40
0.515624999999952
40
0.515624999999952
40
0.523437499999952
40
0.523437499999952
40
0.531249999999953
40
0.531249999999953
40
0.539062499999953
40
0.539062499999953
40
0.546874999999953
40
0.546874999999953
40
0.562499999999954
40
0.562499999999954
40
0.578124999999955
40
0.578124999999955
40
0.593749999999956
40
0.593749999999956
40
0.624999999999958
40
0.624999999999958
40
0.656249999999961
40
0.656249999999961
40
0.687499999999963
40
0.687499999999963
40
0.749999999999971
40
0.749999999999971
40
0.812499999999978
40
0.812499999999978
40
0.874999999999986
40
0.874999999999986
40
1
40
1
40
1
40
1
41
1
10
-48.9697166806892
20
-31.051839579978
30
0
41
1
10
-48.9785920072054
20
-30.9827745518778
30
0
41
1
10
-48.9897988429113
20
-30.9117001184866
30
0
41
1
10
-49.0109647633667
20
-30.8017584669498
30
0
41
1
10
-49.018752765391
20
-30.7645416601613
30
0
41
1
10
-49.0360874261683
20
-30.6887408851895
30
0
41
1
10
-49.0456289023846
20
-30.6501609458562
30
0
41
1
10
-49.0669675034832
20
-30.5712475494472
30
0
41
1
10
-49.0787629361652
20
-30.5308934418214
30
0
41
1
10
-49.0987562930165
20
-30.4688294272677
30
0
41
1
10
-49.1058105146937
20
-30.4478732539891
30
0
41
1
10
-49.1209098209548
20
-30.4052791757413
30
0
41
1
10
-49.1289512012184
20
-30.3836438194118
30
0
41
1
10
-49.1463779452356
20
-30.3394484216825
30
0
41
1
10
-49.1557499117386
20
-30.3169102508101
30
0
41
1
10
-49.1712062282391
20
-30.2823125423261
30
0
41
1
10
-49.1765967098923
20
-30.270639828982
30
0
41
1
10
-49.187997429399
20
-30.2469300411002
30
0
41
1
10
-49.1940016588574
20
-30.2349054963983
30
0
41
1
10
-49.2067373070769
20
-30.2105832680141
30
0
41
1
10
-49.2134742645568
20
-30.1982668746687
30
0
41
1
10
-49.2280264993186
20
-30.1731804834021
30
0
41
1
10
-49.2358273164295
20
-30.1604165682773
30
0
41
1
10
-49.2532197444649
20
-30.1341354250804
30
0
41
1
10
-49.2626054593647
20
-30.1209142770372
30
0
41
1
10
-49.278375252735
20
-30.1011170203335
30
0
41
1
10
-49.2839152326934
20
-30.0945400212559
30
0
41
1
10
-49.2924720071773
20
-30.0850799204047
30
0
41
1
10
-49.295376635661
20
-30.0819802199017
30
0
41
1
10
-49.3013049674433
20
-30.07590284072
30
0
41
1
10
-49.3043370960416
20
-30.0729194623555
30
0
41
1
10
-49.3133471331076
20
-30.0644412999453
30
0
41
1
10
-49.319326158545
20
-30.0593250574942
30
0
41
1
10
-49.3282527570283
20
-30.0524630297553
30
0
41
1
10
-49.3312153507712
20
-30.0503179942726
30
0
41
1
10
-49.3369592386173
20
-30.0464039042838
30
0
41
1
10
-49.3397632724002
20
-30.0446168883957
30
0
41
1
10
-49.3479935042783
20
-30.0397111939901
30
0
41
1
10
-49.353250201828
20
-30.0370484824603
30
0
41
1
10
-49.363029831547
20
-30.0328279696566
30
0
41
1
10
-49.3676116126621
20
-30.0312334148453
30
0
41
1
10
-49.3763182059843
20
-30.0288093499522
30
0
41
1
10
-49.3804580471837
20
-30.0279815778646
30
0
41
1
10
-49.3882378147308
20
-30.0269399205925
30
0
41
1
10
-49.3918959362056
20
-30.0267193374018
30
0
41
1
10
-49.4023455028561
20
-30.0267374574299
30
0
41
1
10
-49.4086206278607
20
-30.0276450476097
30
0
41
1
10
-49.4202799499303
20
-30.0306144150719
30
0
41
1
10
-49.4256604855126
20
-30.0326871954358
30
0
41
1
10
-49.4357579429469
20
-30.0376666472005
30
0
41
1
10
-49.4404341462281
20
-30.0405548764118
30
0
41
1
10
-49.4536465627312
20
-30.0500926742598
30
0
41
1
10
-49.4613809145856
20
-30.0576000217039
30
0
41
1
10
-49.4755165521725
20
-30.0740407434774
30
0
41
1
10
-49.4819043194364
20
-30.0829885789797
30
0
41
1
10
-49.4937222729306
20
-30.1019086074983
30
0
41
1
10
-49.4991481547125
20
-30.1118854051319
30
0
41
1
10
-49.514326543323
20
-30.1429917109392
30
0
41
1
10
-49.5230060395861
20
-30.1653087850472
30
0
41
1
10
-49.5384114740619
20
-30.2117943224838
30
0
41
1
10
-49.5451285655854
20
-30.2359789659316
30
0
41
1
10
-49.5571407002954
20
-30.2857071777953
30
0
41
1
10
-49.5624299764209
20
-30.3112562572779
30
0
41
1
10
-49.5766217121048
20
-30.3895051882631
30
0
41
1
10
-49.5838739667782
20
-30.4437819936305
30
0
41
1
10
-49.589565554979
20
-30.499550188975
30
0
0
SPLINE
5
189
100
AcDbEntity
8
SK1
62
256
6
ByLayer
370
18
48
1
60
0
100
AcDbSpline
70
4
71
3
72
24
73
20
40
0
40
0
40
0
40
0
40
0.250000000000001
40
0.250000000000001
40
0.375000000000002
40
0.375000000000002
40
0.500000000000003
40
0.500000000000003
40
0.625000000000003
40
0.625000000000003
40
0.750000000000004
40
0.750000000000004
40
0.875000000000005
40
0.875000000000005
40
0.906250000000003
40
0.906250000000003
40
0.937500000000001
40
0.937500000000001
40
1
40
1
40
1
40
1
41
1
10
-48.25
20
-32.2214193285102
30
0
41
1
10
-48.3271926111222
20
-32.1386292038047
30
0
41
1
10
-48.4027254550249
20
-32.0509309488243
30
0
41
1
10
-48.5122536734003
20
-31.9125479314377
30
0
41
1
10
-48.5481266401182
20
-31.8652831022076
30
0
41
1
10
-48.618201788153
20
-31.7686438086852
30
0
41
1
10
-48.6524093294458
20
-31.7192662685852
30
0
41
1
10
-48.7185086625097
20
-31.6186890095605
30
0
41
1
10
-48.7504115090574
20
-31.5674830406985
30
0
41
1
10
-48.8107717948452
20
-31.4637946573968
30
0
41
1
10
-48.8392507208948
20
-31.4113006072307
30
0
41
1
10
-48.8906789766632
20
-31.3061007614429
30
0
41
1
10
-48.9136547790546
20
-31.2533832647303
30
0
41
1
10
-48.9365349150508
20
-31.1885898499224
30
0
41
1
10
-48.9408137478882
20
-31.1756889350705
30
0
41
1
10
-48.9486963493385
20
-31.150043413723
30
0
41
1
10
-48.9523012357624
20
-31.1372877467467
30
0
41
1
10
-48.961899115855
20
-31.0996482574302
30
0
41
1
10
-48.9667024377093
20
-31.0752954805269
30
0
41
1
10
-48.9697166806892
20
-31.051839579978
30
0
0
SPLINE
5
18A
100
AcDbEntity
8
SK1
62
256
6
ByLayer
370
18
48
1
60
0
100
AcDbSpline
70
4
71
3
72
8
73
4
40
0
40
0
40
0
40
0
40
1
40
1
40
1
40
1
41
1
10
-48.2500000000025
20
-32.2214193285102
30
0
41
1
10
-48.1701858378083
20
-32.2200218675636
30
0
41
1
10
-48.0872671766727
20
-32.2186394162916
30
0
41
1
10
-48.0000748840348
20
-32.2180191381092
30
0
0
SPLINE
5
18B
100
AcDbEntity
8
SK1
62
256
6
ByLayer
370
18
48
1
60
0
100
AcDbSpline
70
4
71
3
72
100
73
96
40
0
40
0
40
0
40
0
40
0.0238850525194
40
0.0238850525194
40
0.0551304571255741
40
0.0551304571255741
40
0.0707531594286611
40
0.0707531594286611
40
0.0785645105802045
40
0.0785645105802045
40
0.0863758617317481
40
0.0863758617317481
40
0.117621266337922
40
0.117621266337922
40
0.148866670944097
40
0.148866670944097
40
0.164489373247184
40
0.164489373247184
40
0.172300724398727
40
0.172300724398727
40
0.180112075550271
40
0.180112075550271
40
0.211357480156445
40
0.211357480156445
40
0.242602884762618
40
0.242602884762618
40
0.258225587065705
40
0.258225587065705
40
0.266036938217249
40
0.266036938217249
40
0.273848289368792
40
0.273848289368792
40
0.305093693974966
40
0.305093693974966
40
0.336339098581139
40
0.367584503187313
40
0.367584503187313
40
0.375395854338856
40
0.375395854338856
40
0.3832072054904
40
0.398829907793486
40
0.398829907793486
40
0.430075312399659
40
0.461320717005832
40
0.461320717005832
40
0.476943419308919
40
0.476943419308919
40
0.484754770460463
40
0.484754770460463
40
0.492566121612006
40
0.492566121612006
40
0.52381152621818
40
0.52381152621818
40
0.555056930824353
40
0.555056930824353
40
0.586302335430527
40
0.586302335430527
40
0.601925037733613
40
0.601925037733613
40
0.609736388885157
40
0.609736388885157
40
0.6175477400367
40
0.6175477400367
40
0.648793144642873
40
0.680038549249046
40
0.680038549249046
40
0.711283953855218
40
0.711283953855218
40
0.719095305006762
40
0.719095305006762
40
0.726906656158305
40
0.726906656158305
40
0.742529358461392
40
0.742529358461392
40
0.773774763067565
40
0.773774763067565
40
0.805020167673738
40
0.805020167673738
40
0.836265572279911
40
0.836265572279911
40
0.844076923431455
40
0.844076923431455
40
0.851888274582998
40
0.867510976886084
40
0.867510976886084
40
0.898756381492256
40
0.898756381492256
40
0.930001786098429
40
0.930001786098429
40
0.945624488401515
40
0.945624488401515
40
0.961247190704601
40
0.961247190704601
40
0.992492595310774
40
1
40
1
40
1
40
1
41
1
10
-7.81434279047369
20
37.6160019141483
30
0
41
1
10
-7.81433142518931
20
37.6160035620378
30
0
41
1
10
-7.82145237146943
20
37.6145614737597
30
0
41
1
10
-7.85398639016557
20
37.6079890454921
30
0
41
1
10
-7.88436169025053
20
37.6018587592899
30
0
41
1
10
-7.9478626297211
20
37.5891496233603
30
0
41
1
10
-7.97202496076235
20
37.584327300096
30
0
41
1
10
-8.01281842288566
20
37.5762238920478
30
0
41
1
10
-8.02719804135737
20
37.5733731876624
30
0
41
1
10
-8.05736797740434
20
37.5674069302578
30
0
41
1
10
-8.07314358608417
20
37.5642942690055
30
0
41
1
10
-8.15541671604804
20
37.5481048669995
30
0
41
1
10
-8.23207017172504
20
37.5331528904395
30
0
41
1
10
-8.40605338627101
20
37.4997459648323
30
0
41
1
10
-8.50338630322294
20
37.4812899916831
30
0
41
1
10
-8.66466593997006
20
37.4513060997541
30
0
41
1
10
-8.72097755367534
20
37.4409277790794
30
0
41
1
10
-8.80928859004135
20
37.424823312953
30
0
41
1
10
-8.83940017626215
20
37.4193596305243
30
0
41
1
10
-8.90059668695476
20
37.4083161368078
30
0
41
1
10
-8.93170940381957
20
37.4027311980643
30
0
41
1
10
-9.08980160651234
20
37.3745138275953
30
0
41
1
10
-9.22434516049198
20
37.3510060707369
30
0
41
1
10
-9.50882133136049
20
37.3026700550151
30
0
41
1
10
-9.65875653237987
20
37.2778407127451
30
0
41
1
10
-9.89502074972738
20
37.2399778514852
30
0
41
1
10
-9.97567274087328
20
37.2272534703191
30
0
41
1
10
-10.0995062223642
20
37.2080566596274
30
0
41
1
10
-10.141267832343
20
37.2016381782455
30
0
41
1
10
-10.2257164832329
20
37.1887766252454
30
0
41
1
10
-10.268263380102
20
37.1823548873661
30
0
41
1
10
-10.4825863455032
20
37.1503091954741
30
0
41
1
10
-10.6591151028225
20
37.1248758638604
30
0
41
1
10
-11.0219043219779
20
37.0748416966607
30
0
41
1
10
-11.3944280795168
20
37.0256391598448
30
0
41
1
10
-11.7861963197059
20
36.9788917937938
30
0
41
1
10
-12.0371658958116
20
36.9506844708766
30
0
41
1
10
-12.0877271193422
20
36.9450869320612
30
0
41
1
10
-12.1890952403971
20
36.9340392369721
30
0
41
1
10
-12.3415246943459
20
36.9176869799982
30
0
41
1
10
-12.495072902259
20
36.9020073941175
30
0
41
1
10
-12.8036374861119
20
36.8715829912882
30
0
41
1
10
-13.2189658117113
20
36.833510598003
30
0
41
1
10
-13.642018801178
20
36.8008098290912
30
0
41
1
10
-13.9622438041629
20
36.7784385960326
30
0
41
1
10
-14.0694754356938
20
36.7713405480661
30
0
41
1
10
-14.2310696927793
20
36.761249480338
30
0
41
1
10
-14.2850589639675
20
36.7579784591991
30
0
41
1
10
-14.3932891502435
20
36.7516246805944
30
0
41
1
10
-14.4475729623614
20
36.7485397853308
30
0
41
1
10
-14.7183259174543
20
36.7336627263858
30
0
41
1
10
-14.9337134652921
20
36.7234563940047
30
0
41
1
10
-15.3621199571432
20
36.7063373984835
30
0
41
1
10
-15.5751387632466
20
36.6994248914492
30
0
41
1
10
-15.9988028791435
20
36.6887973896278
30
0
41
1
10
-16.2094483431879
20
36.6850825376171
30
0
41
1
10
-16.523583770087
20
36.6818333037753
30
0
41
1
10
-16.6279895922839
20
36.6811373560974
30
0
41
1
10
-16.7841276018174
20
36.6806641778682
30
0
41
1
10
-16.8361578298839
20
36.6806016501545
30
0
41
1
10
-16.939740627904
20
36.6806647564302
30
0
41
1
10
-16.9912457215227
20
36.6807900862659
30
0
41
1
10
-17.2473507007046
20
36.6818701855072
30
0
41
1
10
-17.6480469082921
20
36.6864983624037
30
0
41
1
10
-18.0308478261488
20
36.6961681828052
30
0
41
1
10
-18.4045781572909
20
36.7079892290944
30
0
41
1
10
-18.586909326751
20
36.7149758964626
30
0
41
1
10
-18.8089119312429
20
36.7248201453047
30
0
41
1
10
-18.8530161673033
20
36.7268445060811
30
0
41
1
10
-18.9406229554332
20
36.7309982170252
30
0
41
1
10
-18.9841526281097
20
36.7331289394498
30
0
41
1
10
-19.1136492728623
20
36.7396605784225
30
0
41
1
10
-19.1980051024613
20
36.7441742643364
30
0
41
1
10
-19.4452185588362
20
36.7580919956344
30
0
41
1
10
-19.6022364149495
20
36.7678719858305
30
0
41
1
10
-19.9007220590616
20
36.7879222101687
30
0
41
1
10
-20.0421909145451
20
36.7981932526885
30
0
41
1
10
-20.309140922944
20
36.8187283621882
30
0
41
1
10
-20.4346258242081
20
36.8289932916957
30
0
41
1
10
-20.5808803797061
20
36.8415026446233
30
0
41
1
10
-20.609629024321
20
36.8439909982552
30
0
41
1
10
-20.6657008478369
20
36.8488969874556
30
0
41
1
10
-20.7477877772849
20
36.8561600354919
30
0
41
1
10
-20.8238605098264
20
36.8631042785771
30
0
41
1
10
-20.9680482129712
20
36.8764897079226
30
0
41
1
10
-21.0535834604935
20
36.8847417938078
30
0
41
1
10
-21.2033054236258
20
36.8995133540455
30
0
41
1
10
-21.2674946623101
20
36.9060334534641
30
0
41
1
10
-21.3471276490649
20
36.9142365164306
30
0
41
1
10
-21.3708912689803
20
36.9167081068455
30
0
41
1
10
-21.4126754407559
20
36.9210795741509
30
0
41
1
10
-21.4304990313832
20
36.9229587401183
30
0
41
1
10
-21.4748674579968
20
36.9276541815562
30
0
41
1
10
-21.4965761826271
20
36.9299821186569
30
0
41
1
10
-21.5000226996934
20
36.9303498520218
30
0
41
1
10
-21.5000026482175
20
36.9303474863188
30
0
0
SPLINE
5
18C
100
AcDbEntity
8
SK1
62
256
6
ByLayer
370
18
48
1
60
0
100
AcDbSpline
70
4
71
3
72
104
73
100
40
0
40
0
40
0
40
0
40
0.0214337222298863
40
0.0214337222298863
40
0.0292414722123002
40
0.0292414722123002
40
0.037049222194714
40
0.037049222194714
40
0.0526647221595418
40
0.0526647221595418
40
0.0838957220891971
40
0.0838957220891971
40
0.115126722018852
40
0.115126722018852
40
0.122934472001266
40
0.122934472001266
40
0.13074222198368
40
0.13074222198368
40
0.146357721948507
40
0.146357721948507
40
0.177588721878163
40
0.177588721878163
40
0.208819721807818
40
0.208819721807818
40
0.224435221772645
40
0.224435221772645
40
0.232242971755059
40
0.232242971755059
40
0.240050721737473
40
0.240050721737473
40
0.271281721667128
40
0.271281721667128
40
0.302512721596784
40
0.302512721596784
40
0.318128221561612
40
0.318128221561612
40
0.325935971544025
40
0.325935971544025
40
0.333743721526439
40
0.333743721526439
40
0.364974721456094
40
0.364974721456094
40
0.396205721385749
40
0.427436721315404
40
0.427436721315404
40
0.435244471297817
40
0.435244471297817
40
0.443052221280231
40
0.443052221280231
40
0.458667721245058
40
0.458667721245058
40
0.489898721174713
40
0.521129721104368
40
0.521129721104368
40
0.552360721034022
40
0.552360721034022
40
0.56797622099885
40
0.56797622099885
40
0.583591720963677
40
0.583591720963677
40
0.614822720893332
40
0.614822720893332
40
0.646053720822986
40
0.646053720822986
40
0.661669220787813
40
0.661669220787813
40
0.669476970770227
40
0.669476970770227
40
0.67728472075264
40
0.67728472075264
40
0.708515720682294
40
0.739746720611947
40
0.739746720611947
40
0.770977720541601
40
0.770977720541601
40
0.786593220506427
40
0.786593220506427
40
0.79440097048884
40
0.79440097048884
40
0.802208720471253
40
0.802208720471253
40
0.833439720400907
40
0.833439720400907
40
0.864670720330561
40
0.864670720330561
40
0.895901720260215
40
0.895901720260215
40
0.903709470242628
40
0.903709470242628
40
0.911517220225042
40
0.927132720189869
40
0.927132720189869
40
0.958363720119523
40
0.958363720119523
40
0.989594720049177
40
0.989594720049177
40
0.997402470031591
40
0.997402470031591
40
1
40
1
40
1
40
1
41
1
10
-21.5000041349303
20
-36.9303474624734
30
0
41
1
10
-21.4999608402208
20
-36.9303422898894
30
0
41
1
10
-21.4943058124166
20
-36.9297369700673
30
0
41
1
10
-21.4788146901815
20
-36.9280844022563
30
0
41
1
10
-21.4739201863398
20
-36.9275628229828
30
0
41
1
10
-21.4625984188041
20
-36.9263587882752
30
0
41
1
10
-21.456159678233
20
-36.9256751175436
30
0
41
1
10
-21.4346038918093
20
-36.9233921087882
30
0
41
1
10
-21.4172853236873
20
-36.9215646027249
30
0
41
1
10
-21.3567175465797
20
-36.9152207223246
30
0
41
1
10
-21.3048787016907
20
-36.9098423275229
30
0
41
1
10
-21.1789309579673
20
-36.8970925582696
30
0
41
1
10
-21.1048206678252
20
-36.8897206477529
30
0
41
1
10
-20.9982266626119
20
-36.8794674924612
30
0
41
1
10
-20.9762083560189
20
-36.877365038639
30
0
41
1
10
-20.9307649649809
20
-36.8730620891702
30
0
41
1
10
-20.9073116441753
20
-36.8708589697204
30
0
41
1
10
-20.8350267778472
20
-36.8641299500312
30
0
41
1
10
-20.7844346280646
20
-36.8594994391821
30
0
41
1
10
-20.6256720613504
20
-36.8452686128388
30
0
41
1
10
-20.5105338999628
20
-36.8353289800472
30
0
41
1
10
-20.2623510498034
20
-36.8150389241277
30
0
41
1
10
-20.1293043334719
20
-36.8046876711257
30
0
41
1
10
-19.91638920189
20
-36.7892298094071
30
0
41
1
10
-19.8431890827454
20
-36.7840888488859
30
0
41
1
10
-19.730018892489
20
-36.7764444530324
30
0
41
1
10
-19.6918185387117
20
-36.7739133512502
30
0
41
1
10
-19.6146633567857
20
-36.7689052849555
30
0
41
1
10
-19.5756796286263
20
-36.7664263623772
30
0
41
1
10
-19.3787599051635
20
-36.7541757720302
30
0
41
1
10
-19.2148365238776
20
-36.744836639178
30
0
41
1
10
-18.8747060959729
20
-36.7275433503458
30
0
41
1
10
-18.6984974556378
20
-36.7195884919542
30
0
41
1
10
-18.4250584232746
20
-36.7090407437918
30
0
41
1
10
-18.3323883185654
20
-36.7057556503408
30
0
41
1
10
-18.191084045122
20
-36.7012188650766
30
0
41
1
10
-18.1435992640363
20
-36.6997717581898
30
0
41
1
10
-18.0478586633436
20
-36.6970154697969
30
0
41
1
10
-17.999653619819
20
-36.6957079602148
30
0
41
1
10
-17.7578685588756
20
-36.6895608632595
30
0
41
1
10
-17.5611877471659
20
-36.6858688417225
30
0
41
1
10
-17.1615918134346
20
-36.6812078751488
30
0
41
1
10
-16.7557600995883
20
-36.6792706883382
30
0
41
1
10
-16.337639291229
20
-36.6833084047731
30
0
41
1
10
-16.0724270604448
20
-36.6878676419242
30
0
41
1
10
-16.0191898703303
20
-36.6888812978831
30
0
41
1
10
-15.9123231813235
20
-36.6911165651665
30
0
41
1
10
-15.8587245631855
20
-36.6923378179717
30
0
41
1
10
-15.6981171897024
20
-36.6962984120905
30
0
41
1
10
-15.5910468347989
20
-36.6993396267423
30
0
41
1
10
-15.2698405249356
20
-36.7096640573479
30
0
41
1
10
-14.8415784063018
20
-36.7266323994577
30
0
41
1
10
-14.4133472399135
20
-36.7499812987965
30
0
41
1
10
-13.9851301278561
20
-36.77650436602
30
0
41
1
10
-13.77102861071
20
-36.7913529689849
30
0
41
1
10
-13.4498827823393
20
-36.8159916819972
30
0
41
1
10
-13.3435218403948
20
-36.8245465128171
30
0
41
1
10
-13.1324691999272
20
-36.8422802842674
30
0
41
1
10
-13.0277242446182
20
-36.8514633165786
30
0
41
1
10
-12.7158020909691
20
-36.8799092160374
30
0
41
1
10
-12.5109326313958
20
-36.9000690563235
30
0
41
1
10
-12.1073058848507
20
-36.9425045735183
30
0
41
1
10
-11.9085482732514
20
-36.9647806292254
30
0
41
1
10
-11.6150846181188
20
-36.9995676956445
30
0
41
1
10
-11.5180434948078
20
-37.0113921032897
30
0
41
1
10
-11.3736757629307
20
-37.0294435408716
30
0
41
1
10
-11.3257522711256
20
-37.0355131453339
30
0
41
1
10
-11.2303086104432
20
-37.047752391391
30
0
41
1
10
-11.1827930088945
20
-37.0539217032554
30
0
41
1
10
-10.947483899805
20
-37.0848401707009
30
0
41
1
10
-10.5834454180355
20
-37.1350219327149
30
0
41
1
10
-10.2439178705042
20
-37.1857536590411
30
0
41
1
10
-9.91680582136412
20
-37.2363058560044
30
0
41
1
10
-9.7594556403358
20
-37.261493092313
30
0
41
1
10
-9.53315123438242
20
-37.2987717627024
30
0
41
1
10
-9.45933976558801
20
-37.3111139183836
30
0
41
1
10
-9.35114147531012
20
-37.3294504599706
30
0
41
1
10
-9.31544598229635
20
-37.3355417155964
30
0
41
1
10
-9.24528651889085
20
-37.3475917734859
30
0
41
1
10
-9.21079474785212
20
-37.3535551599553
30
0
41
1
10
-9.04126021025348
20
-37.3830467128493
30
0
41
1
10
-8.91496798581709
20
-37.4055997258587
30
0
41
1
10
-8.68102049697195
20
-37.4481731269532
30
0
41
1
10
-8.57336408604834
20
-37.4681944204207
30
0
41
1
10
-8.37723597964056
20
-37.5052140736219
30
0
41
1
10
-8.28875977321565
20
-37.5222136809379
30
0
41
1
10
-8.19090987217122
20
-37.5412230011621
30
0
41
1
10
-8.17197900693107
20
-37.5449126248416
30
0
41
1
10
-8.13542173547236
20
-37.5520576280708
30
0
41
1
10
-8.0828343665674
20
-37.5623670168447
30
0
41
1
10
-8.03692789472021
20
-37.5714414484335
30
0
41
1
10
-7.95392293194833
20
-37.5879127414501
30
0
41
1
10
-7.91030798153002
20
-37.5966581461133
30
0
41
1
10
-7.84653768425606
20
-37.6094845934289
30
0
41
1
10
-7.82638053715206
20
-37.6135660976588
30
0
41
1
10
-7.81631631923312
20
-37.6156028036189
30
0
41
1
10
-7.81506199719574
20
-37.6158567492838
30
0
41
1
10
-7.81441441392134
20
-37.6159878513069
30
0
41
1
10
-7.81433786356548
20
-37.616003347548
30
0
41
1
10
-7.81434678557274
20
-37.6160015403457
30
0
0
SPLINE
5
18D
100
AcDbEntity
8
SK1
62
256
6
ByLayer
370
18
48
1
60
0
100
AcDbSpline
70
4
71
3
72
54
73
50
40
0
40
0
40
0
40
0
40
0.0312500000000012
40
0.0312500000000012
40
0.0625000000000024
40
0.0625000000000024
40
0.125000000000004
40
0.125000000000004
40
0.250000000000007
40
0.250000000000007
40
0.375000000000011
40
0.375000000000011
40
0.40625000000001
40
0.40625000000001
40
0.43750000000001
40
0.500000000000011
40
0.500000000000011
40
0.625000000000015
40
0.625000000000015
40
0.687500000000016
40
0.687500000000016
40
0.750000000000017
40
0.750000000000017
40
0.781250000000016
40
0.781250000000016
40
0.812500000000016
40
0.812500000000016
40
0.843750000000015
40
0.843750000000015
40
0.875000000000014
40
0.875000000000014
40
0.906250000000014
40
0.906250000000014
40
0.914062500000012
40
0.914062500000012
40
0.921875000000011
40
0.921875000000011
40
0.93750000000001
40
0.93750000000001
40
0.945312500000009
40
0.945312500000009
40
0.953125000000007
40
0.953125000000007
40
0.968750000000005
40
0.976562500000003
40
0.976562500000003
40
0.984375000000002
40
0.984375000000002
40
1
40
1
40
1
40
1
41
1
10
-39.8
20
33.7318671810039
30
0
41
1
10
-39.7999999999999
20
33.7145710701311
30
0
41
1
10
-39.8008000946281
20
33.6971565007765
30
0
41
1
10
-39.8039168623025
20
33.662196221347
30
0
41
1
10
-39.8062335132834
20
33.6446342134734
30
0
41
1
10
-39.8153484367684
20
33.5917053852178
30
0
41
1
10
-39.8243080567448
20
33.5560957915865
30
0
41
1
10
-39.8591124485095
20
33.4483170327042
30
0
41
1
10
-39.8928472522366
20
33.3751982231631
30
0
41
1
10
-39.9786760357966
20
33.2265304775473
30
0
41
1
10
-40.0307804205494
20
33.1509812446763
30
0
41
1
10
-40.1063660693582
20
33.0550850028676
30
0
41
1
10
-40.1219937947638
20
33.035852199307
30
0
41
1
10
-40.1541498540921
20
32.9973928162118
30
0
41
1
10
-40.2037751165397
20
32.9396636457768
30
0
41
1
10
-40.2574425199022
20
32.8818159360059
30
0
41
1
10
-40.3699446706122
20
32.7659816807454
30
0
41
1
10
-40.4517476783099
20
32.688560134193
30
0
41
1
10
-40.5849329745246
20
32.572369990688
30
0
41
1
10
-40.6310900751579
20
32.5336324584858
30
0
41
1
10
-40.7273802545145
20
32.456248481954
30
0
41
1
10
-40.7774939797117
20
32.4175986160054
30
0
41
1
10
-40.8564695396308
20
32.3598547383014
30
0
41
1
10
-40.88345848061
20
32.3406304247495
30
0
41
1
10
-40.9388920650189
20
32.3023874881927
30
0
41
1
10
-40.9672925131056
20
32.2833959934678
30
0
41
1
10
-41.0258361258168
20
32.245788614309
30
0
41
1
10
-41.0559730128129
20
32.2271708721062
30
0
41
1
10
-41.1186305548425
20
32.1905053329399
30
0
41
1
10
-41.1510308179744
20
32.1725200428503
30
0
41
1
10
-41.2188385127876
20
32.1377315395356
30
0
41
1
10
-41.2542332468957
20
32.1209048401273
30
0
41
1
10
-41.3015842990544
20
32.1011135781885
30
0
41
1
10
-41.3112139355684
20
32.097219144498
30
0
41
1
10
-41.3308439340923
20
32.0895800189203
30
0
41
1
10
-41.3408651858732
20
32.0858280947414
30
0
41
1
10
-41.3713588597964
20
32.0749170218882
30
0
41
1
10
-41.3922831904341
20
32.0680860715368
30
0
41
1
10
-41.4248486397641
20
32.0587260689411
30
0
41
1
10
-41.4359013558928
20
32.0557546283677
30
0
41
1
10
-41.4584661089438
20
32.0501584370334
30
0
41
1
10
-41.4700314002366
20
32.0475237786973
30
0
41
1
10
-41.5049753605481
20
32.0403392906634
30
0
41
1
10
-41.5405101097732
20
32.0345573260281
30
0
41
1
10
-41.5770691708597
20
32.031213916461
30
0
41
1
10
-41.6016844245104
20
32.0295626507329
30
0
41
1
10
-41.6141876951168
20
32.0290255903479
30
0
41
1
10
-41.6514384574835
20
32.0283362059759
30
0
41
1
10
-41.6758884507612
20
32.0290885535356
30
0
41
1
10
-41.7000000000014
20
32.0309069691633
30
0
0
SPLINE
5
18E
100
AcDbEntity
8
SK1
62
256
6
ByLayer
370
18
48
1
60
0
100
AcDbSpline
70
4
71
3
72
20
73
16
40
0
40
0
40
0
40
0
40
0.0624999999999996
40
0.0624999999999996
40
0.124999999999999
40
0.124999999999999
40
0.249999999999998
40
0.249999999999998
40
0.374999999999998
40
0.374999999999998
40
0.499999999999997
40
0.499999999999997
40
0.749999999999998
40
0.749999999999998
40
1
40
1
40
1
40
1
41
1
10
-41.7
20
32.0309069691676
30
0
41
1
10
-41.8292303865967
20
32.0406531099988
30
0
41
1
10
-41.9587402151836
20
32.0495880288662
30
0
41
1
10
-42.2181916807764
20
32.0662053277564
30
0
41
1
10
-42.3481340998353
20
32.0738854313833
30
0
41
1
10
-42.7384836861428
20
32.0954119185672
30
0
41
1
10
-42.9994066846656
20
32.1077633929635
30
0
41
1
10
-43.5222154791105
20
32.1296814395211
30
0
41
1
10
-43.7841056976777
20
32.1392351380778
30
0
41
1
10
-44.3086156108632
20
32.1562368503895
30
0
41
1
10
-44.5712371095368
20
32.1636796127771
30
0
41
1
10
-45.3599684301978
20
32.183511338927
30
0
41
1
10
-45.8869332192805
20
32.1934382596067
30
0
41
1
10
-46.9424227013034
20
32.2088227892335
30
0
41
1
10
-47.4709561074664
20
32.214255034391
30
0
41
1
10
-48.0000748840305
20
32.2180191381098
30
0
0
SPLINE
5
18F
100
AcDbEntity
8
SK1
62
256
6
ByLayer
370
18
48
1
60
0
100
AcDbSpline
70
4
71
3
72
48
73
44
40
0
40
0
40
0
40
0
40
0.0078124999999993
40
0.0078124999999993
40
0.0156249999999986
40
0.0156249999999986
40
0.0234374999999979
40
0.0234374999999979
40
0.0273437499999983
40
0.0273437499999983
40
0.0312499999999987
40
0.0312499999999987
40
0.0468749999999985
40
0.0468749999999985
40
0.0624999999999983
40
0.0624999999999983
40
0.0781249999999982
40
0.0781249999999982
40
0.093749999999998
40
0.093749999999998
40
0.124999999999999
40
0.124999999999999
40
0.156249999999999
40
0.156249999999999
40
0.1875
40
0.1875
40
0.25
40
0.25
40
0.312500000000001
40
0.312500000000001
40
0.375000000000002
40
0.375000000000002
40
0.437500000000002
40
0.437500000000002
40
0.500000000000003
40
0.500000000000003
40
0.625000000000002
40
0.625000000000002
40
0.750000000000001
40
0.750000000000001
40
0.875000000000001
40
0.875000000000001
40
1
40
1
40
1
40
1
41
1
10
-39.778558650078
20
-31.6931118380393
30
0
41
1
10
-39.7883868929647
20
-31.7025532223723
30
0
41
1
10
-39.7998706288389
20
-31.7112964132592
30
0
41
1
10
-39.8252016759508
20
-31.727785998335
30
0
41
1
10
-39.8390578213016
20
-31.7355286667195
30
0
41
1
10
-39.8685800443004
20
-31.750250722256
30
0
41
1
10
-39.8842499492025
20
-31.7572284952427
30
0
41
1
10
-39.9088364476932
20
-31.7672390262543
30
0
41
1
10
-39.9172164474952
20
-31.7704998116272
30
0
41
1
10
-39.9341558223724
20
-31.7768308195506
30
0
41
1
10
-39.9427338921214
20
-31.7799088406371
30
0
41
1
10
-39.9860999153235
20
-31.7949150039898
30
0
41
1
10
-40.0222836011686
20
-31.8057165804868
30
0
41
1
10
-40.0965785854911
20
-31.8257640107126
30
0
41
1
10
-40.1347044611034
20
-31.8349980967299
30
0
41
1
10
-40.2123544869192
20
-31.8523378844301
30
0
41
1
10
-40.2518838303321
20
-31.8604393937541
30
0
41
1
10
-40.3320141072488
20
-31.8757777665964
30
0
41
1
10
-40.3726666338483
20
-31.8830200024942
30
0
41
1
10
-40.4951266360556
20
-31.9035883692501
30
0
41
1
10
-40.5776697606834
20
-31.915826027001
30
0
41
1
10
-40.7439405062895
20
-31.9383679597266
30
0
41
1
10
-40.8276763429015
20
-31.9486588126606
30
0
41
1
10
-40.9960139224065
20
-31.9678276439839
30
0
41
1
10
-41.0806186654916
20
-31.9767007208723
30
0
41
1
10
-41.33543416251
20
-32.0016868475027
30
0
41
1
10
-41.5066306756243
20
-32.0161921309117
30
0
41
1
10
-41.8507484759028
20
-32.0423921766892
30
0
41
1
10
-42.0236820904267
20
-32.0540667991598
30
0
41
1
10
-42.3708095889411
20
-32.0753644737565
30
0
41
1
10
-42.5450843964524
20
-32.0849837750873
30
0
41
1
10
-42.8940811800661
20
-32.1026167213463
30
0
41
1
10
-43.0688393204492
20
-32.1106302325481
30
0
41
1
10
-43.4187678624608
20
-32.1253844913356
30
0
41
1
10
-43.5939388196759
20
-32.1321235129213
30
0
41
1
10
-44.1199599676554
20
-32.1507735448825
30
0
41
1
10
-44.4713128141199
20
-32.1611349844006
30
0
41
1
10
-45.1749837599867
20
-32.178891275667
30
0
41
1
10
-45.5273054366393
20
-32.1862750140274
30
0
41
1
10
-46.2326933029751
20
-32.1987617510054
30
0
41
1
10
-46.5857610311104
20
-32.2038599700751
30
0
41
1
10
-47.2924944621188
20
-32.2122309846564
30
0
41
1
10
-47.6461609228116
20
-32.2155014257993
30
0
41
1
10
-48.0000748840304
20
-32.2180191381099
30
0
0
SPLINE
5
190
100
AcDbEntity
8
SK1
62
256
6
ByLayer
370
18
48
1
60
0
100
AcDbSpline
70
4
71
3
72
30
73
26
40
0
40
0
40
0
40
0
40
0.125000000000001
40
0.125000000000001
40
0.250000000000002
40
0.250000000000002
40
0.375000000000003
40
0.375000000000003
40
0.500000000000003
40
0.500000000000003
40
0.625000000000004
40
0.625000000000004
40
0.750000000000005
40
0.750000000000005
40
0.812500000000004
40
0.812500000000004
40
0.875000000000002
40
0.875000000000002
40
0.937500000000001
40
0.937500000000001
40
0.968749999999999
40
0.968749999999999
40
0.984375
40
0.984375
40
1
40
1
40
1
40
1
41
1
10
-36.7000000000011
20
-30.5167400608155
30
0
41
1
10
-36.8506709106858
20
-30.5527315407427
30
0
41
1
10
-37.0000536735529
20
-30.5896420168468
30
0
41
1
10
-37.2957818766288
20
-30.6656298693689
30
0
41
1
10
-37.44212940243
20
-30.7047057578746
30
0
41
1
10
-37.7311755276813
20
-30.7854607682416
30
0
41
1
10
-37.8738777626771
20
-30.8271372964159
30
0
41
1
10
-38.1547862550161
20
-30.9136978932481
30
0
41
1
10
-38.2929993722038
20
-30.958577067925
30
0
41
1
10
-38.563697833774
20
-31.052421750569
30
0
41
1
10
-38.6962321779394
20
-31.1013909032134
30
0
41
1
10
-38.9535199055933
20
-31.2047247335559
30
0
41
1
10
-39.0766267398936
20
-31.258428756578
30
0
41
1
10
-39.2504780956698
20
-31.3429614515447
30
0
41
1
10
-39.3066168755561
20
-31.3718055420265
30
0
41
1
10
-39.4146820998372
20
-31.4310434676065
30
0
41
1
10
-39.4666107278892
20
-31.4614364993235
30
0
41
1
10
-39.5654932840106
20
-31.5240527860465
30
0
41
1
10
-39.6124508238217
20
-31.5562747122699
30
0
41
1
10
-39.6783892375735
20
-31.6062624057088
30
0
41
1
10
-39.6996167056853
20
-31.6232016368542
30
0
41
1
10
-39.7302067583249
20
-31.649070789322
30
0
41
1
10
-39.7401947032164
20
-31.6577706366487
30
0
41
1
10
-39.7597296975045
20
-31.6753325395168
30
0
41
1
10
-39.7692891468385
20
-31.6842072002859
30
0
41
1
10
-39.7785586500778
20
-31.6931118380393
30
0
0
SPLINE
5
191
100
AcDbEntity
8
SK1
62
256
6
ByLayer
370
18
48
1
60
0
100
AcDbSpline
70
4
71
3
72
50
73
46
40
0
40
0
40
0
40
0
40
0.0156249999999889
40
0.0156249999999889
40
0.0234374999999828
40
0.0234374999999828
40
0.0312499999999768
40
0.0312499999999768
40
0.0468749999999647
40
0.0468749999999647
40
0.054687499999962
40
0.054687499999962
40
0.0624999999999593
40
0.0624999999999593
40
0.0781249999999593
40
0.0781249999999593
40
0.0937499999999594
40
0.0937499999999594
40
0.109374999999959
40
0.109374999999959
40
0.124999999999959
40
0.124999999999959
40
0.156249999999959
40
0.156249999999959
40
0.18749999999996
40
0.18749999999996
40
0.21874999999996
40
0.21874999999996
40
0.24999999999996
40
0.24999999999996
40
0.312499999999964
40
0.312499999999964
40
0.374999999999969
40
0.374999999999969
40
0.499999999999983
40
0.499999999999983
40
0.562499999999987
40
0.562499999999987
40
0.624999999999992
40
0.624999999999992
40
0.749999999999995
40
0.749999999999995
40
0.874999999999997
40
0.874999999999997
40
1
40
1
40
1
40
1
41
1
10
-36.7
20
-30.5167400608164
30
0
41
1
10
-36.6861760057711
20
-30.5134378573018
30
0
41
1
10
-36.6719236192518
20
-30.5108892459393
30
0
41
1
10
-36.6497726064996
20
-30.5084288522914
30
0
41
1
10
-36.6422597446632
20
-30.5078365983351
30
0
41
1
10
-36.6269468849827
20
-30.5071589463332
30
0
41
1
10
-36.6191045834997
20
-30.5070782908792
30
0
41
1
10
-36.5958394754029
20
-30.5076493122667
30
0
41
1
10
-36.5804742375449
20
-30.5090929182694
30
0
41
1
10
-36.5576335628327
20
-30.5127783281781
30
0
41
1
10
-36.5501004416419
20
-30.5142557100426
30
0
41
1
10
-36.5354423486814
20
-30.5176064302121
30
0
41
1
10
-36.5282751131219
20
-30.519486290667
30
0
41
1
10
-36.5072050500108
20
-30.5256707052649
30
0
41
1
10
-36.49368013741
20
-30.5305497512156
30
0
41
1
10
-36.4683289496342
20
-30.5411194270436
30
0
41
1
10
-36.4563799297747
20
-30.5468414483073
30
0
41
1
10
-36.4335727273276
20
-30.5589376700893
30
0
41
1
10
-36.4226910078859
20
-30.5653305504942
30
0
41
1
10
-36.4019102061098
20
-30.5785563181124
30
0
41
1
10
-36.3920943798003
20
-30.58533272851
30
0
41
1
10
-36.3639622379691
20
-30.6060308129229
30
0
41
1
10
-36.3469408538926
20
-30.6203152750523
30
0
41
1
10
-36.3151727496401
20
-30.6494987224847
30
0
41
1
10
-36.3004429011484
20
-30.664402704273
30
0
41
1
10
-36.272663942593
20
-30.6946459721731
30
0
41
1
10
-36.25959332707
20
-30.710023998788
30
0
41
1
10
-36.2349763421032
20
-30.7408303858341
30
0
41
1
10
-36.2234077468714
20
-30.7562814464429
30
0
41
1
10
-36.1904370426651
20
-30.802725501164
30
0
41
1
10
-36.1707455744194
20
-30.8338067335522
30
0
41
1
10
-36.1344790632362
20
-30.896045397797
30
0
41
1
10
-36.1179231578378
20
-30.9272048762935
30
0
41
1
10
-36.0717993238637
20
-31.0206707065773
30
0
41
1
10
-36.0457186531499
20
-31.0829582265782
30
0
41
1
10
-36.0112013735234
20
-31.176078536837
30
0
41
1
10
-36.0004790582839
20
-31.2070846709192
30
0
41
1
10
-35.9804074810478
20
-31.2688986166914
30
0
41
1
10
-35.9710667512765
20
-31.299679825393
30
0
41
1
10
-35.9448540024585
20
-31.3916417224263
30
0
41
1
10
-35.9297771234306
20
-31.4524405088437
30
0
41
1
10
-35.9034606976511
20
-31.573002406175
30
0
41
1
10
-35.8922289556274
20
-31.6327656209781
30
0
41
1
10
-35.8730490415186
20
-31.751243792232
30
0
41
1
10
-35.8651043543943
20
-31.8099588001334
30
0
41
1
10
-35.8586343515166
20
-31.8681445143571
30
0
0
SPLINE
5
192
100
AcDbEntity
8
SK1
62
256
6
ByLayer
370
18
48
1
60
0
100
AcDbSpline
70
4
71
3
72
34
73
30
40
0
40
0
40
0
40
0
40
0.0312499999999984
40
0.0312499999999984
40
0.0624999999999967
40
0.0624999999999967
40
0.124999999999998
40
0.124999999999998
40
0.187499999999999
40
0.187499999999999
40
0.250000000000001
40
0.250000000000001
40
0.312500000000002
40
0.312500000000002
40
0.375000000000003
40
0.375000000000003
40
0.500000000000002
40
0.500000000000002
40
0.625000000000002
40
0.625000000000002
40
0.750000000000001
40
0.750000000000001
40
0.875
40
0.875
40
0.906250000000001
40
0.906250000000001
40
0.937500000000001
40
0.937500000000001
40
1
40
1
40
1
40
1
41
1
10
-35.8586343515165
20
-31.8681445143572
30
0
41
1
10
-35.8559584193055
20
-31.8922095773651
30
0
41
1
10
-35.8518135153311
20
-31.9163638905433
30
0
41
1
10
-35.8409285844262
20
-31.964131951572
30
0
41
1
10
-35.8341896585341
20
-31.9878129216072
30
0
41
1
10
-35.8106132186994
20
-32.0583025828621
30
0
41
1
10
-35.7904281681568
20
-32.1045597838675
30
0
41
1
10
-35.7439822297338
20
-32.1958854178849
30
0
41
1
10
-35.7177324522673
20
-32.2409545810473
30
0
41
1
10
-35.6615604551228
20
-32.3301279018396
30
0
41
1
10
-35.6316363321779
20
-32.3742317028649
30
0
41
1
10
-35.5699034913987
20
-32.4616320223601
30
0
41
1
10
-35.5380898463449
20
-32.5049279973811
30
0
41
1
10
-35.4738846774947
20
-32.5908206651138
30
0
41
1
10
-35.4414888109944
20
-32.6334169185666
30
0
41
1
10
-35.3448966005915
20
-32.7602674648848
30
0
41
1
10
-35.2813492424227
20
-32.8436033441989
30
0
41
1
10
-35.1616455253844
20
-33.0078777750666
30
0
41
1
10
-35.105424529817
20
-33.0888330619472
30
0
41
1
10
-35.0042274646478
20
-33.2484814297211
30
0
41
1
10
-34.9592222794925
20
-33.3271729985641
30
0
41
1
10
-34.8839372794758
20
-33.4823184480597
30
0
41
1
10
-34.8536295063491
20
-33.5587714504724
30
0
41
1
10
-34.8273626619223
20
-33.6529305027061
30
0
41
1
10
-34.8226923405656
20
-33.6716918907441
30
0
41
1
10
-34.8145899823543
20
-33.7090734310725
30
0
41
1
10
-34.8111615157959
20
-33.7276856282373
30
0
41
1
10
-34.8028771809869
20
-33.7830433478833
30
0
41
1
10
-34.7999999999999
20
-33.8193960990672
30
0
41
1
10
-34.7999999999999
20
-33.8551849401856
30
0
0
LINE
5
87
100
AcDbEntity
8
4
62
256
6
ByLayer
370
18
48
0.05
60
0
100
AcDbLine
10
0
20
0
30
0
11
90
21
0
31
0
39
0
210
0
220
0
230
1
0
LINE
5
89
100
AcDbEntity
8
81
62
256
6
ByLayer
370
18
48
1
60
0
100
AcDbLine
10
90
20
0
30
0
11
95
21
0
31
0
39
0
210
0
220
0
230
1
0
LINE
5
8A
100
AcDbEntity
8
80
62
256
6
ByLayer
370
18
48
1
60
0
100
AcDbLine
10
0
20
0
30
0
11
-5
21
0
31
0
39
0
210
0
220
0
230
1
0
LINE
5
8B
100
AcDbEntity
8
1
62
256
6
ByLayer
370
13
48
1
60
0
100
AcDbLine
10
40.124598
20
-17.7
30
0
11
40.124598
21
17.7
31
0
39
0
210
0
220
0
230
1
0
LINE
5
8D
100
AcDbEntity
8
1
62
256
6
ByLayer
370
18
48
1
60
0
100
AcDbLine
10
82.5
20
-17.9
30
0
11
82.5
21
17.9
31
0
39
0
210
0
220
0
230
1
0
LINE
5
8E
100
AcDbEntity
8
1
62
256
6
ByLayer
370
18
48
1
60
0
100
AcDbLine
10
90
20
13.569873
30
0
11
90
21
-13.569873
31
0
39
0
210
0
220
0
230
1
0
LINE
5
8F
100
AcDbEntity
8
1
62
256
6
ByLayer
370
18
48
1
60
0
100
AcDbLine
10
40.95
20
17.9
30
0
11
40.95
21
-17.9
31
0
39
0
210
0
220
0
230
1
0
LINE
5
90
100
AcDbEntity
8
1
62
256
6
ByLayer
370
13
48
1
60
0
100
AcDbLine
10
40.27989
20
-17.720445
30
0
11
40.27989
21
17.720445
31
0
39
0
210
0
220
0
230
1
0
LINE
5
91
100
AcDbEntity
8
1
62
256
6
ByLayer
370
13
48
1
60
0
100
AcDbLine
10
38.95
20
-17.7
30
0
11
38.95
21
17.7
31
0
39
0
210
0
220
0
230
1
0
LINE
5
92
100
AcDbEntity
8
1
62
256
6
ByLayer
370
18
48
1
60
0
100
AcDbLine
10
28.95
20
31.35
30
0
11
28.95
21
38.002865
31
0
39
0
210
0
220
0
230
1
0
LINE
5
93
100
AcDbEntity
8
1
62
256
6
ByLayer
370
18
48
1
60
0
100
AcDbLine
10
18.075
20
34.173354
30
0
11
18.075
21
35.929935
31
0
39
0
210
0
220
0
230
1
0
LINE
5
94
100
AcDbEntity
8
1
62
256
6
ByLayer
370
18
48
1
60
0
100
AcDbLine
10
21.925
20
35.929935
30
0
11
21.925
21
34.173354
31
0
39
0
210
0
220
0
230
1
0
LINE
5
95
100
AcDbEntity
8
1
62
256
6
ByLayer
370
18
48
1
60
0
100
AcDbLine
10
21.925
20
46.619334
30
0
11
21.925
21
35.929935
31
0
39
0
210
0
220
0
230
1
0
LINE
5
96
100
AcDbEntity
8
1
62
256
6
ByLayer
370
18
48
1
60
0
100
AcDbLine
10
21.525
20
44.869591
30
0
11
18.475
21
44.869591
31
0
39
0
210
0
220
0
230
1
0
LINE
5
97
100
AcDbEntity
8
1
62
256
6
ByLayer
370
18
48
1
60
0
100
AcDbLine
10
21.525
20
33.628531
30
0
11
18.475
21
33.628531
31
0
39
0
210
0
220
0
230
1
0
LINE
5
98
100
AcDbEntity
8
1
62
256
6
ByLayer
370
18
48
1
60
0
100
AcDbLine
10
28.25
20
48.949778
30
0
11
23.241822
21
48.949778
31
0
39
0
210
0
220
0
230
1
0
LINE
5
99
100
AcDbEntity
8
1
62
256
6
ByLayer
370
18
48
1
60
0
100
AcDbLine
10
23.241822
20
48.949778
30
0
11
23.241822
21
38.906024
31
0
39
0
210
0
220
0
230
1
0
LINE
5
9A
100
AcDbEntity
8
1
62
256
6
ByLayer
370
18
48
1
60
0
100
AcDbLine
10
28.25
20
38.906024
30
0
11
23.241822
21
38.906024
31
0
39
0
210
0
220
0
230
1
0
LINE
5
9B
100
AcDbEntity
8
1
62
256
6
ByLayer
370
18
48
1
60
0
100
AcDbLine
10
28.95
20
48.235047
30
0
11
28.95
21
38.002865
31
0
39
0
210
0
220
0
230
1
0
LINE
5
9C
100
AcDbEntity
8
1
62
256
6
ByLayer
370
18
48
1
60
0
100
AcDbLine
10
28.25
20
38.906024
30
0
11
28.25
21
48.949778
31
0
39
0
210
0
220
0
230
1
0
LINE
5
9D
100
AcDbEntity
8
1
62
256
6
ByLayer
370
13
48
1
60
0
100
AcDbLine
10
18.475
20
44.869591
30
0
11
18.475
21
33.628531
31
0
39
0
210
0
220
0
230
1
0
LINE
5
9E
100
AcDbEntity
8
1
62
256
6
ByLayer
370
13
48
1
60
0
100
AcDbLine
10
21.525
20
44.869591
30
0
11
21.525
21
33.628531
31
0
39
0
210
0
220
0
230
1
0
LINE
5
9F
100
AcDbEntity
8
1
62
256
6
ByLayer
370
18
48
1
60
0
100
AcDbLine
10
18.075
20
46.619334
30
0
11
18.075
21
35.929935
31
0
39
0
210
0
220
0
230
1
0
LINE
5
A0
100
AcDbEntity
8
1
62
256
6
ByLayer
370
13
48
1
60
0
100
AcDbLine
10
14.657967
20
38.906024
30
0
11
14.657967
21
31.35
31
0
39
0
210
0
220
0
230
1
0
LINE
5
A1
100
AcDbEntity
8
1
62
256
6
ByLayer
370
18
48
1
60
0
100
AcDbLine
10
21.525
20
31.35
30
0
11
18.475
21
31.35
31
0
39
0
210
0
220
0
230
1
0
LINE
5
A2
100
AcDbEntity
8
1
62
256
6
ByLayer
370
18
48
1
60
0
100
AcDbLine
10
21.525
20
-44.634495
30
0
11
18.475
21
-44.634495
31
0
39
0
210
0
220
0
230
1
0
LINE
5
A3
100
AcDbEntity
8
1
62
256
6
ByLayer
370
13
48
1
60
0
100
AcDbLine
10
18.475
20
-8.827456
30
0
11
18.475
21
-44.634495
31
0
39
0
210
0
220
0
230
1
0
LINE
5
A4
100
AcDbEntity
8
1
62
256
6
ByLayer
370
13
48
1
60
0
100
AcDbLine
10
18.475
20
7.13671
30
0
11
18.475
21
-7.13671
31
0
39
0
210
0
220
0
230
1
0
LINE
5
A5
100
AcDbEntity
8
1
62
256
6
ByLayer
370
13
48
1
60
0
100
AcDbLine
10
18.475
20
31.35
30
0
11
18.475
21
8.827456
31
0
39
0
210
0
220
0
230
1
0
LINE
5
A6
100
AcDbEntity
8
1
62
256
6
ByLayer
370
13
48
1
60
0
100
AcDbLine
10
21.525
20
31.35
30
0
11
21.525
21
8.827456
31
0
39
0
210
0
220
0
230
1
0
LINE
5
A7
100
AcDbEntity
8
1
62
256
6
ByLayer
370
13
48
1
60
0
100
AcDbLine
10
21.525
20
7.13671
30
0
11
21.525
21
-7.13671
31
0
39
0
210
0
220
0
230
1
0
LINE
5
A8
100
AcDbEntity
8
1
62
256
6
ByLayer
370
13
48
1
60
0
100
AcDbLine
10
21.525
20
-8.827456
30
0
11
21.525
21
-44.634495
31
0
39
0
210
0
220
0
230
1
0
LINE
5
A9
100
AcDbEntity
8
1
62
256
6
ByLayer
370
18
48
1
60
0
100
AcDbLine
10
0
20
-49.265
30
0
11
0
21
49.265
31
0
39
0
210
0
220
0
230
1
0
LINE
5
AA
100
AcDbEntity
8
1
62
256
6
ByLayer
370
18
48
1
60
0
100
AcDbLine
10
21.925
20
31.35
30
0
11
21.925
21
-46.393106
31
0
39
0
210
0
220
0
230
1
0
LINE
5
AB
100
AcDbEntity
8
1
62
256
6
ByLayer
370
18
48
1
60
0
100
AcDbLine
10
28.95
20
31.35
30
0
11
28.95
21
-48.016432
31
0
39
0
210
0
220
0
230
1
0
LINE
5
AC
100
AcDbEntity
8
1
62
256
6
ByLayer
370
18
48
1
60
0
100
AcDbLine
10
18.075
20
31.35
30
0
11
18.075
21
-46.393106
31
0
39
0
210
0
220
0
230
1
0
LINE
5
AD
100
AcDbEntity
8
1
62
256
6
ByLayer
370
18
48
1
60
0
100
AcDbLine
10
28.25
20
-48.73437
30
0
11
23.241822
21
-48.73437
31
0
39
0
210
0
220
0
230
1
0
LINE
5
AE
100
AcDbEntity
8
1
62
256
6
ByLayer
370
18
48
1
60
0
100
AcDbLine
10
28.25
20
-48.73437
30
0
11
28.25
21
31.35
31
0
39
0
210
0
220
0
230
1
0
LINE
5
AF
100
AcDbEntity
8
1
62
256
6
ByLayer
370
18
48
1
60
0
100
AcDbLine
10
28.25
20
31.35
30
0
11
23.241822
21
31.35
31
0
39
0
210
0
220
0
230
1
0
LINE
5
B0
100
AcDbEntity
8
1
62
256
6
ByLayer
370
18
48
1
60
0
100
AcDbLine
10
23.241822
20
31.35
30
0
11
23.241822
21
-48.73437
31
0
39
0
210
0
220
0
230
1
0
LINE
5
B1
100
AcDbEntity
8
1
62
256
6
ByLayer
370
18
48
1
60
0
100
AcDbLine
10
0.7
20
-49.965
30
0
11
0.7
21
49.965
31
0
39
0
210
0
220
0
230
1
0
LINE
5
B2
100
AcDbEntity
8
1
62
256
6
ByLayer
370
18
48
1
60
0
100
AcDbLine
10
4.95
20
-49.954567
30
0
11
4.95
21
-49.965
31
0
39
0
210
0
220
0
230
1
0
LINE
5
B3
100
AcDbEntity
8
1
62
256
6
ByLayer
370
18
48
1
60
0
100
AcDbLine
10
16.758178
20
-48.73437
30
0
11
14.95
21
-48.73437
31
0
39
0
210
0
220
0
230
1
0
LINE
5
B4
100
AcDbEntity
8
1
62
256
6
ByLayer
370
18
48
1
60
0
100
AcDbLine
10
16.758178
20
-48.73437
30
0
11
16.758178
21
31.35
31
0
39
0
210
0
220
0
230
1
0
LINE
5
B5
100
AcDbEntity
8
1
62
256
6
ByLayer
370
18
48
1
60
0
100
AcDbLine
10
16.758178
20
31.35
30
0
11
4.961216
21
31.35
31
0
39
0
210
0
220
0
230
1
0
LINE
5
B6
100
AcDbEntity
8
1
62
256
6
ByLayer
370
18
48
1
60
0
100
AcDbLine
10
16.758178
20
38.906024
30
0
11
14.657967
21
38.906024
31
0
39
0
210
0
220
0
230
1
0
LINE
5
B7
100
AcDbEntity
8
1
62
256
6
ByLayer
370
18
48
1
60
0
100
AcDbLine
10
16.758178
20
38.906024
30
0
11
16.758178
21
48.949778
31
0
39
0
210
0
220
0
230
1
0
LINE
5
B8
100
AcDbEntity
8
1
62
256
6
ByLayer
370
18
48
1
60
0
100
AcDbLine
10
16.758178
20
48.949778
30
0
11
14.95
21
48.949778
31
0
39
0
210
0
220
0
230
1
0
LINE
5
B9
100
AcDbEntity
8
SK1
62
256
6
ByLayer
370
13
48
1
60
0
100
AcDbLine
10
-41.7
20
32.225
30
0
11
-41.7
21
32.030907
31
0
39
0
210
0
220
0
230
1
0
LINE
5
BB
100
AcDbEntity
8
SK1
62
256
6
ByLayer
370
18
48
1
60
0
100
AcDbLine
10
-48.25
20
32.225
30
0
11
-48.25
21
32.221419
31
0
39
0
210
0
220
0
230
1
0
LINE
5
BC
100
AcDbEntity
8
SK1
62
256
6
ByLayer
370
18
48
1
60
0
100
AcDbLine
10
-48.25
20
-32.225
30
0
11
-48.25
21
-32.221419
31
0
39
0
210
0
220
0
230
1
0
LINE
5
BD
100
AcDbEntity
8
SK1
62
256
6
ByLayer
370
13
48
1
60
0
100
AcDbLine
10
-36.7
20
-31.693112
30
0
11
-36.7
21
-32.225
31
0
39
0
210
0
220
0
230
1
0
LINE
5
BE
100
AcDbEntity
8
SK1
62
256
6
ByLayer
370
13
48
1
60
0
100
AcDbLine
10
-49.589566
20
30.49955
30
0
11
-48.969717
21
31.05184
31
0
39
0
210
0
220
0
230
1
0
LINE
5
BF
100
AcDbEntity
8
SK1
62
256
6
ByLayer
370
13
48
1
60
0
100
AcDbLine
10
-49.589566
20
-30.49955
30
0
11
-48.969717
21
-31.05184
31
0
39
0
210
0
220
0
230
1
0
LINE
5
C0
100
AcDbEntity
8
SK1
62
256
6
ByLayer
370
13
48
1
60
0
100
AcDbLine
10
-36.7
20
-31.693112
30
0
11
-39.778559
21
-31.693112
31
0
39
0
210
0
220
0
230
1
0
LINE
5
C1
100
AcDbEntity
8
SK1
62
256
6
ByLayer
370
13
48
1
60
0
100
AcDbLine
10
-36.7
20
-31.693112
30
0
11
-36.7
21
-30.51674
31
0
39
0
210
0
220
0
230
1
0
LINE
5
C2
100
AcDbEntity
8
SK1
62
256
6
ByLayer
370
18
48
1
60
0
100
AcDbLine
10
-49.9
20
-30.486326
30
0
11
-49.9
21
30.486326
31
0
39
0
210
0
220
0
230
1
0
LINE
5
C3
100
AcDbEntity
8
SK1
62
256
6
ByLayer
370
18
48
1
60
0
100
AcDbLine
10
-2.066987
20
-37.632252
30
0
11
-2.066987
21
37.632252
31
0
39
0
210
0
220
0
230
1
0
LINE
5
C4
100
AcDbEntity
8
SK1
62
256
6
ByLayer
370
18
48
1
60
0
100
AcDbLine
10
-39.8
20
36.013514
30
0
11
-39.8
21
33.731867
31
0
39
0
210
0
220
0
230
1
0
LINE
5
C5
100
AcDbEntity
8
SK1
62
256
6
ByLayer
370
13
48
1
60
0
100
AcDbLine
10
-48.000075
20
32.218019
30
0
11
-48.000075
21
-32.218019
31
0
39
0
210
0
220
0
230
1
0
LINE
5
C6
100
AcDbEntity
8
SK1
62
256
6
ByLayer
370
18
48
1
60
0
100
AcDbLine
10
-34.8
20
-33.855185
30
0
11
-34.8
21
-36.264015
31
0
39
0
210
0
220
0
230
1
0
LINE
5
C7
100
AcDbEntity
8
SK1
62
256
6
ByLayer
370
18
48
1
60
0
100
AcDbLine
10
-2.5
20
-37.882252
30
0
11
-2.5
21
37.882252
31
0
39
0
210
0
220
0
230
1
0
LINE
5
C8
100
AcDbEntity
8
SK1
62
256
6
ByLayer
370
13
48
1
60
0
100
AcDbLine
10
-0.8
20
-37.632252
30
0
11
-0.8
21
37.632252
31
0
39
0
210
0
220
0
230
1
0
LINE
5
C9
100
AcDbEntity
8
1
62
256
6
ByLayer
370
18
48
1
60
0
100
AcDbLine
10
4.95
20
49.965
30
0
11
4.949139
21
49.965
31
0
39
0
210
0
220
0
230
1
0
LINE
5
CA
100
AcDbEntity
8
1
62
256
6
ByLayer
370
18
48
1
60
0
100
AcDbLine
10
4.949139
20
49.965
30
0
11
4.948785
21
49.965
31
0
39
0
210
0
220
0
230
1
0
LINE
5
CB
100
AcDbEntity
8
1
62
256
6
ByLayer
370
18
48
1
60
0
100
AcDbLine
10
40.124598
20
17.7
30
0
11
38.95
21
17.7
31
0
39
0
210
0
220
0
230
1
0
LINE
5
CC
100
AcDbEntity
8
1
62
256
6
ByLayer
370
18
48
1
60
0
100
AcDbLine
10
38.95
20
-17.7
30
0
11
40.124598
21
-17.7
31
0
39
0
210
0
220
0
230
1
0
LINE
5
CD
100
AcDbEntity
8
1
62
256
6
ByLayer
370
18
48
1
60
0
100
AcDbLine
10
40.95
20
-17.9
30
0
11
82.5
21
-17.9
31
0
39
0
210
0
220
0
230
1
0
LINE
5
CE
100
AcDbEntity
8
1
62
256
6
ByLayer
370
18
48
1
60
0
100
AcDbLine
10
82.5
20
17.9
30
0
11
40.95
21
17.9
31
0
39
0
210
0
220
0
230
1
0
LINE
5
CF
100
AcDbEntity
8
1
62
256
6
ByLayer
370
18
48
1
60
0
100
AcDbLine
10
90
20
13.569873
30
0
11
82.5
21
17.9
31
0
39
0
210
0
220
0
230
1
0
LINE
5
D0
100
AcDbEntity
8
1
62
256
6
ByLayer
370
18
48
1
60
0
100
AcDbLine
10
82.5
20
-17.9
30
0
11
90
21
-13.569873
31
0
39
0
210
0
220
0
230
1
0
LINE
5
D1
100
AcDbEntity
8
1
62
256
6
ByLayer
370
18
48
1
60
0
100
AcDbLine
10
40.27989
20
-17.720445
30
0
11
40.95
21
-17.9
31
0
39
0
210
0
220
0
230
1
0
LINE
5
D2
100
AcDbEntity
8
1
62
256
6
ByLayer
370
18
48
1
60
0
100
AcDbLine
10
40.95
20
17.9
30
0
11
40.27989
21
17.720445
31
0
39
0
210
0
220
0
230
1
0
LINE
5
D3
100
AcDbEntity
8
1
62
256
6
ByLayer
370
18
48
1
60
0
100
AcDbLine
10
0
20
-49.265
30
0
11
0.7
21
-49.965
31
0
39
0
210
0
220
0
230
1
0
LINE
5
D4
100
AcDbEntity
8
1
62
256
6
ByLayer
370
18
48
1
60
0
100
AcDbLine
10
0.7
20
49.965
30
0
11
0
21
49.265
31
0
39
0
210
0
220
0
230
1
0
LINE
5
D5
100
AcDbEntity
8
1
62
256
6
ByLayer
370
18
48
1
60
0
100
AcDbLine
10
4.948785
20
49.965
30
0
11
0.7
21
49.965
31
0
39
0
210
0
220
0
230
1
0
LINE
5
D6
100
AcDbEntity
8
1
62
256
6
ByLayer
370
18
48
1
60
0
100
AcDbLine
10
0.7
20
-49.965
30
0
11
4.95
21
-49.965
31
0
39
0
210
0
220
0
230
1
0
LINE
5
D7
100
AcDbEntity
8
1
62
256
6
ByLayer
370
18
48
1
60
0
100
AcDbLine
10
46.149641
20
-14.969423
30
0
11
46.261844
21
-14.915096
31
0
39
0
210
0
220
0
230
1
0
LINE
5
D8
100
AcDbEntity
8
1
62
256
6
ByLayer
370
18
48
1
60
0
100
AcDbLine
10
43.738156
20
-14.915096
30
0
11
43.850359
21
-14.969423
31
0
39
0
210
0
220
0
230
1
0
LINE
5
D9
100
AcDbEntity
8
1
62
256
6
ByLayer
370
18
48
1
60
0
100
AcDbLine
10
43.850359
20
14.969423
30
0
11
43.738156
21
14.915096
31
0
39
0
210
0
220
0
230
1
0
LINE
5
DA
100
AcDbEntity
8
1
62
256
6
ByLayer
370
18
48
1
60
0
100
AcDbLine
10
46.261844
20
14.915096
30
0
11
46.149641
21
14.969423
31
0
39
0
210
0
220
0
230
1
0
LINE
5
DB
100
AcDbEntity
8
1
62
256
6
ByLayer
370
18
48
1
60
0
100
AcDbLine
10
46.149641
20
-14.969423
30
0
11
46.261844
21
-14.915096
31
0
39
0
210
0
220
0
230
1
0
LINE
5
DC
100
AcDbEntity
8
1
62
256
6
ByLayer
370
18
48
1
60
0
100
AcDbLine
10
43.738156
20
-14.915096
30
0
11
43.850359
21
-14.969423
31
0
39
0
210
0
220
0
230
1
0
LINE
5
DD
100
AcDbEntity
8
1
62
256
6
ByLayer
370
18
48
1
60
0
100
AcDbLine
10
43.850359
20
14.969423
30
0
11
43.738156
21
14.915096
31
0
39
0
210
0
220
0
230
1
0
LINE
5
DE
100
AcDbEntity
8
1
62
256
6
ByLayer
370
18
48
1
60
0
100
AcDbLine
10
46.261844
20
14.915096
30
0
11
46.149641
21
14.969423
31
0
39
0
210
0
220
0
230
1
0
LINE
5
DF
100
AcDbEntity
8
SK1
62
256
6
ByLayer
370
18
48
1
60
0
100
AcDbLine
10
-41.7
20
32.225
30
0
11
-48.25
21
32.225
31
0
39
0
210
0
220
0
230
1
0
LINE
5
E0
100
AcDbEntity
8
SK1
62
256
6
ByLayer
370
18
48
1
60
0
100
AcDbLine
10
-49.849203
20
-30.625797
30
0
11
-48.25
21
-32.225
31
0
39
0
210
0
220
0
230
1
0
LINE
5
E1
100
AcDbEntity
8
SK1
62
256
6
ByLayer
370
18
48
1
60
0
100
AcDbLine
10
-48.25
20
32.225
30
0
11
-49.849203
21
30.625797
31
0
39
0
210
0
220
0
230
1
0
LINE
5
E2
100
AcDbEntity
8
SK1
62
256
6
ByLayer
370
18
48
1
60
0
100
AcDbLine
10
-48.25
20
-32.225
30
0
11
-36.7
21
-32.225
31
0
39
0
210
0
220
0
230
1
0
LINE
5
E3
100
AcDbEntity
8
SK1
62
256
6
ByLayer
370
18
48
1
60
0
100
AcDbLine
10
-0.8
20
37.632252
30
0
11
-2.066987
21
37.632252
31
0
39
0
210
0
220
0
230
1
0
LINE
5
E4
100
AcDbEntity
8
SK1
62
256
6
ByLayer
370
18
48
1
60
0
100
AcDbLine
10
-2.066987
20
-37.632252
30
0
11
-0.8
21
-37.632252
31
0
39
0
210
0
220
0
230
1
0
LINE
5
E5
100
AcDbEntity
8
SK1
62
256
6
ByLayer
370
18
48
1
60
0
100
AcDbLine
10
-2.066987
20
37.632252
30
0
11
-2.5
21
37.882252
31
0
39
0
210
0
220
0
230
1
0
LINE
5
E6
100
AcDbEntity
8
SK1
62
256
6
ByLayer
370
18
48
1
60
0
100
AcDbLine
10
-2.5
20
-37.882252
30
0
11
-2.066987
21
-37.632252
31
0
39
0
210
0
220
0
230
1
0
LINE
5
E7
100
AcDbEntity
8
SK1
62
256
6
ByLayer
370
18
48
1
60
0
100
AcDbLine
10
-34.8
20
-36.264015
30
0
11
-21.480951
21
-36.931302
31
0
39
0
210
0
220
0
230
1
0
LINE
5
E8
100
AcDbEntity
8
SK1
62
256
6
ByLayer
370
18
48
1
60
0
100
AcDbLine
10
-7.82303
20
-37.615567
30
0
11
-2.5
21
-37.882252
31
0
39
0
210
0
220
0
230
1
0
LINE
5
E9
100
AcDbEntity
8
SK1
62
256
6
ByLayer
370
18
48
1
60
0
100
AcDbLine
10
-2.5
20
37.882252
30
0
11
-7.833372
21
37.615048
31
0
39
0
210
0
220
0
230
1
0
LINE
5
EA
100
AcDbEntity
8
SK1
62
256
6
ByLayer
370
18
48
1
60
0
100
AcDbLine
10
-21.490774
20
36.93081
30
0
11
-39.8
21
36.013514
31
0
39
0
210
0
220
0
230
1
0
LINE
5
EB
100
AcDbEntity
8
1
62
256
6
ByLayer
370
18
48
1
60
0
100
AcDbLine
10
90.04783
20
8.547393
30
0
11
89.999999
21
8.637652
31
0
39
0
210
0
220
0
230
1
0
LINE
5
EC
100
AcDbEntity
8
1
62
256
6
ByLayer
370
18
48
1
60
0
100
AcDbLine
10
89.999999
20
-8.637652
30
0
11
90.04783
21
-8.547393
31
0
39
0
210
0
220
0
230
1
0
LINE
5
ED
100
AcDbEntity
8
1
62
256
6
ByLayer
370
18
48
1
60
0
100
AcDbLine
10
90.04783
20
8.547393
30
0
11
89.999999
21
8.637652
31
0
39
0
210
0
220
0
230
1
0
LINE
5
EE
100
AcDbEntity
8
1
62
256
6
ByLayer
370
18
48
1
60
0
100
AcDbLine
10
43.850359
20
14.969423
30
0
11
43.738156
21
14.915096
31
0
39
0
210
0
220
0
230
1
0
LINE
5
EF
100
AcDbEntity
8
1
62
256
6
ByLayer
370
18
48
1
60
0
100
AcDbLine
10
46.261844
20
14.915096
30
0
11
46.149641
21
14.969423
31
0
39
0
210
0
220
0
230
1
0
LINE
5
F0
100
AcDbEntity
8
SK2
62
256
6
ByLayer
370
18
48
1
60
0
100
AcDbLine
10
116.835242
20
17.9
30
0
11
116.835242
21
-17.9
31
0
39
0
210
0
220
0
230
1
0
LINE
5
F2
100
AcDbEntity
8
SK2
62
256
6
ByLayer
370
18
48
1
60
0
100
AcDbLine
10
84.0875
20
-17.9
30
0
11
118.835242
21
-17.9
31
0
39
0
210
0
220
0
230
1
0
LINE
5
F3
100
AcDbEntity
8
SK2
62
256
6
ByLayer
370
18
48
1
60
0
100
AcDbLine
10
84.0875
20
17.9
30
0
11
118.835242
21
17.9
31
0
39
0
210
0
220
0
230
1
0
LINE
5
F4
100
AcDbEntity
8
1
62
256
6
ByLayer
370
18
48
1
60
1
100
AcDbLine
10
116.835242
20
-17.9
30
0
11
116.374458
21
-14.400002
31
0
39
0
210
0
220
0
230
1
0
LINE
5
F5
100
AcDbEntity
8
1
62
256
6
ByLayer
370
18
48
1
60
1
100
AcDbLine
10
116.374458
20
-14.400002
30
0
11
117.296025
21
-14.399998
31
0
39
0
210
0
220
0
230
1
0
LINE
5
F6
100
AcDbEntity
8
1
62
256
6
ByLayer
370
18
48
1
60
1
100
AcDbLine
10
117.296025
20
-14.399998
30
0
11
116.835242
21
-17.9
31
0
39
0
210
0
220
0
230
1
0
LINE
5
F7
100
AcDbEntity
8
1
62
256
6
ByLayer
370
18
48
1
60
1
100
AcDbLine
10
116.835242
20
17.9
30
0
11
117.296025
21
14.400002
31
0
39
0
210
0
220
0
230
1
0
LINE
5
F8
100
AcDbEntity
8
1
62
256
6
ByLayer
370
18
48
1
60
1
100
AcDbLine
10
117.296025
20
14.400002
30
0
11
116.374458
21
14.399998
31
0
39
0
210
0
220
0
230
1
0
LINE
5
F9
100
AcDbEntity
8
1
62
256
6
ByLayer
370
18
48
1
60
1
100
AcDbLine
10
116.374458
20
14.399998
30
0
11
116.835242
21
17.9
31
0
39
0
210
0
220
0
230
1
0
LINE
5
FA
100
AcDbEntity
8
SK2
62
256
6
ByLayer
370
18
48
1
60
0
100
AcDbLine
10
-66.875025
20
-49.965
30
0
11
-66.875025
21
49.965
31
0
39
0
210
0
220
0
230
1
0
LINE
5
FB
100
AcDbEntity
8
SK2
62
256
6
ByLayer
370
18
48
1
60
0
100
AcDbLine
10
-0.8875
20
49.965
30
0
11
-68.875025
21
49.965
31
0
39
0
210
0
220
0
230
1
0
LINE
5
FC
100
AcDbEntity
8
SK2
62
256
6
ByLayer
370
18
48
1
60
0
100
AcDbLine
10
-0.8875
20
-49.965
30
0
11
-68.875025
21
-49.965
31
0
39
0
210
0
220
0
230
1
0
LINE
5
FD
100
AcDbEntity
8
1
62
256
6
ByLayer
370
18
48
1
60
1
100
AcDbLine
10
-66.875025
20
49.965
30
0
11
-66.414241
21
46.465002
31
0
39
0
210
0
220
0
230
1
0
LINE
5
FE
100
AcDbEntity
8
1
62
256
6
ByLayer
370
18
48
1
60
1
100
AcDbLine
10
-66.414241
20
46.465002
30
0
11
-67.335809
21
46.464998
31
0
39
0
210
0
220
0
230
1
0
LINE
5
FF
100
AcDbEntity
8
1
62
256
6
ByLayer
370
18
48
1
60
1
100
AcDbLine
10
-67.335809
20
46.464998
30
0
11
-66.875025
21
49.965
31
0
39
0
210
0
220
0
230
1
0
LINE
5
100
100
AcDbEntity
8
1
62
256
6
ByLayer
370
18
48
1
60
1
100
AcDbLine
10
-66.875025
20
-49.965
30
0
11
-67.335809
21
-46.465002
31
0
39
0
210
0
220
0
230
1
0
LINE
5
101
100
AcDbEntity
8
1
62
256
6
ByLayer
370
18
48
1
60
1
100
AcDbLine
10
-67.335809
20
-46.465002
30
0
11
-66.414241
21
-46.464998
31
0
39
0
210
0
220
0
230
1
0
LINE
5
102
100
AcDbEntity
8
1
62
256
6
ByLayer
370
18
48
1
60
1
100
AcDbLine
10
-66.414241
20
-46.464998
30
0
11
-66.875025
21
-49.965
31
0
39
0
210
0
220
0
230
1
0
LINE
5
103
100
AcDbEntity
8
2
62
256
6
ByLayer
370
18
48
1
60
0
100
AcDbLine
10
28.95
20
62.815
30
0
11
90
21
62.815
31
0
39
0
210
0
220
0
230
1
0
LINE
5
104
100
AcDbEntity
8
2
62
256
6
ByLayer
370
18
48
1
60
0
100
AcDbLine
10
90
20
15.157373
30
0
11
90
21
64.815
31
0
39
0
210
0
220
0
230
1
0
LINE
5
105
100
AcDbEntity
8
2
62
256
6
ByLayer
370
18
48
1
60
0
100
AcDbLine
10
28.95
20
49.822547
30
0
11
28.95
21
64.815
31
0
39
0
210
0
220
0
230
1
0
LINE
5
106
100
AcDbEntity
8
1
62
256
6
ByLayer
370
18
48
1
60
1
100
AcDbLine
10
90
20
62.815
30
0
11
86.500002
21
62.354216
31
0
39
0
210
0
220
0
230
1
0
LINE
5
107
100
AcDbEntity
8
1
62
256
6
ByLayer
370
18
48
1
60
1
100
AcDbLine
10
86.500002
20
62.354216
30
0
11
86.499998
21
63.275784
31
0
39
0
210
0
220
0
230
1
0
LINE
5
108
100
AcDbEntity
8
1
62
256
6
ByLayer
370
18
48
1
60
1
100
AcDbLine
10
86.499998
20
63.275784
30
0
11
90
21
62.815
31
0
39
0
210
0
220
0
230
1
0
LINE
5
109
100
AcDbEntity
8
1
62
256
6
ByLayer
370
18
48
1
60
1
100
AcDbLine
10
28.95
20
62.815
30
0
11
32.449998
21
63.275784
31
0
39
0
210
0
220
0
230
1
0
LINE
5
10A
100
AcDbEntity
8
1
62
256
6
ByLayer
370
18
48
1
60
1
100
AcDbLine
10
32.449998
20
63.275784
30
0
11
32.450002
21
62.354216
31
0
39
0
210
0
220
0
230
1
0
LINE
5
10B
100
AcDbEntity
8
1
62
256
6
ByLayer
370
18
48
1
60
1
100
AcDbLine
10
32.450002
20
62.354216
30
0
11
28.95
21
62.815
31
0
39
0
210
0
220
0
230
1
0
LINE
5
10C
100
AcDbEntity
8
SK2
62
256
6
ByLayer
370
18
48
1
60
0
100
AcDbLine
10
90
20
72.815
30
0
11
0
21
72.815
31
0
39
0
210
0
220
0
230
1
0
LINE
5
10D
100
AcDbEntity
8
SK2
62
256
6
ByLayer
370
18
48
1
60
0
100
AcDbLine
10
0
20
50.8525
30
0
11
0
21
74.815
31
0
39
0
210
0
220
0
230
1
0
LINE
5
10E
100
AcDbEntity
8
SK2
62
256
6
ByLayer
370
18
48
1
60
0
100
AcDbLine
10
90
20
15.157373
30
0
11
90
21
74.815
31
0
39
0
210
0
220
0
230
1
0
LINE
5
10F
100
AcDbEntity
8
1
62
256
6
ByLayer
370
18
48
1
60
1
100
AcDbLine
10
0
20
72.815
30
0
11
3.499998
21
73.275784
31
0
39
0
210
0
220
0
230
1
0
LINE
5
110
100
AcDbEntity
8
1
62
256
6
ByLayer
370
18
48
1
60
1
100
AcDbLine
10
3.499998
20
73.275784
30
0
11
3.500002
21
72.354216
31
0
39
0
210
0
220
0
230
1
0
LINE
5
111
100
AcDbEntity
8
1
62
256
6
ByLayer
370
18
48
1
60
1
100
AcDbLine
10
3.500002
20
72.354216
30
0
11
0
21
72.815
31
0
39
0
210
0
220
0
230
1
0
LINE
5
112
100
AcDbEntity
8
1
62
256
6
ByLayer
370
18
48
1
60
1
100
AcDbLine
10
90
20
72.815
30
0
11
86.500002
21
72.354216
31
0
39
0
210
0
220
0
230
1
0
LINE
5
113
100
AcDbEntity
8
1
62
256
6
ByLayer
370
18
48
1
60
1
100
AcDbLine
10
86.500002
20
72.354216
30
0
11
86.499998
21
73.275784
31
0
39
0
210
0
220
0
230
1
0
LINE
5
114
100
AcDbEntity
8
1
62
256
6
ByLayer
370
18
48
1
60
1
100
AcDbLine
10
86.499998
20
73.275784
30
0
11
90
21
72.815
31
0
39
0
210
0
220
0
230
1
0
LINE
5
115
100
AcDbEntity
8
SK2
62
256
6
ByLayer
370
18
48
1
60
0
100
AcDbLine
10
-49.9
20
72.815
30
0
11
0
21
72.815
31
0
39
0
210
0
220
0
230
1
0
LINE
5
116
100
AcDbEntity
8
SK2
62
256
6
ByLayer
370
18
48
1
60
0
100
AcDbLine
10
0
20
50.8525
30
0
11
0
21
74.815
31
0
39
0
210
0
220
0
230
1
0
LINE
5
117
100
AcDbEntity
8
SK2
62
256
6
ByLayer
370
18
48
1
60
0
100
AcDbLine
10
-49.9
20
32.073826
30
0
11
-49.9
21
74.815
31
0
39
0
210
0
220
0
230
1
0
LINE
5
118
100
AcDbEntity
8
1
62
256
6
ByLayer
370
18
48
1
60
1
100
AcDbLine
10
0
20
72.815
30
0
11
-3.499998
21
72.354216
31
0
39
0
210
0
220
0
230
1
0
LINE
5
119
100
AcDbEntity
8
1
62
256
6
ByLayer
370
18
48
1
60
1
100
AcDbLine
10
-3.499998
20
72.354216
30
0
11
-3.500002
21
73.275784
31
0
39
0
210
0
220
0
230
1
0
LINE
5
11A
100
AcDbEntity
8
1
62
256
6
ByLayer
370
18
48
1
60
1
100
AcDbLine
10
-3.500002
20
73.275784
30
0
11
0
21
72.815
31
0
39
0
210
0
220
0
230
1
0
LINE
5
11B
100
AcDbEntity
8
1
62
256
6
ByLayer
370
18
48
1
60
1
100
AcDbLine
10
-49.9
20
72.815
30
0
11
-46.400002
21
73.275784
31
0
39
0
210
0
220
0
230
1
0
LINE
5
11C
100
AcDbEntity
8
1
62
256
6
ByLayer
370
18
48
1
60
1
100
AcDbLine
10
-46.400002
20
73.275784
30
0
11
-46.399998
21
72.354216
31
0
39
0
210
0
220
0
230
1
0
LINE
5
11D
100
AcDbEntity
8
1
62
256
6
ByLayer
370
18
48
1
60
1
100
AcDbLine
10
-46.399998
20
72.354216
30
0
11
-49.9
21
72.815
31
0
39
0
210
0
220
0
230
1
0
LINE
5
197
100
AcDbEntity
8
1
62
256
6
ByLayer
370
18
48
1
60
1
100
AcDbLine
10
116.835242
20
-17.9
30
0
11
116.374458
21
-14.400002
31
0
39
0
210
0
220
0
230
1
0
LINE
5
198
100
AcDbEntity
8
1
62
256
6
ByLayer
370
18
48
1
60
1
100
AcDbLine
10
116.374458
20
-14.400002
30
0
11
117.296025
21
-14.399998
31
0
39
0
210
0
220
0
230
1
0
LINE
5
199
100
AcDbEntity
8
1
62
256
6
ByLayer
370
18
48
1
60
1
100
AcDbLine
10
117.296025
20
-14.399998
30
0
11
116.835242
21
-17.9
31
0
39
0
210
0
220
0
230
1
0
LINE
5
19B
100
AcDbEntity
8
1
62
256
6
ByLayer
370
18
48
1
60
1
100
AcDbLine
10
116.835242
20
17.9
30
0
11
117.296025
21
14.400002
31
0
39
0
210
0
220
0
230
1
0
LINE
5
19C
100
AcDbEntity
8
1
62
256
6
ByLayer
370
18
48
1
60
1
100
AcDbLine
10
117.296025
20
14.400002
30
0
11
116.374458
21
14.399998
31
0
39
0
210
0
220
0
230
1
0
LINE
5
19D
100
AcDbEntity
8
1
62
256
6
ByLayer
370
18
48
1
60
1
100
AcDbLine
10
116.374458
20
14.399998
30
0
11
116.835242
21
17.9
31
0
39
0
210
0
220
0
230
1
0
LINE
5
1A1
100
AcDbEntity
8
1
62
256
6
ByLayer
370
18
48
1
60
1
100
AcDbLine
10
-66.875025
20
49.965
30
0
11
-66.414241
21
46.465002
31
0
39
0
210
0
220
0
230
1
0
LINE
5
1A2
100
AcDbEntity
8
1
62
256
6
ByLayer
370
18
48
1
60
1
100
AcDbLine
10
-66.414241
20
46.465002
30
0
11
-67.335809
21
46.464998
31
0
39
0
210
0
220
0
230
1
0
LINE
5
1A3
100
AcDbEntity
8
1
62
256
6
ByLayer
370
18
48
1
60
1
100
AcDbLine
10
-67.335809
20
46.464998
30
0
11
-66.875025
21
49.965
31
0
39
0
210
0
220
0
230
1
0
LINE
5
1A5
100
AcDbEntity
8
1
62
256
6
ByLayer
370
18
48
1
60
1
100
AcDbLine
10
-66.875025
20
-49.965
30
0
11
-67.335809
21
-46.465002
31
0
39
0
210
0
220
0
230
1
0
LINE
5
1A6
100
AcDbEntity
8
1
62
256
6
ByLayer
370
18
48
1
60
1
100
AcDbLine
10
-67.335809
20
-46.465002
30
0
11
-66.414241
21
-46.464998
31
0
39
0
210
0
220
0
230
1
0
LINE
5
1A7
100
AcDbEntity
8
1
62
256
6
ByLayer
370
18
48
1
60
1
100
AcDbLine
10
-66.414241
20
-46.464998
30
0
11
-66.875025
21
-49.965
31
0
39
0
210
0
220
0
230
1
0
LINE
5
1AA
100
AcDbEntity
8
1
62
256
6
ByLayer
370
18
48
1
60
1
100
AcDbLine
10
90
20
62.815
30
0
11
86.500002
21
62.354216
31
0
39
0
210
0
220
0
230
1
0
LINE
5
1AB
100
AcDbEntity
8
1
62
256
6
ByLayer
370
18
48
1
60
1
100
AcDbLine
10
86.500002
20
62.354216
30
0
11
86.499998
21
63.275784
31
0
39
0
210
0
220
0
230
1
0
LINE
5
1AC
100
AcDbEntity
8
1
62
256
6
ByLayer
370
18
48
1
60
1
100
AcDbLine
10
86.499998
20
63.275784
30
0
11
90
21
62.815
31
0
39
0
210
0
220
0
230
1
0
LINE
5
1AE
100
AcDbEntity
8
1
62
256
6
ByLayer
370
18
48
1
60
1
100
AcDbLine
10
28.95
20
62.815
30
0
11
32.449998
21
63.275784
31
0
39
0
210
0
220
0
230
1
0
LINE
5
1AF
100
AcDbEntity
8
1
62
256
6
ByLayer
370
18
48
1
60
1
100
AcDbLine
10
32.449998
20
63.275784
30
0
11
32.450002
21
62.354216
31
0
39
0
210
0
220
0
230
1
0
LINE
5
1B0
100
AcDbEntity
8
1
62
256
6
ByLayer
370
18
48
1
60
1
100
AcDbLine
10
32.450002
20
62.354216
30
0
11
28.95
21
62.815
31
0
39
0
210
0
220
0
230
1
0
LINE
5
1B3
100
AcDbEntity
8
1
62
256
6
ByLayer
370
18
48
1
60
1
100
AcDbLine
10
0
20
72.815
30
0
11
3.499998
21
73.275784
31
0
39
0
210
0
220
0
230
1
0
LINE
5
1B4
100
AcDbEntity
8
1
62
256
6
ByLayer
370
18
48
1
60
1
100
AcDbLine
10
3.499998
20
73.275784
30
0
11
3.500002
21
72.354216
31
0
39
0
210
0
220
0
230
1
0
LINE
5
1B5
100
AcDbEntity
8
1
62
256
6
ByLayer
370
18
48
1
60
1
100
AcDbLine
10
3.500002
20
72.354216
30
0
11
0
21
72.815
31
0
39
0
210
0
220
0
230
1
0
LINE
5
1B7
100
AcDbEntity
8
1
62
256
6
ByLayer
370
18
48
1
60
1
100
AcDbLine
10
90
20
72.815
30
0
11
86.500002
21
72.354216
31
0
39
0
210
0
220
0
230
1
0
LINE
5
1B8
100
AcDbEntity
8
1
62
256
6
ByLayer
370
18
48
1
60
1
100
AcDbLine
10
86.500002
20
72.354216
30
0
11
86.499998
21
73.275784
31
0
39
0
210
0
220
0
230
1
0
LINE
5
1B9
100
AcDbEntity
8
1
62
256
6
ByLayer
370
18
48
1
60
1
100
AcDbLine
10
86.499998
20
73.275784
30
0
11
90
21
72.815
31
0
39
0
210
0
220
0
230
1
0
LINE
5
1BC
100
AcDbEntity
8
1
62
256
6
ByLayer
370
18
48
1
60
1
100
AcDbLine
10
0
20
72.815
30
0
11
-3.499998
21
72.354216
31
0
39
0
210
0
220
0
230
1
0
LINE
5
1BD
100
AcDbEntity
8
1
62
256
6
ByLayer
370
18
48
1
60
1
100
AcDbLine
10
-3.499998
20
72.354216
30
0
11
-3.500002
21
73.275784
31
0
39
0
210
0
220
0
230
1
0
LINE
5
1BE
100
AcDbEntity
8
1
62
256
6
ByLayer
370
18
48
1
60
1
100
AcDbLine
10
-3.500002
20
73.275784
30
0
11
0
21
72.815
31
0
39
0
210
0
220
0
230
1
0
LINE
5
1C0
100
AcDbEntity
8
1
62
256
6
ByLayer
370
18
48
1
60
1
100
AcDbLine
10
-49.9
20
72.815
30
0
11
-46.400002
21
73.275784
31
0
39
0
210
0
220
0
230
1
0
LINE
5
1C1
100
AcDbEntity
8
1
62
256
6
ByLayer
370
18
48
1
60
1
100
AcDbLine
10
-46.400002
20
73.275784
30
0
11
-46.399998
21
72.354216
31
0
39
0
210
0
220
0
230
1
0
LINE
5
1C2
100
AcDbEntity
8
1
62
256
6
ByLayer
370
18
48
1
60
1
100
AcDbLine
10
-46.399998
20
72.354216
30
0
11
-49.9
21
72.815
31
0
39
0
210
0
220
0
230
1
0
MTEXT
5
193
100
AcDbEntity
8
SK2
62
256
6
ByLayer
370
18
48
1
60
0
100
AcDbMText
10
115.270608
20
-6.547355
30
0
210
0
220
0
230
1
1
%%c
40
3.5
41
0
44
1.084337
50
90
71
7
72
5
7
iso_b_vert
0
MTEXT
5
196
100
AcDbEntity
8
SK2
62
256
6
ByLayer
370
18
48
1
60
0
100
AcDbMText
10
115.270608
20
0.425301
30
0
210
0
220
0
230
1
1
\W0.7346;35.8
40
3.5
41
0
44
1.084337
50
90
71
7
72
5
7
iso_b_vert
0
MTEXT
5
19F
100
AcDbEntity
8
SK2
62
256
6
ByLayer
370
18
48
1
60
0
100
AcDbMText
10
-68.439659
20
-5.400922
30
0
210
0
220
0
230
1
1
%%c
40
3.5
41
0
44
1.084337
50
90
71
7
72
5
7
iso_b_vert
0
MTEXT
5
1A0
100
AcDbEntity
8
SK2
62
256
6
ByLayer
370
18
48
1
60
0
100
AcDbMText
10
-68.439659
20
1.571734
30
0
210
0
220
0
230
1
1
\W0.6217;100
40
3.5
41
0
44
1.084337
50
90
71
7
72
5
7
iso_b_vert
0
MTEXT
5
1A9
100
AcDbEntity
8
2
62
256
6
ByLayer
370
18
48
1
60
0
100
AcDbMText
10
58.007467
20
63.847634
30
0
210
0
220
0
230
1
1
\W0.6351;61
40
3.5
41
0
44
1.084337
50
0
71
7
72
5
7
iso_b_vert
0
MTEXT
5
1B2
100
AcDbEntity
8
SK2
62
256
6
ByLayer
370
18
48
1
60
0
100
AcDbMText
10
43.095034
20
73.847634
30
0
210
0
220
0
230
1
1
\W0.6740;90
40
3.5
41
0
44
1.084337
50
0
71
7
72
5
7
iso_b_vert
0
MTEXT
5
1BB
100
AcDbEntity
8
SK2
62
256
6
ByLayer
370
18
48
1
60
0
100
AcDbMText
10
-29.055966
20
73.847634
30
0
210
0
220
0
230
1
1
\W0.7756;49.9
40
3.5
41
0
44
1.084337
50
0
71
7
72
5
7
iso_b_vert
0
MTEXT
5
1C4
100
AcDbEntity
8
SK6
62
256
6
ByLayer
370
18
48
1
60
0
100
AcDbMText
10
48.508454
20
-92.114886
30
0
210
0
220
0
230
1
1
\W0.7670;HA10-AWE12-B036-090
40
3
41
0
44
1.084337
50
0
71
7
72
5
7
iso_b_vert
0
HATCH
5
19A
100
AcDbEntity
8
SK2
62
256
6
ByLayer
370
13
48
1
60
0
100
AcDbHatch
10
0
20
0
30
0
210
0
220
0
230
1
2
ANSI31
70
0
71
0
91
1
92
5
93
3
72
1
10
116.835241627749
20
-17.8999999999999
11
116.374457886196
21
-14.4000016925531
72
1
10
116.374457886196
20
-14.4000016925531
11
117.296025369301
21
-14.3999983074467
72
1
10
117.296025369301
20
-14.3999983074467
11
116.835241627749
21
-17.8999999999999
97
0
75
0
76
1
52
0
41
0.0062
77
0
78
1
53
45
43
0
44
0
45
-0.0139193969876572
46
0.0139193969876572
79
0
47
0
98
1
10
0
20
0
0
HATCH
5
19E
100
AcDbEntity
8
SK2
62
256
6
ByLayer
370
13
48
1
60
0
100
AcDbHatch
10
0
20
0
30
0
210
0
220
0
230
1
2
ANSI31
70
0
71
0
91
1
92
5
93
3
72
1
10
116.835241627749
20
17.9000000000001
11
117.296025369301
21
14.4000016925533
72
1
10
117.296025369301
20
14.4000016925533
11
116.374457886196
21
14.3999983074469
72
1
10
116.374457886196
20
14.3999983074469
11
116.835241627749
21
17.9000000000001
97
0
75
0
76
1
52
0
41
0.0062
77
0
78
1
53
45
43
0
44
0
45
-0.0139193969876572
46
0.0139193969876572
79
0
47
0
98
1
10
0
20
0
0
HATCH
5
1A4
100
AcDbEntity
8
SK2
62
256
6
ByLayer
370
13
48
1
60
0
100
AcDbHatch
10
0
20
0
30
0
210
0
220
0
230
1
2
ANSI31
70
0
71
0
91
1
92
5
93
3
72
1
10
-66.8750250000001
20
49.965
11
-66.4142412584473
21
46.4650016925532
72
1
10
-66.4142412584473
20
46.4650016925532
11
-67.3358087415529
21
46.4649983074468
72
1
10
-67.3358087415529
20
46.4649983074468
11
-66.8750250000001
21
49.965
97
0
75
0
76
1
52
0
41
0.0062
77
0
78
1
53
45
43
0
44
0
45
-0.0139193969876572
46
0.0139193969876572
79
0
47
0
98
1
10
0
20
0
0
HATCH
5
1A8
100
AcDbEntity
8
SK2
62
256
6
ByLayer
370
13
48
1
60
0
100
AcDbHatch
10
0
20
0
30
0
210
0
220
0
230
1
2
ANSI31
70
0
71
0
91
1
92
5
93
3
72
1
10
-66.8750250000001
20
-49.965
11
-67.3358087415529
21
-46.4650016925532
72
1
10
-67.3358087415529
20
-46.4650016925532
11
-66.4142412584473
21
-46.4649983074468
72
1
10
-66.4142412584473
20
-46.4649983074468
11
-66.8750250000001
21
-49.965
97
0
75
0
76
1
52
0
41
0.0062
77
0
78
1
53
45
43
0
44
0
45
-0.0139193969876572
46
0.0139193969876572
79
0
47
0
98
1
10
0
20
0
0
HATCH
5
1AD
100
AcDbEntity
8
2
62
256
6
ByLayer
370
13
48
1
60
0
100
AcDbHatch
10
0
20
0
30
0
210
0
220
0
230
1
2
ANSI31
70
0
71
0
91
1
92
5
93
3
72
1
10
90
20
62.8150000000001
11
86.5000016925532
21
62.3542162584473
72
1
10
86.5000016925532
20
62.3542162584473
11
86.4999983074468
21
63.2757837415529
72
1
10
86.4999983074468
20
63.2757837415529
11
90
21
62.8150000000001
97
0
75
0
76
1
52
0
41
0.0062
77
0
78
1
53
45
43
0
44
0
45
-0.0139193969876572
46
0.0139193969876572
79
0
47
0
98
1
10
0
20
0
0
HATCH
5
1B1
100
AcDbEntity
8
2
62
256
6
ByLayer
370
13
48
1
60
0
100
AcDbHatch
10
0
20
0
30
0
210
0
220
0
230
1
2
ANSI31
70
0
71
0
91
1
92
5
93
3
72
1
10
28.95
20
62.8150000000001
11
32.4499983074468
21
63.2757837415529
72
1
10
32.4499983074468
20
63.2757837415529
11
32.4500016925532
21
62.3542162584473
72
1
10
32.4500016925532
20
62.3542162584473
11
28.95
21
62.8150000000001
97
0
75
0
76
1
52
0
41
0.0062
77
0
78
1
53
45
43
0
44
0
45
-0.0139193969876572
46
0.0139193969876572
79
0
47
0
98
1
10
0
20
0
0
HATCH
5
1B6
100
AcDbEntity
8
SK2
62
256
6
ByLayer
370
13
48
1
60
0
100
AcDbHatch
10
0
20
0
30
0
210
0
220
0
230
1
2
ANSI31
70
0
71
0
91
1
92
5
93
3
72
1
10
0
20
72.8150000000001
11
3.49999830744682
21
73.2757837415529
72
1
10
3.49999830744682
20
73.2757837415529
11
3.50000169255318
21
72.3542162584473
72
1
10
3.50000169255318
20
72.3542162584473
11
0
21
72.8150000000001
97
0
75
0
76
1
52
0
41
0.0062
77
0
78
1
53
45
43
0
44
0
45
-0.0139193969876572
46
0.0139193969876572
79
0
47
0
98
1
10
0
20
0
0
HATCH
5
1BA
100
AcDbEntity
8
SK2
62
256
6
ByLayer
370
13
48
1
60
0
100
AcDbHatch
10
0
20
0
30
0
210
0
220
0
230
1
2
ANSI31
70
0
71
0
91
1
92
5
93
3
72
1
10
90
20
72.8150000000001
11
86.5000016925532
21
72.3542162584473
72
1
10
86.5000016925532
20
72.3542162584473
11
86.4999983074468
21
73.2757837415529
72
1
10
86.4999983074468
20
73.2757837415529
11
90
21
72.8150000000001
97
0
75
0
76
1
52
0
41
0.0062
77
0
78
1
53
45
43
0
44
0
45
-0.0139193969876572
46
0.0139193969876572
79
0
47
0
98
1
10
0
20
0
0
HATCH
5
1BF
100
AcDbEntity
8
SK2
62
256
6
ByLayer
370
13
48
1
60
0
100
AcDbHatch
10
0
20
0
30
0
210
0
220
0
230
1
2
ANSI31
70
0
71
0
91
1
92
5
93
3
72
1
10
0
20
72.8150000000001
11
-3.4999983074468
21
72.3542162584473
72
1
10
-3.4999983074468
20
72.3542162584473
11
-3.5000016925532
21
73.2757837415529
72
1
10
-3.5000016925532
20
73.2757837415529
11
0
21
72.8150000000001
97
0
75
0
76
1
52
0
41
0.0062
77
0
78
1
53
45
43
0
44
0
45
-0.0139193969876572
46
0.0139193969876572
79
0
47
0
98
1
10
0
20
0
0
HATCH
5
1C3
100
AcDbEntity
8
SK2
62
256
6
ByLayer
370
13
48
1
60
0
100
AcDbHatch
10
0
20
0
30
0
210
0
220
0
230
1
2
ANSI31
70
0
71
0
91
1
92
5
93
3
72
1
10
-49.9
20
72.8150000000001
11
-46.4000016925532
21
73.2757837415529
72
1
10
-46.4000016925532
20
73.2757837415529
11
-46.3999983074468
21
72.3542162584473
72
1
10
-46.3999983074468
20
72.3542162584473
11
-49.9
21
72.8150000000001
97
0
75
0
76
1
52
0
41
0.0062
77
0
78
1
53
45
43
0
44
0
45
-0.0139193969876572
46
0.0139193969876572
79
0
47
0
98
1
10
0
20
0
0
ENDSEC
0
SECTION
2
OBJECTS
0
DICTIONARY
5
232
330
0
100
AcDbDictionary
280
0
281
1
3
ACAD_GROUP
350
233
3
ACAD_MLINESTYLE
350
234
0
DICTIONARY
5
233
330
0
100
AcDbDictionary
280
0
281
1
0
DICTIONARY
5
234
330
0
100
AcDbDictionary
280
0
281
1
3
Standard
350
18
0
MLINESTYLE
5
18
330
234
100
AcDbMlineStyle
2
Standard
70
0
3

62
256
51
90
52
90
71
2
49
-0.5
62
256
6
ByLayer
49
0.5
62
256
6
ByLayer
0
RASTERVARIABLES
5
221
330

100
AcDbRasterVariables
90
0
70
1
71
1
72
1
0
ENDSEC
0
EOF
