0
SECTION
2
HEADER
9
$ACADVER
1
AC1015
9
$DWGCODEPAGE
3
ANSI_1252
9
$HANDSEED
5
23e
9
$ANGBASE
50
0
9
$ANGDIR
70
0
9
$ATTMODE
70
1
9
$AUNITS
70
0
9
$AUPREC
70
0
9
$CECOLOR
62
256
9
$CELTSCALE
40
1
9
$CELTYPE
6
ByLayer
9
$CELWEIGHT
370
18
9
$CLAYER
8
0
9
$CMLJUST
70
0
9
$CMLSCALE
40
1
9
$CMLSTYLE
2
Standard
9
$DIMSTYLE
2
Standard
9
$TEXTSIZE
40
0.2
9
$TEXTSTYLE
7
Standard
9
$LUNITS
70
2
9
$LUPREC
70
4
9
$EXTNAMES
290
1
9
$INSUNITS
70
4
9
$LTSCALE
40
1
9
$LWDISPLAY
290
1
9
$PDMODE
70
0
9
$PDSIZE
40
0
9
$PLINEGEN
70
0
0
ENDSEC
0
SECTION
2
CLASSES
0
CLASS
1
RASTERVARIABLES
2
AcDbRasterVariables
3
ISM
90
0
280
0
281
0
0
ENDSEC
0
SECTION
2
TABLES
0
TABLE
2
VPORT
5
234
100
AcDbSymbolTable
0
VPORT
5
1
100
AcDbSymbolTableRecord
100
AcDbViewportTableRecord
2
*Active
70
0
10
0
20
0
11
1
21
1
12
-1
22
1
13
0
23
0
14
0.5
24
0.5
15
10
25
10
16
0
26
0
36
1
17
0
27
0
37
0
0
ENDTAB
0
TABLE
2
LTYPE
5
235
100
AcDbSymbolTable
0
LTYPE
5
14
100
AcDbSymbolTableRecord
100
AcDbLinetypeTableRecord
70
0
2
ByBlock
3

72
65
73
0
40
0
0
LTYPE
5
15
100
AcDbSymbolTableRecord
100
AcDbLinetypeTableRecord
70
0
2
ByLayer
3

72
65
73
0
40
0
0
LTYPE
5
16
100
AcDbSymbolTableRecord
100
AcDbLinetypeTableRecord
70
0
2
Continuous
3
Solid line
72
65
73
0
40
0
0
LTYPE
5
6E
100
AcDbSymbolTableRecord
100
AcDbLinetypeTableRecord
70
0
2
CENTER
3
____ _ ____ _ ____ _ ____
72
65
73
4
40
47.5
49
22
74
0
49
-8.5
74
0
49
8.5
74
0
49
-8.5
74
0
0
LTYPE
5
6F
100
AcDbSymbolTableRecord
100
AcDbLinetypeTableRecord
70
0
2
DASHED
3
__ __ __ __ __ __ __ __ __
72
65
73
2
40
25.72
49
12.86
74
0
49
-12.86
74
0
0
ENDTAB
0
TABLE
2
LAYER
5
236
100
AcDbSymbolTable
0
LAYER
5
10
100
AcDbSymbolTableRecord
100
AcDbLayerTableRecord
2
0
70
0
62
7
6
Continuous
290
1
370
-3
390
0
0
LAYER
5
71
100
AcDbSymbolTableRecord
100
AcDbLayerTableRecord
2
2
70
0
62
7
6
Continuous
290
1
370
-3
390
0
0
LAYER
5
84
100
AcDbSymbolTableRecord
100
AcDbLayerTableRecord
2
80
70
0
62
-6
6
Continuous
290
1
370
-3
390
0
0
LAYER
5
86
100
AcDbSymbolTableRecord
100
AcDbLayerTableRecord
2
81
70
0
62
-3
6
Continuous
290
1
370
-3
390
0
0
LAYER
5
8A
100
AcDbSymbolTableRecord
100
AcDbLayerTableRecord
2
4
70
0
62
-2
6
CENTER
290
1
370
-3
390
0
0
LAYER
5
8C
100
AcDbSymbolTableRecord
100
AcDbLayerTableRecord
2
1
70
0
62
4
6
Continuous
290
1
370
-3
390
0
0
LAYER
5
221
100
AcDbSymbolTableRecord
100
AcDbLayerTableRecord
2
SK1
70
0
62
4
6
Continuous
290
1
370
-3
390
0
0
LAYER
5
222
100
AcDbSymbolTableRecord
100
AcDbLayerTableRecord
2
SK2
70
0
62
7
6
Continuous
290
1
370
-3
390
0
0
LAYER
5
223
100
AcDbSymbolTableRecord
100
AcDbLayerTableRecord
2
SK6
70
0
62
5
6
Continuous
290
1
370
-3
390
0
0
ENDTAB
0
TABLE
2
STYLE
5
237
100
AcDbSymbolTable
0
STYLE
5
11
100
AcDbSymbolTableRecord
100
AcDbTextStyleTableRecord
2
Standard
3
txt
70
0
71
0
40
0
41
1
42
0
50
0
0
STYLE
5
193
100
AcDbSymbolTableRecord
100
AcDbTextStyleTableRecord
2
iso_b_vert
3
simplex.shx
70
0
71
0
40
0
41
1
42
0
50
0
0
STYLE
5
194
100
AcDbSymbolTableRecord
100
AcDbTextStyleTableRecord
2
DWGDirectTextStyle
3
simplex
70
0
71
0
40
0
41
1
42
0
50
0
0
ENDTAB
0
TABLE
2
DIMSTYLE
5
238
100
AcDbSymbolTable
100
AcDbDimStyleTable
0
DIMSTYLE
105
27
100
AcDbSymbolTableRecord
100
AcDbDimStyleTableRecord
2
Standard
70
0
3
<>
41
0.18
42
0.0625
44
0.18
140
0.18
147
0.09
73
0
74
0
77
1
271
2
275
0
278
52
280
0
340
11
0
ENDTAB
0
TABLE
2
VIEW
5
239
100
AcDbSymbolTable
0
ENDTAB
0
TABLE
2
UCS
5
23a
100
AcDbSymbolTable
0
ENDTAB
0
TABLE
2
APPID
5
23b
100
AcDbSymbolTable
0
APPID
5
12
100
AcDbSymbolTableRecord
100
AcDbRegAppTableRecord
2
ACAD
70
0
0
APPID
5
21D
100
AcDbSymbolTableRecord
100
AcDbRegAppTableRecord
2
ACAD_MLEADERVER
70
0
0
ENDTAB
0
TABLE
2
BLOCK_RECORD
5
23c
100
AcDbSymbolTable
0
BLOCK_RECORD
5
1F
100
AcDbSymbolTableRecord
100
AcDbBlockTableRecord
2
*Model_Space
340
0
70
0
0
BLOCK_RECORD
5
1B
100
AcDbSymbolTableRecord
100
AcDbBlockTableRecord
2
*Paper_Space
340
0
70
0
0
BLOCK_RECORD
5
23
100
AcDbSymbolTableRecord
100
AcDbBlockTableRecord
2
*Paper_Space0
340
0
70
0
0
ENDTAB
0
ENDSEC
0
SECTION
2
BLOCKS
0
BLOCK
5
20
100
AcDbEntity
8
0
100
AcDbBlockBegin
2
*Model_Space
70
0
10
0
20
0
30
0
3
*Model_Space
0
ENDBLK
5
21
100
AcDbEntity
8
0
100
AcDbBlockEnd
0
BLOCK
5
1C
100
AcDbEntity
8
0
100
AcDbBlockBegin
2
*Paper_Space
70
0
10
0
20
0
30
0
3
*Paper_Space
0
ENDBLK
5
1D
100
AcDbEntity
8
0
100
AcDbBlockEnd
0
BLOCK
5
24
100
AcDbEntity
8
0
100
AcDbBlockBegin
2
*Paper_Space0
70
0
10
0
20
0
30
0
3
*Paper_Space0
0
ENDBLK
5
25
100
AcDbEntity
8
0
100
AcDbBlockEnd
0
ENDSEC
0
SECTION
2
ENTITIES
0
ARC
5
11F
100
AcDbEntity
8
SK2
62
256
6
ByLayer
370
18
48
1
60
0
100
AcDbCircle
39
0
10
76
20
0
30
0
40
4.61880215351674
210
0
220
0
230
1
100
AcDbArc
50
330
51
30
0
ARC
5
120
100
AcDbEntity
8
SK2
62
256
6
ByLayer
370
18
48
1
60
0
100
AcDbCircle
39
0
10
76
20
0
30
0
40
4.61880215351674
210
0
220
0
230
1
100
AcDbArc
50
150
51
210
0
ARC
5
121
100
AcDbEntity
8
SK2
62
256
6
ByLayer
370
18
48
1
60
0
100
AcDbCircle
39
0
10
76
20
0
30
0
40
4.61880215351674
210
0
220
0
230
1
100
AcDbArc
50
30
51
90
0
ARC
5
122
100
AcDbEntity
8
SK2
62
256
6
ByLayer
370
18
48
1
60
0
100
AcDbCircle
39
0
10
76
20
0
30
0
40
4.61880215351674
210
0
220
0
230
1
100
AcDbArc
50
210
51
270
0
ARC
5
123
100
AcDbEntity
8
SK2
62
256
6
ByLayer
370
18
48
1
60
0
100
AcDbCircle
39
0
10
76
20
0
30
0
40
4.61880215351674
210
0
220
0
230
1
100
AcDbArc
50
90
51
150
0
ARC
5
124
100
AcDbEntity
8
SK2
62
256
6
ByLayer
370
18
48
1
60
0
100
AcDbCircle
39
0
10
76
20
0
30
0
40
4.61880215351674
210
0
220
0
230
1
100
AcDbArc
50
270
51
330
0
ARC
5
125
100
AcDbEntity
8
1
62
256
6
ByLayer
370
18
48
1
60
0
100
AcDbCircle
39
0
10
36.124598
20
24.4
30
0
40
0.600000000000001
210
0
220
0
230
1
100
AcDbArc
50
270
51
285
0
ARC
5
126
100
AcDbEntity
8
1
62
256
6
ByLayer
370
18
48
1
60
0
100
AcDbCircle
39
0
10
36.124598
20
-24.4
30
0
40
0.600000000000001
210
0
220
0
230
1
100
AcDbArc
50
75
51
90
0
ARC
5
127
100
AcDbEntity
8
1
62
256
6
ByLayer
370
18
48
1
60
0
100
AcDbCircle
39
0
10
34.95
20
29.8
30
0
40
6
210
0
220
0
230
1
100
AcDbArc
50
180
51
270
0
ARC
5
128
100
AcDbEntity
8
1
62
256
6
ByLayer
370
18
48
1
60
0
100
AcDbCircle
39
0
10
34.95
20
-29.8
30
0
40
6
210
0
220
0
230
1
100
AcDbArc
50
90
51
180
0
ARC
5
129
100
AcDbEntity
8
SK1
62
256
6
ByLayer
370
18
48
1
60
0
100
AcDbCircle
39
0
10
-41.7
20
34.125
30
0
40
1.9
210
0
220
0
230
1
100
AcDbArc
50
270
51
313.91428
0
ARC
5
12A
100
AcDbEntity
8
SK1
62
256
6
ByLayer
370
18
48
1
60
0
100
AcDbCircle
39
0
10
-36.7
20
-34.125
30
0
40
1.9
210
0
220
0
230
1
100
AcDbArc
50
34.902187
51
90
0
ARC
5
12B
100
AcDbEntity
8
SK1
62
256
6
ByLayer
370
18
48
1
60
0
100
AcDbCircle
39
0
10
-0.8
20
38.632252
30
0
40
1
210
0
220
0
230
1
100
AcDbArc
50
270
51
323.130102
0
ARC
5
12C
100
AcDbEntity
8
SK1
62
256
6
ByLayer
370
18
48
1
60
0
100
AcDbCircle
39
0
10
-0.8
20
-38.632252
30
0
40
1
210
0
220
0
230
1
100
AcDbArc
50
36.869898
51
90
0
ARC
5
12D
100
AcDbEntity
8
1
62
256
6
ByLayer
370
18
48
1
60
0
100
AcDbCircle
39
0
10
51
20
17.807216
30
0
40
1.52
210
0
220
0
230
1
100
AcDbArc
50
38.418736
51
141.575603
0
CIRCLE
5
11E
100
AcDbEntity
8
SK2
62
256
6
ByLayer
370
18
48
1
60
0
100
AcDbCircle
10
76
20
0
30
0
40
6
39
0
210
0
220
0
230
1
0
ELLIPSE
5
12E
100
AcDbEntity
8
1
62
256
6
ByLayer
370
18
48
1
60
0
100
AcDbEllipse
10
51
20
-19.413903
30
0
11
-2.00000000000004
21
-6.43257148935663E-16
31
0
210
0
220
0
230
1
40
0.573576
41
-0.775776854298624
42
0
0
ELLIPSE
5
12F
100
AcDbEntity
8
1
62
256
6
ByLayer
370
18
48
1
60
0
100
AcDbEllipse
10
51
20
-19.413903
30
0
11
-2.00000000000004
21
-6.43257148935663E-16
31
0
210
0
220
0
230
1
40
0.573576
41
0
42
1.57079620201487
0
ELLIPSE
5
130
100
AcDbEntity
8
1
62
256
6
ByLayer
370
18
48
1
60
0
100
AcDbEllipse
10
51
20
-19.413903
30
0
11
-2.00000000000004
21
-6.43257148935663E-16
31
0
210
0
220
0
230
1
40
0.573576
41
1.57079620113489
42
-2.36581549164686
0
ELLIPSE
5
131
100
AcDbEntity
8
1
62
256
6
ByLayer
370
18
48
1
60
0
100
AcDbEllipse
10
51
20
19.413903
30
0
11
2.00000000000004
21
0
31
0
210
0
220
0
230
1
40
0.573576
41
-0.775678848439624
42
0
0
ELLIPSE
5
132
100
AcDbEntity
8
1
62
256
6
ByLayer
370
18
48
1
60
0
100
AcDbEllipse
10
51
20
19.413903
30
0
11
2.00000000000004
21
0
31
0
210
0
220
0
230
1
40
0.573576
41
0
42
-2.36591349640559
0
ELLIPSE
5
133
100
AcDbEntity
8
1
62
256
6
ByLayer
370
18
48
1
60
0
100
AcDbEllipse
10
20
20
7.629233
30
0
11
-1.75000000000001
21
-5.62850005318697E-16
31
0
210
0
220
0
230
1
40
0.984808
41
-1.57079655876472
42
-0.125860244287696
0
ELLIPSE
5
134
100
AcDbEntity
8
1
62
256
6
ByLayer
370
18
48
1
60
0
100
AcDbEllipse
10
20
20
7.629233
30
0
11
-1.75000000000001
21
-5.62850005318697E-16
31
0
210
0
220
0
230
1
40
0.984808
41
-3.06570356230511
42
-1.57079655876473
0
ELLIPSE
5
135
100
AcDbEntity
8
1
62
256
6
ByLayer
370
18
48
1
60
0
100
AcDbEllipse
10
20
20
-7.629233
30
0
11
1.75000000000001
21
0
31
0
210
0
220
0
230
1
40
0.984808
41
-3.08180417172496
42
-0.0617518050809049
0
ELLIPSE
5
136
100
AcDbEntity
8
1
62
256
6
ByLayer
370
18
48
1
60
0
100
AcDbEllipse
10
51
20
-18.205833
30
0
11
1.44
21
0
31
0
210
0
220
0
230
1
40
0.573576
41
-2.48342942071749
42
-0.65816385348815
0
ELLIPSE
5
137
100
AcDbEntity
8
1
62
256
6
ByLayer
370
18
48
1
60
0
100
AcDbEllipse
10
51
20
-19.216158
30
0
11
-1.44
21
-4.63145147233668E-16
31
0
210
0
220
0
230
1
40
0.573576
41
0
42
6.28318530717959
0
ELLIPSE
5
138
100
AcDbEntity
8
1
62
256
6
ByLayer
370
18
48
1
60
0
100
AcDbEllipse
10
51
20
-19.085592
30
0
11
-1.95620240091251
21
-6.29170589576027E-16
31
0
210
0
220
0
230
1
40
0.573576
41
0.0612611007395733
42
0.86963190116384
0
ELLIPSE
5
139
100
AcDbEntity
8
1
62
256
6
ByLayer
370
18
48
1
60
0
100
AcDbEllipse
10
51
20
-19.085592
30
0
11
-1.95620240091251
21
-6.29170589576027E-16
31
0
210
0
220
0
230
1
40
0.573576
41
2.27196052593007
42
3.08033121888019
0
ELLIPSE
5
13A
100
AcDbEntity
8
1
62
256
6
ByLayer
370
18
48
1
60
0
100
AcDbEllipse
10
51
20
-19.216158
30
0
11
1.78225748207288
21
0
31
0
210
0
220
0
230
1
40
0.573576
41
-1.5707962264745
42
0
0
ELLIPSE
5
13B
100
AcDbEntity
8
1
62
256
6
ByLayer
370
18
48
1
60
0
100
AcDbEllipse
10
51
20
-19.216158
30
0
11
1.78225748207288
21
0
31
0
210
0
220
0
230
1
40
0.573576
41
0
42
0.610745497270901
0
ELLIPSE
5
13C
100
AcDbEntity
8
1
62
256
6
ByLayer
370
18
48
1
60
0
100
AcDbEllipse
10
51
20
-19.216158
30
0
11
1.78225748207288
21
0
31
0
210
0
220
0
230
1
40
0.573576
41
2.53084742694411
42
-1.57079622647454
0
ELLIPSE
5
13D
100
AcDbEntity
8
1
62
256
6
ByLayer
370
18
48
1
60
0
100
AcDbEllipse
10
51
20
19.216158
30
0
11
1.44
21
0
31
0
210
0
220
0
230
1
40
0.573576
41
0
42
6.28318530717959
0
ELLIPSE
5
13E
100
AcDbEntity
8
1
62
256
6
ByLayer
370
18
48
1
60
0
100
AcDbEllipse
10
51
20
19.085592
30
0
11
1.95620240091251
21
0
31
0
210
0
220
0
230
1
40
0.573576
41
2.27186238011959
42
3.08023355562514
0
ELLIPSE
5
13F
100
AcDbEntity
8
1
62
256
6
ByLayer
370
18
48
1
60
0
100
AcDbEllipse
10
51
20
19.085592
30
0
11
1.95620240091251
21
0
31
0
210
0
220
0
230
1
40
0.573576
41
0.0613596518410474
42
0.869730649092472
0
ELLIPSE
5
140
100
AcDbEntity
8
1
62
256
6
ByLayer
370
18
48
1
60
0
100
AcDbEllipse
10
51
20
19.216158
30
0
11
-1.78225748207288
21
-5.73224933293715E-16
31
0
210
0
220
0
230
1
40
0.573576
41
2.53094581315034
42
0
0
ELLIPSE
5
141
100
AcDbEntity
8
1
62
256
6
ByLayer
370
18
48
1
60
0
100
AcDbEllipse
10
51
20
19.216158
30
0
11
-1.78225748207288
21
-5.73224933293715E-16
31
0
210
0
220
0
230
1
40
0.573576
41
0
42
0.610647111079936
0
ELLIPSE
5
142
100
AcDbEntity
8
1
62
256
6
ByLayer
370
18
48
1
60
0
100
AcDbEllipse
10
51
20
-18.205833
30
0
11
1.44
21
0
31
0
210
0
220
0
230
1
40
0.573576
41
-2.48342942071749
42
-0.65816385348815
0
ELLIPSE
5
143
100
AcDbEntity
8
1
62
256
6
ByLayer
370
18
48
1
60
0
100
AcDbEllipse
10
51
20
-19.216158
30
0
11
-1.44
21
-4.63145147233668E-16
31
0
210
0
220
0
230
1
40
0.573576
41
0
42
6.28318530717959
0
ELLIPSE
5
144
100
AcDbEntity
8
1
62
256
6
ByLayer
370
18
48
1
60
0
100
AcDbEllipse
10
51
20
-19.216158
30
0
11
1.78225748207288
21
0
31
0
210
0
220
0
230
1
40
0.573576
41
-1.5707962264745
42
0
0
ELLIPSE
5
145
100
AcDbEntity
8
1
62
256
6
ByLayer
370
18
48
1
60
0
100
AcDbEllipse
10
51
20
-19.216158
30
0
11
1.78225748207288
21
0
31
0
210
0
220
0
230
1
40
0.573576
41
0
42
0.610745497270901
0
ELLIPSE
5
146
100
AcDbEntity
8
1
62
256
6
ByLayer
370
18
48
1
60
0
100
AcDbEllipse
10
51
20
-19.216158
30
0
11
1.78225748207288
21
0
31
0
210
0
220
0
230
1
40
0.573576
41
2.53084742694411
42
-1.57079622647454
0
ELLIPSE
5
147
100
AcDbEntity
8
1
62
256
6
ByLayer
370
18
48
1
60
0
100
AcDbEllipse
10
51
20
-19.085592
30
0
11
-1.95620240091251
21
-6.29170589576027E-16
31
0
210
0
220
0
230
1
40
0.573576
41
0.0612611007395733
42
0.86963190116384
0
ELLIPSE
5
148
100
AcDbEntity
8
1
62
256
6
ByLayer
370
18
48
1
60
0
100
AcDbEllipse
10
51
20
-19.085592
30
0
11
-1.95620240091251
21
-6.29170589576027E-16
31
0
210
0
220
0
230
1
40
0.573576
41
2.27196052593007
42
3.08033121888019
0
ELLIPSE
5
149
100
AcDbEntity
8
1
62
256
6
ByLayer
370
18
48
1
60
0
100
AcDbEllipse
10
51
20
19.216158
30
0
11
1.44
21
0
31
0
210
0
220
0
230
1
40
0.573576
41
0
42
6.28318530717959
0
ELLIPSE
5
14A
100
AcDbEntity
8
1
62
256
6
ByLayer
370
18
48
1
60
0
100
AcDbEllipse
10
51
20
19.085592
30
0
11
1.95620240091251
21
0
31
0
210
0
220
0
230
1
40
0.573576
41
2.27186238011959
42
3.08023355562514
0
ELLIPSE
5
14B
100
AcDbEntity
8
1
62
256
6
ByLayer
370
18
48
1
60
0
100
AcDbEllipse
10
51
20
19.085592
30
0
11
1.95620240091251
21
0
31
0
210
0
220
0
230
1
40
0.573576
41
0.0613596518410474
42
0.869730649092472
0
ELLIPSE
5
14C
100
AcDbEntity
8
1
62
256
6
ByLayer
370
18
48
1
60
0
100
AcDbEllipse
10
51
20
19.216158
30
0
11
-1.78225748207288
21
-5.73224933293715E-16
31
0
210
0
220
0
230
1
40
0.573576
41
2.53094581315034
42
0
0
ELLIPSE
5
14D
100
AcDbEntity
8
1
62
256
6
ByLayer
370
18
48
1
60
0
100
AcDbEllipse
10
51
20
19.216158
30
0
11
-1.78225748207288
21
-5.73224933293715E-16
31
0
210
0
220
0
230
1
40
0.573576
41
0
42
0.610647111079936
0
ELLIPSE
5
14E
100
AcDbEntity
8
SK1
62
256
6
ByLayer
370
13
48
1
60
0
100
AcDbEllipse
10
-36.7
20
-33.386024
30
0
11
1.9
21
0
31
0
210
0
220
0
230
1
40
0.891007
41
1.11205041920186
42
1.5707963267949
0
ELLIPSE
5
14F
100
AcDbEntity
8
1
62
256
6
ByLayer
370
18
48
1
60
0
100
AcDbEllipse
10
100
20
8.601096
30
0
11
0.046464728074646
21
1.2991693611862
31
0
210
0
220
0
230
1
40
0.025019
41
-2.18121453917655
42
-0.610417987575883
0
ELLIPSE
5
150
100
AcDbEntity
8
1
62
256
6
ByLayer
370
18
48
1
60
0
100
AcDbEllipse
10
100
20
8.601096
30
0
11
0.046464728074646
21
1.2991693611862
31
0
210
0
220
0
230
1
40
0.025019
41
-0.610417987575883
42
-0.0433674591877269
0
ELLIPSE
5
151
100
AcDbEntity
8
1
62
256
6
ByLayer
370
18
48
1
60
0
100
AcDbEllipse
10
100
20
-8.601096
30
0
11
-0.0464647280746485
21
1.2991693611862
31
0
210
0
220
0
230
1
40
0.025019
41
-3.09823842105281
42
-2.53117581987996
0
ELLIPSE
5
152
100
AcDbEntity
8
1
62
256
6
ByLayer
370
18
48
1
60
0
100
AcDbEllipse
10
100
20
-8.601096
30
0
11
-0.0464647280746485
21
1.2991693611862
31
0
210
0
220
0
230
1
40
0.025019
41
-2.53117447876636
42
-0.960377983362168
0
ELLIPSE
5
153
100
AcDbEntity
8
1
62
256
6
ByLayer
370
18
48
1
60
0
100
AcDbEllipse
10
100
20
8.601096
30
0
11
0.046464728074646
21
1.2991693611862
31
0
210
0
220
0
230
1
40
0.025019
41
-2.18121453917655
42
-0.610417987575883
0
ELLIPSE
5
154
100
AcDbEntity
8
1
62
256
6
ByLayer
370
18
48
1
60
0
100
AcDbEllipse
10
100
20
8.601096
30
0
11
0.046464728074646
21
1.2991693611862
31
0
210
0
220
0
230
1
40
0.025019
41
-0.610417987575883
42
-0.0433674591876723
0
ELLIPSE
5
155
100
AcDbEntity
8
1
62
256
6
ByLayer
370
18
48
1
60
0
100
AcDbEllipse
10
51
20
19.216158
30
0
11
1.44
21
0
31
0
210
0
220
0
230
1
40
0.573576
41
0
42
6.28318530717959
0
ELLIPSE
5
156
100
AcDbEntity
8
1
62
256
6
ByLayer
370
18
48
1
60
0
100
AcDbEllipse
10
51
20
19.085592
30
0
11
1.95620240091251
21
0
31
0
210
0
220
0
230
1
40
0.573576
41
2.27186238011959
42
3.08023355562514
0
ELLIPSE
5
157
100
AcDbEntity
8
1
62
256
6
ByLayer
370
18
48
1
60
0
100
AcDbEllipse
10
51
20
19.085592
30
0
11
1.95620240091251
21
0
31
0
210
0
220
0
230
1
40
0.573576
41
0.0613596518410443
42
0.869730649092469
0
ELLIPSE
5
158
100
AcDbEntity
8
1
62
256
6
ByLayer
370
18
48
1
60
0
100
AcDbEllipse
10
51
20
19.216158
30
0
11
-1.78225748207288
21
-5.73224933293715E-16
31
0
210
0
220
0
230
1
40
0.573576
41
2.53094581315033
42
0
0
ELLIPSE
5
159
100
AcDbEntity
8
1
62
256
6
ByLayer
370
18
48
1
60
0
100
AcDbEllipse
10
51
20
19.216158
30
0
11
-1.78225748207288
21
-5.73224933293715E-16
31
0
210
0
220
0
230
1
40
0.573576
41
0
42
0.610647111079936
0
POINT
5
70
100
AcDbEntity
8
2
62
256
6
ByLayer
370
18
48
1
60
0
100
AcDbPoint
10
76
20
0
30
0
39
0
210
0
220
0
230
1
50
360
0
POINT
5
72
100
AcDbEntity
8
2
62
256
6
ByLayer
370
18
48
1
60
0
100
AcDbPoint
10
51
20
19.659649
30
0
39
0
210
0
220
0
230
1
50
360
0
POINT
5
73
100
AcDbEntity
8
2
62
256
6
ByLayer
370
18
48
1
60
0
100
AcDbPoint
10
100
20
0
30
0
39
0
210
0
220
0
230
1
50
360
0
POINT
5
74
100
AcDbEntity
8
2
62
256
6
ByLayer
370
18
48
1
60
0
100
AcDbPoint
10
51
20
21.297953
30
0
39
0
210
0
220
0
230
1
50
360
0
POINT
5
75
100
AcDbEntity
8
2
62
256
6
ByLayer
370
18
48
1
60
0
100
AcDbPoint
10
47
20
0
30
0
39
0
210
0
220
0
230
1
50
360
0
POINT
5
76
100
AcDbEntity
8
2
62
256
6
ByLayer
370
18
48
1
60
0
100
AcDbPoint
10
100
20
8.601096
30
0
39
0
210
0
220
0
230
1
50
360
0
POINT
5
77
100
AcDbEntity
8
2
62
256
6
ByLayer
370
18
48
1
60
0
100
AcDbPoint
10
100
20
0
30
0
39
0
210
0
220
0
230
1
50
360
0
POINT
5
78
100
AcDbEntity
8
2
62
256
6
ByLayer
370
18
48
1
60
0
100
AcDbPoint
10
76
20
0
30
0
39
0
210
0
220
0
230
1
50
360
0
POINT
5
79
100
AcDbEntity
8
2
62
256
6
ByLayer
370
18
48
1
60
0
100
AcDbPoint
10
51
20
19.659649
30
0
39
0
210
0
220
0
230
1
50
360
0
POINT
5
7A
100
AcDbEntity
8
2
62
256
6
ByLayer
370
18
48
1
60
0
100
AcDbPoint
10
100
20
0
30
0
39
0
210
0
220
0
230
1
50
360
0
POINT
5
7B
100
AcDbEntity
8
2
62
256
6
ByLayer
370
18
48
1
60
0
100
AcDbPoint
10
76
20
0
30
0
39
0
210
0
220
0
230
1
50
360
0
POINT
5
7C
100
AcDbEntity
8
2
62
256
6
ByLayer
370
18
48
1
60
0
100
AcDbPoint
10
100
20
0
30
0
39
0
210
0
220
0
230
1
50
360
0
POINT
5
7D
100
AcDbEntity
8
2
62
256
6
ByLayer
370
18
48
1
60
0
100
AcDbPoint
10
100
20
0
30
0
39
0
210
0
220
0
230
1
50
360
0
POINT
5
7E
100
AcDbEntity
8
2
62
256
6
ByLayer
370
18
48
1
60
0
100
AcDbPoint
10
100
20
0
30
0
39
0
210
0
220
0
230
1
50
360
0
POINT
5
7F
100
AcDbEntity
8
2
62
256
6
ByLayer
370
18
48
1
60
0
100
AcDbPoint
10
100
20
0
30
0
39
0
210
0
220
0
230
1
50
360
0
POINT
5
80
100
AcDbEntity
8
2
62
256
6
ByLayer
370
18
48
1
60
0
100
AcDbPoint
10
0
20
0
30
0
39
0
210
0
220
0
230
1
50
360
0
POINT
5
81
100
AcDbEntity
8
2
62
256
6
ByLayer
370
18
48
1
60
0
100
AcDbPoint
10
28.95
20
0
30
0
39
0
210
0
220
0
230
1
50
360
0
POINT
5
82
100
AcDbEntity
8
2
62
256
6
ByLayer
370
18
48
1
60
0
100
AcDbPoint
10
47
20
0
30
0
39
0
210
0
220
0
230
1
50
360
0
POINT
5
83
100
AcDbEntity
8
80
62
256
6
ByLayer
370
18
48
1
60
0
100
AcDbPoint
10
0
20
0
30
0
39
0
210
0
220
0
230
1
50
360
0
POINT
5
85
100
AcDbEntity
8
81
62
256
6
ByLayer
370
18
48
1
60
0
100
AcDbPoint
10
100
20
0
30
0
39
0
210
0
220
0
230
1
50
360
0
SPLINE
5
15A
100
AcDbEntity
8
1
62
256
6
ByLayer
370
18
48
1
60
0
100
AcDbSpline
70
2053
71
3
72
150
73
146
40
0
40
0
40
0
40
0
40
0.0156249999999993
40
0.0312499999999985
40
0.0468749999999978
40
0.0468749999999978
40
0.0546874999999976
40
0.0546874999999976
40
0.0624999999999974
40
0.0624999999999974
40
0.0937499999999927
40
0.0937499999999927
40
0.101562499999992
40
0.101562499999992
40
0.10937499999999
40
0.10937499999999
40
0.124999999999988
40
0.124999999999988
40
0.156249999999984
40
0.156249999999984
40
0.160156249999983
40
0.160156249999983
40
0.164062499999982
40
0.171874999999982
40
0.171874999999982
40
0.187499999999983
40
0.203124999999985
40
0.203124999999985
40
0.210937499999985
40
0.210937499999985
40
0.218749999999986
40
0.218749999999986
40
0.249999999999989
40
0.249999999999989
40
0.26562499999999
40
0.26562499999999
40
0.26953124999999
40
0.26953124999999
40
0.27343749999999
40
0.27343749999999
40
0.28124999999999
40
0.28124999999999
40
0.29687499999999
40
0.31249999999999
40
0.31249999999999
40
0.320312499999989
40
0.324218749999989
40
0.324218749999989
40
0.328124999999989
40
0.328124999999989
40
0.343749999999989
40
0.359374999999989
40
0.374999999999989
40
0.374999999999989
40
0.38281249999999
40
0.38281249999999
40
0.39062499999999
40
0.39062499999999
40
0.40624999999999
40
0.42187499999999
40
0.42187499999999
40
0.42968749999999
40
0.42968749999999
40
0.43749999999999
40
0.43749999999999
40
0.453124999999989
40
0.468749999999988
40
0.468749999999988
40
0.476562499999987
40
0.476562499999987
40
0.484374999999986
40
0.484374999999986
40
0.499999999999984
40
0.515624999999983
40
0.515624999999983
40
0.523437499999982
40
0.523437499999982
40
0.531249999999982
40
0.531249999999982
40
0.546874999999983
40
0.562499999999985
40
0.578124999999986
40
0.578124999999986
40
0.582031249999986
40
0.582031249999986
40
0.585937499999987
40
0.585937499999987
40
0.593749999999987
40
0.593749999999987
40
0.62499999999999
40
0.62499999999999
40
0.63281249999999
40
0.63281249999999
40
0.64062499999999
40
0.64062499999999
40
0.656249999999992
40
0.656249999999992
40
0.687499999999996
40
0.687499999999996
40
0.695312499999996
40
0.695312499999996
40
0.699218749999996
40
0.699218749999996
40
0.703124999999997
40
0.718749999999997
40
0.734374999999998
40
0.749999999999999
40
0.749999999999999
40
0.757812499999998
40
0.757812499999998
40
0.765624999999998
40
0.765624999999998
40
0.781249999999998
40
0.796874999999998
40
0.796874999999998
40
0.804687499999998
40
0.804687499999998
40
0.812499999999999
40
0.812499999999999
40
0.828124999999999
40
0.84375
40
0.84375
40
0.859375
40
0.859375
40
0.8671875
40
0.8671875
40
0.875
40
0.875
40
0.890625000000001
40
0.906250000000001
40
0.906250000000001
40
0.914062500000001
40
0.914062500000001
40
0.921875000000001
40
0.921875000000001
40
0.937500000000001
40
0.953125000000001
40
0.953125000000001
40
0.960937500000001
40
0.960937500000001
40
0.968750000000001
40
0.968750000000001
40
0.984375000000001
40
0.984375000000001
40
1
40
1
40
1
40
1
41
1
10
49.2337004836311
20
20.4332603671438
30
0
41
1
10
49.282512178424
20
20.462667396257
30
0
41
1
10
49.3849840948281
20
20.5181649787737
30
0
41
1
10
49.5526457878556
20
20.5921081485372
30
0
41
1
10
49.6736082719108
20
20.6354360236027
30
0
41
1
10
49.7678336136324
20
20.6657147180767
30
0
41
1
10
49.7996505894606
20
20.6753797158926
30
0
41
1
10
49.863910202813
20
20.6938294476682
30
0
41
1
10
49.8963808025785
20
20.7026231676229
30
0
41
1
10
50.0604072737762
20
20.7444956906833
30
0
41
1
10
50.1969373581488
20
20.7713501203619
30
0
41
1
10
50.3742260126266
20
20.7969011662536
30
0
41
1
10
50.4100179264902
20
20.8016065701103
30
0
41
1
10
50.4822816855172
20
20.8101988897709
30
0
41
1
10
50.518484192189
20
20.8140536701888
30
0
41
1
10
50.6272498932034
20
20.8243233285119
30
0
41
1
10
50.699992889515
20
20.8294495340953
30
0
41
1
10
50.9189035415182
20
20.8398187801988
30
0
41
1
10
51.0657465910902
20
20.8401057465208
30
0
41
1
10
51.2319975523929
20
20.8327043376847
30
0
41
1
10
51.2504913223129
20
20.8317728394286
30
0
41
1
10
51.2873158075743
20
20.8297022470726
30
0
41
1
10
51.3423792429132
20
20.8262818452598
30
0
41
1
10
51.3969282745806
20
20.8219265604475
30
0
41
1
10
51.5053498536326
20
20.8119818671875
30
0
41
1
10
51.6481106365736
20
20.7954364608196
30
0
41
1
10
51.7872934759098
20
20.7722945721374
30
0
41
1
10
51.8903105968988
20
20.7523757011313
30
0
41
1
10
51.9244209107945
20
20.7453081699778
30
0
41
1
10
51.9921743259089
20
20.7302917081739
30
0
41
1
10
52.0258822220364
20
20.7223243235128
30
0
41
1
10
52.1915107847495
20
20.6806515027226
30
0
41
1
10
52.3159482773776
20
20.641267035073
30
0
41
1
10
52.4906357186497
20
20.5727861389898
30
0
41
1
10
52.5468562660757
20
20.5483806588701
30
0
41
1
10
52.6145239162467
20
20.5157731832452
30
0
41
1
10
52.6279267267421
20
20.509146383626
30
0
41
1
10
52.6544671451476
20
20.4956778371926
30
0
41
1
10
52.6676187758394
20
20.4888282024182
30
0
41
1
10
52.7064584755239
20
20.4680646736535
30
0
41
1
10
52.7315907555862
20
20.4539078846281
30
0
41
1
10
52.8047373429651
20
20.4104925341003
30
0
41
1
10
52.896274796196
20
20.3500883914267
30
0
41
1
10
52.9759043452563
20
20.2845274078451
30
0
41
1
10
53.031054850519
20
20.2333216070958
30
0
41
1
10
53.0574852881247
20
20.2072091539119
30
0
41
1
10
53.0821574228486
20
20.1803043913139
30
0
41
1
10
53.0982089495555
20
20.1621881555969
30
0
41
1
10
53.1060475164825
20
20.1530262691997
30
0
41
1
10
53.1440396903753
20
20.1069951651345
30
0
41
1
10
53.197318066085
20
20.0317929886689
30
0
41
1
10
53.2552502879478
20
19.914285562202
30
0
41
1
10
53.2791473505418
20
19.8327167162409
30
0
41
1
10
53.2913503839627
20
19.7702656905624
30
0
41
1
10
53.2944646192732
20
19.7491794169374
30
0
41
1
10
53.29869336548
20
19.7070472187407
30
0
41
1
10
53.2998210983666
20
19.6859611916918
30
0
41
1
10
53.3002989274855
20
19.6226434988768
30
0
41
1
10
53.2932024326944
20
19.5380604104667
30
0
41
1
10
53.2708585950066
20
19.4531773731499
30
0
41
1
10
53.2482923932239
20
19.3894185609806
30
0
41
1
10
53.2398004594897
20
19.3681495783718
30
0
41
1
10
53.2208390831039
20
19.3255836828568
30
0
41
1
10
53.2104543693722
20
19.3044768880943
30
0
41
1
10
53.1766579655461
20
19.2416790594415
30
0
41
1
10
53.1245660722479
20
19.1593387654202
30
0
41
1
10
53.0588120502972
20
19.0797988393054
30
0
41
1
10
53.0043681489778
20
19.021240706542
30
0
41
1
10
52.9853638775349
20
19.0019045352268
30
0
41
1
10
52.9456224969618
20
18.9636114956837
30
0
41
1
10
52.9248612466474
20
18.9446395265476
30
0
41
1
10
52.8606685518757
20
18.8889261418667
30
0
41
1
10
52.7695864224911
20
18.8174202301073
30
0
41
1
10
52.6679203354411
20
18.7514109015583
30
0
41
1
10
52.5877327918257
20
18.7040042401663
30
0
41
1
10
52.5603460803152
20
18.6885527060969
30
0
41
1
10
52.5042483065242
20
18.6583652772306
30
0
41
1
10
52.4755119631001
20
18.6436170375747
30
0
41
1
10
52.3874463053089
20
18.600553414564
30
0
41
1
10
52.2665304789559
20
18.5469724877944
30
0
41
1
10
52.0751081326357
20
18.4778367663705
30
0
41
1
10
51.940887360077
20
18.4392550513743
30
0
41
1
10
51.8549055278629
20
18.4175557369047
30
0
41
1
10
51.8376042370138
20
18.4133368351386
30
0
41
1
10
51.8027901213757
20
18.405143667422
30
0
41
1
10
51.7852573205657
20
18.4011652678912
30
0
41
1
10
51.7325838442074
20
18.3896539710692
30
0
41
1
10
51.6973159264213
20
18.3825310679668
30
0
41
1
10
51.5202310786893
20
18.3496277327221
30
0
41
1
10
51.3761985970293
20
18.3319147273949
30
0
41
1
10
51.1932474601568
20
18.3205012381337
30
0
41
1
10
51.1565104558189
20
18.3187590256192
30
0
41
1
10
51.0827389664164
20
18.3163713520257
30
0
41
1
10
51.04564956641
20
18.3157258574404
30
0
41
1
10
50.9342894340802
20
18.3154691689163
30
0
41
1
10
50.8606042086272
20
18.3175286746356
30
0
41
1
10
50.6411610178276
20
18.330180517119
30
0
41
1
10
50.4970011299115
20
18.3471949112995
30
0
41
1
10
50.3195215539599
20
18.3792644141999
30
0
41
1
10
50.2841628159065
20
18.3862225319661
30
0
41
1
10
50.2313350970789
20
18.3974904975866
30
0
41
1
10
50.2137619703629
20
18.401385312929
30
0
41
1
10
50.178874672879
20
18.409409484709
30
0
41
1
10
50.0921868594698
20
18.4300835615436
30
0
41
1
10
49.9408559686257
20
18.4727277969666
30
0
41
1
10
49.7489598413314
20
18.5408253628453
30
0
41
1
10
49.6276903272603
20
18.5936797652974
30
0
41
1
10
49.5393394045592
20
18.6361798343648
30
0
41
1
10
49.5102781525363
20
18.6508515777612
30
0
41
1
10
49.4536720233812
20
18.6808284440851
30
0
41
1
10
49.4260516750688
20
18.6961674623968
30
0
41
1
10
49.3452142652518
20
18.7432098080034
30
0
41
1
10
49.2428180601655
20
18.8086621837525
30
0
41
1
10
49.1511713557282
20
18.8794138800531
30
0
41
1
10
49.0865786605876
20
18.9344649492307
30
0
41
1
10
49.0657394216972
20
18.9531471429402
30
0
41
1
10
49.0254794061153
20
18.9911831653062
30
0
41
1
10
49.0060074637622
20
19.0105942764418
30
0
41
1
10
48.9503579291376
20
19.0692377247114
30
0
41
1
10
48.8832764302377
20
19.1487000923426
30
0
41
1
10
48.8301506292317
20
19.2305317873523
30
0
41
1
10
48.7840724474103
20
19.3135086524727
30
0
41
1
10
48.7645562865289
20
19.3555695737933
30
0
41
1
10
48.7407838651938
20
19.4195249680032
30
0
41
1
10
48.733775352221
20
19.4410205566914
30
0
41
1
10
48.7217802336069
20
19.4837768528118
30
0
41
1
10
48.7167674674361
20
19.5050990678851
30
0
41
1
10
48.704636001149
20
19.5688966465173
30
0
41
1
10
48.6961982186957
20
19.6535090679827
30
0
41
1
10
48.7030851351293
20
19.7372103288944
30
0
41
1
10
48.714115042739
20
19.7996431666012
30
0
41
1
10
48.7187750358875
20
19.8204117795135
30
0
41
1
10
48.7300797266041
20
19.8617733742038
30
0
41
1
10
48.7366798776385
20
19.8822089045363
30
0
41
1
10
48.7592539239832
20
19.9428030624453
30
0
41
1
10
48.7967346595079
20
20.0216983478854
30
0
41
1
10
48.8485971946173
20
20.0969752656053
30
0
41
1
10
48.892907494321
20
20.1521104421423
30
0
41
1
10
48.9085814899631
20
20.1702681027154
30
0
41
1
10
48.9417612324669
20
20.206143931718
30
0
41
1
10
48.9592756234111
20
20.2238634245442
30
0
41
1
10
49.014051572849
20
20.2758595597117
30
0
41
1
10
49.0536972938886
20
20.3091548316268
30
0
41
1
10
49.1391024251821
20
20.3731437590473
30
0
41
1
10
49.1848887888382
20
20.4038533380306
30
0
41
1
10
49.2337004836311
20
20.4332603671438
30
0
0
SPLINE
5
15B
100
AcDbEntity
8
1
62
256
6
ByLayer
370
18
48
1
60
0
100
AcDbSpline
70
2053
71
3
72
155
73
151
40
0
40
0
40
0
40
0
40
0.0156249999999973
40
0.0312499999999947
40
0.0312499999999947
40
0.046874999999992
40
0.046874999999992
40
0.0546874999999909
40
0.0546874999999909
40
0.0624999999999897
40
0.0624999999999897
40
0.0781249999999867
40
0.0937499999999838
40
0.0937499999999838
40
0.097656249999983
40
0.097656249999983
40
0.101562499999982
40
0.101562499999982
40
0.109374999999981
40
0.109374999999981
40
0.124999999999978
40
0.140624999999976
40
0.140624999999976
40
0.148437499999975
40
0.148437499999975
40
0.152343749999974
40
0.152343749999974
40
0.156249999999974
40
0.171874999999973
40
0.187499999999971
40
0.187499999999971
40
0.19531249999997
40
0.19531249999997
40
0.20312499999997
40
0.20312499999997
40
0.218749999999968
40
0.234374999999966
40
0.249999999999965
40
0.249999999999965
40
0.253906249999964
40
0.253906249999964
40
0.257812499999963
40
0.265624999999961
40
0.265624999999961
40
0.281249999999957
40
0.296874999999953
40
0.296874999999953
40
0.304687499999952
40
0.304687499999952
40
0.312499999999951
40
0.312499999999951
40
0.343749999999947
40
0.343749999999947
40
0.359374999999945
40
0.359374999999945
40
0.367187499999944
40
0.367187499999944
40
0.374999999999944
40
0.374999999999944
40
0.406249999999939
40
0.406249999999939
40
0.414062499999938
40
0.414062499999938
40
0.421874999999938
40
0.421874999999938
40
0.437499999999938
40
0.453124999999939
40
0.468749999999939
40
0.468749999999939
40
0.472656249999939
40
0.472656249999939
40
0.47656249999994
40
0.47656249999994
40
0.48437499999994
40
0.48437499999994
40
0.49999999999994
40
0.51562499999994
40
0.51562499999994
40
0.523437499999941
40
0.527343749999941
40
0.527343749999941
40
0.531249999999941
40
0.531249999999941
40
0.546874999999944
40
0.562499999999948
40
0.578124999999951
40
0.578124999999951
40
0.582031249999952
40
0.582031249999952
40
0.585937499999952
40
0.585937499999952
40
0.593749999999954
40
0.593749999999954
40
0.609374999999956
40
0.624999999999959
40
0.624999999999959
40
0.63281249999996
40
0.63281249999996
40
0.63671874999996
40
0.63671874999996
40
0.640624999999961
40
0.656249999999963
40
0.671874999999965
40
0.671874999999965
40
0.679687499999967
40
0.679687499999967
40
0.687499999999968
40
0.687499999999968
40
0.703124999999971
40
0.718749999999973
40
0.734374999999976
40
0.734374999999976
40
0.742187499999977
40
0.742187499999977
40
0.749999999999978
40
0.749999999999978
40
0.781249999999985
40
0.781249999999985
40
0.785156249999985
40
0.785156249999985
40
0.789062499999985
40
0.789062499999985
40
0.796874999999987
40
0.796874999999987
40
0.812499999999989
40
0.828124999999991
40
0.828124999999991
40
0.835937499999992
40
0.835937499999992
40
0.843749999999993
40
0.843749999999993
40
0.874999999999992
40
0.874999999999992
40
0.890624999999992
40
0.890624999999992
40
0.898437499999992
40
0.898437499999992
40
0.906249999999991
40
0.906249999999991
40
0.937499999999993
40
0.937499999999993
40
0.953124999999994
40
0.953124999999994
40
0.960937499999994
40
0.960937499999994
40
0.968749999999995
40
0.968749999999995
40
0.984374999999998
40
0.984374999999998
40
1
40
1
40
1
40
1
41
1
10
49.2447657222074
20
-20.4398741980505
30
0
41
1
10
49.1955324798791
20
-20.4106831086822
30
0
41
1
10
49.1033550015381
20
-20.3498519887064
30
0
41
1
10
49.0235366772021
20
-20.2840517976978
30
0
41
1
10
48.9499735113545
20
-20.2156628702134
30
0
41
1
10
48.9163186469542
20
-20.180174495262
30
0
41
1
10
48.8707306775454
20
-20.1248657231571
30
0
41
1
10
48.8564499538721
20
-20.1061983969613
30
0
41
1
10
48.8297880822594
20
-20.068526580677
30
0
41
1
10
48.8173903265609
20
-20.049502011021
30
0
41
1
10
48.7829660487079
20
-19.9918591036439
30
0
41
1
10
48.7444408416975
20
-19.9134850805471
30
0
41
1
10
48.7206709663931
20
-19.8319963422984
30
0
41
1
10
48.7105712910877
20
-19.7800457700591
30
0
41
1
10
48.7087897652054
20
-19.7696045606691
30
0
41
1
10
48.7057095983215
20
-19.7486184071977
30
0
41
1
10
48.7044100596429
20
-19.7380594547644
30
0
41
1
10
48.7012612978332
20
-19.7064035025839
30
0
41
1
10
48.700152771625
20
-19.6852867648243
30
0
41
1
10
48.6997387356262
20
-19.6218981122147
30
0
41
1
10
48.7069357935236
20
-19.5372767434664
30
0
41
1
10
48.7293540051921
20
-19.4524674814018
30
0
41
1
10
48.7519438506981
20
-19.3888069320401
30
0
41
1
10
48.7604382719797
20
-19.3675779190847
30
0
41
1
10
48.7746519533936
20
-19.3357242753926
30
0
41
1
10
48.779640423728
20
-19.3250956822178
30
0
41
1
10
48.790050820528
20
-19.3039574634975
30
0
41
1
10
48.8171954644277
20
-19.251341099362
30
0
41
1
10
48.8759234220934
20
-19.1586669354893
30
0
41
1
10
48.9417141901158
20
-19.0791914698368
30
0
41
1
10
48.9961396802361
20
-19.0207156252927
30
0
41
1
10
49.0151301433601
20
-19.0014125483965
30
0
41
1
10
49.0548252534961
20
-18.9631964167867
30
0
41
1
10
49.0755903571154
20
-18.944233181934
30
0
41
1
10
49.1399083499975
20
-18.8884548465249
30
0
41
1
10
49.2311193119795
20
-18.8169150324603
30
0
41
1
10
49.38364855149
20
-18.7179767368087
30
0
41
1
10
49.4956925758342
20
-18.6576821141282
30
0
41
1
10
49.569015858248
20
-18.6218469248481
30
0
41
1
10
49.5838489404955
20
-18.6147715909274
30
0
41
1
10
49.6136890586657
20
-18.6008810127927
30
0
41
1
10
49.6587679444755
20
-18.580406978331
30
0
41
1
10
49.7047898682864
20
-18.5610086010112
30
0
41
1
10
49.7980668534838
20
-18.5236308651136
30
0
41
1
10
49.9257183978091
20
-18.4775718905746
30
0
41
1
10
50.05982249951
20
-18.4390621011591
30
0
41
1
10
50.1628468050949
20
-18.4130825573114
30
0
41
1
10
50.1975966505676
20
-18.4049072799567
30
0
41
1
10
50.2679264229321
20
-18.3895476167288
30
0
41
1
10
50.3032606912394
20
-18.3824173255851
30
0
41
1
10
50.4805621179305
20
-18.3495070582592
30
0
41
1
10
50.6246117834336
20
-18.3318378238996
30
0
41
1
10
50.8439269502617
20
-18.3181953588773
30
0
41
1
10
50.9175757863686
20
-18.3158043280028
30
0
41
1
10
51.0288897462978
20
-18.3155572101622
30
0
41
1
10
51.0659962777447
20
-18.3160348023207
30
0
41
1
10
51.1397810097009
20
-18.3180881618257
30
0
41
1
10
51.1765259665723
20
-18.3196636124941
30
0
41
1
10
51.3595240274461
20
-18.3302433492926
30
0
41
1
10
51.503616686264
20
-18.3472897861456
30
0
41
1
10
51.6808152474352
20
-18.3793294915032
30
0
41
1
10
51.7161078528136
20
-18.3862781228729
30
0
41
1
10
51.7863927784034
20
-18.4012739444086
30
0
41
1
10
51.8214300572479
20
-18.4093353543989
30
0
41
1
10
51.9249841756732
20
-18.4349157953557
30
0
41
1
10
52.0596157950591
20
-18.4728750488407
30
0
41
1
10
52.2514407506859
20
-18.5409873674203
30
0
41
1
10
52.372523934095
20
-18.5937800013389
30
0
41
1
10
52.4459960295138
20
-18.6291263451801
30
0
41
1
10
52.4605799389644
20
-18.6363134226685
30
0
41
1
10
52.4895236333418
20
-18.6509253665622
30
0
41
1
10
52.5038935611495
20
-18.6583560971344
30
0
41
1
10
52.5464250854753
20
-18.6808806411294
30
0
41
1
10
52.5740850370016
20
-18.6962440063719
30
0
41
1
10
52.6550108447377
20
-18.74334673205
30
0
41
1
10
52.7574428691643
20
-18.808845804864
30
0
41
1
10
52.8490036257402
20
-18.8795566728251
30
0
41
1
10
52.9135008583242
20
-18.9345359041722
30
0
41
1
10
52.9447044171503
20
-18.9625128679997
30
0
41
1
10
52.9743030719849
20
-18.9912282957399
30
0
41
1
10
52.9936735693761
20
-19.010537370716
30
0
41
1
10
53.0031918038697
20
-19.0202895830646
30
0
41
1
10
53.0496614059402
20
-19.0692541445187
30
0
41
1
10
53.1168188337947
20
-19.1488194654306
30
0
41
1
10
53.1964708168181
20
-19.2715644646428
30
0
41
1
10
53.2354381840122
20
-19.3555695184299
30
0
41
1
10
53.255213343394
20
-19.4087524971916
30
0
41
1
10
53.2589388308177
20
-19.4194231975577
30
0
41
1
10
53.2659242614413
20
-19.4408332799063
30
0
41
1
10
53.2691835458747
20
-19.4515738223582
30
0
41
1
10
53.2782010786873
20
-19.4836976475131
30
0
41
1
10
53.2832224187192
20
-19.5050500288001
30
0
41
1
10
53.2953693291195
20
-19.5689161381688
30
0
41
1
10
53.3038002873331
20
-19.6535614468542
30
0
41
1
10
53.2969136250015
20
-19.7371838162742
30
0
41
1
10
53.2859103281271
20
-19.7995162681671
30
0
41
1
10
53.2812677131864
20
-19.820229705583
30
0
41
1
10
53.2728125433427
20
-19.8512037727346
30
0
41
1
10
53.2697430653469
20
-19.8615172926418
30
0
41
1
10
53.2631440043695
20
-19.8819895133811
30
0
41
1
10
53.2454707176855
20
-19.9328578490894
30
0
41
1
10
53.2032803492285
20
-20.0216725896762
30
0
41
1
10
53.1514520436069
20
-20.0969025369674
30
0
41
1
10
53.1072092863034
20
-20.1519708357555
30
0
41
1
10
53.0915647925708
20
-20.170100915034
30
0
41
1
10
53.0584617770023
20
-20.2059117198007
30
0
41
1
10
53.0409520374883
20
-20.2236378926711
30
0
41
1
10
52.9861998209663
20
-20.275638420572
30
0
41
1
10
52.9071588665759
20
-20.3420328313395
30
0
41
1
10
52.7711896979264
20
-20.433366151321
30
0
41
1
10
52.6690590681959
20
-20.4889608914615
30
0
41
1
10
52.5880710167033
20
-20.528694900632
30
0
41
1
10
52.5605008342477
20
-20.5415326963732
30
0
41
1
10
52.5044067321177
20
-20.5663457487323
30
0
41
1
10
52.4758559873876
20
-20.5783341729748
30
0
41
1
10
52.3306320998401
20
-20.636250689156
30
0
41
1
10
52.2066182999454
20
-20.6761621656029
30
0
41
1
10
52.0583319939
20
-20.7142021674993
30
0
41
1
10
52.0417327761289
20
-20.7183325748662
30
0
41
1
10
52.0082865805835
20
-20.726400458468
30
0
41
1
10
51.9914177604626
20
-20.7303427468317
30
0
41
1
10
51.9406474296801
20
-20.7418320034879
30
0
41
1
10
51.9065662665777
20
-20.7490470245175
30
0
41
1
10
51.8036354762439
20
-20.7693990082648
30
0
41
1
10
51.6645653093413
20
-20.7930949867195
30
0
41
1
10
51.5219205694903
20
-20.8101653912911
30
0
41
1
10
51.413590822401
20
-20.8205005016499
30
0
41
1
10
51.3772561617267
20
-20.8235334557068
30
0
41
1
10
51.3041317086313
20
-20.8287682031877
30
0
41
1
10
51.2672773709487
20
-20.8309729782187
30
0
41
1
10
51.0825786276212
20
-20.8398503507023
30
0
41
1
10
50.9357111840096
20
-20.8400703520216
30
0
41
1
10
50.7166971804217
20
-20.8304687555968
30
0
41
1
10
50.6439085376239
20
-20.8255995656014
30
0
41
1
10
50.5350567860863
20
-20.8157210802594
30
0
41
1
10
50.4988281647891
20
-20.8119982916088
30
0
41
1
10
50.4264839191592
20
-20.8036699471427
30
0
41
1
10
50.3905480259713
20
-20.7990837325559
30
0
41
1
10
50.2128218554599
20
-20.7741605597971
30
0
41
1
10
50.0760353727611
20
-20.7478181767293
30
0
41
1
10
49.8788954463243
20
-20.6984374758897
30
0
41
1
10
49.8145311086672
20
-20.6803206519593
30
0
41
1
10
49.720089142854
20
-20.6505077720361
30
0
41
1
10
49.6889325197407
20
-20.6401169206669
30
0
41
1
10
49.6279395982978
20
-20.6186385671394
30
0
41
1
10
49.5980273756336
20
-20.6075284544371
30
0
41
1
10
49.5100322132401
20
-20.5730778374873
30
0
41
1
10
49.4536865428385
20
-20.5486199330082
30
0
41
1
10
49.3456726345272
20
-20.4966148396425
30
0
41
1
10
49.2939989645357
20
-20.4690652874187
30
0
41
1
10
49.2447657222074
20
-20.4398741980504
30
0
0
SPLINE
5
15C
100
AcDbEntity
8
1
62
256
6
ByLayer
370
18
48
1
60
0
100
AcDbSpline
70
2053
71
3
72
206
73
202
40
0
40
0
40
0
40
0
40
0.0156249999999986
40
0.0156249999999986
40
0.0312499999999971
40
0.0312499999999971
40
0.0468749999999957
40
0.0468749999999957
40
0.0507812499999953
40
0.0507812499999953
40
0.0546874999999948
40
0.0624999999999942
40
0.0624999999999942
40
0.078124999999993
40
0.078124999999993
40
0.0937499999999918
40
0.0937499999999918
40
0.0976562499999915
40
0.0976562499999915
40
0.101562499999991
40
0.10937499999999
40
0.10937499999999
40
0.124999999999989
40
0.124999999999989
40
0.132812499999989
40
0.132812499999989
40
0.136718749999988
40
0.136718749999988
40
0.138671874999988
40
0.138671874999988
40
0.140624999999988
40
0.156249999999987
40
0.156249999999987
40
0.171874999999987
40
0.171874999999987
40
0.175781249999987
40
0.175781249999987
40
0.179687499999987
40
0.179687499999987
40
0.187499999999987
40
0.187499999999987
40
0.203124999999988
40
0.203124999999988
40
0.218749999999988
40
0.218749999999988
40
0.226562499999988
40
0.226562499999988
40
0.234374999999989
40
0.234374999999989
40
0.24999999999999
40
0.24999999999999
40
0.265624999999991
40
0.265624999999991
40
0.281249999999993
40
0.281249999999993
40
0.296874999999994
40
0.296874999999994
40
0.312499999999995
40
0.328124999999996
40
0.328124999999996
40
0.335937499999997
40
0.335937499999997
40
0.339843749999997
40
0.339843749999997
40
0.343749999999997
40
0.343749999999997
40
0.359374999999996
40
0.359374999999996
40
0.374999999999996
40
0.374999999999996
40
0.390624999999996
40
0.390624999999996
40
0.398437499999996
40
0.398437499999996
40
0.402343749999995
40
0.402343749999995
40
0.406249999999995
40
0.406249999999995
40
0.421874999999994
40
0.421874999999994
40
0.437499999999993
40
0.437499999999993
40
0.453124999999991
40
0.453124999999991
40
0.460937499999991
40
0.460937499999991
40
0.464843749999991
40
0.464843749999991
40
0.468749999999991
40
0.468749999999991
40
0.484374999999992
40
0.484374999999992
40
0.499999999999994
40
0.499999999999994
40
0.515624999999995
40
0.515624999999995
40
0.523437499999996
40
0.523437499999996
40
0.525390624999996
40
0.525390624999996
40
0.527343749999996
40
0.527343749999996
40
0.531249999999997
40
0.531249999999997
40
0.546875
40
0.546875
40
0.562500000000003
40
0.562500000000003
40
0.566406250000004
40
0.568359375000004
40
0.568359375000004
40
0.570312500000004
40
0.570312500000004
40
0.578125000000005
40
0.578125000000005
40
0.593750000000007
40
0.609375000000009
40
0.609375000000009
40
0.613281250000009
40
0.613281250000009
40
0.61718750000001
40
0.625000000000011
40
0.625000000000011
40
0.640625000000013
40
0.640625000000013
40
0.648437500000014
40
0.648437500000014
40
0.652343750000014
40
0.652343750000014
40
0.656250000000015
40
0.656250000000015
40
0.671875000000018
40
0.671875000000018
40
0.687500000000022
40
0.687500000000022
40
0.695312500000023
40
0.695312500000023
40
0.699218750000024
40
0.699218750000024
40
0.703125000000024
40
0.703125000000024
40
0.718750000000028
40
0.718750000000028
40
0.734375000000031
40
0.734375000000031
40
0.742187500000032
40
0.742187500000032
40
0.746093750000033
40
0.746093750000033
40
0.750000000000033
40
0.750000000000033
40
0.765625000000035
40
0.765625000000035
40
0.781250000000037
40
0.781250000000037
40
0.796875000000039
40
0.796875000000039
40
0.80468750000004
40
0.80468750000004
40
0.80859375000004
40
0.80859375000004
40
0.81250000000004
40
0.81250000000004
40
0.828125000000038
40
0.828125000000038
40
0.843750000000037
40
0.843750000000037
40
0.859375000000035
40
0.859375000000035
40
0.863281250000035
40
0.863281250000035
40
0.867187500000034
40
0.867187500000034
40
0.875000000000032
40
0.875000000000032
40
0.890625000000027
40
0.906250000000022
40
0.906250000000022
40
0.921875000000017
40
0.921875000000017
40
0.925781250000016
40
0.925781250000016
40
0.929687500000015
40
0.929687500000015
40
0.937500000000013
40
0.937500000000013
40
0.95312500000001
40
0.95312500000001
40
0.968750000000007
40
0.968750000000007
40
0.984375000000003
40
0.984375000000003
40
0.988281250000003
40
0.988281250000003
40
0.992187500000002
40
0.992187500000002
40
0.996093750000001
40
0.998046875000001
40
0.9990234375
40
0.9990234375
40
1
40
1
40
1
40
1
41
1
10
68.9510924692943
20
-4.08907852014814
30
0
41
1
10
68.7908276885515
20
-3.88360936663381
30
0
41
1
10
68.6426652895398
20
-3.67144955453659
30
0
41
1
10
68.3707841990237
20
-3.23349313471516
30
0
41
1
10
68.2470622986843
20
-3.00769853495407
30
0
41
1
10
68.0251480367233
20
-2.54175753210433
30
0
41
1
10
67.9269466893461
20
-2.30161632179241
30
0
41
1
10
67.8214671271807
20
-1.99167145815755
30
0
41
1
10
67.8012180043818
20
-1.92911676297254
30
0
41
1
10
67.7627708007008
20
-1.80393267828438
30
0
41
1
10
67.7080695706085
20
-1.61574307983665
30
0
41
1
10
67.6622123953278
20
-1.42632068304587
30
0
41
1
10
67.5822219010958
20
-1.04583875596072
30
0
41
1
10
67.5444947123695
20
-0.790005528343386
30
0
41
1
10
67.5006454924124
20
-0.273915510020231
30
0
41
1
10
67.4945185556093
20
-0.0136593939700731
30
0
41
1
10
67.5075412786294
20
0.314556387872585
30
0
41
1
10
67.5111930561979
20
0.380448400710037
30
0
41
1
10
67.5205259326009
20
0.511568938055291
30
0
41
1
10
67.537573582471
20
0.707525474742312
30
0
41
1
10
67.5636065291051
20
0.901347718229715
30
0
41
1
10
67.6273481415876
20
1.28622166583125
30
0
41
1
10
67.6853782739919
20
1.53911743294981
30
0
41
1
10
67.795128235717
20
1.91309130583539
30
0
41
1
10
67.8355038504868
20
2.03685245684034
30
0
41
1
10
67.9017525854423
20
2.22115291655413
30
0
41
1
10
67.9247835389587
20
2.28236274896528
30
0
41
1
10
67.9607560915906
20
2.37384151469172
30
0
41
1
10
67.9729839209339
20
2.40427520019418
30
0
41
1
10
67.997834222351
20
2.46483878371336
30
0
41
1
10
68.1115340801736
20
2.7362191339729
30
0
41
1
10
68.2417632854792
20
2.99740895776335
30
0
41
1
10
68.4976427415257
20
3.4468359086367
30
0
41
1
10
68.6377699286293
20
3.66408962046
30
0
41
1
10
68.8276533853559
20
3.92672271562975
30
0
41
1
10
68.8663683587879
20
3.97880140512265
30
0
41
1
10
68.9452701731148
20
4.08206790992617
30
0
41
1
10
68.9854800076328
20
4.13328416354025
30
0
41
1
10
69.1081671238707
20
4.28541850424224
30
0
41
1
10
69.192264900541
20
4.38429069368652
30
0
41
1
10
69.451203224233
20
4.67359827148027
30
0
41
1
10
69.6326691541793
20
4.85674644498411
30
0
41
1
10
70.0123629031295
20
5.20481851972198
30
0
41
1
10
70.2105944106136
20
5.3697379666236
30
0
41
1
10
70.520272570315
20
5.60387043285016
30
0
41
1
10
70.6255580224352
20
5.67970215123739
30
0
41
1
10
70.8402561787968
20
5.82695838477483
30
0
41
1
10
70.9489692504124
20
5.897902579549
30
0
41
1
10
71.278953210798
20
6.10287908622374
30
0
41
1
10
71.5041169826866
20
6.22911533473976
30
0
41
1
10
71.9644331775763
20
6.46172465883083
30
0
41
1
10
72.1995871148661
20
6.56809428983411
30
0
41
1
10
72.6798196835302
20
6.76131277685874
30
0
41
1
10
72.9248985264943
20
6.84816094776031
30
0
41
1
10
73.4251823124305
20
7.00212804048127
30
0
41
1
10
73.6770749127868
20
7.06822461570661
30
0
41
1
10
74.1839840055588
20
7.17947130800866
30
0
41
1
10
74.6941051478854
20
7.26979495067053
30
0
41
1
10
75.2105812345233
20
7.3189478806789
30
0
41
1
10
75.6003486952482
20
7.34024393601024
30
0
41
1
10
75.7306734615487
20
7.34474391616376
30
0
41
1
10
75.9267725310353
20
7.34754310378113
30
0
41
1
10
75.9922409105162
20
7.34781744235079
30
0
41
1
10
76.1233835829078
20
7.34703665865032
30
0
41
1
10
76.1891213897065
20
7.34597878328589
30
0
41
1
10
76.5168909929807
20
7.33737875747684
30
0
41
1
10
76.7770201797046
20
7.31994160330242
30
0
41
1
10
77.2932261200726
20
7.26451931332306
30
0
41
1
10
77.5493026856364
20
7.22653320799509
30
0
41
1
10
78.0574309108585
20
7.13005799244928
30
0
41
1
10
78.309482783993
20
7.07157014506203
30
0
41
1
10
78.6844933894878
20
6.96810543062102
30
0
41
1
10
78.8089849825603
20
6.93099085601958
30
0
41
1
10
78.9949411211374
20
6.87129397899551
30
0
41
1
10
79.0567962388329
20
6.85072388300009
30
0
41
1
10
79.1802430512432
20
6.8082233445802
30
0
41
1
10
79.2418858810303
20
6.78627258752334
30
0
41
1
10
79.5479848108731
20
6.67361389175187
30
0
41
1
10
79.7871128575514
20
6.57388639605387
30
0
41
1
10
80.2540941392755
20
6.35541404248605
30
0
41
1
10
80.4819476087949
20
6.23666987848696
30
0
41
1
10
80.9262924706699
20
5.97979501481492
30
0
41
1
10
81.1427856417369
20
5.84166778828444
30
0
41
1
10
81.4586822252643
20
5.6192027316765
30
0
41
1
10
81.5625043934866
20
5.5424969283915
30
0
41
1
10
81.7159532535349
20
5.42346756112133
30
0
41
1
10
81.7667219230227
20
5.38312893222229
30
0
41
1
10
81.8674829728109
20
5.30109810578202
30
0
41
1
10
81.9175145144002
20
5.25936965337215
30
0
41
1
10
82.1642852897837
20
5.04848961657771
30
0
41
1
10
82.3519548147161
20
4.87180415433309
30
0
41
1
10
82.7077778402045
20
4.50227095680558
30
0
41
1
10
82.875933261068
20
4.30942515476497
30
0
41
1
10
83.1920580209733
20
3.90683986128229
30
0
41
1
10
83.3400332867302
20
3.69710566714321
30
0
41
1
10
83.5457848934376
20
3.36880922396517
30
0
41
1
10
83.6116604228636
20
3.25708911676946
30
0
41
1
10
83.6904497039797
20
3.11442308087365
30
0
41
1
10
83.7060296305581
20
3.08573893146237
30
0
41
1
10
83.7368286588312
20
3.02806423436289
30
0
41
1
10
83.752061004944
20
2.99904770135959
30
0
41
1
10
83.797087775652
20
2.91176796159849
30
0
41
1
10
83.8262158309372
20
2.85327214655857
30
0
41
1
10
83.9674114602201
20
2.55924526741458
30
0
41
1
10
84.066182752074
20
2.31908336735225
30
0
41
1
10
84.2348653632034
20
1.82864842802763
30
0
41
1
10
84.3047816145348
20
1.57837718739359
30
0
41
1
10
84.3731966234715
20
1.25886064299695
30
0
41
1
10
84.3922935344196
20
1.16250349045623
30
0
41
1
10
84.4092089026846
20
1.06537835411018
30
0
41
1
10
84.4199960707145
20
1.00045579827682
30
0
41
1
10
84.4251491927113
20
0.96787811455448
30
0
41
1
10
84.4496159415373
20
0.804970241796781
30
0
41
1
10
84.4650238265516
20
0.674725903832694
30
0
41
1
10
84.4989923160737
20
0.284234236931837
30
0
41
1
10
84.5116655739545
20
-0.235778889848234
30
0
41
1
10
84.4600066907084
20
-0.754524478033176
30
0
41
1
10
84.4072303593914
20
-1.078337370582
30
0
41
1
10
84.3956384190075
20
-1.14312823705109
30
0
41
1
10
84.3704207731114
20
-1.27246256408074
30
0
41
1
10
84.3296902252008
20
-1.46534762131071
30
0
41
1
10
84.2804354399044
20
-1.65495812346632
30
0
41
1
10
84.1709351670698
20
-2.02996537273822
30
0
41
1
10
84.0833121074541
20
-2.27436342117693
30
0
41
1
10
83.9308149250895
20
-2.632927148449
30
0
41
1
10
83.8764639525557
20
-2.75110649352638
30
0
41
1
10
83.7896990372076
20
-2.92638424716569
30
0
41
1
10
83.7599038586073
20
-2.98447811827313
30
0
41
1
10
83.6985674511349
20
-3.10000334839245
30
0
41
1
10
83.6670059656903
20
-3.15746465208184
30
0
41
1
10
83.5057769301608
20
-3.44149909353825
30
0
41
1
10
83.3652165092024
20
-3.6595870625161
30
0
41
1
10
83.0625697687766
20
-4.07892139343625
30
0
41
1
10
82.900476585051
20
-4.28016206253147
30
0
41
1
10
82.6417667896149
20
-4.56996511332744
30
0
41
1
10
82.5529292283396
20
-4.6645518566115
30
0
41
1
10
82.4157936590344
20
-4.80344421774117
30
0
41
1
10
82.3693824440973
20
-4.84929255559922
30
0
41
1
10
82.2756621457269
20
-4.93961937681655
30
0
41
1
10
82.2283271587084
20
-4.9841268199759
30
0
41
1
10
81.9893216860188
20
-5.20345421198633
30
0
41
1
10
81.7906808955598
20
-5.3686748252027
30
0
41
1
10
81.3792810088977
20
-5.67991101916115
30
0
41
1
10
81.1665187286546
20
-5.82592177093386
30
0
41
1
10
80.8369859974132
20
-6.03097776084198
30
0
41
1
10
80.7254067487192
20
-6.09699825839647
30
0
41
1
10
80.5554309475299
20
-6.19254673733803
30
0
41
1
10
80.4983376567991
20
-6.22381557468353
30
0
41
1
10
80.3832785314616
20
-6.28519111746206
30
0
41
1
10
80.3252905067115
20
-6.31530706366908
30
0
41
1
10
80.0344580270636
20
-6.46233598124599
30
0
41
1
10
79.7979509395919
20
-6.56916783059512
30
0
41
1
10
79.3175431092284
20
-6.76228996177232
30
0
41
1
10
79.0736411391275
20
-6.84857640360693
30
0
41
1
10
78.5785228914086
20
-7.00102155101439
30
0
41
1
10
78.3273063017242
20
-7.06717916630822
30
0
41
1
10
77.944918467513
20
-7.15122401067106
30
0
41
1
10
77.8165272962526
20
-7.17670288017632
30
0
41
1
10
77.6225251548646
20
-7.21106711695458
30
0
41
1
10
77.5577774867979
20
-7.22185095049429
30
0
41
1
10
77.4283258358025
20
-7.24205649053803
30
0
41
1
10
77.363589370031
20
-7.25148397872147
30
0
41
1
10
77.0398543167948
20
-7.29527910612367
30
0
41
1
10
76.7806978561979
20
-7.31964100998951
30
0
41
1
10
76.2620553417147
20
-7.34753828762226
30
0
41
1
10
76.0025692711085
20
-7.3510724953845
30
0
41
1
10
75.4832674552435
20
-7.33731818929593
30
0
41
1
10
75.2234517250997
20
-7.32003071895841
30
0
41
1
10
74.8984714628267
20
-7.28509112153574
30
0
41
1
10
74.8334648617687
20
-7.27743537339725
30
0
41
1
10
74.7034303711426
20
-7.26077484907319
30
0
41
1
10
74.638346626518
20
-7.25176164055509
30
0
41
1
10
74.4434486871751
20
-7.22273301108592
30
0
41
1
10
74.3144150604502
20
-7.20079850675154
30
0
41
1
10
73.9299613936006
20
-7.12736641374866
30
0
41
1
10
73.424406233157
20
-7.0091429320899
30
0
41
1
10
72.9327014588435
20
-6.85073375768172
30
0
41
1
10
72.447968648481
20
-6.67191407723686
30
0
41
1
10
72.2090872525472
20
-6.57230221133747
30
0
41
1
10
71.914987943752
20
-6.43446604687122
30
0
41
1
10
71.856393708343
20
-6.40623114359875
30
0
41
1
10
71.7396622705993
20
-6.34840500929894
30
0
41
1
10
71.6814619294952
20
-6.31878051568535
30
0
41
1
10
71.5080168717775
20
-6.22807870429659
30
0
41
1
10
71.3942121136264
20
-6.16533109450381
30
0
41
1
10
71.0582148720552
20
-5.97028339145834
30
0
41
1
10
70.8414259208364
20
-5.83119585041911
30
0
41
1
10
70.4222776061049
20
-5.53467661682456
30
0
41
1
10
70.2199165622568
20
-5.37724746943124
30
0
41
1
10
69.8300863203729
20
-5.04322637744994
30
0
41
1
10
69.642612685051
20
-4.86664065647003
30
0
41
1
10
69.4182035353997
20
-4.63297496209495
30
0
41
1
10
69.3738198901837
20
-4.58559309387124
30
0
41
1
10
69.2860713658937
20
-4.48949893981421
30
0
41
1
10
69.2426668715012
20
-4.44074012863379
30
0
41
1
10
69.1571483012605
20
-4.34214224498194
30
0
41
1
10
69.0939699257644
20
-4.26738013691164
30
0
41
1
10
69.0219608115415
20
-4.17871454877593
30
0
41
1
10
68.9914660916253
20
-4.14040343726217
30
0
41
1
10
68.9712179527334
20
-4.11479318419057
30
0
41
1
10
68.9611090180907
20
-4.10192034224278
30
0
41
1
10
68.9510924692943
20
-4.08907852014814
30
0
0
SPLINE
5
15D
100
AcDbEntity
8
1
62
256
6
ByLayer
370
18
48
1
60
0
100
AcDbSpline
70
4
71
3
72
8
73
4
40
0
40
0
40
0
40
0
40
1
40
1
40
1
40
1
41
1
10
23.2418217614997
20
48.9497781813156
30
0
41
1
10
22.8025473277702
20
48.1731525519585
30
0
41
1
10
22.3635905977074
20
47.3963468891299
30
0
41
1
10
21.9249999999999
20
46.6193337496941
30
0
0
SPLINE
5
15E
100
AcDbEntity
8
1
62
256
6
ByLayer
370
18
48
1
60
0
100
AcDbSpline
70
4
71
3
72
8
73
4
40
0
40
0
40
0
40
0
40
1
40
1
40
1
40
1
41
1
10
18.075
20
46.6193337496941
30
0
41
1
10
17.6364094022924
20
47.3963468891299
30
0
41
1
10
17.1974526722297
20
48.1731525519585
30
0
41
1
10
16.7581782385002
20
48.9497781813156
30
0
0
SPLINE
5
15F
100
AcDbEntity
8
1
62
256
6
ByLayer
370
18
48
1
60
0
100
AcDbSpline
70
4
71
3
72
8
73
4
40
0
40
0
40
0
40
0
40
1
40
1
40
1
40
1
41
1
10
23.2418217614997
20
38.9060242764537
30
0
41
1
10
22.7970974394247
20
37.9167868306777
30
0
41
1
10
22.3578450722475
20
36.9249075564604
30
0
41
1
10
21.925
20
35.9299348769987
30
0
0
SPLINE
5
160
100
AcDbEntity
8
1
62
256
6
ByLayer
370
18
48
1
60
0
100
AcDbSpline
70
4
71
3
72
8
73
4
40
0
40
0
40
0
40
0
40
1
40
1
40
1
40
1
41
1
10
18.075
20
35.9299348769987
30
0
41
1
10
17.6421549277525
20
36.9249075564604
30
0
41
1
10
17.2029025605752
20
37.9167868306777
30
0
41
1
10
16.7581782385002
20
38.9060242764537
30
0
0
SPLINE
5
161
100
AcDbEntity
8
1
62
256
6
ByLayer
370
18
48
1
60
0
100
AcDbSpline
70
4
71
3
72
31
73
27
40
0
40
0
40
0
40
0
40
0.124999999999993
40
0.124999999999993
40
0.187499999999997
40
0.187499999999997
40
0.250000000000002
40
0.250000000000002
40
0.374999999999998
40
0.374999999999998
40
0.437499999999993
40
0.437499999999993
40
0.499999999999988
40
0.499999999999988
40
0.562499999999984
40
0.562499999999984
40
0.624999999999979
40
0.687499999999975
40
0.687499999999975
40
0.74999999999997
40
0.74999999999997
40
0.874999999999985
40
0.874999999999985
40
0.937499999999992
40
0.937499999999992
40
1
40
1
40
1
40
1
41
1
10
18.475
20
44.8695908606264
30
0
41
1
10
18.4484556444191
20
44.8695908606264
30
0
41
1
10
18.4222300438813
20
44.8722717150157
30
0
41
1
10
18.3833634690742
20
44.8802612375092
30
0
41
1
10
18.3704317402706
20
44.8836086465468
30
0
41
1
10
18.3449919953365
20
44.8916031205519
30
0
41
1
10
18.3325725560146
20
44.8962154709821
30
0
41
1
10
18.296184564849
20
44.9118344485013
30
0
41
1
10
18.2730780593057
20
44.9246060481417
30
0
41
1
10
18.2401788836795
20
44.9473681033131
30
0
41
1
10
18.229578244517
20
44.9555175513784
30
0
41
1
10
18.2093110579121
20
44.9727619998869
30
0
41
1
10
18.199610337562
20
44.981880238984
30
0
41
1
10
18.1810779535538
20
45.001112540586
30
0
41
1
10
18.1723267536418
20
45.0111473400235
30
0
41
1
10
18.1559361639675
20
45.0318850743754
30
0
41
1
10
18.140616019289
20
45.0533339255754
30
0
41
1
10
18.1274016867925
20
45.0761817076197
30
0
41
1
10
18.1152528907664
20
45.0997373456858
30
0
41
1
10
18.1096878543854
20
45.111936042883
30
0
41
1
10
18.0949091403935
20
45.1489555575994
30
0
41
1
10
18.0875231030774
20
45.1742669785693
30
0
41
1
10
18.0800458409528
20
45.2131566601964
30
0
41
1
10
18.0781579509292
20
45.2262747296619
30
0
41
1
10
18.0756269732036
20
45.2528297076614
30
0
41
1
10
18.075
20
45.2661389922157
30
0
41
1
10
18.075
20
45.2793571509137
30
0
0
SPLINE
5
162
100
AcDbEntity
8
1
62
256
6
ByLayer
370
18
48
1
60
0
100
AcDbSpline
70
4
71
3
72
30
73
26
40
0
40
0
40
0
40
0
40
0.124999999999954
40
0.124999999999954
40
0.156249999999952
40
0.156249999999952
40
0.18749999999995
40
0.249999999999947
40
0.249999999999947
40
0.312499999999943
40
0.312499999999943
40
0.374999999999939
40
0.437499999999936
40
0.437499999999936
40
0.499999999999932
40
0.499999999999932
40
0.624999999999955
40
0.624999999999955
40
0.749999999999979
40
0.749999999999979
40
0.812499999999977
40
0.812499999999977
40
0.874999999999976
40
0.874999999999976
40
1
40
1
40
1
40
1
41
1
10
18.475
20
33.6285314130725
30
0
41
1
10
18.4434838302957
20
33.6285314130725
30
0
41
1
10
18.4127975282275
20
33.6335518723001
30
0
41
1
10
18.3754018775675
20
33.6456486409895
30
0
41
1
10
18.3679858516777
20
33.6483612494705
30
0
41
1
10
18.3534843618352
20
33.6542690703275
30
0
41
1
10
18.3321375755529
20
33.6638839351814
30
0
41
1
10
18.3119368186066
20
33.6756275863122
30
0
41
1
10
18.2859434693283
20
33.6930337131096
30
0
41
1
10
18.2734002721152
20
33.7026442763956
30
0
41
1
10
18.2498192952166
20
33.7229542702785
30
0
41
1
10
18.2275544437094
20
33.7444687738342
30
0
41
1
10
18.2076288622269
20
33.76812416259
30
0
41
1
10
18.1887837730622
20
33.7927684111128
30
0
41
1
10
18.1798737240509
20
33.8056298293941
30
0
41
1
10
18.154876523932
20
33.845320879834
30
0
41
1
10
18.1407213141959
20
33.8728515265702
30
0
41
1
10
18.116603641408
20
33.9297003685217
30
0
41
1
10
18.1066511625444
20
33.9590228204263
30
0
41
1
10
18.0946732864748
20
34.0042645694071
30
0
41
1
10
18.0911932840927
20
34.0195026136709
30
0
41
1
10
18.0852755048812
20
34.0499981717234
30
0
41
1
10
18.0828262569597
20
34.0652982105632
30
0
41
1
10
18.0769553354024
20
34.1113497637789
30
0
41
1
10
18.075
20
34.1422516398011
30
0
41
1
10
18.075
20
34.1733540203475
30
0
0
SPLINE
5
163
100
AcDbEntity
8
1
62
256
6
ByLayer
370
18
48
1
60
0
100
AcDbSpline
70
4
71
3
72
8
73
4
40
0
40
0
40
0
40
0
40
1
40
1
40
1
40
1
41
1
10
28.95
20
48.2350472581919
30
0
41
1
10
28.7167026129473
20
48.4733261949083
30
0
41
1
10
28.4833687655885
20
48.7115693312277
30
0
41
1
10
28.2499999999999
20
48.9497781813156
30
0
0
SPLINE
5
164
100
AcDbEntity
8
1
62
256
6
ByLayer
370
18
48
1
60
0
100
AcDbSpline
70
4
71
3
72
8
73
4
40
0
40
0
40
0
40
0
40
1
40
1
40
1
40
1
41
1
10
28.95
20
38.0028646946517
30
0
41
1
10
28.717385155116
20
38.3044148652845
30
0
41
1
10
28.4840015193126
20
38.6055081962349
30
0
41
1
10
28.2499999999999
20
38.9060242764537
30
0
0
SPLINE
5
165
100
AcDbEntity
8
1
62
256
6
ByLayer
370
18
48
1
60
0
100
AcDbSpline
70
4
71
3
72
30
73
26
40
0
40
0
40
0
40
0
40
0.12499999999997
40
0.12499999999997
40
0.187499999999971
40
0.187499999999971
40
0.249999999999973
40
0.249999999999973
40
0.374999999999975
40
0.374999999999975
40
0.437499999999981
40
0.437499999999981
40
0.499999999999987
40
0.499999999999987
40
0.624999999999986
40
0.624999999999986
40
0.687499999999986
40
0.687499999999986
40
0.749999999999985
40
0.749999999999985
40
0.812499999999985
40
0.812499999999985
40
0.874999999999985
40
0.874999999999985
40
1
40
1
40
1
40
1
41
1
10
21.9250000000228
20
45.2793571509099
30
0
41
1
10
21.9250000000226
20
45.2526271959507
30
0
41
1
10
21.9224702320172
20
45.2263263466329
30
0
41
1
10
21.9150279070762
20
45.1874938001562
30
0
41
1
10
21.9119347879335
20
45.1746534853615
30
0
41
1
10
21.9044957734937
20
45.1491853548289
30
0
41
1
10
21.9001219702072
20
45.1364987669532
30
0
41
1
10
21.8853400702994
20
45.0995017490213
30
0
41
1
10
21.8732629096746
20
45.0760730842746
30
0
41
1
10
21.851836540537
20
45.0427711988123
30
0
41
1
10
21.844138856299
20
45.0319795298714
30
0
41
1
10
21.8275873615172
20
45.0110391387326
30
0
41
1
10
21.818815507744
20
45.0010010695113
30
0
41
1
10
21.7912962753
20
44.9724452388069
30
0
41
1
10
21.7712561461914
20
44.9553423658858
30
0
41
1
10
21.738598138628
20
44.9326544978527
30
0
41
1
10
21.7272194749054
20
44.9255614720513
30
0
41
1
10
21.7039181381345
20
44.9126247687907
30
0
41
1
10
21.6919842719135
20
44.90676457949
30
0
41
1
10
21.6675504216865
20
44.8962599287919
30
0
41
1
10
21.6549980971923
20
44.8915997995026
30
0
41
1
10
21.629567024321
20
44.8836084660223
30
0
41
1
10
21.6167445016848
20
44.880288261731
30
0
41
1
10
21.5779642071673
20
44.8723020631289
30
0
41
1
10
21.5516968166703
20
44.8695908606264
30
0
41
1
10
21.525
20
44.8695908606264
30
0
0
SPLINE
5
166
100
AcDbEntity
8
1
62
256
6
ByLayer
370
18
48
1
60
0
100
AcDbSpline
70
4
71
3
72
32
73
28
40
0
40
0
40
0
40
0
40
0.0625000000000003
40
0.0625000000000003
40
0.125000000000001
40
0.125000000000001
40
0.250000000000001
40
0.250000000000001
40
0.312500000000002
40
0.312500000000002
40
0.375000000000002
40
0.375000000000002
40
0.500000000000003
40
0.500000000000003
40
0.562499999999991
40
0.562499999999991
40
0.624999999999979
40
0.624999999999979
40
0.749999999999986
40
0.749999999999986
40
0.81249999999999
40
0.81249999999999
40
0.874999999999993
40
0.874999999999993
40
0.937499999999997
40
0.937499999999997
40
1
40
1
40
1
40
1
41
1
10
21.925
20
34.1733540203475
30
0
41
1
10
21.925
20
34.1577441557297
30
0
41
1
10
21.9245016761416
20
34.1421211416387
30
0
41
1
10
21.9225309625993
20
34.1111379919021
30
0
41
1
10
21.92105891339
20
34.0957350218261
30
0
41
1
10
21.9151868880887
20
34.0497911614099
30
0
41
1
10
21.9093431109088
20
34.0195131222784
30
0
41
1
10
21.897498074098
20
33.9746566784797
30
0
41
1
10
21.8930336997149
20
33.9597984761669
30
0
41
1
10
21.8830000961517
20
33.9302832158826
30
0
41
1
10
21.8774184903455
20
33.9156100206178
30
0
41
1
10
21.8591819896765
20
33.8726228962078
30
0
41
1
10
21.8449831323771
20
33.8450985960815
30
0
41
1
10
21.8202005592371
20
33.8057474995698
30
0
41
1
10
21.8113550357058
20
33.7929552210946
30
0
41
1
10
21.7923549663909
20
33.7680977629427
30
0
41
1
10
21.7822317389739
20
33.7560880110446
30
0
41
1
10
21.7503563397752
20
33.722019316658
30
0
41
1
10
21.7269594387176
20
33.7016524159592
30
0
41
1
10
21.687845691874
20
33.6754928423141
30
0
41
1
10
21.674134045728
20
33.667542013257
30
0
41
1
10
21.6460786379622
20
33.6537839415105
30
0
41
1
10
21.6316933229531
20
33.6479335657893
30
0
41
1
10
21.6021681168188
20
33.6384033351323
30
0
41
1
10
21.5869812296858
20
33.6347149886803
30
0
41
1
10
21.555976776776
20
33.6297563285023
30
0
41
1
10
21.540483848586
20
33.6285314130726
30
0
41
1
10
21.525
20
33.6285314130726
30
0
0
SPLINE
5
167
100
AcDbEntity
8
1
62
256
6
ByLayer
370
18
48
1
60
0
100
AcDbSpline
70
4
71
3
72
52
73
48
40
0
40
0
40
0
40
0
40
0.0625000000000155
40
0.0625000000000155
40
0.125000000000031
40
0.125000000000031
40
0.156250000000038
40
0.156250000000038
40
0.171875000000042
40
0.171875000000042
40
0.187500000000046
40
0.187500000000046
40
0.250000000000056
40
0.312500000000066
40
0.312500000000066
40
0.328125000000068
40
0.328125000000068
40
0.343750000000069
40
0.375000000000071
40
0.375000000000071
40
0.437500000000077
40
0.437500000000077
40
0.468750000000078
40
0.468750000000078
40
0.484375000000078
40
0.484375000000078
40
0.500000000000077
40
0.500000000000077
40
0.562500000000066
40
0.625000000000055
40
0.625000000000055
40
0.656250000000049
40
0.656250000000049
40
0.687500000000043
40
0.687500000000043
40
0.750000000000035
40
0.750000000000035
40
0.781250000000031
40
0.781250000000031
40
0.812500000000027
40
0.812500000000027
40
0.875000000000018
40
0.93750000000001
40
0.93750000000001
40
0.968750000000005
40
0.968750000000005
40
1
40
1
40
1
40
1
41
1
10
18.475
20
8.82745624824838
30
0
41
1
10
18.5131930808128
20
8.89405662171501
30
0
41
1
10
18.5554606478646
20
8.95738557328826
30
0
41
1
10
18.6478179474983
20
9.07777667488122
30
0
41
1
10
18.6979086926173
20
9.13483797258405
30
0
41
1
10
18.7789823714228
20
9.21568410815613
30
0
41
1
10
18.8069996678942
20
9.24183934221426
30
0
41
1
10
18.8505536464379
20
9.27985231561823
30
0
41
1
10
18.8653029438398
20
9.29229762208828
30
0
41
1
10
18.8950955856762
20
9.31660228793905
30
0
41
1
10
18.9101625115515
20
9.3284824333754
30
0
41
1
10
18.9863395554145
20
9.38653975566424
30
0
41
1
10
19.1135926887496
20
9.47086828252662
30
0
41
1
10
19.2514036903976
20
9.53838905803218
30
0
41
1
10
19.3409544661046
20
9.5751547997468
30
0
41
1
10
19.3590520089523
20
9.5822395988682
30
0
41
1
10
19.3953229586329
20
9.5957573232204
30
0
41
1
10
19.4499381667588
20
9.61509657435272
30
0
41
1
10
19.5051707053838
20
9.63166507308728
30
0
41
1
10
19.6164454423366
20
9.66116977299063
30
0
41
1
10
19.6917046822207
20
9.6760121610406
30
0
41
1
10
19.8062181220335
20
9.69099236742508
30
0
41
1
10
19.8446608919079
20
9.69476798755383
30
0
41
1
10
19.9027419621887
20
9.69856254593421
30
0
41
1
10
19.9222082263656
20
9.69951633011658
30
0
41
1
10
19.9610432866323
20
9.70078420155346
30
0
41
1
10
19.9804206757315
20
9.70110026133054
30
0
41
1
10
20.077109708401
20
9.70111331440546
30
0
41
1
10
20.2305506817672
20
9.69114502340119
30
0
41
1
10
20.3815254793057
20
9.66164390750947
30
0
41
1
10
20.493803921715
20
9.63196802955147
30
0
41
1
10
20.531126742299
20
9.62078432294817
30
0
41
1
10
20.6043513378543
20
9.59620893091784
30
0
41
1
10
20.6403890093397
20
9.58278629233357
30
0
41
1
10
20.7468111863411
20
9.5391768424038
30
0
41
1
10
20.8155120434473
20
9.50566279471815
30
0
41
1
10
20.9151902047722
20
9.44871626293661
30
0
41
1
10
20.9478522755725
20
9.42861793964076
30
0
41
1
10
21.0120256139634
20
9.38614199014495
30
0
41
1
10
21.0436243918519
20
9.36368915668103
30
0
41
1
10
21.1353630867129
20
9.29381338114027
30
0
41
1
10
21.2502848660042
20
9.19354381991008
30
0
41
1
10
21.3508223253872
20
9.07943318378557
30
0
41
1
10
21.4206978904473
20
8.9885199937226
30
0
41
1
10
21.4431137195572
20
8.95724713254154
30
0
41
1
10
21.4857057869268
20
8.89337354521547
30
0
41
1
10
21.5059034870284
20
8.86075638714138
30
0
41
1
10
21.525
20
8.82745624824838
30
0
0
SPLINE
5
168
100
AcDbEntity
8
1
62
256
6
ByLayer
370
18
48
1
60
0
100
AcDbSpline
70
4
71
3
72
52
73
48
40
0
40
0
40
0
40
0
40
0.0625000000000064
40
0.0625000000000064
40
0.125000000000013
40
0.125000000000013
40
0.156250000000016
40
0.156250000000016
40
0.171875000000017
40
0.171875000000017
40
0.187500000000018
40
0.187500000000018
40
0.250000000000029
40
0.31250000000004
40
0.31250000000004
40
0.328125000000041
40
0.328125000000041
40
0.343750000000042
40
0.375000000000045
40
0.375000000000045
40
0.43750000000005
40
0.43750000000005
40
0.468750000000051
40
0.468750000000051
40
0.48437500000005
40
0.48437500000005
40
0.500000000000049
40
0.500000000000049
40
0.562500000000037
40
0.625000000000025
40
0.625000000000025
40
0.656250000000021
40
0.656250000000021
40
0.687500000000017
40
0.687500000000017
40
0.750000000000011
40
0.750000000000011
40
0.78125000000001
40
0.78125000000001
40
0.812500000000009
40
0.812500000000009
40
0.875000000000005
40
0.937500000000002
40
0.937500000000002
40
0.968750000000001
40
0.968750000000001
40
1
40
1
40
1
40
1
41
1
10
21.525
20
-8.82745624824832
30
0
41
1
10
21.4868069191872
20
-8.89405662171495
30
0
41
1
10
21.4445393521354
20
-8.95738557328821
30
0
41
1
10
21.3521820525017
20
-9.07777667488116
30
0
41
1
10
21.3020913073827
20
-9.13483797258399
30
0
41
1
10
21.2210176285773
20
-9.21568410815607
30
0
41
1
10
21.1930003321059
20
-9.24183934221421
30
0
41
1
10
21.1494463535622
20
-9.27985231561817
30
0
41
1
10
21.1346970561602
20
-9.29229762208823
30
0
41
1
10
21.1049044143239
20
-9.31660228793899
30
0
41
1
10
21.0898374884485
20
-9.32848243337534
30
0
41
1
10
21.0136604445855
20
-9.38653975566419
30
0
41
1
10
20.8864073112505
20
-9.47086828252657
30
0
41
1
10
20.7485963096025
20
-9.53838905803212
30
0
41
1
10
20.6590455338954
20
-9.57515479974671
30
0
41
1
10
20.6409479910477
20
-9.58223959886814
30
0
41
1
10
20.6046770413671
20
-9.59575732322034
30
0
41
1
10
20.5500618332413
20
-9.61509657435266
30
0
41
1
10
20.4948292946162
20
-9.63166507308722
30
0
41
1
10
20.3835545576634
20
-9.66116977299058
30
0
41
1
10
20.3082953177793
20
-9.67601216104055
30
0
41
1
10
20.1937818779665
20
-9.69099236742503
30
0
41
1
10
20.1553391080921
20
-9.69476798755377
30
0
41
1
10
20.0972580378113
20
-9.69856254593415
30
0
41
1
10
20.0777917736344
20
-9.69951633011652
30
0
41
1
10
20.0389567133677
20
-9.7007842015534
30
0
41
1
10
20.0195793242685
20
-9.70110026133048
30
0
41
1
10
19.922890291599
20
-9.7011133144054
30
0
41
1
10
19.7694492795894
20
-9.6911453433049
30
0
41
1
10
19.6184745206944
20
-9.66164390750941
30
0
41
1
10
19.506196078285
20
-9.63196802955144
30
0
41
1
10
19.468873257701
20
-9.62078432294811
30
0
41
1
10
19.3956486621457
20
-9.59620893091781
30
0
41
1
10
19.3596109906603
20
-9.58278629233351
30
0
41
1
10
19.2531888136589
20
-9.53917684240375
30
0
41
1
10
19.1844879565527
20
-9.50566279471809
30
0
41
1
10
19.0848097952278
20
-9.44871626293656
30
0
41
1
10
19.0521477244275
20
-9.4286179396407
30
0
41
1
10
18.9879743860366
20
-9.38614199014492
30
0
41
1
10
18.9563756081481
20
-9.36368915668098
30
0
41
1
10
18.8646369132871
20
-9.29381338114024
30
0
41
1
10
18.7497152432194
20
-9.19354375936587
30
0
41
1
10
18.6491776746128
20
-9.07943318378554
30
0
41
1
10
18.5793021095527
20
-8.98851999372258
30
0
41
1
10
18.5568862804428
20
-8.95724713254148
30
0
41
1
10
18.5142942130732
20
-8.89337354521544
30
0
41
1
10
18.4940965129716
20
-8.86075638714135
30
0
41
1
10
18.475
20
-8.82745624824835
30
0
0
SPLINE
5
169
100
AcDbEntity
8
1
62
256
6
ByLayer
370
18
48
1
60
0
100
AcDbSpline
70
4
71
3
72
52
73
48
40
0
40
0
40
0
40
0
40
0.0624999999999936
40
0.0624999999999936
40
0.124999999999987
40
0.124999999999987
40
0.156249999999984
40
0.156249999999984
40
0.171874999999982
40
0.171874999999982
40
0.18749999999998
40
0.18749999999998
40
0.249999999999976
40
0.312499999999972
40
0.312499999999972
40
0.328124999999972
40
0.328124999999972
40
0.343749999999973
40
0.374999999999973
40
0.374999999999973
40
0.437499999999975
40
0.437499999999975
40
0.468749999999977
40
0.468749999999977
40
0.484374999999977
40
0.484374999999977
40
0.499999999999976
40
0.499999999999976
40
0.562499999999978
40
0.62499999999998
40
0.62499999999998
40
0.65624999999998
40
0.65624999999998
40
0.687499999999981
40
0.687499999999981
40
0.749999999999986
40
0.749999999999986
40
0.781249999999988
40
0.781249999999988
40
0.81249999999999
40
0.81249999999999
40
0.874999999999993
40
0.937499999999997
40
0.937499999999997
40
0.968749999999999
40
0.968749999999999
40
1
40
1
40
1
40
1
41
1
10
21.525
20
7.1367102590817
30
0
41
1
10
21.4868069191872
20
7.06966982881343
30
0
41
1
10
21.4445393521354
20
7.00587025666869
30
0
41
1
10
21.3521820525017
20
6.88450330592335
30
0
41
1
10
21.3020913073827
20
6.82693670265508
30
0
41
1
10
21.2210176285772
20
6.74532595300249
30
0
41
1
10
21.1930003321058
20
6.71891474029712
30
0
41
1
10
21.1494463535621
20
6.68051865864237
30
0
41
1
10
21.1346970561602
20
6.66794601142828
30
0
41
1
10
21.1049044143238
20
6.64338922161221
30
0
41
1
10
21.0898374884485
20
6.63138408428509
30
0
41
1
10
21.0136604445855
20
6.57270811008976
30
0
41
1
10
20.8864073112504
20
6.48743024054053
30
0
41
1
10
20.7485963096024
20
6.4190882097121
30
0
41
1
10
20.6590455338954
20
6.38186424615404
30
0
41
1
10
20.6409479910477
20
6.37469050014118
30
0
41
1
10
20.6046770413671
20
6.36100202225884
30
0
41
1
10
20.5500618332412
20
6.34141684334611
30
0
41
1
10
20.4948292946162
20
6.32463383686249
30
0
41
1
10
20.3835545576634
20
6.29474411539377
30
0
41
1
10
20.3082953177793
20
6.27970369831232
30
0
41
1
10
20.1937818779665
20
6.26452270090064
30
0
41
1
10
20.1553391080921
20
6.26069619257271
30
0
41
1
10
20.0972580378113
20
6.25685043140464
30
0
41
1
10
20.0777917736344
20
6.25588375910309
30
0
41
1
10
20.0389567133677
20
6.25459875053053
30
0
41
1
10
20.0195793242685
20
6.25427841514934
30
0
41
1
10
19.922890291599
20
6.254265185544
30
0
41
1
10
19.7694492795893
20
6.26436854237176
30
0
41
1
10
19.6184745206943
20
6.2942637364566
30
0
41
1
10
19.506196078285
20
6.32432695479451
30
0
41
1
10
19.468873257701
20
6.33565546844014
30
0
41
1
10
19.3956486621457
20
6.36054510369155
30
0
41
1
10
19.3596109906603
20
6.37413758752493
30
0
41
1
10
19.2531888136589
20
6.41829070974688
30
0
41
1
10
19.1844879565527
20
6.45221272773577
30
0
41
1
10
19.0848097952277
20
6.50982371252888
30
0
41
1
10
19.0521477244275
20
6.530152271101
30
0
41
1
10
18.9879743860366
20
6.57310349914553
30
0
41
1
10
18.9563756081481
20
6.59580214597713
30
0
41
1
10
18.8646369132871
20
6.66642267742492
30
0
41
1
10
18.7497151339958
20
6.76770948571948
30
0
41
1
10
18.6491776746128
20
6.88283276927339
30
0
41
1
10
18.5793021095527
20
6.97448376243369
30
0
41
1
10
18.5568862804428
20
7.00599948201591
30
0
41
1
10
18.5142942130732
20
7.07034433321832
30
0
41
1
10
18.4940965129716
20
7.10319009210394
30
0
41
1
10
18.475
20
7.1367102590817
30
0
0
SPLINE
5
16A
100
AcDbEntity
8
1
62
256
6
ByLayer
370
18
48
1
60
0
100
AcDbSpline
70
4
71
3
72
52
73
48
40
0
40
0
40
0
40
0
40
0.0625000000000099
40
0.0625000000000099
40
0.12500000000002
40
0.12500000000002
40
0.156250000000025
40
0.156250000000025
40
0.171875000000028
40
0.171875000000028
40
0.18750000000003
40
0.18750000000003
40
0.250000000000038
40
0.312500000000045
40
0.312500000000045
40
0.328125000000045
40
0.328125000000045
40
0.343750000000046
40
0.375000000000047
40
0.375000000000047
40
0.437500000000048
40
0.437500000000048
40
0.468750000000051
40
0.468750000000051
40
0.48437500000005
40
0.48437500000005
40
0.50000000000005
40
0.50000000000005
40
0.562500000000041
40
0.625000000000031
40
0.625000000000031
40
0.656250000000028
40
0.656250000000028
40
0.687500000000025
40
0.687500000000025
40
0.750000000000021
40
0.750000000000021
40
0.781250000000018
40
0.781250000000018
40
0.812500000000016
40
0.812500000000016
40
0.875000000000011
40
0.937500000000006
40
0.937500000000006
40
0.968750000000003
40
0.968750000000003
40
1
40
1
40
1
40
1
41
1
10
18.475
20
-7.13671025908164
30
0
41
1
10
18.5131930808128
20
-7.06966982881337
30
0
41
1
10
18.5554606478646
20
-7.00587025666863
30
0
41
1
10
18.6478179474983
20
-6.88450330592329
30
0
41
1
10
18.6979086926173
20
-6.82693670265502
30
0
41
1
10
18.7789823714228
20
-6.74532595300244
30
0
41
1
10
18.8069996678942
20
-6.71891474029707
30
0
41
1
10
18.8505536464379
20
-6.68051865864231
30
0
41
1
10
18.8653029438398
20
-6.66794601142823
30
0
41
1
10
18.8950955856762
20
-6.64338922161213
30
0
41
1
10
18.9101625115515
20
-6.63138408428503
30
0
41
1
10
18.9863395554145
20
-6.57270811008971
30
0
41
1
10
19.1135926887496
20
-6.48743024054048
30
0
41
1
10
19.2514036903976
20
-6.41908820971204
30
0
41
1
10
19.3409544661046
20
-6.38186424615398
30
0
41
1
10
19.3590520089523
20
-6.37469050014113
30
0
41
1
10
19.3953229586329
20
-6.36100202225879
30
0
41
1
10
19.4499381667588
20
-6.34141684334605
30
0
41
1
10
19.5051707053838
20
-6.32463383686243
30
0
41
1
10
19.6164454423366
20
-6.29474411539371
30
0
41
1
10
19.6917046822208
20
-6.27970369831226
30
0
41
1
10
19.8062181220335
20
-6.26452270090059
30
0
41
1
10
19.844660891908
20
-6.26069619257265
30
0
41
1
10
19.9027419621887
20
-6.25685043140462
30
0
41
1
10
19.9222082263656
20
-6.25588375910303
30
0
41
1
10
19.9610432866324
20
-6.25459875053048
30
0
41
1
10
19.9804206757315
20
-6.25427841514932
30
0
41
1
10
20.077109708401
20
-6.25426518554397
30
0
41
1
10
20.2305506817672
20
-6.2643688434803
30
0
41
1
10
20.3815254793057
20
-6.29426373645654
30
0
41
1
10
20.4938039217151
20
-6.32432695479446
30
0
41
1
10
20.531126742299
20
-6.33565546844008
30
0
41
1
10
20.6043513378543
20
-6.36054510369152
30
0
41
1
10
20.6403890093397
20
-6.3741375875249
30
0
41
1
10
20.7468111863411
20
-6.41829070974686
30
0
41
1
10
20.8155120434473
20
-6.45221272773571
30
0
41
1
10
20.9151902047723
20
-6.50982371252883
30
0
41
1
10
20.9478522755725
20
-6.53015227110095
30
0
41
1
10
21.0120256139634
20
-6.5731034991455
30
0
41
1
10
21.0436243918519
20
-6.5958021459771
30
0
41
1
10
21.1353630867129
20
-6.66642267742486
30
0
41
1
10
21.2502848660042
20
-6.76770948571942
30
0
41
1
10
21.3508223253872
20
-6.88283276927336
30
0
41
1
10
21.4206978904473
20
-6.97448376243366
30
0
41
1
10
21.4431137195572
20
-7.00599948201588
30
0
41
1
10
21.4857057869268
20
-7.07034433321829
30
0
41
1
10
21.5059034870284
20
-7.10319009210392
30
0
41
1
10
21.525
20
-7.13671025908164
30
0
0
SPLINE
5
16B
100
AcDbEntity
8
1
62
256
6
ByLayer
370
18
48
1
60
0
100
AcDbSpline
70
4
71
3
72
30
73
26
40
0
40
0
40
0
40
0
40
0.0625000000000042
40
0.0625000000000042
40
0.125000000000008
40
0.187500000000013
40
0.187500000000013
40
0.250000000000017
40
0.250000000000017
40
0.375000000000027
40
0.375000000000027
40
0.437500000000016
40
0.437500000000016
40
0.500000000000005
40
0.500000000000005
40
0.625000000000019
40
0.625000000000019
40
0.687500000000021
40
0.687500000000021
40
0.750000000000023
40
0.812500000000025
40
0.812500000000025
40
0.875000000000027
40
0.875000000000027
40
1
40
1
40
1
40
1
41
1
10
18.4750000000001
20
-44.6344954491478
30
0
41
1
10
18.4616847979077
20
-44.6344954491478
30
0
41
1
10
18.44823198591
20
-44.6351906384268
30
0
41
1
10
18.4217536095185
20
-44.6379322295662
30
0
41
1
10
18.3955718893267
20
-44.6420142394736
30
0
41
1
10
18.3699704552136
20
-44.6487182284649
30
0
41
1
10
18.3446613431873
20
-44.6567430528606
30
0
41
1
10
18.332089597359
20
-44.6614445089548
30
0
41
1
10
18.2953093716652
20
-44.6773890308172
30
0
41
1
10
18.2722157062746
20
-44.6903364922936
30
0
41
1
10
18.2396300763837
20
-44.713096473663
30
0
41
1
10
18.2291132506191
20
-44.7212437793673
30
0
41
1
10
18.2087863511855
20
-44.7386867351014
30
0
41
1
10
18.1991008672812
20
-44.7478791620445
30
0
41
1
10
18.171610646091
20
-44.7766402360769
30
0
41
1
10
18.1552722742638
20
-44.7974548350275
30
0
41
1
10
18.1337397189047
20
-44.8311312371395
30
0
41
1
10
18.1270502063934
20
-44.8428052221969
30
0
41
1
10
18.1149450839626
20
-44.8664998596966
30
0
41
1
10
18.1040370241815
20
-44.8906474056006
30
0
41
1
10
18.0954655871355
20
-44.9156790122305
30
0
41
1
10
18.0880672270645
20
-44.9411544522898
30
0
41
1
10
18.084947689367
20
-44.9541508067768
30
0
41
1
10
18.0774508125186
20
-44.9935864531736
30
0
41
1
10
18.0749999999998
20
-45.0199555519468
30
0
41
1
10
18.0750000000001
20
-45.0464003445382
30
0
0
SPLINE
5
16C
100
AcDbEntity
8
1
62
256
6
ByLayer
370
18
48
1
60
0
100
AcDbSpline
70
4
71
3
72
32
73
28
40
0
40
0
40
0
40
0
40
0.125000000000003
40
0.125000000000003
40
0.250000000000005
40
0.250000000000005
40
0.281250000000006
40
0.281250000000006
40
0.312500000000006
40
0.312500000000006
40
0.375000000000009
40
0.375000000000009
40
0.500000000000015
40
0.500000000000015
40
0.562500000000019
40
0.562500000000019
40
0.593750000000021
40
0.593750000000021
40
0.625000000000021
40
0.625000000000021
40
0.750000000000014
40
0.750000000000014
40
0.875000000000007
40
0.875000000000007
40
0.937500000000003
40
0.937500000000003
40
1
40
1
40
1
40
1
41
1
10
18.475
20
-8.82745624824835
30
0
41
1
10
18.4377864466612
20
-8.76256395630315
30
0
41
1
10
18.4054492427888
20
-8.6972254738636
30
0
41
1
10
18.349710814951
20
-8.56422661798976
30
0
41
1
10
18.3263174295068
20
-8.49658590374042
30
0
41
1
10
18.3026347247877
20
-8.40980695132882
30
0
41
1
10
18.2981777768653
20
-8.39233946392315
30
0
41
1
10
18.2898288157941
20
-8.35715950288485
30
0
41
1
10
18.2859353635673
20
-8.33943418600853
30
0
41
1
10
18.2751840579966
20
-8.28623216802924
30
0
41
1
10
18.2692244159246
20
-8.25061249335548
30
0
41
1
10
18.2549017237894
20
-8.14316707428327
30
0
41
1
10
18.250079691989
20
-8.07073664892101
30
0
41
1
10
18.249961617153
20
-7.96061919661557
30
0
41
1
10
18.251111974268
20
-7.92367239491395
30
0
41
1
10
18.2546595041354
20
-7.86790025401407
30
0
41
1
10
18.2561459141043
20
-7.84925120805957
30
0
41
1
10
18.2597356429362
20
-7.81184177844324
30
0
41
1
10
18.261839368491
20
-7.79309330691439
30
0
41
1
10
18.2738091220134
20
-7.69986645461566
30
0
41
1
10
18.2880551680473
20
-7.6263014392558
30
0
41
1
10
18.3256409102619
20
-7.48138135487181
30
0
41
1
10
18.3489787734403
20
-7.41002551449392
30
0
41
1
10
18.3911622507963
20
-7.3049481733994
30
0
41
1
10
18.4063797715672
20
-7.27037709534616
30
0
41
1
10
18.4390017274134
20
-7.20258607374524
30
0
41
1
10
18.4564279174875
20
-7.16930989168461
30
0
41
1
10
18.4749999999984
20
-7.1367102590807
30
0
0
SPLINE
5
16D
100
AcDbEntity
8
1
62
256
6
ByLayer
370
18
48
1
60
0
100
AcDbSpline
70
4
71
3
72
32
73
28
40
0
40
0
40
0
40
0
40
0.125000000000002
40
0.125000000000002
40
0.250000000000004
40
0.250000000000004
40
0.281250000000005
40
0.281250000000005
40
0.312500000000005
40
0.312500000000005
40
0.375000000000004
40
0.375000000000004
40
0.499999999999999
40
0.499999999999999
40
0.562499999999997
40
0.562499999999997
40
0.593749999999996
40
0.593749999999996
40
0.624999999999994
40
0.624999999999994
40
0.749999999999996
40
0.749999999999996
40
0.874999999999997
40
0.874999999999997
40
0.937499999999998
40
0.937499999999998
40
1
40
1
40
1
40
1
41
1
10
18.475
20
7.1367102590817
30
0
41
1
10
18.4377864466611
20
7.20203132181237
30
0
41
1
10
18.4054492427887
20
7.26951057032849
30
0
41
1
10
18.349710814951
20
7.40805388100131
30
0
41
1
10
18.3263174295068
20
7.4791264256161
30
0
41
1
10
18.3026347247876
20
7.57000440345772
30
0
41
1
10
18.2981777768653
20
7.58828255509036
30
0
41
1
10
18.289828815794
20
7.6250413317525
30
0
41
1
10
18.2859353635673
20
7.64353518078505
30
0
41
1
10
18.2751840579966
20
7.69892859380752
30
0
41
1
10
18.2692244159246
20
7.73586111078592
30
0
41
1
10
18.2549017237893
20
7.84657353992495
30
0
41
1
10
18.250079691989
20
7.92025447498548
30
0
41
1
10
18.2499616171529
20
8.03040138417367
30
0
41
1
10
18.2511119742679
20
8.06705790291502
30
0
41
1
10
18.2546595041354
20
8.12196385028315
30
0
41
1
10
18.2561459141042
20
8.14025293669158
30
0
41
1
10
18.2597356429362
20
8.1768097689862
30
0
41
1
10
18.261839368491
20
8.19506559950983
30
0
41
1
10
18.2738091220133
20
8.28555846016005
30
0
41
1
10
18.2880551680473
20
8.3560450087131
30
0
41
1
10
18.3256409102618
20
8.49443673746643
30
0
41
1
10
18.3489787734402
20
8.56234083732673
30
0
41
1
10
18.3911622507963
20
8.66320268493732
30
0
41
1
10
18.4063797715671
20
8.69653726119421
30
0
41
1
10
18.4390017274133
20
8.76244493810523
30
0
41
1
10
18.4564279174875
20
8.79507060129501
30
0
41
1
10
18.4749999999984
20
8.82745624824875
30
0
0
SPLINE
5
16E
100
AcDbEntity
8
1
62
256
6
ByLayer
370
18
48
1
60
0
100
AcDbSpline
70
4
71
3
72
30
73
26
40
0
40
0
40
0
40
0
40
0.125181098279593
40
0.125181098279593
40
0.156476372849501
40
0.156476372849501
40
0.187771647419408
40
0.250362196559224
40
0.250362196559224
40
0.31295274569904
40
0.31295274569904
40
0.375543294838855
40
0.438133843978671
40
0.438133843978671
40
0.500724393118487
40
0.500724393118487
40
0.625905491398149
40
0.625905491398149
40
0.751086589677811
40
0.751086589677811
40
0.813677138817629
40
0.813677138817629
40
0.876267687957447
40
0.876267687957447
40
1
40
1
40
1
40
1
41
1
10
18.475
20
31.35
30
0
41
1
10
18.4434838302958
20
31.35
30
0
41
1
10
18.4127975282275
20
31.35
30
0
41
1
10
18.3754018775675
20
31.35
30
0
41
1
10
18.3679858516777
20
31.35
30
0
41
1
10
18.3534843618352
20
31.35
30
0
41
1
10
18.3321375755529
20
31.35
30
0
41
1
10
18.3119368186066
20
31.35
30
0
41
1
10
18.2859434693283
20
31.3500000000001
30
0
41
1
10
18.2734002721152
20
31.35
30
0
41
1
10
18.2498192952166
20
31.3500000000001
30
0
41
1
10
18.2275544437094
20
31.35
30
0
41
1
10
18.2076288622269
20
31.35
30
0
41
1
10
18.1887837730622
20
31.35
30
0
41
1
10
18.1798737240509
20
31.35
30
0
41
1
10
18.154876523932
20
31.35
30
0
41
1
10
18.1407213141959
20
31.35
30
0
41
1
10
18.116603641408
20
31.35
30
0
41
1
10
18.1066511625444
20
31.35
30
0
41
1
10
18.0946732864748
20
31.3500000000001
30
0
41
1
10
18.0911932840927
20
31.35
30
0
41
1
10
18.0852755048812
20
31.35
30
0
41
1
10
18.0828262569597
20
31.35
30
0
41
1
10
18.0770006335636
20
31.35
30
0
41
1
10
18.0750347746544
20
31.35
30
0
41
1
10
18.0750049999987
20
31.35
30
0
0
SPLINE
5
16F
100
AcDbEntity
8
1
62
256
6
ByLayer
370
18
48
1
60
0
100
AcDbSpline
70
4
71
3
72
31
73
27
40
0
40
0
40
0
40
0
40
0.0625000000000124
40
0.0625000000000124
40
0.125000000000025
40
0.125000000000025
40
0.250000000000046
40
0.250000000000046
40
0.312500000000042
40
0.312500000000042
40
0.375000000000038
40
0.375000000000038
40
0.500000000000057
40
0.500000000000057
40
0.562500000000049
40
0.562500000000049
40
0.625000000000041
40
0.687500000000033
40
0.687500000000033
40
0.750000000000025
40
0.750000000000025
40
0.875000000000024
40
0.875000000000024
40
0.937500000000012
40
0.937500000000012
40
1
40
1
40
1
40
1
41
1
10
21.9250000000001
20
-45.0464003445336
30
0
41
1
10
21.9250000000001
20
-45.0331626603318
30
0
41
1
10
21.9243814956821
20
-45.0198947900488
30
0
41
1
10
21.9218726395179
20
-44.9932969770096
30
0
41
1
10
21.9199785565726
20
-44.9800081055473
30
0
41
1
10
21.9125069641339
20
-44.9408759852542
30
0
41
1
10
21.9051361068651
20
-44.9154933320043
30
0
41
1
10
21.890471836696
20
-44.8784843675956
30
0
41
1
10
21.8849526780865
20
-44.8662777778366
30
0
41
1
10
21.8727654232932
20
-44.8424668183442
30
0
41
1
10
21.8661456968195
20
-44.8309442994393
30
0
41
1
10
21.8447456214818
20
-44.7974983998839
30
0
41
1
10
21.8284392770504
20
-44.7766858300516
30
0
41
1
10
21.8008015924791
20
-44.7477804442197
30
0
41
1
10
21.7910273232174
20
-44.7385200855485
30
0
41
1
10
21.7708356920274
20
-44.7212068053836
30
0
41
1
10
21.7499032588599
20
-44.7049883816989
30
0
41
1
10
21.7275051342931
20
-44.6909361532664
30
0
41
1
10
21.7043606202103
20
-44.6779870393273
30
0
41
1
10
21.6923744597048
20
-44.672046490774
30
0
41
1
10
21.6555104913067
20
-44.656075848044
30
0
41
1
10
21.6302617191814
20
-44.6480861211984
30
0
41
1
10
21.5914053943374
20
-44.6399847983876
30
0
41
1
10
21.5782882184711
20
-44.6379363339769
30
0
41
1
10
21.5517131422166
20
-44.6351851835537
30
0
41
1
10
21.5382858068625
20
-44.6344954491478
30
0
41
1
10
21.5250000000001
20
-44.6344954491478
30
0
0
SPLINE
5
170
100
AcDbEntity
8
1
62
256
6
ByLayer
370
18
48
1
60
0
100
AcDbSpline
70
4
71
3
72
32
73
28
40
0
40
0
40
0
40
0
40
0.0596037010915574
40
0.0596037010915574
40
0.122296787685454
40
0.122296787685454
40
0.247682960873247
40
0.247682960873247
40
0.310376047467143
40
0.310376047467143
40
0.37306913406104
40
0.37306913406104
40
0.498455307248833
40
0.498455307248833
40
0.561148393842718
40
0.561148393842718
40
0.623841480436602
40
0.623841480436602
40
0.749227653624401
40
0.749227653624401
40
0.811920740218301
40
0.811920740218301
40
0.874613826812201
40
0.874613826812201
40
0.9373069134061
40
0.9373069134061
40
1
40
1
40
1
40
1
41
1
10
21.9249999999961
20
31.35
30
0
41
1
10
21.9249451847808
20
31.35
30
0
41
1
10
21.9244531198
20
31.35
30
0
41
1
10
21.9225309625993
20
31.35
30
0
41
1
10
21.92105891339
20
31.35
30
0
41
1
10
21.9151868880887
20
31.35
30
0
41
1
10
21.9093431109088
20
31.35
30
0
41
1
10
21.897498074098
20
31.35
30
0
41
1
10
21.8930336997149
20
31.35
30
0
41
1
10
21.8830000961517
20
31.35
30
0
41
1
10
21.8774184903455
20
31.35
30
0
41
1
10
21.8591819896765
20
31.3500000000001
30
0
41
1
10
21.8449831323771
20
31.35
30
0
41
1
10
21.8202005592371
20
31.3500000000001
30
0
41
1
10
21.8113550357058
20
31.35
30
0
41
1
10
21.792354966391
20
31.3500000000001
30
0
41
1
10
21.7822317389739
20
31.35
30
0
41
1
10
21.7503563397752
20
31.35
30
0
41
1
10
21.7269594387176
20
31.35
30
0
41
1
10
21.687845691874
20
31.35
30
0
41
1
10
21.674134045728
20
31.35
30
0
41
1
10
21.6460786379622
20
31.3500000000001
30
0
41
1
10
21.6316933229531
20
31.35
30
0
41
1
10
21.6021681168188
20
31.3500000000001
30
0
41
1
10
21.5869812296858
20
31.35
30
0
41
1
10
21.555976776776
20
31.35
30
0
41
1
10
21.540483848586
20
31.3500000000001
30
0
41
1
10
21.525
20
31.35
30
0
0
SPLINE
5
171
100
AcDbEntity
8
1
62
256
6
ByLayer
370
18
48
1
60
0
100
AcDbSpline
70
4
71
3
72
32
73
28
40
0
40
0
40
0
40
0
40
0.124999999999997
40
0.124999999999997
40
0.249999999999994
40
0.249999999999994
40
0.281249999999993
40
0.281249999999993
40
0.312499999999993
40
0.312499999999993
40
0.374999999999996
40
0.374999999999996
40
0.500000000000001
40
0.500000000000001
40
0.562500000000003
40
0.562500000000003
40
0.593750000000002
40
0.593750000000002
40
0.625000000000003
40
0.625000000000003
40
0.750000000000002
40
0.750000000000002
40
0.875000000000001
40
0.875000000000001
40
0.937500000000001
40
0.937500000000001
40
1
40
1
40
1
40
1
41
1
10
21.525
20
8.82745624824838
30
0
41
1
10
21.5622135533389
20
8.76256395630318
30
0
41
1
10
21.5945507572112
20
8.69722547386363
30
0
41
1
10
21.6502891850489
20
8.56422661798979
30
0
41
1
10
21.6736825704932
20
8.49658590374048
30
0
41
1
10
21.6973652752123
20
8.40980695132887
30
0
41
1
10
21.7018222231347
20
8.39233946392318
30
0
41
1
10
21.7101711842059
20
8.35715950288488
30
0
41
1
10
21.7140646364327
20
8.33943418600856
30
0
41
1
10
21.7248159420034
20
8.2862321680293
30
0
41
1
10
21.7307755840754
20
8.25061249335553
30
0
41
1
10
21.7450982762106
20
8.1431670742833
30
0
41
1
10
21.749920308011
20
8.07073664892107
30
0
41
1
10
21.750038382847
20
7.9606191966156
30
0
41
1
10
21.7488880257321
20
7.92367239491401
30
0
41
1
10
21.7453404958646
20
7.86790025401413
30
0
41
1
10
21.7438540858957
20
7.8492512080596
30
0
41
1
10
21.7402643570638
20
7.81184177844327
30
0
41
1
10
21.738160631509
20
7.79309330691444
30
0
41
1
10
21.7261908779866
20
7.69986645461572
30
0
41
1
10
21.7119448319527
20
7.62630143925585
30
0
41
1
10
21.6743590897381
20
7.48138135487187
30
0
41
1
10
21.6510212265597
20
7.41002551449398
30
0
41
1
10
21.6088377492037
20
7.30494817339948
30
0
41
1
10
21.5936202284329
20
7.27037709534622
30
0
41
1
10
21.5609982725866
20
7.20258607374529
30
0
41
1
10
21.5435720825125
20
7.16930989168466
30
0
41
1
10
21.5250000000016
20
7.13671025908076
30
0
0
SPLINE
5
172
100
AcDbEntity
8
1
62
256
6
ByLayer
370
18
48
1
60
0
100
AcDbSpline
70
4
71
3
72
32
73
28
40
0
40
0
40
0
40
0
40
0.125
40
0.125
40
0.249999999999999
40
0.249999999999999
40
0.281249999999999
40
0.281249999999999
40
0.312499999999999
40
0.312499999999999
40
0.374999999999999
40
0.374999999999999
40
0.499999999999999
40
0.499999999999999
40
0.562500000000001
40
0.562500000000001
40
0.593750000000002
40
0.593750000000002
40
0.625000000000004
40
0.625000000000004
40
0.750000000000003
40
0.750000000000003
40
0.875000000000003
40
0.875000000000003
40
0.937500000000001
40
0.937500000000001
40
1
40
1
40
1
40
1
41
1
10
21.525
20
-7.13671025908164
30
0
41
1
10
21.5622135533389
20
-7.20203132181231
30
0
41
1
10
21.5945507572113
20
-7.26951057032846
30
0
41
1
10
21.650289185049
20
-7.40805388100128
30
0
41
1
10
21.6736825704932
20
-7.47912642561607
30
0
41
1
10
21.6973652752124
20
-7.57000440345766
30
0
41
1
10
21.7018222231347
20
-7.5882825550903
30
0
41
1
10
21.7101711842059
20
-7.62504133175244
30
0
41
1
10
21.7140646364327
20
-7.64353518078499
30
0
41
1
10
21.7248159420035
20
-7.69892859380747
30
0
41
1
10
21.7307755840754
20
-7.73586111078589
30
0
41
1
10
21.7450982762107
20
-7.84657353992489
30
0
41
1
10
21.749920308011
20
-7.92025447498543
30
0
41
1
10
21.7500383828471
20
-8.03040138417364
30
0
41
1
10
21.7488880257321
20
-8.06705790291497
30
0
41
1
10
21.7453404958647
20
-8.12196385028309
30
0
41
1
10
21.7438540858958
20
-8.14025293669152
30
0
41
1
10
21.7402643570638
20
-8.17680976898615
30
0
41
1
10
21.738160631509
20
-8.19506559950977
30
0
41
1
10
21.7261908779867
20
-8.28555846015999
30
0
41
1
10
21.7119448319527
20
-8.35604500871304
30
0
41
1
10
21.6743590897382
20
-8.49443673746634
30
0
41
1
10
21.6510212265597
20
-8.56234083732667
30
0
41
1
10
21.6088377492037
20
-8.66320268493723
30
0
41
1
10
21.5936202284329
20
-8.69653726119415
30
0
41
1
10
21.5609982725867
20
-8.76244493810518
30
0
41
1
10
21.5435720825125
20
-8.79507060129495
30
0
41
1
10
21.5250000000016
20
-8.82745624824869
30
0
0
SPLINE
5
173
100
AcDbEntity
8
1
62
256
6
ByLayer
370
18
48
1
60
0
100
AcDbSpline
70
4
71
3
72
8
73
4
40
0
40
0
40
0
40
0
40
1
40
1
40
1
40
1
41
1
10
23.2418217614998
20
-48.7343696378644
30
0
41
1
10
22.8024719501864
20
-47.9541774266955
30
0
41
1
10
22.363511531413
20
-47.1737672945194
30
0
41
1
10
21.9250000000001
20
-46.3931059454459
30
0
0
SPLINE
5
174
100
AcDbEntity
8
1
62
256
6
ByLayer
370
18
48
1
60
0
100
AcDbSpline
70
4
71
3
72
8
73
4
40
0
40
0
40
0
40
0
40
1
40
1
40
1
40
1
41
1
10
23.2418217614997
20
31.35
30
0
41
1
10
22.7970974394247
20
31.35
30
0
41
1
10
22.3578450722475
20
31.35
30
0
41
1
10
21.925
20
31.35
30
0
0
SPLINE
5
175
100
AcDbEntity
8
1
62
256
6
ByLayer
370
18
48
1
60
0
100
AcDbSpline
70
4
71
3
72
8
73
4
40
0
40
0
40
0
40
0
40
1
40
1
40
1
40
1
41
1
10
28.95
20
-48.0164324372396
30
0
41
1
10
28.716710876918
20
-48.2557877592673
30
0
41
1
10
28.4833769086862
20
-48.4950995430802
30
0
41
1
10
28.25
20
-48.7343696378644
30
0
0
SPLINE
5
176
100
AcDbEntity
8
1
62
256
6
ByLayer
370
18
48
1
60
0
100
AcDbSpline
70
4
71
3
72
8
73
4
40
0
40
0
40
0
40
0
40
1
40
1
40
1
40
1
41
1
10
28.95
20
31.3500000000001
30
0
41
1
10
28.717385155116
20
31.35
30
0
41
1
10
28.4840015193126
20
31.35
30
0
41
1
10
28.25
20
31.35
30
0
0
SPLINE
5
177
100
AcDbEntity
8
1
62
256
6
ByLayer
370
18
48
1
60
0
100
AcDbSpline
70
4
71
3
72
8
73
4
40
0
40
0
40
0
40
0
40
1
40
1
40
1
40
1
41
1
10
18.0750000000001
20
-46.3931059454459
30
0
41
1
10
17.6364884685871
20
-47.1737672945194
30
0
41
1
10
17.1975280498137
20
-47.9541774266955
30
0
41
1
10
16.7581782385003
20
-48.7343696378644
30
0
0
SPLINE
5
178
100
AcDbEntity
8
1
62
256
6
ByLayer
370
18
48
1
60
0
100
AcDbSpline
70
4
71
3
72
8
73
4
40
0
40
0
40
0
40
0
40
1
40
1
40
1
40
1
41
1
10
18.075
20
31.35
30
0
41
1
10
17.6421549277525
20
31.35
30
0
41
1
10
17.2029025605752
20
31.35
30
0
41
1
10
16.7581782385002
20
31.35
30
0
0
SPLINE
5
179
100
AcDbEntity
8
1
62
256
6
ByLayer
370
18
48
1
60
0
100
AcDbSpline
70
4
71
3
72
55
73
51
40
0
40
0
40
0
40
0
40
0.0624999999999992
40
0.0624999999999992
40
0.124999999999998
40
0.124999999999998
40
0.187499999999998
40
0.187499999999998
40
0.203124999999997
40
0.203124999999997
40
0.218749999999997
40
0.218749999999997
40
0.249999999999997
40
0.249999999999997
40
0.312499999999995
40
0.312499999999995
40
0.374999999999994
40
0.374999999999994
40
0.406249999999994
40
0.406249999999994
40
0.421874999999993
40
0.421874999999993
40
0.437499999999993
40
0.437499999999993
40
0.499999999999992
40
0.499999999999992
40
0.562499999999991
40
0.562499999999991
40
0.62499999999999
40
0.62499999999999
40
0.632812499999991
40
0.632812499999991
40
0.640624999999991
40
0.640624999999991
40
0.656249999999991
40
0.687499999999992
40
0.687499999999992
40
0.749999999999993
40
0.749999999999993
40
0.812499999999995
40
0.812499999999995
40
0.843749999999996
40
0.843749999999996
40
0.859374999999996
40
0.859374999999996
40
0.874999999999997
40
0.874999999999997
40
0.937499999999998
40
0.937499999999998
40
1
40
1
40
1
40
1
41
1
10
14.9500000000001
20
-48.7343696378644
30
0
41
1
10
14.6186180770483
20
-48.7343696378644
30
0
41
1
10
14.2901293667462
20
-48.7380932241918
30
0
41
1
10
13.6387232911421
20
-48.7526151918802
30
0
41
1
10
13.3158065177085
20
-48.7634141371864
30
0
41
1
10
12.6754919299054
20
-48.7917402554333
30
0
41
1
10
12.3580939389171
20
-48.809267872866
30
0
41
1
10
11.9648592282068
20
-48.8351718883636
30
0
41
1
10
11.8863883176173
20
-48.8405524220114
30
0
41
1
10
11.7298017686216
20
-48.8517076682971
30
0
41
1
10
11.6515991381983
20
-48.8574894582082
30
0
41
1
10
11.4187515333457
20
-48.8753220985444
30
0
41
1
10
11.2655498884333
20
-48.8878806568078
30
0
41
1
10
10.8118951505551
20
-48.9273980953649
30
0
41
1
10
10.517377974707
20
-48.9561972782341
30
0
41
1
10
9.94380215106828
20
-49.0178549347292
30
0
41
1
10
9.66474394687698
20
-49.0507146985876
30
0
41
1
10
9.25780740131539
20
-49.1024378176854
30
0
41
1
10
9.12410716979447
20
-49.1200845666749
30
0
41
1
10
8.92651453327993
20
-49.1470866090043
30
0
41
1
10
8.86114350809258
20
-49.1561759362458
30
0
41
1
10
8.7313973991774
20
-49.1745189755888
30
0
41
1
10
8.6672713838701
20
-49.1837374881247
30
0
41
1
10
8.35046385487287
20
-49.2300062218261
30
0
41
1
10
8.10907647024372
20
-49.267602508421
30
0
41
1
10
7.64966054039313
20
-49.3429973753042
30
0
41
1
10
7.43163375382831
20
-49.380797599762
30
0
41
1
10
7.01889930623044
20
-49.4556861023258
30
0
41
1
10
6.82418992981574
20
-49.4927759662818
30
0
41
1
10
6.6186345713043
20
-49.5335844296443
30
0
41
1
10
6.59598297197475
20
-49.5381059367661
30
0
41
1
10
6.55105770947232
20
-49.547121570508
30
0
41
1
10
6.5287752132392
20
-49.5516175187617
30
0
41
1
10
6.46267533310358
20
-49.5650253864375
30
0
41
1
10
6.33330054912732
20
-49.5915542938287
30
0
41
1
10
6.2123023026105
20
-49.617172972123
30
0
41
1
10
5.98129593649496
20
-49.6670683357459
30
0
41
1
10
5.8419186123749
20
-49.6985422181599
30
0
41
1
10
5.59213609509969
20
-49.7572475370043
30
0
41
1
10
5.48173027698677
20
-49.7844801347868
30
0
41
1
10
5.33828630346621
20
-49.8216503380533
30
0
41
1
10
5.29417252865382
20
-49.8334271708375
30
0
41
1
10
5.2336726738644
20
-49.8501079866212
30
0
41
1
10
5.21443098384974
20
-49.8555101959131
30
0
41
1
10
5.17800678971319
20
-49.8659342277255
30
0
41
1
10
5.16081455682296
20
-49.8709584653659
30
0
41
1
10
5.0799200132633
20
-49.8951321864374
30
0
41
1
10
5.0313803485398
20
-49.9114393168579
30
0
41
1
10
4.96642087804362
20
-49.93777114671
30
0
41
1
10
4.95000000000006
20
-49.9477962365168
30
0
41
1
10
4.95000000000006
20
-49.9545671986056
30
0
0
SPLINE
5
17A
100
AcDbEntity
8
1
62
256
6
ByLayer
370
18
48
1
60
0
100
AcDbSpline
70
4
71
3
72
54
73
50
40
0
40
0
40
0
40
0
40
0.0625000000000046
40
0.0625000000000046
40
0.125000000000009
40
0.125000000000009
40
0.156250000000011
40
0.156250000000011
40
0.171875000000013
40
0.171875000000013
40
0.179687500000013
40
0.179687500000013
40
0.187500000000014
40
0.250000000000017
40
0.250000000000017
40
0.31250000000002
40
0.31250000000002
40
0.343750000000022
40
0.343750000000022
40
0.359375000000023
40
0.359375000000023
40
0.375000000000023
40
0.375000000000023
40
0.437500000000022
40
0.437500000000022
40
0.50000000000002
40
0.50000000000002
40
0.531250000000019
40
0.531250000000019
40
0.546875000000018
40
0.546875000000018
40
0.562500000000017
40
0.562500000000017
40
0.625000000000014
40
0.625000000000014
40
0.687500000000012
40
0.687500000000012
40
0.75000000000001
40
0.75000000000001
40
0.812500000000008
40
0.812500000000008
40
0.828125000000007
40
0.828125000000007
40
0.843750000000006
40
0.875000000000005
40
0.875000000000005
40
0.937500000000002
40
0.937500000000002
40
1
40
1
40
1
40
1
41
1
10
14.6579668481793
20
38.9060242764537
30
0
41
1
10
14.3262055454705
20
38.9060242764537
30
0
41
1
10
13.9982314324204
20
38.8927740584742
30
0
41
1
10
13.3494884639966
20
38.8409468046657
30
0
41
1
10
13.0287211904853
20
38.8023638648199
30
0
41
1
10
12.552897130635
20
38.7255085306534
30
0
41
1
10
12.3951788176721
20
38.6967182657897
30
0
41
1
10
12.1599425935178
20
38.6487040358918
30
0
41
1
10
12.0817541728103
20
38.631893977704
30
0
41
1
10
11.9648088811361
20
38.6054573881724
30
0
41
1
10
11.9258505361288
20
38.5964336327105
30
0
41
1
10
11.8482629583255
20
38.578028176335
30
0
41
1
10
11.5005289804831
20
38.4935751366774
30
0
41
1
10
11.1652705504387
20
38.3946725236202
30
0
41
1
10
10.5875999459265
20
38.1969250689817
30
0
41
1
10
10.3079435270821
20
38.0870837881047
30
0
41
1
10
9.90165447329342
20
37.9059676052274
30
0
41
1
10
9.76842814056981
20
37.8428644174422
30
0
41
1
10
9.57185509555843
20
37.744080036068
30
0
41
1
10
9.50679720570038
20
37.7104203128559
30
0
41
1
10
9.37835931584304
20
37.6420360731437
30
0
41
1
10
9.31493505489011
20
37.6072918684044
30
0
41
1
10
9.001686078291
20
37.4308471022575
30
0
41
1
10
8.76344828742164
20
37.2809936596243
30
0
41
1
10
8.30963504081858
20
36.9645103482153
30
0
41
1
10
8.09406753443052
20
36.7978760141893
30
0
41
1
10
7.78664486798199
20
36.5355105945935
30
0
41
1
10
7.6868294979386
20
36.4459838849724
30
0
41
1
10
7.54099157328152
20
36.3085877719226
30
0
41
1
10
7.49300338429047
20
36.2622457279512
30
0
41
1
10
7.39871073722377
20
36.168933948457
30
0
41
1
10
7.35235508974078
20
36.1219173484746
30
0
41
1
10
7.12441385726514
20
35.8850538034044
30
0
41
1
10
6.95431142198198
20
35.6898731010346
30
0
41
1
10
6.63611579279176
20
35.2885830304332
30
0
41
1
10
6.48802988911693
20
35.0824716093137
30
0
41
1
10
6.21196751048582
20
34.6596037717813
30
0
41
1
10
6.08399561077694
20
34.4428460931387
30
0
41
1
10
5.84665848574907
20
33.9988565429648
30
0
41
1
10
5.73729627096539
20
33.7716238615614
30
0
41
1
10
5.61146291574023
20
33.4810915639198
30
0
41
1
10
5.58682966850488
20
33.4226330338351
30
0
41
1
10
5.53873784212767
20
33.3053249230112
30
0
41
1
10
5.46832869888438
20
33.1287026457599
30
0
41
1
10
5.40297339132361
20
32.9501121322119
30
0
41
1
10
5.27868145349736
20
32.5903347296151
30
0
41
1
10
5.20437002393042
20
32.3470224395354
30
0
41
1
10
5.07137549330965
20
31.8535937630817
30
0
41
1
10
5.01269470093901
20
31.6034770871432
30
0
41
1
10
4.96121570861114
20
31.35
30
0
0
SPLINE
5
17B
100
AcDbEntity
8
1
62
256
6
ByLayer
370
18
48
1
60
0
100
AcDbSpline
70
4
71
3
72
58
73
54
40
0
40
0
40
0
40
0
40
0.0624999999999995
40
0.0624999999999995
40
0.124999999999999
40
0.124999999999999
40
0.187499999999998
40
0.187499999999998
40
0.203124999999998
40
0.203124999999998
40
0.218749999999998
40
0.218749999999998
40
0.249999999999998
40
0.249999999999998
40
0.312499999999998
40
0.312499999999998
40
0.374999999999997
40
0.374999999999997
40
0.406249999999997
40
0.406249999999997
40
0.421874999999997
40
0.421874999999997
40
0.429687499999997
40
0.429687499999997
40
0.437499999999997
40
0.499999999999997
40
0.499999999999997
40
0.562499999999997
40
0.562499999999997
40
0.624999999999998
40
0.624999999999998
40
0.632812499999998
40
0.632812499999998
40
0.640624999999998
40
0.640624999999998
40
0.656249999999998
40
0.687499999999998
40
0.687499999999998
40
0.749999999999998
40
0.749999999999998
40
0.812499999999998
40
0.812499999999998
40
0.843749999999998
40
0.843749999999998
40
0.851562499999999
40
0.851562499999999
40
0.859374999999999
40
0.859374999999999
40
0.874999999999999
40
0.874999999999999
40
0.937499999999999
40
0.937499999999999
40
1
40
1
40
1
40
1
41
1
10
4.94999999999995
20
49.9649955869107
30
0
41
1
10
4.94999999999995
20
49.9648564514862
30
0
41
1
10
4.96639535724596
20
49.9614297711209
30
0
41
1
10
5.03079012918495
20
49.9483282305161
30
0
41
1
10
5.07879290577502
20
49.9386528049884
30
0
41
1
10
5.20617528592702
20
49.913360558211
30
0
41
1
10
5.28555372504358
20
49.8977432003455
30
0
41
1
10
5.40481488311904
20
49.8746982349491
30
0
41
1
10
5.42967135058139
20
49.8699130944682
30
0
41
1
10
5.481413091889
20
49.8599953876833
30
0
41
1
10
5.5083360591466
20
49.8548556940175
30
0
41
1
10
5.59176278263864
20
49.8390028750116
30
0
41
1
10
5.65098412594431
20
49.8278440931124
30
0
41
1
10
5.83923536919086
20
49.7927497543001
30
0
41
1
10
5.97882664441998
20
49.7671969271402
30
0
41
1
10
6.28566007065071
20
49.7125601134017
30
0
41
1
10
6.45290276134621
20
49.6834747686273
30
0
41
1
10
6.72472807627177
20
49.6377773603114
30
0
41
1
10
6.81883642419392
20
49.6222000592038
30
0
41
1
10
6.96533658581002
20
49.5983914265066
30
0
41
1
10
7.01506001162424
20
49.5903814561262
30
0
41
1
10
7.09099523328787
20
49.5782654147636
30
0
41
1
10
7.11652407635161
20
49.574211187792
30
0
41
1
10
7.16789264653998
20
49.5660929330668
30
0
41
1
10
7.4006031914078
20
49.5294925582587
30
0
41
1
10
7.64713918623043
20
49.4923590230609
30
0
41
1
10
8.10670693309034
20
49.4264420405032
30
0
41
1
10
8.34713297584112
20
49.3935310568328
30
0
41
1
10
8.8493493038864
20
49.3287304702773
30
0
41
1
10
9.11113785088072
20
49.2968392696675
30
0
41
1
10
9.41807611856306
20
49.2620739608192
30
0
41
1
10
9.45235340070907
20
49.2582266370262
30
0
41
1
10
9.5212562339723
20
49.2505649163322
30
0
41
1
10
9.55590568536481
20
49.2467479240446
30
0
41
1
10
9.66018379123646
20
49.2353706337422
30
0
41
1
10
9.86996162264388
20
49.2129207084335
30
0
41
1
10
10.0833656513847
20
49.1914366408169
30
0
41
1
10
10.5149408311131
20
49.1498915200009
30
0
41
1
10
10.809002564692
20
49.1240922202927
30
0
41
1
10
11.4097370601155
20
49.076996069962
30
0
41
1
10
11.7164095384446
20
49.0556981620596
30
0
41
1
10
12.186090484687
20
49.027664215513
30
0
41
1
10
12.3442656931892
20
49.0189718879699
30
0
41
1
10
12.5440485131774
20
49.008980071156
30
0
41
1
10
12.5841083314372
20
49.0070253954911
30
0
41
1
10
12.6644358672603
20
49.003204909123
30
0
41
1
10
12.7047159750549
20
49.001338598664
30
0
41
1
10
12.8255808796394
20
48.9958879253751
30
0
41
1
10
12.9062796748493
20
48.9924474346058
30
0
41
1
10
13.3103808608993
20
48.9762212253996
30
0
41
1
10
13.6356006031869
20
48.9663646229261
30
0
41
1
10
14.289891263086
20
48.9531432682525
30
0
41
1
10
14.6189620704916
20
48.9497781813156
30
0
41
1
10
14.9499999999999
20
48.9497781813156
30
0
0
SPLINE
5
17C
100
AcDbEntity
8
SK2
62
256
6
ByLayer
370
18
48
1
60
0
100
AcDbSpline
70
4
71
3
72
27
73
23
40
0
40
0
40
0
40
0
40
0.125
40
0.125
40
0.1875
40
0.1875
40
0.25
40
0.25
40
0.374999999999999
40
0.374999999999999
40
0.499999999999999
40
0.499999999999999
40
0.624999999999999
40
0.624999999999999
40
0.656249999999999
40
0.656249999999999
40
0.687499999999999
40
0.749999999999999
40
0.749999999999999
40
0.874999999999999
40
0.874999999999999
40
1
40
1
40
1
40
1
41
1
10
80
20
-2.30940107675787
30
0
41
1
10
80
20
-2.12177523860746
30
0
41
1
10
80
20
-1.932456052503
30
0
41
1
10
80
20
-1.64527124423705
30
0
41
1
10
80
20
-1.54892775044365
30
0
41
1
10
80
20
-1.35631142039355
30
0
41
1
10
80
20
-1.25990060567781
30
0
41
1
10
80
20
-0.970337663649048
30
0
41
1
10
80
20
-0.77685373822797
30
0
41
1
10
80
20
-0.388904263458187
30
0
41
1
10
80
20
-0.19443800991354
30
0
41
1
10
80
20
0.195524891755383
30
0
41
1
10
80
20
0.391021705722437
30
0
41
1
10
80
20
0.636026528339386
30
0
41
1
10
80
20
0.685093411809248
30
0
41
1
10
80
20
0.783135635727547
30
0
41
1
10
80
20
0.929791333098819
30
0
41
1
10
80
20
1.07526905897808
30
0
41
1
10
80
20
1.36477982804723
30
0
41
1
10
80
20
1.55586200362768
30
0
41
1
10
80
20
1.93485381352494
30
0
41
1
10
80
20
2.12276540930691
30
0
41
1
10
80
20
2.30940107675883
30
0
0
SPLINE
5
17D
100
AcDbEntity
8
SK2
62
256
6
ByLayer
370
18
48
1
60
0
100
AcDbSpline
70
4
71
3
72
27
73
23
40
0
40
0
40
0
40
0
40
0.125
40
0.125
40
0.1875
40
0.1875
40
0.249999999999999
40
0.249999999999999
40
0.374999999999999
40
0.374999999999999
40
0.499999999999999
40
0.499999999999999
40
0.624999999999999
40
0.624999999999999
40
0.656249999999999
40
0.656249999999999
40
0.687499999999999
40
0.749999999999999
40
0.749999999999999
40
0.875
40
0.875
40
1
40
1
40
1
40
1
41
1
10
72
20
-2.3094010767586
30
0
41
1
10
72
20
-2.12177523860785
30
0
41
1
10
72
20
-1.93245605250283
30
0
41
1
10
72
20
-1.64527124423557
30
0
41
1
10
72
20
-1.54892775044223
30
0
41
1
10
72
20
-1.35631142039301
30
0
41
1
10
72
20
-1.25990060567781
30
0
41
1
10
72
20
-0.970337663650952
30
0
41
1
10
72
20
-0.776853738231608
30
0
41
1
10
72
20
-0.388904263466174
30
0
41
1
10
72
20
-0.194438009924198
30
0
41
1
10
72
20
0.195524891738387
30
0
41
1
10
72
20
0.391021705701775
30
0
41
1
10
72
20
0.636026528313522
30
0
41
1
10
72
20
0.685093411780741
30
0
41
1
10
72
20
0.78313563570191
30
0
41
1
10
72
20
0.929791333077219
30
0
41
1
10
72
20
1.07526905895995
30
0
41
1
10
72
20
1.36477982803532
30
0
41
1
10
72
20
1.55586200361901
30
0
41
1
10
72
20
1.93485381352124
30
0
41
1
10
72
20
2.12276540930498
30
0
41
1
10
72
20
2.30940107675809
30
0
0
SPLINE
5
17E
100
AcDbEntity
8
SK2
62
256
6
ByLayer
370
18
48
1
60
0
100
AcDbSpline
70
4
71
3
72
22
73
18
40
0
40
0
40
0
40
0
40
0.249999999999991
40
0.249999999999991
40
0.374999999999986
40
0.374999999999986
40
0.437499999999983
40
0.437499999999983
40
0.468749999999986
40
0.468749999999986
40
0.499999999999988
40
0.499999999999988
40
0.624999999999991
40
0.624999999999991
40
0.749999999999994
40
0.749999999999994
40
1
40
1
40
1
40
1
41
1
10
79.9999999999996
20
2.30940107675883
30
0
41
1
10
79.6730313198006
20
2.49817653228831
30
0
41
1
10
79.3433295762051
20
2.68852992270544
30
0
41
1
10
78.842818330342
20
2.97750022523695
30
0
41
1
10
78.6749852325625
20
3.07439870941889
30
0
41
1
10
78.4215361395206
20
3.22072761151247
30
0
41
1
10
78.3367703632205
20
3.2696671552774
30
0
41
1
10
78.20917839547
20
3.3433324122046
30
0
41
1
10
78.166542459295
20
3.36794828143238
30
0
41
1
10
78.08126339165
20
3.41718417409345
30
0
41
1
10
78.0386892480233
20
3.44176436737686
30
0
41
1
10
77.8261431137992
20
3.56447793518638
30
0
41
1
10
77.6571494010137
20
3.6620465007544
30
0
41
1
10
77.32111099764
20
3.85605836340025
30
0
41
1
10
77.1540646257355
20
3.95250263118649
30
0
41
1
10
76.6555045695627
20
4.24034641382505
30
0
41
1
10
76.326561716812
20
4.43026165840868
30
0
41
1
10
76.0000000000004
20
4.6188021535169
30
0
0
SPLINE
5
17F
100
AcDbEntity
8
SK2
62
256
6
ByLayer
370
18
48
1
60
0
100
AcDbSpline
70
4
71
3
72
22
73
18
40
0
40
0
40
0
40
0
40
0.249999999999993
40
0.249999999999993
40
0.374999999999989
40
0.374999999999989
40
0.437499999999987
40
0.437499999999987
40
0.468749999999986
40
0.468749999999986
40
0.499999999999985
40
0.499999999999985
40
0.624999999999989
40
0.624999999999989
40
0.749999999999992
40
0.749999999999992
40
1
40
1
40
1
40
1
41
1
10
76.0000000000003
20
-4.61880215351704
30
0
41
1
10
75.6730313198012
20
-4.43002669798756
30
0
41
1
10
75.3433295762057
20
-4.23967330757037
30
0
41
1
10
74.8428183303425
20
-3.95070300503883
30
0
41
1
10
74.6749852325629
20
-3.85380452085687
30
0
41
1
10
74.421536139521
20
-3.70747561876328
30
0
41
1
10
74.3367703632209
20
-3.65853607499832
30
0
41
1
10
74.2091783954704
20
-3.58487081807112
30
0
41
1
10
74.1665424592954
20
-3.56025494884335
30
0
41
1
10
74.0812633916504
20
-3.51101905618225
30
0
41
1
10
74.0386892480237
20
-3.48643886289884
30
0
41
1
10
73.8261431137995
20
-3.3637252950893
30
0
41
1
10
73.6571494010141
20
-3.26615672952127
30
0
41
1
10
73.3211109976403
20
-3.07214486687536
30
0
41
1
10
73.1540646257357
20
-2.97570059908912
30
0
41
1
10
72.6555045695628
20
-2.68785681645051
30
0
41
1
10
72.3265617168121
20
-2.49794157186685
30
0
41
1
10
72.0000000000004
20
-2.3094010767586
30
0
0
SPLINE
5
180
100
AcDbEntity
8
SK2
62
256
6
ByLayer
370
18
48
1
60
0
100
AcDbSpline
70
4
71
3
72
22
73
18
40
0
40
0
40
0
40
0
40
0.24999999999999
40
0.24999999999999
40
0.374999999999986
40
0.374999999999986
40
0.437499999999984
40
0.437499999999984
40
0.468749999999986
40
0.468749999999986
40
0.499999999999989
40
0.499999999999989
40
0.624999999999992
40
0.624999999999992
40
0.749999999999995
40
0.749999999999995
40
1
40
1
40
1
40
1
41
1
10
71.9999999999998
20
2.30940107675843
30
0
41
1
10
72.3269686801989
20
2.49817653228797
30
0
41
1
10
72.6566704237945
20
2.68852992270519
30
0
41
1
10
73.1571816696577
20
2.97750022523678
30
0
41
1
10
73.3250147674373
20
3.07439870941877
30
0
41
1
10
73.5784638604792
20
3.22072761151239
30
0
41
1
10
73.6632296367793
20
3.26966715527735
30
0
41
1
10
73.79082160453
20
3.34333241220455
30
0
41
1
10
73.8334575407049
20
3.36794828143235
30
0
41
1
10
73.91873660835
20
3.41718417409345
30
0
41
1
10
73.9613107519767
20
3.44176436737686
30
0
41
1
10
74.1738568862009
20
3.56447793518643
30
0
41
1
10
74.3428505989864
20
3.66204650075446
30
0
41
1
10
74.6788890023602
20
3.85605836340039
30
0
41
1
10
74.8459353742648
20
3.95250263118666
30
0
41
1
10
75.3444954304378
20
4.24034641382531
30
0
41
1
10
75.6734382831886
20
4.43026165840899
30
0
41
1
10
76.0000000000003
20
4.61880215351729
30
0
0
SPLINE
5
181
100
AcDbEntity
8
SK2
62
256
6
ByLayer
370
18
48
1
60
0
100
AcDbSpline
70
4
71
3
72
22
73
18
40
0
40
0
40
0
40
0
40
0.249999999999992
40
0.249999999999992
40
0.374999999999988
40
0.374999999999988
40
0.437499999999986
40
0.437499999999986
40
0.468749999999985
40
0.468749999999985
40
0.499999999999985
40
0.499999999999985
40
0.624999999999988
40
0.624999999999988
40
0.749999999999992
40
0.749999999999992
40
1
40
1
40
1
40
1
41
1
10
76.0000000000004
20
-4.61880215351667
30
0
41
1
10
76.3269686801995
20
-4.43002669798716
30
0
41
1
10
76.656670423795
20
-4.23967330757
30
0
41
1
10
77.1571816696582
20
-3.95070300503843
30
0
41
1
10
77.3250147674378
20
-3.85380452085647
30
0
41
1
10
77.5784638604797
20
-3.70747561876286
30
0
41
1
10
77.6632296367798
20
-3.65853607499793
30
0
41
1
10
77.7908216045303
20
-3.58487081807073
30
0
41
1
10
77.8334575407053
20
-3.56025494884295
30
0
41
1
10
77.9187366083503
20
-3.51101905618185
30
0
41
1
10
77.9613107519771
20
-3.48643886289844
30
0
41
1
10
78.1738568862012
20
-3.3637252950889
30
0
41
1
10
78.3428505989867
20
-3.26615672952087
30
0
41
1
10
78.6788890023604
20
-3.07214486687499
30
0
41
1
10
78.845935374265
20
-2.97570059908873
30
0
41
1
10
79.3444954304378
20
-2.68785681645014
30
0
41
1
10
79.6734382831886
20
-2.49794157186648
30
0
41
1
10
80.0000000000003
20
-2.30940107675821
30
0
0
SPLINE
5
182
100
AcDbEntity
8
SK1
62
256
6
ByLayer
370
18
48
1
60
0
100
AcDbSpline
70
4
71
3
72
8
73
4
40
0
40
0
40
0
40
0
40
1
40
1
40
1
40
1
41
1
10
-48.25
20
32.2214193285101
30
0
41
1
10
-48.1701861715093
20
32.2200218734064
30
0
41
1
10
-48.0872675817396
20
32.2186394191731
30
0
41
1
10
-48.0000748840349
20
32.218019138109
30
0
0
SPLINE
5
183
100
AcDbEntity
8
SK1
62
256
6
ByLayer
370
18
48
1
60
0
100
AcDbSpline
70
4
71
3
72
24
73
20
40
0
40
0
40
0
40
0
40
0.25
40
0.25
40
0.375
40
0.375
40
0.5
40
0.5
40
0.625000000000001
40
0.625000000000001
40
0.750000000000001
40
0.750000000000001
40
0.875000000000001
40
0.875000000000001
40
0.90625
40
0.90625
40
0.937499999999999
40
0.937499999999999
40
1
40
1
40
1
40
1
41
1
10
-48.25
20
32.2214193285101
30
0
41
1
10
-48.3271925996521
20
32.1386292161066
30
0
41
1
10
-48.4027254536899
20
32.050930952745
30
0
41
1
10
-48.5122537211954
20
31.9125478699341
30
0
41
1
10
-48.5481267099528
20
31.865283010005
30
0
41
1
10
-48.6182019131828
20
31.768643632154
30
0
41
1
10
-48.6524094876907
20
31.7192660384394
30
0
41
1
10
-48.7185088967078
20
31.6186886425618
30
0
41
1
10
-48.7504117861866
20
31.5674825904549
30
0
41
1
10
-48.8107721610409
20
31.4637940025208
30
0
41
1
10
-48.8392511338386
20
31.411299830844
30
0
41
1
10
-48.8906794646078
20
31.3060996950025
30
0
41
1
10
-48.9136552967582
20
31.2533820293383
30
0
41
1
10
-48.936535416281
20
31.1885883728348
30
0
41
1
10
-48.940814242955
20
31.1756874081561
30
0
41
1
10
-48.948696824415
20
31.1500417843307
30
0
41
1
10
-48.9523016290037
20
31.1372862940232
30
0
41
1
10
-48.9618992672905
20
31.0996474846813
30
0
41
1
10
-48.9667024842
20
31.0752951187509
30
0
41
1
10
-48.9697166806892
20
31.051839579978
30
0
0
SPLINE
5
184
100
AcDbEntity
8
SK1
62
256
6
ByLayer
370
18
48
1
60
0
100
AcDbSpline
70
4
71
3
72
70
73
66
40
0
40
0
40
0
40
0
40
0.124999999999972
40
0.124999999999972
40
0.187499999999958
40
0.187499999999958
40
0.249999999999944
40
0.249999999999944
40
0.312499999999931
40
0.312499999999931
40
0.343749999999922
40
0.343749999999922
40
0.374999999999914
40
0.374999999999914
40
0.406249999999905
40
0.406249999999905
40
0.421874999999901
40
0.421874999999901
40
0.437499999999897
40
0.437499999999897
40
0.453124999999893
40
0.453124999999893
40
0.468749999999889
40
0.468749999999889
40
0.484374999999885
40
0.484374999999885
40
0.492187499999883
40
0.492187499999883
40
0.496093749999883
40
0.496093749999883
40
0.499999999999883
40
0.499999999999883
40
0.507812499999888
40
0.507812499999888
40
0.511718749999891
40
0.511718749999891
40
0.515624999999893
40
0.515624999999893
40
0.523437499999897
40
0.523437499999897
40
0.531249999999901
40
0.531249999999901
40
0.539062499999905
40
0.539062499999905
40
0.54687499999991
40
0.54687499999991
40
0.562499999999912
40
0.562499999999912
40
0.578124999999915
40
0.578124999999915
40
0.593749999999918
40
0.593749999999918
40
0.624999999999924
40
0.624999999999924
40
0.656249999999931
40
0.656249999999931
40
0.687499999999937
40
0.687499999999937
40
0.74999999999995
40
0.74999999999995
40
0.812499999999963
40
0.812499999999963
40
0.874999999999975
40
0.874999999999975
40
1
40
1
40
1
40
1
41
1
10
-48.9697166806892
20
31.0518395799779
30
0
41
1
10
-48.9785930171012
20
30.9827666931837
30
0
41
1
10
-48.9898013946799
20
30.9116838812296
30
0
41
1
10
-49.010970746391
20
30.801728881565
30
0
41
1
10
-49.0187600784454
20
30.76450750334
30
0
41
1
10
-49.0360979042102
20
30.6886972475775
30
0
41
1
10
-49.0456412109662
20
30.6501124021635
30
0
41
1
10
-49.0669842456738
20
30.5711886630805
30
0
41
1
10
-49.0787823554537
20
30.5308288316398
30
0
41
1
10
-49.0987807186822
20
30.468755773989
30
0
41
1
10
-49.1058367731061
20
30.4477965169348
30
0
41
1
10
-49.120940239487
20
30.4051960411473
30
0
41
1
10
-49.1289839414118
20
30.3835573745707
30
0
41
1
10
-49.1464161598916
20
30.3393549341652
30
0
41
1
10
-49.1557915613357
20
30.3168123044037
30
0
41
1
10
-49.1712542660582
20
30.2822073879468
30
0
41
1
10
-49.1766471023967
20
30.2705321424927
30
0
41
1
10
-49.1880532434731
20
30.246816879459
30
0
41
1
10
-49.1940597200795
20
30.2347910097152
30
0
41
1
10
-49.206802147264
20
30.210463075518
30
0
41
1
10
-49.2135433509849
20
30.1981428720512
30
0
41
1
10
-49.2281075980202
20
30.173045634851
30
0
41
1
10
-49.2359160105215
20
30.1602747792963
30
0
41
1
10
-49.2533322974318
20
30.1339732063109
30
0
41
1
10
-49.262708398457
20
30.1207741623827
30
0
41
1
10
-49.2784969686656
20
30.1009697522192
30
0
41
1
10
-49.2840339729321
20
30.0944024637513
30
0
41
1
10
-49.2925946962344
20
30.0849475215286
30
0
41
1
10
-49.2955014637151
20
30.0818488030469
30
0
41
1
10
-49.3014361731391
20
30.0757719388758
30
0
41
1
10
-49.3044657180066
20
30.0727949345412
30
0
41
1
10
-49.3134687885811
20
30.0643340487117
30
0
41
1
10
-49.3194469454136
20
30.0592250680205
30
0
41
1
10
-49.3283778259734
20
30.0523705687563
30
0
41
1
10
-49.3313357680737
20
30.0502326266784
30
0
41
1
10
-49.337073906878
20
30.0463292146682
30
0
41
1
10
-49.3398758296209
20
30.0445467352402
30
0
41
1
10
-49.3481015269572
20
30.0396531211837
30
0
41
1
10
-49.3533520880974
20
30.0369994700209
30
0
41
1
10
-49.3631210109243
20
30.0327937630131
30
0
41
1
10
-49.3676993612993
20
30.0312048005844
30
0
41
1
10
-49.3764011833092
20
30.0287905140654
30
0
41
1
10
-49.3805378391983
20
30.027967429531
30
0
41
1
10
-49.3883082638221
20
30.0269340203178
30
0
41
1
10
-49.3919628304064
20
30.0267166683029
30
0
41
1
10
-49.4024036858999
20
30.0267432061596
30
0
41
1
10
-49.4086755467698
20
30.0276547666116
30
0
41
1
10
-49.420330380932
20
30.0306315650748
30
0
41
1
10
-49.4257129893117
20
30.0327093730988
30
0
41
1
10
-49.4358013464841
20
30.0376918006764
30
0
41
1
10
-49.4404740786221
20
30.040580940088
30
0
41
1
10
-49.4536778614137
20
30.0501208287682
30
0
41
1
10
-49.4614087761094
20
30.0576287530105
30
0
41
1
10
-49.4755392658972
20
30.0740708478453
30
0
41
1
10
-49.4819254036185
20
30.083019413714
30
0
41
1
10
-49.4937409641775
20
30.1019414613385
30
0
41
1
10
-49.4991661019387
20
30.1119195336397
30
0
41
1
10
-49.5143429423717
20
30.1430306369774
30
0
41
1
10
-49.5230220224296
20
30.1653523999026
30
0
41
1
10
-49.5384223292372
20
30.2118316987656
30
0
41
1
10
-49.5451375152842
20
30.2360129904058
30
0
41
1
10
-49.5571465436213
20
30.285734397677
30
0
41
1
10
-49.5624346294612
20
30.3112800165527
30
0
41
1
10
-49.5766234575257
20
30.3895186065591
30
0
41
1
10
-49.5838746389943
20
30.4437885802401
30
0
41
1
10
-49.5895655549791
20
30.4995501889749
30
0
0
SPLINE
5
185
100
AcDbEntity
8
SK1
62
256
6
ByLayer
370
18
48
1
60
0
100
AcDbSpline
70
4
71
3
72
34
73
30
40
0
40
0
40
0
40
0
40
0.03125
40
0.03125
40
0.0625
40
0.0625
40
0.125000000000001
40
0.125000000000001
40
0.187500000000001
40
0.187500000000001
40
0.250000000000002
40
0.250000000000002
40
0.312500000000002
40
0.312500000000002
40
0.343750000000002
40
0.343750000000002
40
0.375000000000002
40
0.375000000000002
40
0.500000000000002
40
0.500000000000002
40
0.625000000000002
40
0.625000000000002
40
0.750000000000001
40
0.750000000000001
40
0.875000000000001
40
0.875000000000001
40
0.937500000000001
40
0.937500000000001
40
1
40
1
40
1
40
1
41
1
10
-49.5895655549782
20
30.4995501889756
30
0
41
1
10
-49.5906351317007
20
30.510030280207
30
0
41
1
10
-49.5921127560824
20
30.5199078429214
30
0
41
1
10
-49.5958301896483
20
30.5385033474052
30
0
41
1
10
-49.5980733242939
20
30.5472325987984
30
0
41
1
10
-49.6058113909971
20
30.5717014639753
30
0
41
1
10
-49.6122375394779
20
30.5855321487869
30
0
41
1
10
-49.6267759139587
20
30.609288989262
30
0
41
1
10
-49.634886687367
20
30.619215523265
30
0
41
1
10
-49.65210942919
20
30.6359601335406
30
0
41
1
10
-49.6612223440854
20
30.642776372556
30
0
41
1
10
-49.6799383635281
20
30.653855855274
30
0
41
1
10
-49.689542877774
20
30.6581170912418
30
0
41
1
10
-49.7040333535638
20
30.6628783121557
30
0
41
1
10
-49.7088808008064
20
30.6641925247824
30
0
41
1
10
-49.7185317603699
20
30.6663048905636
30
0
41
1
10
-49.7233395104552
20
30.6671046788121
30
0
41
1
10
-49.747211496648
20
30.6699145816138
30
0
41
1
10
-49.7657469243847
20
30.6684012656593
30
0
41
1
10
-49.8002576291982
20
30.659373379087
30
0
41
1
10
-49.8162471080165
20
30.6518383513143
30
0
41
1
10
-49.8447041144178
20
30.6315404010519
30
0
41
1
10
-49.8571777745759
20
30.6187686284921
30
0
41
1
10
-49.8777805829283
20
30.5885037368819
30
0
41
1
10
-49.8859126594732
20
30.57100594764
30
0
41
1
10
-49.8942491836921
20
30.5415330190178
30
0
41
1
10
-49.8963843388714
20
30.5311706963509
30
0
41
1
10
-49.8992629101628
20
30.5094241876666
30
0
41
1
10
-49.9000000000001
20
30.4980716034621
30
0
41
1
10
-49.9000000000001
20
30.486325550098
30
0
0
SPLINE
5
186
100
AcDbEntity
8
SK1
62
256
6
ByLayer
370
18
48
1
60
0
100
AcDbSpline
70
4
71
3
72
34
73
30
40
0
40
0
40
0
40
0
40
0.0312500000000007
40
0.0312500000000007
40
0.0625000000000014
40
0.0625000000000014
40
0.125000000000003
40
0.125000000000003
40
0.187500000000005
40
0.187500000000005
40
0.250000000000007
40
0.250000000000007
40
0.312500000000009
40
0.312500000000009
40
0.343750000000007
40
0.343750000000007
40
0.375000000000005
40
0.375000000000005
40
0.500000000000004
40
0.500000000000004
40
0.625000000000003
40
0.625000000000003
40
0.750000000000001
40
0.750000000000001
40
0.875
40
0.875
40
0.9375
40
0.9375
40
1
40
1
40
1
40
1
41
1
10
-49.5895655549782
20
-30.4995501889757
30
0
41
1
10
-49.590635128866
20
-30.5100302524322
30
0
41
1
10
-49.5921127463331
20
-30.5199077725872
30
0
41
1
10
-49.5958301509183
20
-30.5385031752347
30
0
41
1
10
-49.5980732281669
20
-30.5472322605517
30
0
41
1
10
-49.6058113389978
20
-30.5717013681046
30
0
41
1
10
-49.6122375259955
20
-30.5855321316441
30
0
41
1
10
-49.6267759592584
20
-30.6092890583971
30
0
41
1
10
-49.6348867534571
20
-30.6192155991345
30
0
41
1
10
-49.6521095088273
20
-30.635960199353
30
0
41
1
10
-49.6612224168293
20
-30.6427764210179
30
0
41
1
10
-49.6799383965105
20
-30.6538558694
30
0
41
1
10
-49.6895428780525
20
-30.6581170880887
30
0
41
1
10
-49.7040332900463
20
-30.662878292908
30
0
41
1
10
-49.7088807488955
20
-30.6641925125833
30
0
41
1
10
-49.7185317643562
20
-30.6663048922734
30
0
41
1
10
-49.7233395403919
20
-30.6671046840937
30
0
41
1
10
-49.7472116456447
20
-30.6699145921211
30
0
41
1
10
-49.7657471332943
20
-30.66840124174
30
0
41
1
10
-49.8002578924657
20
-30.6593732794862
30
0
41
1
10
-49.8162473661745
20
-30.6518382094738
30
0
41
1
10
-49.8447043216352
20
-30.6315402109467
30
0
41
1
10
-49.8571779360089
20
-30.6187684321095
30
0
41
1
10
-49.877780648273
20
-30.5885036001347
30
0
41
1
10
-49.8859126744471
20
-30.5710058767978
30
0
41
1
10
-49.8942491563155
20
-30.5415331247567
30
0
41
1
10
-49.8963843030189
20
-30.5311708738666
30
0
41
1
10
-49.8992628761555
20
-30.5094245379123
30
0
41
1
10
-49.9
20
-30.4980717145813
30
0
41
1
10
-49.9
20
-30.4863255500981
30
0
0
SPLINE
5
187
100
AcDbEntity
8
SK1
62
256
6
ByLayer
370
18
48
1
60
0
100
AcDbSpline
70
4
71
3
72
70
73
66
40
0
40
0
40
0
40
0
40
0.124999999999989
40
0.124999999999989
40
0.187499999999985
40
0.187499999999985
40
0.24999999999998
40
0.24999999999998
40
0.312499999999976
40
0.312499999999976
40
0.343749999999974
40
0.343749999999974
40
0.374999999999972
40
0.374999999999972
40
0.40624999999997
40
0.40624999999997
40
0.421874999999969
40
0.421874999999969
40
0.437499999999968
40
0.437499999999968
40
0.453124999999967
40
0.453124999999967
40
0.468749999999966
40
0.468749999999966
40
0.484374999999965
40
0.484374999999965
40
0.492187499999961
40
0.492187499999961
40
0.49609374999996
40
0.49609374999996
40
0.499999999999958
40
0.499999999999958
40
0.507812499999952
40
0.507812499999952
40
0.511718749999952
40
0.511718749999952
40
0.515624999999952
40
0.515624999999952
40
0.523437499999952
40
0.523437499999952
40
0.531249999999953
40
0.531249999999953
40
0.539062499999953
40
0.539062499999953
40
0.546874999999953
40
0.546874999999953
40
0.562499999999954
40
0.562499999999954
40
0.578124999999955
40
0.578124999999955
40
0.593749999999956
40
0.593749999999956
40
0.624999999999958
40
0.624999999999958
40
0.656249999999961
40
0.656249999999961
40
0.687499999999963
40
0.687499999999963
40
0.749999999999971
40
0.749999999999971
40
0.812499999999978
40
0.812499999999978
40
0.874999999999986
40
0.874999999999986
40
1
40
1
40
1
40
1
41
1
10
-48.9697166806892
20
-31.051839579978
30
0
41
1
10
-48.9785920072054
20
-30.9827745518778
30
0
41
1
10
-48.9897988429114
20
-30.9117001184866
30
0
41
1
10
-49.0109647633667
20
-30.8017584669498
30
0
41
1
10
-49.018752765391
20
-30.7645416601613
30
0
41
1
10
-49.0360874261683
20
-30.6887408851895
30
0
41
1
10
-49.0456289023846
20
-30.6501609458562
30
0
41
1
10
-49.0669675034832
20
-30.5712475494472
30
0
41
1
10
-49.0787629361652
20
-30.5308934418214
30
0
41
1
10
-49.0987562930165
20
-30.4688294272677
30
0
41
1
10
-49.1058105146937
20
-30.4478732539891
30
0
41
1
10
-49.1209098209547
20
-30.4052791757413
30
0
41
1
10
-49.1289512012184
20
-30.3836438194118
30
0
41
1
10
-49.1463779452356
20
-30.3394484216825
30
0
41
1
10
-49.1557499117386
20
-30.3169102508101
30
0
41
1
10
-49.1712062282391
20
-30.2823125423261
30
0
41
1
10
-49.1765967098923
20
-30.270639828982
30
0
41
1
10
-49.187997429399
20
-30.2469300411002
30
0
41
1
10
-49.1940016588574
20
-30.2349054963983
30
0
41
1
10
-49.2067373070768
20
-30.2105832680141
30
0
41
1
10
-49.2134742645568
20
-30.1982668746687
30
0
41
1
10
-49.2280264993186
20
-30.1731804834021
30
0
41
1
10
-49.2358273164295
20
-30.1604165682773
30
0
41
1
10
-49.2532197444649
20
-30.1341354250804
30
0
41
1
10
-49.2626054593647
20
-30.1209142770372
30
0
41
1
10
-49.2783752527349
20
-30.1011170203335
30
0
41
1
10
-49.2839152326934
20
-30.0945400212559
30
0
41
1
10
-49.2924720071774
20
-30.0850799204047
30
0
41
1
10
-49.295376635661
20
-30.0819802199017
30
0
41
1
10
-49.3013049674433
20
-30.07590284072
30
0
41
1
10
-49.3043370960416
20
-30.0729194623555
30
0
41
1
10
-49.3133471331075
20
-30.0644412999453
30
0
41
1
10
-49.319326158545
20
-30.0593250574942
30
0
41
1
10
-49.3282527570283
20
-30.0524630297553
30
0
41
1
10
-49.3312153507712
20
-30.0503179942726
30
0
41
1
10
-49.3369592386173
20
-30.0464039042838
30
0
41
1
10
-49.3397632724002
20
-30.0446168883957
30
0
41
1
10
-49.3479935042783
20
-30.0397111939901
30
0
41
1
10
-49.353250201828
20
-30.0370484824603
30
0
41
1
10
-49.363029831547
20
-30.0328279696566
30
0
41
1
10
-49.367611612662
20
-30.0312334148453
30
0
41
1
10
-49.3763182059843
20
-30.0288093499522
30
0
41
1
10
-49.3804580471837
20
-30.0279815778646
30
0
41
1
10
-49.3882378147308
20
-30.0269399205925
30
0
41
1
10
-49.3918959362056
20
-30.0267193374018
30
0
41
1
10
-49.4023455028561
20
-30.0267374574299
30
0
41
1
10
-49.4086206278607
20
-30.0276450476097
30
0
41
1
10
-49.4202799499304
20
-30.0306144150719
30
0
41
1
10
-49.4256604855126
20
-30.0326871954358
30
0
41
1
10
-49.4357579429469
20
-30.0376666472005
30
0
41
1
10
-49.4404341462281
20
-30.0405548764118
30
0
41
1
10
-49.4536465627312
20
-30.0500926742598
30
0
41
1
10
-49.4613809145856
20
-30.0576000217039
30
0
41
1
10
-49.4755165521724
20
-30.0740407434774
30
0
41
1
10
-49.4819043194363
20
-30.0829885789797
30
0
41
1
10
-49.4937222729306
20
-30.1019086074983
30
0
41
1
10
-49.4991481547125
20
-30.1118854051319
30
0
41
1
10
-49.514326543323
20
-30.1429917109392
30
0
41
1
10
-49.5230060395861
20
-30.1653087850472
30
0
41
1
10
-49.5384114740619
20
-30.2117943224838
30
0
41
1
10
-49.5451285655854
20
-30.2359789659316
30
0
41
1
10
-49.5571407002954
20
-30.2857071777953
30
0
41
1
10
-49.5624299764209
20
-30.3112562572779
30
0
41
1
10
-49.5766217121049
20
-30.3895051882631
30
0
41
1
10
-49.5838739667783
20
-30.4437819936305
30
0
41
1
10
-49.589565554979
20
-30.499550188975
30
0
0
SPLINE
5
188
100
AcDbEntity
8
SK1
62
256
6
ByLayer
370
18
48
1
60
0
100
AcDbSpline
70
4
71
3
72
24
73
20
40
0
40
0
40
0
40
0
40
0.250000000000001
40
0.250000000000001
40
0.375000000000002
40
0.375000000000002
40
0.500000000000003
40
0.500000000000003
40
0.625000000000003
40
0.625000000000003
40
0.750000000000004
40
0.750000000000004
40
0.875000000000005
40
0.875000000000005
40
0.906250000000003
40
0.906250000000003
40
0.937500000000001
40
0.937500000000001
40
1
40
1
40
1
40
1
41
1
10
-48.25
20
-32.2214193285102
30
0
41
1
10
-48.3271926111222
20
-32.1386292038047
30
0
41
1
10
-48.4027254550249
20
-32.0509309488243
30
0
41
1
10
-48.5122536734003
20
-31.9125479314377
30
0
41
1
10
-48.5481266401182
20
-31.8652831022076
30
0
41
1
10
-48.618201788153
20
-31.7686438086852
30
0
41
1
10
-48.6524093294458
20
-31.7192662685852
30
0
41
1
10
-48.7185086625097
20
-31.6186890095605
30
0
41
1
10
-48.7504115090574
20
-31.5674830406985
30
0
41
1
10
-48.8107717948452
20
-31.4637946573968
30
0
41
1
10
-48.8392507208948
20
-31.4113006072307
30
0
41
1
10
-48.8906789766632
20
-31.3061007614429
30
0
41
1
10
-48.9136547790546
20
-31.2533832647303
30
0
41
1
10
-48.9365349150508
20
-31.1885898499224
30
0
41
1
10
-48.9408137478882
20
-31.1756889350705
30
0
41
1
10
-48.9486963493385
20
-31.150043413723
30
0
41
1
10
-48.9523012357624
20
-31.1372877467467
30
0
41
1
10
-48.961899115855
20
-31.0996482574302
30
0
41
1
10
-48.9667024377093
20
-31.0752954805269
30
0
41
1
10
-48.9697166806892
20
-31.051839579978
30
0
0
SPLINE
5
189
100
AcDbEntity
8
SK1
62
256
6
ByLayer
370
18
48
1
60
0
100
AcDbSpline
70
4
71
3
72
8
73
4
40
0
40
0
40
0
40
0
40
1
40
1
40
1
40
1
41
1
10
-48.2500000000025
20
-32.2214193285102
30
0
41
1
10
-48.1701858378083
20
-32.2200218675636
30
0
41
1
10
-48.0872671766727
20
-32.2186394162916
30
0
41
1
10
-48.0000748840349
20
-32.2180191381092
30
0
0
SPLINE
5
18A
100
AcDbEntity
8
SK1
62
256
6
ByLayer
370
18
48
1
60
0
100
AcDbSpline
70
4
71
3
72
100
73
96
40
0
40
0
40
0
40
0
40
0.0239025697421102
40
0.0239025697421102
40
0.0551474931193091
40
0.0551474931193091
40
0.0707699548079085
40
0.0707699548079085
40
0.0785811856522083
40
0.0785811856522083
40
0.086392416496508
40
0.086392416496508
40
0.117637339873707
40
0.117637339873707
40
0.148882263250906
40
0.148882263250906
40
0.164504724939506
40
0.164504724939506
40
0.172315955783805
40
0.172315955783805
40
0.180127186628105
40
0.180127186628105
40
0.211372110005304
40
0.211372110005304
40
0.242617033382503
40
0.242617033382503
40
0.258239495071103
40
0.258239495071103
40
0.266050725915402
40
0.266050725915402
40
0.273861956759702
40
0.273861956759702
40
0.305106880136901
40
0.305106880136901
40
0.336351803514099
40
0.367596726891298
40
0.367596726891298
40
0.375407957735598
40
0.375407957735598
40
0.383219188579897
40
0.398841650268497
40
0.398841650268497
40
0.430086573645696
40
0.461331497022895
40
0.461331497022895
40
0.476953958711494
40
0.476953958711494
40
0.484765189555794
40
0.484765189555794
40
0.492576420400093
40
0.492576420400093
40
0.523821343777292
40
0.523821343777292
40
0.555066267154491
40
0.555066267154491
40
0.58631119053169
40
0.58631119053169
40
0.601933652220289
40
0.601933652220289
40
0.609744883064589
40
0.609744883064589
40
0.617556113908888
40
0.617556113908888
40
0.648801037286087
40
0.680045960663285
40
0.680045960663285
40
0.711290884040483
40
0.711290884040483
40
0.719102114884782
40
0.719102114884782
40
0.726913345729082
40
0.726913345729082
40
0.742535807417681
40
0.742535807417681
40
0.773780730794879
40
0.773780730794879
40
0.805025654172076
40
0.805025654172076
40
0.836270577549274
40
0.836270577549274
40
0.844081808393573
40
0.844081808393573
40
0.851893039237873
40
0.867515500926471
40
0.867515500926471
40
0.89876042430367
40
0.89876042430367
40
0.930005347680867
40
0.930005347680867
40
0.945627809369466
40
0.945627809369466
40
0.961250271058065
40
0.961250271058065
40
0.992495194435263
40
1
40
1
40
1
40
1
41
1
10
-7.81434282800267
20
37.6160019080179
30
0
41
1
10
-7.81432076462843
20
37.6160057209501
30
0
41
1
10
-7.82144181681666
20
37.6145636059802
30
0
41
1
10
-7.85398639016557
20
37.6079890454921
30
0
41
1
10
-7.88436169025053
20
37.6018587592899
30
0
41
1
10
-7.9478626297211
20
37.5891496233603
30
0
41
1
10
-7.97202496076235
20
37.584327300096
30
0
41
1
10
-8.01281842288567
20
37.5762238920478
30
0
41
1
10
-8.02719804135737
20
37.5733731876624
30
0
41
1
10
-8.05736797740434
20
37.5674069302577
30
0
41
1
10
-8.07314358608417
20
37.5642942690055
30
0
41
1
10
-8.15541671604804
20
37.5481048669995
30
0
41
1
10
-8.23207017172504
20
37.5331528904395
30
0
41
1
10
-8.40605338627101
20
37.4997459648323
30
0
41
1
10
-8.50338630322294
20
37.4812899916831
30
0
41
1
10
-8.66466593997006
20
37.4513060997541
30
0
41
1
10
-8.72097755367533
20
37.4409277790794
30
0
41
1
10
-8.80928859004133
20
37.424823312953
30
0
41
1
10
-8.83940017626216
20
37.4193596305242
30
0
41
1
10
-8.90059668695476
20
37.4083161368078
30
0
41
1
10
-8.93170940381957
20
37.4027311980643
30
0
41
1
10
-9.08980160651234
20
37.3745138275953
30
0
41
1
10
-9.22434516049199
20
37.3510060707369
30
0
41
1
10
-9.50882133136049
20
37.3026700550151
30
0
41
1
10
-9.65875653237987
20
37.2778407127451
30
0
41
1
10
-9.89502074972738
20
37.2399778514852
30
0
41
1
10
-9.97567274087328
20
37.2272534703191
30
0
41
1
10
-10.0995062223642
20
37.2080566596274
30
0
41
1
10
-10.141267832343
20
37.2016381782455
30
0
41
1
10
-10.2257164832329
20
37.1887766252454
30
0
41
1
10
-10.2682633801021
20
37.1823548873661
30
0
41
1
10
-10.4825863455032
20
37.1503091954741
30
0
41
1
10
-10.6591151028225
20
37.1248758638604
30
0
41
1
10
-11.0219044291422
20
37.0748411046524
30
0
41
1
10
-11.3944280795168
20
37.0256391598448
30
0
41
1
10
-11.7861963197059
20
36.9788917937937
30
0
41
1
10
-12.0371658958116
20
36.9506844708766
30
0
41
1
10
-12.0877271193422
20
36.9450869320612
30
0
41
1
10
-12.1890952403971
20
36.9340392369721
30
0
41
1
10
-12.3415246943459
20
36.9176869799981
30
0
41
1
10
-12.495072902259
20
36.9020073941175
30
0
41
1
10
-12.8036375704129
20
36.8715827717145
30
0
41
1
10
-13.2189658117113
20
36.833510598003
30
0
41
1
10
-13.642018801178
20
36.8008098290912
30
0
41
1
10
-13.9622438041629
20
36.7784385960326
30
0
41
1
10
-14.0694754356938
20
36.7713405480661
30
0
41
1
10
-14.2310696927793
20
36.761249480338
30
0
41
1
10
-14.2850589639675
20
36.7579784591991
30
0
41
1
10
-14.3932891502435
20
36.7516246805944
30
0
41
1
10
-14.4475729623615
20
36.7485397853308
30
0
41
1
10
-14.7183259174543
20
36.7336627263858
30
0
41
1
10
-14.9337134652921
20
36.7234563940047
30
0
41
1
10
-15.3621199571432
20
36.7063373984835
30
0
41
1
10
-15.5751387632466
20
36.6994248914492
30
0
41
1
10
-15.9988028791435
20
36.6887973896278
30
0
41
1
10
-16.209448343188
20
36.6850825376171
30
0
41
1
10
-16.523583770087
20
36.6818333037753
30
0
41
1
10
-16.6279895922839
20
36.6811373560974
30
0
41
1
10
-16.7841276018174
20
36.6806641778682
30
0
41
1
10
-16.8361578298839
20
36.6806016501545
30
0
41
1
10
-16.939740627904
20
36.6806647564302
30
0
41
1
10
-16.9912457215227
20
36.6807900862659
30
0
41
1
10
-17.2473507859701
20
36.6818707085173
30
0
41
1
10
-17.6480469082921
20
36.6864983624037
30
0
41
1
10
-18.0308478261489
20
36.6961681828052
30
0
41
1
10
-18.4045781572909
20
36.7079892290944
30
0
41
1
10
-18.586909326751
20
36.7149758964625
30
0
41
1
10
-18.808911931243
20
36.7248201453047
30
0
41
1
10
-18.8530161673033
20
36.7268445060812
30
0
41
1
10
-18.9406229554333
20
36.7309982170252
30
0
41
1
10
-18.9841526281097
20
36.7331289394499
30
0
41
1
10
-19.1136492728623
20
36.7396605784225
30
0
41
1
10
-19.1980051024613
20
36.7441742643364
30
0
41
1
10
-19.4452185588362
20
36.7580919956344
30
0
41
1
10
-19.6022364149496
20
36.7678719858305
30
0
41
1
10
-19.9007220590616
20
36.7879222101687
30
0
41
1
10
-20.0421909145451
20
36.7981932526885
30
0
41
1
10
-20.309140922944
20
36.8187283621882
30
0
41
1
10
-20.4346258242081
20
36.8289932916957
30
0
41
1
10
-20.5808803797061
20
36.8415026446233
30
0
41
1
10
-20.609629024321
20
36.8439909982552
30
0
41
1
10
-20.6657008478369
20
36.8488969874556
30
0
41
1
10
-20.747787777285
20
36.8561600354919
30
0
41
1
10
-20.8238605098264
20
36.8631042785771
30
0
41
1
10
-20.9680482129712
20
36.8764897079226
30
0
41
1
10
-21.0535834604935
20
36.8847417938078
30
0
41
1
10
-21.2033054236258
20
36.8995133540456
30
0
41
1
10
-21.2674946623102
20
36.9060334534641
30
0
41
1
10
-21.3471276490649
20
36.9142365164306
30
0
41
1
10
-21.3708912689804
20
36.9167081068455
30
0
41
1
10
-21.4126754407559
20
36.9210795741509
30
0
41
1
10
-21.4304990313832
20
36.9229587401183
30
0
41
1
10
-21.4748672652174
20
36.927654231585
30
0
41
1
10
-21.4965747181507
20
36.9299819884735
30
0
41
1
10
-21.5000222300439
20
36.9303498121007
30
0
41
1
10
-21.5000026467513
20
36.9303474941286
30
0
0
SPLINE
5
18B
100
AcDbEntity
8
SK1
62
256
6
ByLayer
370
18
48
1
60
0
100
AcDbSpline
70
4
71
3
72
104
73
100
40
0
40
0
40
0
40
0
40
0.0214338158559315
40
0.0214338158559315
40
0.0292415656190775
40
0.0292415656190775
40
0.0370493153822233
40
0.0370493153822233
40
0.0526648149085151
40
0.0526648149085151
40
0.0838958139610985
40
0.0838958139610985
40
0.115126813013682
40
0.115126813013682
40
0.122934562776828
40
0.122934562776828
40
0.130742312539974
40
0.130742312539974
40
0.146357812066265
40
0.146357812066265
40
0.177588811118848
40
0.177588811118848
40
0.208819810171432
40
0.208819810171432
40
0.224435309697723
40
0.224435309697723
40
0.232243059460869
40
0.232243059460869
40
0.240050809224015
40
0.240050809224015
40
0.271281808276598
40
0.271281808276598
40
0.302512807329182
40
0.302512807329182
40
0.318128306855474
40
0.318128306855474
40
0.325936056618619
40
0.325936056618619
40
0.333743806381765
40
0.333743806381765
40
0.364974805434348
40
0.364974805434348
40
0.39620580448693
40
0.427436803539514
40
0.427436803539514
40
0.435244553302659
40
0.435244553302659
40
0.443052303065805
40
0.443052303065805
40
0.458667802592096
40
0.458667802592096
40
0.489898801644679
40
0.521129800697262
40
0.521129800697262
40
0.552360799749844
40
0.552360799749844
40
0.567976299276136
40
0.567976299276136
40
0.583591798802427
40
0.583591798802427
40
0.61482279785501
40
0.61482279785501
40
0.646053796907593
40
0.646053796907593
40
0.661669296433884
40
0.661669296433884
40
0.669477046197029
40
0.669477046197029
40
0.677284795960175
40
0.677284795960175
40
0.708515795012756
40
0.739746794065338
40
0.739746794065338
40
0.770977793117919
40
0.770977793117919
40
0.786593292644209
40
0.786593292644209
40
0.794401042407355
40
0.794401042407355
40
0.8022087921705
40
0.8022087921705
40
0.833439791223082
40
0.833439791223082
40
0.864670790275664
40
0.864670790275664
40
0.895901789328245
40
0.895901789328245
40
0.903709539091391
40
0.903709539091391
40
0.911517288854537
40
0.927132788380827
40
0.927132788380827
40
0.95836378743341
40
0.95836378743341
40
0.989594786485992
40
0.989594786485992
40
0.997402536249138
40
0.997402536249138
40
1
40
1
40
1
40
1
41
1
10
-21.5000041355009
20
-36.9303474625415
30
0
41
1
10
-21.4999608899426
20
-36.9303422952117
30
0
41
1
10
-21.4943058623353
20
-36.9297369753926
30
0
41
1
10
-21.4788146901815
20
-36.9280844022563
30
0
41
1
10
-21.4739201863398
20
-36.9275628229828
30
0
41
1
10
-21.4625984188041
20
-36.9263587882752
30
0
41
1
10
-21.456159678233
20
-36.9256751175436
30
0
41
1
10
-21.4346038918093
20
-36.9233921087882
30
0
41
1
10
-21.4172853236873
20
-36.9215646027249
30
0
41
1
10
-21.3567175465797
20
-36.9152207223246
30
0
41
1
10
-21.3048787016907
20
-36.9098423275229
30
0
41
1
10
-21.1789309579673
20
-36.8970925582696
30
0
41
1
10
-21.1048206678252
20
-36.8897206477529
30
0
41
1
10
-20.9982266626119
20
-36.8794674924612
30
0
41
1
10
-20.9762083560189
20
-36.877365038639
30
0
41
1
10
-20.9307649649809
20
-36.8730620891702
30
0
41
1
10
-20.9073116441753
20
-36.8708589697204
30
0
41
1
10
-20.8350267778472
20
-36.8641299500312
30
0
41
1
10
-20.7844346280646
20
-36.8594994391821
30
0
41
1
10
-20.6256720613504
20
-36.8452686128388
30
0
41
1
10
-20.5105338999628
20
-36.8353289800472
30
0
41
1
10
-20.2623510498034
20
-36.8150389241277
30
0
41
1
10
-20.129304333472
20
-36.8046876711257
30
0
41
1
10
-19.91638920189
20
-36.7892298094071
30
0
41
1
10
-19.8431890827454
20
-36.7840888488859
30
0
41
1
10
-19.730018892489
20
-36.7764444530324
30
0
41
1
10
-19.6918185387116
20
-36.7739133512502
30
0
41
1
10
-19.6146633567857
20
-36.7689052849555
30
0
41
1
10
-19.5756796286263
20
-36.7664263623772
30
0
41
1
10
-19.3787599051635
20
-36.7541757720302
30
0
41
1
10
-19.2148365238776
20
-36.744836639178
30
0
41
1
10
-18.8747060959729
20
-36.7275433503458
30
0
41
1
10
-18.6984974556378
20
-36.7195884919542
30
0
41
1
10
-18.4250584232746
20
-36.7090407437918
30
0
41
1
10
-18.3323883185654
20
-36.7057556503408
30
0
41
1
10
-18.191084045122
20
-36.7012188650766
30
0
41
1
10
-18.1435992640363
20
-36.6997717581898
30
0
41
1
10
-18.0478586633436
20
-36.6970154697969
30
0
41
1
10
-17.9996536198189
20
-36.6957079602148
30
0
41
1
10
-17.7578685588756
20
-36.6895608632595
30
0
41
1
10
-17.5611877471659
20
-36.6858688417225
30
0
41
1
10
-17.1615918134346
20
-36.6812078751488
30
0
41
1
10
-16.7557600995883
20
-36.6792706883382
30
0
41
1
10
-16.337639291229
20
-36.6833084047731
30
0
41
1
10
-16.0724270604448
20
-36.6878676419242
30
0
41
1
10
-16.0191898703303
20
-36.6888812978831
30
0
41
1
10
-15.9123231813235
20
-36.6911165651665
30
0
41
1
10
-15.8587245631855
20
-36.6923378179717
30
0
41
1
10
-15.6981171897024
20
-36.6962984120905
30
0
41
1
10
-15.5910468347989
20
-36.6993396267423
30
0
41
1
10
-15.2698405249356
20
-36.7096640573479
30
0
41
1
10
-14.8415784063018
20
-36.7266323994577
30
0
41
1
10
-14.4133472399135
20
-36.7499812987965
30
0
41
1
10
-13.9851301278561
20
-36.77650436602
30
0
41
1
10
-13.7710286107101
20
-36.7913529689849
30
0
41
1
10
-13.4498827823393
20
-36.8159916819972
30
0
41
1
10
-13.3435218403948
20
-36.8245465128171
30
0
41
1
10
-13.1324691999273
20
-36.8422802842674
30
0
41
1
10
-13.0277242446182
20
-36.8514633165786
30
0
41
1
10
-12.7158020909691
20
-36.8799092160374
30
0
41
1
10
-12.5109326313958
20
-36.9000690563235
30
0
41
1
10
-12.1073058848507
20
-36.9425045735183
30
0
41
1
10
-11.9085482732514
20
-36.9647806292254
30
0
41
1
10
-11.6150846181188
20
-36.9995676956445
30
0
41
1
10
-11.5180434948078
20
-37.0113921032897
30
0
41
1
10
-11.3736757629307
20
-37.0294435408716
30
0
41
1
10
-11.3257522711256
20
-37.0355131453339
30
0
41
1
10
-11.2303086104432
20
-37.047752391391
30
0
41
1
10
-11.1827930088945
20
-37.0539217032554
30
0
41
1
10
-10.947483899805
20
-37.0848401707009
30
0
41
1
10
-10.5834454180355
20
-37.1350219327149
30
0
41
1
10
-10.2439178705042
20
-37.1857536590411
30
0
41
1
10
-9.91680582136412
20
-37.2363058560044
30
0
41
1
10
-9.75945564033582
20
-37.261493092313
30
0
41
1
10
-9.53315123438242
20
-37.2987717627024
30
0
41
1
10
-9.45933976558801
20
-37.3111139183836
30
0
41
1
10
-9.35114147531012
20
-37.3294504599706
30
0
41
1
10
-9.31544598229635
20
-37.3355417155964
30
0
41
1
10
-9.24528651889085
20
-37.3475917734859
30
0
41
1
10
-9.21079474785212
20
-37.3535551599553
30
0
41
1
10
-9.04126021025348
20
-37.3830467128493
30
0
41
1
10
-8.91496798581709
20
-37.4055997258587
30
0
41
1
10
-8.68102049697195
20
-37.4481731269532
30
0
41
1
10
-8.57336408604833
20
-37.4681944204207
30
0
41
1
10
-8.37723597964056
20
-37.5052140736219
30
0
41
1
10
-8.28875977321565
20
-37.5222136809379
30
0
41
1
10
-8.19090987217122
20
-37.5412230011621
30
0
41
1
10
-8.17197900693107
20
-37.5449126248416
30
0
41
1
10
-8.13542173547235
20
-37.5520576280708
30
0
41
1
10
-8.0828343665674
20
-37.5623670168447
30
0
41
1
10
-8.03692789472021
20
-37.5714414484335
30
0
41
1
10
-7.95392293194833
20
-37.5879127414501
30
0
41
1
10
-7.91030798153004
20
-37.5966581461133
30
0
41
1
10
-7.84653768425606
20
-37.6094845934289
30
0
41
1
10
-7.82638053715208
20
-37.6135660976588
30
0
41
1
10
-7.81631631923312
20
-37.6156028036189
30
0
41
1
10
-7.81506199719574
20
-37.6158567492838
30
0
41
1
10
-7.81441441803791
20
-37.6159878504735
30
0
41
1
10
-7.81433786746415
20
-37.6160033467587
30
0
41
1
10
-7.81434678489131
20
-37.6160015404837
30
0
0
SPLINE
5
18C
100
AcDbEntity
8
SK1
62
256
6
ByLayer
370
18
48
1
60
0
100
AcDbSpline
70
4
71
3
72
54
73
50
40
0
40
0
40
0
40
0
40
0.0312500000000012
40
0.0312500000000012
40
0.0625000000000024
40
0.0625000000000024
40
0.125000000000004
40
0.125000000000004
40
0.250000000000007
40
0.250000000000007
40
0.375000000000011
40
0.375000000000011
40
0.40625000000001
40
0.40625000000001
40
0.43750000000001
40
0.500000000000011
40
0.500000000000011
40
0.625000000000015
40
0.625000000000015
40
0.687500000000016
40
0.687500000000016
40
0.750000000000017
40
0.750000000000017
40
0.781250000000016
40
0.781250000000016
40
0.812500000000016
40
0.812500000000016
40
0.843750000000015
40
0.843750000000015
40
0.875000000000014
40
0.875000000000014
40
0.906250000000014
40
0.906250000000014
40
0.914062500000012
40
0.914062500000012
40
0.921875000000011
40
0.921875000000011
40
0.93750000000001
40
0.93750000000001
40
0.945312500000009
40
0.945312500000009
40
0.953125000000007
40
0.953125000000007
40
0.968750000000005
40
0.976562500000003
40
0.976562500000003
40
0.984375000000002
40
0.984375000000002
40
1
40
1
40
1
40
1
41
1
10
-39.8
20
33.7318671810039
30
0
41
1
10
-39.7999999999999
20
33.7145710701311
30
0
41
1
10
-39.8008000946281
20
33.6971565007765
30
0
41
1
10
-39.8039168623024
20
33.662196221347
30
0
41
1
10
-39.8062335132834
20
33.6446342134734
30
0
41
1
10
-39.8153484367685
20
33.5917053852178
30
0
41
1
10
-39.8243080567448
20
33.5560957915865
30
0
41
1
10
-39.8591124485095
20
33.4483170327042
30
0
41
1
10
-39.8928472522366
20
33.3751982231631
30
0
41
1
10
-39.9786760357966
20
33.2265304775473
30
0
41
1
10
-40.0307804205494
20
33.1509812446763
30
0
41
1
10
-40.1063660693582
20
33.0550850028676
30
0
41
1
10
-40.1219937947638
20
33.035852199307
30
0
41
1
10
-40.1541498540921
20
32.9973928162118
30
0
41
1
10
-40.2037751165397
20
32.9396636457768
30
0
41
1
10
-40.2574425199022
20
32.8818159360059
30
0
41
1
10
-40.3699446706122
20
32.7659816807454
30
0
41
1
10
-40.4517476783099
20
32.688560134193
30
0
41
1
10
-40.5849329745246
20
32.572369990688
30
0
41
1
10
-40.6310900751579
20
32.5336324584858
30
0
41
1
10
-40.7273802545145
20
32.456248481954
30
0
41
1
10
-40.7774939797117
20
32.4175986160054
30
0
41
1
10
-40.8564695396308
20
32.3598547383014
30
0
41
1
10
-40.88345848061
20
32.3406304247495
30
0
41
1
10
-40.9388920650189
20
32.3023874881927
30
0
41
1
10
-40.9672925131056
20
32.2833959934678
30
0
41
1
10
-41.0258361258168
20
32.245788614309
30
0
41
1
10
-41.0559730128129
20
32.2271708721062
30
0
41
1
10
-41.1186305548425
20
32.1905053329399
30
0
41
1
10
-41.1510308179744
20
32.1725200428503
30
0
41
1
10
-41.2188385127876
20
32.1377315395356
30
0
41
1
10
-41.2542332468957
20
32.1209048401273
30
0
41
1
10
-41.3015842990544
20
32.1011135781885
30
0
41
1
10
-41.3112139355684
20
32.097219144498
30
0
41
1
10
-41.3308439340923
20
32.0895800189203
30
0
41
1
10
-41.3408651858732
20
32.0858280947414
30
0
41
1
10
-41.3713588597964
20
32.0749170218882
30
0
41
1
10
-41.392283190434
20
32.0680860715368
30
0
41
1
10
-41.4248486397641
20
32.0587260689411
30
0
41
1
10
-41.4359013558928
20
32.0557546283677
30
0
41
1
10
-41.4584661089438
20
32.0501584370334
30
0
41
1
10
-41.4700314002366
20
32.0475237786973
30
0
41
1
10
-41.5049753605481
20
32.0403392906634
30
0
41
1
10
-41.5405101097732
20
32.0345573260281
30
0
41
1
10
-41.5770691708598
20
32.031213916461
30
0
41
1
10
-41.6016844245104
20
32.0295626507329
30
0
41
1
10
-41.6141876951168
20
32.0290255903479
30
0
41
1
10
-41.6514384574835
20
32.0283362059759
30
0
41
1
10
-41.6758884507612
20
32.0290885535356
30
0
41
1
10
-41.7000000000014
20
32.0309069691633
30
0
0
SPLINE
5
18D
100
AcDbEntity
8
SK1
62
256
6
ByLayer
370
18
48
1
60
0
100
AcDbSpline
70
4
71
3
72
20
73
16
40
0
40
0
40
0
40
0
40
0.0624999999999996
40
0.0624999999999996
40
0.124999999999999
40
0.124999999999999
40
0.249999999999998
40
0.249999999999998
40
0.374999999999998
40
0.374999999999998
40
0.499999999999997
40
0.499999999999997
40
0.749999999999998
40
0.749999999999998
40
1
40
1
40
1
40
1
41
1
10
-41.7
20
32.0309069691676
30
0
41
1
10
-41.8292303865967
20
32.0406531099988
30
0
41
1
10
-41.9587402151836
20
32.0495880288662
30
0
41
1
10
-42.2181916807764
20
32.0662053277564
30
0
41
1
10
-42.3481340998353
20
32.0738854313833
30
0
41
1
10
-42.7384836861428
20
32.0954119185672
30
0
41
1
10
-42.9994066846657
20
32.1077633929635
30
0
41
1
10
-43.5222154791105
20
32.1296814395211
30
0
41
1
10
-43.7841056976777
20
32.1392351380778
30
0
41
1
10
-44.3086156108632
20
32.1562368503895
30
0
41
1
10
-44.5712371095368
20
32.1636796127771
30
0
41
1
10
-45.3599684301978
20
32.183511338927
30
0
41
1
10
-45.8869332192805
20
32.1934382596067
30
0
41
1
10
-46.9424227013034
20
32.2088227892335
30
0
41
1
10
-47.4709561074664
20
32.214255034391
30
0
41
1
10
-48.0000748840305
20
32.2180191381098
30
0
0
SPLINE
5
18E
100
AcDbEntity
8
SK1
62
256
6
ByLayer
370
18
48
1
60
0
100
AcDbSpline
70
4
71
3
72
48
73
44
40
0
40
0
40
0
40
0
40
0.0078124999999993
40
0.0078124999999993
40
0.0156249999999986
40
0.0156249999999986
40
0.0234374999999979
40
0.0234374999999979
40
0.0273437499999983
40
0.0273437499999983
40
0.0312499999999987
40
0.0312499999999987
40
0.0468749999999985
40
0.0468749999999985
40
0.0624999999999983
40
0.0624999999999983
40
0.0781249999999982
40
0.0781249999999982
40
0.093749999999998
40
0.093749999999998
40
0.124999999999999
40
0.124999999999999
40
0.156249999999999
40
0.156249999999999
40
0.1875
40
0.1875
40
0.25
40
0.25
40
0.312500000000001
40
0.312500000000001
40
0.375000000000002
40
0.375000000000002
40
0.437500000000002
40
0.437500000000002
40
0.500000000000003
40
0.500000000000003
40
0.625000000000002
40
0.625000000000002
40
0.750000000000001
40
0.750000000000001
40
0.875000000000001
40
0.875000000000001
40
1
40
1
40
1
40
1
41
1
10
-39.778558650078
20
-31.6931118380393
30
0
41
1
10
-39.7883868929647
20
-31.7025532223723
30
0
41
1
10
-39.7998706288389
20
-31.7112964132592
30
0
41
1
10
-39.8252016759508
20
-31.727785998335
30
0
41
1
10
-39.8390578213016
20
-31.7355286667195
30
0
41
1
10
-39.8685800443004
20
-31.750250722256
30
0
41
1
10
-39.8842499492025
20
-31.7572284952427
30
0
41
1
10
-39.9088364476932
20
-31.7672390262543
30
0
41
1
10
-39.9172164474952
20
-31.7704998116272
30
0
41
1
10
-39.9341558223724
20
-31.7768308195506
30
0
41
1
10
-39.9427338921214
20
-31.7799088406371
30
0
41
1
10
-39.9860999153235
20
-31.7949150039898
30
0
41
1
10
-40.0222836011686
20
-31.8057165804868
30
0
41
1
10
-40.0965785854911
20
-31.8257640107126
30
0
41
1
10
-40.1347044611034
20
-31.8349980967299
30
0
41
1
10
-40.2123544869192
20
-31.8523378844301
30
0
41
1
10
-40.2518838303321
20
-31.8604393937541
30
0
41
1
10
-40.3320141072488
20
-31.8757777665964
30
0
41
1
10
-40.3726666338482
20
-31.8830200024942
30
0
41
1
10
-40.4951266360556
20
-31.9035883692501
30
0
41
1
10
-40.5776697606834
20
-31.915826027001
30
0
41
1
10
-40.7439405062895
20
-31.9383679597266
30
0
41
1
10
-40.8276763429015
20
-31.9486588126606
30
0
41
1
10
-40.9960139224065
20
-31.9678276439839
30
0
41
1
10
-41.0806186654916
20
-31.9767007208723
30
0
41
1
10
-41.33543416251
20
-32.0016868475027
30
0
41
1
10
-41.5066306756243
20
-32.0161921309117
30
0
41
1
10
-41.8507484759028
20
-32.0423921766892
30
0
41
1
10
-42.0236820904267
20
-32.0540667991598
30
0
41
1
10
-42.3708095889411
20
-32.0753644737565
30
0
41
1
10
-42.5450843964524
20
-32.0849837750873
30
0
41
1
10
-42.8940811800661
20
-32.1026167213463
30
0
41
1
10
-43.0688393204492
20
-32.1106302325481
30
0
41
1
10
-43.4187678624608
20
-32.1253844913356
30
0
41
1
10
-43.5939388196759
20
-32.1321235129213
30
0
41
1
10
-44.1199599676554
20
-32.1507735448825
30
0
41
1
10
-44.4713128141199
20
-32.1611349844006
30
0
41
1
10
-45.1749837599867
20
-32.178891275667
30
0
41
1
10
-45.5273054366393
20
-32.1862750140274
30
0
41
1
10
-46.2326933029751
20
-32.1987617510054
30
0
41
1
10
-46.5857610311104
20
-32.2038599700751
30
0
41
1
10
-47.2924944621188
20
-32.2122309846564
30
0
41
1
10
-47.6461609228116
20
-32.2155014257993
30
0
41
1
10
-48.0000748840304
20
-32.2180191381099
30
0
0
SPLINE
5
18F
100
AcDbEntity
8
SK1
62
256
6
ByLayer
370
18
48
1
60
0
100
AcDbSpline
70
4
71
3
72
30
73
26
40
0
40
0
40
0
40
0
40
0.125000000000001
40
0.125000000000001
40
0.250000000000002
40
0.250000000000002
40
0.375000000000003
40
0.375000000000003
40
0.500000000000003
40
0.500000000000003
40
0.625000000000004
40
0.625000000000004
40
0.750000000000005
40
0.750000000000005
40
0.812500000000004
40
0.812500000000004
40
0.875000000000002
40
0.875000000000002
40
0.937500000000001
40
0.937500000000001
40
0.968749999999999
40
0.968749999999999
40
0.984375
40
0.984375
40
1
40
1
40
1
40
1
41
1
10
-36.7000000000011
20
-30.5167400608155
30
0
41
1
10
-36.8506709106858
20
-30.5527315407427
30
0
41
1
10
-37.0000536735528
20
-30.5896420168468
30
0
41
1
10
-37.2957818766288
20
-30.6656298693689
30
0
41
1
10
-37.44212940243
20
-30.7047057578746
30
0
41
1
10
-37.7311755276813
20
-30.7854607682416
30
0
41
1
10
-37.8738777626771
20
-30.8271372964159
30
0
41
1
10
-38.1547862550161
20
-30.9136978932481
30
0
41
1
10
-38.2929993722038
20
-30.958577067925
30
0
41
1
10
-38.563697833774
20
-31.052421750569
30
0
41
1
10
-38.6962321779394
20
-31.1013909032134
30
0
41
1
10
-38.9535199055933
20
-31.2047247335559
30
0
41
1
10
-39.0766267398936
20
-31.258428756578
30
0
41
1
10
-39.2504780956698
20
-31.3429614515447
30
0
41
1
10
-39.306616875556
20
-31.3718055420265
30
0
41
1
10
-39.4146820998372
20
-31.4310434676065
30
0
41
1
10
-39.4666107278892
20
-31.4614364993235
30
0
41
1
10
-39.5654932840106
20
-31.5240527860465
30
0
41
1
10
-39.6124508238217
20
-31.5562747122699
30
0
41
1
10
-39.6783892375735
20
-31.6062624057088
30
0
41
1
10
-39.6996167056853
20
-31.6232016368542
30
0
41
1
10
-39.7302067583249
20
-31.649070789322
30
0
41
1
10
-39.7401947032164
20
-31.6577706366487
30
0
41
1
10
-39.7597296975045
20
-31.6753325395168
30
0
41
1
10
-39.7692891468385
20
-31.6842072002859
30
0
41
1
10
-39.7785586500778
20
-31.6931118380393
30
0
0
SPLINE
5
190
100
AcDbEntity
8
SK1
62
256
6
ByLayer
370
18
48
1
60
0
100
AcDbSpline
70
4
71
3
72
50
73
46
40
0
40
0
40
0
40
0
40
0.0156249999999889
40
0.0156249999999889
40
0.0234374999999828
40
0.0234374999999828
40
0.0312499999999768
40
0.0312499999999768
40
0.0468749999999647
40
0.0468749999999647
40
0.054687499999962
40
0.054687499999962
40
0.0624999999999593
40
0.0624999999999593
40
0.0781249999999593
40
0.0781249999999593
40
0.0937499999999594
40
0.0937499999999594
40
0.109374999999959
40
0.109374999999959
40
0.124999999999959
40
0.124999999999959
40
0.156249999999959
40
0.156249999999959
40
0.18749999999996
40
0.18749999999996
40
0.21874999999996
40
0.21874999999996
40
0.24999999999996
40
0.24999999999996
40
0.312499999999964
40
0.312499999999964
40
0.374999999999969
40
0.374999999999969
40
0.499999999999983
40
0.499999999999983
40
0.562499999999987
40
0.562499999999987
40
0.624999999999992
40
0.624999999999992
40
0.749999999999995
40
0.749999999999995
40
0.874999999999997
40
0.874999999999997
40
1
40
1
40
1
40
1
41
1
10
-36.7
20
-30.5167400608164
30
0
41
1
10
-36.6861760057712
20
-30.5134378573018
30
0
41
1
10
-36.6719236192518
20
-30.5108892459393
30
0
41
1
10
-36.6497726064996
20
-30.5084288522914
30
0
41
1
10
-36.6422597446633
20
-30.5078365983351
30
0
41
1
10
-36.6269468849827
20
-30.5071589463332
30
0
41
1
10
-36.6191045834997
20
-30.5070782908792
30
0
41
1
10
-36.5958394754029
20
-30.5076493122667
30
0
41
1
10
-36.5804742375449
20
-30.5090929182694
30
0
41
1
10
-36.5576335628327
20
-30.5127783281781
30
0
41
1
10
-36.5501004416419
20
-30.5142557100426
30
0
41
1
10
-36.5354423486815
20
-30.5176064302121
30
0
41
1
10
-36.5282751131219
20
-30.519486290667
30
0
41
1
10
-36.5072050500108
20
-30.5256707052649
30
0
41
1
10
-36.49368013741
20
-30.5305497512156
30
0
41
1
10
-36.4683289496342
20
-30.5411194270436
30
0
41
1
10
-36.4563799297747
20
-30.5468414483073
30
0
41
1
10
-36.4335727273276
20
-30.5589376700893
30
0
41
1
10
-36.4226910078859
20
-30.5653305504942
30
0
41
1
10
-36.4019102061098
20
-30.5785563181124
30
0
41
1
10
-36.3920943798003
20
-30.58533272851
30
0
41
1
10
-36.3639622379691
20
-30.6060308129229
30
0
41
1
10
-36.3469408538926
20
-30.6203152750523
30
0
41
1
10
-36.3151727496401
20
-30.6494987224847
30
0
41
1
10
-36.3004429011484
20
-30.664402704273
30
0
41
1
10
-36.272663942593
20
-30.6946459721731
30
0
41
1
10
-36.25959332707
20
-30.710023998788
30
0
41
1
10
-36.2349763421032
20
-30.7408303858341
30
0
41
1
10
-36.2234077468714
20
-30.7562814464429
30
0
41
1
10
-36.1904370426651
20
-30.802725501164
30
0
41
1
10
-36.1707455744194
20
-30.8338067335522
30
0
41
1
10
-36.1344790632362
20
-30.896045397797
30
0
41
1
10
-36.1179231578378
20
-30.9272048762935
30
0
41
1
10
-36.0717993238637
20
-31.0206707065773
30
0
41
1
10
-36.0457186531499
20
-31.0829582265782
30
0
41
1
10
-36.0112013735234
20
-31.176078536837
30
0
41
1
10
-36.0004790582839
20
-31.2070846709192
30
0
41
1
10
-35.9804074810477
20
-31.2688986166914
30
0
41
1
10
-35.9710667512765
20
-31.299679825393
30
0
41
1
10
-35.9448540024585
20
-31.3916417224263
30
0
41
1
10
-35.9297771234306
20
-31.4524405088437
30
0
41
1
10
-35.9034606976511
20
-31.573002406175
30
0
41
1
10
-35.8922289556274
20
-31.6327656209781
30
0
41
1
10
-35.8730490415186
20
-31.751243792232
30
0
41
1
10
-35.8651043543943
20
-31.8099588001334
30
0
41
1
10
-35.8586343515166
20
-31.8681445143571
30
0
0
SPLINE
5
191
100
AcDbEntity
8
SK1
62
256
6
ByLayer
370
18
48
1
60
0
100
AcDbSpline
70
4
71
3
72
34
73
30
40
0
40
0
40
0
40
0
40
0.0312499999999984
40
0.0312499999999984
40
0.0624999999999967
40
0.0624999999999967
40
0.124999999999998
40
0.124999999999998
40
0.187499999999999
40
0.187499999999999
40
0.250000000000001
40
0.250000000000001
40
0.312500000000002
40
0.312500000000002
40
0.375000000000003
40
0.375000000000003
40
0.500000000000002
40
0.500000000000002
40
0.625000000000002
40
0.625000000000002
40
0.750000000000001
40
0.750000000000001
40
0.875
40
0.875
40
0.906250000000001
40
0.906250000000001
40
0.937500000000001
40
0.937500000000001
40
1
40
1
40
1
40
1
41
1
10
-35.8586343515165
20
-31.8681445143572
30
0
41
1
10
-35.8559584193055
20
-31.8922095773651
30
0
41
1
10
-35.8518135153311
20
-31.9163638905433
30
0
41
1
10
-35.8409285844262
20
-31.964131951572
30
0
41
1
10
-35.8341896585341
20
-31.9878129216072
30
0
41
1
10
-35.8106132186994
20
-32.0583025828621
30
0
41
1
10
-35.7904281681568
20
-32.1045597838675
30
0
41
1
10
-35.7439822297338
20
-32.1958854178849
30
0
41
1
10
-35.7177324522672
20
-32.2409545810473
30
0
41
1
10
-35.6615604551228
20
-32.3301279018396
30
0
41
1
10
-35.6316363321779
20
-32.3742317028649
30
0
41
1
10
-35.5699034913987
20
-32.4616320223601
30
0
41
1
10
-35.5380898463449
20
-32.5049279973811
30
0
41
1
10
-35.4738846774947
20
-32.5908206651138
30
0
41
1
10
-35.4414888109944
20
-32.6334169185666
30
0
41
1
10
-35.3448966005915
20
-32.7602674648848
30
0
41
1
10
-35.2813492424227
20
-32.8436033441989
30
0
41
1
10
-35.1616455253843
20
-33.0078777750666
30
0
41
1
10
-35.105424529817
20
-33.0888330619472
30
0
41
1
10
-35.0042274646478
20
-33.2484814297211
30
0
41
1
10
-34.9592222794924
20
-33.3271729985641
30
0
41
1
10
-34.8839372794758
20
-33.4823184480597
30
0
41
1
10
-34.8536295063491
20
-33.5587714504724
30
0
41
1
10
-34.8273626619223
20
-33.6529305027061
30
0
41
1
10
-34.8226923405656
20
-33.6716918907441
30
0
41
1
10
-34.8145899823543
20
-33.7090734310725
30
0
41
1
10
-34.8111615157959
20
-33.7276856282373
30
0
41
1
10
-34.8028771809869
20
-33.7830433478833
30
0
41
1
10
-34.7999999999999
20
-33.8193960990672
30
0
41
1
10
-34.7999999999999
20
-33.8551849401856
30
0
0
LINE
5
87
100
AcDbEntity
8
81
62
256
6
ByLayer
370
18
48
1
60
0
100
AcDbLine
10
100
20
0
30
0
11
105
21
0
31
0
39
0
210
0
220
0
230
1
0
LINE
5
88
100
AcDbEntity
8
80
62
256
6
ByLayer
370
18
48
1
60
0
100
AcDbLine
10
0
20
0
30
0
11
-5
21
0
31
0
39
0
210
0
220
0
230
1
0
LINE
5
89
100
AcDbEntity
8
4
62
256
6
ByLayer
370
18
48
0.05
60
0
100
AcDbLine
10
0
20
0
30
0
11
100
21
0
31
0
39
0
210
0
220
0
230
1
0
LINE
5
8B
100
AcDbEntity
8
1
62
256
6
ByLayer
370
13
48
1
60
0
100
AcDbLine
10
36.124598
20
-23.8
30
0
11
36.124598
21
23.8
31
0
39
0
210
0
220
0
230
1
0
LINE
5
8D
100
AcDbEntity
8
1
62
256
6
ByLayer
370
18
48
1
60
0
100
AcDbLine
10
95
20
-24
30
0
11
95
21
24
31
0
39
0
210
0
220
0
230
1
0
LINE
5
8E
100
AcDbEntity
8
1
62
256
6
ByLayer
370
18
48
1
60
0
100
AcDbLine
10
100
20
19
30
0
11
100
21
-19
31
0
39
0
210
0
220
0
230
1
0
LINE
5
8F
100
AcDbEntity
8
1
62
256
6
ByLayer
370
18
48
1
60
0
100
AcDbLine
10
36.95
20
24
30
0
11
36.95
21
-24
31
0
39
0
210
0
220
0
230
1
0
LINE
5
90
100
AcDbEntity
8
1
62
256
6
ByLayer
370
13
48
1
60
0
100
AcDbLine
10
36.27989
20
-23.820445
30
0
11
36.27989
21
23.820445
31
0
39
0
210
0
220
0
230
1
0
LINE
5
91
100
AcDbEntity
8
1
62
256
6
ByLayer
370
13
48
1
60
0
100
AcDbLine
10
34.95
20
-23.8
30
0
11
34.95
21
23.8
31
0
39
0
210
0
220
0
230
1
0
LINE
5
92
100
AcDbEntity
8
1
62
256
6
ByLayer
370
18
48
1
60
0
100
AcDbLine
10
21.925
20
46.619334
30
0
11
21.925
21
35.929935
31
0
39
0
210
0
220
0
230
1
0
LINE
5
93
100
AcDbEntity
8
1
62
256
6
ByLayer
370
18
48
1
60
0
100
AcDbLine
10
18.075
20
46.619334
30
0
11
18.075
21
35.929935
31
0
39
0
210
0
220
0
230
1
0
LINE
5
94
100
AcDbEntity
8
1
62
256
6
ByLayer
370
18
48
1
60
0
100
AcDbLine
10
28.25
20
48.949778
30
0
11
23.241822
21
48.949778
31
0
39
0
210
0
220
0
230
1
0
LINE
5
95
100
AcDbEntity
8
1
62
256
6
ByLayer
370
18
48
1
60
0
100
AcDbLine
10
23.241822
20
48.949778
30
0
11
23.241822
21
38.906024
31
0
39
0
210
0
220
0
230
1
0
LINE
5
96
100
AcDbEntity
8
1
62
256
6
ByLayer
370
18
48
1
60
0
100
AcDbLine
10
28.95
20
31.35
30
0
11
28.95
21
38.002865
31
0
39
0
210
0
220
0
230
1
0
LINE
5
97
100
AcDbEntity
8
1
62
256
6
ByLayer
370
18
48
1
60
0
100
AcDbLine
10
18.075
20
34.173354
30
0
11
18.075
21
35.929935
31
0
39
0
210
0
220
0
230
1
0
LINE
5
98
100
AcDbEntity
8
1
62
256
6
ByLayer
370
18
48
1
60
0
100
AcDbLine
10
28.25
20
38.906024
30
0
11
23.241822
21
38.906024
31
0
39
0
210
0
220
0
230
1
0
LINE
5
99
100
AcDbEntity
8
1
62
256
6
ByLayer
370
18
48
1
60
0
100
AcDbLine
10
21.925
20
35.929935
30
0
11
21.925
21
34.173354
31
0
39
0
210
0
220
0
230
1
0
LINE
5
9A
100
AcDbEntity
8
1
62
256
6
ByLayer
370
18
48
1
60
0
100
AcDbLine
10
28.95
20
48.235047
30
0
11
28.95
21
38.002865
31
0
39
0
210
0
220
0
230
1
0
LINE
5
9B
100
AcDbEntity
8
1
62
256
6
ByLayer
370
18
48
1
60
0
100
AcDbLine
10
28.25
20
38.906024
30
0
11
28.25
21
48.949778
31
0
39
0
210
0
220
0
230
1
0
LINE
5
9C
100
AcDbEntity
8
1
62
256
6
ByLayer
370
13
48
1
60
0
100
AcDbLine
10
21.525
20
44.869591
30
0
11
21.525
21
33.628531
31
0
39
0
210
0
220
0
230
1
0
LINE
5
9D
100
AcDbEntity
8
1
62
256
6
ByLayer
370
18
48
1
60
0
100
AcDbLine
10
21.525
20
44.869591
30
0
11
18.475
21
44.869591
31
0
39
0
210
0
220
0
230
1
0
LINE
5
9E
100
AcDbEntity
8
1
62
256
6
ByLayer
370
13
48
1
60
0
100
AcDbLine
10
18.475
20
44.869591
30
0
11
18.475
21
33.628531
31
0
39
0
210
0
220
0
230
1
0
LINE
5
9F
100
AcDbEntity
8
1
62
256
6
ByLayer
370
18
48
1
60
0
100
AcDbLine
10
21.525
20
33.628531
30
0
11
18.475
21
33.628531
31
0
39
0
210
0
220
0
230
1
0
LINE
5
A0
100
AcDbEntity
8
1
62
256
6
ByLayer
370
13
48
1
60
0
100
AcDbLine
10
14.657967
20
38.906024
30
0
11
14.657967
21
31.35
31
0
39
0
210
0
220
0
230
1
0
LINE
5
A1
100
AcDbEntity
8
1
62
256
6
ByLayer
370
18
48
1
60
0
100
AcDbLine
10
21.525
20
31.35
30
0
11
18.475
21
31.35
31
0
39
0
210
0
220
0
230
1
0
LINE
5
A2
100
AcDbEntity
8
1
62
256
6
ByLayer
370
18
48
1
60
0
100
AcDbLine
10
21.525
20
-44.634495
30
0
11
18.475
21
-44.634495
31
0
39
0
210
0
220
0
230
1
0
LINE
5
A3
100
AcDbEntity
8
1
62
256
6
ByLayer
370
13
48
1
60
0
100
AcDbLine
10
18.475
20
-8.827456
30
0
11
18.475
21
-44.634495
31
0
39
0
210
0
220
0
230
1
0
LINE
5
A4
100
AcDbEntity
8
1
62
256
6
ByLayer
370
13
48
1
60
0
100
AcDbLine
10
18.475
20
7.13671
30
0
11
18.475
21
-7.13671
31
0
39
0
210
0
220
0
230
1
0
LINE
5
A5
100
AcDbEntity
8
1
62
256
6
ByLayer
370
13
48
1
60
0
100
AcDbLine
10
18.475
20
31.35
30
0
11
18.475
21
8.827456
31
0
39
0
210
0
220
0
230
1
0
LINE
5
A6
100
AcDbEntity
8
1
62
256
6
ByLayer
370
13
48
1
60
0
100
AcDbLine
10
21.525
20
31.35
30
0
11
21.525
21
8.827456
31
0
39
0
210
0
220
0
230
1
0
LINE
5
A7
100
AcDbEntity
8
1
62
256
6
ByLayer
370
13
48
1
60
0
100
AcDbLine
10
21.525
20
7.13671
30
0
11
21.525
21
-7.13671
31
0
39
0
210
0
220
0
230
1
0
LINE
5
A8
100
AcDbEntity
8
1
62
256
6
ByLayer
370
13
48
1
60
0
100
AcDbLine
10
21.525
20
-8.827456
30
0
11
21.525
21
-44.634495
31
0
39
0
210
0
220
0
230
1
0
LINE
5
A9
100
AcDbEntity
8
1
62
256
6
ByLayer
370
18
48
1
60
0
100
AcDbLine
10
0
20
-49.265
30
0
11
0
21
49.265
31
0
39
0
210
0
220
0
230
1
0
LINE
5
AA
100
AcDbEntity
8
1
62
256
6
ByLayer
370
18
48
1
60
0
100
AcDbLine
10
28.25
20
-48.73437
30
0
11
23.241822
21
-48.73437
31
0
39
0
210
0
220
0
230
1
0
LINE
5
AB
100
AcDbEntity
8
1
62
256
6
ByLayer
370
18
48
1
60
0
100
AcDbLine
10
28.25
20
31.35
30
0
11
23.241822
21
31.35
31
0
39
0
210
0
220
0
230
1
0
LINE
5
AC
100
AcDbEntity
8
1
62
256
6
ByLayer
370
18
48
1
60
0
100
AcDbLine
10
23.241822
20
31.35
30
0
11
23.241822
21
-48.73437
31
0
39
0
210
0
220
0
230
1
0
LINE
5
AD
100
AcDbEntity
8
1
62
256
6
ByLayer
370
18
48
1
60
0
100
AcDbLine
10
21.925
20
31.35
30
0
11
21.925
21
-46.393106
31
0
39
0
210
0
220
0
230
1
0
LINE
5
AE
100
AcDbEntity
8
1
62
256
6
ByLayer
370
18
48
1
60
0
100
AcDbLine
10
28.95
20
31.35
30
0
11
28.95
21
-48.016432
31
0
39
0
210
0
220
0
230
1
0
LINE
5
AF
100
AcDbEntity
8
1
62
256
6
ByLayer
370
18
48
1
60
0
100
AcDbLine
10
28.25
20
-48.73437
30
0
11
28.25
21
31.35
31
0
39
0
210
0
220
0
230
1
0
LINE
5
B0
100
AcDbEntity
8
1
62
256
6
ByLayer
370
18
48
1
60
0
100
AcDbLine
10
18.075
20
31.35
30
0
11
18.075
21
-46.393106
31
0
39
0
210
0
220
0
230
1
0
LINE
5
B1
100
AcDbEntity
8
1
62
256
6
ByLayer
370
18
48
1
60
0
100
AcDbLine
10
0.7
20
-49.965
30
0
11
0.7
21
49.965
31
0
39
0
210
0
220
0
230
1
0
LINE
5
B2
100
AcDbEntity
8
1
62
256
6
ByLayer
370
18
48
1
60
0
100
AcDbLine
10
4.95
20
-49.954567
30
0
11
4.95
21
-49.965
31
0
39
0
210
0
220
0
230
1
0
LINE
5
B3
100
AcDbEntity
8
1
62
256
6
ByLayer
370
18
48
1
60
0
100
AcDbLine
10
16.758178
20
-48.73437
30
0
11
14.95
21
-48.73437
31
0
39
0
210
0
220
0
230
1
0
LINE
5
B4
100
AcDbEntity
8
1
62
256
6
ByLayer
370
18
48
1
60
0
100
AcDbLine
10
16.758178
20
-48.73437
30
0
11
16.758178
21
31.35
31
0
39
0
210
0
220
0
230
1
0
LINE
5
B5
100
AcDbEntity
8
1
62
256
6
ByLayer
370
18
48
1
60
0
100
AcDbLine
10
16.758178
20
31.35
30
0
11
4.961216
21
31.35
31
0
39
0
210
0
220
0
230
1
0
LINE
5
B6
100
AcDbEntity
8
1
62
256
6
ByLayer
370
18
48
1
60
0
100
AcDbLine
10
16.758178
20
38.906024
30
0
11
14.657967
21
38.906024
31
0
39
0
210
0
220
0
230
1
0
LINE
5
B7
100
AcDbEntity
8
1
62
256
6
ByLayer
370
18
48
1
60
0
100
AcDbLine
10
16.758178
20
38.906024
30
0
11
16.758178
21
48.949778
31
0
39
0
210
0
220
0
230
1
0
LINE
5
B8
100
AcDbEntity
8
1
62
256
6
ByLayer
370
18
48
1
60
0
100
AcDbLine
10
16.758178
20
48.949778
30
0
11
14.95
21
48.949778
31
0
39
0
210
0
220
0
230
1
0
LINE
5
B9
100
AcDbEntity
8
SK1
62
256
6
ByLayer
370
13
48
1
60
0
100
AcDbLine
10
-41.7
20
32.225
30
0
11
-41.7
21
32.030907
31
0
39
0
210
0
220
0
230
1
0
LINE
5
BB
100
AcDbEntity
8
SK1
62
256
6
ByLayer
370
18
48
1
60
0
100
AcDbLine
10
-48.25
20
32.225
30
0
11
-48.25
21
32.221419
31
0
39
0
210
0
220
0
230
1
0
LINE
5
BC
100
AcDbEntity
8
SK1
62
256
6
ByLayer
370
18
48
1
60
0
100
AcDbLine
10
-48.25
20
-32.225
30
0
11
-48.25
21
-32.221419
31
0
39
0
210
0
220
0
230
1
0
LINE
5
BD
100
AcDbEntity
8
SK1
62
256
6
ByLayer
370
13
48
1
60
0
100
AcDbLine
10
-36.7
20
-31.693112
30
0
11
-36.7
21
-32.225
31
0
39
0
210
0
220
0
230
1
0
LINE
5
BE
100
AcDbEntity
8
SK1
62
256
6
ByLayer
370
13
48
1
60
0
100
AcDbLine
10
-49.589566
20
30.49955
30
0
11
-48.969717
21
31.05184
31
0
39
0
210
0
220
0
230
1
0
LINE
5
BF
100
AcDbEntity
8
SK1
62
256
6
ByLayer
370
13
48
1
60
0
100
AcDbLine
10
-49.589566
20
-30.49955
30
0
11
-48.969717
21
-31.05184
31
0
39
0
210
0
220
0
230
1
0
LINE
5
C0
100
AcDbEntity
8
SK1
62
256
6
ByLayer
370
13
48
1
60
0
100
AcDbLine
10
-36.7
20
-31.693112
30
0
11
-39.778559
21
-31.693112
31
0
39
0
210
0
220
0
230
1
0
LINE
5
C1
100
AcDbEntity
8
SK1
62
256
6
ByLayer
370
13
48
1
60
0
100
AcDbLine
10
-36.7
20
-31.693112
30
0
11
-36.7
21
-30.51674
31
0
39
0
210
0
220
0
230
1
0
LINE
5
C2
100
AcDbEntity
8
SK1
62
256
6
ByLayer
370
18
48
1
60
0
100
AcDbLine
10
-49.9
20
-30.486326
30
0
11
-49.9
21
30.486326
31
0
39
0
210
0
220
0
230
1
0
LINE
5
C3
100
AcDbEntity
8
SK1
62
256
6
ByLayer
370
18
48
1
60
0
100
AcDbLine
10
-2.066987
20
-37.632252
30
0
11
-2.066987
21
37.632252
31
0
39
0
210
0
220
0
230
1
0
LINE
5
C4
100
AcDbEntity
8
SK1
62
256
6
ByLayer
370
18
48
1
60
0
100
AcDbLine
10
-39.8
20
36.013514
30
0
11
-39.8
21
33.731867
31
0
39
0
210
0
220
0
230
1
0
LINE
5
C5
100
AcDbEntity
8
SK1
62
256
6
ByLayer
370
13
48
1
60
0
100
AcDbLine
10
-48.000075
20
32.218019
30
0
11
-48.000075
21
-32.218019
31
0
39
0
210
0
220
0
230
1
0
LINE
5
C6
100
AcDbEntity
8
SK1
62
256
6
ByLayer
370
18
48
1
60
0
100
AcDbLine
10
-34.8
20
-33.855185
30
0
11
-34.8
21
-36.264015
31
0
39
0
210
0
220
0
230
1
0
LINE
5
C7
100
AcDbEntity
8
SK1
62
256
6
ByLayer
370
18
48
1
60
0
100
AcDbLine
10
-2.5
20
-37.882252
30
0
11
-2.5
21
37.882252
31
0
39
0
210
0
220
0
230
1
0
LINE
5
C8
100
AcDbEntity
8
SK1
62
256
6
ByLayer
370
13
48
1
60
0
100
AcDbLine
10
-0.8
20
-37.632252
30
0
11
-0.8
21
37.632252
31
0
39
0
210
0
220
0
230
1
0
LINE
5
C9
100
AcDbEntity
8
1
62
256
6
ByLayer
370
18
48
1
60
0
100
AcDbLine
10
4.95
20
49.965
30
0
11
4.949139
21
49.965
31
0
39
0
210
0
220
0
230
1
0
LINE
5
CA
100
AcDbEntity
8
1
62
256
6
ByLayer
370
18
48
1
60
0
100
AcDbLine
10
4.949139
20
49.965
30
0
11
4.948785
21
49.965
31
0
39
0
210
0
220
0
230
1
0
LINE
5
CB
100
AcDbEntity
8
1
62
256
6
ByLayer
370
18
48
1
60
0
100
AcDbLine
10
36.124598
20
23.8
30
0
11
34.95
21
23.8
31
0
39
0
210
0
220
0
230
1
0
LINE
5
CC
100
AcDbEntity
8
1
62
256
6
ByLayer
370
18
48
1
60
0
100
AcDbLine
10
34.95
20
-23.8
30
0
11
36.124598
21
-23.8
31
0
39
0
210
0
220
0
230
1
0
LINE
5
CD
100
AcDbEntity
8
1
62
256
6
ByLayer
370
18
48
1
60
0
100
AcDbLine
10
36.95
20
-24
30
0
11
95
21
-24
31
0
39
0
210
0
220
0
230
1
0
LINE
5
CE
100
AcDbEntity
8
1
62
256
6
ByLayer
370
18
48
1
60
0
100
AcDbLine
10
95
20
24
30
0
11
36.95
21
24
31
0
39
0
210
0
220
0
230
1
0
LINE
5
CF
100
AcDbEntity
8
1
62
256
6
ByLayer
370
18
48
1
60
0
100
AcDbLine
10
100
20
19
30
0
11
95
21
24
31
0
39
0
210
0
220
0
230
1
0
LINE
5
D0
100
AcDbEntity
8
1
62
256
6
ByLayer
370
18
48
1
60
0
100
AcDbLine
10
95
20
-24
30
0
11
100
21
-19
31
0
39
0
210
0
220
0
230
1
0
LINE
5
D1
100
AcDbEntity
8
1
62
256
6
ByLayer
370
18
48
1
60
0
100
AcDbLine
10
36.27989
20
-23.820445
30
0
11
36.95
21
-24
31
0
39
0
210
0
220
0
230
1
0
LINE
5
D2
100
AcDbEntity
8
1
62
256
6
ByLayer
370
18
48
1
60
0
100
AcDbLine
10
36.95
20
24
30
0
11
36.27989
21
23.820445
31
0
39
0
210
0
220
0
230
1
0
LINE
5
D3
100
AcDbEntity
8
1
62
256
6
ByLayer
370
18
48
1
60
0
100
AcDbLine
10
0
20
-49.265
30
0
11
0.7
21
-49.965
31
0
39
0
210
0
220
0
230
1
0
LINE
5
D4
100
AcDbEntity
8
1
62
256
6
ByLayer
370
18
48
1
60
0
100
AcDbLine
10
0.7
20
49.965
30
0
11
0
21
49.265
31
0
39
0
210
0
220
0
230
1
0
LINE
5
D5
100
AcDbEntity
8
1
62
256
6
ByLayer
370
18
48
1
60
0
100
AcDbLine
10
4.948785
20
49.965
30
0
11
0.7
21
49.965
31
0
39
0
210
0
220
0
230
1
0
LINE
5
D6
100
AcDbEntity
8
1
62
256
6
ByLayer
370
18
48
1
60
0
100
AcDbLine
10
0.7
20
-49.965
30
0
11
4.95
21
-49.965
31
0
39
0
210
0
220
0
230
1
0
LINE
5
D7
100
AcDbEntity
8
1
62
256
6
ByLayer
370
18
48
1
60
0
100
AcDbLine
10
52.149641
20
-19.997311
30
0
11
52.261844
21
-19.942984
31
0
39
0
210
0
220
0
230
1
0
LINE
5
D8
100
AcDbEntity
8
1
62
256
6
ByLayer
370
18
48
1
60
0
100
AcDbLine
10
49.738156
20
-19.942984
30
0
11
49.850359
21
-19.997311
31
0
39
0
210
0
220
0
230
1
0
LINE
5
D9
100
AcDbEntity
8
1
62
256
6
ByLayer
370
18
48
1
60
0
100
AcDbLine
10
49.850359
20
19.997311
30
0
11
49.738156
21
19.942984
31
0
39
0
210
0
220
0
230
1
0
LINE
5
DA
100
AcDbEntity
8
1
62
256
6
ByLayer
370
18
48
1
60
0
100
AcDbLine
10
52.261844
20
19.942984
30
0
11
52.149641
21
19.997311
31
0
39
0
210
0
220
0
230
1
0
LINE
5
DB
100
AcDbEntity
8
1
62
256
6
ByLayer
370
18
48
1
60
0
100
AcDbLine
10
52.149641
20
-19.997311
30
0
11
52.261844
21
-19.942984
31
0
39
0
210
0
220
0
230
1
0
LINE
5
DC
100
AcDbEntity
8
1
62
256
6
ByLayer
370
18
48
1
60
0
100
AcDbLine
10
49.738156
20
-19.942984
30
0
11
49.850359
21
-19.997311
31
0
39
0
210
0
220
0
230
1
0
LINE
5
DD
100
AcDbEntity
8
1
62
256
6
ByLayer
370
18
48
1
60
0
100
AcDbLine
10
49.850359
20
19.997311
30
0
11
49.738156
21
19.942984
31
0
39
0
210
0
220
0
230
1
0
LINE
5
DE
100
AcDbEntity
8
1
62
256
6
ByLayer
370
18
48
1
60
0
100
AcDbLine
10
52.261844
20
19.942984
30
0
11
52.149641
21
19.997311
31
0
39
0
210
0
220
0
230
1
0
LINE
5
DF
100
AcDbEntity
8
SK1
62
256
6
ByLayer
370
18
48
1
60
0
100
AcDbLine
10
-41.7
20
32.225
30
0
11
-48.25
21
32.225
31
0
39
0
210
0
220
0
230
1
0
LINE
5
E0
100
AcDbEntity
8
SK1
62
256
6
ByLayer
370
18
48
1
60
0
100
AcDbLine
10
-49.849203
20
-30.625797
30
0
11
-48.25
21
-32.225
31
0
39
0
210
0
220
0
230
1
0
LINE
5
E1
100
AcDbEntity
8
SK1
62
256
6
ByLayer
370
18
48
1
60
0
100
AcDbLine
10
-48.25
20
32.225
30
0
11
-49.849203
21
30.625797
31
0
39
0
210
0
220
0
230
1
0
LINE
5
E2
100
AcDbEntity
8
SK1
62
256
6
ByLayer
370
18
48
1
60
0
100
AcDbLine
10
-48.25
20
-32.225
30
0
11
-36.7
21
-32.225
31
0
39
0
210
0
220
0
230
1
0
LINE
5
E3
100
AcDbEntity
8
SK1
62
256
6
ByLayer
370
18
48
1
60
0
100
AcDbLine
10
-0.8
20
37.632252
30
0
11
-2.066987
21
37.632252
31
0
39
0
210
0
220
0
230
1
0
LINE
5
E4
100
AcDbEntity
8
SK1
62
256
6
ByLayer
370
18
48
1
60
0
100
AcDbLine
10
-2.066987
20
-37.632252
30
0
11
-0.8
21
-37.632252
31
0
39
0
210
0
220
0
230
1
0
LINE
5
E5
100
AcDbEntity
8
SK1
62
256
6
ByLayer
370
18
48
1
60
0
100
AcDbLine
10
-2.066987
20
37.632252
30
0
11
-2.5
21
37.882252
31
0
39
0
210
0
220
0
230
1
0
LINE
5
E6
100
AcDbEntity
8
SK1
62
256
6
ByLayer
370
18
48
1
60
0
100
AcDbLine
10
-2.5
20
-37.882252
30
0
11
-2.066987
21
-37.632252
31
0
39
0
210
0
220
0
230
1
0
LINE
5
E7
100
AcDbEntity
8
SK1
62
256
6
ByLayer
370
18
48
1
60
0
100
AcDbLine
10
-34.8
20
-36.264015
30
0
11
-21.480951
21
-36.931302
31
0
39
0
210
0
220
0
230
1
0
LINE
5
E8
100
AcDbEntity
8
SK1
62
256
6
ByLayer
370
18
48
1
60
0
100
AcDbLine
10
-7.82303
20
-37.615567
30
0
11
-2.5
21
-37.882252
31
0
39
0
210
0
220
0
230
1
0
LINE
5
E9
100
AcDbEntity
8
SK1
62
256
6
ByLayer
370
18
48
1
60
0
100
AcDbLine
10
-2.5
20
37.882252
30
0
11
-7.833372
21
37.615048
31
0
39
0
210
0
220
0
230
1
0
LINE
5
EA
100
AcDbEntity
8
SK1
62
256
6
ByLayer
370
18
48
1
60
0
100
AcDbLine
10
-21.490774
20
36.93081
30
0
11
-39.8
21
36.013514
31
0
39
0
210
0
220
0
230
1
0
LINE
5
EB
100
AcDbEntity
8
1
62
256
6
ByLayer
370
18
48
1
60
0
100
AcDbLine
10
100.04783
20
9.898994
30
0
11
99.999999
21
9.989253
31
0
39
0
210
0
220
0
230
1
0
LINE
5
EC
100
AcDbEntity
8
1
62
256
6
ByLayer
370
18
48
1
60
0
100
AcDbLine
10
99.999999
20
-9.989253
30
0
11
100.04783
21
-9.898994
31
0
39
0
210
0
220
0
230
1
0
LINE
5
ED
100
AcDbEntity
8
1
62
256
6
ByLayer
370
18
48
1
60
0
100
AcDbLine
10
100.04783
20
9.898994
30
0
11
99.999999
21
9.989253
31
0
39
0
210
0
220
0
230
1
0
LINE
5
EE
100
AcDbEntity
8
1
62
256
6
ByLayer
370
18
48
1
60
0
100
AcDbLine
10
49.850359
20
19.997311
30
0
11
49.738156
21
19.942984
31
0
39
0
210
0
220
0
230
1
0
LINE
5
EF
100
AcDbEntity
8
1
62
256
6
ByLayer
370
18
48
1
60
0
100
AcDbLine
10
52.261844
20
19.942984
30
0
11
52.149641
21
19.997311
31
0
39
0
210
0
220
0
230
1
0
LINE
5
F0
100
AcDbEntity
8
SK2
62
256
6
ByLayer
370
18
48
1
60
0
100
AcDbLine
10
126.835242
20
24
30
0
11
126.835242
21
-24
31
0
39
0
210
0
220
0
230
1
0
LINE
5
F2
100
AcDbEntity
8
SK2
62
256
6
ByLayer
370
18
48
1
60
0
100
AcDbLine
10
96.5875
20
-24
30
0
11
128.835242
21
-24
31
0
39
0
210
0
220
0
230
1
0
LINE
5
F3
100
AcDbEntity
8
SK2
62
256
6
ByLayer
370
18
48
1
60
0
100
AcDbLine
10
96.5875
20
24
30
0
11
128.835242
21
24
31
0
39
0
210
0
220
0
230
1
0
LINE
5
F4
100
AcDbEntity
8
1
62
256
6
ByLayer
370
18
48
1
60
1
100
AcDbLine
10
126.835242
20
-24
30
0
11
126.374458
21
-20.500002
31
0
39
0
210
0
220
0
230
1
0
LINE
5
F5
100
AcDbEntity
8
1
62
256
6
ByLayer
370
18
48
1
60
1
100
AcDbLine
10
126.374458
20
-20.500002
30
0
11
127.296025
21
-20.499998
31
0
39
0
210
0
220
0
230
1
0
LINE
5
F6
100
AcDbEntity
8
1
62
256
6
ByLayer
370
18
48
1
60
1
100
AcDbLine
10
127.296025
20
-20.499998
30
0
11
126.835242
21
-24
31
0
39
0
210
0
220
0
230
1
0
LINE
5
F7
100
AcDbEntity
8
1
62
256
6
ByLayer
370
18
48
1
60
1
100
AcDbLine
10
126.835242
20
24
30
0
11
127.296025
21
20.500002
31
0
39
0
210
0
220
0
230
1
0
LINE
5
F8
100
AcDbEntity
8
1
62
256
6
ByLayer
370
18
48
1
60
1
100
AcDbLine
10
127.296025
20
20.500002
30
0
11
126.374458
21
20.499998
31
0
39
0
210
0
220
0
230
1
0
LINE
5
F9
100
AcDbEntity
8
1
62
256
6
ByLayer
370
18
48
1
60
1
100
AcDbLine
10
126.374458
20
20.499998
30
0
11
126.835242
21
24
31
0
39
0
210
0
220
0
230
1
0
LINE
5
FA
100
AcDbEntity
8
SK2
62
256
6
ByLayer
370
18
48
1
60
0
100
AcDbLine
10
-66.875025
20
-49.965
30
0
11
-66.875025
21
49.965
31
0
39
0
210
0
220
0
230
1
0
LINE
5
FB
100
AcDbEntity
8
SK2
62
256
6
ByLayer
370
18
48
1
60
0
100
AcDbLine
10
-0.8875
20
49.965
30
0
11
-68.875025
21
49.965
31
0
39
0
210
0
220
0
230
1
0
LINE
5
FC
100
AcDbEntity
8
SK2
62
256
6
ByLayer
370
18
48
1
60
0
100
AcDbLine
10
-0.8875
20
-49.965
30
0
11
-68.875025
21
-49.965
31
0
39
0
210
0
220
0
230
1
0
LINE
5
FD
100
AcDbEntity
8
1
62
256
6
ByLayer
370
18
48
1
60
1
100
AcDbLine
10
-66.875025
20
49.965
30
0
11
-66.414241
21
46.465002
31
0
39
0
210
0
220
0
230
1
0
LINE
5
FE
100
AcDbEntity
8
1
62
256
6
ByLayer
370
18
48
1
60
1
100
AcDbLine
10
-66.414241
20
46.465002
30
0
11
-67.335809
21
46.464998
31
0
39
0
210
0
220
0
230
1
0
LINE
5
FF
100
AcDbEntity
8
1
62
256
6
ByLayer
370
18
48
1
60
1
100
AcDbLine
10
-67.335809
20
46.464998
30
0
11
-66.875025
21
49.965
31
0
39
0
210
0
220
0
230
1
0
LINE
5
100
100
AcDbEntity
8
1
62
256
6
ByLayer
370
18
48
1
60
1
100
AcDbLine
10
-66.875025
20
-49.965
30
0
11
-67.335809
21
-46.465002
31
0
39
0
210
0
220
0
230
1
0
LINE
5
101
100
AcDbEntity
8
1
62
256
6
ByLayer
370
18
48
1
60
1
100
AcDbLine
10
-67.335809
20
-46.465002
30
0
11
-66.414241
21
-46.464998
31
0
39
0
210
0
220
0
230
1
0
LINE
5
102
100
AcDbEntity
8
1
62
256
6
ByLayer
370
18
48
1
60
1
100
AcDbLine
10
-66.414241
20
-46.464998
30
0
11
-66.875025
21
-49.965
31
0
39
0
210
0
220
0
230
1
0
LINE
5
103
100
AcDbEntity
8
2
62
256
6
ByLayer
370
18
48
1
60
0
100
AcDbLine
10
28.95
20
62.815
30
0
11
100
21
62.815
31
0
39
0
210
0
220
0
230
1
0
LINE
5
104
100
AcDbEntity
8
2
62
256
6
ByLayer
370
18
48
1
60
0
100
AcDbLine
10
100
20
20.5875
30
0
11
100
21
64.815
31
0
39
0
210
0
220
0
230
1
0
LINE
5
105
100
AcDbEntity
8
2
62
256
6
ByLayer
370
18
48
1
60
0
100
AcDbLine
10
28.95
20
49.822547
30
0
11
28.95
21
64.815
31
0
39
0
210
0
220
0
230
1
0
LINE
5
106
100
AcDbEntity
8
1
62
256
6
ByLayer
370
18
48
1
60
1
100
AcDbLine
10
100
20
62.815
30
0
11
96.500002
21
62.354216
31
0
39
0
210
0
220
0
230
1
0
LINE
5
107
100
AcDbEntity
8
1
62
256
6
ByLayer
370
18
48
1
60
1
100
AcDbLine
10
96.500002
20
62.354216
30
0
11
96.499998
21
63.275784
31
0
39
0
210
0
220
0
230
1
0
LINE
5
108
100
AcDbEntity
8
1
62
256
6
ByLayer
370
18
48
1
60
1
100
AcDbLine
10
96.499998
20
63.275784
30
0
11
100
21
62.815
31
0
39
0
210
0
220
0
230
1
0
LINE
5
109
100
AcDbEntity
8
1
62
256
6
ByLayer
370
18
48
1
60
1
100
AcDbLine
10
28.95
20
62.815
30
0
11
32.449998
21
63.275784
31
0
39
0
210
0
220
0
230
1
0
LINE
5
10A
100
AcDbEntity
8
1
62
256
6
ByLayer
370
18
48
1
60
1
100
AcDbLine
10
32.449998
20
63.275784
30
0
11
32.450002
21
62.354216
31
0
39
0
210
0
220
0
230
1
0
LINE
5
10B
100
AcDbEntity
8
1
62
256
6
ByLayer
370
18
48
1
60
1
100
AcDbLine
10
32.450002
20
62.354216
30
0
11
28.95
21
62.815
31
0
39
0
210
0
220
0
230
1
0
LINE
5
10C
100
AcDbEntity
8
SK2
62
256
6
ByLayer
370
18
48
1
60
0
100
AcDbLine
10
100
20
72.815
30
0
11
0
21
72.815
31
0
39
0
210
0
220
0
230
1
0
LINE
5
10D
100
AcDbEntity
8
SK2
62
256
6
ByLayer
370
18
48
1
60
0
100
AcDbLine
10
0
20
50.8525
30
0
11
0
21
74.815
31
0
39
0
210
0
220
0
230
1
0
LINE
5
10E
100
AcDbEntity
8
SK2
62
256
6
ByLayer
370
18
48
1
60
0
100
AcDbLine
10
100
20
20.5875
30
0
11
100
21
74.815
31
0
39
0
210
0
220
0
230
1
0
LINE
5
10F
100
AcDbEntity
8
1
62
256
6
ByLayer
370
18
48
1
60
1
100
AcDbLine
10
0
20
72.815
30
0
11
3.499998
21
73.275784
31
0
39
0
210
0
220
0
230
1
0
LINE
5
110
100
AcDbEntity
8
1
62
256
6
ByLayer
370
18
48
1
60
1
100
AcDbLine
10
3.499998
20
73.275784
30
0
11
3.500002
21
72.354216
31
0
39
0
210
0
220
0
230
1
0
LINE
5
111
100
AcDbEntity
8
1
62
256
6
ByLayer
370
18
48
1
60
1
100
AcDbLine
10
3.500002
20
72.354216
30
0
11
0
21
72.815
31
0
39
0
210
0
220
0
230
1
0
LINE
5
112
100
AcDbEntity
8
1
62
256
6
ByLayer
370
18
48
1
60
1
100
AcDbLine
10
100
20
72.815
30
0
11
96.500002
21
72.354216
31
0
39
0
210
0
220
0
230
1
0
LINE
5
113
100
AcDbEntity
8
1
62
256
6
ByLayer
370
18
48
1
60
1
100
AcDbLine
10
96.500002
20
72.354216
30
0
11
96.499998
21
73.275784
31
0
39
0
210
0
220
0
230
1
0
LINE
5
114
100
AcDbEntity
8
1
62
256
6
ByLayer
370
18
48
1
60
1
100
AcDbLine
10
96.499998
20
73.275784
30
0
11
100
21
72.815
31
0
39
0
210
0
220
0
230
1
0
LINE
5
115
100
AcDbEntity
8
SK2
62
256
6
ByLayer
370
18
48
1
60
0
100
AcDbLine
10
-49.9
20
72.815
30
0
11
0
21
72.815
31
0
39
0
210
0
220
0
230
1
0
LINE
5
116
100
AcDbEntity
8
SK2
62
256
6
ByLayer
370
18
48
1
60
0
100
AcDbLine
10
0
20
50.8525
30
0
11
0
21
74.815
31
0
39
0
210
0
220
0
230
1
0
LINE
5
117
100
AcDbEntity
8
SK2
62
256
6
ByLayer
370
18
48
1
60
0
100
AcDbLine
10
-49.9
20
32.073826
30
0
11
-49.9
21
74.815
31
0
39
0
210
0
220
0
230
1
0
LINE
5
118
100
AcDbEntity
8
1
62
256
6
ByLayer
370
18
48
1
60
1
100
AcDbLine
10
0
20
72.815
30
0
11
-3.499998
21
72.354216
31
0
39
0
210
0
220
0
230
1
0
LINE
5
119
100
AcDbEntity
8
1
62
256
6
ByLayer
370
18
48
1
60
1
100
AcDbLine
10
-3.499998
20
72.354216
30
0
11
-3.500002
21
73.275784
31
0
39
0
210
0
220
0
230
1
0
LINE
5
11A
100
AcDbEntity
8
1
62
256
6
ByLayer
370
18
48
1
60
1
100
AcDbLine
10
-3.500002
20
73.275784
30
0
11
0
21
72.815
31
0
39
0
210
0
220
0
230
1
0
LINE
5
11B
100
AcDbEntity
8
1
62
256
6
ByLayer
370
18
48
1
60
1
100
AcDbLine
10
-49.9
20
72.815
30
0
11
-46.400002
21
73.275784
31
0
39
0
210
0
220
0
230
1
0
LINE
5
11C
100
AcDbEntity
8
1
62
256
6
ByLayer
370
18
48
1
60
1
100
AcDbLine
10
-46.400002
20
73.275784
30
0
11
-46.399998
21
72.354216
31
0
39
0
210
0
220
0
230
1
0
LINE
5
11D
100
AcDbEntity
8
1
62
256
6
ByLayer
370
18
48
1
60
1
100
AcDbLine
10
-46.399998
20
72.354216
30
0
11
-49.9
21
72.815
31
0
39
0
210
0
220
0
230
1
0
LINE
5
196
100
AcDbEntity
8
1
62
256
6
ByLayer
370
18
48
1
60
1
100
AcDbLine
10
126.835242
20
-24
30
0
11
126.374458
21
-20.500002
31
0
39
0
210
0
220
0
230
1
0
LINE
5
197
100
AcDbEntity
8
1
62
256
6
ByLayer
370
18
48
1
60
1
100
AcDbLine
10
126.374458
20
-20.500002
30
0
11
127.296025
21
-20.499998
31
0
39
0
210
0
220
0
230
1
0
LINE
5
198
100
AcDbEntity
8
1
62
256
6
ByLayer
370
18
48
1
60
1
100
AcDbLine
10
127.296025
20
-20.499998
30
0
11
126.835242
21
-24
31
0
39
0
210
0
220
0
230
1
0
LINE
5
19A
100
AcDbEntity
8
1
62
256
6
ByLayer
370
18
48
1
60
1
100
AcDbLine
10
126.835242
20
24
30
0
11
127.296025
21
20.500002
31
0
39
0
210
0
220
0
230
1
0
LINE
5
19B
100
AcDbEntity
8
1
62
256
6
ByLayer
370
18
48
1
60
1
100
AcDbLine
10
127.296025
20
20.500002
30
0
11
126.374458
21
20.499998
31
0
39
0
210
0
220
0
230
1
0
LINE
5
19C
100
AcDbEntity
8
1
62
256
6
ByLayer
370
18
48
1
60
1
100
AcDbLine
10
126.374458
20
20.499998
30
0
11
126.835242
21
24
31
0
39
0
210
0
220
0
230
1
0
LINE
5
1A0
100
AcDbEntity
8
1
62
256
6
ByLayer
370
18
48
1
60
1
100
AcDbLine
10
-66.875025
20
49.965
30
0
11
-66.414241
21
46.465002
31
0
39
0
210
0
220
0
230
1
0
LINE
5
1A1
100
AcDbEntity
8
1
62
256
6
ByLayer
370
18
48
1
60
1
100
AcDbLine
10
-66.414241
20
46.465002
30
0
11
-67.335809
21
46.464998
31
0
39
0
210
0
220
0
230
1
0
LINE
5
1A2
100
AcDbEntity
8
1
62
256
6
ByLayer
370
18
48
1
60
1
100
AcDbLine
10
-67.335809
20
46.464998
30
0
11
-66.875025
21
49.965
31
0
39
0
210
0
220
0
230
1
0
LINE
5
1A4
100
AcDbEntity
8
1
62
256
6
ByLayer
370
18
48
1
60
1
100
AcDbLine
10
-66.875025
20
-49.965
30
0
11
-67.335809
21
-46.465002
31
0
39
0
210
0
220
0
230
1
0
LINE
5
1A5
100
AcDbEntity
8
1
62
256
6
ByLayer
370
18
48
1
60
1
100
AcDbLine
10
-67.335809
20
-46.465002
30
0
11
-66.414241
21
-46.464998
31
0
39
0
210
0
220
0
230
1
0
LINE
5
1A6
100
AcDbEntity
8
1
62
256
6
ByLayer
370
18
48
1
60
1
100
AcDbLine
10
-66.414241
20
-46.464998
30
0
11
-66.875025
21
-49.965
31
0
39
0
210
0
220
0
230
1
0
LINE
5
1A9
100
AcDbEntity
8
1
62
256
6
ByLayer
370
18
48
1
60
1
100
AcDbLine
10
100
20
62.815
30
0
11
96.500002
21
62.354216
31
0
39
0
210
0
220
0
230
1
0
LINE
5
1AA
100
AcDbEntity
8
1
62
256
6
ByLayer
370
18
48
1
60
1
100
AcDbLine
10
96.500002
20
62.354216
30
0
11
96.499998
21
63.275784
31
0
39
0
210
0
220
0
230
1
0
LINE
5
1AB
100
AcDbEntity
8
1
62
256
6
ByLayer
370
18
48
1
60
1
100
AcDbLine
10
96.499998
20
63.275784
30
0
11
100
21
62.815
31
0
39
0
210
0
220
0
230
1
0
LINE
5
1AD
100
AcDbEntity
8
1
62
256
6
ByLayer
370
18
48
1
60
1
100
AcDbLine
10
28.95
20
62.815
30
0
11
32.449998
21
63.275784
31
0
39
0
210
0
220
0
230
1
0
LINE
5
1AE
100
AcDbEntity
8
1
62
256
6
ByLayer
370
18
48
1
60
1
100
AcDbLine
10
32.449998
20
63.275784
30
0
11
32.450002
21
62.354216
31
0
39
0
210
0
220
0
230
1
0
LINE
5
1AF
100
AcDbEntity
8
1
62
256
6
ByLayer
370
18
48
1
60
1
100
AcDbLine
10
32.450002
20
62.354216
30
0
11
28.95
21
62.815
31
0
39
0
210
0
220
0
230
1
0
LINE
5
1B2
100
AcDbEntity
8
1
62
256
6
ByLayer
370
18
48
1
60
1
100
AcDbLine
10
0
20
72.815
30
0
11
3.499998
21
73.275784
31
0
39
0
210
0
220
0
230
1
0
LINE
5
1B3
100
AcDbEntity
8
1
62
256
6
ByLayer
370
18
48
1
60
1
100
AcDbLine
10
3.499998
20
73.275784
30
0
11
3.500002
21
72.354216
31
0
39
0
210
0
220
0
230
1
0
LINE
5
1B4
100
AcDbEntity
8
1
62
256
6
ByLayer
370
18
48
1
60
1
100
AcDbLine
10
3.500002
20
72.354216
30
0
11
0
21
72.815
31
0
39
0
210
0
220
0
230
1
0
LINE
5
1B6
100
AcDbEntity
8
1
62
256
6
ByLayer
370
18
48
1
60
1
100
AcDbLine
10
100
20
72.815
30
0
11
96.500002
21
72.354216
31
0
39
0
210
0
220
0
230
1
0
LINE
5
1B7
100
AcDbEntity
8
1
62
256
6
ByLayer
370
18
48
1
60
1
100
AcDbLine
10
96.500002
20
72.354216
30
0
11
96.499998
21
73.275784
31
0
39
0
210
0
220
0
230
1
0
LINE
5
1B8
100
AcDbEntity
8
1
62
256
6
ByLayer
370
18
48
1
60
1
100
AcDbLine
10
96.499998
20
73.275784
30
0
11
100
21
72.815
31
0
39
0
210
0
220
0
230
1
0
LINE
5
1BB
100
AcDbEntity
8
1
62
256
6
ByLayer
370
18
48
1
60
1
100
AcDbLine
10
0
20
72.815
30
0
11
-3.499998
21
72.354216
31
0
39
0
210
0
220
0
230
1
0
LINE
5
1BC
100
AcDbEntity
8
1
62
256
6
ByLayer
370
18
48
1
60
1
100
AcDbLine
10
-3.499998
20
72.354216
30
0
11
-3.500002
21
73.275784
31
0
39
0
210
0
220
0
230
1
0
LINE
5
1BD
100
AcDbEntity
8
1
62
256
6
ByLayer
370
18
48
1
60
1
100
AcDbLine
10
-3.500002
20
73.275784
30
0
11
0
21
72.815
31
0
39
0
210
0
220
0
230
1
0
LINE
5
1BF
100
AcDbEntity
8
1
62
256
6
ByLayer
370
18
48
1
60
1
100
AcDbLine
10
-49.9
20
72.815
30
0
11
-46.400002
21
73.275784
31
0
39
0
210
0
220
0
230
1
0
LINE
5
1C0
100
AcDbEntity
8
1
62
256
6
ByLayer
370
18
48
1
60
1
100
AcDbLine
10
-46.400002
20
73.275784
30
0
11
-46.399998
21
72.354216
31
0
39
0
210
0
220
0
230
1
0
LINE
5
1C1
100
AcDbEntity
8
1
62
256
6
ByLayer
370
18
48
1
60
1
100
AcDbLine
10
-46.399998
20
72.354216
30
0
11
-49.9
21
72.815
31
0
39
0
210
0
220
0
230
1
0
MTEXT
5
192
100
AcDbEntity
8
SK2
62
256
6
ByLayer
370
18
48
1
60
0
100
AcDbMText
10
125.270608
20
-4.714889
30
0
210
0
220
0
230
1
1
%%c
40
3.5
41
0
44
1.084337
50
90
71
7
72
5
7
iso_b_vert
0
MTEXT
5
195
100
AcDbEntity
8
SK2
62
256
6
ByLayer
370
18
48
1
60
0
100
AcDbMText
10
125.270608
20
2.257767
30
0
210
0
220
0
230
1
1
\W0.7361;48
40
3.5
41
0
44
1.084337
50
90
71
7
72
5
7
iso_b_vert
0
MTEXT
5
19E
100
AcDbEntity
8
SK2
62
256
6
ByLayer
370
18
48
1
60
0
100
AcDbMText
10
-68.439659
20
-5.400922
30
0
210
0
220
0
230
1
1
%%c
40
3.5
41
0
44
1.084337
50
90
71
7
72
5
7
iso_b_vert
0
MTEXT
5
19F
100
AcDbEntity
8
SK2
62
256
6
ByLayer
370
18
48
1
60
0
100
AcDbMText
10
-68.439659
20
1.571734
30
0
210
0
220
0
230
1
1
\W0.6217;100
40
3.5
41
0
44
1.084337
50
90
71
7
72
5
7
iso_b_vert
0
MTEXT
5
1A8
100
AcDbEntity
8
2
62
256
6
ByLayer
370
18
48
1
60
0
100
AcDbMText
10
63.007467
20
63.847634
30
0
210
0
220
0
230
1
1
\W0.6351;71
40
3.5
41
0
44
1.084337
50
0
71
7
72
5
7
iso_b_vert
0
MTEXT
5
1B1
100
AcDbEntity
8
SK2
62
256
6
ByLayer
370
18
48
1
60
0
100
AcDbMText
10
47.224734
20
73.847634
30
0
210
0
220
0
230
1
1
\W0.6217;100
40
3.5
41
0
44
1.084337
50
0
71
7
72
5
7
iso_b_vert
0
MTEXT
5
1BA
100
AcDbEntity
8
SK2
62
256
6
ByLayer
370
18
48
1
60
0
100
AcDbMText
10
-29.055966
20
73.847634
30
0
210
0
220
0
230
1
1
\W0.7756;49.9
40
3.5
41
0
44
1.084337
50
0
71
7
72
5
7
iso_b_vert
0
MTEXT
5
1C3
100
AcDbEntity
8
SK6
62
256
6
ByLayer
370
18
48
1
60
0
100
AcDbMText
10
55.18194
20
-92.114886
30
0
210
0
220
0
230
1
1
\W0.7411;HA10-WE16-B048-100
40
3
41
0
44
1.084337
50
0
71
7
72
5
7
iso_b_vert
0
HATCH
5
199
100
AcDbEntity
8
SK2
62
256
6
ByLayer
370
13
48
1
60
0
100
AcDbHatch
10
0
20
0
30
0
210
0
220
0
230
1
2
ANSI31
70
0
71
0
91
1
92
5
93
3
72
1
10
126.835241627749
20
-23.9999999999999
11
126.374457886196
21
-20.5000016925531
72
1
10
126.374457886196
20
-20.5000016925531
11
127.296025369301
21
-20.4999983074467
72
1
10
127.296025369301
20
-20.4999983074467
11
126.835241627749
21
-23.9999999999999
97
0
75
0
76
1
52
0
41
0.0062
77
0
78
1
53
45
43
0
44
0
45
-0.0139193969876572
46
0.0139193969876572
79
0
47
0
98
1
10
0
20
0
0
HATCH
5
19D
100
AcDbEntity
8
SK2
62
256
6
ByLayer
370
13
48
1
60
0
100
AcDbHatch
10
0
20
0
30
0
210
0
220
0
230
1
2
ANSI31
70
0
71
0
91
1
92
5
93
3
72
1
10
126.835241627749
20
24.0000000000001
11
127.296025369301
21
20.5000016925533
72
1
10
127.296025369301
20
20.5000016925533
11
126.374457886196
21
20.4999983074469
72
1
10
126.374457886196
20
20.4999983074469
11
126.835241627749
21
24.0000000000001
97
0
75
0
76
1
52
0
41
0.0062
77
0
78
1
53
45
43
0
44
0
45
-0.0139193969876572
46
0.0139193969876572
79
0
47
0
98
1
10
0
20
0
0
HATCH
5
1A3
100
AcDbEntity
8
SK2
62
256
6
ByLayer
370
13
48
1
60
0
100
AcDbHatch
10
0
20
0
30
0
210
0
220
0
230
1
2
ANSI31
70
0
71
0
91
1
92
5
93
3
72
1
10
-66.8750250000001
20
49.965
11
-66.4142412584473
21
46.4650016925532
72
1
10
-66.4142412584473
20
46.4650016925532
11
-67.3358087415528
21
46.4649983074468
72
1
10
-67.3358087415528
20
46.4649983074468
11
-66.8750250000001
21
49.965
97
0
75
0
76
1
52
0
41
0.0062
77
0
78
1
53
45
43
0
44
0
45
-0.0139193969876572
46
0.0139193969876572
79
0
47
0
98
1
10
0
20
0
0
HATCH
5
1A7
100
AcDbEntity
8
SK2
62
256
6
ByLayer
370
13
48
1
60
0
100
AcDbHatch
10
0
20
0
30
0
210
0
220
0
230
1
2
ANSI31
70
0
71
0
91
1
92
5
93
3
72
1
10
-66.8750250000001
20
-49.965
11
-67.3358087415528
21
-46.4650016925532
72
1
10
-67.3358087415528
20
-46.4650016925532
11
-66.4142412584473
21
-46.4649983074468
72
1
10
-66.4142412584473
20
-46.4649983074468
11
-66.8750250000001
21
-49.965
97
0
75
0
76
1
52
0
41
0.0062
77
0
78
1
53
45
43
0
44
0
45
-0.0139193969876572
46
0.0139193969876572
79
0
47
0
98
1
10
0
20
0
0
HATCH
5
1AC
100
AcDbEntity
8
2
62
256
6
ByLayer
370
13
48
1
60
0
100
AcDbHatch
10
0
20
0
30
0
210
0
220
0
230
1
2
ANSI31
70
0
71
0
91
1
92
5
93
3
72
1
10
100
20
62.8150000000001
11
96.5000016925532
21
62.3542162584473
72
1
10
96.5000016925532
20
62.3542162584473
11
96.4999983074468
21
63.2757837415529
72
1
10
96.4999983074468
20
63.2757837415529
11
100
21
62.8150000000001
97
0
75
0
76
1
52
0
41
0.0062
77
0
78
1
53
45
43
0
44
0
45
-0.0139193969876572
46
0.0139193969876572
79
0
47
0
98
1
10
0
20
0
0
HATCH
5
1B0
100
AcDbEntity
8
2
62
256
6
ByLayer
370
13
48
1
60
0
100
AcDbHatch
10
0
20
0
30
0
210
0
220
0
230
1
2
ANSI31
70
0
71
0
91
1
92
5
93
3
72
1
10
28.95
20
62.8150000000001
11
32.4499983074468
21
63.2757837415529
72
1
10
32.4499983074468
20
63.2757837415529
11
32.4500016925532
21
62.3542162584473
72
1
10
32.4500016925532
20
62.3542162584473
11
28.95
21
62.8150000000001
97
0
75
0
76
1
52
0
41
0.0062
77
0
78
1
53
45
43
0
44
0
45
-0.0139193969876572
46
0.0139193969876572
79
0
47
0
98
1
10
0
20
0
0
HATCH
5
1B5
100
AcDbEntity
8
SK2
62
256
6
ByLayer
370
13
48
1
60
0
100
AcDbHatch
10
0
20
0
30
0
210
0
220
0
230
1
2
ANSI31
70
0
71
0
91
1
92
5
93
3
72
1
10
0
20
72.8150000000001
11
3.4999983074468
21
73.2757837415529
72
1
10
3.4999983074468
20
73.2757837415529
11
3.50000169255317
21
72.3542162584473
72
1
10
3.50000169255317
20
72.3542162584473
11
0
21
72.8150000000001
97
0
75
0
76
1
52
0
41
0.0062
77
0
78
1
53
45
43
0
44
0
45
-0.0139193969876572
46
0.0139193969876572
79
0
47
0
98
1
10
0
20
0
0
HATCH
5
1B9
100
AcDbEntity
8
SK2
62
256
6
ByLayer
370
13
48
1
60
0
100
AcDbHatch
10
0
20
0
30
0
210
0
220
0
230
1
2
ANSI31
70
0
71
0
91
1
92
5
93
3
72
1
10
100
20
72.8150000000001
11
96.5000016925532
21
72.3542162584473
72
1
10
96.5000016925532
20
72.3542162584473
11
96.4999983074468
21
73.2757837415529
72
1
10
96.4999983074468
20
73.2757837415529
11
100
21
72.8150000000001
97
0
75
0
76
1
52
0
41
0.0062
77
0
78
1
53
45
43
0
44
0
45
-0.0139193969876572
46
0.0139193969876572
79
0
47
0
98
1
10
0
20
0
0
HATCH
5
1BE
100
AcDbEntity
8
SK2
62
256
6
ByLayer
370
13
48
1
60
0
100
AcDbHatch
10
0
20
0
30
0
210
0
220
0
230
1
2
ANSI31
70
0
71
0
91
1
92
5
93
3
72
1
10
0
20
72.8150000000001
11
-3.4999983074468
21
72.3542162584473
72
1
10
-3.4999983074468
20
72.3542162584473
11
-3.5000016925532
21
73.2757837415529
72
1
10
-3.5000016925532
20
73.2757837415529
11
0
21
72.8150000000001
97
0
75
0
76
1
52
0
41
0.0062
77
0
78
1
53
45
43
0
44
0
45
-0.0139193969876572
46
0.0139193969876572
79
0
47
0
98
1
10
0
20
0
0
HATCH
5
1C2
100
AcDbEntity
8
SK2
62
256
6
ByLayer
370
13
48
1
60
0
100
AcDbHatch
10
0
20
0
30
0
210
0
220
0
230
1
2
ANSI31
70
0
71
0
91
1
92
5
93
3
72
1
10
-49.9
20
72.8150000000001
11
-46.4000016925532
21
73.2757837415529
72
1
10
-46.4000016925532
20
73.2757837415529
11
-46.3999983074468
21
72.3542162584473
72
1
10
-46.3999983074468
20
72.3542162584473
11
-49.9
21
72.8150000000001
97
0
75
0
76
1
52
0
41
0.0062
77
0
78
1
53
45
43
0
44
0
45
-0.0139193969876572
46
0.0139193969876572
79
0
47
0
98
1
10
0
20
0
0
ENDSEC
0
SECTION
2
OBJECTS
0
DICTIONARY
5
231
330
0
100
AcDbDictionary
280
0
281
1
3
ACAD_GROUP
350
232
3
ACAD_MLINESTYLE
350
233
0
DICTIONARY
5
232
330
0
100
AcDbDictionary
280
0
281
1
0
DICTIONARY
5
233
330
0
100
AcDbDictionary
280
0
281
1
3
Standard
350
18
0
MLINESTYLE
5
18
330
233
100
AcDbMlineStyle
2
Standard
70
0
3

62
256
51
90
52
90
71
2
49
-0.5
62
256
6
ByLayer
49
0.5
62
256
6
ByLayer
0
RASTERVARIABLES
5
220
330

100
AcDbRasterVariables
90
0
70
1
71
1
72
1
0
ENDSEC
0
EOF
