0
SECTION
2
HEADER
9
$ACADVER
1
AC1015
9
$DWGCODEPAGE
3
ANSI_1252
9
$HANDSEED
5
258
9
$ANGBASE
50
0
9
$ANGDIR
70
0
9
$ATTMODE
70
1
9
$AUNITS
70
0
9
$AUPREC
70
0
9
$CECOLOR
62
256
9
$CELTSCALE
40
1
9
$CELTYPE
6
ByLayer
9
$CELWEIGHT
370
18
9
$CLAYER
8
0
9
$CMLJUST
70
0
9
$CMLSCALE
40
1
9
$CMLSTYLE
2
Standard
9
$DIMSTYLE
2
Standard
9
$TEXTSIZE
40
0.2
9
$TEXTSTYLE
7
Standard
9
$LUNITS
70
2
9
$LUPREC
70
4
9
$EXTNAMES
290
1
9
$INSUNITS
70
4
9
$LTSCALE
40
1
9
$LWDISPLAY
290
1
9
$PDMODE
70
0
9
$PDSIZE
40
0
9
$PLINEGEN
70
0
0
ENDSEC
0
SECTION
2
CLASSES
0
CLASS
1
RASTERVARIABLES
2
AcDbRasterVariables
3
ISM
90
0
280
0
281
0
0
ENDSEC
0
SECTION
2
TABLES
0
TABLE
2
VPORT
5
24e
100
AcDbSymbolTable
0
VPORT
5
1
100
AcDbSymbolTableRecord
100
AcDbViewportTableRecord
2
*Active
70
0
10
0
20
0
11
1
21
1
12
-1
22
1
13
0
23
0
14
0.5
24
0.5
15
10
25
10
16
0
26
0
36
1
17
0
27
0
37
0
0
ENDTAB
0
TABLE
2
LTYPE
5
24f
100
AcDbSymbolTable
0
LTYPE
5
14
100
AcDbSymbolTableRecord
100
AcDbLinetypeTableRecord
70
0
2
ByBlock
3

72
65
73
0
40
0
0
LTYPE
5
15
100
AcDbSymbolTableRecord
100
AcDbLinetypeTableRecord
70
0
2
ByLayer
3

72
65
73
0
40
0
0
LTYPE
5
16
100
AcDbSymbolTableRecord
100
AcDbLinetypeTableRecord
70
0
2
Continuous
3
Solid line
72
65
73
0
40
0
0
LTYPE
5
6E
100
AcDbSymbolTableRecord
100
AcDbLinetypeTableRecord
70
0
2
CENTER
3
____ _ ____ _ ____ _ ____
72
65
73
4
40
47.5
49
22
74
0
49
-8.5
74
0
49
8.5
74
0
49
-8.5
74
0
0
LTYPE
5
6F
100
AcDbSymbolTableRecord
100
AcDbLinetypeTableRecord
70
0
2
DASHED
3
__ __ __ __ __ __ __ __ __
72
65
73
2
40
25.72
49
12.86
74
0
49
-12.86
74
0
0
ENDTAB
0
TABLE
2
LAYER
5
250
100
AcDbSymbolTable
0
LAYER
5
10
100
AcDbSymbolTableRecord
100
AcDbLayerTableRecord
2
0
70
0
62
7
6
Continuous
290
1
370
-3
390
0
0
LAYER
5
71
100
AcDbSymbolTableRecord
100
AcDbLayerTableRecord
2
2
70
0
62
7
6
Continuous
290
1
370
-3
390
0
0
LAYER
5
84
100
AcDbSymbolTableRecord
100
AcDbLayerTableRecord
2
81
70
0
62
-3
6
Continuous
290
1
370
-3
390
0
0
LAYER
5
86
100
AcDbSymbolTableRecord
100
AcDbLayerTableRecord
2
80
70
0
62
-6
6
Continuous
290
1
370
-3
390
0
0
LAYER
5
88
100
AcDbSymbolTableRecord
100
AcDbLayerTableRecord
2
4
70
0
62
-2
6
CENTER
290
1
370
-3
390
0
0
LAYER
5
8C
100
AcDbSymbolTableRecord
100
AcDbLayerTableRecord
2
1
70
0
62
4
6
Continuous
290
1
370
-3
390
0
0
LAYER
5
23b
100
AcDbSymbolTableRecord
100
AcDbLayerTableRecord
2
SK1
70
0
62
4
6
Continuous
290
1
370
-3
390
0
0
LAYER
5
23c
100
AcDbSymbolTableRecord
100
AcDbLayerTableRecord
2
SK2
70
0
62
7
6
Continuous
290
1
370
-3
390
0
0
LAYER
5
23d
100
AcDbSymbolTableRecord
100
AcDbLayerTableRecord
2
SK6
70
0
62
5
6
Continuous
290
1
370
-3
390
0
0
ENDTAB
0
TABLE
2
STYLE
5
251
100
AcDbSymbolTable
0
STYLE
5
11
100
AcDbSymbolTableRecord
100
AcDbTextStyleTableRecord
2
Standard
3
txt
70
0
71
0
40
0
41
1
42
0
50
0
0
STYLE
5
1AD
100
AcDbSymbolTableRecord
100
AcDbTextStyleTableRecord
2
iso_b_vert
3
simplex.shx
70
0
71
0
40
0
41
1
42
0
50
0
0
STYLE
5
1AE
100
AcDbSymbolTableRecord
100
AcDbTextStyleTableRecord
2
DWGDirectTextStyle
3
simplex
70
0
71
0
40
0
41
1
42
0
50
0
0
ENDTAB
0
TABLE
2
DIMSTYLE
5
252
100
AcDbSymbolTable
100
AcDbDimStyleTable
0
DIMSTYLE
105
27
100
AcDbSymbolTableRecord
100
AcDbDimStyleTableRecord
2
Standard
70
0
3
<>
41
0.18
42
0.0625
44
0.18
140
0.18
147
0.09
73
0
74
0
77
1
271
2
275
0
278
52
280
0
340
11
0
ENDTAB
0
TABLE
2
VIEW
5
253
100
AcDbSymbolTable
0
ENDTAB
0
TABLE
2
UCS
5
254
100
AcDbSymbolTable
0
ENDTAB
0
TABLE
2
APPID
5
255
100
AcDbSymbolTable
0
APPID
5
12
100
AcDbSymbolTableRecord
100
AcDbRegAppTableRecord
2
ACAD
70
0
0
APPID
5
237
100
AcDbSymbolTableRecord
100
AcDbRegAppTableRecord
2
ACAD_MLEADERVER
70
0
0
ENDTAB
0
TABLE
2
BLOCK_RECORD
5
256
100
AcDbSymbolTable
0
BLOCK_RECORD
5
1F
100
AcDbSymbolTableRecord
100
AcDbBlockTableRecord
2
*Model_Space
340
0
70
0
0
BLOCK_RECORD
5
1B
100
AcDbSymbolTableRecord
100
AcDbBlockTableRecord
2
*Paper_Space
340
0
70
0
0
BLOCK_RECORD
5
23
100
AcDbSymbolTableRecord
100
AcDbBlockTableRecord
2
*Paper_Space0
340
0
70
0
0
ENDTAB
0
ENDSEC
0
SECTION
2
BLOCKS
0
BLOCK
5
20
100
AcDbEntity
8
0
100
AcDbBlockBegin
2
*Model_Space
70
0
10
0
20
0
30
0
3
*Model_Space
0
ENDBLK
5
21
100
AcDbEntity
8
0
100
AcDbBlockEnd
0
BLOCK
5
1C
100
AcDbEntity
8
0
100
AcDbBlockBegin
2
*Paper_Space
70
0
10
0
20
0
30
0
3
*Paper_Space
0
ENDBLK
5
1D
100
AcDbEntity
8
0
100
AcDbBlockEnd
0
BLOCK
5
24
100
AcDbEntity
8
0
100
AcDbBlockBegin
2
*Paper_Space0
70
0
10
0
20
0
30
0
3
*Paper_Space0
0
ENDBLK
5
25
100
AcDbEntity
8
0
100
AcDbBlockEnd
0
ENDSEC
0
SECTION
2
ENTITIES
0
ARC
5
122
100
AcDbEntity
8
SK2
62
256
6
ByLayer
370
18
48
1
60
0
100
AcDbCircle
39
0
10
57.5
20
0
30
0
40
3.46410161513756
210
0
220
0
230
1
100
AcDbArc
50
330
51
30
0
ARC
5
123
100
AcDbEntity
8
SK2
62
256
6
ByLayer
370
18
48
1
60
0
100
AcDbCircle
39
0
10
57.5
20
0
30
0
40
3.46410161513756
210
0
220
0
230
1
100
AcDbArc
50
150
51
210
0
ARC
5
124
100
AcDbEntity
8
SK2
62
256
6
ByLayer
370
18
48
1
60
0
100
AcDbCircle
39
0
10
57.5
20
0
30
0
40
3.46410161513756
210
0
220
0
230
1
100
AcDbArc
50
30
51
90
0
ARC
5
125
100
AcDbEntity
8
SK2
62
256
6
ByLayer
370
18
48
1
60
0
100
AcDbCircle
39
0
10
57.5
20
0
30
0
40
3.46410161513756
210
0
220
0
230
1
100
AcDbArc
50
210
51
270
0
ARC
5
126
100
AcDbEntity
8
SK2
62
256
6
ByLayer
370
18
48
1
60
0
100
AcDbCircle
39
0
10
57.5
20
0
30
0
40
3.46410161513756
210
0
220
0
230
1
100
AcDbArc
50
90
51
150
0
ARC
5
127
100
AcDbEntity
8
SK2
62
256
6
ByLayer
370
18
48
1
60
0
100
AcDbCircle
39
0
10
57.5
20
0
30
0
40
3.46410161513756
210
0
220
0
230
1
100
AcDbArc
50
270
51
330
0
ARC
5
128
100
AcDbEntity
8
1
62
256
6
ByLayer
370
18
48
1
60
0
100
AcDbCircle
39
0
10
27.624598
20
21.4
30
0
40
0.599999999999998
210
0
220
0
230
1
100
AcDbArc
50
270
51
285
0
ARC
5
129
100
AcDbEntity
8
1
62
256
6
ByLayer
370
18
48
1
60
0
100
AcDbCircle
39
0
10
27.624598
20
-21.4
30
0
40
0.599999999999998
210
0
220
0
230
1
100
AcDbArc
50
75
51
90
0
ARC
5
12A
100
AcDbEntity
8
1
62
256
6
ByLayer
370
18
48
1
60
0
100
AcDbCircle
39
0
10
26.95
20
21.8
30
0
40
1
210
0
220
0
230
1
100
AcDbArc
50
180
51
270
0
ARC
5
12B
100
AcDbEntity
8
1
62
256
6
ByLayer
370
18
48
1
60
0
100
AcDbCircle
39
0
10
26.95
20
-21.8
30
0
40
1
210
0
220
0
230
1
100
AcDbArc
50
90
51
180
0
ARC
5
12C
100
AcDbEntity
8
SK1
62
256
6
ByLayer
370
18
48
1
60
0
100
AcDbCircle
39
0
10
-27.2
20
22.245
30
0
40
1.4
210
0
220
0
230
1
100
AcDbArc
50
270
51
304.922922
0
ARC
5
12D
100
AcDbEntity
8
SK1
62
256
6
ByLayer
370
18
48
1
60
0
100
AcDbCircle
39
0
10
-23.2
20
-22.245
30
0
40
1.4
210
0
220
0
230
1
100
AcDbArc
50
40.841223
51
90
0
ARC
5
12E
100
AcDbEntity
8
SK1
62
256
6
ByLayer
370
18
48
1
60
0
100
AcDbCircle
39
0
10
-0.45
20
24.570431
30
0
40
0.600000000000001
210
0
220
0
230
1
100
AcDbArc
50
270
51
318.590378
0
ARC
5
12F
100
AcDbEntity
8
SK1
62
256
6
ByLayer
370
18
48
1
60
0
100
AcDbCircle
39
0
10
-0.45
20
-24.570431
30
0
40
0.600000000000001
210
0
220
0
230
1
100
AcDbArc
50
41.409622
51
90
0
ARC
5
130
100
AcDbEntity
8
1
62
256
6
ByLayer
370
18
48
1
60
0
100
AcDbCircle
39
0
10
35
20
16.827876
30
0
40
1.52
210
0
220
0
230
1
100
AcDbArc
50
46.85064
51
133.143775
0
CIRCLE
5
121
100
AcDbEntity
8
SK2
62
256
6
ByLayer
370
18
48
1
60
0
100
AcDbCircle
10
57.5
20
0
30
0
40
3.96410161513756
39
0
210
0
220
0
230
1
0
ELLIPSE
5
131
100
AcDbEntity
8
1
62
256
6
ByLayer
370
18
48
1
60
0
100
AcDbEllipse
10
35
20
-18.605037
30
0
11
-2.00000000000004
21
-6.43257148935663E-16
31
0
210
0
220
0
230
1
40
0.438371
41
-0.409388675326053
42
0
0
ELLIPSE
5
132
100
AcDbEntity
8
1
62
256
6
ByLayer
370
18
48
1
60
0
100
AcDbEllipse
10
35
20
-18.605037
30
0
11
-2.00000000000004
21
-6.43257148935663E-16
31
0
210
0
220
0
230
1
40
0.438371
41
0
42
1.57079644411115
0
ELLIPSE
5
133
100
AcDbEntity
8
1
62
256
6
ByLayer
370
18
48
1
60
0
100
AcDbEllipse
10
35
20
-18.605037
30
0
11
-2.00000000000004
21
-6.43257148935663E-16
31
0
210
0
220
0
230
1
40
0.438371
41
1.57079647484609
42
-2.70029713543163
0
ELLIPSE
5
134
100
AcDbEntity
8
1
62
256
6
ByLayer
370
18
48
1
60
0
100
AcDbEllipse
10
35
20
18.605037
30
0
11
2.00000000000004
21
0
31
0
210
0
220
0
230
1
40
0.438371
41
-0.409290584979422
42
0
0
ELLIPSE
5
135
100
AcDbEntity
8
1
62
256
6
ByLayer
370
18
48
1
60
0
100
AcDbEllipse
10
35
20
18.605037
30
0
11
2.00000000000004
21
0
31
0
210
0
220
0
230
1
40
0.438371
41
0
42
-2.69990425964627
0
ELLIPSE
5
136
100
AcDbEntity
8
1
62
256
6
ByLayer
370
18
48
1
60
0
100
AcDbEllipse
10
18
20
8.677456
30
0
11
-1.75
21
-5.62850005318694E-16
31
0
210
0
220
0
230
1
40
0.909961
41
-1.57079643071357
42
-1.03289677078831
0
ELLIPSE
5
137
100
AcDbEntity
8
1
62
256
6
ByLayer
370
18
48
1
60
0
100
AcDbEllipse
10
18
20
8.677456
30
0
11
-1.75
21
-5.62850005318694E-16
31
0
210
0
220
0
230
1
40
0.909961
41
-2.10525981430568
42
-1.57079643071357
0
ELLIPSE
5
138
100
AcDbEntity
8
1
62
256
6
ByLayer
370
18
48
1
60
0
100
AcDbEllipse
10
18
20
-8.677456
30
0
11
1.75
21
0
31
0
210
0
220
0
230
1
40
0.909961
41
-2.11291715535362
42
-1.02838029489243
0
ELLIPSE
5
139
100
AcDbEntity
8
1
62
256
6
ByLayer
370
18
48
1
60
0
100
AcDbEllipse
10
18
20
3.992678
30
0
11
-1.75
21
-5.62850005318694E-16
31
0
210
0
220
0
230
1
40
0.981627
41
-1.57079652902395
42
-0.377187843517458
0
ELLIPSE
5
13A
100
AcDbEntity
8
1
62
256
6
ByLayer
370
18
48
1
60
0
100
AcDbEllipse
10
18
20
3.992678
30
0
11
-1.75
21
-5.62850005318694E-16
31
0
210
0
220
0
230
1
40
0.981627
41
-2.78777063552699
42
-1.57079595759539
0
ELLIPSE
5
13B
100
AcDbEntity
8
1
62
256
6
ByLayer
370
18
48
1
60
0
100
AcDbEllipse
10
18
20
-3.992678
30
0
11
1.75
21
0
31
0
210
0
220
0
230
1
40
0.981627
41
-2.77775696100372
42
-0.372278977560744
0
ELLIPSE
5
13C
100
AcDbEntity
8
1
62
256
6
ByLayer
370
18
48
1
60
0
100
AcDbEllipse
10
35
20
-18.373802
30
0
11
-1.44
21
-4.63145147233668E-16
31
0
210
0
220
0
230
1
40
0.438371
41
-0.786575914522615
42
0
0
ELLIPSE
5
13D
100
AcDbEntity
8
1
62
256
6
ByLayer
370
18
48
1
60
0
100
AcDbEllipse
10
35
20
-18.373802
30
0
11
-1.44
21
-4.63145147233668E-16
31
0
210
0
220
0
230
1
40
0.438371
41
0
42
-2.38417447190482
0
ELLIPSE
5
13E
100
AcDbEntity
8
1
62
256
6
ByLayer
370
18
48
1
60
0
100
AcDbEllipse
10
35
20
-18.230542
30
0
11
-1.95620240091251
21
-6.29170589576027E-16
31
0
210
0
220
0
230
1
40
0.438371
41
0.16728984244579
42
0.561265252394026
0
ELLIPSE
5
13F
100
AcDbEntity
8
1
62
256
6
ByLayer
370
18
48
1
60
0
100
AcDbEllipse
10
35
20
-18.230542
30
0
11
-1.95620240091251
21
-6.29170589576027E-16
31
0
210
0
220
0
230
1
40
0.438371
41
2.58032736230976
42
2.97430275667286
0
ELLIPSE
5
140
100
AcDbEntity
8
1
62
256
6
ByLayer
370
18
48
1
60
0
100
AcDbEllipse
10
35
20
-18.373802
30
0
11
1.78225748207288
21
0
31
0
210
0
220
0
230
1
40
0.438371
41
-1.5707964768284
42
0
0
ELLIPSE
5
141
100
AcDbEntity
8
1
62
256
6
ByLayer
370
18
48
1
60
0
100
AcDbEllipse
10
35
20
-18.373802
30
0
11
1.78225748207288
21
0
31
0
210
0
220
0
230
1
40
0.438371
41
0
42
0.227666763188572
0
ELLIPSE
5
142
100
AcDbEntity
8
1
62
256
6
ByLayer
370
18
48
1
60
0
100
AcDbEllipse
10
35
20
-18.373802
30
0
11
1.78225748207288
21
0
31
0
210
0
220
0
230
1
40
0.438371
41
2.93846948352308
42
-1.57079591574225
0
ELLIPSE
5
143
100
AcDbEntity
8
1
62
256
6
ByLayer
370
18
48
1
60
0
100
AcDbEllipse
10
35
20
18.373802
30
0
11
1.44
21
0
31
0
210
0
220
0
230
1
40
0.438371
41
-0.772537123148975
42
0
0
ELLIPSE
5
144
100
AcDbEntity
8
1
62
256
6
ByLayer
370
18
48
1
60
0
100
AcDbEllipse
10
35
20
18.373802
30
0
11
1.44
21
0
31
0
210
0
220
0
230
1
40
0.438371
41
0
42
1.57079611077784
0
ELLIPSE
5
145
100
AcDbEntity
8
1
62
256
6
ByLayer
370
18
48
1
60
0
100
AcDbEllipse
10
35
20
18.373802
30
0
11
1.44
21
0
31
0
210
0
220
0
230
1
40
0.438371
41
1.57079628040156
42
-2.36846617961589
0
ELLIPSE
5
146
100
AcDbEntity
8
1
62
256
6
ByLayer
370
18
48
1
60
0
100
AcDbEllipse
10
35
20
18.373802
30
0
11
-1.78225748207288
21
-5.73224933293715E-16
31
0
210
0
220
0
230
1
40
0.438371
41
2.92747310971609
42
0
0
ELLIPSE
5
147
100
AcDbEntity
8
1
62
256
6
ByLayer
370
18
48
1
60
0
100
AcDbEllipse
10
35
20
18.373802
30
0
11
-1.78225748207288
21
-5.73224933293715E-16
31
0
210
0
220
0
230
1
40
0.438371
41
0
42
0.243768143164149
0
ELLIPSE
5
148
100
AcDbEntity
8
1
62
256
6
ByLayer
370
18
48
1
60
0
100
AcDbEllipse
10
35
20
18.230542
30
0
11
1.95620240091251
21
0
31
0
210
0
220
0
230
1
40
0.438371
41
2.58022967573084
42
2.97420564434662
0
ELLIPSE
5
149
100
AcDbEntity
8
1
62
256
6
ByLayer
370
18
48
1
60
0
100
AcDbEllipse
10
35
20
18.230542
30
0
11
1.95620240091251
21
0
31
0
210
0
220
0
230
1
40
0.438371
41
0.167388058290965
42
0.561363726737695
0
ELLIPSE
5
14A
100
AcDbEntity
8
1
62
256
6
ByLayer
370
18
48
1
60
0
100
AcDbEllipse
10
35
20
-18.373802
30
0
11
-1.44
21
-4.63145147233668E-16
31
0
210
0
220
0
230
1
40
0.438371
41
-0.786575914522615
42
0
0
ELLIPSE
5
14B
100
AcDbEntity
8
1
62
256
6
ByLayer
370
18
48
1
60
0
100
AcDbEllipse
10
35
20
-18.373802
30
0
11
-1.44
21
-4.63145147233668E-16
31
0
210
0
220
0
230
1
40
0.438371
41
0
42
-2.38417447190482
0
ELLIPSE
5
14C
100
AcDbEntity
8
1
62
256
6
ByLayer
370
18
48
1
60
0
100
AcDbEllipse
10
35
20
-18.373802
30
0
11
1.78225748207288
21
0
31
0
210
0
220
0
230
1
40
0.438371
41
-1.5707964768284
42
0
0
ELLIPSE
5
14D
100
AcDbEntity
8
1
62
256
6
ByLayer
370
18
48
1
60
0
100
AcDbEllipse
10
35
20
-18.373802
30
0
11
1.78225748207288
21
0
31
0
210
0
220
0
230
1
40
0.438371
41
0
42
0.227666763188572
0
ELLIPSE
5
14E
100
AcDbEntity
8
1
62
256
6
ByLayer
370
18
48
1
60
0
100
AcDbEllipse
10
35
20
-18.373802
30
0
11
1.78225748207288
21
0
31
0
210
0
220
0
230
1
40
0.438371
41
2.93846948352308
42
-1.57079591574225
0
ELLIPSE
5
14F
100
AcDbEntity
8
1
62
256
6
ByLayer
370
18
48
1
60
0
100
AcDbEllipse
10
35
20
-18.230542
30
0
11
-1.95620240091251
21
-6.29170589576027E-16
31
0
210
0
220
0
230
1
40
0.438371
41
0.16728984244579
42
0.561265252394026
0
ELLIPSE
5
150
100
AcDbEntity
8
1
62
256
6
ByLayer
370
18
48
1
60
0
100
AcDbEllipse
10
35
20
-18.230542
30
0
11
-1.95620240091251
21
-6.29170589576027E-16
31
0
210
0
220
0
230
1
40
0.438371
41
2.58032736230976
42
2.97430275667286
0
ELLIPSE
5
151
100
AcDbEntity
8
1
62
256
6
ByLayer
370
18
48
1
60
0
100
AcDbEllipse
10
35
20
18.373802
30
0
11
1.44
21
0
31
0
210
0
220
0
230
1
40
0.438371
41
-0.772537123148975
42
0
0
ELLIPSE
5
152
100
AcDbEntity
8
1
62
256
6
ByLayer
370
18
48
1
60
0
100
AcDbEllipse
10
35
20
18.373802
30
0
11
1.44
21
0
31
0
210
0
220
0
230
1
40
0.438371
41
0
42
1.57079611077784
0
ELLIPSE
5
153
100
AcDbEntity
8
1
62
256
6
ByLayer
370
18
48
1
60
0
100
AcDbEllipse
10
35
20
18.373802
30
0
11
1.44
21
0
31
0
210
0
220
0
230
1
40
0.438371
41
1.57079628040156
42
-2.36846617961589
0
ELLIPSE
5
154
100
AcDbEntity
8
1
62
256
6
ByLayer
370
18
48
1
60
0
100
AcDbEllipse
10
35
20
18.373802
30
0
11
-1.78225748207288
21
-5.73224933293715E-16
31
0
210
0
220
0
230
1
40
0.438371
41
2.92747310971609
42
0
0
ELLIPSE
5
155
100
AcDbEntity
8
1
62
256
6
ByLayer
370
18
48
1
60
0
100
AcDbEllipse
10
35
20
18.373802
30
0
11
-1.78225748207288
21
-5.73224933293715E-16
31
0
210
0
220
0
230
1
40
0.438371
41
0
42
0.243768143164149
0
ELLIPSE
5
156
100
AcDbEntity
8
1
62
256
6
ByLayer
370
18
48
1
60
0
100
AcDbEllipse
10
35
20
18.230542
30
0
11
1.95620240091251
21
0
31
0
210
0
220
0
230
1
40
0.438371
41
2.58022967573084
42
2.97420564434662
0
ELLIPSE
5
157
100
AcDbEntity
8
1
62
256
6
ByLayer
370
18
48
1
60
0
100
AcDbEllipse
10
35
20
18.230542
30
0
11
1.95620240091251
21
0
31
0
210
0
220
0
230
1
40
0.438371
41
0.167388058290965
42
0.561363726737695
0
ELLIPSE
5
158
100
AcDbEntity
8
SK1
62
256
6
ByLayer
370
13
48
1
60
0
100
AcDbEllipse
10
-23.2
20
-21.778508
30
0
11
1.4
21
0
31
0
210
0
220
0
230
1
40
0.891007
41
1.10550655851979
42
1.5707963267949
0
ELLIPSE
5
159
100
AcDbEntity
8
1
62
256
6
ByLayer
370
18
48
1
60
0
100
AcDbEllipse
10
80
20
-7.639749
30
0
11
-0.0509756193534487
21
1.29900018715608
31
0
210
0
220
0
230
1
40
0.019121
41
-3.10846835470965
42
-2.68818206632871
0
ELLIPSE
5
15A
100
AcDbEntity
8
1
62
256
6
ByLayer
370
18
48
1
60
0
100
AcDbEllipse
10
80
20
-7.639749
30
0
11
-0.0509756193534487
21
1.29900018715608
31
0
210
0
220
0
230
1
40
0.019121
41
-2.68818206632886
42
-1.11738542484526
0
ELLIPSE
5
15B
100
AcDbEntity
8
1
62
256
6
ByLayer
370
18
48
1
60
0
100
AcDbEllipse
10
35
20
18.373802
30
0
11
1.44
21
0
31
0
210
0
220
0
230
1
40
0.438371
41
-0.772537123148975
42
0
0
ELLIPSE
5
15C
100
AcDbEntity
8
1
62
256
6
ByLayer
370
18
48
1
60
0
100
AcDbEllipse
10
35
20
18.373802
30
0
11
1.44
21
0
31
0
210
0
220
0
230
1
40
0.438371
41
0
42
1.57079611077784
0
ELLIPSE
5
15D
100
AcDbEntity
8
1
62
256
6
ByLayer
370
18
48
1
60
0
100
AcDbEllipse
10
35
20
18.373802
30
0
11
1.44
21
0
31
0
210
0
220
0
230
1
40
0.438371
41
1.57079628040157
42
-2.36846617961588
0
ELLIPSE
5
15E
100
AcDbEntity
8
1
62
256
6
ByLayer
370
18
48
1
60
0
100
AcDbEllipse
10
35
20
18.230542
30
0
11
1.95620240091251
21
0
31
0
210
0
220
0
230
1
40
0.438371
41
2.58022967573085
42
2.97420564434663
0
ELLIPSE
5
15F
100
AcDbEntity
8
1
62
256
6
ByLayer
370
18
48
1
60
0
100
AcDbEllipse
10
35
20
18.230542
30
0
11
1.95620240091251
21
0
31
0
210
0
220
0
230
1
40
0.438371
41
0.167388058290974
42
0.5613637267377
0
ELLIPSE
5
160
100
AcDbEntity
8
1
62
256
6
ByLayer
370
18
48
1
60
0
100
AcDbEllipse
10
35
20
18.373802
30
0
11
-1.78225748207288
21
-5.73224933293715E-16
31
0
210
0
220
0
230
1
40
0.438371
41
2.92747310971608
42
0
0
ELLIPSE
5
161
100
AcDbEntity
8
1
62
256
6
ByLayer
370
18
48
1
60
0
100
AcDbEllipse
10
35
20
18.373802
30
0
11
-1.78225748207288
21
-5.73224933293715E-16
31
0
210
0
220
0
230
1
40
0.438371
41
0
42
0.243768143164149
0
ELLIPSE
5
162
100
AcDbEntity
8
1
62
256
6
ByLayer
370
18
48
1
60
0
100
AcDbEllipse
10
80
20
7.639749
30
0
11
0.0509756193534457
21
1.29900018715608
31
0
210
0
220
0
230
1
40
0.019121
41
-2.0242069148233
42
-0.45340994348115
0
ELLIPSE
5
163
100
AcDbEntity
8
1
62
256
6
ByLayer
370
18
48
1
60
0
100
AcDbEllipse
10
80
20
7.639749
30
0
11
0.0509756193534457
21
1.29900018715608
31
0
210
0
220
0
230
1
40
0.019121
41
-0.453409943481113
42
-0.0331169175491997
0
ELLIPSE
5
164
100
AcDbEntity
8
1
62
256
6
ByLayer
370
18
48
1
60
0
100
AcDbEllipse
10
80
20
7.639749
30
0
11
0.0509756193534457
21
1.29900018715608
31
0
210
0
220
0
230
1
40
0.019121
41
-2.0242069148233
42
-0.453409943481113
0
ELLIPSE
5
165
100
AcDbEntity
8
1
62
256
6
ByLayer
370
18
48
1
60
0
100
AcDbEllipse
10
80
20
7.639749
30
0
11
0.0509756193534457
21
1.29900018715608
31
0
210
0
220
0
230
1
40
0.019121
41
-0.453409943481071
42
-0.0331169175490211
0
POINT
5
70
100
AcDbEntity
8
2
62
256
6
ByLayer
370
18
48
1
60
0
100
AcDbPoint
10
80
20
0
30
0
39
0
210
0
220
0
230
1
50
360
0
POINT
5
72
100
AcDbEntity
8
2
62
256
6
ByLayer
370
18
48
1
60
0
100
AcDbPoint
10
35
20
18.874675
30
0
39
0
210
0
220
0
230
1
50
360
0
POINT
5
73
100
AcDbEntity
8
2
62
256
6
ByLayer
370
18
48
1
60
0
100
AcDbPoint
10
80
20
0
30
0
39
0
210
0
220
0
230
1
50
360
0
POINT
5
74
100
AcDbEntity
8
2
62
256
6
ByLayer
370
18
48
1
60
0
100
AcDbPoint
10
35
20
20.672263
30
0
39
0
210
0
220
0
230
1
50
360
0
POINT
5
75
100
AcDbEntity
8
2
62
256
6
ByLayer
370
18
48
1
60
0
100
AcDbPoint
10
32
20
0
30
0
39
0
210
0
220
0
230
1
50
360
0
POINT
5
76
100
AcDbEntity
8
2
62
256
6
ByLayer
370
18
48
1
60
0
100
AcDbPoint
10
57.5
20
0
30
0
39
0
210
0
220
0
230
1
50
360
0
POINT
5
77
100
AcDbEntity
8
2
62
256
6
ByLayer
370
18
48
1
60
0
100
AcDbPoint
10
32
20
0
30
0
39
0
210
0
220
0
230
1
50
360
0
POINT
5
78
100
AcDbEntity
8
2
62
256
6
ByLayer
370
18
48
1
60
0
100
AcDbPoint
10
80
20
7.639749
30
0
39
0
210
0
220
0
230
1
50
360
0
POINT
5
79
100
AcDbEntity
8
2
62
256
6
ByLayer
370
18
48
1
60
0
100
AcDbPoint
10
57.5
20
0
30
0
39
0
210
0
220
0
230
1
50
360
0
POINT
5
7A
100
AcDbEntity
8
2
62
256
6
ByLayer
370
18
48
1
60
0
100
AcDbPoint
10
35
20
18.874675
30
0
39
0
210
0
220
0
230
1
50
360
0
POINT
5
7B
100
AcDbEntity
8
2
62
256
6
ByLayer
370
18
48
1
60
0
100
AcDbPoint
10
57.5
20
0
30
0
39
0
210
0
220
0
230
1
50
360
0
POINT
5
7C
100
AcDbEntity
8
2
62
256
6
ByLayer
370
18
48
1
60
0
100
AcDbPoint
10
80
20
0
30
0
39
0
210
0
220
0
230
1
50
360
0
POINT
5
7D
100
AcDbEntity
8
2
62
256
6
ByLayer
370
18
48
1
60
0
100
AcDbPoint
10
80
20
0
30
0
39
0
210
0
220
0
230
1
50
360
0
POINT
5
7E
100
AcDbEntity
8
2
62
256
6
ByLayer
370
18
48
1
60
0
100
AcDbPoint
10
80
20
0
30
0
39
0
210
0
220
0
230
1
50
360
0
POINT
5
7F
100
AcDbEntity
8
2
62
256
6
ByLayer
370
18
48
1
60
0
100
AcDbPoint
10
80
20
0
30
0
39
0
210
0
220
0
230
1
50
360
0
POINT
5
80
100
AcDbEntity
8
2
62
256
6
ByLayer
370
18
48
1
60
0
100
AcDbPoint
10
0
20
0
30
0
39
0
210
0
220
0
230
1
50
360
0
POINT
5
81
100
AcDbEntity
8
2
62
256
6
ByLayer
370
18
48
1
60
0
100
AcDbPoint
10
25.95
20
0
30
0
39
0
210
0
220
0
230
1
50
360
0
POINT
5
82
100
AcDbEntity
8
2
62
256
6
ByLayer
370
18
48
1
60
0
100
AcDbPoint
10
80
20
0
30
0
39
0
210
0
220
0
230
1
50
360
0
POINT
5
83
100
AcDbEntity
8
81
62
256
6
ByLayer
370
18
48
1
60
0
100
AcDbPoint
10
80
20
0
30
0
39
0
210
0
220
0
230
1
50
360
0
POINT
5
85
100
AcDbEntity
8
80
62
256
6
ByLayer
370
18
48
1
60
0
100
AcDbPoint
10
0
20
0
30
0
39
0
210
0
220
0
230
1
50
360
0
SPLINE
5
166
100
AcDbEntity
8
1
62
256
6
ByLayer
370
18
48
1
60
0
100
AcDbSpline
70
4
71
3
72
8
73
4
40
0
40
0
40
0
40
0
40
1
40
1
40
1
40
1
41
1
10
16.075
20
27.8272318284485
30
0
41
1
10
15.5930118860063
20
28.6960191551286
30
0
41
1
10
15.1097064852051
20
29.5640826443993
30
0
41
1
10
14.6253876765866
20
30.4315723180713
30
0
0
SPLINE
5
167
100
AcDbEntity
8
1
62
256
6
ByLayer
370
18
48
1
60
0
100
AcDbSpline
70
4
71
3
72
8
73
4
40
0
40
0
40
0
40
0
40
1
40
1
40
1
40
1
41
1
10
21.3746123234133
20
30.4315723180713
30
0
41
1
10
20.8902935147948
20
29.5640826443993
30
0
41
1
10
20.4069881139936
20
28.6960191551286
30
0
41
1
10
19.925
20
27.8272318284485
30
0
0
SPLINE
5
168
100
AcDbEntity
8
1
62
256
6
ByLayer
370
18
48
1
60
0
100
AcDbSpline
70
4
71
3
72
12
73
8
40
0
40
0
40
0
40
0
40
0.500000000000001
40
0.500000000000001
40
0.75
40
0.75
40
1
40
1
40
1
40
1
41
1
10
21.3746123234134
20
24.4200409500068
30
0
41
1
10
21.1269480166304
20
23.8672328431859
30
0
41
1
10
20.8820296891945
20
23.313101136971
30
0
41
1
10
20.5193871561882
20
22.47962126342
30
0
41
1
10
20.3992965345052
20
22.2014137408365
30
0
41
1
10
20.1608123241297
20
21.6441807026863
30
0
41
1
10
20.0424022933999
20
21.3651152361162
30
0
41
1
10
19.925
20
21.0858397386544
30
0
0
SPLINE
5
169
100
AcDbEntity
8
1
62
256
6
ByLayer
370
18
48
1
60
0
100
AcDbSpline
70
4
71
3
72
12
73
8
40
0
40
0
40
0
40
0
40
0.250000000000001
40
0.250000000000001
40
0.500000000000001
40
0.500000000000001
40
1
40
1
40
1
40
1
41
1
10
16.075
20
21.0858397386545
30
0
41
1
10
15.9575543463047
20
21.3652183811887
30
0
41
1
10
15.8391567902152
20
21.6442532423245
30
0
41
1
10
15.6006785184763
20
22.2014716575895
30
0
41
1
10
15.4805909149784
20
22.4796718922849
30
0
41
1
10
15.1179575685047
20
23.3131299657863
30
0
41
1
10
14.8730455409432
20
23.8672472232375
30
0
41
1
10
14.6253876765866
20
24.4200409500067
30
0
0
SPLINE
5
16A
100
AcDbEntity
8
1
62
256
6
ByLayer
370
18
48
1
60
0
100
AcDbSpline
70
4
71
3
72
8
73
4
40
0
40
0
40
0
40
0
40
1
40
1
40
1
40
1
41
1
10
25.95
20
29.9142205940586
30
0
41
1
10
25.783382336586
20
30.086718788344
30
0
41
1
10
25.6167148649415
20
30.2591685807661
30
0
41
1
10
25.45
20
30.4315723180713
30
0
0
SPLINE
5
16B
100
AcDbEntity
8
1
62
256
6
ByLayer
370
18
48
1
60
0
100
AcDbSpline
70
4
71
3
72
8
73
4
40
0
40
0
40
0
40
0
40
1
40
1
40
1
40
1
41
1
10
25.95
20
23.7722190802626
30
0
41
1
10
25.7839428389179
20
23.9885552271468
30
0
41
1
10
25.6172335326702
20
24.2045278276533
30
0
41
1
10
25.4499999999999
20
24.4200409500067
30
0
0
SPLINE
5
16C
100
AcDbEntity
8
1
62
256
6
ByLayer
370
18
48
1
60
0
100
AcDbSpline
70
2053
71
3
72
149
73
145
40
0
40
0
40
0
40
0
40
0.0156249999999975
40
0.0312499999999951
40
0.0468749999999926
40
0.0468749999999926
40
0.0546874999999913
40
0.0546874999999913
40
0.06249999999999
40
0.06249999999999
40
0.0937499999999872
40
0.0937499999999872
40
0.101562499999986
40
0.101562499999986
40
0.109374999999985
40
0.109374999999985
40
0.124999999999983
40
0.124999999999983
40
0.156249999999979
40
0.156249999999979
40
0.160156249999978
40
0.160156249999978
40
0.164062499999977
40
0.171874999999976
40
0.171874999999976
40
0.187499999999977
40
0.203124999999978
40
0.203124999999978
40
0.210937499999979
40
0.210937499999979
40
0.21874999999998
40
0.21874999999998
40
0.249999999999982
40
0.249999999999982
40
0.265624999999982
40
0.265624999999982
40
0.273437499999981
40
0.273437499999981
40
0.281249999999981
40
0.281249999999981
40
0.29687499999998
40
0.312499999999979
40
0.312499999999979
40
0.328124999999979
40
0.328124999999979
40
0.343749999999978
40
0.359374999999977
40
0.374999999999976
40
0.374999999999976
40
0.378906249999976
40
0.378906249999976
40
0.382812499999976
40
0.382812499999976
40
0.390624999999977
40
0.390624999999977
40
0.406249999999978
40
0.421874999999978
40
0.421874999999978
40
0.429687499999979
40
0.429687499999979
40
0.437499999999979
40
0.437499999999979
40
0.45312499999998
40
0.46874999999998
40
0.46874999999998
40
0.47656249999998
40
0.47656249999998
40
0.48437499999998
40
0.48437499999998
40
0.49999999999998
40
0.515624999999979
40
0.515624999999979
40
0.523437499999979
40
0.523437499999979
40
0.531249999999979
40
0.531249999999979
40
0.546874999999979
40
0.546874999999979
40
0.562499999999979
40
0.578124999999979
40
0.578124999999979
40
0.582031249999978
40
0.582031249999978
40
0.585937499999977
40
0.585937499999977
40
0.593749999999977
40
0.593749999999977
40
0.624999999999976
40
0.624999999999976
40
0.632812499999975
40
0.632812499999975
40
0.640624999999974
40
0.640624999999974
40
0.656249999999971
40
0.656249999999971
40
0.687499999999968
40
0.687499999999968
40
0.695312499999968
40
0.695312499999968
40
0.699218749999968
40
0.699218749999968
40
0.703124999999968
40
0.718749999999968
40
0.734374999999969
40
0.74999999999997
40
0.74999999999997
40
0.75781249999997
40
0.75781249999997
40
0.765624999999971
40
0.765624999999971
40
0.781249999999973
40
0.796874999999975
40
0.796874999999975
40
0.804687499999976
40
0.808593749999976
40
0.808593749999976
40
0.812499999999976
40
0.812499999999976
40
0.828124999999978
40
0.84374999999998
40
0.84374999999998
40
0.859374999999982
40
0.859374999999982
40
0.867187499999982
40
0.867187499999982
40
0.874999999999983
40
0.874999999999983
40
0.890624999999985
40
0.906249999999987
40
0.906249999999987
40
0.914062499999988
40
0.914062499999988
40
0.921874999999988
40
0.921874999999988
40
0.93749999999999
40
0.953124999999991
40
0.953124999999991
40
0.960937499999993
40
0.960937499999993
40
0.968749999999994
40
0.968749999999994
40
0.984374999999997
40
0.984374999999997
40
1
40
1
40
1
40
1
41
1
10
33.242812146462
20
19.4499967435921
30
0
41
1
10
33.2919808782244
20
19.4709124072537
30
0
41
1
10
33.3950997416075
20
19.5101862858538
30
0
41
1
10
33.5635187497731
20
19.5620439101134
30
0
41
1
10
33.6848339950093
20
19.5921708179783
30
0
41
1
10
33.779261387011
20
19.6131443384109
30
0
41
1
10
33.8111365755608
20
19.6198251383802
30
0
41
1
10
33.8754950544435
20
19.6325548031214
30
0
41
1
10
33.9080062316145
20
19.6386098592672
30
0
41
1
10
34.0721916531473
20
19.667389912237
30
0
41
1
10
34.2087097422652
20
19.6856777322475
30
0
41
1
10
34.3858009194469
20
19.7029652576574
30
0
41
1
10
34.4215441201635
20
19.7061411599839
30
0
41
1
10
34.493691394679
20
19.7119264131362
30
0
41
1
10
34.5298504631268
20
19.7145158699233
30
0
41
1
10
34.6384362544156
20
19.7213907839749
30
0
41
1
10
34.7110343204072
20
19.7247904212384
30
0
41
1
10
34.9294367222643
20
19.731560066555
30
0
41
1
10
35.0758437373202
20
19.7315407440221
30
0
41
1
10
35.2414894693976
20
19.7262400526169
30
0
41
1
10
35.2599265676628
20
19.7255760222162
30
0
41
1
10
35.2966491993641
20
19.7241052090319
30
0
41
1
10
35.3515571205922
20
19.7216834362862
30
0
41
1
10
35.4059425768647
20
19.7186202670595
30
0
41
1
10
35.5140265739426
20
19.7116448184124
30
0
41
1
10
35.6563094756425
20
19.700083690419
30
0
41
1
10
35.7949615711576
20
19.6839489491327
30
0
41
1
10
35.8975615436069
20
19.670053120991
30
0
41
1
10
35.9315296235227
20
19.6651214208585
30
0
41
1
10
35.9989922953831
20
19.6546370482449
30
0
41
1
10
36.0325741290557
20
19.6490680698315
30
0
41
1
10
36.1977699114065
20
19.6198751713871
30
0
41
1
10
36.3218184713927
20
19.5922068555178
30
0
41
1
10
36.4958761360591
20
19.5437822143794
30
0
41
1
10
36.5518789441259
20
19.5264786330095
30
0
41
1
10
36.6327434893449
20
19.4986390754562
30
0
41
1
10
36.6592081724629
20
19.4890314105606
30
0
41
1
10
36.7109103423525
20
19.4692108762386
30
0
41
1
10
36.7359948832309
20
19.459058028043
30
0
41
1
10
36.8089825783051
20
19.4278638844355
30
0
41
1
10
36.900266652891
20
19.3843119886775
30
0
41
1
10
36.9795707759172
20
19.3366788677889
30
0
41
1
10
37.0527470891191
20
19.2868678250463
30
0
41
1
10
37.0862811414504
20
19.2608661672914
30
0
41
1
10
37.1468504765914
20
19.2065132159056
30
0
41
1
10
37.1998251056403
20
19.150798275291
30
0
41
1
10
37.2570935634521
20
19.0630497207258
30
0
41
1
10
37.2804330938246
20
19.0016605248133
30
0
41
1
10
37.2902241822859
20
18.9623386118097
30
0
41
1
10
37.2919419964701
20
18.9544264718038
30
0
41
1
10
37.2948903566305
20
18.9385051006983
30
0
41
1
10
37.2961204090341
20
18.9304924161356
30
0
41
1
10
37.2990552264364
20
18.9064585162417
30
0
41
1
10
37.3000156675484
20
18.8903921989562
30
0
41
1
10
37.2999680855791
20
18.8420637457177
30
0
41
1
10
37.2921087915994
20
18.7772799101958
30
0
41
1
10
37.268921081974
20
18.7118361605367
30
0
41
1
10
37.2457062246546
20
18.6625253862316
30
0
41
1
10
37.2369954583674
20
18.6460505484428
30
0
41
1
10
37.2175934980686
20
18.6130293706042
30
0
41
1
10
37.2069579207562
20
18.5965824232704
30
0
41
1
10
37.1724475618237
20
18.547649908457
30
0
41
1
10
37.1194008697762
20
18.483309758529
30
0
41
1
10
37.0527245499443
20
18.4208450646433
30
0
41
1
10
36.9976145157192
20
18.3747561187903
30
0
41
1
10
36.9783924599933
20
18.3595200482029
30
0
41
1
10
36.9382263104318
20
18.3293151447656
30
0
41
1
10
36.9172515017391
20
18.3143295428785
30
0
41
1
10
36.8524334808276
20
18.2702746420196
30
0
41
1
10
36.760571410722
20
18.2136139995436
30
0
41
1
10
36.658248207385
20
18.1611307397728
30
0
41
1
10
36.577620088277
20
18.123388938635
30
0
41
1
10
36.5500952361145
20
18.111078927055
30
0
41
1
10
36.493739798883
20
18.0870150698949
30
0
41
1
10
36.4648798955394
20
18.0752498513
30
0
41
1
10
36.3765011857562
20
18.0408895363762
30
0
41
1
10
36.3158688852019
20
18.019487885699
30
0
41
1
10
36.1913250144802
20
17.9796502344769
30
0
41
1
10
36.0635010173195
20
17.9427791295717
30
0
41
1
10
35.9292120132842
20
17.9119067563542
30
0
41
1
10
35.8432336743342
20
17.8945538453422
30
0
41
1
10
35.8259353952938
20
17.8911805688396
30
0
41
1
10
35.7911320090879
20
17.8846311002811
30
0
41
1
10
35.7736077365374
20
17.881451754218
30
0
41
1
10
35.7209674943838
20
17.8722553292525
30
0
41
1
10
35.6857284137166
20
17.8665681490152
30
0
41
1
10
35.5088204473356
20
17.8403201458782
30
0
41
1
10
35.3650330555548
20
17.8262734648033
30
0
41
1
10
35.182517171015
20
17.817426319502
30
0
41
1
10
35.1458737267255
20
17.8160955238919
30
0
41
1
10
35.0723026303104
20
17.8143242337726
30
0
41
1
10
35.035333514019
20
17.8138837867818
30
0
41
1
10
34.9242575646951
20
17.8139252226344
30
0
41
1
10
34.8507765751079
20
17.8157626128473
30
0
41
1
10
34.6319887771615
20
17.8265208067646
30
0
41
1
10
34.4883224843486
20
17.8406493477567
30
0
41
1
10
34.3115292596824
20
17.8669998751393
30
0
41
1
10
34.2763112796541
20
17.8727075679171
30
0
41
1
10
34.2236999620129
20
17.881935084437
30
0
41
1
10
34.2061818226117
20
17.8851254181339
30
0
41
1
10
34.1713943250641
20
17.8916958833754
30
0
41
1
10
34.0849584458193
20
17.9086133215625
30
0
41
1
10
33.9341022011189
20
17.943405328181
30
0
41
1
10
33.7428789115378
20
17.998700304391
30
0
41
1
10
33.6220816005399
20
18.0414124102448
30
0
41
1
10
33.5340926706078
20
18.0756637810368
30
0
41
1
10
33.5051236966351
20
18.0874847979389
30
0
41
1
10
33.44863681913
20
18.1116365790723
30
0
41
1
10
33.4210795582507
20
18.1239794741884
30
0
41
1
10
33.3404407242901
20
18.161781991216
30
0
41
1
10
33.2383356581456
20
18.2142449825507
30
0
41
1
10
33.1470254613354
20
18.2706324732922
30
0
41
1
10
33.0827011620069
20
18.3143664348865
30
0
41
1
10
33.0515803343349
20
18.3365948795778
30
0
41
1
10
33.0220616728755
20
18.3593669914123
30
0
41
1
10
33.0027442425362
20
18.3746697721864
30
0
41
1
10
32.993256114114
20
18.3823909168599
30
0
41
1
10
32.9469995587647
20
18.4210768141707
30
0
41
1
10
32.8801744519192
20
18.4837631329092
30
0
41
1
10
32.8274217747609
20
18.5478422112756
30
0
41
1
10
32.7817682237517
20
18.6125601873539
30
0
41
1
10
32.7624901636749
20
18.6452386074735
30
0
41
1
10
32.7391100532817
20
18.694717634796
30
0
41
1
10
32.7322272751125
20
18.7113366963104
30
0
41
1
10
32.7204873513736
20
18.7443637572325
30
0
41
1
10
32.7156124625565
20
18.7607963938556
30
0
41
1
10
32.7039213306094
20
18.8098510113588
30
0
41
1
10
32.6961421869633
20
18.8746083158351
30
0
41
1
10
32.7037950682737
20
18.9380628312286
30
0
41
1
10
32.7154284421696
20
18.985163863335
30
0
41
1
10
32.7202903495628
20
19.0007825709734
30
0
41
1
10
32.7320236245455
20
19.0318565687951
30
0
41
1
10
32.7388537431557
20
19.0471976915219
30
0
41
1
10
32.7621126076308
20
19.0925289160835
30
0
41
1
10
32.8005317312919
20
19.1512394055835
30
0
41
1
10
32.8533460345408
20
19.2066829978096
30
0
41
1
10
32.8983616256074
20
19.2470886424497
30
0
41
1
10
32.9142693055618
20
19.260360763968
30
0
41
1
10
32.9479113690245
20
19.2865171993886
30
0
41
1
10
32.9656605825278
20
19.2994068668475
30
0
41
1
10
33.0211276476595
20
19.337136141354
30
0
41
1
10
33.0612158119252
20
19.3611672295338
30
0
41
1
10
33.147457074476
20
19.4071328228217
30
0
41
1
10
33.1936434146995
20
19.4290810799305
30
0
41
1
10
33.242812146462
20
19.4499967435921
30
0
0
SPLINE
5
16D
100
AcDbEntity
8
1
62
256
6
ByLayer
370
18
48
1
60
0
100
AcDbSpline
70
2053
71
3
72
209
73
205
40
0
40
0
40
0
40
0
40
0.0156250000000017
40
0.0156250000000017
40
0.0312500000000035
40
0.0312500000000035
40
0.0468750000000052
40
0.0468750000000052
40
0.0546875000000059
40
0.0546875000000059
40
0.0585937500000062
40
0.0585937500000062
40
0.0625000000000066
40
0.0625000000000066
40
0.078125000000008
40
0.078125000000008
40
0.0937500000000094
40
0.0937500000000094
40
0.10156250000001
40
0.10156250000001
40
0.105468750000011
40
0.105468750000011
40
0.109375000000011
40
0.109375000000011
40
0.125000000000012
40
0.125000000000012
40
0.140625000000014
40
0.140625000000014
40
0.156250000000015
40
0.156250000000015
40
0.164062500000016
40
0.164062500000016
40
0.171875000000017
40
0.171875000000017
40
0.187500000000018
40
0.187500000000018
40
0.195312500000019
40
0.195312500000019
40
0.19921875000002
40
0.19921875000002
40
0.20312500000002
40
0.20312500000002
40
0.218750000000022
40
0.218750000000022
40
0.234375000000023
40
0.234375000000023
40
0.238281250000024
40
0.238281250000024
40
0.242187500000024
40
0.242187500000024
40
0.250000000000024
40
0.250000000000024
40
0.265625000000025
40
0.265625000000025
40
0.281250000000026
40
0.281250000000026
40
0.285156250000026
40
0.285156250000026
40
0.289062500000026
40
0.289062500000026
40
0.296875000000026
40
0.296875000000026
40
0.312500000000027
40
0.312500000000027
40
0.328125000000027
40
0.328125000000027
40
0.335937500000027
40
0.335937500000027
40
0.339843750000027
40
0.339843750000027
40
0.343750000000027
40
0.343750000000027
40
0.359375000000026
40
0.359375000000026
40
0.375000000000026
40
0.390625000000025
40
0.390625000000025
40
0.394531250000025
40
0.394531250000025
40
0.398437500000025
40
0.398437500000025
40
0.406250000000026
40
0.406250000000026
40
0.421875000000026
40
0.437500000000027
40
0.437500000000027
40
0.453125000000028
40
0.453125000000028
40
0.457031250000028
40
0.457031250000028
40
0.460937500000028
40
0.460937500000028
40
0.468750000000028
40
0.468750000000028
40
0.484375000000028
40
0.484375000000028
40
0.500000000000029
40
0.500000000000029
40
0.515625000000029
40
0.515625000000029
40
0.51953125000003
40
0.51953125000003
40
0.52343750000003
40
0.52343750000003
40
0.53125000000003
40
0.53125000000003
40
0.546875000000031
40
0.546875000000031
40
0.562500000000031
40
0.562500000000031
40
0.578125000000032
40
0.578125000000032
40
0.582031250000032
40
0.582031250000032
40
0.585937500000032
40
0.585937500000032
40
0.593750000000032
40
0.593750000000032
40
0.609375000000032
40
0.609375000000032
40
0.625000000000033
40
0.625000000000033
40
0.626953125000033
40
0.626953125000033
40
0.628906250000032
40
0.628906250000032
40
0.632812500000032
40
0.640625000000031
40
0.640625000000031
40
0.65625000000003
40
0.65625000000003
40
0.671875000000029
40
0.671875000000029
40
0.675781250000029
40
0.675781250000029
40
0.679687500000028
40
0.687500000000028
40
0.687500000000028
40
0.703125000000027
40
0.703125000000027
40
0.710937500000026
40
0.710937500000026
40
0.714843750000026
40
0.714843750000026
40
0.718750000000026
40
0.718750000000026
40
0.734375000000025
40
0.734375000000025
40
0.750000000000024
40
0.750000000000024
40
0.753906250000024
40
0.753906250000024
40
0.757812500000024
40
0.757812500000024
40
0.765625000000023
40
0.765625000000023
40
0.781250000000021
40
0.781250000000021
40
0.79687500000002
40
0.79687500000002
40
0.804687500000019
40
0.804687500000019
40
0.808593750000019
40
0.808593750000019
40
0.812500000000018
40
0.812500000000018
40
0.828125000000018
40
0.828125000000018
40
0.843750000000018
40
0.859375000000017
40
0.859375000000017
40
0.863281250000017
40
0.863281250000017
40
0.867187500000017
40
0.875000000000016
40
0.875000000000016
40
0.890625000000015
40
0.906250000000014
40
0.906250000000014
40
0.914062500000013
40
0.914062500000013
40
0.917968750000013
40
0.917968750000013
40
0.921875000000012
40
0.921875000000012
40
0.93750000000001
40
0.93750000000001
40
0.953125000000007
40
0.953125000000007
40
0.968750000000005
40
0.968750000000005
40
0.976562500000003
40
0.976562500000003
40
0.980468750000003
40
0.980468750000003
40
0.984375000000002
40
0.984375000000002
40
0.992187500000001
40
0.992187500000001
40
0.99609375
40
0.998046875
40
0.9990234375
40
0.9990234375
40
1
40
1
40
1
40
1
41
1
10
53.8985539228011
20
-5.53851317614347
30
0
41
1
10
53.6960386625397
20
-5.43921263352209
30
0
41
1
10
53.499510468212
20
-5.3319300192494
30
0
41
1
10
53.1182572229508
20
-5.10144938100083
30
0
41
1
10
52.9335316746695
20
-4.97825233268969
30
0
41
1
10
52.5760644935528
20
-4.71550613404364
30
0
41
1
10
52.4033205138384
20
-4.5759605793879
30
0
41
1
10
52.1536211145313
20
-4.35363873654734
30
0
41
1
10
52.0719606748613
20
-4.27735958777862
30
0
41
1
10
51.9519167492587
20
-4.15954204174838
30
0
41
1
10
51.9123070764435
20
-4.11969951345787
30
0
41
1
10
51.8339341924349
20
-4.03886526258938
30
0
41
1
10
51.7953293361493
20
-3.99803695120437
30
0
41
1
10
51.6052111941733
20
-3.79183525217758
30
0
41
1
10
51.4623918469023
20
-3.62029857845658
30
0
41
1
10
51.1956456956085
20
-3.26369619035623
30
0
41
1
10
51.0717153005404
20
-3.07863329596424
30
0
41
1
10
50.90074716245
20
-2.79025398275985
30
0
41
1
10
50.8462512439216
20
-2.69232609613479
30
0
41
1
10
50.7684000336699
20
-2.54261089054134
30
0
41
1
10
50.7430988432627
20
-2.49223494617186
30
0
41
1
10
50.6938259713984
20
-2.39051701345355
30
0
41
1
10
50.6698311976945
20
-2.33911742841002
30
0
41
1
10
50.5540424980968
20
-2.08141911916661
30
0
41
1
10
50.4741478722523
20
-1.87180760708705
30
0
41
1
10
50.3398110911838
20
-1.44564705683931
30
0
41
1
10
50.2853672977461
20
-1.22909852364705
30
0
41
1
10
50.2027623151116
20
-0.78881148141781
30
0
41
1
10
50.1745940464956
20
-0.565074895775638
30
0
41
1
10
50.1534038975443
20
-0.223697413199858
30
0
41
1
10
50.1499431151895
20
-0.110233362948605
30
0
41
1
10
50.1500582988346
20
0.115782624365238
30
0
41
1
10
50.1536316182381
20
0.228380259763696
30
0
41
1
10
50.1747156901044
20
0.56496374349129
30
0
41
1
10
50.202562839869
20
0.787743224017959
30
0
41
1
10
50.2648094673318
20
1.11952719294584
30
0
41
1
10
50.2889779835947
20
1.22972353610516
30
0
41
1
10
50.3303972328509
20
1.39441723417656
30
0
41
1
10
50.3450651718106
20
1.44921494871056
30
0
41
1
10
50.3761357239174
20
1.55860885121993
30
0
41
1
10
50.3924631074899
20
1.61293940590824
30
0
41
1
10
50.4779398562724
20
1.88267835497351
30
0
41
1
10
50.5586080297134
20
2.09249614785335
30
0
41
1
10
50.7429935356301
20
2.50098882754043
30
0
41
1
10
50.8467165897845
20
2.69966084156258
30
0
41
1
10
50.9903720177498
20
2.94128071132499
30
0
41
1
10
51.0198051025588
20
2.98926778311557
30
0
41
1
10
51.0800725368404
20
3.08457080819909
30
0
41
1
10
51.1109489547307
20
3.13194763660451
30
0
41
1
10
51.2052425550917
20
3.27243186171387
30
0
41
1
10
51.2703751328804
20
3.36399485130769
30
0
41
1
10
51.4723104051646
20
3.63268478038
30
0
41
1
10
51.6156310968224
20
3.80383058726082
30
0
41
1
10
51.9187504320993
20
4.13115840460796
30
0
41
1
10
52.0785525862293
20
4.28733689948973
30
0
41
1
10
52.2884048024311
20
4.47349075927067
30
0
41
1
10
52.3308815439781
20
4.51026687743743
30
0
41
1
10
52.4168477486649
20
4.58291231650938
30
0
41
1
10
52.4602843537116
20
4.61873513811946
30
0
41
1
10
52.5915241271314
20
4.7243912450412
30
0
41
1
10
52.6804181293824
20
4.79255102256451
30
0
41
1
10
52.9511790683403
20
4.99043893572409
30
0
41
1
10
53.1371144234814
20
5.11359322013763
30
0
41
1
10
53.5194662500397
20
5.34317030058114
30
0
41
1
10
53.7158842298853
20
5.44959031665411
30
0
41
1
10
54.0183342790478
20
5.59687455904952
30
0
41
1
10
54.1204571686552
20
5.64390777997752
30
0
41
1
10
54.2756167868723
20
5.71135681028403
30
0
41
1
10
54.3277195672305
20
5.7333438766934
30
0
41
1
10
54.4321738202206
20
5.77611331045102
30
0
41
1
10
54.484555010139
20
5.79691001725263
30
0
41
1
10
54.7472225410629
20
5.8979942125664
30
0
41
1
10
54.9597885246675
20
5.96960474440851
30
0
41
1
10
55.3896464363758
20
6.095000355352
30
0
41
1
10
55.824231258643
20
6.20256673817383
30
0
41
1
10
56.2682331958603
20
6.27486527113061
30
0
41
1
10
56.548735102451
20
6.30886919276293
30
0
41
1
10
56.6049857921837
20
6.31510972762942
30
0
41
1
10
56.7177903497036
20
6.3264617187354
30
0
41
1
10
56.7744109208391
20
6.33157806912081
30
0
41
1
10
56.9441338989496
20
6.34517257427129
30
0
41
1
10
57.0570941775352
20
6.35190415254428
30
0
41
1
10
57.3954199685995
20
6.36523572712647
30
0
41
1
10
57.845043104156
20
6.36473950696578
30
0
41
1
10
58.2917665790134
20
6.32839340383001
30
0
41
1
10
58.737036563182
20
6.27403139184193
30
0
41
1
10
58.9589449197798
20
6.23784394692325
30
0
41
1
10
59.2353991189687
20
6.18100967227778
30
0
41
1
10
59.2906433100048
20
6.16906162625543
30
0
41
1
10
59.4010374604744
20
6.14398963747402
30
0
41
1
10
59.4562454759344
20
6.13085032881557
30
0
41
1
10
59.6210039412217
20
6.08983040875935
30
0
41
1
10
59.7298509411474
20
6.06031724472231
30
0
41
1
10
60.0534625137072
20
5.96535537266323
30
0
41
1
10
60.2653038283252
20
5.89349872861933
30
0
41
1
10
60.6812836137578
20
5.73274740587229
30
0
41
1
10
60.8854224904963
20
5.64385386488632
30
0
41
1
10
61.2858914841023
20
5.44861211689914
30
0
41
1
10
61.4822230405625
20
5.34226752147268
30
0
41
1
10
61.7225480769421
20
5.19782774762447
30
0
41
1
10
61.7703579816431
20
5.16836282985412
30
0
41
1
10
61.8654596359331
20
5.10825753470161
30
0
41
1
10
61.9128009565085
20
5.07758273028253
30
0
41
1
10
62.0533238000471
20
4.98423916850768
30
0
41
1
10
62.1451931119235
20
4.92013978589233
30
0
41
1
10
62.4154006848791
20
4.72223667786298
30
0
41
1
10
62.5883527853941
20
4.58284294179941
30
0
41
1
10
62.9197460399594
20
4.28881867256439
30
0
41
1
10
63.0781894428922
20
4.134190839887
30
0
41
1
10
63.379947607927
20
3.8088704058554
30
0
41
1
10
63.5232678261564
20
3.63818398698001
30
0
41
1
10
63.6922078059418
20
3.41387028569869
30
0
41
1
10
63.7254835714598
20
3.36845789841089
30
0
41
1
10
63.7909841732517
20
3.27650267557067
30
0
41
1
10
63.8231608603652
20
3.23002312310544
30
0
41
1
10
63.9174959007058
20
3.08973949008797
30
0
41
1
10
63.9776440582254
20
2.99483592264869
30
0
41
1
10
64.1498212935194
20
2.70594334091271
30
0
41
1
10
64.2536080889575
20
2.50778478822537
30
0
41
1
10
64.438390262426
20
2.09985411630632
30
0
41
1
10
64.5193923174157
20
1.89008550560689
30
0
41
1
10
64.5967629967017
20
1.64704648891848
30
0
41
1
10
64.6051680173423
20
1.61994391737767
30
0
41
1
10
64.6215901562977
20
1.56553990141805
30
0
41
1
10
64.6296140098079
20
1.53821415499579
30
0
41
1
10
64.6530250877655
20
1.45619110701168
30
0
41
1
10
64.6972401333851
20
1.29185164212402
30
0
41
1
10
64.7337001744302
20
1.12663861992704
30
0
41
1
10
64.7963629358997
20
0.795055284487432
30
0
41
1
10
64.8244895056914
20
0.572459645550879
30
0
41
1
10
64.8532113593822
20
0.124155988840755
30
0
41
1
10
64.8538102842147
20
-0.101551625593174
30
0
41
1
10
64.8366227242624
20
-0.385713876036505
30
0
41
1
10
64.8322767397109
20
-0.442714538378993
30
0
41
1
10
64.8218477506897
20
-0.556078024784483
30
0
41
1
10
64.8035851410949
20
-0.725449478042748
30
0
41
1
10
64.7776045590429
20
-0.892836146027435
30
0
41
1
10
64.7156196708077
20
-1.22503472666492
30
0
41
1
10
64.6609589471746
20
-1.44307415962521
30
0
41
1
10
64.559494022277
20
-1.76514904466598
30
0
41
1
10
64.5224196948624
20
-1.87167490387566
30
0
41
1
10
64.4619339431115
20
-2.03021937787514
30
0
41
1
10
64.4409592278374
20
-2.08286004777574
30
0
41
1
10
64.3973798959677
20
-2.18772589910887
30
0
41
1
10
64.3748503235212
20
-2.23976802695293
30
0
41
1
10
64.2587833676337
20
-2.49760097719039
30
0
41
1
10
64.1548205659902
20
-2.69677377196024
30
0
41
1
10
63.9261546553379
20
-3.08197397749342
30
0
41
1
10
63.8014456531974
20
-3.26799746224802
30
0
41
1
10
63.6330125881933
20
-3.49264461828039
30
0
41
1
10
63.5986968850524
20
-3.53717885740201
30
0
41
1
10
63.5288110346351
20
-3.62546119780507
30
0
41
1
10
63.4932157198441
20
-3.66923934033957
30
0
41
1
10
63.3847154238934
20
-3.7992006785299
30
0
41
1
10
63.310432263877
20
-3.88361835190309
30
0
41
1
10
63.0819612598606
20
-4.13049591428219
30
0
41
1
10
62.9221683434878
20
-4.28659921280922
30
0
41
1
10
62.588382569387
20
-4.58288630491299
30
0
41
1
10
62.4143866706552
20
-4.72306630560419
30
0
41
1
10
62.1429345776671
20
-4.92174981816734
30
0
41
1
10
62.0507039319232
20
-4.98604253109818
30
0
41
1
10
61.9097313290793
20
-5.07958871854859
30
0
41
1
10
61.862406729499
20
-5.11021836336659
30
0
41
1
10
61.7672599935576
20
-5.17028733910936
30
0
41
1
10
61.7194123477445
20
-5.19974363343829
30
0
41
1
10
61.4788211927037
20
-5.34418171862239
30
0
41
1
10
61.2820293637492
20
-5.45065651499334
30
0
41
1
10
60.8801040785884
20
-5.64628090213898
30
0
41
1
10
60.4698353459873
20
-5.82457644077692
30
0
41
1
10
60.0429855466979
20
-5.96879403305587
30
0
41
1
10
59.7709177234335
20
-6.04816203635423
30
0
41
1
10
59.7163085097472
20
-6.06347462061933
30
0
41
1
10
59.6070328608736
20
-6.09289590822721
30
0
41
1
10
59.4428856613757
20
-6.1352640331487
30
0
41
1
10
59.2780446791749
20
-6.17240679256065
30
0
41
1
10
58.9474510568664
20
-6.239848640573
30
0
41
1
10
58.5042322349956
20
-6.31155274685452
30
0
41
1
10
58.0562146568503
20
-6.34741584563324
30
0
41
1
10
57.7183827318653
20
-6.36076323312338
30
0
41
1
10
57.6054685538236
20
-6.36295061912716
30
0
41
1
10
57.4356357373343
20
-6.36279359620104
30
0
41
1
10
57.3789478461681
20
-6.36216801164699
30
0
41
1
10
57.2654167778517
20
-6.35975996460459
30
0
41
1
10
57.2085059667826
20
-6.35797429754581
30
0
41
1
10
56.9245265224559
20
-6.34616702710511
30
0
41
1
10
56.699348018732
20
-6.32756270245716
30
0
41
1
10
56.2528820289277
20
-6.2725354501093
30
0
41
1
10
56.0315947273904
20
-6.23611167314533
30
0
41
1
10
55.5928827625857
20
-6.1454871897779
30
0
41
1
10
55.3754578915133
20
-6.09128759853891
30
0
41
1
10
55.0522637004935
20
-5.99634549619057
30
0
41
1
10
54.9450235453631
20
-5.96242067960014
30
0
41
1
10
54.7849130315767
20
-5.90804252877501
30
0
41
1
10
54.7316678654523
20
-5.88933439334042
30
0
41
1
10
54.6254303456126
20
-5.850738140674
30
0
41
1
10
54.5723973599583
20
-5.83083383211064
30
0
41
1
10
54.4140918087535
20
-5.7694849005631
30
0
41
1
10
54.3095645672504
20
-5.72639254679578
30
0
41
1
10
54.1542926575397
20
-5.6584377587962
30
0
41
1
10
54.0770365880045
20
-5.62363096004006
30
0
41
1
10
53.9875720386178
20
-5.5815615620952
30
0
41
1
10
53.9493735225396
20
-5.56321734751492
30
0
41
1
10
53.9239397677553
20
-5.55091783208687
30
0
41
1
10
53.9112111265675
20
-5.54471946005731
30
0
41
1
10
53.8985539228011
20
-5.53851317614347
30
0
0
SPLINE
5
16E
100
AcDbEntity
8
1
62
256
6
ByLayer
370
18
48
1
60
0
100
AcDbSpline
70
2053
71
3
72
151
73
147
40
0
40
0
40
0
40
0
40
0.0156249999999979
40
0.0312499999999958
40
0.0312499999999958
40
0.0468749999999937
40
0.0468749999999937
40
0.0546874999999926
40
0.0546874999999926
40
0.0624999999999915
40
0.0624999999999915
40
0.0781249999999897
40
0.0937499999999879
40
0.0937499999999879
40
0.0976562499999876
40
0.0976562499999876
40
0.101562499999987
40
0.101562499999987
40
0.109374999999987
40
0.109374999999987
40
0.124999999999986
40
0.140624999999986
40
0.140624999999986
40
0.148437499999986
40
0.148437499999986
40
0.152343749999985
40
0.152343749999985
40
0.156249999999985
40
0.171874999999985
40
0.187499999999986
40
0.187499999999986
40
0.195312499999986
40
0.195312499999986
40
0.203124999999986
40
0.203124999999986
40
0.218749999999987
40
0.234374999999988
40
0.234374999999988
40
0.249999999999988
40
0.249999999999988
40
0.265624999999989
40
0.265624999999989
40
0.281249999999989
40
0.29687499999999
40
0.29687499999999
40
0.30468749999999
40
0.30468749999999
40
0.312499999999989
40
0.312499999999989
40
0.34374999999999
40
0.34374999999999
40
0.35937499999999
40
0.35937499999999
40
0.37499999999999
40
0.37499999999999
40
0.406249999999991
40
0.406249999999991
40
0.414062499999992
40
0.414062499999992
40
0.417968749999992
40
0.417968749999992
40
0.421874999999992
40
0.437499999999994
40
0.453124999999995
40
0.468749999999996
40
0.468749999999996
40
0.472656249999996
40
0.472656249999996
40
0.476562499999996
40
0.476562499999996
40
0.484374999999996
40
0.484374999999996
40
0.499999999999996
40
0.515624999999996
40
0.515624999999996
40
0.523437499999996
40
0.527343749999996
40
0.527343749999996
40
0.531249999999996
40
0.531249999999996
40
0.546874999999996
40
0.562499999999997
40
0.578124999999997
40
0.578124999999997
40
0.582031249999997
40
0.582031249999997
40
0.585937499999997
40
0.585937499999997
40
0.593749999999998
40
0.593749999999998
40
0.609374999999998
40
0.624999999999998
40
0.624999999999998
40
0.632812499999999
40
0.632812499999999
40
0.636718749999999
40
0.636718749999999
40
0.640624999999999
40
0.656249999999999
40
0.671875
40
0.671875
40
0.6796875
40
0.6796875
40
0.6875
40
0.6875
40
0.703125
40
0.71875
40
0.71875
40
0.726562499999999
40
0.726562499999999
40
0.734374999999999
40
0.734374999999999
40
0.75
40
0.75
40
0.78125
40
0.78125
40
0.789062499999999
40
0.789062499999999
40
0.796874999999999
40
0.796874999999999
40
0.812499999999999
40
0.828124999999999
40
0.828124999999999
40
0.835937499999998
40
0.835937499999998
40
0.843749999999997
40
0.843749999999997
40
0.874999999999996
40
0.874999999999996
40
0.890624999999996
40
0.890624999999996
40
0.898437499999996
40
0.898437499999996
40
0.906249999999997
40
0.906249999999997
40
0.937499999999998
40
0.937499999999998
40
0.953124999999997
40
0.953124999999997
40
0.960937499999998
40
0.960937499999998
40
0.968749999999998
40
0.968749999999998
40
0.984374999999999
40
0.984374999999999
40
1
40
1
40
1
40
1
41
1
10
33.2428118294583
20
-19.4499970803745
30
0
41
1
10
33.1936399544815
20
-19.4290797367453
30
0
41
1
10
33.1015659489049
20
-19.3853154322725
30
0
41
1
10
33.0218329585381
20
-19.3375603663805
30
0
41
1
10
32.9483570936925
20
-19.2876909764744
30
0
41
1
10
32.914746798537
20
-19.261699556787
30
0
41
1
10
32.8692370489633
20
-19.2209923322364
30
0
41
1
10
32.8549837103884
20
-19.2072204982456
30
0
41
1
10
32.8283861118219
20
-19.179366168694
30
0
41
1
10
32.8160243111247
20
-19.1652680499268
30
0
41
1
10
32.7817206753241
20
-19.1224545704779
30
0
41
1
10
32.7433905453525
20
-19.0639861939926
30
0
41
1
10
32.7199012457908
20
-19.0026477331159
30
0
41
1
10
32.710011038726
20
-18.9633650773475
30
0
41
1
10
32.7082731216012
20
-18.9554611677176
30
0
41
1
10
32.7052838305851
20
-18.9395570538816
30
0
41
1
10
32.7040318583835
20
-18.9315472947817
30
0
41
1
10
32.7010310959485
20
-18.9075139837937
30
0
41
1
10
32.700027515234
20
-18.8914489142386
30
0
41
1
10
32.6999467429229
20
-18.8431267051276
30
0
41
1
10
32.7076371831728
20
-18.7783580190703
30
0
41
1
10
32.7306464823945
20
-18.7129428404248
30
0
41
1
10
32.7537182014015
20
-18.6636586421358
30
0
41
1
10
32.7623796950221
20
-18.6471935221062
30
0
41
1
10
32.7768541170257
20
-18.6224435263095
30
0
41
1
10
32.7819252656552
20
-18.6141877566003
30
0
41
1
10
32.792499624837
20
-18.5977575239479
30
0
41
1
10
32.8200559718865
20
-18.5568250140692
30
0
41
1
10
32.8795483939421
20
-18.4844255198738
30
0
41
1
10
32.9460453332384
20
-18.4219562136944
30
0
41
1
10
33.0010107447454
20
-18.3758668225482
30
0
41
1
10
33.0201829095146
20
-18.3606311060438
30
0
41
1
10
33.0602450481519
20
-18.3304277669323
30
0
41
1
10
33.0811792884931
20
-18.3154332724867
30
0
41
1
10
33.1458975540835
20
-18.2713386777057
30
0
41
1
10
33.2376222877979
20
-18.214631036496
30
0
41
1
10
33.3397902972772
20
-18.1621083531629
30
0
41
1
10
33.4471257232443
20
-18.1117482718151
30
0
41
1
10
33.5033830737547
20
-18.0876469931469
30
0
41
1
10
33.6211395815324
20
-18.0417507583419
30
0
41
1
10
33.6817271498943
20
-18.0203107554563
30
0
41
1
10
33.8061711034885
20
-17.9803993855637
30
0
41
1
10
33.9338848400331
20
-17.9434573097051
30
0
41
1
10
34.0680373442179
20
-17.9125147032264
30
0
41
1
10
34.1710968027023
20
-17.8916367432723
30
0
41
1
10
34.2059251014928
20
-17.8850546308364
30
0
41
1
10
34.2761006617866
20
-17.8727425133475
30
0
41
1
10
34.3113325640533
20
-17.8670307748723
30
0
41
1
10
34.4881971424005
20
-17.8406617187364
30
0
41
1
10
34.6319260314474
20
-17.8265237120162
30
0
41
1
10
34.8508162468191
20
-17.8157607521566
30
0
41
1
10
34.9243457938454
20
-17.8139233578689
30
0
41
1
10
35.0724950790355
20
-17.8138717586345
30
0
41
1
10
35.1459927888044
20
-17.8156572962188
30
0
41
1
10
35.3648111633652
20
-17.8262598442189
30
0
41
1
10
35.5084718478789
20
-17.8402846317308
30
0
41
1
10
35.6852303125153
20
-17.8664902267808
30
0
41
1
10
35.7204399428664
20
-17.8721681622981
30
0
41
1
10
35.7730367037825
20
-17.8813495529077
30
0
41
1
10
35.7905558798558
20
-17.884525298171
30
0
41
1
10
35.8253732294537
20
-17.8910720104099
30
0
41
1
10
35.9118811845723
20
-17.9079303910784
30
0
41
1
10
36.0628471625499
20
-17.9426153567048
30
0
41
1
10
36.2541805941636
20
-17.9977607624785
30
0
41
1
10
36.3750355231963
20
-18.04036194905
30
0
41
1
10
36.44839263544
20
-18.0688300458482
30
0
41
1
10
36.4629549328921
20
-18.0746159792885
30
0
41
1
10
36.491858088788
20
-18.0863737441538
30
0
41
1
10
36.5061966442398
20
-18.0923451554646
30
0
41
1
10
36.5486334862106
20
-18.110434510349
30
0
41
1
10
36.5762366044561
20
-18.1227608590612
30
0
41
1
10
36.6570083691224
20
-18.1605126448402
30
0
41
1
10
36.7592784862222
20
-18.2129050169932
30
0
41
1
10
36.8507407551225
20
-18.2692117304905
30
0
41
1
10
36.9151787303383
20
-18.3128795827996
30
0
41
1
10
36.9463563054808
20
-18.3350735888593
30
0
41
1
10
36.9759325236993
20
-18.3578088163452
30
0
41
1
10
36.9952886194677
20
-18.3730864189582
30
0
41
1
10
37.0048000448575
20
-18.3807975765396
30
0
41
1
10
37.051217144387
20
-18.419471181892
30
0
41
1
10
37.1182866159902
20
-18.4821332571351
30
0
41
1
10
37.1977598078644
20
-18.5781989881556
30
0
41
1
10
37.236551479071
20
-18.6435074385213
30
0
41
1
10
37.256189166669
20
-18.6847048373226
30
0
41
1
10
37.2598857658648
20
-18.6929633817192
30
0
41
1
10
37.2668103327603
20
-18.7095185544075
30
0
41
1
10
37.2700361751184
20
-18.7178124286831
30
0
41
1
10
37.2789491034302
20
-18.7425936196928
30
0
41
1
10
37.2838947187615
20
-18.7590326144585
30
0
41
1
10
37.2957960334752
20
-18.8081037121989
30
0
41
1
10
37.3038503885525
20
-18.8728760879809
30
0
41
1
10
37.2964804694746
20
-18.9363328400829
30
0
41
1
10
37.2850693285174
20
-18.9834309535307
30
0
41
1
10
37.2802831738991
20
-18.9990479207552
30
0
41
1
10
37.2716003587313
20
-19.0223496704884
30
0
41
1
10
37.2684569330505
20
-19.0300896818582
30
0
41
1
10
37.2617085124537
20
-19.0454364063219
30
0
41
1
10
37.2436569908708
20
-19.0835249531503
30
0
41
1
10
37.2007434982333
20
-19.1496380778731
30
0
41
1
10
37.1482138033782
20
-19.2051253045394
30
0
41
1
10
37.1034220129876
20
-19.2455598977884
30
0
41
1
10
37.0875906597215
20
-19.2588410371122
30
0
41
1
10
37.0541058355961
20
-19.2850144153769
30
0
41
1
10
37.0364184393901
20
-19.2979255849211
30
0
41
1
10
36.9812081510531
20
-19.335669451045
30
0
41
1
10
36.9015657121699
20
-19.3836347491561
30
0
41
1
10
36.8103306960101
20
-19.4272393960541
30
0
41
1
10
36.7375991413962
20
-19.4583952627468
30
0
41
1
10
36.7126364068756
20
-19.4685221495773
30
0
41
1
10
36.6612641420453
20
-19.4882683398176
30
0
41
1
10
36.6348113454813
20
-19.4979024638704
30
0
41
1
10
36.5535414889235
20
-19.5259531161896
30
0
41
1
10
36.4973062086493
20
-19.5433591967807
30
0
41
1
10
36.3227038098872
20
-19.5920100578128
30
0
41
1
10
36.1984934710374
20
-19.6197216532871
30
0
41
1
10
36.0334850647128
20
-19.6489133995252
30
0
41
1
10
35.9999066528762
20
-19.6544889676111
30
0
41
1
10
35.9323312507876
20
-19.6650026703894
30
0
41
1
10
35.8983084391984
20
-19.669947427291
30
0
41
1
10
35.7955493700134
20
-19.6838780834206
30
0
41
1
10
35.6566991583896
20
-19.7000488273666
30
0
41
1
10
35.5142483560689
20
-19.7116287118049
30
0
41
1
10
35.4060513105729
20
-19.718614056463
30
0
41
1
10
35.3697587577552
20
-19.7206586414322
30
0
41
1
10
35.2967137396436
20
-19.7241763786289
30
0
41
1
10
35.2598662189459
20
-19.7256520822236
30
0
41
1
10
35.0758740294567
20
-19.731539419783
30
0
41
1
10
34.9294859503354
20
-19.7315607053612
30
0
41
1
10
34.7110727147098
20
-19.7247920546625
30
0
41
1
10
34.638464449618
20
-19.7213924434553
30
0
41
1
10
34.5298534097813
20
-19.7145161192945
30
0
41
1
10
34.4936778478408
20
-19.7119254309081
30
0
41
1
10
34.421521339097
20
-19.706139229144
30
0
41
1
10
34.3857809275416
20
-19.7029633669348
30
0
41
1
10
34.2087381165314
20
-19.685680258583
30
0
41
1
10
34.0723680579151
20
-19.6674090047669
30
0
41
1
10
33.8756941885142
20
-19.6329517702188
30
0
41
1
10
33.8114585007812
20
-19.6202818905113
30
0
41
1
10
33.7171724398841
20
-19.5993603800783
30
0
41
1
10
33.6861013441662
20
-19.5920664813856
30
0
41
1
10
33.6252719598779
20
-19.5769661807544
30
0
41
1
10
33.5954347569725
20
-19.5691428513032
30
0
41
1
10
33.507646297552
20
-19.5448398706775
30
0
41
1
10
33.4514139709789
20
-19.527529464946
30
0
41
1
10
33.3435869992656
20
-19.4905682030801
30
0
41
1
10
33.2919837044351
20
-19.4709144240037
30
0
41
1
10
33.2428118294583
20
-19.4499970803745
30
0
0
SPLINE
5
16F
100
AcDbEntity
8
1
62
256
6
ByLayer
370
18
48
1
60
0
100
AcDbSpline
70
4
71
3
72
52
73
48
40
0
40
0
40
0
40
0
40
0.0624999999999894
40
0.0624999999999894
40
0.124999999999979
40
0.124999999999979
40
0.156249999999974
40
0.156249999999974
40
0.171874999999974
40
0.171874999999974
40
0.187499999999974
40
0.187499999999974
40
0.24999999999998
40
0.312499999999985
40
0.312499999999985
40
0.328124999999986
40
0.328124999999986
40
0.343749999999987
40
0.374999999999987
40
0.374999999999987
40
0.437499999999988
40
0.437499999999988
40
0.468749999999988
40
0.468749999999988
40
0.484374999999988
40
0.484374999999988
40
0.499999999999989
40
0.499999999999989
40
0.562499999999992
40
0.624999999999996
40
0.624999999999996
40
0.656249999999996
40
0.656249999999996
40
0.687499999999997
40
0.687499999999997
40
0.749999999999999
40
0.749999999999999
40
0.781249999999999
40
0.781249999999999
40
0.812499999999999
40
0.812499999999999
40
0.874999999999999
40
0.9375
40
0.9375
40
0.96875
40
0.96875
40
1
40
1
40
1
40
1
41
1
10
16.475
20
17.5834806976042
30
0
41
1
10
16.5131913232135
20
17.6356400010526
30
0
41
1
10
16.555455160368
20
17.6851012200768
30
0
41
1
10
16.6478009638929
20
17.7789189868855
30
0
41
1
10
16.6978839475417
20
17.8232746435516
30
0
41
1
10
16.7789435239476
20
17.8859940289634
30
0
41
1
10
16.8069557155953
20
17.9062628011664
30
0
41
1
10
16.8505015589457
20
17.935692316367
30
0
41
1
10
16.8652488722836
20
17.9453230710113
30
0
41
1
10
16.8950371680023
20
17.9641221469431
30
0
41
1
10
16.910101924586
20
17.9733067015478
30
0
41
1
10
16.9862682240961
20
18.0181710676171
30
0
41
1
10
17.1135048019649
20
18.083208317781
30
0
41
1
10
17.2513051323545
20
18.1351304202462
30
0
41
1
10
17.340852835611
20
18.1633757378613
30
0
41
1
10
17.3589510261372
20
18.1688174006424
30
0
41
1
10
17.3952241179028
20
18.1791975883318
30
0
41
1
10
17.4498427753161
20
18.1940439799827
30
0
41
1
10
17.5050795190822
20
18.2067537936931
30
0
41
1
10
17.6163637965048
20
18.2293796390629
30
0
41
1
10
17.691630903465
20
18.2407510129895
30
0
41
1
10
17.8061588831875
20
18.2522263132465
30
0
41
1
10
17.844606956195
20
18.2551180074906
30
0
41
1
10
17.9026967272745
20
18.2580243290622
30
0
41
1
10
17.9221663084687
20
18.2587548948534
30
0
41
1
10
17.9610107977542
20
18.2597262135564
30
0
41
1
10
17.9803927501871
20
18.2599684300752
30
0
41
1
10
18.0771038623367
20
18.2599793960362
30
0
41
1
10
18.2305754564871
20
18.2523491052793
30
0
41
1
10
18.3815722297398
20
18.2297489735089
30
0
41
1
10
18.4938641285014
20
18.2069930234637
30
0
41
1
10
18.53118989199
20
18.1984144688029
30
0
41
1
10
18.6044182748903
20
18.179554176381
30
0
41
1
10
18.6404572010122
20
18.1692486073201
30
0
41
1
10
18.7468816355557
20
18.1357460199801
30
0
41
1
10
18.8155819965158
20
18.1099745989849
30
0
41
1
10
18.9152578724162
20
18.0661113512754
30
0
41
1
10
18.9479189224545
20
18.0506197251854
30
0
41
1
10
19.012089924821
20
18.017850795655
30
0
41
1
10
19.0436842374209
20
18.0005169079059
30
0
41
1
10
19.1354026811123
20
17.9465252426151
30
0
41
1
10
19.250303463002
20
17.8689160540893
30
0
41
1
10
19.3508323679639
20
17.7802152843766
30
0
41
1
10
19.420705897915
20
17.7093648178742
30
0
41
1
10
19.4431211599626
20
17.6849649636698
30
0
41
1
10
19.4857083394232
20
17.6350705152685
30
0
41
1
10
19.5059044140918
20
17.609560245944
30
0
41
1
10
19.525
20
17.5834806976043
30
0
0
SPLINE
5
170
100
AcDbEntity
8
1
62
256
6
ByLayer
370
18
48
1
60
0
100
AcDbSpline
70
4
71
3
72
52
73
48
40
0
40
0
40
0
40
0
40
0.0624999999999908
40
0.0624999999999908
40
0.124999999999982
40
0.124999999999982
40
0.156249999999977
40
0.156249999999977
40
0.171874999999976
40
0.171874999999976
40
0.187499999999974
40
0.187499999999974
40
0.249999999999968
40
0.312499999999961
40
0.312499999999961
40
0.328124999999959
40
0.328124999999959
40
0.343749999999958
40
0.374999999999957
40
0.374999999999957
40
0.437499999999959
40
0.437499999999959
40
0.46874999999996
40
0.46874999999996
40
0.484374999999961
40
0.484374999999961
40
0.499999999999961
40
0.499999999999961
40
0.562499999999966
40
0.624999999999971
40
0.624999999999971
40
0.656249999999974
40
0.656249999999974
40
0.687499999999977
40
0.687499999999977
40
0.749999999999984
40
0.749999999999984
40
0.781249999999987
40
0.781249999999987
40
0.812499999999991
40
0.812499999999991
40
0.874999999999995
40
0.937499999999999
40
0.937499999999999
40
0.96875
40
0.96875
40
1
40
1
40
1
40
1
41
1
10
19.525
20
-17.5834806976042
30
0
41
1
10
19.4868086767865
20
-17.6356400010525
30
0
41
1
10
19.4445448396319
20
-17.6851012200768
30
0
41
1
10
19.3521990361071
20
-17.7789189868855
30
0
41
1
10
19.3021160524582
20
-17.8232746435515
30
0
41
1
10
19.2210564760524
20
-17.8859940289633
30
0
41
1
10
19.1930442844047
20
-17.9062628011664
30
0
41
1
10
19.1494984410542
20
-17.9356923163669
30
0
41
1
10
19.1347511277164
20
-17.9453230710112
30
0
41
1
10
19.1049628319977
20
-17.964122146943
30
0
41
1
10
19.0898980754139
20
-17.9733067015478
30
0
41
1
10
19.0137317759039
20
-18.0181710676171
30
0
41
1
10
18.8864951980351
20
-18.0832083177809
30
0
41
1
10
18.7486948676454
20
-18.1351304202462
30
0
41
1
10
18.659147164389
20
-18.1633757378613
30
0
41
1
10
18.6410489738628
20
-18.1688174006424
30
0
41
1
10
18.6047758820972
20
-18.1791975883318
30
0
41
1
10
18.5501572246839
20
-18.1940439799827
30
0
41
1
10
18.4949204809177
20
-18.2067537936931
30
0
41
1
10
18.3836362034952
20
-18.2293796390628
30
0
41
1
10
18.3083690965349
20
-18.2407510129894
30
0
41
1
10
18.1938411168124
20
-18.2522263132465
30
0
41
1
10
18.155393043805
20
-18.2551180074906
30
0
41
1
10
18.0973032727254
20
-18.2580243290621
30
0
41
1
10
18.0778336915312
20
-18.2587548948533
30
0
41
1
10
18.0389892022457
20
-18.2597262135563
30
0
41
1
10
18.0196072498129
20
-18.2599684300751
30
0
41
1
10
17.9228961376632
20
-18.2599793960361
30
0
41
1
10
17.7694245435129
20
-18.2523491052792
30
0
41
1
10
17.6184277702601
20
-18.2297489735088
30
0
41
1
10
17.5061358714986
20
-18.2069930234636
30
0
41
1
10
17.46881010801
20
-18.1984144688028
30
0
41
1
10
17.3955817251096
20
-18.1795541763809
30
0
41
1
10
17.3595427989878
20
-18.16924860732
30
0
41
1
10
17.2531183644443
20
-18.13574601998
30
0
41
1
10
17.1844180034842
20
-18.1099745989848
30
0
41
1
10
17.0847421275838
20
-18.0661113512754
30
0
41
1
10
17.0520810775455
20
-18.0506197251853
30
0
41
1
10
16.987910075179
20
-18.0178507956549
30
0
41
1
10
16.9563157625791
20
-18.0005169079059
30
0
41
1
10
16.8645973188877
20
-17.946525242615
30
0
41
1
10
16.749696536998
20
-17.8689160540891
30
0
41
1
10
16.6491676320361
20
-17.7802152843765
30
0
41
1
10
16.579294102085
20
-17.7093648178741
30
0
41
1
10
16.5568788400374
20
-17.6849649636697
30
0
41
1
10
16.5142916605768
20
-17.6350705152684
30
0
41
1
10
16.4940955859082
20
-17.6095602459439
30
0
41
1
10
16.475
20
-17.5834806976042
30
0
0
SPLINE
5
171
100
AcDbEntity
8
1
62
256
6
ByLayer
370
18
48
1
60
0
100
AcDbSpline
70
4
71
3
72
52
73
48
40
0
40
0
40
0
40
0
40
0.062499999999989
40
0.062499999999989
40
0.124999999999978
40
0.124999999999978
40
0.156249999999972
40
0.156249999999972
40
0.171874999999969
40
0.171874999999969
40
0.187499999999967
40
0.187499999999967
40
0.249999999999964
40
0.312499999999961
40
0.312499999999961
40
0.32812499999996
40
0.32812499999996
40
0.34374999999996
40
0.374999999999961
40
0.374999999999961
40
0.437499999999965
40
0.437499999999965
40
0.468749999999966
40
0.468749999999966
40
0.484374999999967
40
0.484374999999967
40
0.499999999999968
40
0.499999999999968
40
0.562499999999974
40
0.62499999999998
40
0.62499999999998
40
0.656249999999983
40
0.656249999999983
40
0.687499999999986
40
0.687499999999986
40
0.749999999999989
40
0.749999999999989
40
0.781249999999991
40
0.781249999999991
40
0.812499999999992
40
0.812499999999992
40
0.874999999999994
40
0.937499999999996
40
0.937499999999996
40
0.968749999999998
40
0.968749999999998
40
1
40
1
40
1
40
1
41
1
10
19.525
20
16.230601400091
30
0
41
1
10
19.4868086767864
20
16.175830651572
30
0
41
1
10
19.4445448396319
20
16.1235765324235
30
0
41
1
10
19.3521990361071
20
16.0239672420608
30
0
41
1
10
19.3021160524582
20
15.9766125032621
30
0
41
1
10
19.2210564760524
20
15.9093546103711
30
0
41
1
10
19.1930442844046
20
15.8875663672026
30
0
41
1
10
19.1494984410542
20
15.8558626405861
30
0
41
1
10
19.1347511277163
20
15.8454759050084
30
0
41
1
10
19.1049628319977
20
15.8251800306268
30
0
41
1
10
19.0898980754139
20
15.8152534092799
30
0
41
1
10
19.0137317759038
20
15.7667160545081
30
0
41
1
10
18.8864951980351
20
15.6960418033308
30
0
41
1
10
18.7486948676454
20
15.6392420148952
30
0
41
1
10
18.6591471643889
20
15.6082748474797
30
0
41
1
10
18.6410489738627
20
15.6023047874346
30
0
41
1
10
18.6047758820971
20
15.5909101826728
30
0
41
1
10
18.5501572246839
20
15.5746027417
30
0
41
1
10
18.4949204809177
20
15.5606184533738
30
0
41
1
10
18.3836362034951
20
15.5357049532121
30
0
41
1
10
18.3083690965349
20
15.5231568310926
30
0
41
1
10
18.1938411168124
20
15.5104882763165
30
0
41
1
10
18.1553930438049
20
15.5072941418848
30
0
41
1
10
18.0973032727254
20
15.5040834803131
30
0
41
1
10
18.0778336915312
20
15.5032762999706
30
0
41
1
10
18.0389892022457
20
15.5022030884862
30
0
41
1
10
18.0196072498129
20
15.501935440669
30
0
41
1
10
17.9228961376632
20
15.5019233236847
30
0
41
1
10
17.7694245064372
20
15.5103577906519
30
0
41
1
10
17.6184277702601
20
15.5352979119201
30
0
41
1
10
17.5061358714986
20
15.5603552125929
30
0
41
1
10
17.4688101080099
20
15.5697940766895
30
0
41
1
10
17.3955817251096
20
15.5905211866752
30
0
41
1
10
17.3595427989878
20
15.6018357051644
30
0
41
1
10
17.2531183644443
20
15.6385677492125
30
0
41
1
10
17.1844180034841
20
15.6667623225412
30
0
41
1
10
17.0847421275837
20
15.7145716614806
30
0
41
1
10
17.0520810775454
20
15.7314305538862
30
0
41
1
10
16.9879100751789
20
15.7670218060773
30
0
41
1
10
16.956315762579
20
15.785815182398
30
0
41
1
10
16.8645973188877
20
15.8442281361304
30
0
41
1
10
16.7496965369979
20
15.9278758442663
30
0
41
1
10
16.649167632036
20
16.0225872482432
30
0
41
1
10
16.579294102085
20
16.0978168840039
30
0
41
1
10
16.5568788400374
20
16.1236581486908
30
0
41
1
10
16.5142916605768
20
16.1763492687084
30
0
41
1
10
16.4940955859081
20
16.2032161343921
30
0
41
1
10
16.475
20
16.230601400091
30
0
0
SPLINE
5
172
100
AcDbEntity
8
1
62
256
6
ByLayer
370
18
48
1
60
0
100
AcDbSpline
70
4
71
3
72
52
73
48
40
0
40
0
40
0
40
0
40
0.062500000000009
40
0.062500000000009
40
0.125000000000018
40
0.125000000000018
40
0.156250000000023
40
0.156250000000023
40
0.171875000000024
40
0.171875000000024
40
0.187500000000026
40
0.187500000000026
40
0.250000000000026
40
0.312500000000026
40
0.312500000000026
40
0.328125000000027
40
0.328125000000027
40
0.343750000000027
40
0.375000000000025
40
0.375000000000025
40
0.437500000000022
40
0.437500000000022
40
0.468750000000021
40
0.468750000000021
40
0.48437500000002
40
0.48437500000002
40
0.500000000000019
40
0.500000000000019
40
0.562500000000019
40
0.625000000000019
40
0.625000000000019
40
0.656250000000018
40
0.656250000000018
40
0.687500000000017
40
0.687500000000017
40
0.750000000000014
40
0.750000000000014
40
0.781250000000012
40
0.781250000000012
40
0.81250000000001
40
0.81250000000001
40
0.875000000000007
40
0.937500000000004
40
0.937500000000004
40
0.968750000000002
40
0.968750000000002
40
1
40
1
40
1
40
1
41
1
10
16.475
20
-16.230601400091
30
0
41
1
10
16.5131913232136
20
-16.1758306515719
30
0
41
1
10
16.5554551603681
20
-16.1235765324235
30
0
41
1
10
16.6478009638929
20
-16.0239672420608
30
0
41
1
10
16.6978839475418
20
-15.9766125032621
30
0
41
1
10
16.7789435239476
20
-15.9093546103711
30
0
41
1
10
16.8069557155953
20
-15.8875663672025
30
0
41
1
10
16.8505015589458
20
-15.8558626405861
30
0
41
1
10
16.8652488722836
20
-15.8454759050084
30
0
41
1
10
16.8950371680023
20
-15.8251800306267
30
0
41
1
10
16.9101019245861
20
-15.8152534092798
30
0
41
1
10
16.9862682240961
20
-15.7667160545081
30
0
41
1
10
17.1135048019649
20
-15.6960418033308
30
0
41
1
10
17.2513051323546
20
-15.6392420148952
30
0
41
1
10
17.340852835611
20
-15.6082748474797
30
0
41
1
10
17.3589510261372
20
-15.6023047874346
30
0
41
1
10
17.3952241179028
20
-15.5909101826728
30
0
41
1
10
17.4498427753161
20
-15.5746027417
30
0
41
1
10
17.5050795190823
20
-15.5606184533737
30
0
41
1
10
17.6163637965048
20
-15.535704953212
30
0
41
1
10
17.691630903465
20
-15.5231568310926
30
0
41
1
10
17.8061588831876
20
-15.5104882763165
30
0
41
1
10
17.844606956195
20
-15.5072941418847
30
0
41
1
10
17.9026967272745
20
-15.504083480313
30
0
41
1
10
17.9221663084688
20
-15.5032762999705
30
0
41
1
10
17.9610107977543
20
-15.5022030884861
30
0
41
1
10
17.9803927501871
20
-15.501935440669
30
0
41
1
10
18.0771038623368
20
-15.5019233236846
30
0
41
1
10
18.2305754564871
20
-15.5103579761503
30
0
41
1
10
18.3815722297399
20
-15.53529791192
30
0
41
1
10
18.4938641285014
20
-15.5603552125928
30
0
41
1
10
18.53118989199
20
-15.5697940766894
30
0
41
1
10
18.6044182748904
20
-15.5905211866751
30
0
41
1
10
18.6404572010122
20
-15.6018357051643
30
0
41
1
10
18.7468816355557
20
-15.6385677492124
30
0
41
1
10
18.8155819965158
20
-15.6667623225411
30
0
41
1
10
18.9152578724162
20
-15.7145716614805
30
0
41
1
10
18.9479189224545
20
-15.7314305538861
30
0
41
1
10
19.0120899248211
20
-15.7670218060772
30
0
41
1
10
19.0436842374209
20
-15.7858151823979
30
0
41
1
10
19.1354026811123
20
-15.8442281361302
30
0
41
1
10
19.2503034630021
20
-15.9278758442662
30
0
41
1
10
19.350832367964
20
-16.022587248243
30
0
41
1
10
19.420705897915
20
-16.0978168840038
30
0
41
1
10
19.4431211599626
20
-16.1236581486907
30
0
41
1
10
19.4857083394232
20
-16.1763492687083
30
0
41
1
10
19.5059044140919
20
-16.203216134392
30
0
41
1
10
19.525
20
-16.2306014000909
30
0
0
SPLINE
5
173
100
AcDbEntity
8
1
62
256
6
ByLayer
370
18
48
1
60
0
100
AcDbSpline
70
4
71
3
72
52
73
48
40
0
40
0
40
0
40
0
40
0.0624999999999984
40
0.0624999999999984
40
0.124999999999997
40
0.124999999999997
40
0.156249999999996
40
0.156249999999996
40
0.171874999999996
40
0.171874999999996
40
0.187499999999996
40
0.187499999999996
40
0.249999999999999
40
0.312500000000002
40
0.312500000000002
40
0.328125000000003
40
0.328125000000003
40
0.343750000000004
40
0.375000000000004
40
0.375000000000004
40
0.437500000000003
40
0.437500000000003
40
0.468750000000003
40
0.468750000000003
40
0.484375000000003
40
0.484375000000003
40
0.500000000000003
40
0.500000000000003
40
0.562500000000005
40
0.625000000000008
40
0.625000000000008
40
0.656250000000008
40
0.656250000000008
40
0.687500000000008
40
0.687500000000008
40
0.750000000000008
40
0.750000000000008
40
0.781250000000008
40
0.781250000000008
40
0.812500000000007
40
0.812500000000007
40
0.875000000000005
40
0.937500000000002
40
0.937500000000002
40
0.968750000000001
40
0.968750000000001
40
1
40
1
40
1
40
1
41
1
10
16.475
20
12.1692581906231
30
0
41
1
10
16.5131913232135
20
12.2301178264302
30
0
41
1
10
16.555455160368
20
12.2879054858374
30
0
41
1
10
16.6478009638929
20
12.3976356429975
30
0
41
1
10
16.6978839475418
20
12.4495772220851
30
0
41
1
10
16.7789435239476
20
12.5230948267255
30
0
41
1
10
16.8069557155953
20
12.546865914497
30
0
41
1
10
16.8505015589457
20
12.5813970227831
30
0
41
1
10
16.8652488722836
20
12.5927000911883
30
0
41
1
10
16.8950371680023
20
12.6147685814487
30
0
41
1
10
16.910101924586
20
12.6255530494013
30
0
41
1
10
16.9862682240961
20
12.6782442009625
30
0
41
1
10
17.1135048019649
20
12.7547026658694
30
0
41
1
10
17.2513051323545
20
12.8158336314504
30
0
41
1
10
17.340852835611
20
12.8491049769813
30
0
41
1
10
17.3589510261372
20
12.8555159056378
30
0
41
1
10
17.3952241179028
20
12.8677465650791
30
0
41
1
10
17.4498427753161
20
12.8852420628534
30
0
41
1
10
17.5050795190822
20
12.9002254430041
30
0
41
1
10
17.6163637965048
20
12.9269031973855
30
0
41
1
10
17.691630903465
20
12.9403174920613
30
0
41
1
10
17.8061588831876
20
12.9538557677287
30
0
41
1
10
17.844606956195
20
12.9572677378175
30
0
41
1
10
17.9026967272745
20
12.960697056001
30
0
41
1
10
17.9221663084688
20
12.961559115121
30
0
41
1
10
17.9610107977542
20
12.9627052671934
30
0
41
1
10
17.9803927501871
20
12.9629910870839
30
0
41
1
10
18.0771038623368
20
12.9630040270357
30
0
41
1
10
18.2305754564871
20
12.9539993691372
30
0
41
1
10
18.3815722297398
20
12.9273387610449
30
0
41
1
10
18.4938641285014
20
12.900507472215
30
0
41
1
10
18.53118989199
20
12.8903943389558
30
0
41
1
10
18.6044182748903
20
12.8681661348699
30
0
41
1
10
18.6404572010122
20
12.8560229573153
30
0
41
1
10
18.7468816355557
20
12.8165586143721
30
0
41
1
10
18.8155819965158
20
12.7862158835517
30
0
41
1
10
18.9152578724162
20
12.7346150745764
30
0
41
1
10
18.9479189224545
20
12.7163970509795
30
0
41
1
10
19.012089924821
20
12.6778778580254
30
0
41
1
10
19.0436842374209
20
12.6575102811593
30
0
41
1
10
19.1354026811123
20
12.5940992781155
30
0
41
1
10
19.250303463002
20
12.5030266718522
30
0
41
1
10
19.3508323679639
20
12.3991526888183
30
0
41
1
10
19.420705897915
20
12.3162839933899
30
0
41
1
10
19.4431211599626
20
12.2877612887184
30
0
41
1
10
19.4857083394232
20
12.2294724470794
30
0
41
1
10
19.5059044140918
20
12.1996878878974
30
0
41
1
10
19.525
20
12.1692581906231
30
0
0
SPLINE
5
174
100
AcDbEntity
8
1
62
256
6
ByLayer
370
18
48
1
60
0
100
AcDbSpline
70
4
71
3
72
52
73
48
40
0
40
0
40
0
40
0
40
0.0624999999999983
40
0.0624999999999983
40
0.124999999999997
40
0.124999999999997
40
0.156249999999995
40
0.156249999999995
40
0.171874999999994
40
0.171874999999994
40
0.187499999999993
40
0.187499999999993
40
0.249999999999995
40
0.312499999999998
40
0.312499999999998
40
0.328124999999998
40
0.328124999999998
40
0.343749999999999
40
0.375000000000002
40
0.375000000000002
40
0.437500000000007
40
0.437500000000007
40
0.46875000000001
40
0.46875000000001
40
0.484375000000011
40
0.484375000000011
40
0.500000000000013
40
0.500000000000013
40
0.562500000000012
40
0.625000000000012
40
0.625000000000012
40
0.656250000000011
40
0.656250000000011
40
0.68750000000001
40
0.68750000000001
40
0.750000000000007
40
0.750000000000007
40
0.781250000000006
40
0.781250000000006
40
0.812500000000004
40
0.812500000000004
40
0.875000000000002
40
0.9375
40
0.9375
40
0.96875
40
0.96875
40
1
40
1
40
1
40
1
41
1
10
19.525
20
-12.1692581906231
30
0
41
1
10
19.4868086767864
20
-12.2301178264302
30
0
41
1
10
19.4445448396319
20
-12.2879054858373
30
0
41
1
10
19.3521990361071
20
-12.3976356429975
30
0
41
1
10
19.3021160524582
20
-12.449577222085
30
0
41
1
10
19.2210564760524
20
-12.5230948267254
30
0
41
1
10
19.1930442844047
20
-12.5468659144969
30
0
41
1
10
19.1494984410542
20
-12.5813970227831
30
0
41
1
10
19.1347511277164
20
-12.5927000911883
30
0
41
1
10
19.1049628319977
20
-12.6147685814487
30
0
41
1
10
19.0898980754139
20
-12.6255530494012
30
0
41
1
10
19.0137317759039
20
-12.6782442009625
30
0
41
1
10
18.8864951980351
20
-12.7547026658694
30
0
41
1
10
18.7486948676454
20
-12.8158336314504
30
0
41
1
10
18.659147164389
20
-12.8491049769813
30
0
41
1
10
18.6410489738628
20
-12.8555159056377
30
0
41
1
10
18.6047758820972
20
-12.8677465650791
30
0
41
1
10
18.5501572246839
20
-12.8852420628533
30
0
41
1
10
18.4949204809177
20
-12.900225443004
30
0
41
1
10
18.3836362034951
20
-12.9269031973855
30
0
41
1
10
18.3083690965349
20
-12.9403174920612
30
0
41
1
10
18.1938411168124
20
-12.9538557677286
30
0
41
1
10
18.155393043805
20
-12.9572677378174
30
0
41
1
10
18.0973032727254
20
-12.9606970560009
30
0
41
1
10
18.0778336915312
20
-12.9615591151209
30
0
41
1
10
18.0389892022457
20
-12.9627052671933
30
0
41
1
10
18.0196072498129
20
-12.9629910870838
30
0
41
1
10
17.9228961376632
20
-12.9630040270356
30
0
41
1
10
17.7694245435129
20
-12.9539993691371
30
0
41
1
10
17.6184277702601
20
-12.9273387610448
30
0
41
1
10
17.5061358714986
20
-12.9005074722149
30
0
41
1
10
17.46881010801
20
-12.8903943389558
30
0
41
1
10
17.3955817251096
20
-12.8681661348698
30
0
41
1
10
17.3595427989878
20
-12.8560229573152
30
0
41
1
10
17.2531183644443
20
-12.816558614372
30
0
41
1
10
17.1844180034841
20
-12.7862158835515
30
0
41
1
10
17.0847421275837
20
-12.7346150745763
30
0
41
1
10
17.0520810775455
20
-12.7163970509793
30
0
41
1
10
16.9879100751789
20
-12.6778778580253
30
0
41
1
10
16.9563157625791
20
-12.6575102811592
30
0
41
1
10
16.8645973188877
20
-12.5940992781154
30
0
41
1
10
16.749696536998
20
-12.5030266718521
30
0
41
1
10
16.649167632036
20
-12.3991526888182
30
0
41
1
10
16.579294102085
20
-12.3162839933898
30
0
41
1
10
16.5568788400374
20
-12.2877612887183
30
0
41
1
10
16.5142916605768
20
-12.2294724470793
30
0
41
1
10
16.4940955859082
20
-12.1996878878973
30
0
41
1
10
16.475
20
-12.169258190623
30
0
0
SPLINE
5
175
100
AcDbEntity
8
1
62
256
6
ByLayer
370
18
48
1
60
0
100
AcDbSpline
70
4
71
3
72
52
73
48
40
0
40
0
40
0
40
0
40
0.062499999999998
40
0.062499999999998
40
0.124999999999996
40
0.124999999999996
40
0.156249999999996
40
0.156249999999996
40
0.171874999999997
40
0.171874999999997
40
0.187499999999997
40
0.187499999999997
40
0.249999999999991
40
0.312499999999985
40
0.312499999999985
40
0.328124999999983
40
0.328124999999983
40
0.343749999999982
40
0.374999999999981
40
0.374999999999981
40
0.437499999999981
40
0.437499999999981
40
0.468749999999982
40
0.468749999999982
40
0.484374999999982
40
0.484374999999982
40
0.499999999999982
40
0.499999999999982
40
0.562499999999985
40
0.624999999999988
40
0.624999999999988
40
0.65624999999999
40
0.65624999999999
40
0.687499999999992
40
0.687499999999992
40
0.749999999999994
40
0.749999999999994
40
0.781249999999995
40
0.781249999999995
40
0.812499999999996
40
0.812499999999996
40
0.874999999999997
40
0.937499999999998
40
0.937499999999998
40
0.968749999999999
40
0.968749999999999
40
1
40
1
40
1
40
1
41
1
10
19.525
20
10.6070107729665
30
0
41
1
10
19.4868086767864
20
10.5443921370143
30
0
41
1
10
19.4445448396319
20
10.4847232541501
30
0
41
1
10
19.3521990361071
20
10.3710920803132
30
0
41
1
10
19.3021160524582
20
10.3171303990357
30
0
41
1
10
19.2210564760524
20
10.2405557761169
30
0
41
1
10
19.1930442844046
20
10.2157612129988
30
0
41
1
10
19.1494984410542
20
10.1796982562142
30
0
41
1
10
19.1347511277163
20
10.1678859791006
30
0
41
1
10
19.1049628319977
20
10.1448092850989
30
0
41
1
10
19.0898980754139
20
10.1335249806683
30
0
41
1
10
19.0137317759038
20
10.0783598013234
30
0
41
1
10
18.8864951980351
20
9.99810440202509
30
0
41
1
10
18.7486948676454
20
9.93368795652896
30
0
41
1
10
18.6591471643889
20
9.89858324515504
30
0
41
1
10
18.6410489738628
20
9.89181640211447
30
0
41
1
10
18.6047758820971
20
9.8789024582351
30
0
41
1
10
18.5501572246839
20
9.86042283638412
30
0
41
1
10
18.4949204809177
20
9.84458100393078
30
0
41
1
10
18.3836362034951
20
9.81636234594927
30
0
41
1
10
18.3083690965349
20
9.80215542489776
30
0
41
1
10
18.1938411168124
20
9.78781340463101
30
0
41
1
10
18.1553930438049
20
9.78419771885243
30
0
41
1
10
18.0973032727254
20
9.7805634053158
30
0
41
1
10
18.0778336915312
20
9.77964974066586
30
0
41
1
10
18.0389892022457
20
9.77843495631808
30
0
41
1
10
18.0196072498129
20
9.77813200657945
30
0
41
1
10
17.9228961376632
20
9.77811829132881
30
0
41
1
10
17.7694245064372
20
9.78766450496718
30
0
41
1
10
17.6184277702601
20
9.8159013839585
30
0
41
1
10
17.5061358714986
20
9.84428280154012
30
0
41
1
10
17.4688101080099
20
9.8549754164201
30
0
41
1
10
17.3955817251096
20
9.87846105930973
30
0
41
1
10
17.3595427989878
20
9.89128383844226
30
0
41
1
10
17.2531183644443
20
9.93292345777999
30
0
41
1
10
17.1844180034841
20
9.96489835975117
30
0
41
1
10
17.0847421275837
20
10.0191571511299
30
0
41
1
10
17.0520810775454
20
10.0382961290576
30
0
41
1
10
16.9879100751789
20
10.0787163637089
30
0
41
1
10
16.9563157625791
20
10.1000670133718
30
0
41
1
10
16.8645973188877
20
10.1664560790588
30
0
41
1
10
16.7496966354992
20
10.2615963001118
30
0
41
1
10
16.649167632036
20
10.3695186588664
30
0
41
1
10
16.579294102085
20
10.4553370465733
30
0
41
1
10
16.5568788400374
20
10.4848306471201
30
0
41
1
10
16.5142916605768
20
10.5450032525931
30
0
41
1
10
16.4940955859081
20
10.5757015791062
30
0
41
1
10
16.475
20
10.6070107729665
30
0
0
SPLINE
5
176
100
AcDbEntity
8
1
62
256
6
ByLayer
370
18
48
1
60
0
100
AcDbSpline
70
4
71
3
72
52
73
48
40
0
40
0
40
0
40
0
40
0.0624999999999966
40
0.0624999999999966
40
0.124999999999993
40
0.124999999999993
40
0.156249999999992
40
0.156249999999992
40
0.171874999999992
40
0.171874999999992
40
0.187499999999993
40
0.187499999999993
40
0.249999999999992
40
0.312499999999991
40
0.312499999999991
40
0.32812499999999
40
0.32812499999999
40
0.34374999999999
40
0.374999999999991
40
0.374999999999991
40
0.437499999999996
40
0.437499999999996
40
0.468749999999998
40
0.468749999999998
40
0.484375
40
0.484375
40
0.500000000000001
40
0.500000000000001
40
0.5625
40
0.624999999999999
40
0.624999999999999
40
0.656249999999998
40
0.656249999999998
40
0.687499999999998
40
0.687499999999998
40
0.749999999999998
40
0.749999999999998
40
0.781249999999998
40
0.781249999999998
40
0.812499999999998
40
0.812499999999998
40
0.874999999999998
40
0.937499999999999
40
0.937499999999999
40
0.968749999999999
40
0.968749999999999
40
1
40
1
40
1
40
1
41
1
10
16.475
20
-10.6070107729664
30
0
41
1
10
16.5131913232136
20
-10.5443921370143
30
0
41
1
10
16.5554551603681
20
-10.4847232541501
30
0
41
1
10
16.6478009638929
20
-10.3710920803132
30
0
41
1
10
16.6978839475418
20
-10.3171303990357
30
0
41
1
10
16.7789435239476
20
-10.2405557761168
30
0
41
1
10
16.8069557155953
20
-10.2157612129988
30
0
41
1
10
16.8505015589458
20
-10.1796982562142
30
0
41
1
10
16.8652488722836
20
-10.1678859791006
30
0
41
1
10
16.8950371680023
20
-10.1448092850989
30
0
41
1
10
16.9101019245861
20
-10.1335249806682
30
0
41
1
10
16.9862682240961
20
-10.0783598013233
30
0
41
1
10
17.1135048019649
20
-9.99810440202506
30
0
41
1
10
17.2513051323546
20
-9.93368795652893
30
0
41
1
10
17.340852835611
20
-9.89858324515498
30
0
41
1
10
17.3589510261372
20
-9.89181640211442
30
0
41
1
10
17.3952241179028
20
-9.87890245823505
30
0
41
1
10
17.4498427753161
20
-9.86042283638409
30
0
41
1
10
17.5050795190823
20
-9.84458100393073
30
0
41
1
10
17.6163637965048
20
-9.81636234594922
30
0
41
1
10
17.691630903465
20
-9.80215542489771
30
0
41
1
10
17.8061588831876
20
-9.78781340463095
30
0
41
1
10
17.844606956195
20
-9.78419771885234
30
0
41
1
10
17.9026967272745
20
-9.78056340531575
30
0
41
1
10
17.9221663084688
20
-9.77964974066578
30
0
41
1
10
17.9610107977543
20
-9.77843495631799
30
0
41
1
10
17.9803927501871
20
-9.7781320065794
30
0
41
1
10
18.0771038623368
20
-9.77811829132872
30
0
41
1
10
18.2305754564871
20
-9.78766474594286
30
0
41
1
10
18.3815722297399
20
-9.81590138395842
30
0
41
1
10
18.4938641285014
20
-9.84428280154003
30
0
41
1
10
18.53118989199
20
-9.85497541642002
30
0
41
1
10
18.6044182748904
20
-9.87846105930961
30
0
41
1
10
18.6404572010122
20
-9.89128383844218
30
0
41
1
10
18.7468816355557
20
-9.93292345777991
30
0
41
1
10
18.8155819965158
20
-9.96489835975109
30
0
41
1
10
18.9152578724162
20
-10.0191571511298
30
0
41
1
10
18.9479189224545
20
-10.0382961290575
30
0
41
1
10
19.0120899248211
20
-10.0787163637088
30
0
41
1
10
19.0436842374209
20
-10.1000670133716
30
0
41
1
10
19.1354026811123
20
-10.1664560790587
30
0
41
1
10
19.2503034630021
20
-10.261596071992
30
0
41
1
10
19.350832367964
20
-10.3695186588663
30
0
41
1
10
19.420705897915
20
-10.4553370465732
30
0
41
1
10
19.4431211599626
20
-10.4848306471199
30
0
41
1
10
19.4857083394232
20
-10.545003252593
30
0
41
1
10
19.5059044140919
20
-10.5757015791061
30
0
41
1
10
19.525
20
-10.6070107729664
30
0
0
SPLINE
5
177
100
AcDbEntity
8
1
62
256
6
ByLayer
370
18
48
1
60
0
100
AcDbSpline
70
4
71
3
72
52
73
48
40
0
40
0
40
0
40
0
40
0.0624999999999966
40
0.0624999999999966
40
0.124999999999993
40
0.124999999999993
40
0.156249999999992
40
0.156249999999992
40
0.17187499999999
40
0.17187499999999
40
0.187499999999989
40
0.187499999999989
40
0.249999999999987
40
0.312499999999984
40
0.312499999999984
40
0.328124999999984
40
0.328124999999984
40
0.343749999999983
40
0.374999999999985
40
0.374999999999985
40
0.437499999999991
40
0.437499999999991
40
0.468749999999994
40
0.468749999999994
40
0.484374999999996
40
0.484374999999996
40
0.499999999999997
40
0.499999999999997
40
0.562499999999998
40
0.624999999999999
40
0.624999999999999
40
0.656249999999999
40
0.656249999999999
40
0.6875
40
0.6875
40
0.75
40
0.75
40
0.78125
40
0.78125
40
0.8125
40
0.8125
40
0.875
40
0.937500000000001
40
0.937500000000001
40
0.96875
40
0.96875
40
1
40
1
40
1
40
1
41
1
10
16.475
20
6.08256053862559
30
0
41
1
10
16.5131913232136
20
6.14875739362768
30
0
41
1
10
16.555455160368
20
6.21167813815893
30
0
41
1
10
16.6478009638929
20
6.33125697971621
30
0
41
1
10
16.6978839475418
20
6.38791418129557
30
0
41
1
10
16.7789435239476
20
6.46816741062787
30
0
41
1
10
16.8069557155953
20
6.49412721987309
30
0
41
1
10
16.8505015589457
20
6.53185172670342
30
0
41
1
10
16.8652488722836
20
6.54420249950999
30
0
41
1
10
16.8950371680023
20
6.5683208958138
30
0
41
1
10
16.910101924586
20
6.58010932569815
30
0
41
1
10
16.9862682240961
20
6.6377155413274
30
0
41
1
10
17.1135048019649
20
6.72137011403404
30
0
41
1
10
17.2513051323546
20
6.78833183584044
30
0
41
1
10
17.340852835611
20
6.82479062943611
30
0
41
1
10
17.3589510261372
20
6.83181655502966
30
0
41
1
10
17.3952241179028
20
6.84522181803516
30
0
41
1
10
17.4498427753161
20
6.86439961794036
30
0
41
1
10
17.5050795190823
20
6.88082858055878
30
0
41
1
10
17.6163637965048
20
6.91008402699762
30
0
41
1
10
17.691630903465
20
6.92479996636311
30
0
41
1
10
17.8061588831876
20
6.93965309017213
30
0
41
1
10
17.844606956195
20
6.94339679009536
30
0
41
1
10
17.9026967272745
20
6.94715960022205
30
0
41
1
10
17.9221663084688
20
6.94810551514658
30
0
41
1
10
17.9610107977542
20
6.94936316404238
30
0
41
1
10
17.9803927501871
20
6.94967679285188
30
0
41
1
10
18.0771038623368
20
6.94969099173079
30
0
41
1
10
18.2305754564871
20
6.93980956551974
30
0
41
1
10
18.3815722297398
20
6.91056175055314
30
0
41
1
10
18.4938641285014
20
6.88113782423093
30
0
41
1
10
18.53118989199
20
6.87004896572745
30
0
41
1
10
18.6044182748904
20
6.84568118407401
30
0
41
1
10
18.6404572010122
20
6.83237143195063
30
0
41
1
10
18.7468816355557
20
6.78912613927821
30
0
41
1
10
18.8155819965158
20
6.75588884276834
30
0
41
1
10
18.9152578724162
20
6.69940194144635
30
0
41
1
10
18.9479189224545
20
6.67946425122693
30
0
41
1
10
19.012089924821
20
6.63732337158424
30
0
41
1
10
19.0436842374209
20
6.61504762114134
30
0
41
1
10
19.1354026811123
20
6.54572138246814
30
0
41
1
10
19.250303463002
20
6.44621804518866
30
0
41
1
10
19.3508323679639
20
6.33291094167322
30
0
41
1
10
19.420705897915
20
6.24260335462125
30
0
41
1
10
19.4431211599626
20
6.21153396868374
30
0
41
1
10
19.4857083394232
20
6.14807178447589
30
0
41
1
10
19.5059044140918
20
6.11565883491858
30
0
41
1
10
19.525
20
6.08256053862564
30
0
0
SPLINE
5
178
100
AcDbEntity
8
1
62
256
6
ByLayer
370
18
48
1
60
0
100
AcDbSpline
70
4
71
3
72
52
73
48
40
0
40
0
40
0
40
0
40
0.0625000000000046
40
0.0625000000000046
40
0.125000000000009
40
0.125000000000009
40
0.15625000000001
40
0.15625000000001
40
0.171875000000011
40
0.171875000000011
40
0.187500000000011
40
0.187500000000011
40
0.250000000000006
40
0.312500000000002
40
0.312500000000002
40
0.328125000000001
40
0.328125000000001
40
0.34375
40
0.375000000000001
40
0.375000000000001
40
0.437500000000005
40
0.437500000000005
40
0.468750000000007
40
0.468750000000007
40
0.484375000000008
40
0.484375000000008
40
0.500000000000009
40
0.500000000000009
40
0.562500000000008
40
0.625000000000007
40
0.625000000000007
40
0.656250000000007
40
0.656250000000007
40
0.687500000000006
40
0.687500000000006
40
0.750000000000002
40
0.750000000000002
40
0.781250000000001
40
0.781250000000001
40
0.812499999999999
40
0.812499999999999
40
0.874999999999999
40
0.937499999999999
40
0.937499999999999
40
0.968749999999999
40
0.968749999999999
40
1
40
1
40
1
40
1
41
1
10
19.525
20
-6.08256053862559
30
0
41
1
10
19.4868086767864
20
-6.14875739362765
30
0
41
1
10
19.4445448396319
20
-6.2116781381589
30
0
41
1
10
19.3521990361071
20
-6.33125697971621
30
0
41
1
10
19.3021160524582
20
-6.38791418129554
30
0
41
1
10
19.2210564760524
20
-6.46816741062784
30
0
41
1
10
19.1930442844046
20
-6.49412721987306
30
0
41
1
10
19.1494984410542
20
-6.53185172670339
30
0
41
1
10
19.1347511277164
20
-6.54420249950996
30
0
41
1
10
19.1049628319977
20
-6.56832089581377
30
0
41
1
10
19.0898980754139
20
-6.58010932569812
30
0
41
1
10
19.0137317759039
20
-6.63771554132737
30
0
41
1
10
18.8864951980351
20
-6.72137011403402
30
0
41
1
10
18.7486948676454
20
-6.78833183584038
30
0
41
1
10
18.6591471643889
20
-6.82479062943605
30
0
41
1
10
18.6410489738628
20
-6.8318165550296
30
0
41
1
10
18.6047758820972
20
-6.8452218180351
30
0
41
1
10
18.5501572246839
20
-6.86439961794031
30
0
41
1
10
18.4949204809177
20
-6.88082858055876
30
0
41
1
10
18.3836362034951
20
-6.91008402699757
30
0
41
1
10
18.3083690965349
20
-6.92479996636305
30
0
41
1
10
18.1938411168124
20
-6.93965309017207
30
0
41
1
10
18.155393043805
20
-6.94339679009531
30
0
41
1
10
18.0973032727254
20
-6.94715960022197
30
0
41
1
10
18.0778336915312
20
-6.94810551514649
30
0
41
1
10
18.0389892022457
20
-6.9493631640423
30
0
41
1
10
18.0196072498129
20
-6.94967679285179
30
0
41
1
10
17.9228961376632
20
-6.94969099173073
30
0
41
1
10
17.7694245435129
20
-6.93980956551965
30
0
41
1
10
17.6184277702601
20
-6.91056175055303
30
0
41
1
10
17.5061358714986
20
-6.88113782423085
30
0
41
1
10
17.46881010801
20
-6.87004896572736
30
0
41
1
10
17.3955817251096
20
-6.8456811840739
30
0
41
1
10
17.3595427989878
20
-6.83237143195052
30
0
41
1
10
17.2531183644443
20
-6.7891261392781
30
0
41
1
10
17.1844180034841
20
-6.75588884276823
30
0
41
1
10
17.0847421275837
20
-6.69940194144627
30
0
41
1
10
17.0520810775454
20
-6.67946425122682
30
0
41
1
10
16.9879100751789
20
-6.63732337158413
30
0
41
1
10
16.9563157625791
20
-6.61504762114123
30
0
41
1
10
16.8645973188877
20
-6.545721382468
30
0
41
1
10
16.7496965369979
20
-6.44621804518852
30
0
41
1
10
16.649167632036
20
-6.33291094167311
30
0
41
1
10
16.579294102085
20
-6.24260335462111
30
0
41
1
10
16.5568788400374
20
-6.2115339686836
30
0
41
1
10
16.5142916605768
20
-6.14807178447575
30
0
41
1
10
16.4940955859082
20
-6.11565883491843
30
0
41
1
10
16.475
20
-6.08256053862553
30
0
0
SPLINE
5
179
100
AcDbEntity
8
1
62
256
6
ByLayer
370
18
48
1
60
0
100
AcDbSpline
70
4
71
3
72
52
73
48
40
0
40
0
40
0
40
0
40
0.0625000000000048
40
0.0625000000000048
40
0.125000000000009
40
0.125000000000009
40
0.156250000000011
40
0.156250000000011
40
0.171875000000011
40
0.171875000000011
40
0.187500000000011
40
0.187500000000011
40
0.250000000000008
40
0.312500000000005
40
0.312500000000005
40
0.328125000000004
40
0.328125000000004
40
0.343750000000003
40
0.375000000000005
40
0.375000000000005
40
0.43750000000001
40
0.43750000000001
40
0.468750000000013
40
0.468750000000013
40
0.484375000000014
40
0.484375000000014
40
0.500000000000016
40
0.500000000000016
40
0.562500000000016
40
0.625000000000016
40
0.625000000000016
40
0.656250000000016
40
0.656250000000016
40
0.687500000000016
40
0.687500000000016
40
0.750000000000013
40
0.750000000000013
40
0.781250000000012
40
0.781250000000012
40
0.812500000000011
40
0.812500000000011
40
0.875000000000007
40
0.937500000000002
40
0.937500000000002
40
0.968750000000001
40
0.968750000000001
40
1
40
1
40
1
40
1
41
1
10
19.525
20
4.39727504184239
30
0
41
1
10
19.4868086767864
20
4.33026883424901
30
0
41
1
10
19.4445448396319
20
4.2664824996358
30
0
41
1
10
19.3521990361071
20
4.14510871908143
30
0
41
1
10
19.3021160524582
20
4.08752202642347
30
0
41
1
10
19.2210564760524
20
4.00586219933035
30
0
41
1
10
19.1930442844046
20
3.97943146776817
30
0
41
1
10
19.1494984410542
20
3.94100212554869
30
0
41
1
10
19.1347511277164
20
3.92841705521303
30
0
41
1
10
19.1049628319977
20
3.90383476337578
30
0
41
1
10
19.0898980754139
20
3.89181634832062
30
0
41
1
10
19.0137317759039
20
3.83307178099577
30
0
41
1
10
18.8864951980351
20
3.74767015971875
30
0
41
1
10
18.7486948676454
20
3.67919672019565
30
0
41
1
10
18.6591471643889
20
3.64189435680262
30
0
41
1
10
18.6410489738628
20
3.63470466759034
30
0
41
1
10
18.6047758820971
20
3.62098501118811
30
0
41
1
10
18.5501572246839
20
3.6013543953045
30
0
41
1
10
18.4949204809177
20
3.58453044090757
30
0
41
1
10
18.3836362034951
20
3.55456599263886
30
0
41
1
10
18.3083690965349
20
3.53948534937436
30
0
41
1
10
18.1938411168124
20
3.52426240594025
30
0
41
1
10
18.155393043805
20
3.52042497218653
30
0
41
1
10
18.0973032727254
20
3.51656783942963
30
0
41
1
10
18.0778336915312
20
3.51559817972628
30
0
41
1
10
18.0389892022457
20
3.51430895169156
30
0
41
1
10
18.0196072498129
20
3.51398744108229
30
0
41
1
10
17.9228961376632
20
3.51397288547221
30
0
41
1
10
17.7694245435128
20
3.52410360363302
30
0
41
1
10
17.6184277702601
20
3.55407658278222
30
0
41
1
10
17.5061358714986
20
3.58421375561872
30
0
41
1
10
17.4688101080099
20
3.59556924568148
30
0
41
1
10
17.3955817251096
20
3.62051560110993
30
0
41
1
10
17.3595427989878
20
3.63413805206946
30
0
41
1
10
17.2531183644443
20
3.678384234703
30
0
41
1
10
17.1844180034841
20
3.71237252714314
30
0
41
1
10
17.0847421275837
20
3.77008242151149
30
0
41
1
10
17.0520810775454
20
3.79044386199391
30
0
41
1
10
16.9879100751789
20
3.83345945050357
30
0
41
1
10
16.9563157625791
20
3.85618753320904
30
0
41
1
10
16.8645973188877
20
3.9268840405114
30
0
41
1
10
16.7496965369979
20
4.02825886708578
30
0
41
1
10
16.649167632036
20
4.14342881752521
30
0
41
1
10
16.579294102085
20
4.23509361941078
30
0
41
1
10
16.5568788400374
20
4.26660973475578
30
0
41
1
10
16.5142916605768
20
4.33093867792599
30
0
41
1
10
16.4940955859081
20
4.36377207085809
30
0
41
1
10
16.475
20
4.39727504184245
30
0
0
SPLINE
5
17A
100
AcDbEntity
8
1
62
256
6
ByLayer
370
18
48
1
60
0
100
AcDbSpline
70
4
71
3
72
52
73
48
40
0
40
0
40
0
40
0
40
0.0624999999999902
40
0.0624999999999902
40
0.12499999999998
40
0.12499999999998
40
0.156249999999976
40
0.156249999999976
40
0.171874999999974
40
0.171874999999974
40
0.187499999999973
40
0.187499999999973
40
0.249999999999972
40
0.312499999999971
40
0.312499999999971
40
0.328124999999971
40
0.328124999999971
40
0.343749999999971
40
0.374999999999974
40
0.374999999999974
40
0.437499999999982
40
0.437499999999982
40
0.468749999999986
40
0.468749999999986
40
0.484374999999988
40
0.484374999999988
40
0.49999999999999
40
0.49999999999999
40
0.562499999999992
40
0.624999999999994
40
0.624999999999994
40
0.656249999999996
40
0.656249999999996
40
0.687499999999997
40
0.687499999999997
40
0.749999999999999
40
0.749999999999999
40
0.781249999999999
40
0.781249999999999
40
0.812499999999999
40
0.812499999999999
40
0.874999999999999
40
0.937499999999999
40
0.937499999999999
40
0.96875
40
0.96875
40
1
40
1
40
1
40
1
41
1
10
16.475
20
-4.39727504184236
30
0
41
1
10
16.5131913232136
20
-4.33026883424898
30
0
41
1
10
16.5554551603681
20
-4.26648249963577
30
0
41
1
10
16.6478009638929
20
-4.14510871908143
30
0
41
1
10
16.6978839475418
20
-4.08752202642344
30
0
41
1
10
16.7789435239476
20
-4.00586219933032
30
0
41
1
10
16.8069557155953
20
-3.97943146776814
30
0
41
1
10
16.8505015589457
20
-3.94100212554866
30
0
41
1
10
16.8652488722836
20
-3.928417055213
30
0
41
1
10
16.8950371680023
20
-3.90383476337575
30
0
41
1
10
16.9101019245861
20
-3.89181634832059
30
0
41
1
10
16.9862682240961
20
-3.83307178099574
30
0
41
1
10
17.1135048019649
20
-3.74767015971872
30
0
41
1
10
17.2513051323546
20
-3.67919672019559
30
0
41
1
10
17.340852835611
20
-3.6418943568026
30
0
41
1
10
17.3589510261372
20
-3.63470466759029
30
0
41
1
10
17.3952241179028
20
-3.62098501118805
30
0
41
1
10
17.4498427753161
20
-3.60135439530444
30
0
41
1
10
17.5050795190823
20
-3.58453044090751
30
0
41
1
10
17.6163637965048
20
-3.5545659926388
30
0
41
1
10
17.691630903465
20
-3.5394853493743
30
0
41
1
10
17.8061588831876
20
-3.52426240594019
30
0
41
1
10
17.844606956195
20
-3.52042497218645
30
0
41
1
10
17.9026967272745
20
-3.51656783942957
30
0
41
1
10
17.9221663084688
20
-3.5155981797262
30
0
41
1
10
17.9610107977543
20
-3.5143089516915
30
0
41
1
10
17.9803927501871
20
-3.51398744108221
30
0
41
1
10
18.0771038623368
20
-3.51397288547213
30
0
41
1
10
18.2305754564871
20
-3.52410360363294
30
0
41
1
10
18.3815722297398
20
-3.55407658278213
30
0
41
1
10
18.4938641285014
20
-3.58421375561863
30
0
41
1
10
18.53118989199
20
-3.59556924568136
30
0
41
1
10
18.6044182748904
20
-3.62051560110982
30
0
41
1
10
18.6404572010122
20
-3.63413805206938
30
0
41
1
10
18.7468816355557
20
-3.67838423470289
30
0
41
1
10
18.8155819965158
20
-3.71237252714303
30
0
41
1
10
18.9152578724162
20
-3.77008242151138
30
0
41
1
10
18.9479189224545
20
-3.79044386199379
30
0
41
1
10
19.012089924821
20
-3.83345945050345
30
0
41
1
10
19.0436842374209
20
-3.85618753320892
30
0
41
1
10
19.1354026811123
20
-3.92688404051128
30
0
41
1
10
19.250303463002
20
-4.02825886708567
30
0
41
1
10
19.350832367964
20
-4.14342881752509
30
0
41
1
10
19.420705897915
20
-4.23509361941063
30
0
41
1
10
19.4431211599626
20
-4.26660973475563
30
0
41
1
10
19.4857083394232
20
-4.33093867792584
30
0
41
1
10
19.5059044140919
20
-4.36377207085795
30
0
41
1
10
19.525
20
-4.39727504184231
30
0
0
SPLINE
5
17B
100
AcDbEntity
8
1
62
256
6
ByLayer
370
18
48
1
60
0
100
AcDbSpline
70
4
71
3
72
18
73
14
40
0
40
0
40
0
40
0
40
0.250000000000004
40
0.250000000000004
40
0.375000000000004
40
0.375000000000004
40
0.500000000000003
40
0.500000000000003
40
0.625000000000002
40
0.625000000000002
40
0.750000000000001
40
0.750000000000001
40
1
40
1
40
1
40
1
41
1
10
19.925
20
26.697103190234
30
0
41
1
10
19.925
20
26.6698685852525
30
0
41
1
10
19.9224731220319
20
26.6428008079355
30
0
41
1
10
19.9148171455652
20
26.6024543576674
30
0
41
1
10
19.9115996570472
20
26.589007869633
30
0
41
1
10
19.9039472157243
20
26.5626603688927
30
0
41
1
10
19.8995068479357
20
26.5497093197238
30
0
41
1
10
19.8893945845804
20
26.5242537963244
30
0
41
1
10
19.8837052336603
20
26.5117157078946
30
0
41
1
10
19.8711326634775
20
26.4872501038808
30
0
41
1
10
19.8643009268049
20
26.4754142610501
30
0
41
1
10
19.8422015430664
20
26.4410741899467
30
0
41
1
10
19.8253462606135
20
26.4197253830844
30
0
41
1
10
19.8062602725373
20
26.4
30
0
0
SPLINE
5
17C
100
AcDbEntity
8
1
62
256
6
ByLayer
370
18
48
1
60
0
100
AcDbSpline
70
4
71
3
72
26
73
22
40
0
40
0
40
0
40
0
40
0.249999999999994
40
0.249999999999994
40
0.374999999999991
40
0.374999999999991
40
0.499999999999988
40
0.499999999999988
40
0.624999999999985
40
0.624999999999985
40
0.749999999999982
40
0.749999999999982
40
0.812499999999972
40
0.812499999999972
40
0.874999999999962
40
0.874999999999962
40
0.906249999999966
40
0.906249999999966
40
0.937499999999971
40
0.937499999999971
40
1
40
1
40
1
40
1
41
1
10
19.8062602725373
20
26.4
30
0
41
1
10
19.7940965948292
20
26.4
30
0
41
1
10
19.7805948871375
20
26.4
30
0
41
1
10
19.7573398153967
20
26.4
30
0
41
1
10
19.7491017306859
20
26.4
30
0
41
1
10
19.7314550314071
20
26.4
30
0
41
1
10
19.7220419248777
20
26.4
30
0
41
1
10
19.7015999939951
20
26.4
30
0
41
1
10
19.6905668771768
20
26.4
30
0
41
1
10
19.6661255684364
20
26.4
30
0
41
1
10
19.6528645548572
20
26.4
30
0
41
1
10
19.6303061592548
20
26.4
30
0
41
1
10
19.6224072259904
20
26.4
30
0
41
1
10
19.6056945143669
20
26.4
30
0
41
1
10
19.5968739568959
20
26.4
30
0
41
1
10
19.5826568687739
20
26.4
30
0
41
1
10
19.577721121873
20
26.4
30
0
41
1
10
19.5676852979551
20
26.4
30
0
41
1
10
19.5625702138709
20
26.4
30
0
41
1
10
19.5468992171813
20
26.4
30
0
41
1
10
19.5358590822777
20
26.4
30
0
41
1
10
19.5249999999999
20
26.4
30
0
0
SPLINE
5
17D
100
AcDbEntity
8
1
62
256
6
ByLayer
370
18
48
1
60
0
100
AcDbSpline
70
4
71
3
72
32
73
28
40
0
40
0
40
0
40
0
40
0.125000000000008
40
0.125000000000008
40
0.250000000000017
40
0.250000000000017
40
0.28125000000002
40
0.28125000000002
40
0.312500000000022
40
0.312500000000022
40
0.375000000000027
40
0.375000000000027
40
0.500000000000037
40
0.500000000000037
40
0.56250000000004
40
0.56250000000004
40
0.59375000000004
40
0.59375000000004
40
0.62500000000004
40
0.62500000000004
40
0.750000000000027
40
0.750000000000027
40
0.875000000000013
40
0.875000000000013
40
0.937500000000006
40
0.937500000000006
40
1
40
1
40
1
40
1
41
1
10
19.525
20
17.5834806976043
30
0
41
1
10
19.5622257722493
20
17.5326400828398
30
0
41
1
10
19.5945540477172
20
17.4837709145101
30
0
41
1
10
19.6502751353693
20
17.385809564816
30
0
41
1
10
19.6736593922955
20
17.3367730980135
30
0
41
1
10
19.6973388066952
20
17.2733476112501
30
0
41
1
10
19.7017954531887
20
17.260556318764
30
0
41
1
10
19.7101445492717
20
17.2347100837203
30
0
41
1
10
19.7140405161274
20
17.2216387005083
30
0
41
1
10
19.7248000309275
20
17.1822265904381
30
0
41
1
10
19.7307633876758
20
17.1556115350388
30
0
41
1
10
19.7450941258959
20
17.0743282741437
30
0
41
1
10
19.7499173582746
20
17.0181632092858
30
0
41
1
10
19.75003974825
20
16.9301110113541
30
0
41
1
10
19.7488912538172
20
16.9001401020892
30
0
41
1
10
19.7453483394831
20
16.8542877881334
30
0
41
1
10
19.7438637724502
20
16.838855392939
30
0
41
1
10
19.7402785478741
20
16.8077116819231
30
0
41
1
10
19.7381740269327
20
16.7919827488977
30
0
41
1
10
19.7261954023969
20
16.7133571248931
30
0
41
1
10
19.7119380543277
20
16.6500117336235
30
0
41
1
10
19.6743437734414
20
16.5245006582798
30
0
41
1
10
19.6510085472785
20
16.4623315712261
30
0
41
1
10
19.6088439545667
20
16.3718879296942
30
0
41
1
10
19.5936282036746
20
16.3423092294412
30
0
41
1
10
19.561007612055
20
16.2850154421057
30
0
41
1
10
19.5435796738199
20
16.2572467885351
30
0
41
1
10
19.5250000000015
20
16.2306014000895
30
0
0
SPLINE
5
17E
100
AcDbEntity
8
1
62
256
6
ByLayer
370
18
48
1
60
0
100
AcDbSpline
70
4
71
3
72
32
73
28
40
0
40
0
40
0
40
0
40
0.124999999999998
40
0.124999999999998
40
0.249999999999995
40
0.249999999999995
40
0.281249999999999
40
0.281249999999999
40
0.312500000000002
40
0.312500000000002
40
0.375000000000006
40
0.375000000000006
40
0.50000000000001
40
0.50000000000001
40
0.56250000000001
40
0.56250000000001
40
0.593750000000009
40
0.593750000000009
40
0.625000000000007
40
0.625000000000007
40
0.750000000000004
40
0.750000000000004
40
0.875
40
0.875
40
0.9375
40
0.9375
40
1
40
1
40
1
40
1
41
1
10
19.525
20
12.1692581906231
30
0
41
1
10
19.5622257722493
20
12.1099372048311
30
0
41
1
10
19.5945540477172
20
12.0514555137903
30
0
41
1
10
19.6502751353693
20
11.9332132340508
30
0
41
1
10
19.6736593922955
20
11.8734925654131
30
0
41
1
10
19.6973388066952
20
11.7965822670498
30
0
41
1
10
19.7017954531887
20
11.7810872439874
30
0
41
1
10
19.7101445492717
20
11.7498328466778
30
0
41
1
10
19.7140405161274
20
11.7340537908139
30
0
41
1
10
19.7248000309275
20
11.6865918658699
30
0
41
1
10
19.7307633876758
20
11.6546927954511
30
0
41
1
10
19.7450941258959
20
11.5579345614434
30
0
41
1
10
19.7499173582746
20
11.4919739496654
30
0
41
1
10
19.7500397482501
20
11.3902680493042
30
0
41
1
10
19.7488912538172
20
11.3559148251436
30
0
41
1
10
19.7453483394831
20
11.3037312093318
30
0
41
1
10
19.7438637724502
20
11.2862284197144
30
0
41
1
10
19.7402785478741
20
11.2510184083222
30
0
41
1
10
19.7381740269327
20
11.2332915725756
30
0
41
1
10
19.7261954023969
20
11.1449220122847
30
0
41
1
10
19.7119380543277
20
11.0745080404172
30
0
41
1
10
19.6743437734414
20
10.935418858235
30
0
41
1
10
19.6510085472785
20
10.8667414663276
30
0
41
1
10
19.6088439545667
20
10.7661926607265
30
0
41
1
10
19.5936282036746
20
10.733197290257
30
0
41
1
10
19.561007612055
20
10.668867196194
30
0
41
1
10
19.5435796738199
20
10.6374740754395
30
0
41
1
10
19.5250000000015
20
10.6070107729652
30
0
0
SPLINE
5
17F
100
AcDbEntity
8
1
62
256
6
ByLayer
370
18
48
1
60
0
100
AcDbSpline
70
4
71
3
72
32
73
28
40
0
40
0
40
0
40
0
40
0.125000000000003
40
0.125000000000003
40
0.250000000000007
40
0.250000000000007
40
0.281250000000007
40
0.281250000000007
40
0.312500000000007
40
0.312500000000007
40
0.375000000000007
40
0.375000000000007
40
0.500000000000005
40
0.500000000000005
40
0.562500000000004
40
0.562500000000004
40
0.593750000000004
40
0.593750000000004
40
0.625000000000004
40
0.625000000000004
40
0.750000000000003
40
0.750000000000003
40
0.875000000000002
40
0.875000000000002
40
0.937500000000001
40
0.937500000000001
40
1
40
1
40
1
40
1
41
1
10
19.525
20
6.08256053862564
30
0
41
1
10
19.5622257722493
20
6.01803726892518
30
0
41
1
10
19.5945540477172
20
5.95317476273078
30
0
41
1
10
19.6502751353693
20
5.82118564014885
30
0
41
1
10
19.6736593922955
20
5.75408094333287
30
0
41
1
10
19.6973388066952
20
5.66793590870156
30
0
41
1
10
19.7017954531887
20
5.65059341250409
30
0
41
1
10
19.7101445492717
20
5.61565797589981
30
0
41
1
10
19.7140405161275
20
5.59804320052316
30
0
41
1
10
19.7248000309276
20
5.54515421423412
30
0
41
1
10
19.7307633876759
20
5.50973387650564
30
0
41
1
10
19.7450941258959
20
5.40284754480078
30
0
41
1
10
19.7499173582746
20
5.33073638001073
30
0
41
1
10
19.7500397482501
20
5.22099706146614
30
0
41
1
10
19.7488912538172
20
5.18415988704615
30
0
41
1
10
19.7453483394831
20
5.12852864429595
30
0
41
1
10
19.7438637724502
20
5.10992266719632
30
0
41
1
10
19.7402785478741
20
5.07259206626296
30
0
41
1
10
19.7381740269327
20
5.05384691556071
30
0
41
1
10
19.7261954023969
20
4.96061673495407
30
0
41
1
10
19.7119380543277
20
4.8870252697844
30
0
41
1
10
19.6743437734414
20
4.74204407111463
30
0
41
1
10
19.6510085472785
20
4.67065349796408
30
0
41
1
10
19.6088439545667
20
4.56555587129904
30
0
41
1
10
19.5936282036746
20
4.53096716003833
30
0
41
1
10
19.561007612055
20
4.46315565048744
30
0
41
1
10
19.5435796738199
20
4.42987285139978
30
0
41
1
10
19.5250000000015
20
4.39727504184148
30
0
0
SPLINE
5
180
100
AcDbEntity
8
1
62
256
6
ByLayer
370
18
48
1
60
0
100
AcDbSpline
70
4
71
3
72
32
73
28
40
0
40
0
40
0
40
0
40
0.124999999999995
40
0.124999999999995
40
0.24999999999999
40
0.24999999999999
40
0.28124999999999
40
0.28124999999999
40
0.312499999999989
40
0.312499999999989
40
0.374999999999988
40
0.374999999999988
40
0.499999999999984
40
0.499999999999984
40
0.562499999999983
40
0.562499999999983
40
0.593749999999983
40
0.593749999999983
40
0.624999999999984
40
0.624999999999984
40
0.749999999999989
40
0.749999999999989
40
0.874999999999995
40
0.874999999999995
40
0.937499999999997
40
0.937499999999997
40
1
40
1
40
1
40
1
41
1
10
19.525
20
-4.39727504184231
30
0
41
1
10
19.5622257722493
20
-4.46258720212572
30
0
41
1
10
19.5945540477172
20
-4.53009002909832
30
0
41
1
10
19.6502751353693
20
-4.66867550134617
30
0
41
1
10
19.6736593922956
20
-4.73976768015044
30
0
41
1
10
19.6973388066952
20
-4.8306393556951
30
0
41
1
10
19.7017954531887
20
-4.84891472825549
30
0
41
1
10
19.7101445492718
20
-4.88566426077156
30
0
41
1
10
19.7140405161275
20
-4.90416115310475
30
0
41
1
10
19.7248000309276
20
-4.9595627272837
30
0
41
1
10
19.7307633876759
20
-4.99648396900861
30
0
41
1
10
19.7450941258959
20
-5.10710058564638
30
0
41
1
10
19.7499173582746
20
-5.18063336510286
30
0
41
1
10
19.7500397482501
20
-5.29040742678771
30
0
41
1
10
19.7488912538173
20
-5.32691494893038
30
0
41
1
10
19.7453483394831
20
-5.38156114250995
30
0
41
1
10
19.7438637724502
20
-5.39975762939505
30
0
41
1
10
19.7402785478741
20
-5.43611769128916
30
0
41
1
10
19.7381740269327
20
-5.45430085327988
30
0
41
1
10
19.726195402397
20
-5.54440853907869
30
0
41
1
10
19.7119380543278
20
-5.61447736777072
30
0
41
1
10
19.6743437734414
20
-5.75192831278738
30
0
41
1
10
19.6510085472785
20
-5.81930901699789
30
0
41
1
10
19.6088439545667
20
-5.91939349294728
30
0
41
1
10
19.5936282036746
20
-5.95248681896442
30
0
41
1
10
19.561007612055
20
-6.01794053534573
30
0
41
1
10
19.5435796738199
20
-6.0503564705221
30
0
41
1
10
19.5250000000015
20
-6.08256053862587
30
0
0
SPLINE
5
181
100
AcDbEntity
8
1
62
256
6
ByLayer
370
18
48
1
60
0
100
AcDbSpline
70
4
71
3
72
32
73
28
40
0
40
0
40
0
40
0
40
0.124999999999996
40
0.124999999999996
40
0.249999999999992
40
0.249999999999992
40
0.281249999999993
40
0.281249999999993
40
0.312499999999993
40
0.312499999999993
40
0.374999999999994
40
0.374999999999994
40
0.499999999999994
40
0.499999999999994
40
0.562499999999994
40
0.562499999999994
40
0.593749999999995
40
0.593749999999995
40
0.624999999999997
40
0.624999999999997
40
0.749999999999999
40
0.749999999999999
40
0.875000000000001
40
0.875000000000001
40
0.9375
40
0.9375
40
1
40
1
40
1
40
1
41
1
10
19.525
20
-10.6070107729664
30
0
41
1
10
19.5622257722493
20
-10.6680462879571
30
0
41
1
10
19.5945540477172
20
-10.7322662995786
30
0
41
1
10
19.6502751353693
20
-10.864844704443
30
0
41
1
10
19.6736593922956
20
-10.9332315359755
30
0
41
1
10
19.6973388066952
20
-11.0204144425216
30
0
41
1
10
19.7017954531887
20
-11.0379369251551
30
0
41
1
10
19.7101445492718
20
-11.0731339736729
30
0
41
1
10
19.7140405161275
20
-11.0908301715477
30
0
41
1
10
19.7248000309276
20
-11.1437528097954
30
0
41
1
10
19.7307633876759
20
-11.1789138582145
30
0
41
1
10
19.7450941258959
20
-11.283779277902
30
0
41
1
10
19.7499173582746
20
-11.3528295448331
30
0
41
1
10
19.7500397482501
20
-11.4546109539273
30
0
41
1
10
19.7488912538173
20
-11.4882477308808
30
0
41
1
10
19.7453483394831
20
-11.5382904977566
30
0
41
1
10
19.7438637724502
20
-11.5549033250084
30
0
41
1
10
19.7402785478741
20
-11.5880040229454
30
0
41
1
10
19.7381740269327
20
-11.6045094649068
30
0
41
1
10
19.726195402397
20
-11.6860927754484
30
0
41
1
10
19.7119380543278
20
-11.7488508527877
30
0
41
1
10
19.6743437734414
20
-11.8715742168949
30
0
41
1
10
19.6510085472785
20
-11.9315367914003
30
0
41
1
10
19.6088439545667
20
-12.0211903049734
30
0
41
1
10
19.5936282036747
20
-12.0509356915809
30
0
41
1
10
19.561007612055
20
-12.1101414942389
30
0
41
1
10
19.5435796738199
20
-12.1396506230695
30
0
41
1
10
19.5250000000015
20
-12.169258190623
30
0
0
SPLINE
5
182
100
AcDbEntity
8
1
62
256
6
ByLayer
370
18
48
1
60
0
100
AcDbSpline
70
4
71
3
72
32
73
28
40
0
40
0
40
0
40
0
40
0.124999999999994
40
0.124999999999994
40
0.249999999999988
40
0.249999999999988
40
0.281249999999989
40
0.281249999999989
40
0.31249999999999
40
0.31249999999999
40
0.374999999999991
40
0.374999999999991
40
0.499999999999989
40
0.499999999999989
40
0.562499999999987
40
0.562499999999987
40
0.593749999999988
40
0.593749999999988
40
0.62499999999999
40
0.62499999999999
40
0.749999999999993
40
0.749999999999993
40
0.874999999999997
40
0.874999999999997
40
0.937499999999998
40
0.937499999999998
40
1
40
1
40
1
40
1
41
1
10
19.525
20
-16.2306014000909
30
0
41
1
10
19.5622257722493
20
-16.2839874375133
30
0
41
1
10
19.5945540477172
20
-16.3413758257175
30
0
41
1
10
19.6502751353693
20
-16.4606208594385
30
0
41
1
10
19.6736593922956
20
-16.5225232765014
30
0
41
1
10
19.6973388066952
20
-16.6011996727531
30
0
41
1
10
19.7017954531887
20
-16.6170009702799
30
0
41
1
10
19.7101445492718
20
-16.6487005402947
30
0
41
1
10
19.7140405161275
20
-16.6646181489992
30
0
41
1
10
19.7248000309276
20
-16.7121373379005
30
0
41
1
10
19.7307633876759
20
-16.7435951878805
30
0
41
1
10
19.7450941258959
20
-16.8369145308307
30
0
41
1
10
19.7499173582746
20
-16.8976665564927
30
0
41
1
10
19.7500397482501
20
-16.9858308561256
30
0
41
1
10
19.7488912538173
20
-17.0147381142403
30
0
41
1
10
19.7453483394831
20
-17.0574120831477
30
0
41
1
10
19.7438637724503
20
-17.0715232232875
30
0
41
1
10
19.7402785478741
20
-17.0995354074297
30
0
41
1
10
19.7381740269327
20
-17.1134510360111
30
0
41
1
10
19.726195402397
20
-17.1820016645665
30
0
41
1
10
19.7119380543278
20
-17.2339809692081
30
0
41
1
10
19.6743437734414
20
-17.335195039767
30
0
41
1
10
19.6510085472786
20
-17.3844259431538
30
0
41
1
10
19.6088439545667
20
-17.4586942269172
30
0
41
1
10
19.5936282036747
20
-17.4834479393156
30
0
41
1
10
19.5610076120551
20
-17.5331341061696
30
0
41
1
10
19.5435796738199
20
-17.5581057494973
30
0
41
1
10
19.5250000000015
20
-17.5834806976038
30
0
0
SPLINE
5
183
100
AcDbEntity
8
1
62
256
6
ByLayer
370
18
48
1
60
0
100
AcDbSpline
70
4
71
3
72
28
73
24
40
0
40
0
40
0
40
0
40
0.0748212973341532
40
0.0748212973341532
40
0.190468635167386
40
0.190468635167386
40
0.30611597300062
40
0.30611597300062
40
0.421763310833853
40
0.421763310833853
40
0.537410648667087
40
0.537410648667087
40
0.65305798650032
40
0.65305798650032
40
0.768705324333553
40
0.768705324333553
40
0.826528993250165
40
0.826528993250165
40
0.884352662166777
40
0.884352662166777
40
0.942176331083388
40
0.942176331083388
40
1
40
1
40
1
40
1
41
1
10
19.8677200000014
20
-26.3999999999999
30
0
41
1
10
19.8642337517215
20
-26.3999999999999
30
0
41
1
10
19.8605607994628
20
-26.4
30
0
41
1
10
19.8507055228471
20
-26.4
30
0
41
1
10
19.8442344836365
20
-26.4
30
0
41
1
10
19.8302256509178
20
-26.4
30
0
41
1
10
19.822703201059
20
-26.4
30
0
41
1
10
19.8064372623682
20
-26.4
30
0
41
1
10
19.7976959923051
20
-26.4
30
0
41
1
10
19.7787004633519
20
-26.4
30
0
41
1
10
19.7684515593262
20
-26.4
30
0
41
1
10
19.7459364641738
20
-26.4
30
0
41
1
10
19.7336864060722
20
-26.4
30
0
41
1
10
19.7061726787183
20
-26.4
30
0
41
1
10
19.6909725350734
20
-26.4
30
0
41
1
10
19.6640406321409
20
-26.4
30
0
41
1
10
19.6545107395918
20
-26.4
30
0
41
1
10
19.6338830913967
20
-26.4
30
0
41
1
10
19.6228019250377
20
-26.4
30
0
41
1
10
19.598147986261
20
-26.4
30
0
41
1
10
19.5849441081097
20
-26.4
30
0
41
1
10
19.5558575509739
20
-26.4
30
0
41
1
10
19.5407541033155
20
-26.4
30
0
41
1
10
19.525
20
-26.4
30
0
0
SPLINE
5
184
100
AcDbEntity
8
1
62
256
6
ByLayer
370
18
48
1
60
0
100
AcDbSpline
70
4
71
3
72
28
73
24
40
0
40
0
40
0
40
0
40
0.0312500000000011
40
0.0312500000000011
40
0.0625000000000022
40
0.0625000000000022
40
0.125000000000003
40
0.125000000000003
40
0.187500000000004
40
0.187500000000004
40
0.250000000000004
40
0.250000000000004
40
0.375000000000002
40
0.375000000000002
40
0.437500000000001
40
0.437500000000001
40
0.5
40
0.5
40
0.625000000000003
40
0.625000000000003
40
0.750000000000005
40
0.750000000000005
40
1
40
1
40
1
40
1
41
1
10
16.475
20
26.4
30
0
41
1
10
16.4695218117318
20
26.4
30
0
41
1
10
16.4639592722497
20
26.4
30
0
41
1
10
16.4531012812887
20
26.4
30
0
41
1
10
16.4477658912544
20
26.4
30
0
41
1
10
16.4320152361728
20
26.4
30
0
41
1
10
16.4218199762313
20
26.4
30
0
41
1
10
16.4028703180138
20
26.4
30
0
41
1
10
16.393970377898
20
26.4
30
0
41
1
10
16.3770195476014
20
26.4
30
0
41
1
10
16.3690789387687
20
26.4
30
0
41
1
10
16.3466671821828
20
26.4
30
0
41
1
10
16.333431755631
20
26.4
30
0
41
1
10
16.3151061332821
20
26.4
30
0
41
1
10
16.3092743290003
20
26.4
30
0
41
1
10
16.2981587768623
20
26.4
30
0
41
1
10
16.2928571530061
20
26.4
30
0
41
1
10
16.2775791502381
20
26.4
30
0
41
1
10
16.26822240469
20
26.4
30
0
41
1
10
16.2507042143623
20
26.4
30
0
41
1
10
16.2425476678602
20
26.4
30
0
41
1
10
16.2194851817063
20
26.4
30
0
41
1
10
16.2059660040617
20
26.4
30
0
41
1
10
16.1937397274627
20
26.4
30
0
0
SPLINE
5
185
100
AcDbEntity
8
1
62
256
6
ByLayer
370
18
48
1
60
0
100
AcDbSpline
70
4
71
3
72
20
73
16
40
0
40
0
40
0
40
0
40
0.125000000000014
40
0.125000000000014
40
0.250000000000028
40
0.250000000000028
40
0.375000000000043
40
0.375000000000043
40
0.500000000000057
40
0.500000000000057
40
0.750000000000044
40
0.750000000000044
40
0.875000000000022
40
0.875000000000022
40
1
40
1
40
1
40
1
41
1
10
16.1937397274627
20
26.3999999999999
30
0
41
1
10
16.1842797092231
20
26.4097769359917
30
0
41
1
10
16.1752865639471
20
26.4200440728326
30
0
41
1
10
16.1582472360248
20
26.4415726253043
30
0
41
1
10
16.1502374972282
20
26.4527970849149
30
0
41
1
10
16.1354195864134
20
26.4758754239811
30
0
41
1
10
16.1285798508723
20
26.4877681435603
30
0
41
1
10
16.1160373835992
20
26.5122597909401
30
0
41
1
10
16.1103918987635
20
26.5247523636766
30
0
41
1
10
16.0953550131522
20
26.5627233580421
30
0
41
1
10
16.0877979661197
20
26.5887831485574
30
0
41
1
10
16.080138445853
20
26.6289838896701
30
0
41
1
10
16.0781975852373
20
26.6426443681837
30
0
41
1
10
16.0756328445336
20
26.6699147719109
30
0
41
1
10
16.075
20
26.6835224093342
30
0
41
1
10
16.075
20
26.697103190234
30
0
0
SPLINE
5
186
100
AcDbEntity
8
1
62
256
6
ByLayer
370
18
48
1
60
0
100
AcDbSpline
70
4
71
3
72
40
73
36
40
0
40
0
40
0
40
0
40
0.0156465734790131
40
0.0156465734790131
40
0.0312931469580261
40
0.0312931469580261
40
0.0469397204370392
40
0.0469397204370392
40
0.0625862939160522
40
0.0625862939160522
40
0.0782328673950653
40
0.0782328673950653
40
0.0938794408740783
40
0.0938794408740783
40
0.125172587832104
40
0.125172587832104
40
0.156465734790131
40
0.156465734790131
40
0.187758881748157
40
0.187758881748157
40
0.250345175664212
40
0.250345175664212
40
0.312931469580268
40
0.312931469580268
40
0.375517763496323
40
0.375517763496323
40
0.438104057412378
40
0.438104057412378
40
0.500690351328434
40
0.500690351328434
40
0.625862939160543
40
0.625862939160543
40
0.751035526992651
40
0.751035526992651
40
1
40
1
40
1
40
1
41
1
10
16.475
20
-26.4
30
0
41
1
10
16.4673226919549
20
-26.4
30
0
41
1
10
16.4596313914732
20
-26.4
30
0
41
1
10
16.4443522436319
20
-26.4
30
0
41
1
10
16.4369772923286
20
-26.4
30
0
41
1
10
16.4226671530006
20
-26.4
30
0
41
1
10
16.4156891178927
20
-26.4
30
0
41
1
10
16.4024395960546
20
-26.4
30
0
41
1
10
16.3961337977333
20
-26.4
30
0
41
1
10
16.3840205954807
20
-26.4
30
0
41
1
10
16.3782140529184
20
-26.4
30
0
41
1
10
16.367007662028
20
-26.4
30
0
41
1
10
16.36160864823
20
-26.4
30
0
41
1
10
16.3461431413254
20
-26.4
30
0
41
1
10
16.3367000188151
20
-26.4
30
0
41
1
10
16.3189863257433
20
-26.4
30
0
41
1
10
16.3107230075456
20
-26.4
30
0
41
1
10
16.295078277987
20
-26.4
30
0
41
1
10
16.287689546075
20
-26.4
30
0
41
1
10
16.2667934398
20
-26.4
30
0
41
1
10
16.2544360687868
20
-26.4
30
0
41
1
10
16.2317610364965
20
-26.4
30
0
41
1
10
16.2214615373229
20
-26.4
30
0
41
1
10
16.2023941560714
20
-26.4
30
0
41
1
10
16.1936321375889
20
-26.4
30
0
41
1
10
16.1773412140387
20
-26.4
30
0
41
1
10
16.1698146974545
20
-26.4
30
0
41
1
10
16.1558069562402
20
-26.4
30
0
41
1
10
16.149320560564
20
-26.4
30
0
41
1
10
16.1313301316802
20
-26.4
30
0
41
1
10
16.1212477874994
20
-26.4
30
0
41
1
10
16.1041941300891
20
-26.4
30
0
41
1
10
16.0972316710737
20
-26.4
30
0
41
1
10
16.0806251379877
20
-26.4
30
0
41
1
10
16.0750506601543
20
-26.4
30
0
41
1
10
16.0750050000018
20
-26.4
30
0
0
SPLINE
5
187
100
AcDbEntity
8
1
62
256
6
ByLayer
370
18
48
1
60
0
100
AcDbSpline
70
4
71
3
72
32
73
28
40
0
40
0
40
0
40
0
40
0.124999999999998
40
0.124999999999998
40
0.249999999999996
40
0.249999999999996
40
0.281249999999997
40
0.281249999999997
40
0.312499999999999
40
0.312499999999999
40
0.374999999999999
40
0.374999999999999
40
0.499999999999998
40
0.499999999999998
40
0.562499999999995
40
0.562499999999995
40
0.593749999999996
40
0.593749999999996
40
0.624999999999997
40
0.624999999999997
40
0.749999999999998
40
0.749999999999998
40
0.874999999999998
40
0.874999999999998
40
0.937499999999999
40
0.937499999999999
40
1
40
1
40
1
40
1
41
1
10
16.475
20
-17.5834806976042
30
0
41
1
10
16.4377742277507
20
-17.5326400828397
30
0
41
1
10
16.4054459522828
20
-17.48377091451
30
0
41
1
10
16.3497248646308
20
-17.3858095648159
30
0
41
1
10
16.3263406077045
20
-17.3367730980134
30
0
41
1
10
16.3026611933048
20
-17.27334761125
30
0
41
1
10
16.2982045468113
20
-17.260556318764
30
0
41
1
10
16.2898554507283
20
-17.2347100837202
30
0
41
1
10
16.2859594838726
20
-17.2216387005082
30
0
41
1
10
16.2751999690725
20
-17.182226590438
30
0
41
1
10
16.2692366123242
20
-17.1556115350387
30
0
41
1
10
16.2549058741042
20
-17.0743282741437
30
0
41
1
10
16.2500826417255
20
-17.0181632092857
30
0
41
1
10
16.24996025175
20
-16.9301110113541
30
0
41
1
10
16.2511087461828
20
-16.9001401020891
30
0
41
1
10
16.2546516605169
20
-16.8542877881334
30
0
41
1
10
16.2561362275498
20
-16.838855392939
30
0
41
1
10
16.259721452126
20
-16.807711681923
30
0
41
1
10
16.2618259730674
20
-16.7919827488977
30
0
41
1
10
16.2738045976031
20
-16.7133571248931
30
0
41
1
10
16.2880619456723
20
-16.6500117336234
30
0
41
1
10
16.3256562265586
20
-16.5245006582798
30
0
41
1
10
16.3489914527215
20
-16.4623315712261
30
0
41
1
10
16.3911560454333
20
-16.3718879296942
30
0
41
1
10
16.4063717963254
20
-16.3423092294412
30
0
41
1
10
16.438992387945
20
-16.2850154421057
30
0
41
1
10
16.4564203261801
20
-16.2572467885351
30
0
41
1
10
16.4749999999985
20
-16.2306014000895
30
0
0
SPLINE
5
188
100
AcDbEntity
8
1
62
256
6
ByLayer
370
18
48
1
60
0
100
AcDbSpline
70
4
71
3
72
32
73
28
40
0
40
0
40
0
40
0
40
0.124999999999995
40
0.124999999999995
40
0.249999999999991
40
0.249999999999991
40
0.281249999999991
40
0.281249999999991
40
0.312499999999992
40
0.312499999999992
40
0.374999999999995
40
0.374999999999995
40
0.500000000000001
40
0.500000000000001
40
0.562500000000005
40
0.562500000000005
40
0.593750000000006
40
0.593750000000006
40
0.625000000000007
40
0.625000000000007
40
0.750000000000005
40
0.750000000000005
40
0.875000000000003
40
0.875000000000003
40
0.937500000000002
40
0.937500000000002
40
1
40
1
40
1
40
1
41
1
10
16.475
20
-12.169258190623
30
0
41
1
10
16.4377742277507
20
-12.109937204831
30
0
41
1
10
16.4054459522828
20
-12.0514555137902
30
0
41
1
10
16.3497248646308
20
-11.9332132340506
30
0
41
1
10
16.3263406077045
20
-11.873492565413
30
0
41
1
10
16.3026611933048
20
-11.7965822670497
30
0
41
1
10
16.2982045468113
20
-11.7810872439873
30
0
41
1
10
16.2898554507283
20
-11.7498328466777
30
0
41
1
10
16.2859594838726
20
-11.7340537908138
30
0
41
1
10
16.2751999690725
20
-11.6865918658698
30
0
41
1
10
16.2692366123242
20
-11.654692795451
30
0
41
1
10
16.2549058741042
20
-11.5579345614433
30
0
41
1
10
16.2500826417254
20
-11.4919739496653
30
0
41
1
10
16.24996025175
20
-11.3902680493041
30
0
41
1
10
16.2511087461828
20
-11.3559148251435
30
0
41
1
10
16.2546516605169
20
-11.3037312093317
30
0
41
1
10
16.2561362275498
20
-11.2862284197143
30
0
41
1
10
16.259721452126
20
-11.2510184083221
30
0
41
1
10
16.2618259730674
20
-11.2332915725756
30
0
41
1
10
16.2738045976031
20
-11.1449220122847
30
0
41
1
10
16.2880619456723
20
-11.0745080404172
30
0
41
1
10
16.3256562265586
20
-10.935418858235
30
0
41
1
10
16.3489914527215
20
-10.8667414663276
30
0
41
1
10
16.3911560454333
20
-10.7661926607264
30
0
41
1
10
16.4063717963254
20
-10.733197290257
30
0
41
1
10
16.438992387945
20
-10.668867196194
30
0
41
1
10
16.4564203261801
20
-10.6374740754395
30
0
41
1
10
16.4749999999985
20
-10.6070107729652
30
0
0
SPLINE
5
189
100
AcDbEntity
8
1
62
256
6
ByLayer
370
18
48
1
60
0
100
AcDbSpline
70
4
71
3
72
32
73
28
40
0
40
0
40
0
40
0
40
0.124999999999995
40
0.124999999999995
40
0.24999999999999
40
0.24999999999999
40
0.281249999999989
40
0.281249999999989
40
0.312499999999988
40
0.312499999999988
40
0.37499999999999
40
0.37499999999999
40
0.499999999999991
40
0.499999999999991
40
0.562499999999991
40
0.562499999999991
40
0.593749999999992
40
0.593749999999992
40
0.624999999999993
40
0.624999999999993
40
0.749999999999996
40
0.749999999999996
40
0.874999999999999
40
0.874999999999999
40
0.9375
40
0.9375
40
1
40
1
40
1
40
1
41
1
10
16.475
20
-6.08256053862553
30
0
41
1
10
16.4377742277507
20
-6.01803726892504
30
0
41
1
10
16.4054459522828
20
-5.95317476273067
30
0
41
1
10
16.3497248646307
20
-5.82118564014874
30
0
41
1
10
16.3263406077045
20
-5.75408094333275
30
0
41
1
10
16.3026611933048
20
-5.66793590870145
30
0
41
1
10
16.2982045468113
20
-5.65059341250398
30
0
41
1
10
16.2898554507283
20
-5.61565797589969
30
0
41
1
10
16.2859594838726
20
-5.59804320052305
30
0
41
1
10
16.2751999690725
20
-5.545154214234
30
0
41
1
10
16.2692366123242
20
-5.50973387650555
30
0
41
1
10
16.2549058741041
20
-5.40284754480069
30
0
41
1
10
16.2500826417254
20
-5.33073638001062
30
0
41
1
10
16.24996025175
20
-5.22099706146605
30
0
41
1
10
16.2511087461828
20
-5.18415988704606
30
0
41
1
10
16.2546516605169
20
-5.1285286442959
30
0
41
1
10
16.2561362275498
20
-5.10992266719623
30
0
41
1
10
16.2597214521259
20
-5.0725920662629
30
0
41
1
10
16.2618259730674
20
-5.05384691556065
30
0
41
1
10
16.2738045976031
20
-4.96061673495402
30
0
41
1
10
16.2880619456723
20
-4.88702526978434
30
0
41
1
10
16.3256562265586
20
-4.74204407111458
30
0
41
1
10
16.3489914527215
20
-4.67065349796405
30
0
41
1
10
16.3911560454333
20
-4.56555587129901
30
0
41
1
10
16.4063717963254
20
-4.5309671600383
30
0
41
1
10
16.438992387945
20
-4.46315565048741
30
0
41
1
10
16.4564203261801
20
-4.42987285139975
30
0
41
1
10
16.4749999999985
20
-4.39727504184148
30
0
0
SPLINE
5
18A
100
AcDbEntity
8
1
62
256
6
ByLayer
370
18
48
1
60
0
100
AcDbSpline
70
4
71
3
72
32
73
28
40
0
40
0
40
0
40
0
40
0.125
40
0.125
40
0.250000000000001
40
0.250000000000001
40
0.281250000000001
40
0.281250000000001
40
0.312500000000001
40
0.312500000000001
40
0.375000000000003
40
0.375000000000003
40
0.500000000000005
40
0.500000000000005
40
0.562500000000005
40
0.562500000000005
40
0.593750000000005
40
0.593750000000005
40
0.625000000000005
40
0.625000000000005
40
0.750000000000003
40
0.750000000000003
40
0.875000000000001
40
0.875000000000001
40
0.937500000000001
40
0.937500000000001
40
1
40
1
40
1
40
1
41
1
10
16.475
20
4.39727504184245
30
0
41
1
10
16.4377742277507
20
4.46258720212586
30
0
41
1
10
16.4054459522828
20
4.53009002909846
30
0
41
1
10
16.3497248646307
20
4.66867550134629
30
0
41
1
10
16.3263406077045
20
4.73976768015055
30
0
41
1
10
16.3026611933048
20
4.83063935569521
30
0
41
1
10
16.2982045468113
20
4.84891472825561
30
0
41
1
10
16.2898554507283
20
4.88566426077168
30
0
41
1
10
16.2859594838725
20
4.90416115310484
30
0
41
1
10
16.2751999690725
20
4.95956272728378
30
0
41
1
10
16.2692366123242
20
4.99648396900869
30
0
41
1
10
16.2549058741041
20
5.10710058564646
30
0
41
1
10
16.2500826417254
20
5.18063336510292
30
0
41
1
10
16.2499602517499
20
5.29040742678777
30
0
41
1
10
16.2511087461828
20
5.32691494893044
30
0
41
1
10
16.2546516605169
20
5.38156114251001
30
0
41
1
10
16.2561362275498
20
5.39975762939511
30
0
41
1
10
16.2597214521259
20
5.43611769128918
30
0
41
1
10
16.2618259730673
20
5.45430085327993
30
0
41
1
10
16.2738045976031
20
5.54440853907875
30
0
41
1
10
16.2880619456723
20
5.61447736777075
30
0
41
1
10
16.3256562265586
20
5.75192831278741
30
0
41
1
10
16.3489914527215
20
5.81930901699792
30
0
41
1
10
16.3911560454333
20
5.91939349294731
30
0
41
1
10
16.4063717963254
20
5.95248681896445
30
0
41
1
10
16.438992387945
20
6.01794053534576
30
0
41
1
10
16.4564203261801
20
6.05035647052213
30
0
41
1
10
16.4749999999985
20
6.0825605386259
30
0
0
SPLINE
5
18B
100
AcDbEntity
8
1
62
256
6
ByLayer
370
18
48
1
60
0
100
AcDbSpline
70
4
71
3
72
32
73
28
40
0
40
0
40
0
40
0
40
0.125
40
0.125
40
0.250000000000001
40
0.250000000000001
40
0.28125
40
0.28125
40
0.3125
40
0.3125
40
0.375000000000001
40
0.375000000000001
40
0.500000000000001
40
0.500000000000001
40
0.562500000000001
40
0.562500000000001
40
0.593750000000002
40
0.593750000000002
40
0.625000000000004
40
0.625000000000004
40
0.750000000000005
40
0.750000000000005
40
0.875000000000006
40
0.875000000000006
40
0.937500000000003
40
0.937500000000003
40
1
40
1
40
1
40
1
41
1
10
16.475
20
10.6070107729665
30
0
41
1
10
16.4377742277507
20
10.6680462879572
30
0
41
1
10
16.4054459522828
20
10.7322662995787
30
0
41
1
10
16.3497248646307
20
10.8648447044431
30
0
41
1
10
16.3263406077045
20
10.9332315359757
30
0
41
1
10
16.3026611933048
20
11.0204144425217
30
0
41
1
10
16.2982045468113
20
11.0379369251552
30
0
41
1
10
16.2898554507283
20
11.073133973673
30
0
41
1
10
16.2859594838725
20
11.0908301715478
30
0
41
1
10
16.2751999690725
20
11.1437528097954
30
0
41
1
10
16.2692366123242
20
11.1789138582147
30
0
41
1
10
16.2549058741041
20
11.2837792779021
30
0
41
1
10
16.2500826417254
20
11.3528295448332
30
0
41
1
10
16.2499602517499
20
11.4546109539274
30
0
41
1
10
16.2511087461828
20
11.4882477308808
30
0
41
1
10
16.2546516605169
20
11.5382904977566
30
0
41
1
10
16.2561362275498
20
11.5549033250084
30
0
41
1
10
16.2597214521259
20
11.5880040229455
30
0
41
1
10
16.2618259730673
20
11.6045094649068
30
0
41
1
10
16.2738045976031
20
11.6860927754484
30
0
41
1
10
16.2880619456723
20
11.7488508527878
30
0
41
1
10
16.3256562265586
20
11.8715742168949
30
0
41
1
10
16.3489914527215
20
11.9315367914003
30
0
41
1
10
16.3911560454333
20
12.0211903049734
30
0
41
1
10
16.4063717963254
20
12.0509356915809
30
0
41
1
10
16.438992387945
20
12.1101414942389
30
0
41
1
10
16.4564203261801
20
12.1396506230695
30
0
41
1
10
16.4749999999985
20
12.169258190623
30
0
0
SPLINE
5
18C
100
AcDbEntity
8
1
62
256
6
ByLayer
370
18
48
1
60
0
100
AcDbSpline
70
4
71
3
72
32
73
28
40
0
40
0
40
0
40
0
40
0.125000000000009
40
0.125000000000009
40
0.250000000000018
40
0.250000000000018
40
0.281250000000017
40
0.281250000000017
40
0.312500000000016
40
0.312500000000016
40
0.375000000000015
40
0.375000000000015
40
0.500000000000015
40
0.500000000000015
40
0.562500000000014
40
0.562500000000014
40
0.593750000000014
40
0.593750000000014
40
0.625000000000013
40
0.625000000000013
40
0.750000000000007
40
0.750000000000007
40
0.875000000000001
40
0.875000000000001
40
0.9375
40
0.9375
40
1
40
1
40
1
40
1
41
1
10
16.475
20
16.230601400091
30
0
41
1
10
16.4377742277507
20
16.2839874375134
30
0
41
1
10
16.4054459522829
20
16.3413758257175
30
0
41
1
10
16.3497248646308
20
16.4606208594385
30
0
41
1
10
16.3263406077045
20
16.5225232765014
30
0
41
1
10
16.3026611933048
20
16.6011996727532
30
0
41
1
10
16.2982045468113
20
16.6170009702799
30
0
41
1
10
16.2898554507283
20
16.6487005402947
30
0
41
1
10
16.2859594838725
20
16.6646181489993
30
0
41
1
10
16.2751999690725
20
16.7121373379005
30
0
41
1
10
16.2692366123242
20
16.7435951878805
30
0
41
1
10
16.2549058741041
20
16.8369145308305
30
0
41
1
10
16.2500826417254
20
16.8976665564926
30
0
41
1
10
16.2499602517499
20
16.9858308561256
30
0
41
1
10
16.2511087461828
20
17.0147381142403
30
0
41
1
10
16.2546516605169
20
17.0574120831477
30
0
41
1
10
16.2561362275498
20
17.0715232232876
30
0
41
1
10
16.2597214521259
20
17.0995354074298
30
0
41
1
10
16.2618259730674
20
17.1134510360113
30
0
41
1
10
16.2738045976031
20
17.1820016645665
30
0
41
1
10
16.2880619456722
20
17.2339809692081
30
0
41
1
10
16.3256562265586
20
17.335195039767
30
0
41
1
10
16.3489914527215
20
17.3844259431538
30
0
41
1
10
16.3911560454333
20
17.4586942269173
30
0
41
1
10
16.4063717963254
20
17.4834479393157
30
0
41
1
10
16.438992387945
20
17.5331341061697
30
0
41
1
10
16.4564203261801
20
17.5581057494973
30
0
41
1
10
16.4749999999985
20
17.5834806976038
30
0
0
SPLINE
5
18D
100
AcDbEntity
8
1
62
256
6
ByLayer
370
18
48
1
60
0
100
AcDbSpline
70
4
71
3
72
8
73
4
40
0
40
0
40
0
40
0
40
1
40
1
40
1
40
1
41
1
10
25.95
20
-29.6281216709733
30
0
41
1
10
25.7833972320879
20
-29.8022699946348
30
0
41
1
10
25.6167293283391
20
-29.9763562682361
30
0
41
1
10
25.45
20
-30.1503829784963
30
0
0
SPLINE
5
18E
100
AcDbEntity
8
1
62
256
6
ByLayer
370
18
48
1
60
0
100
AcDbSpline
70
4
71
3
72
8
73
4
40
0
40
0
40
0
40
0
40
1
40
1
40
1
40
1
41
1
10
25.95
20
19.85
30
0
41
1
10
25.7839428389179
20
19.85
30
0
41
1
10
25.6172335326703
20
19.85
30
0
41
1
10
25.45
20
19.85
30
0
0
SPLINE
5
18F
100
AcDbEntity
8
1
62
256
6
ByLayer
370
18
48
1
60
0
100
AcDbSpline
70
4
71
3
72
8
73
4
40
0
40
0
40
0
40
0
40
1
40
1
40
1
40
1
41
1
10
21.3746123234134
20
-30.1503829784963
30
0
41
1
10
20.8899595856872
20
-29.2741992018061
30
0
41
1
10
20.4066228497215
20
-28.3972829993793
30
0
41
1
10
19.925
20
-27.5194446025754
30
0
0
SPLINE
5
190
100
AcDbEntity
8
1
62
256
6
ByLayer
370
18
48
1
60
0
100
AcDbSpline
70
4
71
3
72
12
73
8
40
0
40
0
40
0
40
0
40
0.500000000000001
40
0.500000000000001
40
0.750000000000001
40
0.750000000000001
40
1
40
1
40
1
40
1
41
1
10
21.3746123234133
20
19.85
30
0
41
1
10
21.1269480166304
20
19.85
30
0
41
1
10
20.8820296891945
20
19.85
30
0
41
1
10
20.5193871561882
20
19.85
30
0
41
1
10
20.3992965345052
20
19.85
30
0
41
1
10
20.1608123241297
20
19.85
30
0
41
1
10
20.0424022933999
20
19.85
30
0
41
1
10
19.925
20
19.85
30
0
0
SPLINE
5
191
100
AcDbEntity
8
1
62
256
6
ByLayer
370
18
48
1
60
0
100
AcDbSpline
70
4
71
3
72
53
73
49
40
0
40
0
40
0
40
0
40
0.0624999999999989
40
0.0624999999999989
40
0.124999999999998
40
0.124999999999998
40
0.187499999999997
40
0.187499999999997
40
0.203124999999996
40
0.203124999999996
40
0.218749999999996
40
0.218749999999996
40
0.249999999999996
40
0.249999999999996
40
0.312499999999996
40
0.312499999999996
40
0.374999999999995
40
0.374999999999995
40
0.406249999999995
40
0.406249999999995
40
0.421874999999995
40
0.421874999999995
40
0.437499999999995
40
0.437499999999995
40
0.499999999999996
40
0.499999999999996
40
0.562499999999997
40
0.562499999999997
40
0.624999999999997
40
0.624999999999997
40
0.640624999999997
40
0.640624999999997
40
0.656249999999997
40
0.687499999999998
40
0.687499999999998
40
0.749999999999998
40
0.749999999999998
40
0.812499999999998
40
0.812499999999998
40
0.843749999999998
40
0.843749999999998
40
0.859374999999998
40
0.859374999999998
40
0.874999999999999
40
0.874999999999999
40
0.937499999999999
40
0.937499999999999
40
1
40
1
40
1
40
1
41
1
10
12.9500000000001
20
-30.1503829784963
30
0
41
1
10
12.6841313593866
20
-30.1503829784963
30
0
41
1
10
12.420647498405
20
-30.1543453879131
30
0
41
1
10
11.8982638705436
20
-30.1697869707438
30
0
41
1
10
11.6393646026073
20
-30.1812667142531
30
0
41
1
10
11.1260959657866
20
-30.2113619657957
30
0
41
1
10
10.8717264718108
20
-30.2299778939183
30
0
41
1
10
10.5566391253125
20
-30.2574763990119
30
0
41
1
10
10.4937656966584
20
-30.2631875405795
30
0
41
1
10
10.3683093033381
20
-30.2750269307959
30
0
41
1
10
10.3057219374419
20
-30.2811564366936
30
0
41
1
10
10.1194618268704
20
-30.3000493570683
30
0
41
1
10
9.99692951457197
20
-30.3133501209502
30
0
41
1
10
9.63413312205714
20
-30.3551895350746
30
0
41
1
10
9.39865793344256
20
-30.3856634558139
30
0
41
1
10
8.940131299683
20
-30.4508771444522
30
0
41
1
10
8.71708027746823
20
-30.4856182415107
30
0
41
1
10
8.39183435684629
20
-30.5402922027968
30
0
41
1
10
8.28497698908885
20
-30.5589441303185
30
0
41
1
10
8.12705594765475
20
-30.5874838229592
30
0
41
1
10
8.07474052483528
20
-30.5971038147968
30
0
41
1
10
7.97132476718414
20
-30.616438827492
30
0
41
1
10
7.92022166488198
20
-30.6261537581164
30
0
41
1
10
7.66769106088231
20
-30.674925228277
30
0
41
1
10
7.47519443651626
20
-30.7145691260908
30
0
41
1
10
7.10865483934174
20
-30.7941358726583
30
0
41
1
10
6.93461315369416
20
-30.8340604486317
30
0
41
1
10
6.60496316861747
20
-30.913266496599
30
0
41
1
10
6.4493532968248
20
-30.9525496389802
30
0
41
1
10
6.26671018689768
20
-31.0006744484451
30
0
41
1
10
6.23077961689896
20
-31.0102499429787
30
0
41
1
10
6.16050409576218
20
-31.0291838688348
30
0
41
1
10
6.05731623933843
20
-31.0572994179036
30
0
41
1
10
5.96073307416356
20
-31.0845086951601
30
0
41
1
10
5.77624844381896
20
-31.1375890198019
30
0
41
1
10
5.66481288123558
20
-31.1711913504447
30
0
41
1
10
5.46492163805175
20
-31.2341535567076
30
0
41
1
10
5.37646500709749
20
-31.2635146855691
30
0
41
1
10
5.26144287268468
20
-31.3038663020077
30
0
41
1
10
5.22605148530565
20
-31.3167016610253
30
0
41
1
10
5.177495584958
20
-31.3349653649219
30
0
41
1
10
5.16207042207301
20
-31.340887023016
30
0
41
1
10
5.13289039673251
20
-31.3523337498622
30
0
41
1
10
5.11911462028147
20
-31.3578665960225
30
0
41
1
10
5.05428379043079
20
-31.3845694043971
30
0
41
1
10
5.01534301301413
20
-31.4028553327579
30
0
41
1
10
4.96320171145769
20
-31.433046335086
30
0
41
1
10
4.95000000000004
20
-31.4449518407133
30
0
41
1
10
4.95000000000004
20
-31.4535466005028
30
0
0
SPLINE
5
192
100
AcDbEntity
8
1
62
256
6
ByLayer
370
18
48
1
60
0
100
AcDbSpline
70
4
71
3
72
45
73
41
40
0
40
0
40
0
40
0
40
0.0624999999999973
40
0.0624999999999973
40
0.124999999999995
40
0.124999999999995
40
0.187499999999992
40
0.187499999999992
40
0.203124999999991
40
0.203124999999991
40
0.218749999999991
40
0.218749999999991
40
0.249999999999989
40
0.249999999999989
40
0.312499999999988
40
0.312499999999988
40
0.374999999999986
40
0.374999999999986
40
0.406249999999985
40
0.421874999999985
40
0.421874999999985
40
0.437499999999985
40
0.437499999999985
40
0.499999999999986
40
0.499999999999986
40
0.562499999999987
40
0.562499999999987
40
0.624999999999989
40
0.624999999999989
40
0.640624999999989
40
0.640624999999989
40
0.65624999999999
40
0.65624999999999
40
0.687499999999992
40
0.687499999999992
40
0.749999999999994
40
0.749999999999994
40
0.874999999999997
40
0.874999999999997
40
1
40
1
40
1
40
1
41
1
10
12.1956203456893
20
24.4200409500066
30
0
41
1
10
11.9759339284872
20
24.4200409500066
30
0
41
1
10
11.7583248060651
20
24.4127074179386
30
0
41
1
10
11.3270848993937
20
24.3839386530956
30
0
41
1
10
11.1134547056098
20
24.3625011198197
30
0
41
1
10
10.6901035240453
20
24.3056038437389
30
0
41
1
10
10.4803827549287
20
24.2701435456968
30
0
41
1
10
10.220690132804
20
24.2168315972934
30
0
41
1
10
10.1688747482696
20
24.2057188174181
30
0
41
1
10
10.0654915217627
20
24.1825826465595
30
0
41
1
10
10.0138582555167
20
24.1705425488761
30
0
41
1
10
9.86011701382463
20
24.1332343953866
30
0
41
1
10
9.75899909269461
20
24.1067468964487
30
0
41
1
10
9.45963651748903
20
24.0225304764548
30
0
41
1
10
9.265375646222
20
23.9600575830852
30
0
41
1
10
8.88695628215879
20
23.8226742810017
30
0
41
1
10
8.70279973502869
20
23.7477618111635
30
0
41
1
10
8.43391201880758
20
23.6260043199279
30
0
41
1
10
8.30130718635604
20
23.5627752021059
30
0
41
1
10
8.17143577115013
20
23.49598276546
30
0
41
1
10
8.08546060652208
20
23.450656686642
30
0
41
1
10
8.04288957259081
20
23.4276543776726
30
0
41
1
10
7.83231360064806
20
23.311091922816
30
0
41
1
10
7.67087988193623
20
23.212752963373
30
0
41
1
10
7.36101732450726
20
23.006176053876
30
0
41
1
10
7.212591550095
20
22.8979363634043
30
0
41
1
10
6.92796256802129
20
22.6716713696083
30
0
41
1
10
6.79176136423069
20
22.5536449583075
30
0
41
1
10
6.62877486055859
20
22.3999925415235
30
0
41
1
10
6.59654118645173
20
22.3689558373227
30
0
41
1
10
6.53279309131622
20
22.3062689833205
30
0
41
1
10
6.50131318166939
20
22.2746516436256
30
0
41
1
10
6.4082738883651
20
22.179234275698
30
0
41
1
10
6.34801389290462
20
22.1147708752695
30
0
41
1
10
6.17226321560696
20
21.9188742079099
30
0
41
1
10
6.06179410768453
20
21.7849365427041
30
0
41
1
10
5.74865705723417
20
21.3734069993164
30
0
41
1
10
5.56418709064178
20
21.0861176330193
30
0
41
1
10
5.2365249073159
20
20.4866364512197
30
0
41
1
10
5.09337039057024
20
20.1744346090999
30
0
41
1
10
4.9682154922603
20
19.85
30
0
0
SPLINE
5
193
100
AcDbEntity
8
1
62
256
6
ByLayer
370
18
48
1
60
0
100
AcDbSpline
70
4
71
3
72
53
73
49
40
0
40
0
40
0
40
0
40
0.0624999999999995
40
0.0624999999999995
40
0.124999999999999
40
0.124999999999999
40
0.187499999999999
40
0.187499999999999
40
0.203124999999998
40
0.203124999999998
40
0.218749999999998
40
0.218749999999998
40
0.249999999999998
40
0.249999999999998
40
0.312499999999997
40
0.312499999999997
40
0.374999999999997
40
0.374999999999997
40
0.406249999999997
40
0.406249999999997
40
0.421874999999997
40
0.421874999999997
40
0.437499999999997
40
0.437499999999997
40
0.499999999999997
40
0.499999999999997
40
0.562499999999997
40
0.562499999999997
40
0.624999999999998
40
0.624999999999998
40
0.640624999999998
40
0.640624999999998
40
0.656249999999998
40
0.687499999999998
40
0.687499999999998
40
0.749999999999998
40
0.749999999999998
40
0.812499999999998
40
0.812499999999998
40
0.843749999999998
40
0.843749999999998
40
0.859374999999999
40
0.859374999999999
40
0.874999999999999
40
0.874999999999999
40
0.937499999999999
40
0.937499999999999
40
1
40
1
40
1
40
1
41
1
10
4.94999999999996
20
31.4699951342545
30
0
41
1
10
4.94999999999996
20
31.4698476089309
30
0
41
1
10
4.96316148456387
20
31.4663482437805
30
0
41
1
10
5.01483326253899
20
31.4529824401189
30
0
41
1
10
5.05334632259851
20
31.443115398359
30
0
41
1
10
5.15552174838172
20
31.4173251944317
30
0
41
1
10
5.21918321366852
20
31.4014014637225
30
0
41
1
10
5.31481265858466
20
31.3779016832463
30
0
41
1
10
5.33474305466231
20
31.373021977824
30
0
41
1
10
5.3762289817266
20
31.3629078986405
30
0
41
1
10
5.39780590833237
20
31.3576684102907
30
0
41
1
10
5.46462463571697
20
31.3415165236844
30
0
41
1
10
5.51204881427506
20
31.3301472965835
30
0
41
1
10
5.66277602046245
20
31.2943892951813
30
0
41
1
10
5.77451273201857
20
31.2683509878206
30
0
41
1
10
6.02006473104041
20
31.2126594055855
30
0
41
1
10
6.15388041729031
20
31.183004697794
30
0
41
1
10
6.37134836873921
20
31.1363910865799
30
0
41
1
10
6.44663359836227
20
31.1204980223429
30
0
41
1
10
6.56382727681552
20
31.0962003530904
30
0
41
1
10
6.60363097354943
20
31.0880191489026
30
0
41
1
10
6.68455656030858
20
31.071541452173
30
0
41
1
10
6.72557231063075
20
31.0632664878015
30
0
41
1
10
6.93338647885227
20
31.0217492547395
30
0
41
1
10
7.10836961999721
20
30.9880811451731
30
0
41
1
10
7.4754039610805
20
30.9207839071198
30
0
41
1
10
7.66745608423184
20
30.8871531261034
30
0
41
1
10
8.06876163464801
20
30.8208678222671
30
0
41
1
10
8.27801337795111
20
30.7882116103006
30
0
41
1
10
8.55074524405742
20
30.7486137736258
30
0
41
1
10
8.60592716662771
20
30.7407450951663
30
0
41
1
10
8.71690520462974
20
30.72521871645
30
0
41
1
10
8.88436668666481
20
30.7022336947395
30
0
41
1
10
9.05478427646676
20
30.6802165246349
30
0
41
1
10
9.399516964133
20
30.6376146650815
30
0
41
1
10
9.63452623072502
20
30.6111232682603
30
0
41
1
10
10.1149153789438
20
30.5627093850563
30
0
41
1
10
10.3602948471897
20
30.5407858131469
30
0
41
1
10
10.736364153485
20
30.5119001269116
30
0
41
1
10
10.8630563144907
20
30.5029384070804
30
0
41
1
10
11.0551489977476
20
30.4905711455268
30
0
41
1
10
11.1195899808493
20
30.4866243994951
30
0
41
1
10
11.2485709831097
20
30.4791355756795
30
0
41
1
10
11.3131637273305
20
30.4755896793322
30
0
41
1
10
11.6366359254661
20
30.4588636800731
30
0
41
1
10
11.8970373100373
20
30.4486945546454
30
0
41
1
10
12.4210740916657
20
30.4350490385152
30
0
41
1
10
12.6847093748942
20
30.4315723180713
30
0
41
1
10
12.95
20
30.4315723180713
30
0
0
SPLINE
5
194
100
AcDbEntity
8
1
62
256
6
ByLayer
370
18
48
1
60
0
100
AcDbSpline
70
4
71
3
72
8
73
4
40
0
40
0
40
0
40
0
40
1
40
1
40
1
40
1
41
1
10
16.075
20
-27.5194446025754
30
0
41
1
10
15.5933771502786
20
-28.3972829993793
30
0
41
1
10
15.1100404143129
20
-29.2741992018061
30
0
41
1
10
14.6253876765867
20
-30.1503829784963
30
0
0
SPLINE
5
195
100
AcDbEntity
8
1
62
256
6
ByLayer
370
18
48
1
60
0
100
AcDbSpline
70
4
71
3
72
12
73
8
40
0
40
0
40
0
40
0
40
0.25
40
0.25
40
0.499999999999999
40
0.499999999999999
40
1
40
1
40
1
40
1
41
1
10
16.075
20
19.85
30
0
41
1
10
15.9575543463047
20
19.85
30
0
41
1
10
15.8391567902152
20
19.85
30
0
41
1
10
15.6006785184763
20
19.85
30
0
41
1
10
15.4805909149784
20
19.85
30
0
41
1
10
15.1179575685047
20
19.85
30
0
41
1
10
14.8730455409432
20
19.85
30
0
41
1
10
14.6253876765866
20
19.85
30
0
0
SPLINE
5
196
100
AcDbEntity
8
SK2
62
256
6
ByLayer
370
18
48
1
60
0
100
AcDbSpline
70
4
71
3
72
24
73
20
40
0
40
0
40
0
40
0
40
0.125000000000001
40
0.125000000000001
40
0.187500000000001
40
0.187500000000001
40
0.250000000000001
40
0.250000000000001
40
0.375000000000001
40
0.375000000000001
40
0.5
40
0.5
40
0.625
40
0.625
40
0.6875
40
0.6875
40
0.75
40
0.75
40
1
40
1
40
1
40
1
41
1
10
60.5
20
-1.73205080756841
30
0
41
1
10
60.5
20
-1.59133142895558
30
0
41
1
10
60.5
20
-1.44934203937726
30
0
41
1
10
60.5
20
-1.23395343317779
30
0
41
1
10
60.5
20
-1.16169581283273
30
0
41
1
10
60.5
20
-1.01723356529516
30
0
41
1
10
60.5
20
-0.944925454258367
30
0
41
1
10
60.5
20
-0.727753247736786
30
0
41
1
10
60.5
20
-0.582640303670985
30
0
41
1
10
60.5000000000001
20
-0.291678197593626
30
0
41
1
10
60.5
20
-0.145828507435141
30
0
41
1
10
60.5
20
0.146643668816552
30
0
41
1
10
60.5
20
0.293266279291828
30
0
41
1
10
60.5
20
0.51377061964709
30
0
41
1
10
60.5
20
0.587449876391645
30
0
41
1
10
60.5
20
0.733712931293923
30
0
41
1
10
60.5
20
0.806451794233595
30
0
41
1
10
60.5
20
1.16834025557003
30
0
41
1
10
60.5
20
1.45209730639127
30
0
41
1
10
60.5
20
1.73205080756912
30
0
0
SPLINE
5
197
100
AcDbEntity
8
SK2
62
256
6
ByLayer
370
18
48
1
60
0
100
AcDbSpline
70
4
71
3
72
24
73
20
40
0
40
0
40
0
40
0
40
0.125
40
0.125
40
0.1875
40
0.1875
40
0.25
40
0.25
40
0.375
40
0.375
40
0.5
40
0.5
40
0.625
40
0.625
40
0.6875
40
0.6875
40
0.75
40
0.75
40
1
40
1
40
1
40
1
41
1
10
54.5
20
-1.73205080756895
30
0
41
1
10
54.5
20
-1.5913314289559
30
0
41
1
10
54.5
20
-1.44934203937712
30
0
41
1
10
54.5
20
-1.23395343317665
30
0
41
1
10
54.5
20
-1.16169581283165
30
0
41
1
10
54.5
20
-1.01723356529476
30
0
41
1
10
54.5
20
-0.944925454258339
30
0
41
1
10
54.5
20
-0.727753247738207
30
0
41
1
10
54.5
20
-0.582640303673713
30
0
41
1
10
54.5
20
-0.291678197599623
30
0
41
1
10
54.5
20
-0.145828507443156
30
0
41
1
10
54.5
20
0.14664366880379
30
0
41
1
10
54.5
20
0.293266279276338
30
0
41
1
10
54.5
20
0.513770619626911
30
0
41
1
10
54.5
20
0.58744987637246
30
0
41
1
10
54.5
20
0.733712931278603
30
0
41
1
10
54.5
20
0.80645179422001
30
0
41
1
10
54.5
20
1.16834025556423
30
0
41
1
10
54.5
20
1.45209730638891
30
0
41
1
10
54.5
20
1.73205080756856
30
0
0
SPLINE
5
198
100
AcDbEntity
8
SK2
62
256
6
ByLayer
370
18
48
1
60
0
100
AcDbSpline
70
4
71
3
72
20
73
16
40
0
40
0
40
0
40
0
40
0.250000000000006
40
0.250000000000006
40
0.375000000000009
40
0.375000000000009
40
0.437500000000009
40
0.437500000000009
40
0.500000000000008
40
0.500000000000008
40
0.625000000000006
40
0.625000000000006
40
0.750000000000004
40
0.750000000000004
40
1
40
1
40
1
40
1
41
1
10
60.4999999999997
20
1.73205080756912
30
0
41
1
10
60.2547736758861
20
1.87363229180852
30
0
41
1
10
60.007497552078
20
2.01639722845326
30
0
41
1
10
59.6321143891294
20
2.23312479863094
30
0
41
1
10
59.506239655538
20
2.30579860995411
30
0
41
1
10
59.3161529689785
20
2.41554520960861
30
0
41
1
10
59.2525786809272
20
2.45224984192853
30
0
41
1
10
59.1249868009947
20
2.52591504815393
30
0
41
1
10
59.0608997691082
20
2.5629157132652
30
0
41
1
10
58.8696078965243
20
2.67335812739535
30
0
41
1
10
58.7428624269513
20
2.74653465837184
30
0
41
1
10
58.4908333438749
20
2.89204371732959
30
0
41
1
10
58.3655484692838
20
2.96437697340019
30
0
41
1
10
57.9916282545271
20
3.18025991004541
30
0
41
1
10
57.7449211514683
20
3.32269632240741
30
0
41
1
10
57.5000000000002
20
3.46410161513774
30
0
0
SPLINE
5
199
100
AcDbEntity
8
SK2
62
256
6
ByLayer
370
18
48
1
60
0
100
AcDbSpline
70
4
71
3
72
20
73
16
40
0
40
0
40
0
40
0
40
0.250000000000001
40
0.250000000000001
40
0.375000000000004
40
0.375000000000004
40
0.437500000000006
40
0.437500000000006
40
0.500000000000008
40
0.500000000000008
40
0.625000000000006
40
0.625000000000006
40
0.750000000000004
40
0.750000000000004
40
1
40
1
40
1
40
1
41
1
10
57.5000000000003
20
-3.46410161513779
30
0
41
1
10
57.2547736758865
20
-3.32252013089837
30
0
41
1
10
57.0074975520784
20
-3.1797551942536
30
0
41
1
10
56.6321143891297
20
-2.96302762407592
30
0
41
1
10
56.5062396555383
20
-2.89035381275272
30
0
41
1
10
56.3161529689787
20
-2.78060721309819
30
0
41
1
10
56.2525786809275
20
-2.74390258077827
30
0
41
1
10
56.124986800995
20
-2.67023737455287
30
0
41
1
10
56.0608997691085
20
-2.63323670944158
30
0
41
1
10
55.8696078965245
20
-2.52279429531143
30
0
41
1
10
55.7428624269515
20
-2.44961776433493
30
0
41
1
10
55.4908333438751
20
-2.30410870537713
30
0
41
1
10
55.3655484692839
20
-2.23177544930653
30
0
41
1
10
54.9916282545272
20
-2.01589251266128
30
0
41
1
10
54.7449211514683
20
-1.87345610029925
30
0
41
1
10
54.5000000000002
20
-1.7320508075689
30
0
0
SPLINE
5
19A
100
AcDbEntity
8
SK2
62
256
6
ByLayer
370
18
48
1
60
0
100
AcDbSpline
70
4
71
3
72
20
73
16
40
0
40
0
40
0
40
0
40
0.250000000000006
40
0.250000000000006
40
0.375000000000009
40
0.375000000000009
40
0.437500000000008
40
0.437500000000008
40
0.500000000000007
40
0.500000000000007
40
0.625000000000005
40
0.625000000000005
40
0.750000000000003
40
0.750000000000003
40
1
40
1
40
1
40
1
41
1
10
54.4999999999998
20
1.73205080756881
30
0
41
1
10
54.7452263241135
20
1.87363229180826
30
0
41
1
10
54.9925024479217
20
2.01639722845306
30
0
41
1
10
55.3678856108705
20
2.2331247986308
30
0
41
1
10
55.4937603444619
20
2.30579860995402
30
0
41
1
10
55.6838470310215
20
2.41554520960855
30
0
41
1
10
55.7474213190727
20
2.45224984192848
30
0
41
1
10
55.8750131990052
20
2.52591504815391
30
0
41
1
10
55.9391002308918
20
2.5629157132652
30
0
41
1
10
56.1303921034758
20
2.67335812739535
30
0
41
1
10
56.2571375730488
20
2.74653465837187
30
0
41
1
10
56.5091666561253
20
2.8920437173297
30
0
41
1
10
56.6344515307165
20
2.96437697340031
30
0
41
1
10
57.0083717454733
20
3.18025991004558
30
0
41
1
10
57.2550788485322
20
3.32269632240764
30
0
41
1
10
57.5000000000003
20
3.46410161513802
30
0
0
SPLINE
5
19B
100
AcDbEntity
8
SK2
62
256
6
ByLayer
370
18
48
1
60
0
100
AcDbSpline
70
4
71
3
72
20
73
16
40
0
40
0
40
0
40
0
40
0.249999999999995
40
0.249999999999995
40
0.374999999999993
40
0.374999999999993
40
0.437499999999992
40
0.437499999999992
40
0.49999999999999
40
0.49999999999999
40
0.624999999999993
40
0.624999999999993
40
0.749999999999995
40
0.749999999999995
40
1
40
1
40
1
40
1
41
1
10
57.5000000000003
20
-3.46410161513751
30
0
41
1
10
57.745226324114
20
-3.32252013089808
30
0
41
1
10
57.9925024479221
20
-3.17975519425332
30
0
41
1
10
58.3678856108708
20
-2.96302762407561
30
0
41
1
10
58.4937603444623
20
-2.89035381275241
30
0
41
1
10
58.6838470310218
20
-2.78060721309791
30
0
41
1
10
58.7474213190731
20
-2.74390258077796
30
0
41
1
10
58.8750131990055
20
-2.67023737455256
30
0
41
1
10
58.9391002308921
20
-2.63323670944129
30
0
41
1
10
59.130392103476
20
-2.52279429531114
30
0
41
1
10
59.257137573049
20
-2.44961776433462
30
0
41
1
10
59.5091666561254
20
-2.30410870537685
30
0
41
1
10
59.6344515307166
20
-2.23177544930624
30
0
41
1
10
60.0083717454733
20
-2.015892512661
30
0
41
1
10
60.2550788485322
20
-1.87345610029897
30
0
41
1
10
60.5000000000003
20
-1.73205080756861
30
0
0
SPLINE
5
19C
100
AcDbEntity
8
SK1
62
256
6
ByLayer
370
18
48
1
60
0
100
AcDbSpline
70
4
71
3
72
18
73
14
40
0
40
0
40
0
40
0
40
0.250000000000001
40
0.250000000000001
40
0.500000000000003
40
0.500000000000003
40
0.750000000000004
40
0.750000000000004
40
0.875000000000002
40
0.875000000000002
40
0.937500000000001
40
0.937500000000001
40
1
40
1
40
1
40
1
41
1
10
-30.7600449304189
20
20.8343104848551
30
0
41
1
10
-30.8005304154139
20
20.7918881709064
30
0
41
1
10
-30.8391903531166
20
20.7469260607629
30
0
41
1
10
-30.9108217653087
20
20.6529591687477
30
0
41
1
10
-30.9438142152931
20
20.6039429118275
30
0
41
1
10
-31.0007051058619
20
20.5035329740631
30
0
41
1
10
-31.0245900063635
20
20.452152121693
30
0
41
1
10
-31.0497392711237
20
20.3751260478415
30
0
41
1
10
-31.0563287210784
20
20.3494639101468
30
0
41
1
10
-31.063030146255
20
20.3111943706256
30
0
41
1
10
-31.0647340784536
20
20.2984745440864
30
0
41
1
10
-31.0670149104397
20
20.2731305676871
30
0
41
1
10
-31.0675855446075
20
20.2605639218972
30
0
41
1
10
-31.0675798041817
20
20.2481331121862
30
0
0
SPLINE
5
19D
100
AcDbEntity
8
SK1
62
256
6
ByLayer
370
18
48
1
60
0
100
AcDbSpline
70
4
71
3
72
86
73
82
40
0
40
0
40
0
40
0
40
0.0625000000000189
40
0.0625000000000189
40
0.0937500000000283
40
0.0937500000000283
40
0.125000000000038
40
0.125000000000038
40
0.187500000000057
40
0.187500000000057
40
0.250000000000076
40
0.250000000000076
40
0.312500000000094
40
0.312500000000094
40
0.343750000000104
40
0.343750000000104
40
0.375000000000114
40
0.375000000000114
40
0.406250000000123
40
0.406250000000123
40
0.421875000000129
40
0.421875000000129
40
0.437500000000135
40
0.437500000000135
40
0.453125000000141
40
0.453125000000141
40
0.468750000000147
40
0.468750000000147
40
0.47656250000015
40
0.47656250000015
40
0.484375000000152
40
0.484375000000152
40
0.488281250000152
40
0.488281250000152
40
0.492187500000152
40
0.492187500000152
40
0.496093750000152
40
0.496093750000152
40
0.500000000000153
40
0.500000000000153
40
0.503906250000153
40
0.503906250000153
40
0.507812500000153
40
0.507812500000153
40
0.511718750000153
40
0.511718750000153
40
0.515625000000153
40
0.515625000000153
40
0.519531250000153
40
0.519531250000153
40
0.523437500000153
40
0.523437500000153
40
0.531250000000152
40
0.531250000000152
40
0.539062500000152
40
0.539062500000152
40
0.546875000000151
40
0.546875000000151
40
0.562500000000149
40
0.562500000000149
40
0.570312500000147
40
0.570312500000147
40
0.578125000000144
40
0.578125000000144
40
0.593750000000139
40
0.593750000000139
40
0.625000000000129
40
0.625000000000129
40
0.656250000000119
40
0.656250000000119
40
0.687500000000108
40
0.687500000000108
40
0.750000000000086
40
0.750000000000086
40
0.812500000000065
40
0.812500000000065
40
0.875000000000043
40
0.875000000000043
40
0.937500000000022
40
0.937500000000022
40
1
40
1
40
1
40
1
41
1
10
-31.067579804184
20
20.2481331121841
30
0
41
1
10
-31.0675534944618
20
20.1911597856753
30
0
41
1
10
-31.0690558583241
20
20.1327741063364
30
0
41
1
10
-31.0736621072266
20
20.0430219075264
30
0
41
1
10
-31.0755906353231
20
20.0127413090277
30
0
41
1
10
-31.0802571154675
20
19.9514322792556
30
0
41
1
10
-31.0829974034256
20
19.9203812011913
30
0
41
1
10
-31.0924642131351
20
19.826239197435
30
0
41
1
10
-31.1004220625196
20
19.7622140214972
30
0
41
1
10
-31.1199565860123
20
19.6313861300772
30
0
41
1
10
-31.1315271698419
20
19.564588089038
30
0
41
1
10
-31.1589046603601
20
19.4277405219717
30
0
41
1
10
-31.1746938353416
20
19.3577046054785
30
0
41
1
10
-31.202475877428
20
19.2495051974341
30
0
41
1
10
-31.2124252963354
20
19.2129101040808
30
0
41
1
10
-31.2339927105697
20
19.1384392427515
30
0
41
1
10
-31.2456060572184
20
19.1005670427536
30
0
41
1
10
-31.2709792540053
20
19.0231751470158
30
0
41
1
10
-31.2847256462684
20
18.9836657805354
30
0
41
1
10
-31.3076349170296
20
18.9226443416616
30
0
41
1
10
-31.3156569641315
20
18.9020078862318
30
0
41
1
10
-31.3326874790758
20
18.8599778724939
30
0
41
1
10
-31.341701164681
20
18.8385743913987
30
0
41
1
10
-31.3608233426832
20
18.7952713494675
30
0
41
1
10
-31.3709464893782
20
18.7733230470748
30
0
41
1
10
-31.3927919059664
20
18.7285820626644
30
0
41
1
10
-31.4044944590443
20
18.70579979165
30
0
41
1
10
-31.423988358201
20
18.6706019767576
30
0
41
1
10
-31.4308149321346
20
18.6586949934502
30
0
41
1
10
-31.4453956080379
20
18.6343947370947
30
0
41
1
10
-31.4530557654097
20
18.622154938751
30
0
41
1
10
-31.465349241245
20
18.6036004795752
30
0
41
1
10
-31.4695822857497
20
18.5973828732255
30
0
41
1
10
-31.4783891894127
20
18.5848650231497
30
0
41
1
10
-31.4829727634804
20
18.5785532873021
30
0
41
1
10
-31.4924136602904
20
18.5660436560968
30
0
41
1
10
-31.4972860781521
20
18.5598227499317
30
0
41
1
10
-31.5074175429105
20
18.547467207392
30
0
41
1
10
-31.5127238662877
20
18.5412803972507
30
0
41
1
10
-31.5235957862033
20
18.529299614448
30
0
41
1
10
-31.5291348980288
20
18.5235298212488
30
0
41
1
10
-31.5404573490386
20
18.51251253384
30
0
41
1
10
-31.546275511675
20
18.5072469611449
30
0
41
1
10
-31.5575913831423
20
18.4978187661359
30
0
41
1
10
-31.563158093263
20
18.4935838229718
30
0
41
1
10
-31.5741148986059
20
18.4860415905395
30
0
41
1
10
-31.5793792463083
20
18.4828239231665
30
0
41
1
10
-31.5893645662357
20
18.477406713303
30
0
41
1
10
-31.5941222968212
20
18.4751824829451
30
0
41
1
10
-31.6032525606002
20
18.4715282175915
30
0
41
1
10
-31.6075274015998
20
18.4701359167857
30
0
41
1
10
-31.6196906075382
20
18.4669401985274
30
0
41
1
10
-31.6269330534932
20
18.466100003416
30
0
41
1
10
-31.6403110922465
20
18.4660680710015
30
0
41
1
10
-31.6463256675158
20
18.4668859982831
30
0
41
1
10
-31.6574282757024
20
18.4695940233431
30
0
41
1
10
-31.6625218827957
20
18.4714926148467
30
0
41
1
10
-31.6768223458771
20
18.4783548432816
30
0
41
1
10
-31.6850668922222
20
18.4844634595283
30
0
41
1
10
-31.6962705838447
20
18.4950103016332
30
0
41
1
10
-31.6998078881761
20
18.4987699724356
30
0
41
1
10
-31.7065166064257
20
18.5066358998743
30
0
41
1
10
-31.7096928259576
20
18.510746378881
30
0
41
1
10
-31.7187824019299
20
18.5235153597215
30
0
41
1
10
-31.7242614259409
20
18.532606671829
30
0
41
1
10
-31.7394468363423
20
18.5611278832272
30
0
41
1
10
-31.747924482385
20
18.5817822166385
30
0
41
1
10
-31.7628981589617
20
18.6250655542271
30
0
41
1
10
-31.7693720151981
20
18.6477166549901
30
0
41
1
10
-31.7809369288604
20
18.6943968091888
30
0
41
1
10
-31.786021053383
20
18.7184327712306
30
0
41
1
10
-31.7997362280606
20
18.7920724690003
30
0
41
1
10
-31.8068581343075
20
18.8432018313594
30
0
41
1
10
-31.8186080933067
20
18.9475497247692
30
0
41
1
10
-31.8232228848856
20
19.0008439746507
30
0
41
1
10
-31.830741184381
20
19.1089538003139
30
0
41
1
10
-31.833636252087
20
19.1637768794168
30
0
41
1
10
-31.8381282453342
20
19.2745770820052
30
0
41
1
10
-31.8397219190265
20
19.3305570963743
30
0
41
1
10
-31.8418206354993
20
19.4434849146371
30
0
41
1
10
-31.842324491531
20
19.5004337735467
30
0
41
1
10
-31.8423156651183
20
19.5578384055689
30
0
0
SPLINE
5
19E
100
AcDbEntity
8
SK1
62
256
6
ByLayer
370
18
48
1
60
0
100
AcDbSpline
70
4
71
3
72
18
73
14
40
0
40
0
40
0
40
0
40
0.166666958712391
40
0.166666958712391
40
0.333333917424783
40
0.333333917424783
40
0.416667396780978
40
0.416667396780978
40
0.500000876137174
40
0.500000876137174
40
0.666667834849557
40
0.666667834849557
40
1
40
1
40
1
40
1
41
1
10
-31.8423156651183
20
19.5578384055689
30
0
41
1
10
-31.8423124272907
20
19.5788963723869
30
0
41
1
10
-31.8431055341368
20
19.5975685905954
30
0
41
1
10
-31.8461332488021
20
19.6302930095945
30
0
41
1
10
-31.8483658607326
20
19.6443467555886
30
0
41
1
10
-31.8525270681002
20
19.6621382086598
30
0
41
1
10
-31.8540411937332
20
19.6674890511835
30
0
41
1
10
-31.8572417896358
20
19.677060393639
30
0
41
1
10
-31.8589305375732
20
19.6812911054726
30
0
41
1
10
-31.8641630878528
20
19.6924445631542
30
0
41
1
10
-31.8678718502193
20
19.6978331558005
30
0
41
1
10
-31.8789048309219
20
19.7086925976545
30
0
41
1
10
-31.8861179583111
20
19.7089022512623
30
0
41
1
10
-31.8914145245961
20
19.7035854342917
30
0
0
SPLINE
5
19F
100
AcDbEntity
8
SK1
62
256
6
ByLayer
370
18
48
1
60
0
100
AcDbSpline
70
4
71
3
72
18
73
14
40
0
40
0
40
0
40
0
40
0.166666666666672
40
0.166666666666672
40
0.333333333333344
40
0.333333333333344
40
0.416666666666677
40
0.416666666666677
40
0.50000000000001
40
0.50000000000001
40
0.666666666666676
40
0.666666666666676
40
1
40
1
40
1
40
1
41
1
10
-31.8423156651183
20
-19.557838405569
30
0
41
1
10
-31.8423124272776
20
-19.5788964574041
30
0
41
1
10
-31.8431055401534
20
-19.5975686520516
30
0
41
1
10
-31.8461332411618
20
-19.6302929305892
30
0
41
1
10
-31.8483658328874
20
-19.6443465600596
30
0
41
1
10
-31.8525269753938
20
-19.6621378505255
30
0
41
1
10
-31.8540411331186
20
-19.6674888528559
30
0
41
1
10
-31.8572417503739
20
-19.6770602932875
30
0
41
1
10
-31.8589305081703
20
-19.6812910376212
30
0
41
1
10
-31.8641630823175
20
-19.6924445617111
30
0
41
1
10
-31.86787185249
20
-19.6978331581021
30
0
41
1
10
-31.8789048656756
20
-19.7086926317288
30
0
41
1
10
-31.886117982338
20
-19.7089022277163
30
0
41
1
10
-31.8914145256276
20
-19.7035854332563
30
0
0
SPLINE
5
1A0
100
AcDbEntity
8
SK1
62
256
6
ByLayer
370
18
48
1
60
0
100
AcDbSpline
70
4
71
3
72
86
73
82
40
0
40
0
40
0
40
0
40
0.0625000000000026
40
0.0625000000000026
40
0.0937500000000035
40
0.0937500000000035
40
0.125000000000004
40
0.125000000000004
40
0.187500000000005
40
0.187500000000005
40
0.250000000000005
40
0.250000000000005
40
0.312500000000005
40
0.312500000000005
40
0.343750000000006
40
0.343750000000006
40
0.375000000000007
40
0.375000000000007
40
0.406250000000007
40
0.406250000000007
40
0.421875000000007
40
0.421875000000007
40
0.437500000000007
40
0.437500000000007
40
0.453125000000007
40
0.453125000000007
40
0.468750000000007
40
0.468750000000007
40
0.476562500000007
40
0.476562500000007
40
0.484375000000007
40
0.484375000000007
40
0.488281250000006
40
0.488281250000006
40
0.492187500000005
40
0.492187500000005
40
0.496093750000004
40
0.496093750000004
40
0.500000000000003
40
0.500000000000003
40
0.503906250000002
40
0.503906250000002
40
0.507812500000001
40
0.507812500000001
40
0.51171875
40
0.51171875
40
0.515624999999999
40
0.515624999999999
40
0.519531249999998
40
0.519531249999998
40
0.523437499999997
40
0.523437499999997
40
0.531249999999997
40
0.531249999999997
40
0.539062499999996
40
0.539062499999996
40
0.546874999999996
40
0.546874999999996
40
0.562499999999995
40
0.562499999999995
40
0.570312499999995
40
0.570312499999995
40
0.578124999999995
40
0.578124999999995
40
0.593749999999995
40
0.593749999999995
40
0.624999999999996
40
0.624999999999996
40
0.656249999999996
40
0.656249999999996
40
0.687499999999997
40
0.687499999999997
40
0.749999999999997
40
0.749999999999997
40
0.812499999999998
40
0.812499999999998
40
0.874999999999999
40
0.874999999999999
40
0.937499999999999
40
0.937499999999999
40
1
40
1
40
1
40
1
41
1
10
-31.067579804184
20
-20.2481331121841
30
0
41
1
10
-31.0675534944799
20
-20.1911598250595
30
0
41
1
10
-31.0690558562391
20
-20.1327741785481
30
0
41
1
10
-31.0736621007992
20
-20.0430220169692
30
0
41
1
10
-31.0755906272496
20
-20.0127414288743
30
0
41
1
10
-31.080257104053
20
-19.9514324154455
30
0
41
1
10
-31.0829973921192
20
-19.9203813292839
30
0
41
1
10
-31.0924641772114
20
-19.8262395233603
30
0
41
1
10
-31.1004220038532
20
-19.7622144791398
30
0
41
1
10
-31.1199564688365
20
-19.6313868500958
30
0
41
1
10
-31.1315270169387
20
-19.5645889397036
30
0
41
1
10
-31.1589044208933
20
-19.4277416325859
30
0
41
1
10
-31.1746935451899
20
-19.3577058453325
30
0
41
1
10
-31.2024754952608
20
-19.2495066308991
30
0
41
1
10
-31.2124248807956
20
-19.2129116020518
30
0
41
1
10
-31.2339922209399
20
-19.1384408702743
30
0
41
1
10
-31.2456055269336
20
-19.1005687352885
30
0
41
1
10
-31.2709786311793
20
-19.0231769716379
30
0
41
1
10
-31.2847249717861
20
-18.9836676720972
30
0
41
1
10
-31.3076341494911
20
-18.9226463385899
30
0
41
1
10
-31.3156561629301
20
-18.9020099191337
30
0
41
1
10
-31.3326866023335
20
-18.8599799806348
30
0
41
1
10
-31.3417002622532
20
-18.8385764999578
30
0
41
1
10
-31.3608223753417
20
-18.7952734750922
30
0
41
1
10
-31.3709454828759
20
-18.7733251884509
30
0
41
1
10
-31.3927907938227
20
-18.7285842604353
30
0
41
1
10
-31.4044932816838
20
-18.705802029268
30
0
41
1
10
-31.4239870332908
20
-18.6706043130995
30
0
41
1
10
-31.4308135055291
20
-18.6586974427099
30
0
41
1
10
-31.4453941233627
20
-18.6343971398108
30
0
41
1
10
-31.453054242257
20
-18.622157326487
30
0
41
1
10
-31.465347631389
20
-18.6036028649066
30
0
41
1
10
-31.4695806420624
20
-18.5973852611454
30
0
41
1
10
-31.4783874629757
20
-18.5848674254362
30
0
41
1
10
-31.4829710051464
20
-18.5785556772674
30
0
41
1
10
-31.4924118347875
20
-18.5660460149064
30
0
41
1
10
-31.4972842123299
20
-18.5598250962616
30
0
41
1
10
-31.5074155755051
20
-18.5474695357939
30
0
41
1
10
-31.5127218227735
20
-18.5412827337069
30
0
41
1
10
-31.5235937264866
20
-18.5293017997569
30
0
41
1
10
-31.5291328199053
20
-18.5235319382215
30
0
41
1
10
-31.540455206301
20
-18.5125145240029
30
0
41
1
10
-31.5462733934334
20
-18.5072488249712
30
0
41
1
10
-31.5575893391609
20
-18.4978203702407
30
0
41
1
10
-31.5631560757219
20
-18.4935853099657
30
0
41
1
10
-31.5741129152167
20
-18.4860428576641
30
0
41
1
10
-31.5793773870242
20
-18.4828250180029
30
0
41
1
10
-31.5893628312424
20
-18.4774075684557
30
0
41
1
10
-31.5941206124756
20
-18.4751832342693
30
0
41
1
10
-31.6032509622764
20
-18.4715287801372
30
0
41
1
10
-31.6075259110806
20
-18.4701363725632
30
0
41
1
10
-31.6196892919795
20
-18.4669404158795
30
0
41
1
10
-31.626931817693
20
-18.4661001055432
30
0
41
1
10
-31.6403099849974
20
-18.4660679744844
30
0
41
1
10
-31.6463246677904
20
-18.4668858294531
30
0
41
1
10
-31.6574273993907
20
-18.4695937346039
30
0
41
1
10
-31.6625210547536
20
-18.4714922786134
30
0
41
1
10
-31.6768216409587
20
-18.4783543828114
30
0
41
1
10
-31.6850662410959
20
-18.4844629399588
30
0
41
1
10
-31.6962699976864
20
-18.4950097031546
30
0
41
1
10
-31.6998073256464
20
-18.4987693542862
30
0
41
1
10
-31.7065160959732
20
-18.5066352599659
30
0
41
1
10
-31.709692338417
20
-18.5107457302964
30
0
41
1
10
-31.7187819764966
20
-18.5235146894651
30
0
41
1
10
-31.7242610332234
20
-18.5326059928096
30
0
41
1
10
-31.7394465274052
20
-18.5611271858249
30
0
41
1
10
-31.7479242105624
20
-18.581781517225
30
0
41
1
10
-31.7628979469376
20
-18.6250648550227
30
0
41
1
10
-31.7693718252074
20
-18.647715958541
30
0
41
1
10
-31.780936775267
20
-18.6943961188109
30
0
41
1
10
-31.7860209140009
20
-18.7184320842854
30
0
41
1
10
-31.7997361246821
20
-18.7920717910877
30
0
41
1
10
-31.80685805216
20
-18.8432011946923
30
0
41
1
10
-31.8186080449852
20
-18.9475492027824
30
0
41
1
10
-31.8232228476894
20
-19.0008435080291
30
0
41
1
10
-31.8307411640382
20
-19.1089534395516
30
0
41
1
10
-31.8336362373556
20
-19.1637765692048
30
0
41
1
10
-31.8381282388223
20
-19.2745768682288
30
0
41
1
10
-31.8397219150848
20
-19.3305569284987
30
0
41
1
10
-31.8418206348239
20
-19.4434848340781
30
0
41
1
10
-31.842324491537
20
-19.5004337344101
30
0
41
1
10
-31.8423156651183
20
-19.557838405569
30
0
0
SPLINE
5
1A1
100
AcDbEntity
8
SK1
62
256
6
ByLayer
370
18
48
1
60
0
100
AcDbSpline
70
4
71
3
72
18
73
14
40
0
40
0
40
0
40
0
40
0.250000000000001
40
0.250000000000001
40
0.500000000000002
40
0.500000000000002
40
0.750000000000004
40
0.750000000000004
40
0.875000000000002
40
0.875000000000002
40
0.937500000000001
40
0.937500000000001
40
1
40
1
40
1
40
1
41
1
10
-30.7600449304188
20
-20.8343104848552
30
0
41
1
10
-30.8005304147294
20
-20.7918881716236
30
0
41
1
10
-30.8391903518078
20
-20.7469260622839
30
0
41
1
10
-30.9108217629845
20
-20.6529591719925
30
0
41
1
10
-30.9438142125762
20
-20.6039429159931
30
0
41
1
10
-31.0007051028081
20
-20.5035329800824
30
0
41
1
10
-31.0245900033695
20
-20.4521521286419
30
0
41
1
10
-31.0497392687942
20
-20.3751260560864
30
0
41
1
10
-31.0563287190667
20
-20.3494639188073
30
0
41
1
10
-31.0630301448817
20
-20.3111943798815
30
0
41
1
10
-31.0647340773198
20
-20.2984745535364
30
0
41
1
10
-31.0670149098383
20
-20.2731305775175
30
0
41
1
10
-31.0675855446106
20
-20.2605639288718
30
0
41
1
10
-31.0675798041816
20
-20.2481331121862
30
0
0
SPLINE
5
1A2
100
AcDbEntity
8
SK1
62
256
6
ByLayer
370
18
48
1
60
0
100
AcDbSpline
70
4
71
3
72
88
73
84
40
0
40
0
40
0
40
0
40
0.0056545971450658
40
0.0056545971450658
40
0.0369019956635752
40
0.0369019956635752
40
0.0681493941820846
40
0.0681493941820846
40
0.099396792700594
40
0.099396792700594
40
0.130644191219104
40
0.130644191219104
40
0.146267890478358
40
0.154079740107985
40
0.154079740107985
40
0.161891589737613
40
0.161891589737613
40
0.193138988256122
40
0.193138988256122
40
0.224386386774632
40
0.255633785293142
40
0.255633785293142
40
0.286881183811651
40
0.286881183811651
40
0.318128582330161
40
0.34937598084867
40
0.34937598084867
40
0.357187830478297
40
0.357187830478297
40
0.364999680107925
40
0.364999680107925
40
0.38062337936718
40
0.38062337936718
40
0.411870777885691
40
0.443118176404201
40
0.474365574922711
40
0.474365574922711
40
0.482177424552339
40
0.482177424552339
40
0.489989274181967
40
0.505612973441222
40
0.505612973441222
40
0.536860371959734
40
0.568107770478245
40
0.568107770478245
40
0.583731469737501
40
0.591543319367129
40
0.591543319367129
40
0.599355168996757
40
0.599355168996757
40
0.630602567515268
40
0.661849966033779
40
0.661849966033779
40
0.69309736455229
40
0.69309736455229
40
0.708721063811545
40
0.708721063811545
40
0.716532913441173
40
0.716532913441173
40
0.724344763070801
40
0.755592161589312
40
0.786839560107823
40
0.786839560107823
40
0.818086958626335
40
0.818086958626335
40
0.825898808255963
40
0.825898808255963
40
0.833710657885591
40
0.833710657885591
40
0.849334357144847
40
0.849334357144847
40
0.880581755663359
40
0.880581755663359
40
0.91182915418187
40
0.91182915418187
40
0.927452853441126
40
0.927452853441126
40
0.935264703070754
40
0.935264703070754
40
0.943076552700382
40
0.943076552700382
40
0.974323951218895
40
1
40
1
40
1
40
1
41
1
10
-4.30168634352387
20
24.1051159294485
30
0
41
1
10
-4.30169083214054
20
24.1051151159911
30
0
41
1
10
-4.30195540072123
20
24.1050609627982
30
0
41
1
10
-4.30536782734261
20
24.1043613496406
30
0
41
1
10
-4.31614758031967
20
24.1021487344219
30
0
41
1
10
-4.35340135419196
20
24.0945493849193
30
0
41
1
10
-4.37987586635512
20
24.0891622982116
30
0
41
1
10
-4.44891908335144
20
24.0752540951658
30
0
41
1
10
-4.49082342534541
20
24.0668680204953
30
0
41
1
10
-4.58858282604818
20
24.0475686672466
30
0
41
1
10
-4.64444078155667
20
24.0366546474642
30
0
41
1
10
-4.73844404924647
20
24.0186053787488
30
0
41
1
10
-4.78800454267861
20
24.0091607772999
30
0
41
1
10
-4.84140347098595
20
23.9991239778133
30
0
41
1
10
-4.87785826413317
20
23.9923052546659
30
0
41
1
10
-4.89653960027903
20
23.9888272932572
30
0
41
1
10
-4.99173167448069
20
23.9711959322813
30
0
41
1
10
-5.07345418982887
20
23.9563429896812
30
0
41
1
10
-5.24740534000269
20
23.9255225815658
30
0
41
1
10
-5.43186504620503
20
23.8935884692672
30
0
41
1
10
-5.63680740863747
20
23.860102163332
30
0
41
1
10
-5.8520397693638
20
23.8261603582413
30
0
41
1
10
-5.96329638868777
20
23.8092009654145
30
0
41
1
10
-6.19248673236713
20
23.7756466629153
30
0
41
1
10
-6.42843812096747
20
23.7424444263185
30
0
41
1
10
-6.67763908592313
20
23.7104975621619
30
0
41
1
10
-6.83756376255465
20
23.6910903973563
30
0
41
1
10
-6.8697578623145
20
23.6872369385211
30
0
41
1
10
-6.93456709288282
20
23.6795901478982
30
0
41
1
10
-6.96722049481698
20
23.6757924910873
30
0
41
1
10
-7.06542972331472
20
23.6645400714812
30
0
41
1
10
-7.13127877974433
20
23.6572200536679
30
0
41
1
10
-7.32993264071047
20
23.6358334985277
30
0
41
1
10
-7.59774955390748
20
23.6088486303023
30
0
41
1
10
-8.00814620129327
20
23.5734005827058
30
0
41
1
10
-8.28756103674436
20
23.5534012244308
30
0
41
1
10
-8.46407198051796
20
23.5421243095026
30
0
41
1
10
-8.49947362982947
20
23.5399299494132
30
0
41
1
10
-8.57011605624487
20
23.5356859859621
30
0
41
1
10
-8.67596912924523
20
23.5295286298487
30
0
41
1
10
-8.78149389774403
20
23.5239938959418
30
0
41
1
10
-8.99211137104625
20
23.5137463672139
30
0
41
1
10
-9.27178423802961
20
23.5022744878207
30
0
41
1
10
-9.54916793577307
20
23.4950973017089
30
0
41
1
10
-9.75632742419704
20
23.4912897893957
30
0
41
1
10
-9.85968725372068
20
23.4897798453115
30
0
41
1
10
-9.96270970268506
20
23.4888535724898
30
0
41
1
10
-10.0313153038411
20
23.4883649467269
30
0
41
1
10
-10.0656252034762
20
23.4881849823938
30
0
41
1
10
-10.2363031957403
20
23.4876073519397
30
0
41
1
10
-10.5038418468566
20
23.4887333733928
30
0
41
1
10
-10.7605101095889
20
23.4934823130593
30
0
41
1
10
-11.0117058741089
20
23.4998104833313
30
0
41
1
10
-11.1345680915786
20
23.5037645043528
30
0
41
1
10
-11.3146131107252
20
23.5107053328383
30
0
41
1
10
-11.3739188052124
20
23.5131872031446
30
0
41
1
10
-11.461782695779
20
23.5171398196357
30
0
41
1
10
-11.4909139860094
20
23.5184969051107
30
0
41
1
10
-11.548690092314
20
23.5212781537709
30
0
41
1
10
-11.6915745504052
20
23.5283836560045
30
0
41
1
10
-11.9349352689428
20
23.5424044329511
30
0
41
1
10
-12.1317688860197
20
23.5559372766504
30
0
41
1
10
-12.3186581544296
20
23.5696743005681
30
0
41
1
10
-12.4071325015711
20
23.5766454521324
30
0
41
1
10
-12.5111847229628
20
23.5852786082452
30
0
41
1
10
-12.5316672485766
20
23.5870011677319
30
0
41
1
10
-12.5719645232395
20
23.5904327471602
30
0
41
1
10
-12.5918036439564
20
23.5921439390935
30
0
41
1
10
-12.649958032955
20
23.5972189430162
30
0
41
1
10
-12.6870041217728
20
23.6005318083987
30
0
41
1
10
-12.793029641511
20
23.610202809527
30
0
41
1
10
-12.856909343449
20
23.6162927534537
30
0
41
1
10
-12.9710489508254
20
23.62747803454
30
0
41
1
10
-13.0213099416692
20
23.6325738325079
30
0
41
1
10
-13.0861551596527
20
23.6392727492728
30
0
41
1
10
-13.1060090734278
20
23.6413483233523
30
0
41
1
10
-13.1330725294575
20
23.6442008161261
30
0
41
1
10
-13.1416405258964
20
23.6451081679137
30
0
41
1
10
-13.1578543559826
20
23.6468317534131
30
0
41
1
10
-13.1654843884349
20
23.6476463125307
30
0
41
1
10
-13.2010817699801
20
23.6514592160886
30
0
41
1
10
-13.2384579822739
20
23.6555336657713
30
0
41
1
10
-13.2500487805097
20
23.6568082643798
30
0
41
1
10
-13.2500010281204
20
23.6568035145096
30
0
0
SPLINE
5
1A3
100
AcDbEntity
8
SK1
62
256
6
ByLayer
370
18
48
1
60
0
100
AcDbSpline
70
4
71
3
72
99
73
95
40
0
40
0
40
0
40
0
40
0.0087713739495518
40
0.0087713739495518
40
0.016581323265562
40
0.016581323265562
40
0.0243912725815722
40
0.0243912725815722
40
0.0556310698456131
40
0.0556310698456131
40
0.086870867109654
40
0.086870867109654
40
0.102490765741674
40
0.102490765741674
40
0.110300715057685
40
0.110300715057685
40
0.118110664373695
40
0.118110664373695
40
0.149350461637736
40
0.149350461637736
40
0.180590258901777
40
0.180590258901777
40
0.196210157533798
40
0.196210157533798
40
0.204020106849808
40
0.204020106849808
40
0.211830056165818
40
0.211830056165818
40
0.24306985342986
40
0.24306985342986
40
0.274309650693901
40
0.274309650693901
40
0.289929549325922
40
0.297739498641932
40
0.297739498641932
40
0.305549447957942
40
0.305549447957942
40
0.336789245221984
40
0.336789245221984
40
0.368029042486026
40
0.399268839750068
40
0.399268839750068
40
0.414888738382089
40
0.414888738382089
40
0.43050863701411
40
0.43050863701411
40
0.461748434278152
40
0.492988231542195
40
0.492988231542195
40
0.508608130174216
40
0.516418079490227
40
0.516418079490227
40
0.524228028806238
40
0.524228028806238
40
0.55546782607028
40
0.586707623334322
40
0.617947420598365
40
0.617947420598365
40
0.633567319230386
40
0.633567319230386
40
0.649187217862407
40
0.649187217862407
40
0.680427015126449
40
0.711666812390491
40
0.711666812390491
40
0.742906609654533
40
0.742906609654533
40
0.758526508286554
40
0.758526508286554
40
0.766336457602565
40
0.766336457602565
40
0.774146406918575
40
0.805386204182617
40
0.836626001446658
40
0.836626001446658
40
0.8678657987107
40
0.8678657987107
40
0.875675748026711
40
0.875675748026711
40
0.883485697342721
40
0.883485697342721
40
0.899105595974742
40
0.899105595974742
40
0.930345393238784
40
0.930345393238784
40
0.961585190502826
40
0.961585190502826
40
0.977205089134847
40
0.977205089134847
40
0.985015038450857
40
0.985015038450857
40
0.992824987766868
40
0.992824987766868
40
1
40
1
40
1
40
1
41
1
10
-13.2500000042847
20
-23.6568035699137
30
0
41
1
10
-13.2499852117375
20
-23.6568019381758
30
0
41
1
10
-13.2493450968183
20
-23.6567316632998
30
0
41
1
10
-13.2469365039879
20
-23.6564673089889
30
0
41
1
10
-13.2452991642845
20
-23.6562876585973
30
0
41
1
10
-13.2410429449998
20
-23.6558212498927
30
0
41
1
10
-13.238422655649
20
-23.6555343371857
30
0
41
1
10
-13.2228904369507
20
-23.6538365505641
30
0
41
1
10
-13.2027059118385
20
-23.6516353933438
30
0
41
1
10
-13.1472632100579
20
-23.6456924894018
30
0
41
1
10
-13.1120040591079
20
-23.6419504904621
30
0
41
1
10
-13.0477814830663
20
-23.6353053849914
30
0
41
1
10
-13.0244813481594
20
-23.6329185076143
30
0
41
1
10
-12.9866550651022
20
-23.6290978139931
30
0
41
1
10
-12.9735673760034
20
-23.6277843087307
30
0
41
1
10
-12.9465940156616
20
-23.6250971100961
30
0
41
1
10
-12.9326897576672
20
-23.6237215317615
30
0
41
1
10
-12.8611124023998
20
-23.6166960900214
30
0
41
1
10
-12.7972883829372
20
-23.6106036598319
30
0
41
1
10
-12.6570409007133
20
-23.5977871756569
30
0
41
1
10
-12.5806158295877
20
-23.5910625891893
30
0
41
1
10
-12.4566140370219
20
-23.5807407804376
30
0
41
1
10
-12.4137163910493
20
-23.5772611251988
30
0
41
1
10
-12.3470080832681
20
-23.5720144807512
30
0
41
1
10
-12.3243587430964
20
-23.5702596739445
30
0
41
1
10
-12.2785103065266
20
-23.5667647000925
30
0
41
1
10
-12.2552856904667
20
-23.5650224806888
30
0
41
1
10
-12.1376841190669
20
-23.5563507829001
30
0
41
1
10
-12.0388838172258
20
-23.5495398741343
30
0
41
1
10
-11.8322424541654
20
-23.5364971188834
30
0
41
1
10
-11.7244000562005
20
-23.5302647562708
30
0
41
1
10
-11.5559397289975
20
-23.5215939255662
30
0
41
1
10
-11.4700325268677
20
-23.5174279856824
30
0
41
1
10
-11.3815971444373
20
-23.5135634252247
30
0
41
1
10
-11.3220754526997
20
-23.5110593916302
30
0
41
1
10
-11.292040288245
20
-23.5098440427786
30
0
41
1
10
-11.1412090975778
20
-23.5039896941272
30
0
41
1
10
-11.0178624240849
20
-23.4999929024078
30
0
41
1
10
-10.7660399087142
20
-23.4935952418476
30
0
41
1
10
-10.5090870676334
20
-23.4887940776504
30
0
41
1
10
-10.242038690245
20
-23.4876189889922
30
0
41
1
10
-10.0379253701214
20
-23.4882641360031
30
0
41
1
10
-9.96909745915053
20
-23.4887360245954
30
0
41
1
10
-9.83135291982146
20
-23.4902017560846
30
0
41
1
10
-9.76234395534391
20
-23.4911947338096
30
0
41
1
10
-9.55491657989549
20
-23.4949624386458
30
0
41
1
10
-9.27728095010185
20
-23.5020900472767
30
0
41
1
10
-8.99756793694368
20
-23.5135091808747
30
0
41
1
10
-8.78700252968954
20
-23.5237125008811
30
0
41
1
10
-8.68152435641586
20
-23.5292238822118
30
0
41
1
10
-8.57574943133041
20
-23.5353553168573
30
0
41
1
10
-8.50516629236199
20
-23.5395813403766
30
0
41
1
10
-8.46980183964926
20
-23.5417661028801
30
0
41
1
10
-8.29331585260806
20
-23.5530052448838
30
0
41
1
10
-8.01401881209087
20
-23.5729390326172
30
0
41
1
10
-7.60401258929519
20
-23.6082658901943
30
0
41
1
10
-7.3365835574412
20
-23.6351503889625
30
0
41
1
10
-7.13826597722017
20
-23.6564527074369
30
0
41
1
10
-7.07253642101861
20
-23.6637432476213
30
0
41
1
10
-6.9418441646939
20
-23.6786844046452
30
0
41
1
10
-6.87677097778636
20
-23.6863493221285
30
0
41
1
10
-6.68462051554097
20
-23.709619843392
30
0
41
1
10
-6.43547363472476
20
-23.741501597346
30
0
41
1
10
-6.20019551432105
20
-23.7745513711411
30
0
41
1
10
-5.97193167710209
20
-23.8079061106606
30
0
41
1
10
-5.86130586018856
20
-23.824736486798
30
0
41
1
10
-5.70084746445249
20
-23.8499869407451
30
0
41
1
10
-5.64827648052714
20
-23.8584043682081
30
0
41
1
10
-5.57083822625769
20
-23.8710008366057
30
0
41
1
10
-5.54527212997708
20
-23.8751931570183
30
0
41
1
10
-5.49491518416578
20
-23.8835134163765
30
0
41
1
10
-5.37077964737088
20
-23.9041834667715
30
0
41
1
10
-5.162978688686
20
-23.9401092886478
30
0
41
1
10
-5.00050606880195
20
-23.9695954701138
30
0
41
1
10
-4.84949796142111
20
-23.9975184722948
30
0
41
1
10
-4.77972332880707
20
-24.0106992370933
30
0
41
1
10
-4.70013346056197
20
-24.0259579533634
30
0
41
1
10
-4.68459802487294
20
-24.0289486829332
30
0
41
1
10
-4.65430866683162
20
-24.0348014035447
30
0
41
1
10
-4.63961951812659
20
-24.0376508796205
30
0
41
1
10
-4.59697075937376
20
-24.0459525421521
30
0
41
1
10
-4.57040176631843
20
-24.0511632490484
30
0
41
1
10
-4.49623484469879
20
-24.0657907722911
30
0
41
1
10
-4.45416284893423
20
-24.074203866331
30
0
41
1
10
-4.38483973098329
20
-24.0881571163303
30
0
41
1
10
-4.35758717148457
20
-24.0936977199571
30
0
41
1
10
-4.32823260598512
20
-24.0996826801603
30
0
41
1
10
-4.32037224999968
20
-24.101289709509
30
0
41
1
10
-4.31155750899617
20
-24.1030935224463
30
0
41
1
10
-4.30911679194931
20
-24.1035933832659
30
0
41
1
10
-4.3052652665865
20
-24.1043824412738
30
0
41
1
10
-4.30384855157047
20
-24.104672847056
30
0
41
1
10
-4.30209581969062
20
-24.105032165309
30
0
41
1
10
-4.30168022886157
20
-24.1051172393307
30
0
41
1
10
-4.30168578184424
20
-24.1051159706862
30
0
0
SPLINE
5
1A4
100
AcDbEntity
8
SK1
62
256
6
ByLayer
370
18
48
1
60
0
100
AcDbSpline
70
4
71
3
72
48
73
44
40
0
40
0
40
0
40
0
40
0.124999999999996
40
0.124999999999996
40
0.187499999999994
40
0.187499999999994
40
0.249999999999991
40
0.249999999999991
40
0.374999999999989
40
0.374999999999989
40
0.499999999999986
40
0.499999999999986
40
0.562499999999984
40
0.562499999999984
40
0.593749999999984
40
0.624999999999983
40
0.624999999999983
40
0.687499999999985
40
0.687499999999985
40
0.749999999999987
40
0.749999999999987
40
0.812499999999989
40
0.812499999999989
40
0.843749999999991
40
0.843749999999991
40
0.874999999999992
40
0.874999999999992
40
0.906249999999994
40
0.906249999999994
40
0.921874999999992
40
0.921874999999992
40
0.937499999999991
40
0.937499999999991
40
0.945312499999992
40
0.945312499999992
40
0.953124999999993
40
0.953124999999993
40
0.968749999999996
40
0.984374999999998
40
0.984374999999998
40
0.992187499999999
40
0.992187499999999
40
1
40
1
40
1
40
1
41
1
10
-25.8
20
21.8338164768251
30
0
41
1
10
-25.8
20
21.7915616932458
30
0
41
1
10
-25.8090351025927
20
21.7478886231866
30
0
41
1
10
-25.8346249276201
20
21.6803274915862
30
0
41
1
10
-25.8451736895935
20
21.6574593703769
30
0
41
1
10
-25.8701328331009
20
21.6110688835369
30
0
41
1
10
-25.8844279552089
20
21.5877568927844
30
0
41
1
10
-25.9323193271322
20
21.5174811379225
30
0
41
1
10
-25.9708950458691
20
21.4701766351094
30
0
41
1
10
-26.0597609446709
20
21.3747376968518
30
0
41
1
10
-26.110046951095
20
21.3266019341388
30
0
41
1
10
-26.1937594442119
20
21.2538676785148
30
0
41
1
10
-26.2230510956807
20
21.2295349064355
30
0
41
1
10
-26.2691019693368
20
21.1929233351457
30
0
41
1
10
-26.3005081848897
20
21.1684781899147
30
0
41
1
10
-26.333365133678
20
21.143967917257
30
0
41
1
10
-26.3836133703914
20
21.1072837145488
30
0
41
1
10
-26.4184363723703
20
21.0828939039856
30
0
41
1
10
-26.4910775441697
20
21.0343527408063
30
0
41
1
10
-26.5289288892006
20
21.0101707773758
30
0
41
1
10
-26.6081703997843
20
20.9624296091495
30
0
41
1
10
-26.64952079047
20
20.9388574261358
30
0
41
1
10
-26.7155571452228
20
20.9043825860995
30
0
41
1
10
-26.7381850495635
20
20.8930763850153
30
0
41
1
10
-26.7849643407706
20
20.8710565078676
30
0
41
1
10
-26.8091240203117
20
20.8603320584472
30
0
41
1
10
-26.8596629929598
20
20.8397526331818
30
0
41
1
10
-26.8860248460639
20
20.8298902068594
30
0
41
1
10
-26.9281901973078
20
20.8161652083245
30
0
41
1
10
-26.9425890117265
20
20.8118063042743
30
0
41
1
10
-26.9720526096038
20
20.8036833762741
30
0
41
1
10
-26.9871413088019
20
20.7999110001801
30
0
41
1
10
-27.0104414007835
20
20.7947971843858
30
0
41
1
10
-27.0183196500098
20
20.793183683286
30
0
41
1
10
-27.034326472393
20
20.7901617507431
30
0
41
1
10
-27.0424360016077
20
20.7887581757635
30
0
41
1
10
-27.0667844525407
20
20.7849461963152
30
0
41
1
10
-27.0995297892864
20
20.7808838588946
30
0
41
1
10
-27.1328814273506
20
20.7790296636822
30
0
41
1
10
-27.1581348648262
20
20.778512286374
30
0
41
1
10
-27.1666027794188
20
20.7784864100351
30
0
41
1
10
-27.1833765602225
20
20.7787216300466
30
0
41
1
10
-27.1917124319091
20
20.7789815897089
30
0
41
1
10
-27.2000000000002
20
20.7793761248439
30
0
0
SPLINE
5
1A5
100
AcDbEntity
8
SK1
62
256
6
ByLayer
370
18
48
1
60
0
100
AcDbSpline
70
4
71
3
72
16
73
12
40
0
40
0
40
0
40
0
40
0.125
40
0.125
40
0.25
40
0.25
40
0.5
40
0.5
40
0.75
40
0.75
40
1
40
1
40
1
40
1
41
1
10
-27.2
20
20.7793761248443
30
0
41
1
10
-27.3465084704316
20
20.7863507570322
30
0
41
1
10
-27.4933392710782
20
20.7923486729526
30
0
41
1
10
-27.7874608596438
20
20.8029531916225
30
0
41
1
10
-27.9347534192272
20
20.8075544019376
30
0
41
1
10
-28.3771606158457
20
20.819759502092
30
0
41
1
10
-28.6727964516897
20
20.825790183271
30
0
41
1
10
-29.264977486922
20
20.8351189775986
30
0
41
1
10
-29.5615295006588
20
20.8383963493286
30
0
41
1
10
-30.1552999798452
20
20.842957994204
30
0
41
1
10
-30.4525208487845
20
20.8442349515119
30
0
41
1
10
-30.75
20
20.8447435124634
30
0
0
SPLINE
5
1A6
100
AcDbEntity
8
SK1
62
256
6
ByLayer
370
18
48
1
60
0
100
AcDbSpline
70
4
71
3
72
8
73
4
40
0
40
0
40
0
40
0
40
1
40
1
40
1
40
1
41
1
10
-30.7600449304189
20
20.8343104848551
30
0
41
1
10
-30.7567195771121
20
20.8377949233395
30
0
41
1
10
-30.7533711052716
20
20.8412726012232
30
0
41
1
10
-30.7500000000001
20
20.8447435124634
30
0
0
SPLINE
5
1A7
100
AcDbEntity
8
SK1
62
256
6
ByLayer
370
18
48
1
60
0
100
AcDbSpline
70
4
71
3
72
8
73
4
40
0
40
0
40
0
40
0
40
1
40
1
40
1
40
1
41
1
10
-30.7600449304189
20
-20.8343104848552
30
0
41
1
10
-30.756719577112
20
-20.8377949233395
30
0
41
1
10
-30.7533711052715
20
-20.8412726012233
30
0
41
1
10
-30.75
20
-20.8447435124635
30
0
0
SPLINE
5
1A8
100
AcDbEntity
8
SK1
62
256
6
ByLayer
370
18
48
1
60
0
100
AcDbSpline
70
4
71
3
72
48
73
44
40
0
40
0
40
0
40
0
40
0.0078125000000029
40
0.0078125000000029
40
0.0117187500000039
40
0.0117187500000039
40
0.0156250000000049
40
0.0156250000000049
40
0.0234375000000062
40
0.0234375000000062
40
0.0273437500000056
40
0.0273437500000056
40
0.0312500000000051
40
0.0312500000000051
40
0.0468750000000054
40
0.0468750000000054
40
0.0546875000000058
40
0.0546875000000058
40
0.0625000000000061
40
0.0625000000000061
40
0.0781250000000061
40
0.0781250000000061
40
0.093750000000006
40
0.093750000000006
40
0.125000000000006
40
0.125000000000006
40
0.156250000000006
40
0.156250000000006
40
0.187500000000005
40
0.187500000000005
40
0.250000000000005
40
0.250000000000005
40
0.312500000000005
40
0.312500000000005
40
0.375000000000004
40
0.375000000000004
40
0.500000000000003
40
0.500000000000003
40
0.625000000000003
40
0.625000000000003
40
0.750000000000002
40
0.750000000000002
40
1
40
1
40
1
40
1
41
1
10
-25.5425277000733
20
-20.5310987896625
30
0
41
1
10
-25.5424866524493
20
-20.5377595157758
30
0
41
1
10
-25.5443996177115
20
-20.5441621349729
30
0
41
1
10
-25.5498260363246
20
-20.5534283165569
30
0
41
1
10
-25.5520760790827
20
-20.5564759113347
30
0
41
1
10
-25.5573101036936
20
-20.5623915967856
30
0
41
1
10
-25.5602721094709
20
-20.5652422340536
30
0
41
1
10
-25.5700357633368
20
-20.5735214268276
30
0
41
1
10
-25.5777075299035
20
-20.5786795995788
30
0
41
1
10
-25.5905272785954
20
-20.5860091477294
30
0
41
1
10
-25.5950327425296
20
-20.588388487539
30
0
41
1
10
-25.6043172552081
20
-20.5929713908391
30
0
41
1
10
-25.6091076136297
20
-20.5951821780027
30
0
41
1
10
-25.6336877859024
20
-20.6058938697355
30
0
41
1
10
-25.6553048352399
20
-20.6133995829618
30
0
41
1
10
-25.6894552907456
20
-20.6237187962718
30
0
41
1
10
-25.7011675499743
20
-20.6270034036478
30
0
41
1
10
-25.7248910903238
20
-20.6332595576441
30
0
41
1
10
-25.736907523363
20
-20.6362337758315
30
0
41
1
10
-25.7733299679821
20
-20.6447852445169
30
0
41
1
10
-25.7981045047198
20
-20.6499959064268
30
0
41
1
10
-25.8483407330243
20
-20.6597337696669
30
0
41
1
10
-25.8738055279616
20
-20.6642578831378
30
0
41
1
10
-25.9509783769488
20
-20.677056049382
30
0
41
1
10
-26.0034518762885
20
-20.6845688821774
30
0
41
1
10
-26.1096994215091
20
-20.6983016062924
30
0
41
1
10
-26.1635670288403
20
-20.7045185894087
30
0
41
1
10
-26.2717116976341
20
-20.7159696930636
30
0
41
1
10
-26.3260167846635
20
-20.7212054554966
30
0
41
1
10
-26.4894487871299
20
-20.7358258109984
30
0
41
1
10
-26.5990835328443
20
-20.7441422469168
30
0
41
1
10
-26.8192048384954
20
-20.7589852207331
30
0
41
1
10
-26.9296992743999
20
-20.7654951651219
30
0
41
1
10
-27.1512979175437
20
-20.7772351363018
30
0
41
1
10
-27.2624047508887
20
-20.7824596302222
30
0
41
1
10
-27.5964205203507
20
-20.7966754914719
30
0
41
1
10
-27.8200133978855
20
-20.8042331062643
30
0
41
1
10
-28.2683752278496
20
-20.8168899057133
30
0
41
1
10
-28.4932076423441
20
-20.8219699125511
30
0
41
1
10
-28.943448072148
20
-20.8303447229384
30
0
41
1
10
-29.1688306799267
20
-20.8336327789899
30
0
41
1
10
-29.8455774169519
20
-20.8414517215489
30
0
41
1
10
-30.2975310572492
20
-20.8439699858667
30
0
41
1
10
-30.7499999999995
20
-20.8447435124654
30
0
0
SPLINE
5
1A9
100
AcDbEntity
8
SK1
62
256
6
ByLayer
370
18
48
1
60
0
100
AcDbSpline
70
4
71
3
72
39
73
35
40
0
40
0
40
0
40
0
40
0.125000000000001
40
0.125000000000001
40
0.250000000000003
40
0.250000000000003
40
0.312500000000002
40
0.312500000000002
40
0.375000000000001
40
0.375000000000001
40
0.499999999999999
40
0.499999999999999
40
0.562499999999997
40
0.562499999999997
40
0.624999999999995
40
0.624999999999995
40
0.687499999999993
40
0.687499999999993
40
0.749999999999991
40
0.749999999999991
40
0.765624999999992
40
0.765624999999992
40
0.781249999999992
40
0.812499999999996
40
0.812499999999996
40
0.875000000000001
40
0.875000000000001
40
0.890625000000002
40
0.890625000000002
40
0.906250000000003
40
0.906250000000003
40
0.937500000000002
40
0.937500000000002
40
1
40
1
40
1
40
1
41
1
10
-23.2
20
-19.4725065681035
30
0
41
1
10
-23.3288822760823
20
-19.5016611109117
30
0
41
1
10
-23.4566085328625
20
-19.5317405045093
30
0
41
1
10
-23.709213430336
20
-19.5941774716457
30
0
41
1
10
-23.8340962494108
20
-19.6265317023516
30
0
41
1
10
-24.0187082837799
20
-19.677232886736
30
0
41
1
10
-24.0797913868924
20
-19.694496688762
30
0
41
1
10
-24.200915979195
20
-19.7298576158015
30
0
41
1
10
-24.2609773696518
20
-19.7479623878937
30
0
41
1
10
-24.438487808556
20
-19.8034487178427
30
0
41
1
10
-24.5535683637336
20
-19.8420607367676
30
0
41
1
10
-24.7196027575471
20
-19.9032543323204
30
0
41
1
10
-24.773842202661
20
-19.9242019114612
30
0
41
1
10
-24.8796917387139
20
-19.9674046998998
30
0
41
1
10
-24.9313039673143
20
-19.9896588460959
30
0
41
1
10
-25.0313347407062
20
-20.0357554210027
30
0
41
1
10
-25.0797571435844
20
-20.05959593101
30
0
41
1
10
-25.1726098615665
20
-20.1092622957197
30
0
41
1
10
-25.2170477986617
20
-20.1350843598542
30
0
41
1
10
-25.2693535347922
20
-20.168974094603
30
0
41
1
10
-25.2796684139003
20
-20.1758452837683
30
0
41
1
10
-25.2998506982644
20
-20.1896964353787
30
0
41
1
10
-25.3294396013905
20
-20.2106251900732
30
0
41
1
10
-25.3568842676043
20
-20.2320301629567
30
0
41
1
10
-25.4086340830927
20
-20.2755373707948
30
0
41
1
10
-25.4389691743766
20
-20.3054671422381
30
0
41
1
10
-25.4704822938724
20
-20.3443020221435
30
0
41
1
10
-25.476462972097
20
-20.3521404997321
30
0
41
1
10
-25.4877430528607
20
-20.3679687608919
30
0
41
1
10
-25.493044766956
20
-20.3759653754049
30
0
41
1
10
-25.5077499298598
20
-20.3999871517767
30
0
41
1
10
-25.5160024518012
20
-20.4161081023829
30
0
41
1
10
-25.5359144945261
20
-20.4648034817868
30
0
41
1
10
-25.5427334623992
20
-20.4977100970872
30
0
41
1
10
-25.5425277000732
20
-20.5310987896625
30
0
0
SPLINE
5
1AA
100
AcDbEntity
8
SK1
62
256
6
ByLayer
370
18
48
1
60
0
100
AcDbSpline
70
4
71
3
72
47
73
43
40
0
40
0
40
0
40
0
40
0.0156250000000046
40
0.0156250000000046
40
0.0234375000000051
40
0.0234375000000051
40
0.0312500000000057
40
0.0390625000000063
40
0.0390625000000063
40
0.0468750000000068
40
0.0468750000000068
40
0.0546875000000074
40
0.0546875000000074
40
0.062500000000008
40
0.062500000000008
40
0.0781250000000091
40
0.0781250000000091
40
0.0937500000000102
40
0.0937500000000102
40
0.125000000000011
40
0.125000000000011
40
0.156250000000011
40
0.156250000000011
40
0.187500000000012
40
0.187500000000012
40
0.250000000000011
40
0.250000000000011
40
0.31250000000001
40
0.31250000000001
40
0.375000000000009
40
0.375000000000009
40
0.437500000000008
40
0.437500000000008
40
0.500000000000007
40
0.500000000000007
40
0.625000000000006
40
0.625000000000006
40
0.750000000000004
40
0.750000000000004
40
0.875000000000002
40
0.875000000000002
40
1
40
1
40
1
40
1
41
1
10
-23.2
20
-19.4725065681035
30
0
41
1
10
-23.1876502058549
20
-19.4697129132037
30
0
41
1
10
-23.1748847628704
20
-19.4677095952296
30
0
41
1
10
-23.1549749737367
20
-19.466157639329
30
0
41
1
10
-23.1481913924222
20
-19.4658835478517
30
0
41
1
10
-23.1344191007228
20
-19.4658826701871
30
0
41
1
10
-23.1207360257474
20
-19.4664268355751
30
0
41
1
10
-23.1072250219997
20
-19.4680222298313
30
0
41
1
10
-23.0937973918534
20
-19.4701267885901
30
0
41
1
10
-23.087121379511
20
-19.4714388483733
30
0
41
1
10
-23.0742011186608
20
-19.4744591367796
30
0
41
1
10
-23.0679075323669
20
-19.4761738220355
30
0
41
1
10
-23.055611409666
20
-19.4799600039438
30
0
41
1
10
-23.0495832603172
20
-19.4820417325072
30
0
41
1
10
-23.0320849540334
20
-19.4886830221184
30
0
41
1
10
-23.0212468954272
20
-19.4936013220225
30
0
41
1
10
-23.0007372116293
20
-19.5041240369258
30
0
41
1
10
-22.9910708411293
20
-19.5097315965184
30
0
41
1
10
-22.9634130695384
20
-19.5273350722551
30
0
41
1
10
-22.9472402693794
20
-19.5397543365689
30
0
41
1
10
-22.9175875502966
20
-19.565252644424
30
0
41
1
10
-22.9041214995746
20
-19.5783630327019
30
0
41
1
10
-22.8790263084779
20
-19.6050439254086
30
0
41
1
10
-22.8673842425326
20
-19.6186491846309
30
0
41
1
10
-22.8347029279809
20
-19.6597296361821
30
0
41
1
10
-22.8159778532693
20
-19.6872751764782
30
0
41
1
10
-22.7821753639825
20
-19.7424251458119
30
0
41
1
10
-22.7671474854473
20
-19.770034592822
30
0
41
1
10
-22.7397133648154
20
-19.8252022723899
30
0
41
1
10
-22.7273210218034
20
-19.8527619238739
30
0
41
1
10
-22.7045649261451
20
-19.907764702779
30
0
41
1
10
-22.6942063909283
20
-19.9352083672446
30
0
41
1
10
-22.6751447135572
20
-19.9899367440811
30
0
41
1
10
-22.6664374888591
20
-20.0172441643864
30
0
41
1
10
-22.642472352795
20
-20.0987162767482
30
0
41
1
10
-22.6293619628606
20
-20.1523533009539
30
0
41
1
10
-22.6075152914703
20
-20.25827682567
30
0
41
1
10
-22.5987947413251
20
-20.3105632252964
30
0
41
1
10
-22.5850628252629
20
-20.4137845853807
30
0
41
1
10
-22.5800572202371
20
-20.4647195203596
30
0
41
1
10
-22.5734309866201
20
-20.5652333068998
30
0
41
1
10
-22.5718123036207
20
-20.6148121662063
30
0
41
1
10
-22.571845502751
20
-20.6637088720743
30
0
0
SPLINE
5
1AB
100
AcDbEntity
8
SK1
62
256
6
ByLayer
370
18
48
1
60
0
100
AcDbSpline
70
4
71
3
72
32
73
28
40
0
40
0
40
0
40
0
40
0.0312500000000006
40
0.0312500000000006
40
0.0625000000000011
40
0.125000000000002
40
0.125000000000002
40
0.187500000000003
40
0.187500000000003
40
0.250000000000005
40
0.250000000000005
40
0.312500000000006
40
0.312500000000006
40
0.375000000000007
40
0.375000000000007
40
0.500000000000007
40
0.500000000000007
40
0.625000000000006
40
0.625000000000006
40
0.687500000000005
40
0.718750000000005
40
0.718750000000005
40
0.750000000000004
40
0.750000000000004
40
0.875000000000002
40
0.875000000000002
40
1
40
1
40
1
40
1
41
1
10
-22.5718455027507
20
-20.6637088720743
30
0
41
1
10
-22.5718561699141
20
-20.6794198001792
30
0
41
1
10
-22.5707069976314
20
-20.6952545580683
30
0
41
1
10
-22.5661848882145
20
-20.7266036490614
30
0
41
1
10
-22.5560980856072
20
-20.7732489028711
30
0
41
1
10
-22.5371368339948
20
-20.8188378574837
30
0
41
1
10
-22.5062120999328
20
-20.8788303309107
30
0
41
1
10
-22.4879468028426
20
-20.9084310154558
30
0
41
1
10
-22.4478950273711
20
-20.9669643221895
30
0
41
1
10
-22.4260976476506
20
-20.9959133431428
30
0
41
1
10
-22.3806910139219
20
-21.0531392587971
30
0
41
1
10
-22.3570803767931
20
-21.081417168411
30
0
41
1
10
-22.309202230497
20
-21.137418456526
30
0
41
1
10
-22.284930410253
20
-21.1651413111397
30
0
41
1
10
-22.2123773774188
20
-21.2475918157347
30
0
41
1
10
-22.1644141108179
20
-21.3016087266559
30
0
41
1
10
-22.0738164746222
20
-21.4080818281547
30
0
41
1
10
-22.0311367098062
20
-21.4605332412429
30
0
41
1
10
-21.9734283630934
20
-21.5381443266205
30
0
41
1
10
-21.9461426455466
20
-21.5766818028347
30
0
41
1
10
-21.9216111145438
20
-21.6148274767515
30
0
41
1
10
-21.9059132654255
20
-21.6401715074986
30
0
41
1
10
-21.8983866812794
20
-21.6528109985588
30
0
41
1
10
-21.8625911451137
20
-21.7156478281075
30
0
41
1
10
-21.8398505722067
20
-21.7647068671358
30
0
41
1
10
-21.8085681732411
20
-21.8603107583691
30
0
41
1
10
-21.8
20
-21.9068562324133
30
0
41
1
10
-21.8
20
-21.9520839046692
30
0
0
LINE
5
87
100
AcDbEntity
8
4
62
256
6
ByLayer
370
18
48
0.05
60
0
100
AcDbLine
10
0
20
0
30
0
11
80
21
0
31
0
39
0
210
0
220
0
230
1
0
LINE
5
89
100
AcDbEntity
8
81
62
256
6
ByLayer
370
18
48
1
60
0
100
AcDbLine
10
80
20
0
30
0
11
85
21
0
31
0
39
0
210
0
220
0
230
1
0
LINE
5
8A
100
AcDbEntity
8
80
62
256
6
ByLayer
370
18
48
1
60
0
100
AcDbLine
10
0
20
0
30
0
11
-5
21
0
31
0
39
0
210
0
220
0
230
1
0
LINE
5
8B
100
AcDbEntity
8
1
62
256
6
ByLayer
370
18
48
1
60
0
100
AcDbLine
10
25.45
20
30.431572
30
0
11
21.374612
21
30.431572
31
0
39
0
210
0
220
0
230
1
0
LINE
5
8D
100
AcDbEntity
8
1
62
256
6
ByLayer
370
18
48
1
60
0
100
AcDbLine
10
16.075
20
27.827232
30
0
11
16.075
21
21.08584
31
0
39
0
210
0
220
0
230
1
0
LINE
5
8E
100
AcDbEntity
8
1
62
256
6
ByLayer
370
18
48
1
60
0
100
AcDbLine
10
19.925
20
27.827232
30
0
11
19.925
21
21.08584
31
0
39
0
210
0
220
0
230
1
0
LINE
5
8F
100
AcDbEntity
8
1
62
256
6
ByLayer
370
18
48
1
60
0
100
AcDbLine
10
21.374612
20
30.431572
30
0
11
21.374612
21
24.420041
31
0
39
0
210
0
220
0
230
1
0
LINE
5
90
100
AcDbEntity
8
1
62
256
6
ByLayer
370
18
48
1
60
0
100
AcDbLine
10
25.95
20
19.85
30
0
11
25.95
21
23.772219
31
0
39
0
210
0
220
0
230
1
0
LINE
5
91
100
AcDbEntity
8
1
62
256
6
ByLayer
370
18
48
1
60
0
100
AcDbLine
10
19.925
20
21.08584
30
0
11
19.925
21
19.85
31
0
39
0
210
0
220
0
230
1
0
LINE
5
92
100
AcDbEntity
8
1
62
256
6
ByLayer
370
18
48
1
60
0
100
AcDbLine
10
25.45
20
24.420041
30
0
11
21.374612
21
24.420041
31
0
39
0
210
0
220
0
230
1
0
LINE
5
93
100
AcDbEntity
8
1
62
256
6
ByLayer
370
18
48
1
60
0
100
AcDbLine
10
16.075
20
19.85
30
0
11
16.075
21
21.08584
31
0
39
0
210
0
220
0
230
1
0
LINE
5
94
100
AcDbEntity
8
1
62
256
6
ByLayer
370
18
48
1
60
0
100
AcDbLine
10
25.95
20
29.914221
30
0
11
25.95
21
23.772219
31
0
39
0
210
0
220
0
230
1
0
LINE
5
95
100
AcDbEntity
8
1
62
256
6
ByLayer
370
18
48
1
60
0
100
AcDbLine
10
25.45
20
24.420041
30
0
11
25.45
21
30.431572
31
0
39
0
210
0
220
0
230
1
0
LINE
5
96
100
AcDbEntity
8
1
62
256
6
ByLayer
370
13
48
1
60
0
100
AcDbLine
10
27.624598
20
-20.8
30
0
11
27.624598
21
20.8
31
0
39
0
210
0
220
0
230
1
0
LINE
5
97
100
AcDbEntity
8
1
62
256
6
ByLayer
370
18
48
1
60
0
100
AcDbLine
10
28.45
20
21
30
0
11
28.45
21
-21
31
0
39
0
210
0
220
0
230
1
0
LINE
5
98
100
AcDbEntity
8
1
62
256
6
ByLayer
370
13
48
1
60
0
100
AcDbLine
10
27.77989
20
-20.820445
30
0
11
27.77989
21
20.820445
31
0
39
0
210
0
220
0
230
1
0
LINE
5
99
100
AcDbEntity
8
1
62
256
6
ByLayer
370
18
48
1
60
0
100
AcDbLine
10
75
20
-21
30
0
11
75
21
21
31
0
39
0
210
0
220
0
230
1
0
LINE
5
9A
100
AcDbEntity
8
1
62
256
6
ByLayer
370
18
48
1
60
0
100
AcDbLine
10
80
20
16
30
0
11
80
21
-16
31
0
39
0
210
0
220
0
230
1
0
LINE
5
9B
100
AcDbEntity
8
1
62
256
6
ByLayer
370
18
48
1
60
0
100
AcDbLine
10
19.525
20
26.4
30
0
11
16.475
21
26.4
31
0
39
0
210
0
220
0
230
1
0
LINE
5
9C
100
AcDbEntity
8
1
62
256
6
ByLayer
370
18
48
1
60
0
100
AcDbLine
10
19.525
20
-26.4
30
0
11
16.475
21
-26.4
31
0
39
0
210
0
220
0
230
1
0
LINE
5
9D
100
AcDbEntity
8
1
62
256
6
ByLayer
370
13
48
1
60
0
100
AcDbLine
10
26.95
20
-20.8
30
0
11
26.95
21
20.8
31
0
39
0
210
0
220
0
230
1
0
LINE
5
9E
100
AcDbEntity
8
1
62
256
6
ByLayer
370
13
48
1
60
0
100
AcDbLine
10
12.19562
20
24.420041
30
0
11
12.19562
21
19.85
31
0
39
0
210
0
220
0
230
1
0
LINE
5
9F
100
AcDbEntity
8
1
62
256
6
ByLayer
370
13
48
1
60
0
100
AcDbLine
10
19.525
20
26.4
30
0
11
19.525
21
17.583481
31
0
39
0
210
0
220
0
230
1
0
LINE
5
A0
100
AcDbEntity
8
1
62
256
6
ByLayer
370
13
48
1
60
0
100
AcDbLine
10
19.525
20
16.230601
30
0
11
19.525
21
12.169258
31
0
39
0
210
0
220
0
230
1
0
LINE
5
A1
100
AcDbEntity
8
1
62
256
6
ByLayer
370
13
48
1
60
0
100
AcDbLine
10
19.525
20
10.607011
30
0
11
19.525
21
6.082561
31
0
39
0
210
0
220
0
230
1
0
LINE
5
A2
100
AcDbEntity
8
1
62
256
6
ByLayer
370
13
48
1
60
0
100
AcDbLine
10
19.525
20
4.397275
30
0
11
19.525
21
-4.397275
31
0
39
0
210
0
220
0
230
1
0
LINE
5
A3
100
AcDbEntity
8
1
62
256
6
ByLayer
370
13
48
1
60
0
100
AcDbLine
10
19.525
20
-6.082561
30
0
11
19.525
21
-10.607011
31
0
39
0
210
0
220
0
230
1
0
LINE
5
A4
100
AcDbEntity
8
1
62
256
6
ByLayer
370
13
48
1
60
0
100
AcDbLine
10
19.525
20
-12.169258
30
0
11
19.525
21
-16.230601
31
0
39
0
210
0
220
0
230
1
0
LINE
5
A5
100
AcDbEntity
8
1
62
256
6
ByLayer
370
13
48
1
60
0
100
AcDbLine
10
19.525
20
-17.583481
30
0
11
19.525
21
-26.4
31
0
39
0
210
0
220
0
230
1
0
LINE
5
A6
100
AcDbEntity
8
1
62
256
6
ByLayer
370
13
48
1
60
0
100
AcDbLine
10
16.475
20
-17.583481
30
0
11
16.475
21
-26.4
31
0
39
0
210
0
220
0
230
1
0
LINE
5
A7
100
AcDbEntity
8
1
62
256
6
ByLayer
370
13
48
1
60
0
100
AcDbLine
10
16.475
20
-12.169258
30
0
11
16.475
21
-16.230601
31
0
39
0
210
0
220
0
230
1
0
LINE
5
A8
100
AcDbEntity
8
1
62
256
6
ByLayer
370
13
48
1
60
0
100
AcDbLine
10
16.475
20
-6.082561
30
0
11
16.475
21
-10.607011
31
0
39
0
210
0
220
0
230
1
0
LINE
5
A9
100
AcDbEntity
8
1
62
256
6
ByLayer
370
13
48
1
60
0
100
AcDbLine
10
16.475
20
4.397275
30
0
11
16.475
21
-4.397275
31
0
39
0
210
0
220
0
230
1
0
LINE
5
AA
100
AcDbEntity
8
1
62
256
6
ByLayer
370
13
48
1
60
0
100
AcDbLine
10
16.475
20
10.607011
30
0
11
16.475
21
6.082561
31
0
39
0
210
0
220
0
230
1
0
LINE
5
AB
100
AcDbEntity
8
1
62
256
6
ByLayer
370
13
48
1
60
0
100
AcDbLine
10
16.475
20
16.230601
30
0
11
16.475
21
12.169258
31
0
39
0
210
0
220
0
230
1
0
LINE
5
AC
100
AcDbEntity
8
1
62
256
6
ByLayer
370
13
48
1
60
0
100
AcDbLine
10
16.475
20
26.4
30
0
11
16.475
21
17.583481
31
0
39
0
210
0
220
0
230
1
0
LINE
5
AD
100
AcDbEntity
8
1
62
256
6
ByLayer
370
18
48
1
60
0
100
AcDbLine
10
25.95
20
19.85
30
0
11
25.95
21
-29.628122
31
0
39
0
210
0
220
0
230
1
0
LINE
5
AE
100
AcDbEntity
8
1
62
256
6
ByLayer
370
18
48
1
60
0
100
AcDbLine
10
19.925
20
19.85
30
0
11
19.925
21
-27.519445
31
0
39
0
210
0
220
0
230
1
0
LINE
5
AF
100
AcDbEntity
8
1
62
256
6
ByLayer
370
18
48
1
60
0
100
AcDbLine
10
0
20
-30.97
30
0
11
0
21
30.97
31
0
39
0
210
0
220
0
230
1
0
LINE
5
B0
100
AcDbEntity
8
1
62
256
6
ByLayer
370
18
48
1
60
0
100
AcDbLine
10
0.5
20
-31.47
30
0
11
0.5
21
31.47
31
0
39
0
210
0
220
0
230
1
0
LINE
5
B1
100
AcDbEntity
8
1
62
256
6
ByLayer
370
18
48
1
60
0
100
AcDbLine
10
4.95
20
-31.453547
30
0
11
4.95
21
-31.47
31
0
39
0
210
0
220
0
230
1
0
LINE
5
B2
100
AcDbEntity
8
1
62
256
6
ByLayer
370
18
48
1
60
0
100
AcDbLine
10
14.625388
20
-30.150383
30
0
11
12.95
21
-30.150383
31
0
39
0
210
0
220
0
230
1
0
LINE
5
B3
100
AcDbEntity
8
1
62
256
6
ByLayer
370
18
48
1
60
0
100
AcDbLine
10
14.625388
20
19.85
30
0
11
4.968215
21
19.85
31
0
39
0
210
0
220
0
230
1
0
LINE
5
B4
100
AcDbEntity
8
1
62
256
6
ByLayer
370
18
48
1
60
0
100
AcDbLine
10
14.625388
20
24.420041
30
0
11
12.19562
21
24.420041
31
0
39
0
210
0
220
0
230
1
0
LINE
5
B5
100
AcDbEntity
8
1
62
256
6
ByLayer
370
18
48
1
60
0
100
AcDbLine
10
14.625388
20
24.420041
30
0
11
14.625388
21
30.431572
31
0
39
0
210
0
220
0
230
1
0
LINE
5
B6
100
AcDbEntity
8
1
62
256
6
ByLayer
370
18
48
1
60
0
100
AcDbLine
10
14.625388
20
30.431572
30
0
11
12.95
21
30.431572
31
0
39
0
210
0
220
0
230
1
0
LINE
5
B7
100
AcDbEntity
8
1
62
256
6
ByLayer
370
18
48
1
60
0
100
AcDbLine
10
16.075
20
19.85
30
0
11
16.075
21
-27.519445
31
0
39
0
210
0
220
0
230
1
0
LINE
5
B8
100
AcDbEntity
8
1
62
256
6
ByLayer
370
18
48
1
60
0
100
AcDbLine
10
14.625388
20
-30.150383
30
0
11
14.625388
21
19.85
31
0
39
0
210
0
220
0
230
1
0
LINE
5
B9
100
AcDbEntity
8
1
62
256
6
ByLayer
370
18
48
1
60
0
100
AcDbLine
10
25.45
20
-30.150383
30
0
11
21.374612
21
-30.150383
31
0
39
0
210
0
220
0
230
1
0
LINE
5
BA
100
AcDbEntity
8
1
62
256
6
ByLayer
370
18
48
1
60
0
100
AcDbLine
10
25.45
20
-30.150383
30
0
11
25.45
21
19.85
31
0
39
0
210
0
220
0
230
1
0
LINE
5
BB
100
AcDbEntity
8
1
62
256
6
ByLayer
370
18
48
1
60
0
100
AcDbLine
10
25.45
20
19.85
30
0
11
21.374612
21
19.85
31
0
39
0
210
0
220
0
230
1
0
LINE
5
BC
100
AcDbEntity
8
1
62
256
6
ByLayer
370
18
48
1
60
0
100
AcDbLine
10
21.374612
20
19.85
30
0
11
21.374612
21
-30.150383
31
0
39
0
210
0
220
0
230
1
0
LINE
5
BD
100
AcDbEntity
8
SK1
62
256
6
ByLayer
370
13
48
1
60
0
100
AcDbLine
10
-27.2
20
20.845
30
0
11
-27.2
21
20.779376
31
0
39
0
210
0
220
0
230
1
0
LINE
5
BF
100
AcDbEntity
8
SK1
62
256
6
ByLayer
370
18
48
1
60
0
100
AcDbLine
10
-30.75
20
20.845
30
0
11
-30.75
21
20.844744
31
0
39
0
210
0
220
0
230
1
0
LINE
5
C0
100
AcDbEntity
8
SK1
62
256
6
ByLayer
370
18
48
1
60
0
100
AcDbLine
10
-30.75
20
-20.845
30
0
11
-30.75
21
-20.844744
31
0
39
0
210
0
220
0
230
1
0
LINE
5
C1
100
AcDbEntity
8
SK1
62
256
6
ByLayer
370
13
48
1
60
0
100
AcDbLine
10
-23.2
20
-20.531099
30
0
11
-23.2
21
-20.845
31
0
39
0
210
0
220
0
230
1
0
LINE
5
C2
100
AcDbEntity
8
SK1
62
256
6
ByLayer
370
13
48
1
60
0
100
AcDbLine
10
-23.2
20
-20.531099
30
0
11
-25.542528
21
-20.531099
31
0
39
0
210
0
220
0
230
1
0
LINE
5
C3
100
AcDbEntity
8
SK1
62
256
6
ByLayer
370
13
48
1
60
0
100
AcDbLine
10
-23.2
20
-20.531099
30
0
11
-23.2
21
-19.472507
31
0
39
0
210
0
220
0
230
1
0
LINE
5
C4
100
AcDbEntity
8
SK1
62
256
6
ByLayer
370
13
48
1
60
0
100
AcDbLine
10
-31.842316
20
19.557838
30
0
11
-31.06758
21
20.248133
31
0
39
0
210
0
220
0
230
1
0
LINE
5
C5
100
AcDbEntity
8
SK1
62
256
6
ByLayer
370
13
48
1
60
0
100
AcDbLine
10
-31.842316
20
-19.557838
30
0
11
-31.06758
21
-20.248133
31
0
39
0
210
0
220
0
230
1
0
LINE
5
C6
100
AcDbEntity
8
SK1
62
256
6
ByLayer
370
18
48
1
60
0
100
AcDbLine
10
-31.9
20
-19.672662
30
0
11
-31.9
21
19.672662
31
0
39
0
210
0
220
0
230
1
0
LINE
5
C7
100
AcDbEntity
8
SK1
62
256
6
ByLayer
370
13
48
1
60
0
100
AcDbLine
10
-0.45
20
-23.970431
30
0
11
-0.45
21
23.970431
31
0
39
0
210
0
220
0
230
1
0
LINE
5
C8
100
AcDbEntity
8
SK1
62
256
6
ByLayer
370
18
48
1
60
0
100
AcDbLine
10
-25.8
20
21.833816
30
0
11
-25.8
21
23.028046
31
0
39
0
210
0
220
0
230
1
0
LINE
5
C9
100
AcDbEntity
8
SK1
62
256
6
ByLayer
370
13
48
1
60
0
100
AcDbLine
10
-30.760045
20
20.83431
30
0
11
-30.760045
21
-20.83431
31
0
39
0
210
0
220
0
230
1
0
LINE
5
CA
100
AcDbEntity
8
SK1
62
256
6
ByLayer
370
18
48
1
60
0
100
AcDbLine
10
-21.8
20
-23.228447
30
0
11
-21.8
21
-21.952084
31
0
39
0
210
0
220
0
230
1
0
LINE
5
CB
100
AcDbEntity
8
SK1
62
256
6
ByLayer
370
18
48
1
60
0
100
AcDbLine
10
-1.566987
20
-23.970431
30
0
11
-1.566987
21
23.970431
31
0
39
0
210
0
220
0
230
1
0
LINE
5
CC
100
AcDbEntity
8
SK1
62
256
6
ByLayer
370
18
48
1
60
0
100
AcDbLine
10
-2
20
-24.220431
30
0
11
-2
21
24.220431
31
0
39
0
210
0
220
0
230
1
0
LINE
5
CD
100
AcDbEntity
8
1
62
256
6
ByLayer
370
18
48
1
60
0
100
AcDbLine
10
27.624598
20
20.8
30
0
11
26.95
21
20.8
31
0
39
0
210
0
220
0
230
1
0
LINE
5
CE
100
AcDbEntity
8
1
62
256
6
ByLayer
370
18
48
1
60
0
100
AcDbLine
10
26.95
20
-20.8
30
0
11
27.624598
21
-20.8
31
0
39
0
210
0
220
0
230
1
0
LINE
5
CF
100
AcDbEntity
8
1
62
256
6
ByLayer
370
18
48
1
60
0
100
AcDbLine
10
28.45
20
-21
30
0
11
75
21
-21
31
0
39
0
210
0
220
0
230
1
0
LINE
5
D0
100
AcDbEntity
8
1
62
256
6
ByLayer
370
18
48
1
60
0
100
AcDbLine
10
75
20
21
30
0
11
28.45
21
21
31
0
39
0
210
0
220
0
230
1
0
LINE
5
D1
100
AcDbEntity
8
1
62
256
6
ByLayer
370
18
48
1
60
0
100
AcDbLine
10
27.77989
20
-20.820445
30
0
11
28.45
21
-21
31
0
39
0
210
0
220
0
230
1
0
LINE
5
D2
100
AcDbEntity
8
1
62
256
6
ByLayer
370
18
48
1
60
0
100
AcDbLine
10
28.45
20
21
30
0
11
27.77989
21
20.820445
31
0
39
0
210
0
220
0
230
1
0
LINE
5
D3
100
AcDbEntity
8
1
62
256
6
ByLayer
370
18
48
1
60
0
100
AcDbLine
10
80
20
16
30
0
11
75
21
21
31
0
39
0
210
0
220
0
230
1
0
LINE
5
D4
100
AcDbEntity
8
1
62
256
6
ByLayer
370
18
48
1
60
0
100
AcDbLine
10
75
20
-21
30
0
11
80
21
-16
31
0
39
0
210
0
220
0
230
1
0
LINE
5
D5
100
AcDbEntity
8
1
62
256
6
ByLayer
370
18
48
1
60
0
100
AcDbLine
10
0
20
-30.97
30
0
11
0.5
21
-31.47
31
0
39
0
210
0
220
0
230
1
0
LINE
5
D6
100
AcDbEntity
8
1
62
256
6
ByLayer
370
18
48
1
60
0
100
AcDbLine
10
0.5
20
31.47
30
0
11
0
21
30.97
31
0
39
0
210
0
220
0
230
1
0
LINE
5
D7
100
AcDbEntity
8
1
62
256
6
ByLayer
370
18
48
1
60
0
100
AcDbLine
10
4.948964
20
31.47
30
0
11
4.948569
21
31.47
31
0
39
0
210
0
220
0
230
1
0
LINE
5
D8
100
AcDbEntity
8
1
62
256
6
ByLayer
370
18
48
1
60
0
100
AcDbLine
10
4.948569
20
31.47
30
0
11
0.5
21
31.47
31
0
39
0
210
0
220
0
230
1
0
LINE
5
D9
100
AcDbEntity
8
1
62
256
6
ByLayer
370
18
48
1
60
0
100
AcDbLine
10
0.5
20
-31.47
30
0
11
4.95
21
-31.47
31
0
39
0
210
0
220
0
230
1
0
LINE
5
DA
100
AcDbEntity
8
1
62
256
6
ByLayer
370
18
48
1
60
0
100
AcDbLine
10
36.508818
20
-18.789657
30
0
11
36.656075
21
-18.686983
31
0
39
0
210
0
220
0
230
1
0
LINE
5
DB
100
AcDbEntity
8
1
62
256
6
ByLayer
370
18
48
1
60
0
100
AcDbLine
10
33.343925
20
-18.686983
30
0
11
33.491182
21
-18.789657
31
0
39
0
210
0
220
0
230
1
0
LINE
5
DC
100
AcDbEntity
8
1
62
256
6
ByLayer
370
18
48
1
60
0
100
AcDbLine
10
33.491182
20
18.789657
30
0
11
33.343925
21
18.686983
31
0
39
0
210
0
220
0
230
1
0
LINE
5
DD
100
AcDbEntity
8
1
62
256
6
ByLayer
370
18
48
1
60
0
100
AcDbLine
10
36.656075
20
18.686983
30
0
11
36.508818
21
18.789657
31
0
39
0
210
0
220
0
230
1
0
LINE
5
DE
100
AcDbEntity
8
1
62
256
6
ByLayer
370
18
48
1
60
0
100
AcDbLine
10
36.508818
20
-18.789657
30
0
11
36.656075
21
-18.686983
31
0
39
0
210
0
220
0
230
1
0
LINE
5
DF
100
AcDbEntity
8
1
62
256
6
ByLayer
370
18
48
1
60
0
100
AcDbLine
10
33.343925
20
-18.686983
30
0
11
33.491182
21
-18.789657
31
0
39
0
210
0
220
0
230
1
0
LINE
5
E0
100
AcDbEntity
8
1
62
256
6
ByLayer
370
18
48
1
60
0
100
AcDbLine
10
33.491182
20
18.789657
30
0
11
33.343925
21
18.686983
31
0
39
0
210
0
220
0
230
1
0
LINE
5
E1
100
AcDbEntity
8
1
62
256
6
ByLayer
370
18
48
1
60
0
100
AcDbLine
10
36.656075
20
18.686983
30
0
11
36.508818
21
18.789657
31
0
39
0
210
0
220
0
230
1
0
LINE
5
E2
100
AcDbEntity
8
SK1
62
256
6
ByLayer
370
18
48
1
60
0
100
AcDbLine
10
-27.2
20
20.845
30
0
11
-30.75
21
20.845
31
0
39
0
210
0
220
0
230
1
0
LINE
5
E3
100
AcDbEntity
8
SK1
62
256
6
ByLayer
370
18
48
1
60
0
100
AcDbLine
10
-31.892671
20
-19.702329
30
0
11
-30.75
21
-20.845
31
0
39
0
210
0
220
0
230
1
0
LINE
5
E4
100
AcDbEntity
8
SK1
62
256
6
ByLayer
370
18
48
1
60
0
100
AcDbLine
10
-30.75
20
20.845
30
0
11
-31.892663
21
19.702337
31
0
39
0
210
0
220
0
230
1
0
LINE
5
E5
100
AcDbEntity
8
SK1
62
256
6
ByLayer
370
18
48
1
60
0
100
AcDbLine
10
-30.75
20
-20.845
30
0
11
-23.2
21
-20.845
31
0
39
0
210
0
220
0
230
1
0
LINE
5
E6
100
AcDbEntity
8
SK1
62
256
6
ByLayer
370
18
48
1
60
0
100
AcDbLine
10
-0.45
20
23.970431
30
0
11
-1.566987
21
23.970431
31
0
39
0
210
0
220
0
230
1
0
LINE
5
E7
100
AcDbEntity
8
SK1
62
256
6
ByLayer
370
18
48
1
60
0
100
AcDbLine
10
-1.566987
20
-23.970431
30
0
11
-0.45
21
-23.970431
31
0
39
0
210
0
220
0
230
1
0
LINE
5
E8
100
AcDbEntity
8
SK1
62
256
6
ByLayer
370
18
48
1
60
0
100
AcDbLine
10
-21.8
20
-23.228447
30
0
11
-13.239771
21
-23.657316
31
0
39
0
210
0
220
0
230
1
0
LINE
5
E9
100
AcDbEntity
8
SK1
62
256
6
ByLayer
370
18
48
1
60
0
100
AcDbLine
10
-4.314641
20
-24.104467
30
0
11
-2
21
-24.220431
31
0
39
0
210
0
220
0
230
1
0
LINE
5
EA
100
AcDbEntity
8
SK1
62
256
6
ByLayer
370
18
48
1
60
0
100
AcDbLine
10
-2
20
24.220431
30
0
11
-4.314784
21
24.10446
31
0
39
0
210
0
220
0
230
1
0
LINE
5
EB
100
AcDbEntity
8
SK1
62
256
6
ByLayer
370
18
48
1
60
0
100
AcDbLine
10
-13.237585
20
23.657426
30
0
11
-25.8
21
23.028046
31
0
39
0
210
0
220
0
230
1
0
LINE
5
EC
100
AcDbEntity
8
SK1
62
256
6
ByLayer
370
18
48
1
60
0
100
AcDbLine
10
-1.566987
20
23.970431
30
0
11
-2
21
24.220431
31
0
39
0
210
0
220
0
230
1
0
LINE
5
ED
100
AcDbEntity
8
SK1
62
256
6
ByLayer
370
18
48
1
60
0
100
AcDbLine
10
-2
20
-24.220431
30
0
11
-1.566987
21
-23.970431
31
0
39
0
210
0
220
0
230
1
0
LINE
5
EE
100
AcDbEntity
8
1
62
256
6
ByLayer
370
18
48
1
60
0
100
AcDbLine
10
79.999999
20
-9.03647
30
0
11
80.05177
21
-8.938004
31
0
39
0
210
0
220
0
230
1
0
LINE
5
EF
100
AcDbEntity
8
1
62
256
6
ByLayer
370
18
48
1
60
0
100
AcDbLine
10
33.491182
20
18.789657
30
0
11
33.343925
21
18.686983
31
0
39
0
210
0
220
0
230
1
0
LINE
5
F0
100
AcDbEntity
8
1
62
256
6
ByLayer
370
18
48
1
60
0
100
AcDbLine
10
36.656075
20
18.686983
30
0
11
36.508818
21
18.789657
31
0
39
0
210
0
220
0
230
1
0
LINE
5
F1
100
AcDbEntity
8
1
62
256
6
ByLayer
370
18
48
1
60
0
100
AcDbLine
10
80.05177
20
8.938004
30
0
11
79.999999
21
9.03647
31
0
39
0
210
0
220
0
230
1
0
LINE
5
F2
100
AcDbEntity
8
1
62
256
6
ByLayer
370
18
48
1
60
0
100
AcDbLine
10
80.05177
20
8.938004
30
0
11
79.999999
21
9.03647
31
0
39
0
210
0
220
0
230
1
0
LINE
5
F3
100
AcDbEntity
8
SK2
62
256
6
ByLayer
370
18
48
1
60
0
100
AcDbLine
10
106.835242
20
21
30
0
11
106.835242
21
-21
31
0
39
0
210
0
220
0
230
1
0
LINE
5
F5
100
AcDbEntity
8
SK2
62
256
6
ByLayer
370
18
48
1
60
0
100
AcDbLine
10
76.5875
20
-21
30
0
11
108.835242
21
-21
31
0
39
0
210
0
220
0
230
1
0
LINE
5
F6
100
AcDbEntity
8
SK2
62
256
6
ByLayer
370
18
48
1
60
0
100
AcDbLine
10
76.5875
20
21
30
0
11
108.835242
21
21
31
0
39
0
210
0
220
0
230
1
0
LINE
5
F7
100
AcDbEntity
8
1
62
256
6
ByLayer
370
18
48
1
60
1
100
AcDbLine
10
106.835242
20
-21
30
0
11
106.374458
21
-17.500002
31
0
39
0
210
0
220
0
230
1
0
LINE
5
F8
100
AcDbEntity
8
1
62
256
6
ByLayer
370
18
48
1
60
1
100
AcDbLine
10
106.374458
20
-17.500002
30
0
11
107.296025
21
-17.499998
31
0
39
0
210
0
220
0
230
1
0
LINE
5
F9
100
AcDbEntity
8
1
62
256
6
ByLayer
370
18
48
1
60
1
100
AcDbLine
10
107.296025
20
-17.499998
30
0
11
106.835242
21
-21
31
0
39
0
210
0
220
0
230
1
0
LINE
5
FA
100
AcDbEntity
8
1
62
256
6
ByLayer
370
18
48
1
60
1
100
AcDbLine
10
106.835242
20
21
30
0
11
107.296025
21
17.500002
31
0
39
0
210
0
220
0
230
1
0
LINE
5
FB
100
AcDbEntity
8
1
62
256
6
ByLayer
370
18
48
1
60
1
100
AcDbLine
10
107.296025
20
17.500002
30
0
11
106.374458
21
17.499998
31
0
39
0
210
0
220
0
230
1
0
LINE
5
FC
100
AcDbEntity
8
1
62
256
6
ByLayer
370
18
48
1
60
1
100
AcDbLine
10
106.374458
20
17.499998
30
0
11
106.835242
21
21
31
0
39
0
210
0
220
0
230
1
0
LINE
5
FD
100
AcDbEntity
8
SK2
62
256
6
ByLayer
370
18
48
1
60
0
100
AcDbLine
10
-48.875025
20
-31.47
30
0
11
-48.875025
21
31.47
31
0
39
0
210
0
220
0
230
1
0
LINE
5
FE
100
AcDbEntity
8
SK2
62
256
6
ByLayer
370
18
48
1
60
0
100
AcDbLine
10
-1.0875
20
31.47
30
0
11
-50.875025
21
31.47
31
0
39
0
210
0
220
0
230
1
0
LINE
5
FF
100
AcDbEntity
8
SK2
62
256
6
ByLayer
370
18
48
1
60
0
100
AcDbLine
10
-1.0875
20
-31.47
30
0
11
-50.875025
21
-31.47
31
0
39
0
210
0
220
0
230
1
0
LINE
5
100
100
AcDbEntity
8
1
62
256
6
ByLayer
370
18
48
1
60
1
100
AcDbLine
10
-48.875025
20
31.47
30
0
11
-48.414241
21
27.970002
31
0
39
0
210
0
220
0
230
1
0
LINE
5
101
100
AcDbEntity
8
1
62
256
6
ByLayer
370
18
48
1
60
1
100
AcDbLine
10
-48.414241
20
27.970002
30
0
11
-49.335809
21
27.969998
31
0
39
0
210
0
220
0
230
1
0
LINE
5
102
100
AcDbEntity
8
1
62
256
6
ByLayer
370
18
48
1
60
1
100
AcDbLine
10
-49.335809
20
27.969998
30
0
11
-48.875025
21
31.47
31
0
39
0
210
0
220
0
230
1
0
LINE
5
103
100
AcDbEntity
8
1
62
256
6
ByLayer
370
18
48
1
60
1
100
AcDbLine
10
-48.875025
20
-31.47
30
0
11
-49.335809
21
-27.970002
31
0
39
0
210
0
220
0
230
1
0
LINE
5
104
100
AcDbEntity
8
1
62
256
6
ByLayer
370
18
48
1
60
1
100
AcDbLine
10
-49.335809
20
-27.970002
30
0
11
-48.414241
21
-27.969998
31
0
39
0
210
0
220
0
230
1
0
LINE
5
105
100
AcDbEntity
8
1
62
256
6
ByLayer
370
18
48
1
60
1
100
AcDbLine
10
-48.414241
20
-27.969998
30
0
11
-48.875025
21
-31.47
31
0
39
0
210
0
220
0
230
1
0
LINE
5
106
100
AcDbEntity
8
2
62
256
6
ByLayer
370
18
48
1
60
0
100
AcDbLine
10
25.95
20
44.32
30
0
11
80
21
44.32
31
0
39
0
210
0
220
0
230
1
0
LINE
5
107
100
AcDbEntity
8
2
62
256
6
ByLayer
370
18
48
1
60
0
100
AcDbLine
10
80
20
17.5875
30
0
11
80
21
46.32
31
0
39
0
210
0
220
0
230
1
0
LINE
5
108
100
AcDbEntity
8
2
62
256
6
ByLayer
370
18
48
1
60
0
100
AcDbLine
10
25.95
20
31.501721
30
0
11
25.95
21
46.32
31
0
39
0
210
0
220
0
230
1
0
LINE
5
109
100
AcDbEntity
8
1
62
256
6
ByLayer
370
18
48
1
60
1
100
AcDbLine
10
80
20
44.32
30
0
11
76.500002
21
43.859216
31
0
39
0
210
0
220
0
230
1
0
LINE
5
10A
100
AcDbEntity
8
1
62
256
6
ByLayer
370
18
48
1
60
1
100
AcDbLine
10
76.500002
20
43.859216
30
0
11
76.499998
21
44.780784
31
0
39
0
210
0
220
0
230
1
0
LINE
5
10B
100
AcDbEntity
8
1
62
256
6
ByLayer
370
18
48
1
60
1
100
AcDbLine
10
76.499998
20
44.780784
30
0
11
80
21
44.32
31
0
39
0
210
0
220
0
230
1
0
LINE
5
10C
100
AcDbEntity
8
1
62
256
6
ByLayer
370
18
48
1
60
1
100
AcDbLine
10
25.95
20
44.32
30
0
11
29.449998
21
44.780784
31
0
39
0
210
0
220
0
230
1
0
LINE
5
10D
100
AcDbEntity
8
1
62
256
6
ByLayer
370
18
48
1
60
1
100
AcDbLine
10
29.449998
20
44.780784
30
0
11
29.450002
21
43.859216
31
0
39
0
210
0
220
0
230
1
0
LINE
5
10E
100
AcDbEntity
8
1
62
256
6
ByLayer
370
18
48
1
60
1
100
AcDbLine
10
29.450002
20
43.859216
30
0
11
25.95
21
44.32
31
0
39
0
210
0
220
0
230
1
0
LINE
5
10F
100
AcDbEntity
8
SK2
62
256
6
ByLayer
370
18
48
1
60
0
100
AcDbLine
10
80
20
54.32
30
0
11
0
21
54.32
31
0
39
0
210
0
220
0
230
1
0
LINE
5
110
100
AcDbEntity
8
SK2
62
256
6
ByLayer
370
18
48
1
60
0
100
AcDbLine
10
0
20
32.5575
30
0
11
0
21
56.32
31
0
39
0
210
0
220
0
230
1
0
LINE
5
111
100
AcDbEntity
8
SK2
62
256
6
ByLayer
370
18
48
1
60
0
100
AcDbLine
10
80
20
17.5875
30
0
11
80
21
56.32
31
0
39
0
210
0
220
0
230
1
0
LINE
5
112
100
AcDbEntity
8
1
62
256
6
ByLayer
370
18
48
1
60
1
100
AcDbLine
10
0
20
54.32
30
0
11
3.499998
21
54.780784
31
0
39
0
210
0
220
0
230
1
0
LINE
5
113
100
AcDbEntity
8
1
62
256
6
ByLayer
370
18
48
1
60
1
100
AcDbLine
10
3.499998
20
54.780784
30
0
11
3.500002
21
53.859216
31
0
39
0
210
0
220
0
230
1
0
LINE
5
114
100
AcDbEntity
8
1
62
256
6
ByLayer
370
18
48
1
60
1
100
AcDbLine
10
3.500002
20
53.859216
30
0
11
0
21
54.32
31
0
39
0
210
0
220
0
230
1
0
LINE
5
115
100
AcDbEntity
8
1
62
256
6
ByLayer
370
18
48
1
60
1
100
AcDbLine
10
80
20
54.32
30
0
11
76.500002
21
53.859216
31
0
39
0
210
0
220
0
230
1
0
LINE
5
116
100
AcDbEntity
8
1
62
256
6
ByLayer
370
18
48
1
60
1
100
AcDbLine
10
76.500002
20
53.859216
30
0
11
76.499998
21
54.780784
31
0
39
0
210
0
220
0
230
1
0
LINE
5
117
100
AcDbEntity
8
1
62
256
6
ByLayer
370
18
48
1
60
1
100
AcDbLine
10
76.499998
20
54.780784
30
0
11
80
21
54.32
31
0
39
0
210
0
220
0
230
1
0
LINE
5
118
100
AcDbEntity
8
SK2
62
256
6
ByLayer
370
18
48
1
60
0
100
AcDbLine
10
-31.9
20
54.32
30
0
11
0
21
54.32
31
0
39
0
210
0
220
0
230
1
0
LINE
5
119
100
AcDbEntity
8
SK2
62
256
6
ByLayer
370
18
48
1
60
0
100
AcDbLine
10
0
20
32.5575
30
0
11
0
21
56.32
31
0
39
0
210
0
220
0
230
1
0
LINE
5
11A
100
AcDbEntity
8
SK2
62
256
6
ByLayer
370
18
48
1
60
0
100
AcDbLine
10
-31.9
20
21.260162
30
0
11
-31.9
21
56.32
31
0
39
0
210
0
220
0
230
1
0
LINE
5
11B
100
AcDbEntity
8
1
62
256
6
ByLayer
370
18
48
1
60
1
100
AcDbLine
10
0
20
54.32
30
0
11
-3.499998
21
53.859216
31
0
39
0
210
0
220
0
230
1
0
LINE
5
11C
100
AcDbEntity
8
1
62
256
6
ByLayer
370
18
48
1
60
1
100
AcDbLine
10
-3.499998
20
53.859216
30
0
11
-3.500002
21
54.780784
31
0
39
0
210
0
220
0
230
1
0
LINE
5
11D
100
AcDbEntity
8
1
62
256
6
ByLayer
370
18
48
1
60
1
100
AcDbLine
10
-3.500002
20
54.780784
30
0
11
0
21
54.32
31
0
39
0
210
0
220
0
230
1
0
LINE
5
11E
100
AcDbEntity
8
1
62
256
6
ByLayer
370
18
48
1
60
1
100
AcDbLine
10
-31.9
20
54.32
30
0
11
-28.400002
21
54.780784
31
0
39
0
210
0
220
0
230
1
0
LINE
5
11F
100
AcDbEntity
8
1
62
256
6
ByLayer
370
18
48
1
60
1
100
AcDbLine
10
-28.400002
20
54.780784
30
0
11
-28.399998
21
53.859216
31
0
39
0
210
0
220
0
230
1
0
LINE
5
120
100
AcDbEntity
8
1
62
256
6
ByLayer
370
18
48
1
60
1
100
AcDbLine
10
-28.399998
20
53.859216
30
0
11
-31.9
21
54.32
31
0
39
0
210
0
220
0
230
1
0
LINE
5
1B0
100
AcDbEntity
8
1
62
256
6
ByLayer
370
18
48
1
60
1
100
AcDbLine
10
106.835242
20
-21
30
0
11
106.374458
21
-17.500002
31
0
39
0
210
0
220
0
230
1
0
LINE
5
1B1
100
AcDbEntity
8
1
62
256
6
ByLayer
370
18
48
1
60
1
100
AcDbLine
10
106.374458
20
-17.500002
30
0
11
107.296025
21
-17.499998
31
0
39
0
210
0
220
0
230
1
0
LINE
5
1B2
100
AcDbEntity
8
1
62
256
6
ByLayer
370
18
48
1
60
1
100
AcDbLine
10
107.296025
20
-17.499998
30
0
11
106.835242
21
-21
31
0
39
0
210
0
220
0
230
1
0
LINE
5
1B4
100
AcDbEntity
8
1
62
256
6
ByLayer
370
18
48
1
60
1
100
AcDbLine
10
106.835242
20
21
30
0
11
107.296025
21
17.500002
31
0
39
0
210
0
220
0
230
1
0
LINE
5
1B5
100
AcDbEntity
8
1
62
256
6
ByLayer
370
18
48
1
60
1
100
AcDbLine
10
107.296025
20
17.500002
30
0
11
106.374458
21
17.499998
31
0
39
0
210
0
220
0
230
1
0
LINE
5
1B6
100
AcDbEntity
8
1
62
256
6
ByLayer
370
18
48
1
60
1
100
AcDbLine
10
106.374458
20
17.499998
30
0
11
106.835242
21
21
31
0
39
0
210
0
220
0
230
1
0
LINE
5
1BA
100
AcDbEntity
8
1
62
256
6
ByLayer
370
18
48
1
60
1
100
AcDbLine
10
-48.875025
20
31.47
30
0
11
-48.414241
21
27.970002
31
0
39
0
210
0
220
0
230
1
0
LINE
5
1BB
100
AcDbEntity
8
1
62
256
6
ByLayer
370
18
48
1
60
1
100
AcDbLine
10
-48.414241
20
27.970002
30
0
11
-49.335809
21
27.969998
31
0
39
0
210
0
220
0
230
1
0
LINE
5
1BC
100
AcDbEntity
8
1
62
256
6
ByLayer
370
18
48
1
60
1
100
AcDbLine
10
-49.335809
20
27.969998
30
0
11
-48.875025
21
31.47
31
0
39
0
210
0
220
0
230
1
0
LINE
5
1BE
100
AcDbEntity
8
1
62
256
6
ByLayer
370
18
48
1
60
1
100
AcDbLine
10
-48.875025
20
-31.47
30
0
11
-49.335809
21
-27.970002
31
0
39
0
210
0
220
0
230
1
0
LINE
5
1BF
100
AcDbEntity
8
1
62
256
6
ByLayer
370
18
48
1
60
1
100
AcDbLine
10
-49.335809
20
-27.970002
30
0
11
-48.414241
21
-27.969998
31
0
39
0
210
0
220
0
230
1
0
LINE
5
1C0
100
AcDbEntity
8
1
62
256
6
ByLayer
370
18
48
1
60
1
100
AcDbLine
10
-48.414241
20
-27.969998
30
0
11
-48.875025
21
-31.47
31
0
39
0
210
0
220
0
230
1
0
LINE
5
1C3
100
AcDbEntity
8
1
62
256
6
ByLayer
370
18
48
1
60
1
100
AcDbLine
10
80
20
44.32
30
0
11
76.500002
21
43.859216
31
0
39
0
210
0
220
0
230
1
0
LINE
5
1C4
100
AcDbEntity
8
1
62
256
6
ByLayer
370
18
48
1
60
1
100
AcDbLine
10
76.500002
20
43.859216
30
0
11
76.499998
21
44.780784
31
0
39
0
210
0
220
0
230
1
0
LINE
5
1C5
100
AcDbEntity
8
1
62
256
6
ByLayer
370
18
48
1
60
1
100
AcDbLine
10
76.499998
20
44.780784
30
0
11
80
21
44.32
31
0
39
0
210
0
220
0
230
1
0
LINE
5
1C7
100
AcDbEntity
8
1
62
256
6
ByLayer
370
18
48
1
60
1
100
AcDbLine
10
25.95
20
44.32
30
0
11
29.449998
21
44.780784
31
0
39
0
210
0
220
0
230
1
0
LINE
5
1C8
100
AcDbEntity
8
1
62
256
6
ByLayer
370
18
48
1
60
1
100
AcDbLine
10
29.449998
20
44.780784
30
0
11
29.450002
21
43.859216
31
0
39
0
210
0
220
0
230
1
0
LINE
5
1C9
100
AcDbEntity
8
1
62
256
6
ByLayer
370
18
48
1
60
1
100
AcDbLine
10
29.450002
20
43.859216
30
0
11
25.95
21
44.32
31
0
39
0
210
0
220
0
230
1
0
LINE
5
1CC
100
AcDbEntity
8
1
62
256
6
ByLayer
370
18
48
1
60
1
100
AcDbLine
10
0
20
54.32
30
0
11
3.499998
21
54.780784
31
0
39
0
210
0
220
0
230
1
0
LINE
5
1CD
100
AcDbEntity
8
1
62
256
6
ByLayer
370
18
48
1
60
1
100
AcDbLine
10
3.499998
20
54.780784
30
0
11
3.500002
21
53.859216
31
0
39
0
210
0
220
0
230
1
0
LINE
5
1CE
100
AcDbEntity
8
1
62
256
6
ByLayer
370
18
48
1
60
1
100
AcDbLine
10
3.500002
20
53.859216
30
0
11
0
21
54.32
31
0
39
0
210
0
220
0
230
1
0
LINE
5
1D0
100
AcDbEntity
8
1
62
256
6
ByLayer
370
18
48
1
60
1
100
AcDbLine
10
80
20
54.32
30
0
11
76.500002
21
53.859216
31
0
39
0
210
0
220
0
230
1
0
LINE
5
1D1
100
AcDbEntity
8
1
62
256
6
ByLayer
370
18
48
1
60
1
100
AcDbLine
10
76.500002
20
53.859216
30
0
11
76.499998
21
54.780784
31
0
39
0
210
0
220
0
230
1
0
LINE
5
1D2
100
AcDbEntity
8
1
62
256
6
ByLayer
370
18
48
1
60
1
100
AcDbLine
10
76.499998
20
54.780784
30
0
11
80
21
54.32
31
0
39
0
210
0
220
0
230
1
0
LINE
5
1D5
100
AcDbEntity
8
1
62
256
6
ByLayer
370
18
48
1
60
1
100
AcDbLine
10
0
20
54.32
30
0
11
-3.499998
21
53.859216
31
0
39
0
210
0
220
0
230
1
0
LINE
5
1D6
100
AcDbEntity
8
1
62
256
6
ByLayer
370
18
48
1
60
1
100
AcDbLine
10
-3.499998
20
53.859216
30
0
11
-3.500002
21
54.780784
31
0
39
0
210
0
220
0
230
1
0
LINE
5
1D7
100
AcDbEntity
8
1
62
256
6
ByLayer
370
18
48
1
60
1
100
AcDbLine
10
-3.500002
20
54.780784
30
0
11
0
21
54.32
31
0
39
0
210
0
220
0
230
1
0
LINE
5
1D9
100
AcDbEntity
8
1
62
256
6
ByLayer
370
18
48
1
60
1
100
AcDbLine
10
-31.9
20
54.32
30
0
11
-28.400002
21
54.780784
31
0
39
0
210
0
220
0
230
1
0
LINE
5
1DA
100
AcDbEntity
8
1
62
256
6
ByLayer
370
18
48
1
60
1
100
AcDbLine
10
-28.400002
20
54.780784
30
0
11
-28.399998
21
53.859216
31
0
39
0
210
0
220
0
230
1
0
LINE
5
1DB
100
AcDbEntity
8
1
62
256
6
ByLayer
370
18
48
1
60
1
100
AcDbLine
10
-28.399998
20
53.859216
30
0
11
-31.9
21
54.32
31
0
39
0
210
0
220
0
230
1
0
MTEXT
5
1AC
100
AcDbEntity
8
SK2
62
256
6
ByLayer
370
18
48
1
60
0
100
AcDbMText
10
105.270608
20
-4.714889
30
0
210
0
220
0
230
1
1
%%c
40
3.5
41
0
44
1.084337
50
90
71
7
72
5
7
iso_b_vert
0
MTEXT
5
1AF
100
AcDbEntity
8
SK2
62
256
6
ByLayer
370
18
48
1
60
0
100
AcDbMText
10
105.270608
20
2.257767
30
0
210
0
220
0
230
1
1
\W0.7361;42
40
3.5
41
0
44
1.084337
50
90
71
7
72
5
7
iso_b_vert
0
MTEXT
5
1B8
100
AcDbEntity
8
SK2
62
256
6
ByLayer
370
18
48
1
60
0
100
AcDbMText
10
-50.439659
20
-4.530622
30
0
210
0
220
0
230
1
1
%%c
40
3.5
41
0
44
1.084337
50
90
71
7
72
5
7
iso_b_vert
0
MTEXT
5
1B9
100
AcDbEntity
8
SK2
62
256
6
ByLayer
370
18
48
1
60
0
100
AcDbMText
10
-50.439659
20
2.442034
30
0
210
0
220
0
230
1
1
\W0.6740;63
40
3.5
41
0
44
1.084337
50
90
71
7
72
5
7
iso_b_vert
0
MTEXT
5
1C2
100
AcDbEntity
8
2
62
256
6
ByLayer
370
18
48
1
60
0
100
AcDbMText
10
50.885767
20
45.352634
30
0
210
0
220
0
230
1
1
\W0.7167;54
40
3.5
41
0
44
1.084337
50
0
71
7
72
5
7
iso_b_vert
0
MTEXT
5
1CB
100
AcDbEntity
8
SK2
62
256
6
ByLayer
370
18
48
1
60
0
100
AcDbMText
10
38.095034
20
55.352634
30
0
210
0
220
0
230
1
1
\W0.6740;80
40
3.5
41
0
44
1.084337
50
0
71
7
72
5
7
iso_b_vert
0
MTEXT
5
1D4
100
AcDbEntity
8
SK2
62
256
6
ByLayer
370
18
48
1
60
0
100
AcDbMText
10
-19.434266
20
55.352634
30
0
210
0
220
0
230
1
1
\W0.6662;31.9
40
3.5
41
0
44
1.084337
50
0
71
7
72
5
7
iso_b_vert
0
MTEXT
5
1DD
100
AcDbEntity
8
SK6
62
256
6
ByLayer
370
18
48
1
60
0
100
AcDbMText
10
53.432054
20
-92.114886
30
0
210
0
220
0
230
1
1
\W0.7688;HA06-WE12-B042-080
40
3
41
0
44
1.084337
50
0
71
7
72
5
7
iso_b_vert
0
HATCH
5
1B3
100
AcDbEntity
8
SK2
62
256
6
ByLayer
370
13
48
1
60
0
100
AcDbHatch
10
0
20
0
30
0
210
0
220
0
230
1
2
ANSI31
70
0
71
0
91
1
92
5
93
3
72
1
10
106.835241627749
20
-20.9999999999999
11
106.374457886196
21
-17.5000016925531
72
1
10
106.374457886196
20
-17.5000016925531
11
107.296025369301
21
-17.4999983074467
72
1
10
107.296025369301
20
-17.4999983074467
11
106.835241627749
21
-20.9999999999999
97
0
75
0
76
1
52
0
41
0.0062
77
0
78
1
53
45
43
0
44
0
45
-0.0139193969876572
46
0.0139193969876572
79
0
47
0
98
1
10
0
20
0
0
HATCH
5
1B7
100
AcDbEntity
8
SK2
62
256
6
ByLayer
370
13
48
1
60
0
100
AcDbHatch
10
0
20
0
30
0
210
0
220
0
230
1
2
ANSI31
70
0
71
0
91
1
92
5
93
3
72
1
10
106.835241627749
20
21.0000000000001
11
107.296025369301
21
17.5000016925533
72
1
10
107.296025369301
20
17.5000016925533
11
106.374457886196
21
17.4999983074469
72
1
10
106.374457886196
20
17.4999983074469
11
106.835241627749
21
21.0000000000001
97
0
75
0
76
1
52
0
41
0.0062
77
0
78
1
53
45
43
0
44
0
45
-0.0139193969876572
46
0.0139193969876572
79
0
47
0
98
1
10
0
20
0
0
HATCH
5
1BD
100
AcDbEntity
8
SK2
62
256
6
ByLayer
370
13
48
1
60
0
100
AcDbHatch
10
0
20
0
30
0
210
0
220
0
230
1
2
ANSI31
70
0
71
0
91
1
92
5
93
3
72
1
10
-48.875025
20
31.47
11
-48.4142412584473
21
27.9700016925532
72
1
10
-48.4142412584473
20
27.9700016925532
11
-49.3358087415528
21
27.9699983074468
72
1
10
-49.3358087415528
20
27.9699983074468
11
-48.875025
21
31.47
97
0
75
0
76
1
52
0
41
0.0062
77
0
78
1
53
45
43
0
44
0
45
-0.0139193969876572
46
0.0139193969876572
79
0
47
0
98
1
10
0
20
0
0
HATCH
5
1C1
100
AcDbEntity
8
SK2
62
256
6
ByLayer
370
13
48
1
60
0
100
AcDbHatch
10
0
20
0
30
0
210
0
220
0
230
1
2
ANSI31
70
0
71
0
91
1
92
5
93
3
72
1
10
-48.875025
20
-31.47
11
-49.3358087415528
21
-27.9700016925532
72
1
10
-49.3358087415528
20
-27.9700016925532
11
-48.4142412584473
21
-27.9699983074468
72
1
10
-48.4142412584473
20
-27.9699983074468
11
-48.875025
21
-31.47
97
0
75
0
76
1
52
0
41
0.0062
77
0
78
1
53
45
43
0
44
0
45
-0.0139193969876572
46
0.0139193969876572
79
0
47
0
98
1
10
0
20
0
0
HATCH
5
1C6
100
AcDbEntity
8
2
62
256
6
ByLayer
370
13
48
1
60
0
100
AcDbHatch
10
0
20
0
30
0
210
0
220
0
230
1
2
ANSI31
70
0
71
0
91
1
92
5
93
3
72
1
10
80
20
44.3200000000001
11
76.5000016925532
21
43.8592162584473
72
1
10
76.5000016925532
20
43.8592162584473
11
76.4999983074468
21
44.7807837415529
72
1
10
76.4999983074468
20
44.7807837415529
11
80
21
44.3200000000001
97
0
75
0
76
1
52
0
41
0.0062
77
0
78
1
53
45
43
0
44
0
45
-0.0139193969876572
46
0.0139193969876572
79
0
47
0
98
1
10
0
20
0
0
HATCH
5
1CA
100
AcDbEntity
8
2
62
256
6
ByLayer
370
13
48
1
60
0
100
AcDbHatch
10
0
20
0
30
0
210
0
220
0
230
1
2
ANSI31
70
0
71
0
91
1
92
5
93
3
72
1
10
25.95
20
44.3200000000001
11
29.4499983074468
21
44.7807837415529
72
1
10
29.4499983074468
20
44.7807837415529
11
29.4500016925532
21
43.8592162584473
72
1
10
29.4500016925532
20
43.8592162584473
11
25.95
21
44.3200000000001
97
0
75
0
76
1
52
0
41
0.0062
77
0
78
1
53
45
43
0
44
0
45
-0.0139193969876572
46
0.0139193969876572
79
0
47
0
98
1
10
0
20
0
0
HATCH
5
1CF
100
AcDbEntity
8
SK2
62
256
6
ByLayer
370
13
48
1
60
0
100
AcDbHatch
10
0
20
0
30
0
210
0
220
0
230
1
2
ANSI31
70
0
71
0
91
1
92
5
93
3
72
1
10
0
20
54.3200000000001
11
3.49999830744682
21
54.7807837415529
72
1
10
3.49999830744682
20
54.7807837415529
11
3.50000169255318
21
53.8592162584473
72
1
10
3.50000169255318
20
53.8592162584473
11
0
21
54.3200000000001
97
0
75
0
76
1
52
0
41
0.0062
77
0
78
1
53
45
43
0
44
0
45
-0.0139193969876572
46
0.0139193969876572
79
0
47
0
98
1
10
0
20
0
0
HATCH
5
1D3
100
AcDbEntity
8
SK2
62
256
6
ByLayer
370
13
48
1
60
0
100
AcDbHatch
10
0
20
0
30
0
210
0
220
0
230
1
2
ANSI31
70
0
71
0
91
1
92
5
93
3
72
1
10
80
20
54.3200000000001
11
76.5000016925532
21
53.8592162584473
72
1
10
76.5000016925532
20
53.8592162584473
11
76.4999983074468
21
54.7807837415529
72
1
10
76.4999983074468
20
54.7807837415529
11
80
21
54.3200000000001
97
0
75
0
76
1
52
0
41
0.0062
77
0
78
1
53
45
43
0
44
0
45
-0.0139193969876572
46
0.0139193969876572
79
0
47
0
98
1
10
0
20
0
0
HATCH
5
1D8
100
AcDbEntity
8
SK2
62
256
6
ByLayer
370
13
48
1
60
0
100
AcDbHatch
10
0
20
0
30
0
210
0
220
0
230
1
2
ANSI31
70
0
71
0
91
1
92
5
93
3
72
1
10
0
20
54.3200000000001
11
-3.4999983074468
21
53.8592162584473
72
1
10
-3.4999983074468
20
53.8592162584473
11
-3.5000016925532
21
54.7807837415529
72
1
10
-3.5000016925532
20
54.7807837415529
11
0
21
54.3200000000001
97
0
75
0
76
1
52
0
41
0.0062
77
0
78
1
53
45
43
0
44
0
45
-0.0139193969876572
46
0.0139193969876572
79
0
47
0
98
1
10
0
20
0
0
HATCH
5
1DC
100
AcDbEntity
8
SK2
62
256
6
ByLayer
370
13
48
1
60
0
100
AcDbHatch
10
0
20
0
30
0
210
0
220
0
230
1
2
ANSI31
70
0
71
0
91
1
92
5
93
3
72
1
10
-31.9
20
54.3200000000001
11
-28.4000016925532
21
54.7807837415529
72
1
10
-28.4000016925532
20
54.7807837415529
11
-28.3999983074468
21
53.8592162584473
72
1
10
-28.3999983074468
20
53.8592162584473
11
-31.9
21
54.3200000000001
97
0
75
0
76
1
52
0
41
0.0062
77
0
78
1
53
45
43
0
44
0
45
-0.0139193969876572
46
0.0139193969876572
79
0
47
0
98
1
10
0
20
0
0
ENDSEC
0
SECTION
2
OBJECTS
0
DICTIONARY
5
24b
330
0
100
AcDbDictionary
280
0
281
1
3
ACAD_GROUP
350
24c
3
ACAD_MLINESTYLE
350
24d
0
DICTIONARY
5
24c
330
0
100
AcDbDictionary
280
0
281
1
0
DICTIONARY
5
24d
330
0
100
AcDbDictionary
280
0
281
1
3
Standard
350
18
0
MLINESTYLE
5
18
330
24d
100
AcDbMlineStyle
2
Standard
70
0
3

62
256
51
90
52
90
71
2
49
-0.5
62
256
6
ByLayer
49
0.5
62
256
6
ByLayer
0
RASTERVARIABLES
5
23a
330

100
AcDbRasterVariables
90
0
70
1
71
1
72
1
0
ENDSEC
0
EOF
