0
SECTION
2
HEADER
9
$ACADVER
1
AC1015
9
$DWGCODEPAGE
3
ANSI_1252
9
$HANDSEED
5
237
9
$ANGBASE
50
0
9
$ANGDIR
70
0
9
$ATTMODE
70
1
9
$AUNITS
70
0
9
$AUPREC
70
0
9
$CECOLOR
62
256
9
$CELTSCALE
40
1
9
$CELTYPE
6
ByLayer
9
$CELWEIGHT
370
18
9
$CLAYER
8
0
9
$CMLJUST
70
0
9
$CMLSCALE
40
1
9
$CMLSTYLE
2
Standard
9
$DIMSTYLE
2
Standard
9
$TEXTSIZE
40
0.2
9
$TEXTSTYLE
7
Standard
9
$LUNITS
70
2
9
$LUPREC
70
4
9
$EXTNAMES
290
1
9
$INSUNITS
70
4
9
$LTSCALE
40
1
9
$LWDISPLAY
290
1
9
$PDMODE
70
0
9
$PDSIZE
40
0
9
$PLINEGEN
70
0
0
ENDSEC
0
SECTION
2
CLASSES
0
CLASS
1
RASTERVARIABLES
2
AcDbRasterVariables
3
ISM
90
0
280
0
281
0
0
ENDSEC
0
SECTION
2
TABLES
0
TABLE
2
VPORT
5
22d
100
AcDbSymbolTable
0
VPORT
5
1
100
AcDbSymbolTableRecord
100
AcDbViewportTableRecord
2
*Active
70
0
10
0
20
0
11
1
21
1
12
-1
22
1
13
0
23
0
14
0.5
24
0.5
15
10
25
10
16
0
26
0
36
1
17
0
27
0
37
0
0
ENDTAB
0
TABLE
2
LTYPE
5
22e
100
AcDbSymbolTable
0
LTYPE
5
14
100
AcDbSymbolTableRecord
100
AcDbLinetypeTableRecord
70
0
2
ByBlock
3

72
65
73
0
40
0
0
LTYPE
5
15
100
AcDbSymbolTableRecord
100
AcDbLinetypeTableRecord
70
0
2
ByLayer
3

72
65
73
0
40
0
0
LTYPE
5
16
100
AcDbSymbolTableRecord
100
AcDbLinetypeTableRecord
70
0
2
Continuous
3
Solid line
72
65
73
0
40
0
0
LTYPE
5
6E
100
AcDbSymbolTableRecord
100
AcDbLinetypeTableRecord
70
0
2
CENTER
3
____ _ ____ _ ____ _ ____
72
65
73
4
40
47.5
49
22
74
0
49
-8.5
74
0
49
8.5
74
0
49
-8.5
74
0
0
LTYPE
5
6F
100
AcDbSymbolTableRecord
100
AcDbLinetypeTableRecord
70
0
2
DASHED
3
__ __ __ __ __ __ __ __ __
72
65
73
2
40
25.72
49
12.86
74
0
49
-12.86
74
0
0
ENDTAB
0
TABLE
2
LAYER
5
22f
100
AcDbSymbolTable
0
LAYER
5
10
100
AcDbSymbolTableRecord
100
AcDbLayerTableRecord
2
0
70
0
62
7
6
Continuous
290
1
370
-3
390
0
0
LAYER
5
71
100
AcDbSymbolTableRecord
100
AcDbLayerTableRecord
2
2
70
0
62
7
6
Continuous
290
1
370
-3
390
0
0
LAYER
5
81
100
AcDbSymbolTableRecord
100
AcDbLayerTableRecord
2
81
70
0
62
-3
6
Continuous
290
1
370
-3
390
0
0
LAYER
5
83
100
AcDbSymbolTableRecord
100
AcDbLayerTableRecord
2
80
70
0
62
-6
6
Continuous
290
1
370
-3
390
0
0
LAYER
5
86
100
AcDbSymbolTableRecord
100
AcDbLayerTableRecord
2
4
70
0
62
-2
6
CENTER
290
1
370
-3
390
0
0
LAYER
5
89
100
AcDbSymbolTableRecord
100
AcDbLayerTableRecord
2
1
70
0
62
4
6
Continuous
290
1
370
-3
390
0
0
LAYER
5
21a
100
AcDbSymbolTableRecord
100
AcDbLayerTableRecord
2
SK2
70
0
62
7
6
Continuous
290
1
370
-3
390
0
0
LAYER
5
21b
100
AcDbSymbolTableRecord
100
AcDbLayerTableRecord
2
SK1
70
0
62
4
6
Continuous
290
1
370
-3
390
0
0
LAYER
5
21c
100
AcDbSymbolTableRecord
100
AcDbLayerTableRecord
2
SK6
70
0
62
5
6
Continuous
290
1
370
-3
390
0
0
ENDTAB
0
TABLE
2
STYLE
5
230
100
AcDbSymbolTable
0
STYLE
5
11
100
AcDbSymbolTableRecord
100
AcDbTextStyleTableRecord
2
Standard
3
txt
70
0
71
0
40
0
41
1
42
0
50
0
0
STYLE
5
18C
100
AcDbSymbolTableRecord
100
AcDbTextStyleTableRecord
2
iso_b_vert
3
simplex.shx
70
0
71
0
40
0
41
1
42
0
50
0
0
STYLE
5
18D
100
AcDbSymbolTableRecord
100
AcDbTextStyleTableRecord
2
DWGDirectTextStyle
3
simplex
70
0
71
0
40
0
41
1
42
0
50
0
0
ENDTAB
0
TABLE
2
DIMSTYLE
5
231
100
AcDbSymbolTable
100
AcDbDimStyleTable
0
DIMSTYLE
105
27
100
AcDbSymbolTableRecord
100
AcDbDimStyleTableRecord
2
Standard
70
0
3
<>
41
0.18
42
0.0625
44
0.18
140
0.18
147
0.09
73
0
74
0
77
1
271
2
275
0
278
52
280
0
340
11
0
ENDTAB
0
TABLE
2
VIEW
5
232
100
AcDbSymbolTable
0
ENDTAB
0
TABLE
2
UCS
5
233
100
AcDbSymbolTable
0
ENDTAB
0
TABLE
2
APPID
5
234
100
AcDbSymbolTable
0
APPID
5
12
100
AcDbSymbolTableRecord
100
AcDbRegAppTableRecord
2
ACAD
70
0
0
APPID
5
216
100
AcDbSymbolTableRecord
100
AcDbRegAppTableRecord
2
ACAD_MLEADERVER
70
0
0
ENDTAB
0
TABLE
2
BLOCK_RECORD
5
235
100
AcDbSymbolTable
0
BLOCK_RECORD
5
1F
100
AcDbSymbolTableRecord
100
AcDbBlockTableRecord
2
*Model_Space
340
0
70
0
0
BLOCK_RECORD
5
1B
100
AcDbSymbolTableRecord
100
AcDbBlockTableRecord
2
*Paper_Space
340
0
70
0
0
BLOCK_RECORD
5
23
100
AcDbSymbolTableRecord
100
AcDbBlockTableRecord
2
*Paper_Space0
340
0
70
0
0
ENDTAB
0
ENDSEC
0
SECTION
2
BLOCKS
0
BLOCK
5
20
100
AcDbEntity
8
0
100
AcDbBlockBegin
2
*Model_Space
70
0
10
0
20
0
30
0
3
*Model_Space
0
ENDBLK
5
21
100
AcDbEntity
8
0
100
AcDbBlockEnd
0
BLOCK
5
1C
100
AcDbEntity
8
0
100
AcDbBlockBegin
2
*Paper_Space
70
0
10
0
20
0
30
0
3
*Paper_Space
0
ENDBLK
5
1D
100
AcDbEntity
8
0
100
AcDbBlockEnd
0
BLOCK
5
24
100
AcDbEntity
8
0
100
AcDbBlockBegin
2
*Paper_Space0
70
0
10
0
20
0
30
0
3
*Paper_Space0
0
ENDBLK
5
25
100
AcDbEntity
8
0
100
AcDbBlockEnd
0
ENDSEC
0
SECTION
2
ENTITIES
0
ARC
5
126
100
AcDbEntity
8
SK2
62
256
6
ByLayer
370
18
48
1
60
0
100
AcDbCircle
39
0
10
57.5
20
0
30
0
40
4.1
210
0
220
0
230
1
100
AcDbArc
50
12.680383
51
47.319617
0
ARC
5
127
100
AcDbEntity
8
SK2
62
256
6
ByLayer
370
18
48
1
60
0
100
AcDbCircle
39
0
10
57.5
20
0
30
0
40
4.1
210
0
220
0
230
1
100
AcDbArc
50
312.680383
51
347.319617
0
ARC
5
128
100
AcDbEntity
8
SK2
62
256
6
ByLayer
370
18
48
1
60
0
100
AcDbCircle
39
0
10
57.5
20
0
30
0
40
4.1
210
0
220
0
230
1
100
AcDbArc
50
192.680383
51
227.319617
0
ARC
5
129
100
AcDbEntity
8
SK2
62
256
6
ByLayer
370
18
48
1
60
0
100
AcDbCircle
39
0
10
57.5
20
0
30
0
40
4.1
210
0
220
0
230
1
100
AcDbArc
50
72.680383
51
107.319617
0
ARC
5
12A
100
AcDbEntity
8
SK2
62
256
6
ByLayer
370
18
48
1
60
0
100
AcDbCircle
39
0
10
57.5
20
0
30
0
40
4.1
210
0
220
0
230
1
100
AcDbArc
50
132.680383
51
167.319617
0
ARC
5
12B
100
AcDbEntity
8
SK2
62
256
6
ByLayer
370
18
48
1
60
0
100
AcDbCircle
39
0
10
57.5
20
0
30
0
40
4.1
210
0
220
0
230
1
100
AcDbArc
50
252.680383
51
287.319617
0
ARC
5
12E
100
AcDbEntity
8
SK2
62
256
6
ByLayer
370
18
48
1
60
0
100
AcDbCircle
39
0
10
57.5
20
0
30
0
40
4.5
210
0
220
0
230
1
100
AcDbArc
50
332.733956
51
27.266044
0
ARC
5
12F
100
AcDbEntity
8
SK2
62
256
6
ByLayer
370
18
48
1
60
0
100
AcDbCircle
39
0
10
57.5
20
0
30
0
40
4.5
210
0
220
0
230
1
100
AcDbArc
50
152.733956
51
207.266044
0
ARC
5
130
100
AcDbEntity
8
SK2
62
256
6
ByLayer
370
18
48
1
60
0
100
AcDbCircle
39
0
10
57.5
20
0
30
0
40
4.5
210
0
220
0
230
1
100
AcDbArc
50
272.733956
51
327.266044
0
ARC
5
131
100
AcDbEntity
8
SK2
62
256
6
ByLayer
370
18
48
1
60
0
100
AcDbCircle
39
0
10
57.5
20
0
30
0
40
4.5
210
0
220
0
230
1
100
AcDbArc
50
32.733956
51
87.266044
0
ARC
5
132
100
AcDbEntity
8
SK2
62
256
6
ByLayer
370
18
48
1
60
0
100
AcDbCircle
39
0
10
57.5
20
0
30
0
40
4.5
210
0
220
0
230
1
100
AcDbArc
50
92.733956
51
147.266044
0
ARC
5
133
100
AcDbEntity
8
SK2
62
256
6
ByLayer
370
18
48
1
60
0
100
AcDbCircle
39
0
10
57.5
20
0
30
0
40
4.5
210
0
220
0
230
1
100
AcDbArc
50
212.733956
51
267.266044
0
ARC
5
134
100
AcDbEntity
8
SK2
62
256
6
ByLayer
370
18
48
1
60
0
100
AcDbCircle
39
0
10
91
20
0
30
0
40
4.1
210
0
220
0
230
1
100
AcDbArc
50
252.680383
51
287.319617
0
ARC
5
135
100
AcDbEntity
8
SK2
62
256
6
ByLayer
370
18
48
1
60
0
100
AcDbCircle
39
0
10
91
20
0
30
0
40
4.1
210
0
220
0
230
1
100
AcDbArc
50
132.680383
51
167.319617
0
ARC
5
136
100
AcDbEntity
8
SK2
62
256
6
ByLayer
370
18
48
1
60
0
100
AcDbCircle
39
0
10
91
20
0
30
0
40
4.1
210
0
220
0
230
1
100
AcDbArc
50
312.680383
51
347.319617
0
ARC
5
137
100
AcDbEntity
8
SK2
62
256
6
ByLayer
370
18
48
1
60
0
100
AcDbCircle
39
0
10
91
20
0
30
0
40
4.1
210
0
220
0
230
1
100
AcDbArc
50
192.680383
51
227.319617
0
ARC
5
138
100
AcDbEntity
8
SK2
62
256
6
ByLayer
370
18
48
1
60
0
100
AcDbCircle
39
0
10
91
20
0
30
0
40
4.1
210
0
220
0
230
1
100
AcDbArc
50
12.680383
51
47.319617
0
ARC
5
139
100
AcDbEntity
8
SK2
62
256
6
ByLayer
370
18
48
1
60
0
100
AcDbCircle
39
0
10
91
20
0
30
0
40
4.1
210
0
220
0
230
1
100
AcDbArc
50
72.680383
51
107.319617
0
ARC
5
13C
100
AcDbEntity
8
SK2
62
256
6
ByLayer
370
18
48
1
60
0
100
AcDbCircle
39
0
10
91
20
0
30
0
40
4.5
210
0
220
0
230
1
100
AcDbArc
50
332.733956
51
27.266044
0
ARC
5
13D
100
AcDbEntity
8
SK2
62
256
6
ByLayer
370
18
48
1
60
0
100
AcDbCircle
39
0
10
91
20
0
30
0
40
4.5
210
0
220
0
230
1
100
AcDbArc
50
152.733956
51
207.266044
0
ARC
5
13E
100
AcDbEntity
8
SK2
62
256
6
ByLayer
370
18
48
1
60
0
100
AcDbCircle
39
0
10
91
20
0
30
0
40
4.5
210
0
220
0
230
1
100
AcDbArc
50
32.733956
51
87.266044
0
ARC
5
13F
100
AcDbEntity
8
SK2
62
256
6
ByLayer
370
18
48
1
60
0
100
AcDbCircle
39
0
10
91
20
0
30
0
40
4.5
210
0
220
0
230
1
100
AcDbArc
50
272.733956
51
327.266044
0
ARC
5
140
100
AcDbEntity
8
SK2
62
256
6
ByLayer
370
18
48
1
60
0
100
AcDbCircle
39
0
10
91
20
0
30
0
40
4.5
210
0
220
0
230
1
100
AcDbArc
50
92.733956
51
147.266044
0
ARC
5
141
100
AcDbEntity
8
SK2
62
256
6
ByLayer
370
18
48
1
60
0
100
AcDbCircle
39
0
10
91
20
0
30
0
40
4.5
210
0
220
0
230
1
100
AcDbArc
50
212.733956
51
267.266044
0
ARC
5
142
100
AcDbEntity
8
1
62
256
6
ByLayer
370
18
48
1
60
0
100
AcDbCircle
39
0
10
33.124598
20
32.9
30
0
40
0.600000000000001
210
0
220
0
230
1
100
AcDbArc
50
270
51
285
0
ARC
5
143
100
AcDbEntity
8
1
62
256
6
ByLayer
370
18
48
1
60
0
100
AcDbCircle
39
0
10
33.124598
20
-32.9
30
0
40
0.600000000000001
210
0
220
0
230
1
100
AcDbArc
50
75
51
90
0
ARC
5
144
100
AcDbEntity
8
1
62
256
6
ByLayer
370
18
48
1
60
0
100
AcDbCircle
39
0
10
31.95
20
35.3
30
0
40
3
210
0
220
0
230
1
100
AcDbArc
50
180
51
270
0
ARC
5
145
100
AcDbEntity
8
1
62
256
6
ByLayer
370
18
48
1
60
0
100
AcDbCircle
39
0
10
31.95
20
-35.3
30
0
40
3
210
0
220
0
230
1
100
AcDbArc
50
90
51
180
0
ARC
5
146
100
AcDbEntity
8
SK1
62
256
6
ByLayer
370
18
48
1
60
0
100
AcDbCircle
39
0
10
-41.7
20
34.125
30
0
40
1.9
210
0
220
0
230
1
100
AcDbArc
50
270
51
313.91428
0
ARC
5
147
100
AcDbEntity
8
SK1
62
256
6
ByLayer
370
18
48
1
60
0
100
AcDbCircle
39
0
10
-36.7
20
-34.125
30
0
40
1.9
210
0
220
0
230
1
100
AcDbArc
50
34.113313
51
90
0
ARC
5
148
100
AcDbEntity
8
SK1
62
256
6
ByLayer
370
18
48
1
60
0
100
AcDbCircle
39
0
10
-0.8
20
38.632252
30
0
40
1
210
0
220
0
230
1
100
AcDbArc
50
270
51
323.130102
0
ARC
5
149
100
AcDbEntity
8
SK1
62
256
6
ByLayer
370
18
48
1
60
0
100
AcDbCircle
39
0
10
-0.8
20
-38.632252
30
0
40
1
210
0
220
0
230
1
100
AcDbArc
50
36.869898
51
90
0
CIRCLE
5
12C
100
AcDbEntity
8
SK2
62
256
6
ByLayer
370
18
48
1
60
0
100
AcDbCircle
10
57.5
20
0
30
0
40
9
39
0
210
0
220
0
230
1
0
CIRCLE
5
12D
100
AcDbEntity
8
SK2
62
256
6
ByLayer
370
18
48
1
60
0
100
AcDbCircle
10
57.5
20
0
30
0
40
8.1725
39
0
210
0
220
0
230
1
0
CIRCLE
5
13A
100
AcDbEntity
8
SK2
62
256
6
ByLayer
370
18
48
1
60
0
100
AcDbCircle
10
91
20
0
30
0
40
9
39
0
210
0
220
0
230
1
0
CIRCLE
5
13B
100
AcDbEntity
8
SK2
62
256
6
ByLayer
370
18
48
1
60
0
100
AcDbCircle
10
91
20
0
30
0
40
8.1725
39
0
210
0
220
0
230
1
0
ELLIPSE
5
14A
100
AcDbEntity
8
1
62
256
6
ByLayer
370
18
48
1
60
0
100
AcDbEllipse
10
20
20
7.629233
30
0
11
-1.75
21
-5.62850005318694E-16
31
0
210
0
220
0
230
1
40
0.984808
41
-1.57079655876472
42
-0.125860244287692
0
ELLIPSE
5
14B
100
AcDbEntity
8
1
62
256
6
ByLayer
370
18
48
1
60
0
100
AcDbEllipse
10
20
20
7.629233
30
0
11
-1.75
21
-5.62850005318694E-16
31
0
210
0
220
0
230
1
40
0.984808
41
-3.06570356230511
42
-1.57079655876473
0
ELLIPSE
5
14C
100
AcDbEntity
8
1
62
256
6
ByLayer
370
18
48
1
60
0
100
AcDbEllipse
10
20
20
-7.629233
30
0
11
1.75
21
0
31
0
210
0
220
0
230
1
40
0.984808
41
-3.08180417172497
42
-0.0617518050809027
0
ELLIPSE
5
14D
100
AcDbEntity
8
SK1
62
256
6
ByLayer
370
13
48
1
60
0
100
AcDbEllipse
10
-36.7
20
-33.386024
30
0
11
-1.9
21
-6.11094291488867E-16
31
0
210
0
220
0
230
1
40
0.891007
41
-2.05766015255057
42
-1.5707963267949
0
POINT
5
70
100
AcDbEntity
8
2
62
256
6
ByLayer
370
18
48
1
60
0
100
AcDbPoint
10
91
20
0
30
0
39
0
210
0
220
0
230
1
50
360
0
POINT
5
72
100
AcDbEntity
8
2
62
256
6
ByLayer
370
18
48
1
60
0
100
AcDbPoint
10
91
20
0
30
0
39
0
210
0
220
0
230
1
50
360
0
POINT
5
73
100
AcDbEntity
8
2
62
256
6
ByLayer
370
18
48
1
60
0
100
AcDbPoint
10
91
20
0
30
0
39
0
210
0
220
0
230
1
50
360
0
POINT
5
74
100
AcDbEntity
8
2
62
256
6
ByLayer
370
18
48
1
60
0
100
AcDbPoint
10
110
20
0
30
0
39
0
210
0
220
0
230
1
50
360
0
POINT
5
75
100
AcDbEntity
8
2
62
256
6
ByLayer
370
18
48
1
60
0
100
AcDbPoint
10
110
20
0
30
0
39
0
210
0
220
0
230
1
50
360
0
POINT
5
76
100
AcDbEntity
8
2
62
256
6
ByLayer
370
18
48
1
60
0
100
AcDbPoint
10
110
20
0
30
0
39
0
210
0
220
0
230
1
50
360
0
POINT
5
77
100
AcDbEntity
8
2
62
256
6
ByLayer
370
18
48
1
60
0
100
AcDbPoint
10
91
20
0
30
0
39
0
210
0
220
0
230
1
50
360
0
POINT
5
78
100
AcDbEntity
8
2
62
256
6
ByLayer
370
18
48
1
60
0
100
AcDbPoint
10
0
20
0
30
0
39
0
210
0
220
0
230
1
50
360
0
POINT
5
79
100
AcDbEntity
8
2
62
256
6
ByLayer
370
18
48
1
60
0
100
AcDbPoint
10
57.5
20
0
30
0
39
0
210
0
220
0
230
1
50
360
0
POINT
5
7A
100
AcDbEntity
8
2
62
256
6
ByLayer
370
18
48
1
60
0
100
AcDbPoint
10
110
20
0
30
0
39
0
210
0
220
0
230
1
50
360
0
POINT
5
7B
100
AcDbEntity
8
2
62
256
6
ByLayer
370
18
48
1
60
0
100
AcDbPoint
10
57.5
20
0
30
0
39
0
210
0
220
0
230
1
50
360
0
POINT
5
7C
100
AcDbEntity
8
2
62
256
6
ByLayer
370
18
48
1
60
0
100
AcDbPoint
10
38.5
20
0
30
0
39
0
210
0
220
0
230
1
50
360
0
POINT
5
7D
100
AcDbEntity
8
2
62
256
6
ByLayer
370
18
48
1
60
0
100
AcDbPoint
10
28.95
20
0
30
0
39
0
210
0
220
0
230
1
50
360
0
POINT
5
7E
100
AcDbEntity
8
2
62
256
6
ByLayer
370
18
48
1
60
0
100
AcDbPoint
10
110
20
0
30
0
39
0
210
0
220
0
230
1
50
360
0
POINT
5
7F
100
AcDbEntity
8
2
62
256
6
ByLayer
370
18
48
1
60
0
100
AcDbPoint
10
110
20
0
30
0
39
0
210
0
220
0
230
1
50
360
0
POINT
5
80
100
AcDbEntity
8
81
62
256
6
ByLayer
370
18
48
1
60
0
100
AcDbPoint
10
110
20
0
30
0
39
0
210
0
220
0
230
1
50
360
0
POINT
5
82
100
AcDbEntity
8
80
62
256
6
ByLayer
370
18
48
1
60
0
100
AcDbPoint
10
0
20
0
30
0
39
0
210
0
220
0
230
1
50
360
0
SPLINE
5
14E
100
AcDbEntity
8
1
62
256
6
ByLayer
370
18
48
1
60
0
100
AcDbSpline
70
4
71
3
72
31
73
27
40
0
40
0
40
0
40
0
40
0.125000000000014
40
0.125000000000014
40
0.187500000000012
40
0.187500000000012
40
0.250000000000011
40
0.250000000000011
40
0.375000000000022
40
0.375000000000022
40
0.437500000000024
40
0.437500000000024
40
0.500000000000027
40
0.500000000000027
40
0.56250000000003
40
0.56250000000003
40
0.625000000000033
40
0.687500000000035
40
0.687500000000035
40
0.750000000000038
40
0.750000000000038
40
0.875000000000019
40
0.875000000000019
40
0.93750000000001
40
0.93750000000001
40
1
40
1
40
1
40
1
41
1
10
18.4749999999999
20
44.8695908606263
30
0
41
1
10
18.4484556444191
20
44.8695908606264
30
0
41
1
10
18.4222300438813
20
44.8722717150157
30
0
41
1
10
18.3833634690742
20
44.8802612375092
30
0
41
1
10
18.3704317402705
20
44.8836086465468
30
0
41
1
10
18.3449919953364
20
44.8916031205519
30
0
41
1
10
18.3325725560145
20
44.8962154709821
30
0
41
1
10
18.2961845648489
20
44.9118344485013
30
0
41
1
10
18.2730780593057
20
44.9246060481417
30
0
41
1
10
18.2401788836795
20
44.9473681033131
30
0
41
1
10
18.2295782445169
20
44.9555175513783
30
0
41
1
10
18.209311057912
20
44.9727619998869
30
0
41
1
10
18.1996103375619
20
44.981880238984
30
0
41
1
10
18.1810779535537
20
45.001112540586
30
0
41
1
10
18.1723267536418
20
45.0111473400235
30
0
41
1
10
18.1559361639675
20
45.0318850743754
30
0
41
1
10
18.140616019289
20
45.0533339255754
30
0
41
1
10
18.1274016867925
20
45.0761817076196
30
0
41
1
10
18.1152528907664
20
45.0997373456858
30
0
41
1
10
18.1096878543853
20
45.111936042883
30
0
41
1
10
18.0949091403934
20
45.1489555575994
30
0
41
1
10
18.0875231030774
20
45.1742669785693
30
0
41
1
10
18.0800458409527
20
45.2131566601963
30
0
41
1
10
18.0781579509292
20
45.2262747296619
30
0
41
1
10
18.0756269732036
20
45.2528297076614
30
0
41
1
10
18.0749999999999
20
45.2661389922157
30
0
41
1
10
18.0749999999999
20
45.2793571509137
30
0
0
SPLINE
5
14F
100
AcDbEntity
8
1
62
256
6
ByLayer
370
18
48
1
60
0
100
AcDbSpline
70
4
71
3
72
8
73
4
40
0
40
0
40
0
40
0
40
1
40
1
40
1
40
1
41
1
10
28.9499999999999
20
48.2350472581919
30
0
41
1
10
28.7167026129473
20
48.4733261949083
30
0
41
1
10
28.4833687655885
20
48.7115693312277
30
0
41
1
10
28.2499999999999
20
48.9497781813156
30
0
0
SPLINE
5
150
100
AcDbEntity
8
1
62
256
6
ByLayer
370
18
48
1
60
0
100
AcDbSpline
70
4
71
3
72
8
73
4
40
0
40
0
40
0
40
0
40
1
40
1
40
1
40
1
41
1
10
28.9499999999999
20
38.0028646946517
30
0
41
1
10
28.717385155116
20
38.3044148652845
30
0
41
1
10
28.4840015193126
20
38.6055081962349
30
0
41
1
10
28.2499999999999
20
38.9060242764537
30
0
0
SPLINE
5
151
100
AcDbEntity
8
1
62
256
6
ByLayer
370
18
48
1
60
0
100
AcDbSpline
70
4
71
3
72
30
73
26
40
0
40
0
40
0
40
0
40
0.124999999999992
40
0.124999999999992
40
0.156249999999992
40
0.156249999999992
40
0.187499999999991
40
0.249999999999989
40
0.249999999999989
40
0.312499999999988
40
0.312499999999988
40
0.374999999999986
40
0.437499999999985
40
0.437499999999985
40
0.499999999999983
40
0.499999999999983
40
0.624999999999996
40
0.624999999999996
40
0.750000000000009
40
0.750000000000009
40
0.812500000000014
40
0.812500000000014
40
0.875000000000018
40
0.875000000000018
40
1
40
1
40
1
40
1
41
1
10
18.4749999999999
20
33.6285314130724
30
0
41
1
10
18.4434838302957
20
33.6285314130725
30
0
41
1
10
18.4127975282274
20
33.6335518723001
30
0
41
1
10
18.3754018775674
20
33.6456486409895
30
0
41
1
10
18.3679858516776
20
33.6483612494705
30
0
41
1
10
18.3534843618351
20
33.6542690703275
30
0
41
1
10
18.3321375755528
20
33.6638839351814
30
0
41
1
10
18.3119368186066
20
33.6756275863122
30
0
41
1
10
18.2859434693282
20
33.6930337131096
30
0
41
1
10
18.2734002721151
20
33.7026442763956
30
0
41
1
10
18.2498192952165
20
33.7229542702785
30
0
41
1
10
18.2275544437093
20
33.7444687738342
30
0
41
1
10
18.2076288622269
20
33.76812416259
30
0
41
1
10
18.1887837730621
20
33.7927684111127
30
0
41
1
10
18.1798737240508
20
33.8056298293941
30
0
41
1
10
18.154876523932
20
33.845320879834
30
0
41
1
10
18.1407213141959
20
33.8728515265702
30
0
41
1
10
18.1166036414079
20
33.9297003685216
30
0
41
1
10
18.1066511625444
20
33.9590228204263
30
0
41
1
10
18.0946732864747
20
34.0042645694071
30
0
41
1
10
18.0911932840926
20
34.0195026136709
30
0
41
1
10
18.0852755048811
20
34.0499981717234
30
0
41
1
10
18.0828262569597
20
34.0652982105631
30
0
41
1
10
18.0769553354023
20
34.1113497637789
30
0
41
1
10
18.0749999999999
20
34.1422516398011
30
0
41
1
10
18.0749999999999
20
34.1733540203475
30
0
0
SPLINE
5
152
100
AcDbEntity
8
1
62
256
6
ByLayer
370
18
48
1
60
0
100
AcDbSpline
70
4
71
3
72
30
73
26
40
0
40
0
40
0
40
0
40
0.125000000000036
40
0.125000000000036
40
0.187500000000037
40
0.187500000000037
40
0.250000000000039
40
0.250000000000039
40
0.375000000000042
40
0.375000000000042
40
0.437500000000039
40
0.437500000000039
40
0.500000000000037
40
0.500000000000037
40
0.625000000000007
40
0.625000000000007
40
0.687500000000009
40
0.687500000000009
40
0.75000000000001
40
0.75000000000001
40
0.812500000000012
40
0.812500000000012
40
0.875000000000013
40
0.875000000000013
40
1
40
1
40
1
40
1
41
1
10
21.9250000000228
20
45.2793571509099
30
0
41
1
10
21.9250000000225
20
45.2526271959507
30
0
41
1
10
21.9224702320171
20
45.2263263466329
30
0
41
1
10
21.9150279070761
20
45.1874938001563
30
0
41
1
10
21.9119347879334
20
45.1746534853615
30
0
41
1
10
21.9044957734936
20
45.1491853548289
30
0
41
1
10
21.9001219702071
20
45.1364987669532
30
0
41
1
10
21.8853400702993
20
45.0995017490213
30
0
41
1
10
21.8732629096745
20
45.0760730842746
30
0
41
1
10
21.851836540537
20
45.0427711988123
30
0
41
1
10
21.8441388562989
20
45.0319795298714
30
0
41
1
10
21.8275873615171
20
45.0110391387326
30
0
41
1
10
21.818815507744
20
45.0010010695113
30
0
41
1
10
21.7912962753
20
44.9724452388068
30
0
41
1
10
21.7712561461913
20
44.9553423658858
30
0
41
1
10
21.7385981386279
20
44.9326544978527
30
0
41
1
10
21.7272194749053
20
44.9255614720513
30
0
41
1
10
21.7039181381344
20
44.9126247687907
30
0
41
1
10
21.6919842719134
20
44.90676457949
30
0
41
1
10
21.6675504216864
20
44.8962599287919
30
0
41
1
10
21.6549980971922
20
44.8915997995025
30
0
41
1
10
21.6295670243209
20
44.8836084660223
30
0
41
1
10
21.6167445016848
20
44.880288261731
30
0
41
1
10
21.5779642071673
20
44.8723020631289
30
0
41
1
10
21.5516968166702
20
44.8695908606264
30
0
41
1
10
21.5249999999999
20
44.8695908606264
30
0
0
SPLINE
5
153
100
AcDbEntity
8
1
62
256
6
ByLayer
370
18
48
1
60
0
100
AcDbSpline
70
4
71
3
72
32
73
28
40
0
40
0
40
0
40
0
40
0.0625000000000035
40
0.0625000000000035
40
0.125000000000007
40
0.125000000000007
40
0.250000000000014
40
0.250000000000014
40
0.312500000000016
40
0.312500000000016
40
0.375000000000018
40
0.375000000000018
40
0.500000000000021
40
0.500000000000021
40
0.562500000000007
40
0.562500000000007
40
0.624999999999993
40
0.624999999999993
40
0.749999999999996
40
0.749999999999996
40
0.812499999999997
40
0.812499999999997
40
0.874999999999998
40
0.874999999999998
40
0.937499999999999
40
0.937499999999999
40
1
40
1
40
1
40
1
41
1
10
21.9249999999999
20
34.1733540203475
30
0
41
1
10
21.9249999999999
20
34.1577441557297
30
0
41
1
10
21.9245016761415
20
34.1421211416387
30
0
41
1
10
21.9225309625992
20
34.1111379919021
30
0
41
1
10
21.9210589133899
20
34.0957350218262
30
0
41
1
10
21.9151868880887
20
34.0497911614099
30
0
41
1
10
21.9093431109087
20
34.0195131222784
30
0
41
1
10
21.8974980740979
20
33.9746566784797
30
0
41
1
10
21.8930336997148
20
33.9597984761669
30
0
41
1
10
21.8830000961516
20
33.9302832158826
30
0
41
1
10
21.8774184903454
20
33.9156100206178
30
0
41
1
10
21.8591819896764
20
33.8726228962078
30
0
41
1
10
21.844983132377
20
33.8450985960815
30
0
41
1
10
21.820200559237
20
33.8057474995698
30
0
41
1
10
21.8113550357057
20
33.7929552210946
30
0
41
1
10
21.7923549663909
20
33.7680977629427
30
0
41
1
10
21.7822317389738
20
33.7560880110446
30
0
41
1
10
21.7503563397751
20
33.722019316658
30
0
41
1
10
21.7269594387175
20
33.7016524159592
30
0
41
1
10
21.6878456918739
20
33.6754928423141
30
0
41
1
10
21.674134045728
20
33.667542013257
30
0
41
1
10
21.6460786379621
20
33.6537839415104
30
0
41
1
10
21.631693322953
20
33.6479335657893
30
0
41
1
10
21.6021681168187
20
33.6384033351323
30
0
41
1
10
21.5869812296857
20
33.6347149886803
30
0
41
1
10
21.5559767767759
20
33.6297563285023
30
0
41
1
10
21.540483848586
20
33.6285314130726
30
0
41
1
10
21.5249999999999
20
33.6285314130726
30
0
0
SPLINE
5
154
100
AcDbEntity
8
1
62
256
6
ByLayer
370
18
48
1
60
0
100
AcDbSpline
70
4
71
3
72
8
73
4
40
0
40
0
40
0
40
0
40
1
40
1
40
1
40
1
41
1
10
23.2418217614996
20
48.9497781813156
30
0
41
1
10
22.8025473277701
20
48.1731525519585
30
0
41
1
10
22.3635905977073
20
47.39634688913
30
0
41
1
10
21.9249999999999
20
46.6193337496943
30
0
0
SPLINE
5
155
100
AcDbEntity
8
1
62
256
6
ByLayer
370
18
48
1
60
0
100
AcDbSpline
70
4
71
3
72
8
73
4
40
0
40
0
40
0
40
0
40
1
40
1
40
1
40
1
41
1
10
23.2418217614996
20
38.9060242764537
30
0
41
1
10
22.7970974394246
20
37.9167868306778
30
0
41
1
10
22.3578450722474
20
36.9249075564605
30
0
41
1
10
21.9249999999999
20
35.9299348769989
30
0
0
SPLINE
5
156
100
AcDbEntity
8
1
62
256
6
ByLayer
370
18
48
1
60
0
100
AcDbSpline
70
4
71
3
72
8
73
4
40
0
40
0
40
0
40
0
40
1
40
1
40
1
40
1
41
1
10
18.0749999999999
20
46.6193337496943
30
0
41
1
10
17.6364094022924
20
47.39634688913
30
0
41
1
10
17.1974526722297
20
48.1731525519585
30
0
41
1
10
16.7581782385002
20
48.9497781813156
30
0
0
SPLINE
5
157
100
AcDbEntity
8
1
62
256
6
ByLayer
370
18
48
1
60
0
100
AcDbSpline
70
4
71
3
72
8
73
4
40
0
40
0
40
0
40
0
40
1
40
1
40
1
40
1
41
1
10
18.0749999999999
20
35.9299348769989
30
0
41
1
10
17.6421549277524
20
36.9249075564605
30
0
41
1
10
17.2029025605752
20
37.9167868306778
30
0
41
1
10
16.7581782385002
20
38.9060242764537
30
0
0
SPLINE
5
158
100
AcDbEntity
8
1
62
256
6
ByLayer
370
18
48
1
60
0
100
AcDbSpline
70
2053
71
3
72
214
73
210
40
0
40
0
40
0
40
0
40
0.0156250000000001
40
0.0156250000000001
40
0.0312500000000003
40
0.0312500000000003
40
0.0468750000000004
40
0.0468750000000004
40
0.0546875000000003
40
0.0546875000000003
40
0.0625000000000002
40
0.0625000000000002
40
0.0781250000000003
40
0.0781250000000003
40
0.0937500000000003
40
0.0937500000000003
40
0.0976562500000004
40
0.0996093750000005
40
0.0996093750000005
40
0.101562500000001
40
0.101562500000001
40
0.109375000000001
40
0.109375000000001
40
0.125000000000001
40
0.125000000000001
40
0.140625000000001
40
0.140625000000001
40
0.144531250000001
40
0.144531250000001
40
0.146484375000001
40
0.146484375000001
40
0.148437500000001
40
0.156250000000002
40
0.156250000000002
40
0.171875000000003
40
0.171875000000003
40
0.179687500000004
40
0.179687500000004
40
0.183593750000005
40
0.185546875000005
40
0.185546875000005
40
0.187500000000006
40
0.187500000000006
40
0.203125000000007
40
0.203125000000007
40
0.218750000000008
40
0.218750000000008
40
0.226562500000009
40
0.226562500000009
40
0.230468750000009
40
0.230468750000009
40
0.232421875000009
40
0.232421875000009
40
0.234375000000009
40
0.250000000000008
40
0.250000000000008
40
0.265625000000007
40
0.265625000000007
40
0.281250000000006
40
0.281250000000006
40
0.296875000000005
40
0.296875000000005
40
0.312500000000004
40
0.312500000000004
40
0.328125000000003
40
0.328125000000003
40
0.335937500000002
40
0.335937500000002
40
0.339843750000002
40
0.339843750000002
40
0.343750000000001
40
0.343750000000001
40
0.359374999999999
40
0.359374999999999
40
0.374999999999996
40
0.374999999999996
40
0.390624999999994
40
0.390624999999994
40
0.398437499999993
40
0.398437499999993
40
0.400390624999993
40
0.400390624999993
40
0.402343749999993
40
0.406249999999992
40
0.406249999999992
40
0.421874999999989
40
0.437499999999987
40
0.437499999999987
40
0.453124999999984
40
0.453124999999984
40
0.460937499999982
40
0.460937499999982
40
0.462890624999982
40
0.462890624999982
40
0.464843749999982
40
0.468749999999982
40
0.468749999999982
40
0.484374999999982
40
0.484374999999982
40
0.499999999999983
40
0.499999999999983
40
0.515624999999983
40
0.515624999999983
40
0.519531249999984
40
0.519531249999984
40
0.523437499999984
40
0.523437499999984
40
0.531249999999984
40
0.531249999999984
40
0.546874999999985
40
0.546874999999985
40
0.562499999999986
40
0.562499999999986
40
0.570312499999986
40
0.570312499999986
40
0.572265624999987
40
0.572265624999987
40
0.574218749999987
40
0.578124999999987
40
0.578124999999987
40
0.593749999999989
40
0.593749999999989
40
0.609374999999992
40
0.609374999999992
40
0.617187499999993
40
0.617187499999993
40
0.619140624999993
40
0.619140624999993
40
0.621093749999993
40
0.621093749999993
40
0.624999999999994
40
0.624999999999994
40
0.640624999999996
40
0.640624999999996
40
0.656249999999998
40
0.656249999999998
40
0.660156249999999
40
0.662109374999999
40
0.662109374999999
40
0.6640625
40
0.6640625
40
0.671875000000002
40
0.671875000000002
40
0.687500000000006
40
0.687500000000006
40
0.70312500000001
40
0.70312500000001
40
0.707031250000011
40
0.707031250000011
40
0.710937500000012
40
0.718750000000014
40
0.718750000000014
40
0.734375000000019
40
0.734375000000019
40
0.750000000000024
40
0.750000000000024
40
0.751953125000024
40
0.751953125000024
40
0.753906250000024
40
0.757812500000025
40
0.765625000000026
40
0.765625000000026
40
0.781250000000029
40
0.781250000000029
40
0.796875000000031
40
0.796875000000031
40
0.800781250000032
40
0.802734375000032
40
0.802734375000032
40
0.804687500000032
40
0.804687500000032
40
0.812500000000031
40
0.812500000000031
40
0.828125000000029
40
0.828125000000029
40
0.843750000000028
40
0.859375000000026
40
0.859375000000026
40
0.863281250000025
40
0.863281250000025
40
0.867187500000024
40
0.875000000000023
40
0.875000000000023
40
0.89062500000002
40
0.906250000000018
40
0.906250000000018
40
0.921875000000015
40
0.921875000000015
40
0.923828125000014
40
0.923828125000014
40
0.925781250000014
40
0.925781250000014
40
0.929687500000013
40
0.937500000000012
40
0.937500000000012
40
0.953125000000009
40
0.953125000000009
40
0.968750000000007
40
0.968750000000007
40
0.984375000000005
40
0.984375000000005
40
0.988281250000004
40
0.988281250000004
40
0.992187500000003
40
0.996093750000002
40
0.998046875000001
40
0.999023437500001
40
0.999023437500001
40
1
40
1
40
1
40
1
41
1
10
83.5574751753817
20
-6.74291788409264
30
0
41
1
10
83.3043489728678
20
-6.53059724919973
30
0
41
1
10
83.0631640469238
20
-6.30772299799179
30
0
41
1
10
82.6048449691027
20
-5.84049725914159
30
0
41
1
10
82.3877072716502
20
-5.59614918564694
30
0
41
1
10
81.9784546213017
20
-5.08488849589025
30
0
41
1
10
81.7863311604765
20
-4.81798398567517
30
0
41
1
10
81.5183723205076
20
-4.39922675079404
30
0
41
1
10
81.4332507155044
20
-4.25783876236264
30
0
41
1
10
81.2714736679653
20
-3.97163969544704
30
0
41
1
10
81.1947995295321
20
-3.82679936143302
30
0
41
1
10
80.9774602410311
20
-3.3870219484287
30
0
41
1
10
80.8494415428419
20
-3.08684322601516
30
0
41
1
10
80.6282158302104
20
-2.47197646333649
30
0
41
1
10
80.5349999533077
20
-2.15729219015364
30
0
41
1
10
80.4416947821925
20
-1.7542219933471
30
0
41
1
10
80.4154495858065
20
-1.63257018378369
30
0
41
1
10
80.3918828317542
20
-1.5097967598424
30
0
41
1
10
80.3767740790644
20
-1.42769546058815
30
0
41
1
10
80.3695310895195
20
-1.38657092472471
30
0
41
1
10
80.3349606774121
20
-1.18110123286405
30
0
41
1
10
80.312470163887
20
-1.01671345205614
30
0
41
1
10
80.2602227607731
20
-0.523514630502746
30
0
41
1
10
80.2456497531032
20
-0.19466819955295
30
0
41
1
10
80.2565806454448
20
0.463118127193297
30
0
41
1
10
80.2820833564301
20
0.792058020366568
30
0
41
1
10
80.3395534755662
20
1.20329250590891
30
0
41
1
10
80.3523303972771
20
1.28554239128494
30
0
41
1
10
80.3734406032926
20
1.40892174702566
30
0
41
1
10
80.3808035644865
20
1.45005608771936
30
0
41
1
10
80.3961230877202
20
1.53202859351504
30
0
41
1
10
80.4359388731164
20
1.73640452078317
30
0
41
1
10
80.4832517714947
20
1.93803666619553
30
0
41
1
10
80.6107297669093
20
2.41686515830287
30
0
41
1
10
80.7142452730762
20
2.7293130650209
30
0
41
1
10
80.8962279571364
20
3.18826901523104
30
0
41
1
10
80.961350594756
20
3.33963142882919
30
0
41
1
10
81.0656783127657
20
3.56426531856025
30
0
41
1
10
81.1195039100026
20
3.67597955201836
30
0
41
1
10
81.1758210257032
20
3.78679152509599
30
0
41
1
10
81.2139197512511
20
3.86046572238919
30
0
41
1
10
81.2332598631297
20
3.89722811940655
30
0
41
1
10
81.4094880091725
20
4.22657725957265
30
0
41
1
10
81.5810461911764
20
4.50784923220888
30
0
41
1
10
81.951843264986
20
5.04924283933028
30
0
41
1
10
82.1510911920418
20
5.30935723039559
30
0
41
1
10
82.4699478347457
20
5.68439526842752
30
0
41
1
10
82.5795717964259
20
5.80687992308961
30
0
41
1
10
82.7489815378805
20
5.98685867057105
30
0
41
1
10
82.8062808494418
20
6.04622655871705
30
0
41
1
10
82.8934735324724
20
6.1343434646663
30
0
41
1
10
82.9227415092632
20
6.16355576906349
30
0
41
1
10
82.981547835732
20
6.22153011880184
30
0
41
1
10
83.2475587955178
20
6.48053707730105
30
0
41
1
10
83.5258005754844
20
6.72295799832733
30
0
41
1
10
84.0387229405444
20
7.12942141555115
30
0
41
1
10
84.304323732301
20
7.32039302530595
30
0
41
1
10
84.8533786730536
20
7.67864834948003
30
0
41
1
10
85.1368657633245
20
7.84594657226586
30
0
41
1
10
85.7216897080501
20
8.15687419905154
30
0
41
1
10
86.0191256148192
20
8.29843726785367
30
0
41
1
10
86.6236185995284
20
8.55520864904366
30
0
41
1
10
86.9306774623927
20
8.67041154251177
30
0
41
1
10
87.5542702878781
20
8.87508758928124
30
0
41
1
10
87.8708047893348
20
8.96455897999638
30
0
41
1
10
88.3527836381058
20
9.07941398719117
30
0
41
1
10
88.5146412746092
20
9.11446832595104
30
0
41
1
10
88.7592503656098
20
9.1621487199817
30
0
41
1
10
88.8411814428384
20
9.17723972584531
30
0
41
1
10
89.0050062182518
20
9.20566510854516
30
0
41
1
10
89.0869378516011
20
9.2190090242589
30
0
41
1
10
89.4966912940951
20
9.28143247792576
30
0
41
1
10
89.8247983680654
20
9.31765148945922
30
0
41
1
10
90.4816061166893
20
9.36341001295861
30
0
41
1
10
90.8103068297421
20
9.37294763957183
30
0
41
1
10
91.4683004412947
20
9.36542842794321
30
0
41
1
10
91.7975933196054
20
9.34837256563893
30
0
41
1
10
92.2919855862135
20
9.3024176339554
30
0
41
1
10
92.4568586048487
20
9.28369893853647
30
0
41
1
10
92.6630461387666
20
9.25596387724164
30
0
41
1
10
92.7043089568558
20
9.2501967634108
30
0
41
1
10
92.7866611946983
20
9.23825328606256
30
0
41
1
10
92.9099795404778
20
9.21971797523062
30
0
41
1
10
93.0326711050902
20
9.19933107496942
30
0
41
1
10
93.440262296367
20
9.12729165171888
30
0
41
1
10
94.0835878291821
20
8.98594606880661
30
0
41
1
10
94.7096184407268
20
8.79316634528473
30
0
41
1
10
95.3269608216306
20
8.57435190035562
30
0
41
1
10
95.6312889644724
20
8.45193092033966
30
0
41
1
10
96.0810634901834
20
8.24798571513131
30
0
41
1
10
96.2298668370577
20
8.17661229568739
30
0
41
1
10
96.4144321967531
20
8.08302223040087
30
0
41
1
10
96.4512711417901
20
8.06408605237689
30
0
41
1
10
96.5246131827273
20
8.02587340273305
30
0
41
1
10
96.6341945623911
20
7.96800755896618
30
0
41
1
10
96.7424855985765
20
7.90850502162269
30
0
41
1
10
97.1006035070332
20
7.70653622047132
30
0
41
1
10
97.3779917680167
20
7.53338206474564
30
0
41
1
10
97.9146085685945
20
7.16373691695577
30
0
41
1
10
98.1738387988886
20
6.96724854270866
30
0
41
1
10
98.6736371482135
20
6.55002904188086
30
0
41
1
10
98.9142101835119
20
6.32930486100739
30
0
41
1
10
99.2025433270539
20
6.03714163325236
30
0
41
1
10
99.2595889634413
20
5.97789362573312
30
0
41
1
10
99.3724122594821
20
5.85772844863945
30
0
41
1
10
99.4282172544561
20
5.79678062486937
30
0
41
1
10
99.5935135173883
20
5.61156168236988
30
0
41
1
10
99.7001399667542
20
5.48576031956682
30
0
41
1
10
100.009301118309
20
5.10135426795051
30
0
41
1
10
100.201148484228
20
4.83576755414131
30
0
41
1
10
100.555576362163
20
4.28530972310244
30
0
41
1
10
100.71816368041
20
4.00044336885486
30
0
41
1
10
100.938738899371
20
3.55767454201
30
0
41
1
10
101.008370759802
20
3.40750088815943
30
0
41
1
10
101.090324294207
20
3.21639730789494
30
0
41
1
10
101.106469614534
20
3.17798371291508
30
0
41
1
10
101.138138975537
20
3.10107451454058
30
0
41
1
10
101.184747269778
20
2.98550554629887
30
0
41
1
10
101.228676523523
20
2.86932253055034
30
0
41
1
10
101.369177132401
20
2.48068488191657
30
0
41
1
10
101.462649211082
20
2.16543037528157
30
0
41
1
10
101.611550804367
20
1.5261549516122
30
0
41
1
10
101.666984103314
20
1.20213494293253
30
0
41
1
10
101.720509009988
20
0.709262160543148
30
0
41
1
10
101.733402892302
20
0.54382851028501
30
0
41
1
10
101.743135863346
20
0.335561123528237
30
0
41
1
10
101.744762992507
20
0.293833825412577
30
0
41
1
10
101.747372313316
20
0.210230189313791
30
0
41
1
10
101.748353156659
20
0.168373101162274
30
0
41
1
10
101.750317214538
20
0.0430667636948385
30
0
41
1
10
101.75032760384
20
-0.0402753040620212
30
0
41
1
10
101.743974863723
20
-0.456021768050789
30
0
41
1
10
101.71845268377
20
-0.785542426700658
30
0
41
1
10
101.627920123275
20
-1.43864658142766
30
0
41
1
10
101.562906272542
20
-1.76222954701501
30
0
41
1
10
101.456996403096
20
-2.16301341080015
30
0
41
1
10
101.423370609179
20
-2.28297079526013
30
0
41
1
10
101.386952111418
20
-2.40250990066514
30
0
41
1
10
101.362050523737
20
-2.48210943699632
30
0
41
1
10
101.349294217968
20
-2.52184221057914
30
0
41
1
10
101.284172174481
20
-2.71962742798141
30
0
41
1
10
101.227635663141
20
-2.87553994151608
30
0
41
1
10
101.045219405908
20
-3.33661320150531
30
0
41
1
10
100.906570653253
20
-3.63512878016906
30
0
41
1
10
100.596888604855
20
-4.21541065451285
30
0
41
1
10
100.4258497567
20
-4.49717387708446
30
0
41
1
10
100.192139727669
20
-4.83915710403312
30
0
41
1
10
100.144378393364
20
-4.9070648475037
30
0
41
1
10
100.047386095799
20
-5.0411496334867
30
0
41
1
10
99.8995084967944
20
-5.23995097610546
30
0
41
1
10
99.7446183535048
20
-5.43194117150992
30
0
41
1
10
99.4257970354674
20
-5.80718170761875
30
0
41
1
10
99.2012201665768
20
-6.04571346173327
30
0
41
1
10
98.7289720139209
20
-6.50067630843856
30
0
41
1
10
98.4812974187009
20
-6.71710378693078
30
0
41
1
10
98.1897723054705
20
-6.94837770324406
30
0
41
1
10
98.1571922957447
20
-6.97391127632901
30
0
41
1
10
98.0918231860133
20
-7.02452352157661
30
0
41
1
10
97.9934035709178
20
-7.09980232704024
30
0
41
1
10
97.7612142229348
20
-7.2710135329678
30
0
41
1
10
97.5579056600051
20
-7.41030139237594
30
0
41
1
10
97.1457070838096
20
-7.67921718199008
30
0
41
1
10
96.8634796998419
20
-7.8456388447122
30
0
41
1
10
96.2845410255015
20
-8.15368422333373
30
0
41
1
10
95.987828341015
20
-8.29530511098881
30
0
41
1
10
95.6078523706214
20
-8.45692906348629
30
0
41
1
10
95.4931767381019
20
-8.50425850806889
30
0
41
1
10
95.3774714238586
20
-8.5498461304953
30
0
41
1
10
95.3001049772303
20
-8.57984996495293
30
0
41
1
10
95.261286726485
20
-8.59466537626537
30
0
41
1
10
95.0670072303841
20
-8.66762602524548
30
0
41
1
10
94.9108057773717
20
-8.72249663542377
30
0
41
1
10
94.4399172588573
20
-8.87688010438148
30
0
41
1
10
94.1229507227495
20
-8.96618730534757
30
0
41
1
10
93.4830755832234
20
-9.11838612708306
30
0
41
1
10
92.8372572581263
20
-9.24416389010185
30
0
41
1
10
92.1795418241677
20
-9.3173260333941
30
0
41
1
10
91.764660763294
20
-9.34625881087783
30
0
41
1
10
91.6814596796004
20
-9.35120564742385
30
0
41
1
10
91.5148156042925
20
-9.35939426176085
30
0
41
1
10
91.2651629873194
20
-9.36908647801047
30
0
41
1
10
91.0164404796476
20
-9.37109512002925
30
0
41
1
10
90.5202159681684
20
-9.36503105963507
30
0
41
1
10
89.8618334734905
20
-9.33010277192039
30
0
41
1
10
89.2098550725491
20
-9.24220578393312
30
0
41
1
10
88.5611031647034
20
-9.12752322189587
30
0
41
1
10
88.2383401117681
20
-9.0567923193139
30
0
41
1
10
87.877103708608
20
-8.96158888753908
30
0
41
1
10
87.8369923856612
20
-8.95079313043348
30
0
41
1
10
87.7568221467329
20
-8.92876356632488
30
0
41
1
10
87.7167450993856
20
-8.91752435695844
30
0
41
1
10
87.5968714609452
20
-8.88322639073027
30
0
41
1
10
87.3583279179782
20
-8.81224621510603
30
0
41
1
10
87.1233606555359
20
-8.73416996430063
30
0
41
1
10
86.6581360469647
20
-8.56863496598973
30
0
41
1
10
86.3542558487381
20
-8.44579007496796
30
0
41
1
10
85.758973046652
20
-8.17502100941073
30
0
41
1
10
85.4675693693624
20
-8.02709938862108
30
0
41
1
10
84.8975216806419
20
-7.70534829945794
30
0
41
1
10
84.6188746922159
20
-7.53152547983936
30
0
41
1
10
84.2789678692774
20
-7.29700061728676
30
0
41
1
10
84.211352946835
20
-7.24919035458493
30
0
41
1
10
84.0773418021458
20
-7.15206810355065
30
0
41
1
10
83.9445214159307
20
-7.05342936513114
30
0
41
1
10
83.7814896847437
20
-6.92630758645495
30
0
41
1
10
83.6689514322081
20
-6.83529377580044
30
0
41
1
10
83.6210617712738
20
-6.79585050486116
30
0
41
1
10
83.5892113039232
20
-6.76945748806551
30
0
41
1
10
83.5732955630388
20
-6.75618792377344
30
0
41
1
10
83.5574751753817
20
-6.74291788409264
30
0
0
SPLINE
5
159
100
AcDbEntity
8
1
62
256
6
ByLayer
370
18
48
1
60
0
100
AcDbSpline
70
2053
71
3
72
214
73
210
40
0
40
0
40
0
40
0
40
0.0156249999999984
40
0.0156249999999984
40
0.0312499999999968
40
0.0312499999999968
40
0.0468749999999951
40
0.0468749999999951
40
0.0546874999999942
40
0.0546874999999942
40
0.0624999999999933
40
0.0624999999999933
40
0.0781249999999917
40
0.0781249999999917
40
0.09374999999999
40
0.09374999999999
40
0.0976562499999896
40
0.0996093749999894
40
0.0996093749999894
40
0.101562499999989
40
0.101562499999989
40
0.109374999999988
40
0.109374999999988
40
0.124999999999987
40
0.124999999999987
40
0.140624999999985
40
0.140624999999985
40
0.144531249999985
40
0.144531249999985
40
0.146484374999985
40
0.146484374999985
40
0.148437499999985
40
0.156249999999984
40
0.156249999999984
40
0.171874999999983
40
0.171874999999983
40
0.179687499999982
40
0.179687499999982
40
0.183593749999982
40
0.185546874999982
40
0.185546874999982
40
0.187499999999982
40
0.187499999999982
40
0.203124999999981
40
0.203124999999981
40
0.21874999999998
40
0.21874999999998
40
0.22656249999998
40
0.22656249999998
40
0.23046874999998
40
0.23046874999998
40
0.23242187499998
40
0.23242187499998
40
0.23437499999998
40
0.249999999999978
40
0.249999999999978
40
0.265624999999977
40
0.265624999999977
40
0.281249999999976
40
0.281249999999976
40
0.296874999999974
40
0.296874999999974
40
0.312499999999973
40
0.312499999999973
40
0.328124999999972
40
0.328124999999972
40
0.335937499999971
40
0.335937499999971
40
0.33984374999997
40
0.33984374999997
40
0.34374999999997
40
0.34374999999997
40
0.359374999999967
40
0.359374999999967
40
0.374999999999965
40
0.374999999999965
40
0.390624999999963
40
0.390624999999963
40
0.398437499999961
40
0.398437499999961
40
0.400390624999961
40
0.400390624999961
40
0.402343749999961
40
0.406249999999961
40
0.406249999999961
40
0.42187499999996
40
0.437499999999959
40
0.437499999999959
40
0.453124999999958
40
0.453124999999958
40
0.460937499999958
40
0.460937499999958
40
0.462890624999958
40
0.462890624999958
40
0.464843749999958
40
0.468749999999958
40
0.468749999999958
40
0.484374999999958
40
0.484374999999958
40
0.499999999999958
40
0.499999999999958
40
0.515624999999957
40
0.515624999999957
40
0.519531249999957
40
0.519531249999957
40
0.523437499999957
40
0.523437499999957
40
0.531249999999957
40
0.531249999999957
40
0.546874999999957
40
0.546874999999957
40
0.562499999999957
40
0.562499999999957
40
0.570312499999957
40
0.570312499999957
40
0.572265624999957
40
0.572265624999957
40
0.574218749999957
40
0.578124999999957
40
0.578124999999957
40
0.593749999999958
40
0.593749999999958
40
0.609374999999959
40
0.609374999999959
40
0.617187499999959
40
0.617187499999959
40
0.61914062499996
40
0.61914062499996
40
0.62109374999996
40
0.62109374999996
40
0.62499999999996
40
0.62499999999996
40
0.640624999999961
40
0.640624999999961
40
0.656249999999962
40
0.656249999999962
40
0.660156249999962
40
0.662109374999962
40
0.662109374999962
40
0.664062499999963
40
0.664062499999963
40
0.671874999999963
40
0.671874999999963
40
0.687499999999964
40
0.687499999999964
40
0.703124999999966
40
0.703124999999966
40
0.707031249999966
40
0.707031249999966
40
0.710937499999966
40
0.718749999999967
40
0.718749999999967
40
0.734374999999967
40
0.734374999999967
40
0.749999999999967
40
0.749999999999967
40
0.751953124999967
40
0.751953124999967
40
0.753906249999967
40
0.757812499999968
40
0.76562499999997
40
0.76562499999997
40
0.781249999999973
40
0.781249999999973
40
0.796874999999976
40
0.796874999999976
40
0.800781249999977
40
0.802734374999977
40
0.802734374999977
40
0.804687499999978
40
0.804687499999978
40
0.812499999999979
40
0.812499999999979
40
0.828124999999981
40
0.828124999999981
40
0.843749999999984
40
0.859374999999986
40
0.859374999999986
40
0.863281249999986
40
0.863281249999986
40
0.867187499999987
40
0.874999999999988
40
0.874999999999988
40
0.89062499999999
40
0.906249999999992
40
0.906249999999992
40
0.921874999999994
40
0.921874999999994
40
0.923828124999994
40
0.923828124999994
40
0.925781249999995
40
0.925781249999995
40
0.929687499999995
40
0.937499999999996
40
0.937499999999996
40
0.953124999999997
40
0.953124999999997
40
0.968749999999998
40
0.968749999999998
40
0.984374999999999
40
0.984374999999999
40
0.988281249999999
40
0.988281249999999
40
0.9921875
40
0.99609375
40
0.998046875
40
0.9990234375
40
0.9990234375
40
1
40
1
40
1
40
1
41
1
10
50.0574751753817
20
-6.74291788409269
30
0
41
1
10
49.8043489728678
20
-6.53059724919976
30
0
41
1
10
49.5631640469238
20
-6.30772299799185
30
0
41
1
10
49.1048449691027
20
-5.84049725914161
30
0
41
1
10
48.8877072716502
20
-5.59614918564699
30
0
41
1
10
48.4784546213018
20
-5.08488849589031
30
0
41
1
10
48.2863311604765
20
-4.8179839856752
30
0
41
1
10
48.0183723205076
20
-4.39922675079407
30
0
41
1
10
47.9332507155045
20
-4.25783876236267
30
0
41
1
10
47.7714736679653
20
-3.97163969544707
30
0
41
1
10
47.6947995295322
20
-3.82679936143307
30
0
41
1
10
47.4774602410311
20
-3.38702194842875
30
0
41
1
10
47.3494415428419
20
-3.08684322601519
30
0
41
1
10
47.1282158302104
20
-2.47197646333655
30
0
41
1
10
47.0349999533077
20
-2.1572921901537
30
0
41
1
10
46.9416947821925
20
-1.75422199334716
30
0
41
1
10
46.9154495858065
20
-1.63257018378374
30
0
41
1
10
46.8918828317542
20
-1.50979675984246
30
0
41
1
10
46.8767740790644
20
-1.42769546058821
30
0
41
1
10
46.8695310895195
20
-1.38657092472477
30
0
41
1
10
46.8349606774121
20
-1.18110123286411
30
0
41
1
10
46.812470163887
20
-1.01671345205619
30
0
41
1
10
46.7602227607731
20
-0.523514630502774
30
0
41
1
10
46.7456497531032
20
-0.194668199552979
30
0
41
1
10
46.7565806454449
20
0.463118127193241
30
0
41
1
10
46.7820833564301
20
0.792058020366511
30
0
41
1
10
46.8395534755662
20
1.20329250590888
30
0
41
1
10
46.8523303972771
20
1.28554239128488
30
0
41
1
10
46.8734406032926
20
1.4089217470256
30
0
41
1
10
46.8808035644865
20
1.4500560877193
30
0
41
1
10
46.8961230877202
20
1.53202859351498
30
0
41
1
10
46.9359388731164
20
1.73640452078314
30
0
41
1
10
46.9832517714948
20
1.9380366661955
30
0
41
1
10
47.1107297669094
20
2.41686515830281
30
0
41
1
10
47.2142452730762
20
2.72931306502085
30
0
41
1
10
47.3962279571364
20
3.18826901523099
30
0
41
1
10
47.461350594756
20
3.33963142882914
30
0
41
1
10
47.5656783127656
20
3.56426531856019
30
0
41
1
10
47.6195039100026
20
3.67597955201831
30
0
41
1
10
47.6758210257032
20
3.78679152509594
30
0
41
1
10
47.7139197512511
20
3.86046572238914
30
0
41
1
10
47.7332598631297
20
3.89722811940652
30
0
41
1
10
47.9094880091725
20
4.22657725957262
30
0
41
1
10
48.0810461911764
20
4.50784923220886
30
0
41
1
10
48.451843264986
20
5.04924283933025
30
0
41
1
10
48.6510911920418
20
5.30935723039553
30
0
41
1
10
48.9699478347457
20
5.68439526842746
30
0
41
1
10
49.0795717964258
20
5.80687992308958
30
0
41
1
10
49.2489815378806
20
5.98685867057102
30
0
41
1
10
49.3062808494417
20
6.046226558717
30
0
41
1
10
49.3934735324724
20
6.13434346466627
30
0
41
1
10
49.4227415092633
20
6.16355576906346
30
0
41
1
10
49.481547835732
20
6.22153011880178
30
0
41
1
10
49.7475587955178
20
6.48053707730102
30
0
41
1
10
50.0258005754845
20
6.7229579983273
30
0
41
1
10
50.5387229405444
20
7.12942141555109
30
0
41
1
10
50.804323732301
20
7.32039302530592
30
0
41
1
10
51.3533786730536
20
7.67864834948
30
0
41
1
10
51.6368657633245
20
7.84594657226583
30
0
41
1
10
52.2216897080501
20
8.15687419905149
30
0
41
1
10
52.5191256148192
20
8.29843726785361
30
0
41
1
10
53.1236185995284
20
8.55520864904361
30
0
41
1
10
53.4306774623927
20
8.67041154251174
30
0
41
1
10
54.054270287878
20
8.87508758928121
30
0
41
1
10
54.3708047893349
20
8.96455897999635
30
0
41
1
10
54.8527836381058
20
9.07941398719115
30
0
41
1
10
55.0146412746092
20
9.11446832595101
30
0
41
1
10
55.2592503656098
20
9.16214871998164
30
0
41
1
10
55.3411814428383
20
9.17723972584528
30
0
41
1
10
55.5050062182518
20
9.20566510854513
30
0
41
1
10
55.5869378516012
20
9.21900902425887
30
0
41
1
10
55.9966912940951
20
9.28143247792573
30
0
41
1
10
56.3247983680653
20
9.31765148945919
30
0
41
1
10
56.9816061166893
20
9.36341001295855
30
0
41
1
10
57.3103068297421
20
9.37294763957181
30
0
41
1
10
57.9683004412946
20
9.36542842794319
30
0
41
1
10
58.2975933196054
20
9.3483725656389
30
0
41
1
10
58.7919855862134
20
9.30241763395537
30
0
41
1
10
58.9568586048486
20
9.28369893853647
30
0
41
1
10
59.1630461387666
20
9.25596387724161
30
0
41
1
10
59.2043089568557
20
9.25019676341077
30
0
41
1
10
59.2866611946983
20
9.23825328606253
30
0
41
1
10
59.4099795404778
20
9.21971797523059
30
0
41
1
10
59.5326711050902
20
9.19933107496939
30
0
41
1
10
59.940262296367
20
9.12729165171885
30
0
41
1
10
60.5835878291821
20
8.98594606880658
30
0
41
1
10
61.2096184407268
20
8.7931663452847
30
0
41
1
10
61.8269608216306
20
8.57435190035559
30
0
41
1
10
62.1312889644724
20
8.45193092033963
30
0
41
1
10
62.5810634901834
20
8.24798571513128
30
0
41
1
10
62.7298668370578
20
8.17661229568736
30
0
41
1
10
62.9144321967531
20
8.08302223040084
30
0
41
1
10
62.9512711417901
20
8.06408605237687
30
0
41
1
10
63.0246131827273
20
8.02587340273303
30
0
41
1
10
63.1341945623912
20
7.96800755896615
30
0
41
1
10
63.2424855985765
20
7.90850502162266
30
0
41
1
10
63.6006035070332
20
7.70653622047129
30
0
41
1
10
63.8779917680166
20
7.53338206474561
30
0
41
1
10
64.4146085685945
20
7.16373691695574
30
0
41
1
10
64.6738387988886
20
6.96724854270863
30
0
41
1
10
65.1736371482135
20
6.55002904188083
30
0
41
1
10
65.4142101835119
20
6.32930486100736
30
0
41
1
10
65.7025433270539
20
6.03714163325233
30
0
41
1
10
65.7595889634413
20
5.97789362573309
30
0
41
1
10
65.872412259482
20
5.85772844863942
30
0
41
1
10
65.9282172544561
20
5.79678062486934
30
0
41
1
10
66.0935135173882
20
5.61156168236988
30
0
41
1
10
66.2001399667541
20
5.48576031956679
30
0
41
1
10
66.5093011183093
20
5.10135426795048
30
0
41
1
10
66.7011484842278
20
4.83576755414128
30
0
41
1
10
67.0555763621631
20
4.28530972310244
30
0
41
1
10
67.2181636804094
20
4.00044336885483
30
0
41
1
10
67.4387388993711
20
3.55767454201
30
0
41
1
10
67.5083707598019
20
3.4075008881594
30
0
41
1
10
67.5903242942072
20
3.21639730789491
30
0
41
1
10
67.6064696145344
20
3.17798371291505
30
0
41
1
10
67.6381389755369
20
3.10107451454056
30
0
41
1
10
67.6847472697785
20
2.98550554629884
30
0
41
1
10
67.7286765235231
20
2.86932253055034
30
0
41
1
10
67.8691771324006
20
2.48068488191657
30
0
41
1
10
67.9626492110821
20
2.16543037528157
30
0
41
1
10
68.1115508043667
20
1.5261549516122
30
0
41
1
10
68.1669841033137
20
1.20213494293253
30
0
41
1
10
68.2205090099877
20
0.709262160543148
30
0
41
1
10
68.2334028923024
20
0.543828510284982
30
0
41
1
10
68.2431358633465
20
0.335561123528208
30
0
41
1
10
68.2447629925068
20
0.293833825412548
30
0
41
1
10
68.2473723133158
20
0.210230189313791
30
0
41
1
10
68.2483531566586
20
0.168373101162274
30
0
41
1
10
68.2503172145385
20
0.0430667636948385
30
0
41
1
10
68.2503276038403
20
-0.0402753040620496
30
0
41
1
10
68.2439748637231
20
-0.456021768050789
30
0
41
1
10
68.2184526837702
20
-0.785542426700687
30
0
41
1
10
68.1279201232749
20
-1.43864658142769
30
0
41
1
10
68.0629062725418
20
-1.76222954701501
30
0
41
1
10
67.9569964030955
20
-2.16301341080018
30
0
41
1
10
67.9233706091788
20
-2.28297079526015
30
0
41
1
10
67.8869521114182
20
-2.40250990066517
30
0
41
1
10
67.8620505237368
20
-2.48210943699635
30
0
41
1
10
67.8492942179684
20
-2.52184221057914
30
0
41
1
10
67.7841721744805
20
-2.71962742798144
30
0
41
1
10
67.7276356631405
20
-2.87553994151611
30
0
41
1
10
67.5452194059079
20
-3.33661320150534
30
0
41
1
10
67.4065706532525
20
-3.63512878016908
30
0
41
1
10
67.0968886048553
20
-4.21541065451288
30
0
41
1
10
66.9258497567001
20
-4.49717387708446
30
0
41
1
10
66.6921397276687
20
-4.83915710403312
30
0
41
1
10
66.6443783933643
20
-4.90706484750373
30
0
41
1
10
66.5473860957993
20
-5.0411496334867
30
0
41
1
10
66.3995084967944
20
-5.23995097610549
30
0
41
1
10
66.2446183535048
20
-5.43194117150995
30
0
41
1
10
65.9257970354675
20
-5.80718170761878
30
0
41
1
10
65.7012201665767
20
-6.0457134617333
30
0
41
1
10
65.2289720139209
20
-6.50067630843859
30
0
41
1
10
64.9812974187009
20
-6.71710378693086
30
0
41
1
10
64.6897723054705
20
-6.94837770324409
30
0
41
1
10
64.6571922957447
20
-6.97391127632906
30
0
41
1
10
64.5918231860134
20
-7.02452352157664
30
0
41
1
10
64.4934035709178
20
-7.09980232704026
30
0
41
1
10
64.2612142229348
20
-7.27101353296783
30
0
41
1
10
64.0579056600052
20
-7.41030139237597
30
0
41
1
10
63.6457070838096
20
-7.67921718199014
30
0
41
1
10
63.363479699842
20
-7.84563884471225
30
0
41
1
10
62.7845410255016
20
-8.15368422333378
30
0
41
1
10
62.4878283410149
20
-8.29530511098883
30
0
41
1
10
62.1078523706214
20
-8.45692906348634
30
0
41
1
10
61.9931767381019
20
-8.50425850806894
30
0
41
1
10
61.8774714238586
20
-8.54984613049533
30
0
41
1
10
61.8001049772303
20
-8.57984996495298
30
0
41
1
10
61.761286726485
20
-8.5946653762654
30
0
41
1
10
61.5670072303841
20
-8.66762602524551
30
0
41
1
10
61.4108057773716
20
-8.72249663542379
30
0
41
1
10
60.9399172588573
20
-8.87688010438154
30
0
41
1
10
60.6229507227496
20
-8.96618730534763
30
0
41
1
10
59.9830757168268
20
-9.11838665598549
30
0
41
1
10
59.3372572581262
20
-9.2441638901019
30
0
41
1
10
58.6795418241677
20
-9.31732603339415
30
0
41
1
10
58.264660763294
20
-9.34625881087788
30
0
41
1
10
58.1814596796004
20
-9.35120564742391
30
0
41
1
10
58.0148156042925
20
-9.35939426176088
30
0
41
1
10
57.7651629873194
20
-9.3690864780105
30
0
41
1
10
57.5164404796476
20
-9.37109512002931
30
0
41
1
10
57.0202159579053
20
-9.36503120646341
30
0
41
1
10
56.3618334734905
20
-9.33010277192042
30
0
41
1
10
55.7098550725492
20
-9.24220578393317
30
0
41
1
10
55.0611031647034
20
-9.1275232218959
30
0
41
1
10
54.738340111768
20
-9.05679231931393
30
0
41
1
10
54.377103708608
20
-8.96158888753911
30
0
41
1
10
54.3369923856613
20
-8.95079313043354
30
0
41
1
10
54.2568221467329
20
-8.92876356632493
30
0
41
1
10
54.2167450993856
20
-8.9175243569585
30
0
41
1
10
54.0968714609452
20
-8.8832263907303
30
0
41
1
10
53.8583279179782
20
-8.81224621510606
30
0
41
1
10
53.623360655536
20
-8.73416996430066
30
0
41
1
10
53.1581360469648
20
-8.56863496598976
30
0
41
1
10
52.8542558487381
20
-8.44579007496802
30
0
41
1
10
52.258973046652
20
-8.17502100941076
30
0
41
1
10
51.9675693693624
20
-8.02709938862111
30
0
41
1
10
51.3975216806419
20
-7.705348299458
30
0
41
1
10
51.1188746922159
20
-7.53152547983939
30
0
41
1
10
50.7789678692774
20
-7.29700061728681
30
0
41
1
10
50.711352946835
20
-7.24919035458498
30
0
41
1
10
50.5773417989395
20
-7.15206810817224
30
0
41
1
10
50.4445214159306
20
-7.05342936513117
30
0
41
1
10
50.2814896847437
20
-6.92630758645495
30
0
41
1
10
50.1689514322081
20
-6.83529377580047
30
0
41
1
10
50.1210617712738
20
-6.79585050486122
30
0
41
1
10
50.0892113039232
20
-6.76945748806557
30
0
41
1
10
50.0732955630389
20
-6.7561879237735
30
0
41
1
10
50.0574751753817
20
-6.74291788409269
30
0
0
SPLINE
5
15A
100
AcDbEntity
8
1
62
256
6
ByLayer
370
18
48
1
60
0
100
AcDbSpline
70
4
71
3
72
52
73
48
40
0
40
0
40
0
40
0
40
0.062499999999999
40
0.062499999999999
40
0.124999999999998
40
0.124999999999998
40
0.156249999999996
40
0.156249999999996
40
0.171874999999994
40
0.171874999999994
40
0.187499999999991
40
0.187499999999991
40
0.249999999999988
40
0.312499999999985
40
0.312499999999985
40
0.328124999999987
40
0.328124999999987
40
0.343749999999989
40
0.374999999999995
40
0.374999999999995
40
0.437500000000004
40
0.437500000000004
40
0.46875000000001
40
0.46875000000001
40
0.484375000000012
40
0.484375000000012
40
0.500000000000014
40
0.500000000000014
40
0.562500000000012
40
0.62500000000001
40
0.62500000000001
40
0.65625000000001
40
0.65625000000001
40
0.687500000000011
40
0.687500000000011
40
0.750000000000012
40
0.750000000000012
40
0.781250000000012
40
0.781250000000012
40
0.812500000000012
40
0.812500000000012
40
0.875000000000008
40
0.937500000000004
40
0.937500000000004
40
0.968750000000002
40
0.968750000000002
40
1
40
1
40
1
40
1
41
1
10
18.4749999999999
20
8.8274562482483
30
0
41
1
10
18.5131930808127
20
8.89405662171492
30
0
41
1
10
18.5554606478646
20
8.95738557328818
30
0
41
1
10
18.6478179474982
20
9.07777667488114
30
0
41
1
10
18.6979086926172
20
9.13483797258399
30
0
41
1
10
18.7789823714227
20
9.21568410815604
30
0
41
1
10
18.8069996678941
20
9.24183934221421
30
0
41
1
10
18.8505536464378
20
9.27985231561814
30
0
41
1
10
18.8653029438397
20
9.2922976220882
30
0
41
1
10
18.8950955856761
20
9.31660228793896
30
0
41
1
10
18.9101625115514
20
9.32848243337531
30
0
41
1
10
18.9863395554144
20
9.38653975566419
30
0
41
1
10
19.1135926887495
20
9.47086828252657
30
0
41
1
10
19.2514036903975
20
9.53838905803212
30
0
41
1
10
19.3409544661045
20
9.57515479974674
30
0
41
1
10
19.3590520089521
20
9.58223959886814
30
0
41
1
10
19.3953229586328
20
9.59575732322037
30
0
41
1
10
19.4499381667586
20
9.61509657435269
30
0
41
1
10
19.5051707053837
20
9.63166507308725
30
0
41
1
10
19.6164454423364
20
9.6611697729906
30
0
41
1
10
19.6917046822206
20
9.67601216104057
30
0
41
1
10
19.8062181220334
20
9.69099236742508
30
0
41
1
10
19.8446608919078
20
9.69476798755383
30
0
41
1
10
19.9027419621886
20
9.69856254593421
30
0
41
1
10
19.9222082263655
20
9.69951633011655
30
0
41
1
10
19.9610432866322
20
9.70078420155346
30
0
41
1
10
19.9804206757314
20
9.70110026133054
30
0
41
1
10
20.0771097084009
20
9.70111331440546
30
0
41
1
10
20.230550681767
20
9.69114502340119
30
0
41
1
10
20.3815254793055
20
9.6616439075095
30
0
41
1
10
20.4938039217149
20
9.63196802955153
30
0
41
1
10
20.5311267422988
20
9.6207843229482
30
0
41
1
10
20.6043513378542
20
9.5962089309179
30
0
41
1
10
20.6403890093396
20
9.58278629233359
30
0
41
1
10
20.746811186341
20
9.53917684240386
30
0
41
1
10
20.8155120434472
20
9.50566279471821
30
0
41
1
10
20.9151902047721
20
9.44871626293667
30
0
41
1
10
20.9478522755724
20
9.42861793964082
30
0
41
1
10
21.0120256139633
20
9.38614199014503
30
0
41
1
10
21.0436243918518
20
9.36368915668112
30
0
41
1
10
21.1353630867128
20
9.29381338114035
30
0
41
1
10
21.2502848660041
20
9.19354381991019
30
0
41
1
10
21.3508223253871
20
9.07943318378568
30
0
41
1
10
21.4206978904472
20
8.98851999372272
30
0
41
1
10
21.4431137195572
20
8.95724713254165
30
0
41
1
10
21.4857057869267
20
8.89337354521561
30
0
41
1
10
21.5059034870283
20
8.86075638714149
30
0
41
1
10
21.5249999999999
20
8.8274562482485
30
0
0
SPLINE
5
15B
100
AcDbEntity
8
1
62
256
6
ByLayer
370
18
48
1
60
0
100
AcDbSpline
70
4
71
3
72
52
73
48
40
0
40
0
40
0
40
0
40
0.0625000000000096
40
0.0625000000000096
40
0.125000000000019
40
0.125000000000019
40
0.156250000000023
40
0.156250000000023
40
0.171875000000024
40
0.171875000000024
40
0.187500000000026
40
0.187500000000026
40
0.250000000000028
40
0.31250000000003
40
0.31250000000003
40
0.328125000000029
40
0.328125000000029
40
0.343750000000028
40
0.375000000000026
40
0.375000000000026
40
0.437500000000021
40
0.437500000000021
40
0.468750000000018
40
0.468750000000018
40
0.484375000000017
40
0.484375000000017
40
0.500000000000017
40
0.500000000000017
40
0.562500000000018
40
0.625000000000018
40
0.625000000000018
40
0.656250000000017
40
0.656250000000017
40
0.687500000000016
40
0.687500000000016
40
0.750000000000012
40
0.750000000000012
40
0.78125000000001
40
0.78125000000001
40
0.812500000000007
40
0.812500000000007
40
0.875000000000004
40
0.937500000000001
40
0.937500000000001
40
0.968750000000001
40
0.968750000000001
40
1
40
1
40
1
40
1
41
1
10
21.5249999999999
20
-8.82745624824844
30
0
41
1
10
21.4868069191872
20
-8.89405662171507
30
0
41
1
10
21.4445393521353
20
-8.95738557328832
30
0
41
1
10
21.3521820525016
20
-9.07777667488128
30
0
41
1
10
21.3020913073826
20
-9.13483797258411
30
0
41
1
10
21.2210176285772
20
-9.21568410815615
30
0
41
1
10
21.1930003321058
20
-9.24183934221429
30
0
41
1
10
21.1494463535621
20
-9.27985231561826
30
0
41
1
10
21.1346970561601
20
-9.29229762208831
30
0
41
1
10
21.1049044143238
20
-9.31660228793908
30
0
41
1
10
21.0898374884484
20
-9.3284824333754
30
0
41
1
10
21.0136604445854
20
-9.38653975566424
30
0
41
1
10
20.8864073112503
20
-9.47086828252662
30
0
41
1
10
20.7485963096023
20
-9.53838905803218
30
0
41
1
10
20.6590455338953
20
-9.57515479974677
30
0
41
1
10
20.6409479910477
20
-9.58223959886817
30
0
41
1
10
20.604677041367
20
-9.5957573232204
30
0
41
1
10
20.5500618332411
20
-9.61509657435272
30
0
41
1
10
20.4948292946161
20
-9.63166507308725
30
0
41
1
10
20.3835545576633
20
-9.6611697729906
30
0
41
1
10
20.3082953177791
20
-9.67601216104057
30
0
41
1
10
20.1937818779664
20
-9.69099236742505
30
0
41
1
10
20.1553391080919
20
-9.69476798755377
30
0
41
1
10
20.0972580378112
20
-9.69856254593415
30
0
41
1
10
20.0777917736343
20
-9.69951633011652
30
0
41
1
10
20.0389567133676
20
-9.7007842015534
30
0
41
1
10
20.0195793242684
20
-9.70110026133048
30
0
41
1
10
19.9228902915989
20
-9.7011133144054
30
0
41
1
10
19.7694492795892
20
-9.6911453433049
30
0
41
1
10
19.6184745206942
20
-9.66164390750939
30
0
41
1
10
19.5061960782849
20
-9.63196802955142
30
0
41
1
10
19.4688732577009
20
-9.62078432294808
30
0
41
1
10
19.3956486621456
20
-9.59620893091775
30
0
41
1
10
19.3596109906602
20
-9.58278629233345
30
0
41
1
10
19.2531888136588
20
-9.53917684240372
30
0
41
1
10
19.1844879565526
20
-9.50566279471803
30
0
41
1
10
19.0848097952277
20
-9.4487162629365
30
0
41
1
10
19.0521477244274
20
-9.42861793964065
30
0
41
1
10
18.9879743860365
20
-9.38614199014484
30
0
41
1
10
18.956375608148
20
-9.36368915668092
30
0
41
1
10
18.864636913287
20
-9.29381338114015
30
0
41
1
10
18.7497151339958
20
-9.19354381990993
30
0
41
1
10
18.6491776746127
20
-9.07943318378543
30
0
41
1
10
18.5793021095526
20
-8.98851999372246
30
0
41
1
10
18.5568862804427
20
-8.9572471325414
30
0
41
1
10
18.5142942130732
20
-8.89337354521533
30
0
41
1
10
18.4940965129715
20
-8.86075638714124
30
0
41
1
10
18.475
20
-8.82745624824824
30
0
0
SPLINE
5
15C
100
AcDbEntity
8
1
62
256
6
ByLayer
370
18
48
1
60
0
100
AcDbSpline
70
4
71
3
72
52
73
48
40
0
40
0
40
0
40
0
40
0.0625000000000118
40
0.0625000000000118
40
0.125000000000024
40
0.125000000000024
40
0.156250000000028
40
0.156250000000028
40
0.17187500000003
40
0.17187500000003
40
0.187500000000032
40
0.187500000000032
40
0.250000000000038
40
0.312500000000045
40
0.312500000000045
40
0.328125000000045
40
0.328125000000045
40
0.343750000000045
40
0.375000000000046
40
0.375000000000046
40
0.437500000000047
40
0.437500000000047
40
0.468750000000046
40
0.468750000000046
40
0.484375000000047
40
0.484375000000047
40
0.500000000000048
40
0.500000000000048
40
0.562500000000044
40
0.625000000000039
40
0.625000000000039
40
0.656250000000037
40
0.656250000000037
40
0.687500000000034
40
0.687500000000034
40
0.750000000000027
40
0.750000000000027
40
0.781250000000023
40
0.781250000000023
40
0.812500000000019
40
0.812500000000019
40
0.875000000000014
40
0.937500000000008
40
0.937500000000008
40
0.968750000000004
40
0.968750000000004
40
1
40
1
40
1
40
1
41
1
10
21.5249999999999
20
7.13671025908158
30
0
41
1
10
21.4868069191871
20
7.06966982881332
30
0
41
1
10
21.4445393521353
20
7.00587025666857
30
0
41
1
10
21.3521820525016
20
6.88450330592323
30
0
41
1
10
21.3020913073826
20
6.82693670265499
30
0
41
1
10
21.2210176285771
20
6.74532595300241
30
0
41
1
10
21.1930003321057
20
6.71891474029704
30
0
41
1
10
21.149446353562
20
6.68051865864228
30
0
41
1
10
21.1346970561601
20
6.6679460114282
30
0
41
1
10
21.1049044143237
20
6.64338922161213
30
0
41
1
10
21.0898374884484
20
6.631384084285
30
0
41
1
10
21.0136604445854
20
6.57270811008971
30
0
41
1
10
20.8864073112503
20
6.48743024054048
30
0
41
1
10
20.7485963096023
20
6.41908820971207
30
0
41
1
10
20.6590455338953
20
6.38186424615398
30
0
41
1
10
20.6409479910476
20
6.37469050014116
30
0
41
1
10
20.604677041367
20
6.36100202225882
30
0
41
1
10
20.5500618332411
20
6.34141684334605
30
0
41
1
10
20.4948292946161
20
6.32463383686243
30
0
41
1
10
20.3835545576633
20
6.29474411539374
30
0
41
1
10
20.3082953177791
20
6.27970369831229
30
0
41
1
10
20.1937818779664
20
6.26452270090061
30
0
41
1
10
20.1553391080919
20
6.26069619257268
30
0
41
1
10
20.0972580378111
20
6.25685043140464
30
0
41
1
10
20.0777917736343
20
6.25588375910309
30
0
41
1
10
20.0389567133676
20
6.25459875053053
30
0
41
1
10
20.0195793242684
20
6.25427841514937
30
0
41
1
10
19.9228902915988
20
6.25426518554403
30
0
41
1
10
19.7694492795892
20
6.26436854237178
30
0
41
1
10
19.6184745206942
20
6.29426373645663
30
0
41
1
10
19.5061960782848
20
6.32432695479454
30
0
41
1
10
19.4688732577009
20
6.33565546844017
30
0
41
1
10
19.3956486621456
20
6.36054510369161
30
0
41
1
10
19.3596109906602
20
6.37413758752498
30
0
41
1
10
19.2531888136588
20
6.41829070974694
30
0
41
1
10
19.1844879565526
20
6.45221272773583
30
0
41
1
10
19.0848097952276
20
6.50982371252894
30
0
41
1
10
19.0521477244274
20
6.53015227110106
30
0
41
1
10
18.9879743860365
20
6.57310349914562
30
0
41
1
10
18.956375608148
20
6.59580214597722
30
0
41
1
10
18.864636913287
20
6.666422677425
30
0
41
1
10
18.7497151339958
20
6.76770948571956
30
0
41
1
10
18.6491776746127
20
6.88283276927351
30
0
41
1
10
18.5793021095526
20
6.97448376243378
30
0
41
1
10
18.5568862804427
20
7.00599948201599
30
0
41
1
10
18.5142942130732
20
7.0703443332184
30
0
41
1
10
18.4940965129715
20
7.10319009210406
30
0
41
1
10
18.4749999999999
20
7.13671025908178
30
0
0
SPLINE
5
15D
100
AcDbEntity
8
1
62
256
6
ByLayer
370
18
48
1
60
0
100
AcDbSpline
70
4
71
3
72
52
73
48
40
0
40
0
40
0
40
0
40
0.062500000000008
40
0.062500000000008
40
0.125000000000016
40
0.125000000000016
40
0.156250000000019
40
0.156250000000019
40
0.17187500000002
40
0.17187500000002
40
0.187500000000021
40
0.187500000000021
40
0.25000000000002
40
0.31250000000002
40
0.31250000000002
40
0.328125000000021
40
0.328125000000021
40
0.343750000000023
40
0.375000000000028
40
0.375000000000028
40
0.437500000000036
40
0.437500000000036
40
0.468750000000042
40
0.468750000000042
40
0.484375000000043
40
0.484375000000043
40
0.500000000000044
40
0.500000000000044
40
0.562500000000041
40
0.625000000000038
40
0.625000000000038
40
0.656250000000036
40
0.656250000000036
40
0.687500000000035
40
0.687500000000035
40
0.750000000000031
40
0.750000000000031
40
0.781250000000028
40
0.781250000000028
40
0.812500000000025
40
0.812500000000025
40
0.875000000000017
40
0.937500000000008
40
0.937500000000008
40
0.968750000000004
40
0.968750000000004
40
1
40
1
40
1
40
1
41
1
10
18.475
20
-7.13671025908175
30
0
41
1
10
18.5131930808127
20
-7.06966982881346
30
0
41
1
10
18.5554606478646
20
-7.00587025666872
30
0
41
1
10
18.6478179474982
20
-6.88450330592335
30
0
41
1
10
18.6979086926173
20
-6.8269367026551
30
0
41
1
10
18.7789823714227
20
-6.74532595300252
30
0
41
1
10
18.8069996678941
20
-6.71891474029715
30
0
41
1
10
18.8505536464378
20
-6.6805186586424
30
0
41
1
10
18.8653029438397
20
-6.66794601142831
30
0
41
1
10
18.8950955856761
20
-6.64338922161221
30
0
41
1
10
18.9101625115515
20
-6.63138408428509
30
0
41
1
10
18.9863395554144
20
-6.57270811008979
30
0
41
1
10
19.1135922594053
20
-6.48742952549952
30
0
41
1
10
19.2514036903975
20
-6.4190882097121
30
0
41
1
10
19.3409544661045
20
-6.38186424615401
30
0
41
1
10
19.3590520089522
20
-6.37469050014118
30
0
41
1
10
19.3953229586328
20
-6.36100202225884
30
0
41
1
10
19.4499381667587
20
-6.34141684334608
30
0
41
1
10
19.5051707053837
20
-6.32463383686246
30
0
41
1
10
19.6164454423365
20
-6.29474411539374
30
0
41
1
10
19.6917046822206
20
-6.27970369831229
30
0
41
1
10
19.8062181220334
20
-6.26452270090059
30
0
41
1
10
19.8446608919078
20
-6.26069619257265
30
0
41
1
10
19.9027419621886
20
-6.25685043140462
30
0
41
1
10
19.9222082263655
20
-6.25588375910303
30
0
41
1
10
19.9610432866322
20
-6.25459875053048
30
0
41
1
10
19.9804206757314
20
-6.25427841514932
30
0
41
1
10
20.0771097084009
20
-6.25426518554394
30
0
41
1
10
20.2305507204105
20
-6.2643685423717
30
0
41
1
10
20.3815254793055
20
-6.29426373645651
30
0
41
1
10
20.4938039217149
20
-6.32432695479443
30
0
41
1
10
20.5311267422989
20
-6.33565546844005
30
0
41
1
10
20.6043513378542
20
-6.36054510369146
30
0
41
1
10
20.6403890093396
20
-6.37413758752484
30
0
41
1
10
20.746811186341
20
-6.41829070974677
30
0
41
1
10
20.8155120434472
20
-6.45221272773566
30
0
41
1
10
20.9151902047721
20
-6.50982371252877
30
0
41
1
10
20.9478522755724
20
-6.53015227110089
30
0
41
1
10
21.0120256139633
20
-6.57310349914542
30
0
41
1
10
21.0436243918518
20
-6.59580214597702
30
0
41
1
10
21.1353630867128
20
-6.66642267742478
30
0
41
1
10
21.2502848660041
20
-6.76770948571934
30
0
41
1
10
21.3508223253872
20
-6.88283276927325
30
0
41
1
10
21.4206978904473
20
-6.97448376243355
30
0
41
1
10
21.4431137195572
20
-7.00599948201577
30
0
41
1
10
21.4857057869267
20
-7.07034433321815
30
0
41
1
10
21.5059034870283
20
-7.1031900921038
30
0
41
1
10
21.5249999999999
20
-7.13671025908153
30
0
0
SPLINE
5
15E
100
AcDbEntity
8
1
62
256
6
ByLayer
370
18
48
1
60
0
100
AcDbSpline
70
4
71
3
72
30
73
26
40
0
40
0
40
0
40
0
40
0.0624999999999858
40
0.0624999999999858
40
0.124999999999971
40
0.187499999999957
40
0.187499999999957
40
0.249999999999943
40
0.249999999999943
40
0.374999999999917
40
0.374999999999917
40
0.437499999999919
40
0.437499999999919
40
0.499999999999922
40
0.499999999999922
40
0.62499999999994
40
0.62499999999994
40
0.687499999999945
40
0.687499999999945
40
0.74999999999995
40
0.812499999999954
40
0.812499999999954
40
0.874999999999959
40
0.874999999999959
40
1
40
1
40
1
40
1
41
1
10
18.475
20
-44.6344954491478
30
0
41
1
10
18.4616847979077
20
-44.6344954491478
30
0
41
1
10
18.4482319859099
20
-44.6351906384268
30
0
41
1
10
18.4217536095185
20
-44.6379322295662
30
0
41
1
10
18.3955718787085
20
-44.6420141914964
30
0
41
1
10
18.3699704552135
20
-44.6487182284649
30
0
41
1
10
18.3446613431872
20
-44.6567430528606
30
0
41
1
10
18.332089597359
20
-44.6614445089548
30
0
41
1
10
18.2953093716652
20
-44.6773890308172
30
0
41
1
10
18.2722157062745
20
-44.6903364922936
30
0
41
1
10
18.2396300763836
20
-44.713096473663
30
0
41
1
10
18.2291132506191
20
-44.7212437793673
30
0
41
1
10
18.2087863511855
20
-44.7386867351014
30
0
41
1
10
18.1991008672812
20
-44.7478791620445
30
0
41
1
10
18.171610646091
20
-44.7766402360769
30
0
41
1
10
18.1552722742638
20
-44.7974548350275
30
0
41
1
10
18.1337397189047
20
-44.8311312371395
30
0
41
1
10
18.1270502063933
20
-44.8428052221969
30
0
41
1
10
18.1149450839625
20
-44.8664998596966
30
0
41
1
10
18.104036967684
20
-44.8906473842248
30
0
41
1
10
18.0954655871354
20
-44.9156790122305
30
0
41
1
10
18.0880672270644
20
-44.9411544522898
30
0
41
1
10
18.0849476893669
20
-44.9541508067768
30
0
41
1
10
18.0774508125185
20
-44.9935864531736
30
0
41
1
10
18.0749999999997
20
-45.0199555519467
30
0
41
1
10
18.075
20
-45.0464003445382
30
0
0
SPLINE
5
15F
100
AcDbEntity
8
1
62
256
6
ByLayer
370
18
48
1
60
0
100
AcDbSpline
70
4
71
3
72
32
73
28
40
0
40
0
40
0
40
0
40
0.124999999999989
40
0.124999999999989
40
0.249999999999978
40
0.249999999999978
40
0.281249999999977
40
0.281249999999977
40
0.312499999999975
40
0.312499999999975
40
0.374999999999976
40
0.374999999999976
40
0.499999999999978
40
0.499999999999978
40
0.562499999999979
40
0.562499999999979
40
0.59374999999998
40
0.59374999999998
40
0.624999999999981
40
0.624999999999981
40
0.749999999999987
40
0.749999999999987
40
0.874999999999993
40
0.874999999999993
40
0.937499999999997
40
0.937499999999997
40
1
40
1
40
1
40
1
41
1
10
18.475
20
-8.82745624824824
30
0
41
1
10
18.4377864466611
20
-8.76256395630307
30
0
41
1
10
18.4054492427887
20
-8.69722547386348
30
0
41
1
10
18.349710814951
20
-8.56422661798968
30
0
41
1
10
18.3263174295068
20
-8.49658590374037
30
0
41
1
10
18.3026347247877
20
-8.40980695132876
30
0
41
1
10
18.2981777768653
20
-8.39233946392309
30
0
41
1
10
18.2898288157941
20
-8.3571595028848
30
0
41
1
10
18.2859353635673
20
-8.33943418600848
30
0
41
1
10
18.2751840579966
20
-8.28623216802922
30
0
41
1
10
18.2692244159246
20
-8.25061249335545
30
0
41
1
10
18.2549017237893
20
-8.14316707428324
30
0
41
1
10
18.250079691989
20
-8.07073664892098
30
0
41
1
10
18.249961617153
20
-7.96061919661554
30
0
41
1
10
18.251111974268
20
-7.92367239491395
30
0
41
1
10
18.2546595041354
20
-7.86790025401407
30
0
41
1
10
18.2561459141042
20
-7.84925120805957
30
0
41
1
10
18.2597356429362
20
-7.81184177844324
30
0
41
1
10
18.261839368491
20
-7.79309330691439
30
0
41
1
10
18.2738091220134
20
-7.69986645461569
30
0
41
1
10
18.2880551680473
20
-7.62630143925583
30
0
41
1
10
18.3256409102618
20
-7.48138135487187
30
0
41
1
10
18.3489787734403
20
-7.41002551449398
30
0
41
1
10
18.3911622507963
20
-7.30494817339948
30
0
41
1
10
18.4063797715671
20
-7.27037709534625
30
0
41
1
10
18.4390017274133
20
-7.20258607374532
30
0
41
1
10
18.4564279174874
20
-7.16930989168472
30
0
41
1
10
18.4749999999983
20
-7.13671025908079
30
0
0
SPLINE
5
160
100
AcDbEntity
8
1
62
256
6
ByLayer
370
18
48
1
60
0
100
AcDbSpline
70
4
71
3
72
32
73
28
40
0
40
0
40
0
40
0
40
0.124999999999999
40
0.124999999999999
40
0.249999999999998
40
0.249999999999998
40
0.281249999999997
40
0.281249999999997
40
0.312499999999997
40
0.312499999999997
40
0.374999999999997
40
0.374999999999997
40
0.499999999999997
40
0.499999999999997
40
0.562499999999996
40
0.562499999999996
40
0.593749999999996
40
0.593749999999996
40
0.624999999999996
40
0.624999999999996
40
0.749999999999999
40
0.749999999999999
40
0.875000000000003
40
0.875000000000003
40
0.937500000000001
40
0.937500000000001
40
1
40
1
40
1
40
1
41
1
10
18.4749999999999
20
7.13671025908178
30
0
41
1
10
18.4377864466611
20
7.20203132181246
30
0
41
1
10
18.4054492427887
20
7.26951057032858
30
0
41
1
10
18.349710814951
20
7.40805388100139
30
0
41
1
10
18.3263174295068
20
7.47912642561616
30
0
41
1
10
18.3026347247877
20
7.57000440345777
30
0
41
1
10
18.2981777768653
20
7.58828255509039
30
0
41
1
10
18.2898288157941
20
7.62504133175253
30
0
41
1
10
18.2859353635673
20
7.64353518078508
30
0
41
1
10
18.2751840579965
20
7.69892859380755
30
0
41
1
10
18.2692244159246
20
7.73586111078595
30
0
41
1
10
18.2549017237893
20
7.84657353992498
30
0
41
1
10
18.250079691989
20
7.92025447498548
30
0
41
1
10
18.2499616171529
20
8.03040138417367
30
0
41
1
10
18.2511119742679
20
8.067057902915
30
0
41
1
10
18.2546595041353
20
8.12196385028315
30
0
41
1
10
18.2561459141042
20
8.14025293669155
30
0
41
1
10
18.2597356429362
20
8.17680976898617
30
0
41
1
10
18.261839368491
20
8.1950655995098
30
0
41
1
10
18.2738091220133
20
8.28555846016002
30
0
41
1
10
18.2880551680473
20
8.35604500871304
30
0
41
1
10
18.3256409102618
20
8.49443673746634
30
0
41
1
10
18.3489787734402
20
8.56234083732667
30
0
41
1
10
18.3911622507963
20
8.66320268493723
30
0
41
1
10
18.4063797715671
20
8.69653726119412
30
0
41
1
10
18.4390017274133
20
8.76244493810512
30
0
41
1
10
18.4564279174874
20
8.79507060129492
30
0
41
1
10
18.4749999999983
20
8.82745624824864
30
0
0
SPLINE
5
161
100
AcDbEntity
8
1
62
256
6
ByLayer
370
18
48
1
60
0
100
AcDbSpline
70
4
71
3
72
30
73
26
40
0
40
0
40
0
40
0
40
0.125181098374252
40
0.125181098374252
40
0.156476372967816
40
0.156476372967816
40
0.187771647561381
40
0.250362196748509
40
0.250362196748509
40
0.312952745935637
40
0.312952745935637
40
0.375543295122766
40
0.438133844309894
40
0.438133844309894
40
0.500724393497023
40
0.500724393497023
40
0.625905491871296
40
0.625905491871296
40
0.751086590245569
40
0.751086590245569
40
0.813677139432703
40
0.813677139432703
40
0.876267688619838
40
0.876267688619838
40
1
40
1
40
1
40
1
41
1
10
18.4749999999999
20
31.35
30
0
41
1
10
18.4434838302957
20
31.35
30
0
41
1
10
18.4127975282274
20
31.35
30
0
41
1
10
18.3754018775674
20
31.35
30
0
41
1
10
18.3679858516777
20
31.35
30
0
41
1
10
18.3534843618351
20
31.35
30
0
41
1
10
18.3321375755528
20
31.35
30
0
41
1
10
18.3119368186066
20
31.35
30
0
41
1
10
18.2859434693282
20
31.3500000000001
30
0
41
1
10
18.2734002721152
20
31.35
30
0
41
1
10
18.2498192952165
20
31.3500000000001
30
0
41
1
10
18.2275544437093
20
31.35
30
0
41
1
10
18.2076288622269
20
31.35
30
0
41
1
10
18.1887837730621
20
31.35
30
0
41
1
10
18.1798737240509
20
31.35
30
0
41
1
10
18.154876523932
20
31.35
30
0
41
1
10
18.1407213141959
20
31.35
30
0
41
1
10
18.116603641408
20
31.35
30
0
41
1
10
18.1066511625444
20
31.35
30
0
41
1
10
18.0946732864747
20
31.3500000000001
30
0
41
1
10
18.0911932840926
20
31.35
30
0
41
1
10
18.0852755048811
20
31.35
30
0
41
1
10
18.0828262569597
20
31.35
30
0
41
1
10
18.0770006335872
20
31.35
30
0
41
1
10
18.0750347746784
20
31.35
30
0
41
1
10
18.0750049999992
20
31.35
30
0
0
SPLINE
5
162
100
AcDbEntity
8
1
62
256
6
ByLayer
370
18
48
1
60
0
100
AcDbSpline
70
4
71
3
72
31
73
27
40
0
40
0
40
0
40
0
40
0.0625000000000097
40
0.0625000000000097
40
0.125000000000019
40
0.125000000000019
40
0.250000000000042
40
0.250000000000042
40
0.312500000000038
40
0.312500000000038
40
0.375000000000034
40
0.375000000000034
40
0.500000000000053
40
0.500000000000053
40
0.562500000000046
40
0.562500000000046
40
0.625000000000038
40
0.687500000000031
40
0.687500000000031
40
0.750000000000023
40
0.750000000000023
40
0.875000000000023
40
0.875000000000023
40
0.937500000000012
40
0.937500000000012
40
1
40
1
40
1
40
1
41
1
10
21.925
20
-45.0464003445336
30
0
41
1
10
21.925
20
-45.0331626603318
30
0
41
1
10
21.924381495682
20
-45.0198947900488
30
0
41
1
10
21.9218726395178
20
-44.9932969770096
30
0
41
1
10
21.9199785565725
20
-44.9800081055473
30
0
41
1
10
21.9125069641338
20
-44.9408759852542
30
0
41
1
10
21.905136106865
20
-44.9154933320044
30
0
41
1
10
21.890471836696
20
-44.8784843675956
30
0
41
1
10
21.8849526780865
20
-44.8662777778366
30
0
41
1
10
21.8727654232931
20
-44.8424668183442
30
0
41
1
10
21.8661456968194
20
-44.8309442994393
30
0
41
1
10
21.8447456214817
20
-44.7974983998839
30
0
41
1
10
21.8284392770504
20
-44.7766858300516
30
0
41
1
10
21.8008015924791
20
-44.7477804442197
30
0
41
1
10
21.7910273232173
20
-44.7385200855485
30
0
41
1
10
21.7708356920273
20
-44.7212068053836
30
0
41
1
10
21.7499032588598
20
-44.7049883816989
30
0
41
1
10
21.727505134293
20
-44.6909361532663
30
0
41
1
10
21.7043606202103
20
-44.6779870393273
30
0
41
1
10
21.6923744597047
20
-44.672046490774
30
0
41
1
10
21.6555104913066
20
-44.6560758480441
30
0
41
1
10
21.6302617191814
20
-44.6480861211984
30
0
41
1
10
21.5914053943374
20
-44.6399847983876
30
0
41
1
10
21.578288218471
20
-44.6379363339769
30
0
41
1
10
21.5517131422165
20
-44.6351851835537
30
0
41
1
10
21.5382858068624
20
-44.6344954491478
30
0
41
1
10
21.525
20
-44.6344954491478
30
0
0
SPLINE
5
163
100
AcDbEntity
8
1
62
256
6
ByLayer
370
18
48
1
60
0
100
AcDbSpline
70
4
71
3
72
32
73
28
40
0
40
0
40
0
40
0
40
0.0596037022909436
40
0.0596037022909436
40
0.122296788804884
40
0.122296788804884
40
0.247682961832766
40
0.247682961832766
40
0.310376048346705
40
0.310376048346705
40
0.373069134860644
40
0.373069134860644
40
0.498455307888522
40
0.498455307888522
40
0.561148394402446
40
0.561148394402446
40
0.623841480916369
40
0.623841480916369
40
0.749227653944246
40
0.749227653944246
40
0.811920740458185
40
0.811920740458185
40
0.874613826972123
40
0.874613826972123
40
0.937306913486062
40
0.937306913486062
40
1
40
1
40
1
40
1
41
1
10
21.9249999999994
20
31.3500000000001
30
0
41
1
10
21.9249451848018
20
31.3500000000001
30
0
41
1
10
21.92445311982
20
31.3500000000001
30
0
41
1
10
21.9225309625992
20
31.35
30
0
41
1
10
21.9210589133899
20
31.35
30
0
41
1
10
21.9151868880887
20
31.35
30
0
41
1
10
21.9093431109087
20
31.35
30
0
41
1
10
21.8974980740979
20
31.35
30
0
41
1
10
21.8930336997148
20
31.35
30
0
41
1
10
21.8830000961516
20
31.35
30
0
41
1
10
21.8774184903454
20
31.35
30
0
41
1
10
21.8591819896764
20
31.35
30
0
41
1
10
21.844983132377
20
31.35
30
0
41
1
10
21.820200559237
20
31.35
30
0
41
1
10
21.8113550357057
20
31.35
30
0
41
1
10
21.7923549663909
20
31.35
30
0
41
1
10
21.7822317389738
20
31.35
30
0
41
1
10
21.7503563397751
20
31.35
30
0
41
1
10
21.7269594387175
20
31.35
30
0
41
1
10
21.6878456918739
20
31.35
30
0
41
1
10
21.674134045728
20
31.35
30
0
41
1
10
21.6460786379621
20
31.35
30
0
41
1
10
21.631693322953
20
31.35
30
0
41
1
10
21.6021681168187
20
31.35
30
0
41
1
10
21.5869812296857
20
31.35
30
0
41
1
10
21.5559767767759
20
31.35
30
0
41
1
10
21.540483848586
20
31.35
30
0
41
1
10
21.5249999999999
20
31.35
30
0
0
SPLINE
5
164
100
AcDbEntity
8
1
62
256
6
ByLayer
370
18
48
1
60
0
100
AcDbSpline
70
4
71
3
72
32
73
28
40
0
40
0
40
0
40
0
40
0.124999999999989
40
0.124999999999989
40
0.249999999999978
40
0.249999999999978
40
0.281249999999976
40
0.281249999999976
40
0.312499999999973
40
0.312499999999973
40
0.37499999999997
40
0.37499999999997
40
0.499999999999971
40
0.499999999999971
40
0.562499999999972
40
0.562499999999972
40
0.593749999999975
40
0.593749999999975
40
0.624999999999977
40
0.624999999999977
40
0.749999999999984
40
0.749999999999984
40
0.87499999999999
40
0.87499999999999
40
0.937499999999995
40
0.937499999999995
40
1
40
1
40
1
40
1
41
1
10
21.5249999999999
20
8.8274562482485
30
0
41
1
10
21.5622135533388
20
8.7625639563033
30
0
41
1
10
21.5945507572112
20
8.69722547386374
30
0
41
1
10
21.6502891850489
20
8.5642266179899
30
0
41
1
10
21.6736825704932
20
8.49658590374057
30
0
41
1
10
21.6973652752123
20
8.40980695132893
30
0
41
1
10
21.7018222231347
20
8.39233946392326
30
0
41
1
10
21.7101711842059
20
8.35715950288497
30
0
41
1
10
21.7140646364326
20
8.33943418600862
30
0
41
1
10
21.7248159420034
20
8.28623216802936
30
0
41
1
10
21.7307755840754
20
8.25061249335559
30
0
41
1
10
21.7450982762107
20
8.14316707428335
30
0
41
1
10
21.749920308011
20
8.0707366489211
30
0
41
1
10
21.7500383828471
20
7.96061919661562
30
0
41
1
10
21.748888025732
20
7.92367239491401
30
0
41
1
10
21.7453404958646
20
7.8679002540141
30
0
41
1
10
21.7438540858957
20
7.8492512080596
30
0
41
1
10
21.7402643570638
20
7.81184177844327
30
0
41
1
10
21.738160631509
20
7.79309330691441
30
0
41
1
10
21.7261908779866
20
7.69986645461569
30
0
41
1
10
21.7119448319527
20
7.6263014392558
30
0
41
1
10
21.6743590897381
20
7.48138135487179
30
0
41
1
10
21.6510212265597
20
7.4100255144939
30
0
41
1
10
21.6088377492036
20
7.30494817339937
30
0
41
1
10
21.5936202284328
20
7.27037709534613
30
0
41
1
10
21.5609982725866
20
7.20258607374521
30
0
41
1
10
21.5435720825124
20
7.16930989168455
30
0
41
1
10
21.5250000000016
20
7.13671025908064
30
0
0
SPLINE
5
165
100
AcDbEntity
8
1
62
256
6
ByLayer
370
18
48
1
60
0
100
AcDbSpline
70
4
71
3
72
32
73
28
40
0
40
0
40
0
40
0
40
0.125000000000005
40
0.125000000000005
40
0.25000000000001
40
0.25000000000001
40
0.281250000000011
40
0.281250000000011
40
0.312500000000011
40
0.312500000000011
40
0.375000000000011
40
0.375000000000011
40
0.500000000000011
40
0.500000000000011
40
0.562500000000009
40
0.562500000000009
40
0.593750000000008
40
0.593750000000008
40
0.625000000000008
40
0.625000000000008
40
0.750000000000005
40
0.750000000000005
40
0.875000000000003
40
0.875000000000003
40
0.937500000000001
40
0.937500000000001
40
1
40
1
40
1
40
1
41
1
10
21.5249999999999
20
-7.13671025908153
30
0
41
1
10
21.5622135533388
20
-7.2020313218122
30
0
41
1
10
21.5945507572112
20
-7.26951057032835
30
0
41
1
10
21.6502891850489
20
-7.40805388100119
30
0
41
1
10
21.6736825704932
20
-7.47912642561599
30
0
41
1
10
21.6973652752123
20
-7.5700044034576
30
0
41
1
10
21.7018222231347
20
-7.58828255509025
30
0
41
1
10
21.7101711842059
20
-7.62504133175239
30
0
41
1
10
21.7140646364327
20
-7.64353518078494
30
0
41
1
10
21.7248159420034
20
-7.69892859380744
30
0
41
1
10
21.7307755840754
20
-7.73586111078586
30
0
41
1
10
21.7450982762107
20
-7.84657353992489
30
0
41
1
10
21.749920308011
20
-7.92025447498543
30
0
41
1
10
21.7500383828471
20
-8.03040138417364
30
0
41
1
10
21.7488880257321
20
-8.067057902915
30
0
41
1
10
21.7453404958647
20
-8.12196385028312
30
0
41
1
10
21.7438540858958
20
-8.14025293669155
30
0
41
1
10
21.7402643570638
20
-8.17680976898617
30
0
41
1
10
21.738160631509
20
-8.19506559950983
30
0
41
1
10
21.7261908779866
20
-8.28555846016005
30
0
41
1
10
21.7119448319527
20
-8.3560450087131
30
0
41
1
10
21.6743590897382
20
-8.49443673746643
30
0
41
1
10
21.6510212265597
20
-8.56234083732676
30
0
41
1
10
21.6088377492037
20
-8.66320268493735
30
0
41
1
10
21.5936202284328
20
-8.69653726119424
30
0
41
1
10
21.5609982725866
20
-8.76244493810529
30
0
41
1
10
21.5435720825125
20
-8.79507060129507
30
0
41
1
10
21.5250000000016
20
-8.82745624824881
30
0
0
SPLINE
5
166
100
AcDbEntity
8
1
62
256
6
ByLayer
370
18
48
1
60
0
100
AcDbSpline
70
4
71
3
72
55
73
51
40
0
40
0
40
0
40
0
40
0.0624999999999992
40
0.0624999999999992
40
0.124999999999998
40
0.124999999999998
40
0.187499999999998
40
0.187499999999998
40
0.203124999999997
40
0.203124999999997
40
0.218749999999997
40
0.218749999999997
40
0.249999999999997
40
0.249999999999997
40
0.312499999999995
40
0.312499999999995
40
0.374999999999994
40
0.374999999999994
40
0.406249999999994
40
0.406249999999994
40
0.421874999999993
40
0.421874999999993
40
0.437499999999993
40
0.437499999999993
40
0.499999999999992
40
0.499999999999992
40
0.562499999999991
40
0.562499999999991
40
0.62499999999999
40
0.62499999999999
40
0.632812499999991
40
0.632812499999991
40
0.640624999999991
40
0.640624999999991
40
0.656249999999991
40
0.687499999999992
40
0.687499999999992
40
0.749999999999993
40
0.749999999999993
40
0.812499999999995
40
0.812499999999995
40
0.843749999999996
40
0.843749999999996
40
0.859374999999996
40
0.859374999999996
40
0.874999999999997
40
0.874999999999997
40
0.937499999999998
40
0.937499999999998
40
1
40
1
40
1
40
1
41
1
10
14.9500000000001
20
-48.7343696378644
30
0
41
1
10
14.6186180770483
20
-48.7343696378644
30
0
41
1
10
14.2901293667462
20
-48.7380932241918
30
0
41
1
10
13.6387232911421
20
-48.7526151918802
30
0
41
1
10
13.3158065177085
20
-48.7634141371864
30
0
41
1
10
12.6754919299054
20
-48.7917402554333
30
0
41
1
10
12.3580939389171
20
-48.809267872866
30
0
41
1
10
11.9648592282068
20
-48.8351718883636
30
0
41
1
10
11.8863883176173
20
-48.8405524220114
30
0
41
1
10
11.7298017686215
20
-48.8517076682971
30
0
41
1
10
11.6515991381983
20
-48.8574894582082
30
0
41
1
10
11.4187515333456
20
-48.8753220985444
30
0
41
1
10
11.2655498884333
20
-48.8878806568078
30
0
41
1
10
10.811895150555
20
-48.9273980953649
30
0
41
1
10
10.517377974707
20
-48.9561972782341
30
0
41
1
10
9.94380215106827
20
-49.0178549347292
30
0
41
1
10
9.66474394687697
20
-49.0507146985876
30
0
41
1
10
9.2578074013154
20
-49.1024378176854
30
0
41
1
10
9.12410716979446
20
-49.1200845666749
30
0
41
1
10
8.92651453327991
20
-49.1470866090043
30
0
41
1
10
8.8611435080926
20
-49.1561759362458
30
0
41
1
10
8.73139739917741
20
-49.1745189755888
30
0
41
1
10
8.66727138387012
20
-49.1837374881247
30
0
41
1
10
8.35046385487286
20
-49.2300062218261
30
0
41
1
10
8.10907647024374
20
-49.267602508421
30
0
41
1
10
7.64966054039313
20
-49.3429973753042
30
0
41
1
10
7.43163375382831
20
-49.380797599762
30
0
41
1
10
7.01889930623042
20
-49.4556861023258
30
0
41
1
10
6.82418992981574
20
-49.4927759662818
30
0
41
1
10
6.61863457130431
20
-49.5335844296443
30
0
41
1
10
6.59598297197475
20
-49.5381059367661
30
0
41
1
10
6.55105770947233
20
-49.547121570508
30
0
41
1
10
6.5287752132392
20
-49.5516175187617
30
0
41
1
10
6.46267533310359
20
-49.5650253864375
30
0
41
1
10
6.3333005491273
20
-49.5915542938287
30
0
41
1
10
6.21230230261048
20
-49.617172972123
30
0
41
1
10
5.98129593649497
20
-49.6670683357459
30
0
41
1
10
5.8419186123749
20
-49.6985422181599
30
0
41
1
10
5.59213609509969
20
-49.7572475370043
30
0
41
1
10
5.48173027698677
20
-49.7844801347868
30
0
41
1
10
5.33828630346619
20
-49.8216503380533
30
0
41
1
10
5.29417252865383
20
-49.8334271708375
30
0
41
1
10
5.23367267386439
20
-49.8501079866212
30
0
41
1
10
5.21443098384974
20
-49.8555101959131
30
0
41
1
10
5.17800678971318
20
-49.8659342277255
30
0
41
1
10
5.16081455682297
20
-49.8709584653659
30
0
41
1
10
5.0799200132633
20
-49.8951321864374
30
0
41
1
10
5.03138034853981
20
-49.9114393168579
30
0
41
1
10
4.96642087804362
20
-49.93777114671
30
0
41
1
10
4.95000000000006
20
-49.9477962365168
30
0
41
1
10
4.95000000000006
20
-49.9545671986056
30
0
0
SPLINE
5
167
100
AcDbEntity
8
1
62
256
6
ByLayer
370
18
48
1
60
0
100
AcDbSpline
70
4
71
3
72
54
73
50
40
0
40
0
40
0
40
0
40
0.0625000000000046
40
0.0625000000000046
40
0.125000000000009
40
0.125000000000009
40
0.156250000000011
40
0.156250000000011
40
0.171875000000013
40
0.171875000000013
40
0.179687500000013
40
0.179687500000013
40
0.187500000000014
40
0.250000000000017
40
0.250000000000017
40
0.31250000000002
40
0.31250000000002
40
0.343750000000022
40
0.343750000000022
40
0.359375000000023
40
0.359375000000023
40
0.375000000000023
40
0.375000000000023
40
0.437500000000022
40
0.437500000000022
40
0.50000000000002
40
0.50000000000002
40
0.531250000000019
40
0.531250000000019
40
0.546875000000018
40
0.546875000000018
40
0.562500000000017
40
0.562500000000017
40
0.625000000000014
40
0.625000000000014
40
0.687500000000012
40
0.687500000000012
40
0.75000000000001
40
0.75000000000001
40
0.812500000000008
40
0.812500000000008
40
0.828125000000007
40
0.828125000000007
40
0.843750000000006
40
0.875000000000005
40
0.875000000000005
40
0.937500000000002
40
0.937500000000002
40
1
40
1
40
1
40
1
41
1
10
14.6579668481793
20
38.9060242764537
30
0
41
1
10
14.3262055454705
20
38.9060242764537
30
0
41
1
10
13.9982314324205
20
38.8927740584742
30
0
41
1
10
13.3494884639966
20
38.8409468046657
30
0
41
1
10
13.0287211904854
20
38.8023638648199
30
0
41
1
10
12.552897130635
20
38.7255085306534
30
0
41
1
10
12.3951788176721
20
38.6967182657897
30
0
41
1
10
12.1599425935178
20
38.6487040358918
30
0
41
1
10
12.0817541728103
20
38.631893977704
30
0
41
1
10
11.9648088811361
20
38.6054573881724
30
0
41
1
10
11.9258505361288
20
38.5964336327105
30
0
41
1
10
11.8482629583255
20
38.578028176335
30
0
41
1
10
11.5005289804831
20
38.4935751366774
30
0
41
1
10
11.1652705504387
20
38.3946725236202
30
0
41
1
10
10.5875999459265
20
38.1969250689817
30
0
41
1
10
10.3079435270821
20
38.0870837881047
30
0
41
1
10
9.90165447329341
20
37.9059676052274
30
0
41
1
10
9.76842814056982
20
37.8428644174422
30
0
41
1
10
9.57185509555842
20
37.744080036068
30
0
41
1
10
9.50679720570039
20
37.7104203128559
30
0
41
1
10
9.37835931584303
20
37.6420360731437
30
0
41
1
10
9.3149350548901
20
37.6072918684044
30
0
41
1
10
9.00168607829102
20
37.4308471022575
30
0
41
1
10
8.76344828742162
20
37.2809936596243
30
0
41
1
10
8.30963504081856
20
36.9645103482153
30
0
41
1
10
8.09406753443051
20
36.7978760141893
30
0
41
1
10
7.78664486798198
20
36.5355105945935
30
0
41
1
10
7.68682949793859
20
36.4459838849724
30
0
41
1
10
7.5409915732815
20
36.3085877719226
30
0
41
1
10
7.49300338429047
20
36.2622457279512
30
0
41
1
10
7.39871073722377
20
36.168933948457
30
0
41
1
10
7.35235508974077
20
36.1219173484746
30
0
41
1
10
7.12441385726513
20
35.8850538034044
30
0
41
1
10
6.95431142198197
20
35.6898731010346
30
0
41
1
10
6.63611579279176
20
35.2885830304332
30
0
41
1
10
6.48802988911692
20
35.0824716093137
30
0
41
1
10
6.21196751048581
20
34.6596037717813
30
0
41
1
10
6.08399561077694
20
34.4428460931387
30
0
41
1
10
5.84665848574906
20
33.9988565429648
30
0
41
1
10
5.73729627096537
20
33.7716238615614
30
0
41
1
10
5.61146291574023
20
33.4810915639198
30
0
41
1
10
5.58682966850486
20
33.4226330338351
30
0
41
1
10
5.53873784212769
20
33.3053249230112
30
0
41
1
10
5.46832869888438
20
33.1287026457599
30
0
41
1
10
5.40297339132361
20
32.9501121322119
30
0
41
1
10
5.27868145349734
20
32.5903347296151
30
0
41
1
10
5.20437002393042
20
32.3470224395354
30
0
41
1
10
5.07137549330966
20
31.8535937630817
30
0
41
1
10
5.01269470093902
20
31.6034770871432
30
0
41
1
10
4.96121570861114
20
31.35
30
0
0
SPLINE
5
168
100
AcDbEntity
8
1
62
256
6
ByLayer
370
18
48
1
60
0
100
AcDbSpline
70
4
71
3
72
58
73
54
40
0
40
0
40
0
40
0
40
0.0624999999999995
40
0.0624999999999995
40
0.124999999999999
40
0.124999999999999
40
0.187499999999998
40
0.187499999999998
40
0.203124999999998
40
0.203124999999998
40
0.218749999999998
40
0.218749999999998
40
0.249999999999998
40
0.249999999999998
40
0.312499999999998
40
0.312499999999998
40
0.374999999999997
40
0.374999999999997
40
0.406249999999997
40
0.406249999999997
40
0.421874999999997
40
0.421874999999997
40
0.429687499999997
40
0.429687499999997
40
0.437499999999997
40
0.499999999999997
40
0.499999999999997
40
0.562499999999997
40
0.562499999999997
40
0.624999999999998
40
0.624999999999998
40
0.632812499999998
40
0.632812499999998
40
0.640624999999998
40
0.640624999999998
40
0.656249999999998
40
0.687499999999998
40
0.687499999999998
40
0.749999999999998
40
0.749999999999998
40
0.812499999999998
40
0.812499999999998
40
0.843749999999998
40
0.843749999999998
40
0.851562499999999
40
0.851562499999999
40
0.859374999999999
40
0.859374999999999
40
0.874999999999999
40
0.874999999999999
40
0.937499999999999
40
0.937499999999999
40
1
40
1
40
1
40
1
41
1
10
4.94999999999995
20
49.9649955869107
30
0
41
1
10
4.94999999999993
20
49.9648564514862
30
0
41
1
10
4.96639535724594
20
49.9614297711209
30
0
41
1
10
5.03079012918495
20
49.9483282305161
30
0
41
1
10
5.07879290577502
20
49.9386528049884
30
0
41
1
10
5.20617528592703
20
49.913360558211
30
0
41
1
10
5.2855537250436
20
49.8977432003455
30
0
41
1
10
5.40481488311906
20
49.8746982349491
30
0
41
1
10
5.42967135058139
20
49.8699130944682
30
0
41
1
10
5.48141309188898
20
49.8599953876833
30
0
41
1
10
5.50833605914661
20
49.8548556940175
30
0
41
1
10
5.59176278263863
20
49.8390028750116
30
0
41
1
10
5.65098412594429
20
49.8278440931124
30
0
41
1
10
5.83923536919086
20
49.7927497543001
30
0
41
1
10
5.97882664442
20
49.7671969271402
30
0
41
1
10
6.28566007065069
20
49.7125601134017
30
0
41
1
10
6.45290276134619
20
49.6834747686273
30
0
41
1
10
6.72472807627176
20
49.6377773603114
30
0
41
1
10
6.81883642419392
20
49.6222000592038
30
0
41
1
10
6.96533658581002
20
49.5983914265066
30
0
41
1
10
7.01506001162424
20
49.5903814561262
30
0
41
1
10
7.09099523328789
20
49.5782654147636
30
0
41
1
10
7.1165240763516
20
49.574211187792
30
0
41
1
10
7.16789264653997
20
49.5660929330668
30
0
41
1
10
7.40060319140778
20
49.5294925582587
30
0
41
1
10
7.64713918623043
20
49.4923590230609
30
0
41
1
10
8.10670693309032
20
49.4264420405032
30
0
41
1
10
8.34713297584113
20
49.3935310568328
30
0
41
1
10
8.84934930388641
20
49.3287304702773
30
0
41
1
10
9.11113785088074
20
49.2968392696675
30
0
41
1
10
9.41807611856308
20
49.2620739608192
30
0
41
1
10
9.45235340070909
20
49.2582266370262
30
0
41
1
10
9.52125623397231
20
49.2505649163322
30
0
41
1
10
9.55590568536479
20
49.2467479240446
30
0
41
1
10
9.66018379123648
20
49.2353706337422
30
0
41
1
10
9.8699616226439
20
49.2129207084335
30
0
41
1
10
10.0833656513847
20
49.1914366408169
30
0
41
1
10
10.5149408311131
20
49.1498915200009
30
0
41
1
10
10.809002564692
20
49.1240922202927
30
0
41
1
10
11.4097370601155
20
49.076996069962
30
0
41
1
10
11.7164095384446
20
49.0556981620596
30
0
41
1
10
12.186090484687
20
49.027664215513
30
0
41
1
10
12.3442656931892
20
49.0189718879699
30
0
41
1
10
12.5440485131774
20
49.008980071156
30
0
41
1
10
12.5841083314372
20
49.0070253954911
30
0
41
1
10
12.6644358672602
20
49.003204909123
30
0
41
1
10
12.7047159750549
20
49.001338598664
30
0
41
1
10
12.8255808796394
20
48.9958879253751
30
0
41
1
10
12.9062796748493
20
48.9924474346058
30
0
41
1
10
13.3103808608993
20
48.9762212253996
30
0
41
1
10
13.635600603187
20
48.9663646229261
30
0
41
1
10
14.289891263086
20
48.9531432682525
30
0
41
1
10
14.6189620704916
20
48.9497781813156
30
0
41
1
10
14.95
20
48.9497781813156
30
0
0
SPLINE
5
169
100
AcDbEntity
8
1
62
256
6
ByLayer
370
18
48
1
60
0
100
AcDbSpline
70
4
71
3
72
8
73
4
40
0
40
0
40
0
40
0
40
1
40
1
40
1
40
1
41
1
10
28.95
20
-48.0164324372396
30
0
41
1
10
28.716710876918
20
-48.2557877592673
30
0
41
1
10
28.4833769086862
20
-48.4950995430802
30
0
41
1
10
28.2500000000001
20
-48.7343696378644
30
0
0
SPLINE
5
16A
100
AcDbEntity
8
1
62
256
6
ByLayer
370
18
48
1
60
0
100
AcDbSpline
70
4
71
3
72
8
73
4
40
0
40
0
40
0
40
0
40
1
40
1
40
1
40
1
41
1
10
28.95
20
31.3500000000001
30
0
41
1
10
28.717385155116
20
31.35
30
0
41
1
10
28.4840015193126
20
31.35
30
0
41
1
10
28.2499999999999
20
31.35
30
0
0
SPLINE
5
16B
100
AcDbEntity
8
1
62
256
6
ByLayer
370
18
48
1
60
0
100
AcDbSpline
70
4
71
3
72
8
73
4
40
0
40
0
40
0
40
0
40
1
40
1
40
1
40
1
41
1
10
23.2418217614997
20
-48.7343696378644
30
0
41
1
10
22.8024719501863
20
-47.9541774266956
30
0
41
1
10
22.363511531413
20
-47.1737672945195
30
0
41
1
10
21.925
20
-46.393105945446
30
0
0
SPLINE
5
16C
100
AcDbEntity
8
1
62
256
6
ByLayer
370
18
48
1
60
0
100
AcDbSpline
70
4
71
3
72
8
73
4
40
0
40
0
40
0
40
0
40
1
40
1
40
1
40
1
41
1
10
23.2418217614996
20
31.35
30
0
41
1
10
22.7970974394246
20
31.35
30
0
41
1
10
22.3578450722474
20
31.35
30
0
41
1
10
21.9249999999999
20
31.35
30
0
0
SPLINE
5
16D
100
AcDbEntity
8
1
62
256
6
ByLayer
370
18
48
1
60
0
100
AcDbSpline
70
4
71
3
72
8
73
4
40
0
40
0
40
0
40
0
40
1
40
1
40
1
40
1
41
1
10
18.075
20
-46.393105945446
30
0
41
1
10
17.636488468587
20
-47.1737672945195
30
0
41
1
10
17.1975280498137
20
-47.9541774266956
30
0
41
1
10
16.7581782385003
20
-48.7343696378644
30
0
0
SPLINE
5
16E
100
AcDbEntity
8
1
62
256
6
ByLayer
370
18
48
1
60
0
100
AcDbSpline
70
4
71
3
72
8
73
4
40
0
40
0
40
0
40
0
40
1
40
1
40
1
40
1
41
1
10
18.0749999999999
20
31.35
30
0
41
1
10
17.6421549277524
20
31.35
30
0
41
1
10
17.2029025605752
20
31.35
30
0
41
1
10
16.7581782385002
20
31.35
30
0
0
SPLINE
5
16F
100
AcDbEntity
8
SK2
62
256
6
ByLayer
370
18
48
1
60
0
100
AcDbSpline
70
4
71
3
72
31
73
27
40
0
40
0
40
0
40
0
40
0.124999999999999
40
0.124999999999999
40
0.156249999999999
40
0.156249999999999
40
0.187499999999999
40
0.249999999999999
40
0.249999999999999
40
0.375
40
0.375
40
0.5
40
0.5
40
0.53125
40
0.53125
40
0.5625
40
0.5625
40
0.625
40
0.625
40
0.750000000000001
40
0.750000000000001
40
0.875000000000001
40
0.875000000000001
40
0.937500000000001
40
0.937500000000001
40
1
40
1
40
1
40
1
41
1
10
61.5
20
-2.0615528128088
30
0
41
1
10
61.5
20
-1.90031648126327
30
0
41
1
10
61.5
20
-1.73598017665654
30
0
41
1
10
61.5
20
-1.52547897423355
30
0
41
1
10
61.5
20
-1.48307064132132
30
0
41
1
10
61.5
20
-1.39813508048115
30
0
41
1
10
61.5
20
-1.27045597233661
30
0
41
1
10
61.5
20
-1.14191339006635
30
0
41
1
10
61.5
20
-0.883580432087257
30
0
41
1
10
61.5
20
-0.709692499161775
30
0
41
1
10
61.5
20
-0.35809790817558
30
0
41
1
10
61.5
20
-0.180388288715619
30
0
41
1
10
61.5
20
0.0443754570018484
30
0
41
1
10
61.5
20
0.0895365380271755
30
0
41
1
10
61.5
20
0.179404574985881
30
0
41
1
10
61.5
20
0.224179929549905
30
0
41
1
10
61.5
20
0.358042242208455
30
0
41
1
10
61.5
20
0.446665197355145
30
0
41
1
10
61.5
20
0.710787193001693
30
0
41
1
10
61.5
20
0.884538145960448
30
0
41
1
10
61.5
20
1.22802693923839
30
0
41
1
10
61.5
20
1.39776755957078
30
0
41
1
10
61.5
20
1.64986331447216
30
0
41
1
10
61.5
20
1.73362371105938
30
0
41
1
10
61.5
20
1.89894191332758
30
0
41
1
10
61.5
20
1.98065832486316
30
0
41
1
10
61.5
20
2.06155281280897
30
0
0
SPLINE
5
170
100
AcDbEntity
8
SK2
62
256
6
ByLayer
370
18
48
1
60
0
100
AcDbSpline
70
4
71
3
72
31
73
27
40
0
40
0
40
0
40
0
40
0.0624999999999986
40
0.0624999999999986
40
0.124999999999997
40
0.124999999999997
40
0.249999999999996
40
0.249999999999996
40
0.374999999999996
40
0.374999999999996
40
0.437499999999996
40
0.437499999999996
40
0.468749999999996
40
0.468749999999996
40
0.499999999999996
40
0.499999999999996
40
0.624999999999995
40
0.624999999999995
40
0.749999999999995
40
0.749999999999995
40
0.812499999999995
40
0.843749999999995
40
0.843749999999995
40
0.874999999999996
40
0.874999999999996
40
1
40
1
40
1
40
1
41
1
10
53.5000000000001
20
2.06155281280903
30
0
41
1
10
53.5000000000001
20
1.98065832486321
30
0
41
1
10
53.5000000000001
20
1.89894191332766
30
0
41
1
10
53.5000000000001
20
1.73362371105944
30
0
41
1
10
53.5000000000001
20
1.64986331447221
30
0
41
1
10
53.5000000000001
20
1.39776755957081
30
0
41
1
10
53.5000000000001
20
1.22802693923845
30
0
41
1
10
53.5000000000001
20
0.884538145960477
30
0
41
1
10
53.5000000000001
20
0.710787193001721
30
0
41
1
10
53.5000000000001
20
0.446665197355173
30
0
41
1
10
53.5000000000001
20
0.358042242208484
30
0
41
1
10
53.5000000000001
20
0.224179929549905
30
0
41
1
10
53.5000000000001
20
0.179404574985881
30
0
41
1
10
53.5000000000001
20
0.0895365380271755
30
0
41
1
10
53.5000000000001
20
0.0443754570018484
30
0
41
1
10
53.5000000000001
20
-0.180388288715619
30
0
41
1
10
53.5000000000001
20
-0.358097908175608
30
0
41
1
10
53.5000000000001
20
-0.709692499161804
30
0
41
1
10
53.5000000000001
20
-0.883580432087285
30
0
41
1
10
53.5000000000001
20
-1.14191339006638
30
0
41
1
10
53.5000000000001
20
-1.27045597233666
30
0
41
1
10
53.5000000000001
20
-1.39813508048121
30
0
41
1
10
53.5000000000001
20
-1.48307064132138
30
0
41
1
10
53.5000000000001
20
-1.52547897423361
30
0
41
1
10
53.5000000000001
20
-1.7359801766566
30
0
41
1
10
53.5000000000001
20
-1.90031648126336
30
0
41
1
10
53.5000000000001
20
-2.06155281280888
30
0
0
SPLINE
5
171
100
AcDbEntity
8
SK2
62
256
6
ByLayer
370
18
48
1
60
0
100
AcDbSpline
70
4
71
3
72
30
73
26
40
0
40
0
40
0
40
0
40
0.124999999999996
40
0.124999999999996
40
0.249999999999992
40
0.249999999999992
40
0.374999999999988
40
0.374999999999988
40
0.437499999999986
40
0.437499999999986
40
0.453124999999986
40
0.453124999999986
40
0.468749999999987
40
0.499999999999988
40
0.499999999999988
40
0.624999999999995
40
0.624999999999995
40
0.750000000000003
40
0.750000000000003
40
0.812500000000009
40
0.84375000000001
40
0.84375000000001
40
0.87500000000001
40
0.87500000000001
40
1
40
1
40
1
40
1
41
1
10
57.7146428928643
20
-4.49487802154209
30
0
41
1
10
57.8558479342671
20
-4.41335325287724
30
0
41
1
10
57.9985008407088
20
-4.33099255894246
30
0
41
1
10
58.2873708443477
20
-4.16421338458076
30
0
41
1
10
58.4335890588898
20
-4.07979425905444
30
0
41
1
10
58.7303545264171
20
-3.90845663649134
30
0
41
1
10
58.8809044623829
20
-3.82153659043502
30
0
41
1
10
59.1105806478804
20
-3.68893298291164
30
0
41
1
10
59.1877813173601
20
-3.64436115560588
30
0
41
1
10
59.2851443242491
20
-3.58814859736938
30
0
41
1
10
59.3046829765349
20
-3.57686795121259
30
0
41
1
10
59.3437052566699
20
-3.55433842727229
30
0
41
1
10
59.4021627323777
20
-3.52058798793621
30
0
41
1
10
59.4603935883035
20
-3.4869683875923
30
0
41
1
10
59.6539997039436
20
-3.37518984461073
30
0
41
1
10
59.8072900684815
20
-3.28668761138064
30
0
41
1
10
60.1109444917348
20
-3.11137264837473
30
0
41
1
10
60.2613107182146
20
-3.02455866703957
30
0
41
1
10
60.4849337276023
20
-2.89544986237257
30
0
41
1
10
60.5962643956643
20
-2.83117307119789
30
0
41
1
10
60.7069274464083
20
-2.76728172906152
30
0
41
1
10
60.7805604722738
20
-2.72476968175684
30
0
41
1
10
60.8173234710119
20
-2.70354455453921
30
0
41
1
10
61.0001588201816
20
-2.59798451647867
30
0
41
1
10
61.1437942861996
20
-2.51505654150799
30
0
41
1
10
61.2853571071357
20
-2.43332520873329
30
0
0
SPLINE
5
172
100
AcDbEntity
8
SK2
62
256
6
ByLayer
370
18
48
1
60
0
100
AcDbSpline
70
4
71
3
72
30
73
26
40
0
40
0
40
0
40
0
40
0.124999999999996
40
0.124999999999996
40
0.249999999999993
40
0.249999999999993
40
0.374999999999989
40
0.374999999999989
40
0.437499999999985
40
0.437499999999985
40
0.453124999999985
40
0.453124999999985
40
0.468749999999985
40
0.499999999999985
40
0.499999999999985
40
0.624999999999985
40
0.624999999999985
40
0.749999999999985
40
0.749999999999985
40
0.812499999999985
40
0.843749999999986
40
0.843749999999986
40
0.874999999999988
40
0.874999999999988
40
1
40
1
40
1
40
1
41
1
10
61.2853571071358
20
2.43332520873338
30
0
41
1
10
61.1441520657329
20
2.51484997739823
30
0
41
1
10
61.0014991592913
20
2.59721067133302
30
0
41
1
10
60.7126291556524
20
2.76398984569471
30
0
41
1
10
60.5664109411103
20
2.84840897122103
30
0
41
1
10
60.2696454735829
20
3.01974659378416
30
0
41
1
10
60.1190955376171
20
3.10666663984048
30
0
41
1
10
59.8894193521197
20
3.23927024736386
30
0
41
1
10
59.81221868264
20
3.28384207466962
30
0
41
1
10
59.7148556757509
20
3.34005463290612
30
0
41
1
10
59.6953170234651
20
3.35133527906291
30
0
41
1
10
59.6562947433302
20
3.37386480300321
30
0
41
1
10
59.5978372676223
20
3.40761524233929
30
0
41
1
10
59.5396064116966
20
3.4412348426832
30
0
41
1
10
59.3460002960565
20
3.55301338566477
30
0
41
1
10
59.1927099315186
20
3.64151561889489
30
0
41
1
10
58.8890555082653
20
3.8168305819008
30
0
41
1
10
58.7386892817855
20
3.90364456323593
30
0
41
1
10
58.5150662723978
20
4.03275336790296
30
0
41
1
10
58.4037356043357
20
4.09703015907763
30
0
41
1
10
58.2930725535918
20
4.16092150121401
30
0
41
1
10
58.2194395277263
20
4.20343354851869
30
0
41
1
10
58.1826765289882
20
4.22465867573632
30
0
41
1
10
57.9998411798185
20
4.33021871379685
30
0
41
1
10
57.8562057138004
20
4.41314668876754
30
0
41
1
10
57.7146428928643
20
4.49487802154226
30
0
0
SPLINE
5
173
100
AcDbEntity
8
SK2
62
256
6
ByLayer
370
18
48
1
60
0
100
AcDbSpline
70
4
71
3
72
30
73
26
40
0
40
0
40
0
40
0
40
0.125
40
0.125
40
0.25
40
0.25
40
0.375
40
0.375
40
0.4375
40
0.4375
40
0.453125000000001
40
0.453125000000001
40
0.468750000000002
40
0.500000000000004
40
0.500000000000004
40
0.625
40
0.625
40
0.749999999999996
40
0.749999999999996
40
0.812499999999994
40
0.843749999999995
40
0.843749999999995
40
0.874999999999995
40
0.874999999999995
40
1
40
1
40
1
40
1
41
1
10
57.2853571071358
20
4.49487802154223
30
0
41
1
10
57.1441520657329
20
4.41335325287739
30
0
41
1
10
57.0014991592912
20
4.3309925589426
30
0
41
1
10
56.7126291556524
20
4.1642133845809
30
0
41
1
10
56.5664109411103
20
4.07979425905458
30
0
41
1
10
56.2696454735829
20
3.90845663649148
30
0
41
1
10
56.1190955376171
20
3.82153659043513
30
0
41
1
10
55.8894193521197
20
3.68893298291175
30
0
41
1
10
55.81221868264
20
3.64436115560599
30
0
41
1
10
55.7148556757509
20
3.5881485973695
30
0
41
1
10
55.6953170234651
20
3.57686795121271
30
0
41
1
10
55.6562947433302
20
3.5543384272724
30
0
41
1
10
55.5978372676223
20
3.52058798793635
30
0
41
1
10
55.5396064116966
20
3.48696838759244
30
0
41
1
10
55.3460002960565
20
3.37518984461087
30
0
41
1
10
55.1927099315186
20
3.28668761138076
30
0
41
1
10
54.8890555082653
20
3.11137264837484
30
0
41
1
10
54.7386892817855
20
3.02455866703971
30
0
41
1
10
54.5150662723977
20
2.89544986237269
30
0
41
1
10
54.4037356043357
20
2.83117307119801
30
0
41
1
10
54.2930725535917
20
2.76728172906166
30
0
41
1
10
54.2194395277263
20
2.72476968175698
30
0
41
1
10
54.1826765289882
20
2.70354455453932
30
0
41
1
10
53.9998411798185
20
2.59798451647879
30
0
41
1
10
53.8562057138004
20
2.5150565415081
30
0
41
1
10
53.7146428928643
20
2.43332520873341
30
0
0
SPLINE
5
174
100
AcDbEntity
8
SK2
62
256
6
ByLayer
370
18
48
1
60
0
100
AcDbSpline
70
4
71
3
72
30
73
26
40
0
40
0
40
0
40
0
40
0.124999999999991
40
0.124999999999991
40
0.249999999999982
40
0.249999999999982
40
0.374999999999974
40
0.374999999999974
40
0.437499999999969
40
0.437499999999969
40
0.453124999999969
40
0.453124999999969
40
0.468749999999969
40
0.499999999999969
40
0.499999999999969
40
0.624999999999978
40
0.624999999999978
40
0.749999999999987
40
0.749999999999987
40
0.812499999999991
40
0.843749999999991
40
0.843749999999991
40
0.874999999999991
40
0.874999999999991
40
1
40
1
40
1
40
1
41
1
10
53.7146428928642
20
-2.43332520873318
30
0
41
1
10
53.8558479342671
20
-2.51484997739803
30
0
41
1
10
53.9985008407088
20
-2.59721067133282
30
0
41
1
10
54.2873708443476
20
-2.76398984569454
30
0
41
1
10
54.4335890588898
20
-2.84840897122086
30
0
41
1
10
54.7303545264171
20
-3.01974659378396
30
0
41
1
10
54.8809044623829
20
-3.10666663984031
30
0
41
1
10
55.1105806478803
20
-3.23927024736369
30
0
41
1
10
55.1877813173601
20
-3.28384207466945
30
0
41
1
10
55.2851443242491
20
-3.34005463290595
30
0
41
1
10
55.3046829765349
20
-3.35133527906274
30
0
41
1
10
55.3437052566699
20
-3.37386480300305
30
0
41
1
10
55.4021627323777
20
-3.40761524233912
30
0
41
1
10
55.4603935883035
20
-3.44123484268303
30
0
41
1
10
55.6539997039436
20
-3.5530133856646
30
0
41
1
10
55.8072900684815
20
-3.64151561889472
30
0
41
1
10
56.1109444917348
20
-3.81683058190063
30
0
41
1
10
56.2613107182146
20
-3.90364456323579
30
0
41
1
10
56.4849337276024
20
-4.03275336790281
30
0
41
1
10
56.5962643956644
20
-4.09703015907749
30
0
41
1
10
56.7069274464083
20
-4.16092150121384
30
0
41
1
10
56.7805604722738
20
-4.20343354851852
30
0
41
1
10
56.817323471012
20
-4.22465867573618
30
0
41
1
10
57.0001588201816
20
-4.33021871379671
30
0
41
1
10
57.1437942861997
20
-4.41314668876743
30
0
41
1
10
57.2853571071358
20
-4.49487802154212
30
0
0
SPLINE
5
175
100
AcDbEntity
8
SK2
62
256
6
ByLayer
370
18
48
1
60
0
100
AcDbSpline
70
4
71
3
72
31
73
27
40
0
40
0
40
0
40
0
40
0.124999999999999
40
0.124999999999999
40
0.156249999999999
40
0.156249999999999
40
0.187499999999998
40
0.249999999999999
40
0.249999999999999
40
0.374999999999999
40
0.374999999999999
40
0.5
40
0.5
40
0.53125
40
0.53125
40
0.5625
40
0.5625
40
0.625
40
0.625
40
0.750000000000001
40
0.750000000000001
40
0.875000000000001
40
0.875000000000001
40
0.937500000000001
40
0.937500000000001
40
1
40
1
40
1
40
1
41
1
10
95
20
-2.06155281280874
30
0
41
1
10
95
20
-1.90031648126322
30
0
41
1
10
95
20
-1.73598017665651
30
0
41
1
10
95
20
-1.52547897423349
30
0
41
1
10
95.0000000000001
20
-1.48307064132126
30
0
41
1
10
95
20
-1.3981350804811
30
0
41
1
10
95
20
-1.27045597233655
30
0
41
1
10
95
20
-1.14191339006629
30
0
41
1
10
95
20
-0.8835804320872
30
0
41
1
10
95
20
-0.709692499161719
30
0
41
1
10
95
20
-0.358097908175551
30
0
41
1
10
95
20
-0.180388288715591
30
0
41
1
10
95
20
0.0443754570019053
30
0
41
1
10
95
20
0.089536538027204
30
0
41
1
10
95
20
0.179404574985909
30
0
41
1
10
95
20
0.224179929549933
30
0
41
1
10
95
20
0.358042242208512
30
0
41
1
10
95
20
0.446665197355202
30
0
41
1
10
95
20
0.710787193001721
30
0
41
1
10
95
20
0.884538145960477
30
0
41
1
10
95
20
1.22802693923845
30
0
41
1
10
95.0000000000001
20
1.39776755957081
30
0
41
1
10
95
20
1.64986331447219
30
0
41
1
10
95
20
1.73362371105944
30
0
41
1
10
95
20
1.89894191332763
30
0
41
1
10
95
20
1.98065832486319
30
0
41
1
10
95
20
2.061552812809
30
0
0
SPLINE
5
176
100
AcDbEntity
8
SK2
62
256
6
ByLayer
370
18
48
1
60
0
100
AcDbSpline
70
4
71
3
72
31
73
27
40
0
40
0
40
0
40
0
40
0.0625000000000008
40
0.0625000000000008
40
0.125000000000002
40
0.125000000000002
40
0.250000000000001
40
0.250000000000001
40
0.375000000000002
40
0.375000000000002
40
0.437500000000002
40
0.437500000000002
40
0.468750000000002
40
0.468750000000002
40
0.500000000000002
40
0.500000000000002
40
0.625000000000002
40
0.625000000000002
40
0.750000000000003
40
0.750000000000003
40
0.812500000000003
40
0.843750000000002
40
0.843750000000002
40
0.875000000000001
40
0.875000000000001
40
1
40
1
40
1
40
1
41
1
10
87.0000000000001
20
2.06155281280908
30
0
41
1
10
87.0000000000001
20
1.98065832486327
30
0
41
1
10
87.0000000000001
20
1.89894191332769
30
0
41
1
10
87.0000000000001
20
1.73362371105949
30
0
41
1
10
87.0000000000001
20
1.64986331447224
30
0
41
1
10
87.0000000000001
20
1.39776755957087
30
0
41
1
10
87.0000000000001
20
1.22802693923848
30
0
41
1
10
87.0000000000001
20
0.884538145960505
30
0
41
1
10
87.0000000000001
20
0.71078719300175
30
0
41
1
10
87.0000000000001
20
0.446665197355202
30
0
41
1
10
87.0000000000001
20
0.358042242208512
30
0
41
1
10
87.0000000000001
20
0.224179929549962
30
0
41
1
10
87
20
0.179404574985938
30
0
41
1
10
87.0000000000001
20
0.0895365380272324
30
0
41
1
10
87.0000000000001
20
0.0443754570019053
30
0
41
1
10
87.0000000000001
20
-0.180388288715591
30
0
41
1
10
87.0000000000001
20
-0.35809790817558
30
0
41
1
10
87.0000000000001
20
-0.709692499161747
30
0
41
1
10
87.0000000000001
20
-0.883580432087257
30
0
41
1
10
87.0000000000001
20
-1.14191339006635
30
0
41
1
10
87.0000000000001
20
-1.27045597233661
30
0
41
1
10
87.0000000000001
20
-1.39813508048118
30
0
41
1
10
87.0000000000001
20
-1.48307064132132
30
0
41
1
10
87.0000000000001
20
-1.52547897423358
30
0
41
1
10
87.0000000000001
20
-1.73598017665657
30
0
41
1
10
87.0000000000001
20
-1.9003164812633
30
0
41
1
10
87.0000000000001
20
-2.06155281280886
30
0
0
SPLINE
5
177
100
AcDbEntity
8
SK2
62
256
6
ByLayer
370
18
48
1
60
0
100
AcDbSpline
70
4
71
3
72
30
73
26
40
0
40
0
40
0
40
0
40
0.125000000000009
40
0.125000000000009
40
0.250000000000018
40
0.250000000000018
40
0.375000000000028
40
0.375000000000028
40
0.437500000000032
40
0.437500000000032
40
0.453125000000032
40
0.453125000000032
40
0.468750000000031
40
0.500000000000029
40
0.500000000000029
40
0.625000000000024
40
0.625000000000024
40
0.750000000000018
40
0.750000000000018
40
0.812500000000019
40
0.843750000000015
40
0.843750000000015
40
0.875000000000011
40
0.875000000000011
40
1
40
1
40
1
40
1
41
1
10
94.7853571071358
20
2.43332520873341
30
0
41
1
10
94.6441520657329
20
2.51484997739826
30
0
41
1
10
94.5014991592913
20
2.59721067133307
30
0
41
1
10
94.2126291556524
20
2.76398984569477
30
0
41
1
10
94.0664109411103
20
2.84840897122109
30
0
41
1
10
93.7696454735829
20
3.01974659378419
30
0
41
1
10
93.6190955376171
20
3.10666663984051
30
0
41
1
10
93.3894193521197
20
3.23927024736389
30
0
41
1
10
93.31221868264
20
3.28384207466965
30
0
41
1
10
93.2148556757509
20
3.34005463290615
30
0
41
1
10
93.1953170234651
20
3.35133527906296
30
0
41
1
10
93.1562947433302
20
3.37386480300327
30
0
41
1
10
93.0978372676223
20
3.40761524233932
30
0
41
1
10
93.0396064116966
20
3.44123484268323
30
0
41
1
10
92.8460002960564
20
3.5530133856648
30
0
41
1
10
92.6927099315186
20
3.64151561889491
30
0
41
1
10
92.3890555082653
20
3.81683058190083
30
0
41
1
10
92.2386892817855
20
3.90364456323599
30
0
41
1
10
92.0150662723977
20
4.03275336790298
30
0
41
1
10
91.9037356043357
20
4.09703015907766
30
0
41
1
10
91.7930725535917
20
4.16092150121403
30
0
41
1
10
91.7194395277263
20
4.20343354851872
30
0
41
1
10
91.6826765289882
20
4.22465867573638
30
0
41
1
10
91.4998411798185
20
4.33021871379688
30
0
41
1
10
91.3562057138004
20
4.4131466887676
30
0
41
1
10
91.2146428928643
20
4.49487802154229
30
0
0
SPLINE
5
178
100
AcDbEntity
8
SK2
62
256
6
ByLayer
370
18
48
1
60
0
100
AcDbSpline
70
4
71
3
72
30
73
26
40
0
40
0
40
0
40
0
40
0.125000000000005
40
0.125000000000005
40
0.250000000000009
40
0.250000000000009
40
0.375000000000014
40
0.375000000000014
40
0.437500000000016
40
0.437500000000016
40
0.453125000000015
40
0.453125000000015
40
0.468750000000013
40
0.50000000000001
40
0.50000000000001
40
0.625000000000007
40
0.625000000000007
40
0.750000000000003
40
0.750000000000003
40
0.812499999999997
40
0.843749999999998
40
0.843749999999998
40
0.874999999999998
40
0.874999999999998
40
1
40
1
40
1
40
1
41
1
10
91.2146428928643
20
-4.49487802154206
30
0
41
1
10
91.3558479342671
20
-4.41335325287722
30
0
41
1
10
91.4985008407088
20
-4.33099255894243
30
0
41
1
10
91.7873708443476
20
-4.16421338458073
30
0
41
1
10
91.9335890588897
20
-4.07979425905441
30
0
41
1
10
92.2303545264171
20
-3.90845663649128
30
0
41
1
10
92.3809044623829
20
-3.82153659043496
30
0
41
1
10
92.6105806478803
20
-3.68893298291158
30
0
41
1
10
92.6877813173601
20
-3.64436115560582
30
0
41
1
10
92.7851443242491
20
-3.58814859736933
30
0
41
1
10
92.8046829765349
20
-3.57686795121254
30
0
41
1
10
92.8437052566699
20
-3.55433842727223
30
0
41
1
10
92.9021627323777
20
-3.52058798793618
30
0
41
1
10
92.9603935883035
20
-3.48696838759227
30
0
41
1
10
93.1539997039436
20
-3.3751898446107
30
0
41
1
10
93.3072900684815
20
-3.28668761138059
30
0
41
1
10
93.6109444917348
20
-3.11137264837467
30
0
41
1
10
93.7613107182146
20
-3.02455866703954
30
0
41
1
10
93.9849337276023
20
-2.89544986237252
30
0
41
1
10
94.0962643956644
20
-2.83117307119784
30
0
41
1
10
94.2069274464083
20
-2.76728172906149
30
0
41
1
10
94.2805604722738
20
-2.72476968175681
30
0
41
1
10
94.3173234710119
20
-2.70354455453915
30
0
41
1
10
94.5001588201816
20
-2.59798451647862
30
0
41
1
10
94.6437942861997
20
-2.51505654150793
30
0
41
1
10
94.7853571071357
20
-2.43332520873324
30
0
0
SPLINE
5
179
100
AcDbEntity
8
SK2
62
256
6
ByLayer
370
18
48
1
60
0
100
AcDbSpline
70
4
71
3
72
30
73
26
40
0
40
0
40
0
40
0
40
0.125000000000004
40
0.125000000000004
40
0.250000000000008
40
0.250000000000008
40
0.375000000000012
40
0.375000000000012
40
0.437500000000014
40
0.437500000000014
40
0.453125000000012
40
0.453125000000012
40
0.468750000000011
40
0.500000000000008
40
0.500000000000008
40
0.625000000000004
40
0.625000000000004
40
0.75
40
0.75
40
0.812499999999993
40
0.843749999999993
40
0.843749999999993
40
0.874999999999994
40
0.874999999999994
40
1
40
1
40
1
40
1
41
1
10
90.7853571071358
20
4.49487802154229
30
0
41
1
10
90.644152065733
20
4.41335325287741
30
0
41
1
10
90.5014991592912
20
4.33099255894263
30
0
41
1
10
90.2126291556524
20
4.16421338458093
30
0
41
1
10
90.0664109411102
20
4.07979425905461
30
0
41
1
10
89.7696454735829
20
3.90845663649151
30
0
41
1
10
89.6190955376171
20
3.82153659043519
30
0
41
1
10
89.3894193521197
20
3.68893298291181
30
0
41
1
10
89.3122186826399
20
3.64436115560605
30
0
41
1
10
89.2148556757509
20
3.58814859736955
30
0
41
1
10
89.1953170234651
20
3.57686795121276
30
0
41
1
10
89.1562947433302
20
3.55433842727246
30
0
41
1
10
89.0978372676223
20
3.52058798793638
30
0
41
1
10
89.0396064116966
20
3.48696838759247
30
0
41
1
10
88.8460002960564
20
3.3751898446109
30
0
41
1
10
88.6927099315186
20
3.28668761138078
30
0
41
1
10
88.3890555082653
20
3.1113726483749
30
0
41
1
10
88.2386892817855
20
3.02455866703974
30
0
41
1
10
88.0150662723977
20
2.89544986237274
30
0
41
1
10
87.9037356043357
20
2.83117307119804
30
0
41
1
10
87.7930725535917
20
2.76728172906169
30
0
41
1
10
87.7194395277263
20
2.72476968175701
30
0
41
1
10
87.6826765289882
20
2.70354455453935
30
0
41
1
10
87.4998411798184
20
2.59798451647885
30
0
41
1
10
87.3562057138004
20
2.51505654150816
30
0
41
1
10
87.2146428928643
20
2.43332520873344
30
0
0
SPLINE
5
17A
100
AcDbEntity
8
SK2
62
256
6
ByLayer
370
18
48
1
60
0
100
AcDbSpline
70
4
71
3
72
30
73
26
40
0
40
0
40
0
40
0
40
0.124999999999977
40
0.124999999999977
40
0.249999999999953
40
0.249999999999953
40
0.374999999999929
40
0.374999999999929
40
0.437499999999918
40
0.437499999999918
40
0.453124999999919
40
0.453124999999919
40
0.46874999999992
40
0.499999999999923
40
0.499999999999923
40
0.624999999999941
40
0.624999999999941
40
0.749999999999959
40
0.749999999999959
40
0.812499999999973
40
0.843749999999975
40
0.843749999999975
40
0.874999999999978
40
0.874999999999978
40
1
40
1
40
1
40
1
41
1
10
87.2146428928642
20
-2.43332520873312
30
0
41
1
10
87.3558479342671
20
-2.514849977398
30
0
41
1
10
87.4985008407088
20
-2.59721067133279
30
0
41
1
10
87.7873708443476
20
-2.76398984569448
30
0
41
1
10
87.9335890588897
20
-2.84840897122081
30
0
41
1
10
88.2303545264171
20
-3.01974659378394
30
0
41
1
10
88.3809044623829
20
-3.10666663984026
30
0
41
1
10
88.6105806478803
20
-3.23927024736366
30
0
41
1
10
88.6877813173601
20
-3.28384207466942
30
0
41
1
10
88.7851443242491
20
-3.34005463290592
30
0
41
1
10
88.8046829765349
20
-3.35133527906271
30
0
41
1
10
88.8437052566699
20
-3.37386480300302
30
0
41
1
10
88.9021627323777
20
-3.40761524233909
30
0
41
1
10
88.9603935883035
20
-3.441234842683
30
0
41
1
10
89.1539997039436
20
-3.55301338566457
30
0
41
1
10
89.3072900684815
20
-3.64151561889469
30
0
41
1
10
89.6109444917348
20
-3.8168305819006
30
0
41
1
10
89.7613107182146
20
-3.90364456323576
30
0
41
1
10
89.9849337276023
20
-4.03275336790276
30
0
41
1
10
90.0962643956644
20
-4.09703015907743
30
0
41
1
10
90.2069274464083
20
-4.16092150121381
30
0
41
1
10
90.2805604722738
20
-4.20343354851849
30
0
41
1
10
90.3173234710119
20
-4.22465867573615
30
0
41
1
10
90.5001588201816
20
-4.33021871379668
30
0
41
1
10
90.6437942861997
20
-4.41314668876737
30
0
41
1
10
90.7853571071358
20
-4.49487802154206
30
0
0
SPLINE
5
17B
100
AcDbEntity
8
SK1
62
256
6
ByLayer
370
18
48
1
60
0
100
AcDbSpline
70
4
71
3
72
8
73
4
40
0
40
0
40
0
40
0
40
1
40
1
40
1
40
1
41
1
10
-48.2500000000026
20
32.2214193285101
30
0
41
1
10
-48.1701858378083
20
32.2200218675635
30
0
41
1
10
-48.0872671766728
20
32.2186394162914
30
0
41
1
10
-48.0000748840349
20
32.218019138109
30
0
0
SPLINE
5
17C
100
AcDbEntity
8
SK1
62
256
6
ByLayer
370
18
48
1
60
0
100
AcDbSpline
70
4
71
3
72
24
73
20
40
0
40
0
40
0
40
0
40
0.249999999999991
40
0.249999999999991
40
0.374999999999991
40
0.374999999999991
40
0.499999999999991
40
0.499999999999991
40
0.624999999999991
40
0.624999999999991
40
0.749999999999991
40
0.749999999999991
40
0.874999999999991
40
0.874999999999991
40
0.906249999999994
40
0.906249999999994
40
0.937499999999997
40
0.937499999999997
40
1
40
1
40
1
40
1
41
1
10
-48.25
20
32.2214193285101
30
0
41
1
10
-48.3271926111222
20
32.1386292038046
30
0
41
1
10
-48.4027254550249
20
32.0509309488242
30
0
41
1
10
-48.5122536734004
20
31.9125479314376
30
0
41
1
10
-48.5481266401183
20
31.8652831022075
30
0
41
1
10
-48.6182017881531
20
31.7686438086851
30
0
41
1
10
-48.6524093294458
20
31.7192662685851
30
0
41
1
10
-48.7185086625098
20
31.6186890095603
30
0
41
1
10
-48.7504115090575
20
31.5674830406984
30
0
41
1
10
-48.8107717948453
20
31.4637946573967
30
0
41
1
10
-48.8392507208949
20
31.4113006072306
30
0
41
1
10
-48.8906789766633
20
31.3061007614428
30
0
41
1
10
-48.9136547790547
20
31.2533832647302
30
0
41
1
10
-48.9365349150509
20
31.1885898499223
30
0
41
1
10
-48.9408137478883
20
31.1756889350704
30
0
41
1
10
-48.9486963493386
20
31.1500434137229
30
0
41
1
10
-48.9523012357625
20
31.1372877467466
30
0
41
1
10
-48.961899115855
20
31.0996482574302
30
0
41
1
10
-48.9667024377094
20
31.0752954805268
30
0
41
1
10
-48.9697166806892
20
31.0518395799779
30
0
0
SPLINE
5
17D
100
AcDbEntity
8
SK1
62
256
6
ByLayer
370
18
48
1
60
0
100
AcDbSpline
70
4
71
3
72
70
73
66
40
0
40
0
40
0
40
0
40
0.124999999999984
40
0.124999999999984
40
0.187499999999977
40
0.187499999999977
40
0.24999999999997
40
0.24999999999997
40
0.312499999999963
40
0.312499999999963
40
0.343749999999963
40
0.343749999999963
40
0.374999999999962
40
0.374999999999962
40
0.406249999999962
40
0.406249999999962
40
0.421874999999961
40
0.421874999999961
40
0.437499999999961
40
0.437499999999961
40
0.45312499999996
40
0.45312499999996
40
0.46874999999996
40
0.46874999999996
40
0.48437499999996
40
0.48437499999996
40
0.492187499999958
40
0.492187499999958
40
0.49609374999996
40
0.49609374999996
40
0.499999999999961
40
0.499999999999961
40
0.507812499999959
40
0.507812499999959
40
0.51171874999996
40
0.51171874999996
40
0.515624999999962
40
0.515624999999962
40
0.523437499999963
40
0.523437499999963
40
0.531249999999964
40
0.531249999999964
40
0.539062499999965
40
0.539062499999965
40
0.546874999999966
40
0.546874999999966
40
0.562499999999969
40
0.562499999999969
40
0.578124999999971
40
0.578124999999971
40
0.593749999999973
40
0.593749999999973
40
0.624999999999976
40
0.624999999999976
40
0.656249999999979
40
0.656249999999979
40
0.687499999999982
40
0.687499999999982
40
0.749999999999986
40
0.749999999999986
40
0.81249999999999
40
0.81249999999999
40
0.874999999999994
40
0.874999999999994
40
1
40
1
40
1
40
1
41
1
10
-48.9697166806892
20
31.0518395799779
30
0
41
1
10
-48.9785920072055
20
30.9827745518777
30
0
41
1
10
-48.9897988429114
20
30.9117001184864
30
0
41
1
10
-49.0109647633669
20
30.8017584669496
30
0
41
1
10
-49.0187527653912
20
30.7645416601611
30
0
41
1
10
-49.0360874261684
20
30.6887408851892
30
0
41
1
10
-49.0456289023847
20
30.6501609458559
30
0
41
1
10
-49.0669675034834
20
30.5712475494468
30
0
41
1
10
-49.0787629361654
20
30.530893441821
30
0
41
1
10
-49.0987562930167
20
30.4688294272673
30
0
41
1
10
-49.1058105146939
20
30.4478732539886
30
0
41
1
10
-49.1209098209549
20
30.4052791757409
30
0
41
1
10
-49.1289512012186
20
30.3836438194114
30
0
41
1
10
-49.1463779452359
20
30.3394484216821
30
0
41
1
10
-49.1557499117388
20
30.3169102508096
30
0
41
1
10
-49.1712062282394
20
30.2823125423255
30
0
41
1
10
-49.1765967098926
20
30.2706398289814
30
0
41
1
10
-49.1879974293993
20
30.2469300410997
30
0
41
1
10
-49.1940016588577
20
30.2349054963977
30
0
41
1
10
-49.2067373070772
20
30.2105832680135
30
0
41
1
10
-49.2134742645571
20
30.1982668746681
30
0
41
1
10
-49.228026499319
20
30.1731804834015
30
0
41
1
10
-49.2358273164299
20
30.1604165682766
30
0
41
1
10
-49.2532197444654
20
30.1341354250797
30
0
41
1
10
-49.2626054593652
20
30.1209142770366
30
0
41
1
10
-49.2783752527355
20
30.1011170203328
30
0
41
1
10
-49.2839152326939
20
30.0945400212553
30
0
41
1
10
-49.2924720071778
20
30.0850799204041
30
0
41
1
10
-49.2953766356615
20
30.0819802199011
30
0
41
1
10
-49.3013049674438
20
30.0759028407194
30
0
41
1
10
-49.3043370960421
20
30.0729194623549
30
0
41
1
10
-49.3133471331081
20
30.0644412999447
30
0
41
1
10
-49.3193261585455
20
30.0593250574938
30
0
41
1
10
-49.3282527570288
20
30.0524630297548
30
0
41
1
10
-49.3312153507717
20
30.0503179942721
30
0
41
1
10
-49.3369592386177
20
30.0464039042834
30
0
41
1
10
-49.3397632724007
20
30.0446168883953
30
0
41
1
10
-49.3479935042788
20
30.0397111939898
30
0
41
1
10
-49.3532502018285
20
30.03704848246
30
0
41
1
10
-49.3630298315474
20
30.0328279696563
30
0
41
1
10
-49.3676116126624
20
30.0312334148451
30
0
41
1
10
-49.3763182059847
20
30.028809349952
30
0
41
1
10
-49.3804580471841
20
30.0279815778644
30
0
41
1
10
-49.3882378147311
20
30.0269399205923
30
0
41
1
10
-49.3918959362059
20
30.0267193374016
30
0
41
1
10
-49.4023455028564
20
30.0267374574297
30
0
41
1
10
-49.408620627861
20
30.0276450476096
30
0
41
1
10
-49.4202799499306
20
30.0306144150718
30
0
41
1
10
-49.4256604855128
20
30.0326871954357
30
0
41
1
10
-49.4357579429472
20
30.0376666472005
30
0
41
1
10
-49.4404341462284
20
30.0405548764117
30
0
41
1
10
-49.4536465627314
20
30.0500926742597
30
0
41
1
10
-49.4613809145858
20
30.0576000217038
30
0
41
1
10
-49.4755165521726
20
30.0740407434774
30
0
41
1
10
-49.4819043194365
20
30.0829885789797
30
0
41
1
10
-49.4937222729308
20
30.1019086074983
30
0
41
1
10
-49.4991481547126
20
30.1118854051319
30
0
41
1
10
-49.5143265433232
20
30.1429917109392
30
0
41
1
10
-49.5230060395862
20
30.1653087850472
30
0
41
1
10
-49.538411474062
20
30.2117943224838
30
0
41
1
10
-49.5451285655855
20
30.2359789659315
30
0
41
1
10
-49.5571407002955
20
30.2857071777952
30
0
41
1
10
-49.562429976421
20
30.3112562572779
30
0
41
1
10
-49.576621712105
20
30.389505188263
30
0
41
1
10
-49.5838739667783
20
30.4437819936303
30
0
41
1
10
-49.5895655549791
20
30.4995501889748
30
0
0
SPLINE
5
17E
100
AcDbEntity
8
SK1
62
256
6
ByLayer
370
18
48
1
60
0
100
AcDbSpline
70
4
71
3
72
34
73
30
40
0
40
0
40
0
40
0
40
0.0312500000000004
40
0.0312500000000004
40
0.0625000000000008
40
0.0625000000000008
40
0.124999999999999
40
0.124999999999999
40
0.187499999999998
40
0.187499999999998
40
0.249999999999997
40
0.249999999999997
40
0.312499999999995
40
0.312499999999995
40
0.343749999999996
40
0.343749999999996
40
0.374999999999997
40
0.374999999999997
40
0.499999999999995
40
0.499999999999995
40
0.624999999999996
40
0.624999999999996
40
0.749999999999997
40
0.749999999999997
40
0.874999999999998
40
0.874999999999998
40
0.937499999999999
40
0.937499999999999
40
1
40
1
40
1
40
1
41
1
10
-49.5895655549783
20
30.4995501889756
30
0
41
1
10
-49.5906351288661
20
30.510030252432
30
0
41
1
10
-49.5921127463332
20
30.519907772587
30
0
41
1
10
-49.5958301509184
20
30.5385031752346
30
0
41
1
10
-49.598073228167
20
30.5472322605516
30
0
41
1
10
-49.6058113389978
20
30.5717013681045
30
0
41
1
10
-49.6122375259956
20
30.5855321316439
30
0
41
1
10
-49.6267759592584
20
30.6092890583969
30
0
41
1
10
-49.6348867534572
20
30.6192155991344
30
0
41
1
10
-49.6521095088274
20
30.6359601993528
30
0
41
1
10
-49.6612224168294
20
30.6427764210178
30
0
41
1
10
-49.6799383965106
20
30.6538558693999
30
0
41
1
10
-49.6895428780526
20
30.6581170880886
30
0
41
1
10
-49.7040332900464
20
30.6628782929078
30
0
41
1
10
-49.7088807488956
20
30.6641925125832
30
0
41
1
10
-49.7185317643563
20
30.6663048922732
30
0
41
1
10
-49.723339540392
20
30.6671046840936
30
0
41
1
10
-49.7472116456448
20
30.669914592121
30
0
41
1
10
-49.7657471332943
20
30.6684012417398
30
0
41
1
10
-49.8002578924658
20
30.659373279486
30
0
41
1
10
-49.8162473661745
20
30.6518382094736
30
0
41
1
10
-49.8447043216353
20
30.6315402109465
30
0
41
1
10
-49.857177936009
20
30.6187684321093
30
0
41
1
10
-49.8777806482731
20
30.5885036001345
30
0
41
1
10
-49.8859126744472
20
30.5710058767977
30
0
41
1
10
-49.8942491563155
20
30.5415331247566
30
0
41
1
10
-49.896384303019
20
30.5311708738664
30
0
41
1
10
-49.8992628761556
20
30.5094245379122
30
0
41
1
10
-49.9
20
30.4980717145812
30
0
41
1
10
-49.9000000000001
20
30.486325550098
30
0
0
SPLINE
5
17F
100
AcDbEntity
8
SK1
62
256
6
ByLayer
370
18
48
1
60
0
100
AcDbSpline
70
4
71
3
72
26
73
22
40
0
40
0
40
0
40
0
40
0.12500000000001
40
0.12500000000001
40
0.156250000000012
40
0.156250000000012
40
0.187500000000015
40
0.187500000000015
40
0.250000000000016
40
0.250000000000016
40
0.375000000000017
40
0.375000000000017
40
0.500000000000015
40
0.500000000000015
40
0.562500000000014
40
0.562500000000014
40
0.625000000000013
40
0.625000000000013
40
0.750000000000009
40
0.750000000000009
40
1
40
1
40
1
40
1
41
1
10
-49.6803455045438
20
-30.3774556099035
30
0
41
1
10
-49.6826466725057
20
-30.4177976277118
30
0
41
1
10
-49.6885779490542
20
-30.451199709692
30
0
41
1
10
-49.6993728100178
20
-30.4853880561095
30
0
41
1
10
-49.7016978917135
20
-30.491849249083
30
0
41
1
10
-49.7066424416953
20
-30.5040509634646
30
0
41
1
10
-49.7092669763271
20
-30.5098010237183
30
0
41
1
10
-49.7174822299178
20
-30.5259403501964
30
0
41
1
10
-49.7234030801493
20
-30.5352153562698
30
0
41
1
10
-49.7420007665262
20
-30.5592247592351
30
0
41
1
10
-49.7554901907108
20
-30.5701798932251
30
0
41
1
10
-49.7826003725112
20
-30.5843374606963
30
0
41
1
10
-49.7962305385268
20
-30.5875234193368
30
0
41
1
10
-49.8156911072293
20
-30.5875089686903
30
0
41
1
10
-49.8220175105964
20
-30.5866993977801
30
0
41
1
10
-49.8342006020736
20
-30.5835895825154
30
0
41
1
10
-49.8400654924927
20
-30.581283680967
30
0
41
1
10
-49.8566753045913
20
-30.5723195195696
30
0
41
1
10
-49.8664422955215
20
-30.563631467543
30
0
41
1
10
-49.8906557219727
20
-30.5306432537628
30
0
41
1
10
-49.8999999999999
20
-30.4994350136778
30
0
41
1
10
-49.9
20
-30.461345205321
30
0
0
SPLINE
5
180
100
AcDbEntity
8
SK1
62
256
6
ByLayer
370
18
48
1
60
0
100
AcDbSpline
70
4
71
3
72
79
73
75
40
0
40
0
40
0
40
0
40
0.124999999999977
40
0.124999999999977
40
0.187499999999966
40
0.187499999999966
40
0.249999999999956
40
0.249999999999956
40
0.312499999999944
40
0.312499999999944
40
0.343749999999938
40
0.343749999999938
40
0.374999999999932
40
0.374999999999932
40
0.406249999999926
40
0.406249999999926
40
0.421874999999923
40
0.421874999999923
40
0.437499999999921
40
0.437499999999921
40
0.453124999999918
40
0.453124999999918
40
0.460937499999917
40
0.460937499999917
40
0.468749999999916
40
0.468749999999916
40
0.476562499999915
40
0.476562499999915
40
0.484374999999914
40
0.484374999999914
40
0.492187499999913
40
0.492187499999913
40
0.496093749999911
40
0.496093749999911
40
0.49999999999991
40
0.49999999999991
40
0.503906249999909
40
0.503906249999909
40
0.507812499999908
40
0.507812499999908
40
0.511718749999906
40
0.511718749999906
40
0.515624999999905
40
0.519531249999904
40
0.519531249999904
40
0.523437499999903
40
0.523437499999903
40
0.531249999999903
40
0.531249999999903
40
0.539062499999904
40
0.539062499999904
40
0.546874999999905
40
0.546874999999905
40
0.562499999999909
40
0.562499999999909
40
0.578124999999912
40
0.578124999999912
40
0.593749999999916
40
0.593749999999916
40
0.609374999999919
40
0.609374999999919
40
0.624999999999923
40
0.624999999999923
40
0.656249999999929
40
0.656249999999929
40
0.687499999999936
40
0.687499999999936
40
0.749999999999948
40
0.749999999999948
40
0.812499999999961
40
0.812499999999961
40
0.874999999999973
40
0.874999999999973
40
1
40
1
40
1
40
1
41
1
10
-48.8107662132843
20
-31.1522564317148
30
0
41
1
10
-48.8207523906185
20
-31.0468389955468
30
0
41
1
10
-48.8347977886098
20
-30.9380353110939
30
0
41
1
10
-48.863237913532
20
-30.76867995442
30
0
41
1
10
-48.8739567807322
20
-30.7111947264157
30
0
41
1
10
-48.8983160849201
20
-30.5937870634854
30
0
41
1
10
-48.9119361518275
20
-30.5339456016289
30
0
41
1
10
-48.942707331959
20
-30.4117048270231
30
0
41
1
10
-48.959845367525
20
-30.3492846666251
30
0
41
1
10
-48.9892122906686
20
-30.2529399334579
30
0
41
1
10
-48.9996172942046
20
-30.2203681191084
30
0
41
1
10
-49.0219813405053
20
-30.1540718734649
30
0
41
1
10
-49.0339246793493
20
-30.1203879291754
30
0
41
1
10
-49.0597546696231
20
-30.0518315003509
30
0
41
1
10
-49.0736370870419
20
-30.0169394084226
30
0
41
1
10
-49.0966115318847
20
-29.9632364691663
30
0
41
1
10
-49.1046321805198
20
-29.9451054649243
30
0
41
1
10
-49.1216148192032
20
-29.9082461285314
30
0
41
1
10
-49.1305700741602
20
-29.8895321072081
30
0
41
1
10
-49.1495989668137
20
-29.8516211944068
30
0
41
1
10
-49.1596796879744
20
-29.8323965422854
30
0
41
1
10
-49.1760547886479
20
-29.8029634286046
30
0
41
1
10
-49.1817244171714
20
-29.7930519611599
30
0
41
1
10
-49.1936049787253
20
-29.7729717009433
30
0
41
1
10
-49.1998257683409
20
-29.7627880777069
30
0
41
1
10
-49.2128308013284
20
-29.7423256977794
30
0
41
1
10
-49.2196268301043
20
-29.7320233676748
30
0
41
1
10
-49.2340213128809
20
-29.7112242193741
30
0
41
1
10
-49.2416110529624
20
-29.7007458702754
30
0
41
1
10
-49.2575031351017
20
-29.6800713775649
30
0
41
1
10
-49.2658380493683
20
-29.6698202438741
30
0
41
1
10
-49.2791862436769
20
-29.6546308436327
30
0
41
1
10
-49.2837741648607
20
-29.6496083756154
30
0
41
1
10
-49.2930003400936
20
-29.63994524176
30
0
41
1
10
-49.2976697254006
20
-29.6352683475385
30
0
41
1
10
-49.3071329803951
20
-29.6262565684361
30
0
41
1
10
-49.311968457865
20
-29.6218884774033
30
0
41
1
10
-49.3214736463001
20
-29.6137847629653
30
0
41
1
10
-49.3261621837208
20
-29.610026809936
30
0
41
1
10
-49.3354171762959
20
-29.6030710394338
30
0
41
1
10
-49.3400042746415
20
-29.5998599713776
30
0
41
1
10
-49.3489704146129
20
-29.5940326966685
30
0
41
1
10
-49.3576063578984
20
-29.5888732254697
30
0
41
1
10
-49.3656869050428
20
-29.5848370105252
30
0
41
1
10
-49.3735293784242
20
-29.5812822858604
30
0
41
1
10
-49.3773481206099
20
-29.5797403598065
30
0
41
1
10
-49.3883502011647
20
-29.575792842739
30
0
41
1
10
-49.3950862147044
20
-29.5740450582449
30
0
41
1
10
-49.4077343741282
20
-29.5717657962549
30
0
41
1
10
-49.4136422709844
20
-29.5712405917597
30
0
41
1
10
-49.4248380081821
20
-29.5711055956674
30
0
41
1
10
-49.4301027025762
20
-29.5715007547434
30
0
41
1
10
-49.4449678719848
20
-29.5737061548779
30
0
41
1
10
-49.4537487107807
20
-29.5765145535871
30
0
41
1
10
-49.4699151336036
20
-29.5837846563609
30
0
41
1
10
-49.4772864900778
20
-29.5882632193459
30
0
41
1
10
-49.491033168712
20
-29.5984005949038
30
0
41
1
10
-49.497403937701
20
-29.6040648027508
30
0
41
1
10
-49.5093887593111
20
-29.6162898885378
30
0
41
1
10
-49.514990087856
20
-29.6228436423372
30
0
41
1
10
-49.5255324102159
20
-29.6365663832435
30
0
41
1
10
-49.5304827245515
20
-29.6437470340771
30
0
41
1
10
-49.5445644756583
20
-29.6660544230691
30
0
41
1
10
-49.5529365392993
20
-29.6819368268862
30
0
41
1
10
-49.5682708760771
20
-29.7151045420348
30
0
41
1
10
-49.5752262670633
20
-29.7323967019159
30
0
41
1
10
-49.5944919615918
20
-29.7858658460081
30
0
41
1
10
-49.6052282011199
20
-29.823609209214
30
0
41
1
10
-49.6239958360567
20
-29.9017875739423
30
0
41
1
10
-49.6320044071804
20
-29.9422452883152
30
0
41
1
10
-49.6460382027979
20
-30.02513438044
30
0
41
1
10
-49.6520570014112
20
-30.0675875187201
30
0
41
1
10
-49.6677597109614
20
-30.1970770407967
30
0
41
1
10
-49.6751434128412
20
-30.2862571925864
30
0
41
1
10
-49.6803455045438
20
-30.3774556099035
30
0
0
SPLINE
5
181
100
AcDbEntity
8
SK1
62
256
6
ByLayer
370
18
48
1
60
0
100
AcDbSpline
70
4
71
3
72
22
73
18
40
0
40
0
40
0
40
0
40
0.25
40
0.25
40
0.375000000000001
40
0.375000000000001
40
0.500000000000002
40
0.500000000000002
40
0.625000000000003
40
0.625000000000003
40
0.750000000000004
40
0.750000000000004
40
0.875000000000005
40
0.875000000000005
40
0.937500000000002
40
0.937500000000002
40
1
40
1
40
1
40
1
41
1
10
-48.20375
20
-32.2181660739544
30
0
41
1
10
-48.2737896568833
20
-32.1406054524218
30
0
41
1
10
-48.3417739186829
20
-32.0588532344577
30
0
41
1
10
-48.4388914764234
20
-31.9307826623015
30
0
41
1
10
-48.4704434350604
20
-31.8871899076968
30
0
41
1
10
-48.531401090616
20
-31.7984410192158
30
0
41
1
10
-48.5608102877274
20
-31.753282888709
30
0
41
1
10
-48.6167419021676
20
-31.6617679387246
30
0
41
1
10
-48.6432690328274
20
-31.6154085875363
30
0
41
1
10
-48.6923318001705
20
-31.5220506594835
30
0
41
1
10
-48.7148712626934
20
-31.4750505517752
30
0
41
1
10
-48.7543493944711
20
-31.3812349209039
30
0
41
1
10
-48.7712829155222
20
-31.3344240415513
30
0
41
1
10
-48.7908820151232
20
-31.2651460007095
30
0
41
1
10
-48.7964443706483
20
-31.2422112565102
30
0
41
1
10
-48.8053459563061
20
-31.1967884432227
30
0
41
1
10
-48.8086824422018
20
-31.1742534179193
30
0
41
1
10
-48.810766213284
20
-31.1522564317151
30
0
0
SPLINE
5
182
100
AcDbEntity
8
SK1
62
256
6
ByLayer
370
18
48
1
60
0
100
AcDbSpline
70
4
71
3
72
8
73
4
40
0
40
0
40
0
40
0
40
1
40
1
40
1
40
1
41
1
10
-48.2037500000013
20
-32.2181660739542
30
0
41
1
10
-48.1381154484482
20
-32.2167467927087
30
0
41
1
10
-48.0704205135131
20
-32.2155176815098
30
0
41
1
10
-48.0000748840326
20
-32.214899599982
30
0
0
SPLINE
5
183
100
AcDbEntity
8
SK1
62
256
6
ByLayer
370
18
48
1
60
0
100
AcDbSpline
70
4
71
3
72
100
73
96
40
0
40
0
40
0
40
0
40
0.0238842482881436
40
0.0238842482881436
40
0.0551296741002568
40
0.0551296741002568
40
0.0707523870063135
40
0.0707523870063135
40
0.0785637434593417
40
0.0785637434593417
40
0.08637509991237
40
0.08637509991237
40
0.117620525724483
40
0.117620525724483
40
0.148865951536597
40
0.148865951536597
40
0.164488664442653
40
0.164488664442653
40
0.172300020895682
40
0.172300020895682
40
0.18011137734871
40
0.18011137734871
40
0.211356803160823
40
0.211356803160823
40
0.242602228972936
40
0.242602228972936
40
0.258224941878992
40
0.258224941878992
40
0.266036298332021
40
0.266036298332021
40
0.273847654785049
40
0.273847654785049
40
0.305093080597162
40
0.305093080597162
40
0.336338506409274
40
0.367583932221387
40
0.367583932221387
40
0.375395288674415
40
0.375395288674415
40
0.383206645127443
40
0.3988293580335
40
0.3988293580335
40
0.430074783845612
40
0.461320209657724
40
0.461320209657724
40
0.476942922563781
40
0.476942922563781
40
0.484754279016809
40
0.484754279016809
40
0.492565635469837
40
0.492565635469837
40
0.52381106128195
40
0.52381106128195
40
0.555056487094063
40
0.555056487094063
40
0.586301912906175
40
0.586301912906175
40
0.601924625812231
40
0.601924625812231
40
0.609735982265259
40
0.609735982265259
40
0.617547338718287
40
0.617547338718287
40
0.648792764530399
40
0.680038190342512
40
0.680038190342512
40
0.711283616154623
40
0.711283616154623
40
0.719094972607652
40
0.719094972607652
40
0.72690632906068
40
0.72690632906068
40
0.742529041966736
40
0.742529041966736
40
0.773774467778848
40
0.773774467778848
40
0.80501989359096
40
0.80501989359096
40
0.836265319403073
40
0.836265319403073
40
0.844076675856101
40
0.844076675856101
40
0.851888032309129
40
0.867510745215185
40
0.867510745215185
40
0.898756171027296
40
0.898756171027296
40
0.930001596839408
40
0.930001596839408
40
0.945624309745463
40
0.945624309745463
40
0.961247022651519
40
0.961247022651519
40
0.992492448463631
40
1
40
1
40
1
40
1
41
1
10
-7.81434278932775
20
37.616001914313
30
0
41
1
10
-7.8143319144004
20
37.6160034629659
30
0
41
1
10
-7.82145285563466
20
37.6145613759501
30
0
41
1
10
-7.85398639016557
20
37.6079890454921
30
0
41
1
10
-7.88436169025053
20
37.6018587592899
30
0
41
1
10
-7.9478626297211
20
37.5891496233603
30
0
41
1
10
-7.97202496076235
20
37.584327300096
30
0
41
1
10
-8.01281842288566
20
37.5762238920478
30
0
41
1
10
-8.02719804135737
20
37.5733731876624
30
0
41
1
10
-8.05736797740434
20
37.5674069302578
30
0
41
1
10
-8.07314358608417
20
37.5642942690055
30
0
41
1
10
-8.15541671604804
20
37.5481048669995
30
0
41
1
10
-8.23207017172504
20
37.5331528904395
30
0
41
1
10
-8.40605338627101
20
37.4997459648323
30
0
41
1
10
-8.50338630322294
20
37.4812899916831
30
0
41
1
10
-8.66466593997006
20
37.4513060997541
30
0
41
1
10
-8.72097755367534
20
37.4409277790794
30
0
41
1
10
-8.80928859004135
20
37.424823312953
30
0
41
1
10
-8.83940017626215
20
37.4193596305243
30
0
41
1
10
-8.90059668695476
20
37.4083161368078
30
0
41
1
10
-8.93170940381957
20
37.4027311980643
30
0
41
1
10
-9.08980160651234
20
37.3745138275953
30
0
41
1
10
-9.22434516049198
20
37.3510060707369
30
0
41
1
10
-9.50882133136049
20
37.3026700550151
30
0
41
1
10
-9.65875653237987
20
37.2778407127451
30
0
41
1
10
-9.89502074972738
20
37.2399778514852
30
0
41
1
10
-9.97567274087328
20
37.2272534703191
30
0
41
1
10
-10.0995062223642
20
37.2080566596274
30
0
41
1
10
-10.141267832343
20
37.2016381782455
30
0
41
1
10
-10.2257164832329
20
37.1887766252454
30
0
41
1
10
-10.268263380102
20
37.1823548873661
30
0
41
1
10
-10.4825863455032
20
37.1503091954741
30
0
41
1
10
-10.6591151028225
20
37.1248758638604
30
0
41
1
10
-11.0219043219779
20
37.0748416966607
30
0
41
1
10
-11.3944280795168
20
37.0256391598448
30
0
41
1
10
-11.7861963197059
20
36.9788917937938
30
0
41
1
10
-12.0371658958116
20
36.9506844708766
30
0
41
1
10
-12.0877271193422
20
36.9450869320612
30
0
41
1
10
-12.1890952403971
20
36.9340392369721
30
0
41
1
10
-12.3415246943459
20
36.9176869799982
30
0
41
1
10
-12.495072902259
20
36.9020073941175
30
0
41
1
10
-12.8036374861119
20
36.8715829912882
30
0
41
1
10
-13.2189658117113
20
36.833510598003
30
0
41
1
10
-13.642018801178
20
36.8008098290912
30
0
41
1
10
-13.9622438041629
20
36.7784385960326
30
0
41
1
10
-14.0694754356938
20
36.7713405480661
30
0
41
1
10
-14.2310696927793
20
36.761249480338
30
0
41
1
10
-14.2850589639675
20
36.7579784591991
30
0
41
1
10
-14.3932891502435
20
36.7516246805944
30
0
41
1
10
-14.4475729623614
20
36.7485397853308
30
0
41
1
10
-14.7183259174543
20
36.7336627263858
30
0
41
1
10
-14.9337134652921
20
36.7234563940047
30
0
41
1
10
-15.3621199571432
20
36.7063373984835
30
0
41
1
10
-15.5751387632466
20
36.6994248914492
30
0
41
1
10
-15.9988028791435
20
36.6887973896278
30
0
41
1
10
-16.2094483431879
20
36.6850825376171
30
0
41
1
10
-16.523583770087
20
36.6818333037753
30
0
41
1
10
-16.6279895922839
20
36.6811373560974
30
0
41
1
10
-16.7841276018174
20
36.6806641778682
30
0
41
1
10
-16.8361578298839
20
36.6806016501545
30
0
41
1
10
-16.939740627904
20
36.6806647564302
30
0
41
1
10
-16.9912457215227
20
36.6807900862659
30
0
41
1
10
-17.2473507007046
20
36.6818701855072
30
0
41
1
10
-17.6480469082921
20
36.6864983624037
30
0
41
1
10
-18.0308478261488
20
36.6961681828052
30
0
41
1
10
-18.4045781572909
20
36.7079892290944
30
0
41
1
10
-18.586909326751
20
36.7149758964626
30
0
41
1
10
-18.8089119312429
20
36.7248201453047
30
0
41
1
10
-18.8530161673033
20
36.7268445060811
30
0
41
1
10
-18.9406229554332
20
36.7309982170252
30
0
41
1
10
-18.9841526281097
20
36.7331289394498
30
0
41
1
10
-19.1136492728623
20
36.7396605784225
30
0
41
1
10
-19.1980051024613
20
36.7441742643364
30
0
41
1
10
-19.4452185588362
20
36.7580919956344
30
0
41
1
10
-19.6022364149495
20
36.7678719858305
30
0
41
1
10
-19.9007220590616
20
36.7879222101687
30
0
41
1
10
-20.0421909145451
20
36.7981932526885
30
0
41
1
10
-20.309140922944
20
36.8187283621882
30
0
41
1
10
-20.4346258242081
20
36.8289932916957
30
0
41
1
10
-20.5808803797061
20
36.8415026446233
30
0
41
1
10
-20.609629024321
20
36.8439909982552
30
0
41
1
10
-20.6657008478369
20
36.8488969874556
30
0
41
1
10
-20.7477877772849
20
36.8561600354919
30
0
41
1
10
-20.8238605098264
20
36.8631042785771
30
0
41
1
10
-20.9680482129712
20
36.8764897079226
30
0
41
1
10
-21.0535834604935
20
36.8847417938078
30
0
41
1
10
-21.2033054236258
20
36.8995133540455
30
0
41
1
10
-21.2674946623101
20
36.9060334534641
30
0
41
1
10
-21.3471276490649
20
36.9142365164306
30
0
41
1
10
-21.3708912689803
20
36.9167081068455
30
0
41
1
10
-21.4126754407559
20
36.9210795741509
30
0
41
1
10
-21.4304990313832
20
36.9229587401183
30
0
41
1
10
-21.4748674579968
20
36.9276541815562
30
0
41
1
10
-21.4965762620343
20
36.9299821271722
30
0
41
1
10
-21.5000227249069
20
36.930349854712
30
0
41
1
10
-21.500002647081
20
36.9303474861847
30
0
0
SPLINE
5
184
100
AcDbEntity
8
SK1
62
256
6
ByLayer
370
18
48
1
60
0
100
AcDbSpline
70
4
71
3
72
104
73
100
40
0
40
0
40
0
40
0
40
0.0214340740666102
40
0.0214340740666102
40
0.0292418231167966
40
0.0292418231167966
40
0.037049572166983
40
0.037049572166983
40
0.0526650702673559
40
0.0526650702673559
40
0.0838960664681014
40
0.0838960664681014
40
0.115127062668847
40
0.115127062668847
40
0.122934811719033
40
0.122934811719033
40
0.130742560769219
40
0.130742560769219
40
0.146358058869592
40
0.146358058869592
40
0.177589055070337
40
0.177589055070337
40
0.208820051271083
40
0.208820051271083
40
0.224435549371455
40
0.224435549371455
40
0.232243298421642
40
0.232243298421642
40
0.240051047471828
40
0.240051047471828
40
0.271282043672574
40
0.271282043672574
40
0.302513039873319
40
0.302513039873319
40
0.318128537973692
40
0.318128537973692
40
0.325936287023878
40
0.325936287023878
40
0.333744036074065
40
0.333744036074065
40
0.36497503227481
40
0.36497503227481
40
0.396206028475554
40
0.4274370246763
40
0.4274370246763
40
0.435244773726486
40
0.435244773726486
40
0.443052522776672
40
0.443052522776672
40
0.458668020877044
40
0.458668020877044
40
0.489899017077789
40
0.521130013278534
40
0.521130013278534
40
0.552361009479279
40
0.552361009479279
40
0.567976507579651
40
0.567976507579651
40
0.583592005680024
40
0.583592005680024
40
0.614823001880768
40
0.614823001880768
40
0.646053998081513
40
0.646053998081513
40
0.661669496181885
40
0.661669496181885
40
0.669477245232072
40
0.669477245232072
40
0.677284994282258
40
0.677284994282258
40
0.708515990483001
40
0.739746986683745
40
0.739746986683745
40
0.770977982884488
40
0.770977982884488
40
0.78659348098486
40
0.78659348098486
40
0.794401230035045
40
0.794401230035045
40
0.802208979085231
40
0.802208979085231
40
0.833439975285975
40
0.833439975285975
40
0.864670971486719
40
0.864670971486719
40
0.895901967687463
40
0.895901967687463
40
0.903709716737649
40
0.903709716737649
40
0.911517465787835
40
0.927132963888207
40
0.927132963888207
40
0.958363960088952
40
0.958363960088952
40
0.989594956289696
40
0.989594956289696
40
0.997402705339882
40
0.997402705339882
40
1
40
1
40
1
40
1
41
1
10
-21.5000041370732
20
-36.9303474627295
30
0
41
1
10
-21.4999610272254
20
-36.9303423099066
30
0
41
1
10
-21.4943060001633
20
-36.9297369900958
30
0
41
1
10
-21.4788146901815
20
-36.9280844022563
30
0
41
1
10
-21.4739201863398
20
-36.9275628229828
30
0
41
1
10
-21.4625984188041
20
-36.9263587882752
30
0
41
1
10
-21.456159678233
20
-36.9256751175436
30
0
41
1
10
-21.4346038918093
20
-36.9233921087882
30
0
41
1
10
-21.4172853236873
20
-36.9215646027249
30
0
41
1
10
-21.3567175465797
20
-36.9152207223246
30
0
41
1
10
-21.3048787016907
20
-36.9098423275229
30
0
41
1
10
-21.1789309579673
20
-36.8970925582696
30
0
41
1
10
-21.1048206678252
20
-36.8897206477529
30
0
41
1
10
-20.9982266626119
20
-36.8794674924612
30
0
41
1
10
-20.9762083560189
20
-36.877365038639
30
0
41
1
10
-20.9307649649809
20
-36.8730620891702
30
0
41
1
10
-20.9073116441753
20
-36.8708589697204
30
0
41
1
10
-20.8350267778472
20
-36.8641299500312
30
0
41
1
10
-20.7844346280646
20
-36.8594994391821
30
0
41
1
10
-20.6256720613504
20
-36.8452686128388
30
0
41
1
10
-20.5105338999628
20
-36.8353289800472
30
0
41
1
10
-20.2623510498034
20
-36.8150389241277
30
0
41
1
10
-20.1293043334719
20
-36.8046876711257
30
0
41
1
10
-19.91638920189
20
-36.7892298094071
30
0
41
1
10
-19.8431890827454
20
-36.7840888488859
30
0
41
1
10
-19.730018892489
20
-36.7764444530324
30
0
41
1
10
-19.6918185387117
20
-36.7739133512502
30
0
41
1
10
-19.6146633567857
20
-36.7689052849555
30
0
41
1
10
-19.5756796286263
20
-36.7664263623772
30
0
41
1
10
-19.3787599051635
20
-36.7541757720302
30
0
41
1
10
-19.2148365238776
20
-36.744836639178
30
0
41
1
10
-18.8747060959729
20
-36.7275433503458
30
0
41
1
10
-18.6984974556378
20
-36.7195884919542
30
0
41
1
10
-18.4250584232746
20
-36.7090407437918
30
0
41
1
10
-18.3323883185654
20
-36.7057556503408
30
0
41
1
10
-18.191084045122
20
-36.7012188650766
30
0
41
1
10
-18.1435992640363
20
-36.6997717581898
30
0
41
1
10
-18.0478586633436
20
-36.6970154697969
30
0
41
1
10
-17.999653619819
20
-36.6957079602148
30
0
41
1
10
-17.7578685588756
20
-36.6895608632595
30
0
41
1
10
-17.5611877471659
20
-36.6858688417225
30
0
41
1
10
-17.1615918134346
20
-36.6812078751488
30
0
41
1
10
-16.7557600995883
20
-36.6792706883382
30
0
41
1
10
-16.337639291229
20
-36.6833084047731
30
0
41
1
10
-16.0724270604448
20
-36.6878676419242
30
0
41
1
10
-16.0191898703303
20
-36.6888812978831
30
0
41
1
10
-15.9123231813235
20
-36.6911165651665
30
0
41
1
10
-15.8587245631855
20
-36.6923378179717
30
0
41
1
10
-15.6981171897024
20
-36.6962984120905
30
0
41
1
10
-15.5910468347989
20
-36.6993396267423
30
0
41
1
10
-15.2698405249356
20
-36.7096640573479
30
0
41
1
10
-14.8415784063018
20
-36.7266323994577
30
0
41
1
10
-14.4133472399135
20
-36.7499812987965
30
0
41
1
10
-13.9851301278561
20
-36.77650436602
30
0
41
1
10
-13.77102861071
20
-36.7913529689849
30
0
41
1
10
-13.4498827823393
20
-36.8159916819972
30
0
41
1
10
-13.3435218403948
20
-36.8245465128171
30
0
41
1
10
-13.1324691999272
20
-36.8422802842674
30
0
41
1
10
-13.0277242446182
20
-36.8514633165786
30
0
41
1
10
-12.7158020909691
20
-36.8799092160374
30
0
41
1
10
-12.5109326313958
20
-36.9000690563235
30
0
41
1
10
-12.1073058848507
20
-36.9425045735183
30
0
41
1
10
-11.9085482732514
20
-36.9647806292254
30
0
41
1
10
-11.6150846181188
20
-36.9995676956445
30
0
41
1
10
-11.5180434948078
20
-37.0113921032897
30
0
41
1
10
-11.3736757629307
20
-37.0294435408716
30
0
41
1
10
-11.3257522711256
20
-37.0355131453339
30
0
41
1
10
-11.2303086104432
20
-37.047752391391
30
0
41
1
10
-11.1827930088945
20
-37.0539217032554
30
0
41
1
10
-10.947483899805
20
-37.0848401707009
30
0
41
1
10
-10.5834454180355
20
-37.1350219327149
30
0
41
1
10
-10.2439178705042
20
-37.1857536590411
30
0
41
1
10
-9.91680582136412
20
-37.2363058560044
30
0
41
1
10
-9.7594556403358
20
-37.261493092313
30
0
41
1
10
-9.53315123438242
20
-37.2987717627024
30
0
41
1
10
-9.45933976558801
20
-37.3111139183836
30
0
41
1
10
-9.35114147531012
20
-37.3294504599706
30
0
41
1
10
-9.31544598229635
20
-37.3355417155964
30
0
41
1
10
-9.24528651889085
20
-37.3475917734859
30
0
41
1
10
-9.21079474785212
20
-37.3535551599553
30
0
41
1
10
-9.04126021025348
20
-37.3830467128493
30
0
41
1
10
-8.91496798581709
20
-37.4055997258587
30
0
41
1
10
-8.68102049697195
20
-37.4481731269532
30
0
41
1
10
-8.57336408604834
20
-37.4681944204207
30
0
41
1
10
-8.37723597964056
20
-37.5052140736219
30
0
41
1
10
-8.28875977321565
20
-37.5222136809379
30
0
41
1
10
-8.19090987217122
20
-37.5412230011621
30
0
41
1
10
-8.17197900693107
20
-37.5449126248416
30
0
41
1
10
-8.13542173547236
20
-37.5520576280708
30
0
41
1
10
-8.0828343665674
20
-37.5623670168447
30
0
41
1
10
-8.03692789472021
20
-37.5714414484335
30
0
41
1
10
-7.95392293194833
20
-37.5879127414501
30
0
41
1
10
-7.91030798153002
20
-37.5966581461133
30
0
41
1
10
-7.84653768425606
20
-37.6094845934289
30
0
41
1
10
-7.82638053715206
20
-37.6135660976588
30
0
41
1
10
-7.81631631923312
20
-37.6156028036189
30
0
41
1
10
-7.81506199719574
20
-37.6158567492838
30
0
41
1
10
-7.8144144285467
20
-37.615987848346
30
0
41
1
10
-7.81433787741715
20
-37.6160033447439
30
0
41
1
10
-7.81434678315328
20
-37.6160015408357
30
0
0
SPLINE
5
185
100
AcDbEntity
8
SK1
62
256
6
ByLayer
370
18
48
1
60
0
100
AcDbSpline
70
4
71
3
72
54
73
50
40
0
40
0
40
0
40
0
40
0.0312500000000041
40
0.0312500000000041
40
0.0625000000000082
40
0.0625000000000082
40
0.125000000000015
40
0.125000000000015
40
0.250000000000031
40
0.250000000000031
40
0.375000000000046
40
0.375000000000046
40
0.406250000000048
40
0.406250000000048
40
0.43750000000005
40
0.500000000000052
40
0.500000000000052
40
0.62500000000006
40
0.62500000000006
40
0.687500000000063
40
0.687500000000063
40
0.750000000000066
40
0.750000000000066
40
0.781250000000067
40
0.781250000000067
40
0.812500000000069
40
0.812500000000069
40
0.843750000000071
40
0.843750000000071
40
0.875000000000073
40
0.875000000000073
40
0.906250000000075
40
0.906250000000075
40
0.914062500000072
40
0.914062500000072
40
0.92187500000007
40
0.92187500000007
40
0.937500000000061
40
0.937500000000061
40
0.945312500000054
40
0.945312500000054
40
0.953125000000048
40
0.953125000000048
40
0.968750000000034
40
0.976562500000026
40
0.976562500000026
40
0.984375000000017
40
0.984375000000017
40
1
40
1
40
1
40
1
41
1
10
-39.8
20
33.7318671810039
30
0
41
1
10
-39.7999999999999
20
33.7145710701311
30
0
41
1
10
-39.8008000946281
20
33.6971565007765
30
0
41
1
10
-39.8039168623025
20
33.6621962213471
30
0
41
1
10
-39.8062335132834
20
33.6446342134735
30
0
41
1
10
-39.8153484367684
20
33.5917053852178
30
0
41
1
10
-39.8243080567448
20
33.5560957915866
30
0
41
1
10
-39.8591124485095
20
33.4483170327042
30
0
41
1
10
-39.8928472522366
20
33.3751982231632
30
0
41
1
10
-39.9786760357966
20
33.2265304775473
30
0
41
1
10
-40.0307804205494
20
33.1509812446763
30
0
41
1
10
-40.1063660693581
20
33.0550850028677
30
0
41
1
10
-40.1219937947637
20
33.035852199307
30
0
41
1
10
-40.1541498540921
20
32.9973928162119
30
0
41
1
10
-40.2037751165396
20
32.9396636457769
30
0
41
1
10
-40.2574425199022
20
32.8818159360059
30
0
41
1
10
-40.3699446706122
20
32.7659816807454
30
0
41
1
10
-40.4517476783099
20
32.688560134193
30
0
41
1
10
-40.5849329745245
20
32.572369990688
30
0
41
1
10
-40.6310900751579
20
32.5336324584858
30
0
41
1
10
-40.7273802545145
20
32.456248481954
30
0
41
1
10
-40.7774939797117
20
32.4175986160054
30
0
41
1
10
-40.8564695396308
20
32.3598547383015
30
0
41
1
10
-40.88345848061
20
32.3406304247495
30
0
41
1
10
-40.9388920650189
20
32.3023874881928
30
0
41
1
10
-40.9672925131055
20
32.2833959934678
30
0
41
1
10
-41.0258361258168
20
32.245788614309
30
0
41
1
10
-41.0559730128129
20
32.2271708721062
30
0
41
1
10
-41.1186305548424
20
32.1905053329399
30
0
41
1
10
-41.1510308179743
20
32.1725200428503
30
0
41
1
10
-41.2188385127876
20
32.1377315395356
30
0
41
1
10
-41.2542332468957
20
32.1209048401273
30
0
41
1
10
-41.3015842990544
20
32.1011135781885
30
0
41
1
10
-41.3112139355684
20
32.097219144498
30
0
41
1
10
-41.3308439340923
20
32.0895800189203
30
0
41
1
10
-41.3408651858731
20
32.0858280947414
30
0
41
1
10
-41.3713588597964
20
32.0749170218883
30
0
41
1
10
-41.3922831904341
20
32.0680860715368
30
0
41
1
10
-41.4248486397641
20
32.0587260689411
30
0
41
1
10
-41.4359013558928
20
32.0557546283677
30
0
41
1
10
-41.4584661089438
20
32.0501584370334
30
0
41
1
10
-41.4700314002366
20
32.0475237786973
30
0
41
1
10
-41.5049753605481
20
32.0403392906634
30
0
41
1
10
-41.5405101097732
20
32.0345573260281
30
0
41
1
10
-41.5770691708598
20
32.031213916461
30
0
41
1
10
-41.6016844245104
20
32.0295626507329
30
0
41
1
10
-41.6141876951168
20
32.0290255903479
30
0
41
1
10
-41.6514384574835
20
32.0283362059759
30
0
41
1
10
-41.6758884507612
20
32.0290885535356
30
0
41
1
10
-41.7000000000014
20
32.0309069691634
30
0
0
SPLINE
5
186
100
AcDbEntity
8
SK1
62
256
6
ByLayer
370
18
48
1
60
0
100
AcDbSpline
70
4
71
3
72
20
73
16
40
0
40
0
40
0
40
0
40
0.0625000000000004
40
0.0625000000000004
40
0.125000000000001
40
0.125000000000001
40
0.250000000000002
40
0.250000000000002
40
0.375000000000002
40
0.375000000000002
40
0.500000000000003
40
0.500000000000003
40
0.750000000000001
40
0.750000000000001
40
1
40
1
40
1
40
1
41
1
10
-41.7
20
32.0309069691676
30
0
41
1
10
-41.829230390991
20
32.0406531103302
30
0
41
1
10
-41.9587402233825
20
32.0495880294297
30
0
41
1
10
-42.2181916956603
20
32.0662053286714
30
0
41
1
10
-42.3481341175978
20
32.0738854324166
30
0
41
1
10
-42.7384837114113
20
32.0954119198531
30
0
41
1
10
-42.9994067134446
20
32.1077633942848
30
0
41
1
10
-43.5222155127956
20
32.1296814408185
30
0
41
1
10
-43.7841057327499
20
32.1392351393123
30
0
41
1
10
-44.3086156470939
20
32.1562368514662
30
0
41
1
10
-44.5712371455355
20
32.1636796137577
30
0
41
1
10
-45.3599684635693
20
32.1835113396153
30
0
41
1
10
-45.8869332483517
20
32.1934382600973
30
0
41
1
10
-46.9424227182698
20
32.2088227894139
30
0
41
1
10
-47.4709561166098
20
32.2142550344561
30
0
41
1
10
-48.0000748840305
20
32.2180191381098
30
0
0
SPLINE
5
187
100
AcDbEntity
8
SK1
62
256
6
ByLayer
370
18
48
1
60
0
100
AcDbSpline
70
4
71
3
72
48
73
44
40
0
40
0
40
0
40
0
40
0.0078124999999981
40
0.0078124999999981
40
0.0156249999999961
40
0.0156249999999961
40
0.0234374999999942
40
0.0234374999999942
40
0.0273437499999936
40
0.0273437499999936
40
0.031249999999993
40
0.031249999999993
40
0.046874999999993
40
0.046874999999993
40
0.062499999999993
40
0.062499999999993
40
0.078124999999993
40
0.078124999999993
40
0.0937499999999929
40
0.0937499999999929
40
0.124999999999993
40
0.124999999999993
40
0.156249999999994
40
0.156249999999994
40
0.187499999999994
40
0.187499999999994
40
0.249999999999995
40
0.249999999999995
40
0.312499999999995
40
0.312499999999995
40
0.374999999999995
40
0.374999999999995
40
0.437499999999996
40
0.437499999999996
40
0.499999999999996
40
0.499999999999996
40
0.624999999999997
40
0.624999999999997
40
0.749999999999998
40
0.749999999999998
40
0.874999999999999
40
0.874999999999999
40
1
40
1
40
1
40
1
41
1
10
-40.2165582668443
20
-31.6931118380393
30
0
41
1
10
-40.2255137164716
20
-31.7021461407527
30
0
41
1
10
-40.2360232406997
20
-31.7105499948239
30
0
41
1
10
-40.2593029922575
20
-31.7264406150996
30
0
41
1
10
-40.2720804381839
20
-31.7339244528563
30
0
41
1
10
-40.2993863508487
20
-31.748181823338
30
0
41
1
10
-40.3139180690734
20
-31.7549540369857
30
0
41
1
10
-40.3367709283965
20
-31.7646842970226
30
0
41
1
10
-40.3445719684938
20
-31.7678578826858
30
0
41
1
10
-40.3603555141487
20
-31.774023302001
30
0
41
1
10
-40.3683549864994
20
-31.7770226126563
30
0
41
1
10
-40.4088261315399
20
-31.7916522904097
30
0
41
1
10
-40.442688829472
20
-31.8022055162375
30
0
41
1
10
-40.5123481174606
20
-31.8218145906865
30
0
41
1
10
-40.5481587326135
20
-31.8308595774498
30
0
41
1
10
-40.6211874460023
20
-31.847859873842
30
0
41
1
10
-40.6584106043897
20
-31.8558112645676
30
0
41
1
10
-40.733938097346
20
-31.8708770948827
30
0
41
1
10
-40.7722695231473
20
-31.8779926045775
30
0
41
1
10
-40.887745247722
20
-31.8982034744093
30
0
41
1
10
-40.9656558508792
20
-31.9102431097733
30
0
41
1
10
-41.122693352439
20
-31.9324406198842
30
0
41
1
10
-41.2018286497809
20
-31.9425854896039
30
0
41
1
10
-41.3609886301099
20
-31.9614996804061
30
0
41
1
10
-41.441016384621
20
-31.970264245473
30
0
41
1
10
-41.6821282190401
20
-31.9949676954699
30
0
41
1
10
-41.8442249466184
20
-32.0093409919152
30
0
41
1
10
-42.1701904312221
20
-32.0353502797714
30
0
41
1
10
-42.3340718337277
20
-32.0469666903167
30
0
41
1
10
-42.6631293631879
20
-32.0682013501317
30
0
41
1
10
-42.8283060210513
20
-32.077811197184
30
0
41
1
10
-43.1589860239046
20
-32.0954601755707
30
0
41
1
10
-43.3245900355161
20
-32.1035027081377
30
0
41
1
10
-43.6562168288385
20
-32.1183489323679
30
0
41
1
10
-43.8222401780399
20
-32.125150935563
30
0
41
1
10
-44.3208262630885
20
-32.1440322938556
30
0
41
1
10
-44.6538993113538
20
-32.1546040321594
30
0
41
1
10
-45.3210244711679
20
-32.1728631929403
30
0
41
1
10
-45.6550802301058
20
-32.1805397630586
30
0
41
1
10
-46.3239463383711
20
-32.1936765541861
30
0
41
1
10
-46.65875825511
20
-32.1991321114947
30
0
41
1
10
-47.3289877270329
20
-32.2082701299962
30
0
41
1
10
-47.6644060538691
20
-32.2119502951727
30
0
41
1
10
-48.0000748840304
20
-32.2148995999825
30
0
0
SPLINE
5
188
100
AcDbEntity
8
SK1
62
256
6
ByLayer
370
18
48
1
60
0
100
AcDbSpline
70
4
71
3
72
34
73
30
40
0
40
0
40
0
40
0
40
0.124999999999998
40
0.124999999999998
40
0.187499999999998
40
0.187499999999998
40
0.249999999999999
40
0.249999999999999
40
0.375000000000002
40
0.375000000000002
40
0.500000000000004
40
0.500000000000004
40
0.625000000000007
40
0.625000000000007
40
0.687500000000006
40
0.687500000000006
40
0.718750000000004
40
0.718750000000004
40
0.750000000000002
40
0.750000000000002
40
0.8125
40
0.8125
40
0.874999999999999
40
0.874999999999999
40
0.906249999999998
40
0.906249999999998
40
0.937499999999997
40
0.937499999999997
40
1
40
1
40
1
40
1
41
1
10
-36.7
20
-30.4013895190029
30
0
41
1
10
-36.8711858974658
20
-30.4399010578022
30
0
41
1
10
-37.0413761276148
20
-30.4795084073964
30
0
41
1
10
-37.2948644625377
20
-30.5408971840479
30
0
41
1
10
-37.3790601632171
20
-30.5616907356709
30
0
41
1
10
-37.5467865215208
20
-30.6040097715081
30
0
41
1
10
-37.6303668864447
20
-30.6255487370905
30
0
41
1
10
-37.8793229252197
20
-30.6912089022521
30
0
41
1
10
-38.0430828929571
20
-30.7364033503291
30
0
41
1
10
-38.3651311639745
20
-30.8303093104943
30
0
41
1
10
-38.5234281179984
20
-30.8790152620771
30
0
41
1
10
-38.8330297808163
20
-30.9809216246979
30
0
41
1
10
-38.9843528118258
20
-31.0341102586239
30
0
41
1
10
-39.204310734814
20
-31.1184097665709
30
0
41
1
10
-39.2764508160517
20
-31.1472675830275
30
0
41
1
10
-39.3825571315546
20
-31.1919065875664
30
0
41
1
10
-39.4175205711072
20
-31.2069903261859
30
0
41
1
10
-39.4864156420776
20
-31.2375322579715
30
0
41
1
10
-39.5203702139022
20
-31.2530000112534
30
0
41
1
10
-39.6206319685333
20
-31.30004276183
30
0
41
1
10
-39.6853447054721
20
-31.332254249934
30
0
41
1
10
-39.8097036218329
20
-31.3986997578315
30
0
41
1
10
-39.8693539749137
20
-31.4329321115316
30
0
41
1
10
-39.954209950325
20
-31.4861247334101
30
0
41
1
10
-39.9817772423316
20
-31.5042039425694
30
0
41
1
10
-40.0347710714735
20
-31.5407523486529
30
0
41
1
10
-40.0602303319982
20
-31.5592384905159
30
0
41
1
10
-40.1332638811576
20
-31.6153799690724
30
0
41
1
10
-40.1775061488118
20
-31.653715864572
30
0
41
1
10
-40.2165582668442
20
-31.6931118380393
30
0
0
SPLINE
5
189
100
AcDbEntity
8
SK1
62
256
6
ByLayer
370
18
48
1
60
0
100
AcDbSpline
70
4
71
3
72
48
73
44
40
0
40
0
40
0
40
0
40
0.015625000000002
40
0.015625000000002
40
0.0234375000000026
40
0.0234375000000026
40
0.0312500000000032
40
0.0312500000000032
40
0.0468750000000044
40
0.0468750000000044
40
0.0625000000000056
40
0.0625000000000056
40
0.0781250000000068
40
0.0781250000000068
40
0.093750000000008
40
0.093750000000008
40
0.109375000000009
40
0.109375000000009
40
0.12500000000001
40
0.12500000000001
40
0.15625000000001
40
0.15625000000001
40
0.187500000000011
40
0.187500000000011
40
0.218750000000011
40
0.218750000000011
40
0.250000000000011
40
0.250000000000011
40
0.312500000000008
40
0.312500000000008
40
0.375000000000006
40
0.375000000000006
40
0.5
40
0.5
40
0.624999999999993
40
0.624999999999993
40
0.687499999999994
40
0.687499999999994
40
0.749999999999995
40
0.749999999999995
40
0.874999999999998
40
0.874999999999998
40
1
40
1
40
1
40
1
41
1
10
-36.7
20
-30.4013895190029
30
0
41
1
10
-36.68470649278
20
-30.3979489523126
30
0
41
1
10
-36.6689495589212
20
-30.3953985331097
30
0
41
1
10
-36.6444816853446
20
-30.3931762498145
30
0
41
1
10
-36.636186502305
20
-30.3927036248452
30
0
41
1
10
-36.6192872519424
20
-30.3923536543504
30
0
41
1
10
-36.6107241786976
20
-30.3924830339094
30
0
41
1
10
-36.585378583222
20
-30.3937744270978
30
0
41
1
10
-36.56862444355
20
-30.3958409902068
30
0
41
1
10
-36.5357346965959
20
-30.4021766831074
30
0
41
1
10
-36.5201531284728
20
-30.4063205536969
30
0
41
1
10
-36.4903068788372
20
-30.4160929712472
30
0
41
1
10
-36.4759522241272
20
-30.4217745812059
30
0
41
1
10
-36.4490415344061
20
-30.4339651580951
30
0
41
1
10
-36.4363973306272
20
-30.4404925556564
30
0
41
1
10
-36.4123113260057
20
-30.4541828550024
30
0
41
1
10
-36.4008730260034
20
-30.461347645864
30
0
41
1
10
-36.378944237093
20
-30.4761734546111
30
0
41
1
10
-36.3684967164129
20
-30.4838101332512
30
0
41
1
10
-36.3387029639329
20
-30.5069793914759
30
0
41
1
10
-36.3207126617917
20
-30.5228777778244
30
0
41
1
10
-36.2871772481909
20
-30.5552382648566
30
0
41
1
10
-36.2716508048235
20
-30.5717052045591
30
0
41
1
10
-36.2424002313828
20
-30.6050328163631
30
0
41
1
10
-36.2286825801915
20
-30.621895172107
30
0
41
1
10
-36.2026538935219
20
-30.6559082326689
30
0
41
1
10
-36.1903507192282
20
-30.6730572918206
30
0
41
1
10
-36.1554101577732
20
-30.724427813558
30
0
41
1
10
-36.1345924600216
20
-30.7587242803602
30
0
41
1
10
-36.0963204719529
20
-30.8272836097354
30
0
41
1
10
-36.0788871273222
20
-30.8615481629805
30
0
41
1
10
-36.0304065848838
20
-30.9641868709349
30
0
41
1
10
-36.003117577636
20
-31.0324009669379
30
0
41
1
10
-35.9551394416824
20
-31.1681013508454
30
0
41
1
10
-35.9345079681282
20
-31.235592382841
30
0
41
1
10
-35.9073321932439
20
-31.3361724400529
30
0
41
1
10
-35.898907403912
20
-31.3696055863708
30
0
41
1
10
-35.8832202583695
20
-31.436142866252
30
0
41
1
10
-35.8759565129337
20
-31.4692509818902
30
0
41
1
10
-35.8557366578801
20
-31.5680927177334
30
0
41
1
10
-35.8443429695231
20
-31.6333437376051
30
0
41
1
10
-35.8251190973011
20
-31.7625531739675
30
0
41
1
10
-35.8172926438243
20
-31.8265116018428
30
0
41
1
10
-35.8110727855048
20
-31.8898206710672
30
0
0
SPLINE
5
18A
100
AcDbEntity
8
SK1
62
256
6
ByLayer
370
18
48
1
60
0
100
AcDbSpline
70
4
71
3
72
35
73
31
40
0
40
0
40
0
40
0
40
0.0312499999999978
40
0.0312499999999978
40
0.0624999999999955
40
0.0624999999999955
40
0.124999999999996
40
0.124999999999996
40
0.187499999999996
40
0.249999999999996
40
0.249999999999996
40
0.312499999999996
40
0.312499999999996
40
0.374999999999996
40
0.374999999999996
40
0.437499999999997
40
0.437499999999997
40
0.499999999999998
40
0.499999999999998
40
0.624999999999997
40
0.624999999999997
40
0.749999999999997
40
0.749999999999997
40
0.874999999999996
40
0.874999999999996
40
0.937499999999997
40
0.937499999999997
40
0.968749999999998
40
0.968749999999998
40
1
40
1
40
1
40
1
41
1
10
-35.8110727855048
20
-31.8898206710672
30
0
41
1
10
-35.8087298228675
20
-31.9136686071737
30
0
41
1
10
-35.8050508230863
20
-31.9375984974946
30
0
41
1
10
-35.7952802677077
20
-31.9850072120095
30
0
41
1
10
-35.7891941023361
20
-32.0085225445775
30
0
41
1
10
-35.7677724345513
20
-32.0785467640677
30
0
41
1
10
-35.7492796314844
20
-32.1245349687553
30
0
41
1
10
-35.7063448295786
20
-32.2153592220187
30
0
41
1
10
-35.6574837452938
20
-32.3050330287367
30
0
41
1
10
-35.6011189614964
20
-32.3927956192941
30
0
41
1
10
-35.5427113205104
20
-32.4797474075563
30
0
41
1
10
-35.5124828131835
20
-32.5228175260632
30
0
41
1
10
-35.4512734171609
20
-32.6082491449361
30
0
41
1
10
-35.4202890471678
20
-32.6506102973464
30
0
41
1
10
-35.3585507750323
20
-32.7346953797196
30
0
41
1
10
-35.3277941195328
20
-32.7764190505571
30
0
41
1
10
-35.2672824740689
20
-32.8592790261411
30
0
41
1
10
-35.2375212676654
20
-32.90042148311
30
0
41
1
10
-35.1507682862351
20
-33.0229016813633
30
0
41
1
10
-35.0963122006996
20
-33.1033237950097
30
0
41
1
10
-34.9982266523963
20
-33.2617797655023
30
0
41
1
10
-34.9545684127149
20
-33.3398124179374
30
0
41
1
10
-34.8815423282892
20
-33.4934950949019
30
0
41
1
10
-34.8521479202447
20
-33.5691444802325
30
0
41
1
10
-34.8215668767947
20
-33.6808068697312
30
0
41
1
10
-34.8136291543811
20
-33.7177254672804
30
0
41
1
10
-34.8055331814596
20
-33.7726452713273
30
0
41
1
10
-34.8034705654413
20
-33.7908897335453
30
0
41
1
10
-34.8007057879732
20
-33.827059649251
30
0
41
1
10
-34.7999999999999
20
-33.8450028234008
30
0
41
1
10
-34.7999999999999
20
-33.8628027232345
30
0
0
LINE
5
84
100
AcDbEntity
8
80
62
256
6
ByLayer
370
18
48
1
60
0
100
AcDbLine
10
0
20
0
30
0
11
-5
21
0
31
0
39
0
210
0
220
0
230
1
0
LINE
5
85
100
AcDbEntity
8
4
62
256
6
ByLayer
370
18
48
0.05
60
0
100
AcDbLine
10
0
20
0
30
0
11
110
21
0
31
0
39
0
210
0
220
0
230
1
0
LINE
5
87
100
AcDbEntity
8
81
62
256
6
ByLayer
370
18
48
1
60
0
100
AcDbLine
10
110
20
0
30
0
11
115
21
0
31
0
39
0
210
0
220
0
230
1
0
LINE
5
88
100
AcDbEntity
8
1
62
256
6
ByLayer
370
18
48
1
60
0
100
AcDbLine
10
28.25
20
48.949778
30
0
11
23.241822
21
48.949778
31
0
39
0
210
0
220
0
230
1
0
LINE
5
8A
100
AcDbEntity
8
1
62
256
6
ByLayer
370
18
48
1
60
0
100
AcDbLine
10
28.95
20
48.235047
30
0
11
28.95
21
38.002865
31
0
39
0
210
0
220
0
230
1
0
LINE
5
8B
100
AcDbEntity
8
1
62
256
6
ByLayer
370
18
48
1
60
0
100
AcDbLine
10
28.25
20
38.906024
30
0
11
28.25
21
48.949778
31
0
39
0
210
0
220
0
230
1
0
LINE
5
8C
100
AcDbEntity
8
1
62
256
6
ByLayer
370
18
48
1
60
0
100
AcDbLine
10
28.95
20
31.35
30
0
11
28.95
21
38.002865
31
0
39
0
210
0
220
0
230
1
0
LINE
5
8D
100
AcDbEntity
8
1
62
256
6
ByLayer
370
18
48
1
60
0
100
AcDbLine
10
18.075
20
34.173354
30
0
11
18.075
21
35.929935
31
0
39
0
210
0
220
0
230
1
0
LINE
5
8E
100
AcDbEntity
8
1
62
256
6
ByLayer
370
18
48
1
60
0
100
AcDbLine
10
28.25
20
38.906024
30
0
11
23.241822
21
38.906024
31
0
39
0
210
0
220
0
230
1
0
LINE
5
8F
100
AcDbEntity
8
1
62
256
6
ByLayer
370
18
48
1
60
0
100
AcDbLine
10
21.925
20
35.929935
30
0
11
21.925
21
34.173354
31
0
39
0
210
0
220
0
230
1
0
LINE
5
90
100
AcDbEntity
8
1
62
256
6
ByLayer
370
18
48
1
60
0
100
AcDbLine
10
21.525
20
44.869591
30
0
11
18.475
21
44.869591
31
0
39
0
210
0
220
0
230
1
0
LINE
5
91
100
AcDbEntity
8
1
62
256
6
ByLayer
370
13
48
1
60
0
100
AcDbLine
10
18.475
20
44.869591
30
0
11
18.475
21
33.628531
31
0
39
0
210
0
220
0
230
1
0
LINE
5
92
100
AcDbEntity
8
1
62
256
6
ByLayer
370
18
48
1
60
0
100
AcDbLine
10
21.525
20
33.628531
30
0
11
18.475
21
33.628531
31
0
39
0
210
0
220
0
230
1
0
LINE
5
93
100
AcDbEntity
8
1
62
256
6
ByLayer
370
13
48
1
60
0
100
AcDbLine
10
21.525
20
44.869591
30
0
11
21.525
21
33.628531
31
0
39
0
210
0
220
0
230
1
0
LINE
5
94
100
AcDbEntity
8
1
62
256
6
ByLayer
370
18
48
1
60
0
100
AcDbLine
10
23.241822
20
48.949778
30
0
11
23.241822
21
38.906024
31
0
39
0
210
0
220
0
230
1
0
LINE
5
95
100
AcDbEntity
8
1
62
256
6
ByLayer
370
18
48
1
60
0
100
AcDbLine
10
21.925
20
46.619334
30
0
11
21.925
21
35.929935
31
0
39
0
210
0
220
0
230
1
0
LINE
5
96
100
AcDbEntity
8
1
62
256
6
ByLayer
370
18
48
1
60
0
100
AcDbLine
10
18.075
20
46.619334
30
0
11
18.075
21
35.929935
31
0
39
0
210
0
220
0
230
1
0
LINE
5
97
100
AcDbEntity
8
1
62
256
6
ByLayer
370
13
48
1
60
0
100
AcDbLine
10
33.124598
20
-32.3
30
0
11
33.124598
21
32.3
31
0
39
0
210
0
220
0
230
1
0
LINE
5
98
100
AcDbEntity
8
1
62
256
6
ByLayer
370
13
48
1
60
0
100
AcDbLine
10
33.27989
20
-32.320445
30
0
11
33.27989
21
32.320445
31
0
39
0
210
0
220
0
230
1
0
LINE
5
99
100
AcDbEntity
8
1
62
256
6
ByLayer
370
18
48
1
60
0
100
AcDbLine
10
33.95
20
32.5
30
0
11
33.95
21
-32.5
31
0
39
0
210
0
220
0
230
1
0
LINE
5
9A
100
AcDbEntity
8
1
62
256
6
ByLayer
370
18
48
1
60
0
100
AcDbLine
10
108
20
-32.5
30
0
11
108
21
32.5
31
0
39
0
210
0
220
0
230
1
0
LINE
5
9B
100
AcDbEntity
8
1
62
256
6
ByLayer
370
18
48
1
60
0
100
AcDbLine
10
110
20
30.5
30
0
11
110
21
-30.5
31
0
39
0
210
0
220
0
230
1
0
LINE
5
9C
100
AcDbEntity
8
1
62
256
6
ByLayer
370
13
48
1
60
0
100
AcDbLine
10
31.95
20
-32.3
30
0
11
31.95
21
32.3
31
0
39
0
210
0
220
0
230
1
0
LINE
5
9D
100
AcDbEntity
8
1
62
256
6
ByLayer
370
13
48
1
60
0
100
AcDbLine
10
14.657967
20
38.906024
30
0
11
14.657967
21
31.35
31
0
39
0
210
0
220
0
230
1
0
LINE
5
9E
100
AcDbEntity
8
1
62
256
6
ByLayer
370
18
48
1
60
0
100
AcDbLine
10
21.525
20
-44.634495
30
0
11
18.475
21
-44.634495
31
0
39
0
210
0
220
0
230
1
0
LINE
5
9F
100
AcDbEntity
8
1
62
256
6
ByLayer
370
18
48
1
60
0
100
AcDbLine
10
21.525
20
31.35
30
0
11
18.475
21
31.35
31
0
39
0
210
0
220
0
230
1
0
LINE
5
A0
100
AcDbEntity
8
1
62
256
6
ByLayer
370
13
48
1
60
0
100
AcDbLine
10
18.475
20
-8.827456
30
0
11
18.475
21
-44.634495
31
0
39
0
210
0
220
0
230
1
0
LINE
5
A1
100
AcDbEntity
8
1
62
256
6
ByLayer
370
13
48
1
60
0
100
AcDbLine
10
18.475
20
7.13671
30
0
11
18.475
21
-7.13671
31
0
39
0
210
0
220
0
230
1
0
LINE
5
A2
100
AcDbEntity
8
1
62
256
6
ByLayer
370
13
48
1
60
0
100
AcDbLine
10
18.475
20
31.35
30
0
11
18.475
21
8.827456
31
0
39
0
210
0
220
0
230
1
0
LINE
5
A3
100
AcDbEntity
8
1
62
256
6
ByLayer
370
13
48
1
60
0
100
AcDbLine
10
21.525
20
31.35
30
0
11
21.525
21
8.827456
31
0
39
0
210
0
220
0
230
1
0
LINE
5
A4
100
AcDbEntity
8
1
62
256
6
ByLayer
370
13
48
1
60
0
100
AcDbLine
10
21.525
20
7.13671
30
0
11
21.525
21
-7.13671
31
0
39
0
210
0
220
0
230
1
0
LINE
5
A5
100
AcDbEntity
8
1
62
256
6
ByLayer
370
13
48
1
60
0
100
AcDbLine
10
21.525
20
-8.827456
30
0
11
21.525
21
-44.634495
31
0
39
0
210
0
220
0
230
1
0
LINE
5
A6
100
AcDbEntity
8
1
62
256
6
ByLayer
370
18
48
1
60
0
100
AcDbLine
10
0
20
-49.265
30
0
11
0
21
49.265
31
0
39
0
210
0
220
0
230
1
0
LINE
5
A7
100
AcDbEntity
8
1
62
256
6
ByLayer
370
18
48
1
60
0
100
AcDbLine
10
28.25
20
-48.73437
30
0
11
23.241822
21
-48.73437
31
0
39
0
210
0
220
0
230
1
0
LINE
5
A8
100
AcDbEntity
8
1
62
256
6
ByLayer
370
18
48
1
60
0
100
AcDbLine
10
28.25
20
31.35
30
0
11
23.241822
21
31.35
31
0
39
0
210
0
220
0
230
1
0
LINE
5
A9
100
AcDbEntity
8
1
62
256
6
ByLayer
370
18
48
1
60
0
100
AcDbLine
10
0.7
20
-49.965
30
0
11
0.7
21
49.965
31
0
39
0
210
0
220
0
230
1
0
LINE
5
AA
100
AcDbEntity
8
1
62
256
6
ByLayer
370
18
48
1
60
0
100
AcDbLine
10
4.95
20
-49.954567
30
0
11
4.95
21
-49.965
31
0
39
0
210
0
220
0
230
1
0
LINE
5
AB
100
AcDbEntity
8
1
62
256
6
ByLayer
370
18
48
1
60
0
100
AcDbLine
10
16.758178
20
-48.73437
30
0
11
14.95
21
-48.73437
31
0
39
0
210
0
220
0
230
1
0
LINE
5
AC
100
AcDbEntity
8
1
62
256
6
ByLayer
370
18
48
1
60
0
100
AcDbLine
10
16.758178
20
31.35
30
0
11
4.961216
21
31.35
31
0
39
0
210
0
220
0
230
1
0
LINE
5
AD
100
AcDbEntity
8
1
62
256
6
ByLayer
370
18
48
1
60
0
100
AcDbLine
10
16.758178
20
38.906024
30
0
11
14.657967
21
38.906024
31
0
39
0
210
0
220
0
230
1
0
LINE
5
AE
100
AcDbEntity
8
1
62
256
6
ByLayer
370
18
48
1
60
0
100
AcDbLine
10
16.758178
20
38.906024
30
0
11
16.758178
21
48.949778
31
0
39
0
210
0
220
0
230
1
0
LINE
5
AF
100
AcDbEntity
8
1
62
256
6
ByLayer
370
18
48
1
60
0
100
AcDbLine
10
16.758178
20
48.949778
30
0
11
14.95
21
48.949778
31
0
39
0
210
0
220
0
230
1
0
LINE
5
B0
100
AcDbEntity
8
1
62
256
6
ByLayer
370
18
48
1
60
0
100
AcDbLine
10
28.95
20
31.35
30
0
11
28.95
21
-48.016432
31
0
39
0
210
0
220
0
230
1
0
LINE
5
B1
100
AcDbEntity
8
1
62
256
6
ByLayer
370
18
48
1
60
0
100
AcDbLine
10
28.25
20
-48.73437
30
0
11
28.25
21
31.35
31
0
39
0
210
0
220
0
230
1
0
LINE
5
B2
100
AcDbEntity
8
1
62
256
6
ByLayer
370
18
48
1
60
0
100
AcDbLine
10
23.241822
20
31.35
30
0
11
23.241822
21
-48.73437
31
0
39
0
210
0
220
0
230
1
0
LINE
5
B3
100
AcDbEntity
8
1
62
256
6
ByLayer
370
18
48
1
60
0
100
AcDbLine
10
21.925
20
31.35
30
0
11
21.925
21
-46.393106
31
0
39
0
210
0
220
0
230
1
0
LINE
5
B4
100
AcDbEntity
8
1
62
256
6
ByLayer
370
18
48
1
60
0
100
AcDbLine
10
18.075
20
31.35
30
0
11
18.075
21
-46.393106
31
0
39
0
210
0
220
0
230
1
0
LINE
5
B5
100
AcDbEntity
8
1
62
256
6
ByLayer
370
18
48
1
60
0
100
AcDbLine
10
16.758178
20
-48.73437
30
0
11
16.758178
21
31.35
31
0
39
0
210
0
220
0
230
1
0
LINE
5
B6
100
AcDbEntity
8
SK2
62
256
6
ByLayer
370
18
48
1
60
0
100
AcDbLine
10
53.5
20
-2.309401
30
0
11
53.714643
21
-2.433325
31
0
39
0
210
0
220
0
230
1
0
LINE
5
B8
100
AcDbEntity
8
SK2
62
256
6
ByLayer
370
18
48
1
60
0
100
AcDbLine
10
57.285357
20
-4.494878
30
0
11
57.5
21
-4.618802
31
0
39
0
210
0
220
0
230
1
0
LINE
5
B9
100
AcDbEntity
8
SK2
62
256
6
ByLayer
370
18
48
1
60
0
100
AcDbLine
10
57.5
20
-4.618802
30
0
11
57.714643
21
-4.494878
31
0
39
0
210
0
220
0
230
1
0
LINE
5
BA
100
AcDbEntity
8
SK2
62
256
6
ByLayer
370
18
48
1
60
0
100
AcDbLine
10
61.285357
20
-2.433325
30
0
11
61.5
21
-2.309401
31
0
39
0
210
0
220
0
230
1
0
LINE
5
BB
100
AcDbEntity
8
SK2
62
256
6
ByLayer
370
18
48
1
60
0
100
AcDbLine
10
57.5
20
4.618802
30
0
11
57.285357
21
4.494878
31
0
39
0
210
0
220
0
230
1
0
LINE
5
BC
100
AcDbEntity
8
SK2
62
256
6
ByLayer
370
18
48
1
60
0
100
AcDbLine
10
53.714643
20
2.433325
30
0
11
53.5
21
2.309401
31
0
39
0
210
0
220
0
230
1
0
LINE
5
BD
100
AcDbEntity
8
SK2
62
256
6
ByLayer
370
18
48
1
60
0
100
AcDbLine
10
61.5
20
2.309401
30
0
11
61.285357
21
2.433325
31
0
39
0
210
0
220
0
230
1
0
LINE
5
BE
100
AcDbEntity
8
SK2
62
256
6
ByLayer
370
18
48
1
60
0
100
AcDbLine
10
57.714643
20
4.494878
30
0
11
57.5
21
4.618802
31
0
39
0
210
0
220
0
230
1
0
LINE
5
BF
100
AcDbEntity
8
SK2
62
256
6
ByLayer
370
18
48
1
60
0
100
AcDbLine
10
53.5
20
2.309401
30
0
11
53.5
21
2.061553
31
0
39
0
210
0
220
0
230
1
0
LINE
5
C0
100
AcDbEntity
8
SK2
62
256
6
ByLayer
370
18
48
1
60
0
100
AcDbLine
10
53.5
20
-2.061553
30
0
11
53.5
21
-2.309401
31
0
39
0
210
0
220
0
230
1
0
LINE
5
C1
100
AcDbEntity
8
SK2
62
256
6
ByLayer
370
18
48
1
60
0
100
AcDbLine
10
61.5
20
-2.309401
30
0
11
61.5
21
-2.061553
31
0
39
0
210
0
220
0
230
1
0
LINE
5
C2
100
AcDbEntity
8
SK2
62
256
6
ByLayer
370
18
48
1
60
0
100
AcDbLine
10
61.5
20
2.061553
30
0
11
61.5
21
2.309401
31
0
39
0
210
0
220
0
230
1
0
LINE
5
C3
100
AcDbEntity
8
SK2
62
256
6
ByLayer
370
18
48
1
60
0
100
AcDbLine
10
87
20
-2.309401
30
0
11
87.214643
21
-2.433325
31
0
39
0
210
0
220
0
230
1
0
LINE
5
C4
100
AcDbEntity
8
SK2
62
256
6
ByLayer
370
18
48
1
60
0
100
AcDbLine
10
90.785357
20
-4.494878
30
0
11
91
21
-4.618802
31
0
39
0
210
0
220
0
230
1
0
LINE
5
C5
100
AcDbEntity
8
SK2
62
256
6
ByLayer
370
18
48
1
60
0
100
AcDbLine
10
91
20
4.618802
30
0
11
90.785357
21
4.494878
31
0
39
0
210
0
220
0
230
1
0
LINE
5
C6
100
AcDbEntity
8
SK2
62
256
6
ByLayer
370
18
48
1
60
0
100
AcDbLine
10
87.214643
20
2.433325
30
0
11
87
21
2.309401
31
0
39
0
210
0
220
0
230
1
0
LINE
5
C7
100
AcDbEntity
8
SK2
62
256
6
ByLayer
370
18
48
1
60
0
100
AcDbLine
10
95
20
2.309401
30
0
11
94.785357
21
2.433325
31
0
39
0
210
0
220
0
230
1
0
LINE
5
C8
100
AcDbEntity
8
SK2
62
256
6
ByLayer
370
18
48
1
60
0
100
AcDbLine
10
91.214643
20
4.494878
30
0
11
91
21
4.618802
31
0
39
0
210
0
220
0
230
1
0
LINE
5
C9
100
AcDbEntity
8
SK2
62
256
6
ByLayer
370
18
48
1
60
0
100
AcDbLine
10
91
20
-4.618802
30
0
11
91.214643
21
-4.494878
31
0
39
0
210
0
220
0
230
1
0
LINE
5
CA
100
AcDbEntity
8
SK2
62
256
6
ByLayer
370
18
48
1
60
0
100
AcDbLine
10
94.785357
20
-2.433325
30
0
11
95
21
-2.309401
31
0
39
0
210
0
220
0
230
1
0
LINE
5
CB
100
AcDbEntity
8
SK2
62
256
6
ByLayer
370
18
48
1
60
0
100
AcDbLine
10
87
20
2.309401
30
0
11
87
21
2.061553
31
0
39
0
210
0
220
0
230
1
0
LINE
5
CC
100
AcDbEntity
8
SK2
62
256
6
ByLayer
370
18
48
1
60
0
100
AcDbLine
10
87
20
-2.061553
30
0
11
87
21
-2.309401
31
0
39
0
210
0
220
0
230
1
0
LINE
5
CD
100
AcDbEntity
8
SK2
62
256
6
ByLayer
370
18
48
1
60
0
100
AcDbLine
10
95
20
-2.309401
30
0
11
95
21
-2.061553
31
0
39
0
210
0
220
0
230
1
0
LINE
5
CE
100
AcDbEntity
8
SK2
62
256
6
ByLayer
370
18
48
1
60
0
100
AcDbLine
10
95
20
2.061553
30
0
11
95
21
2.309401
31
0
39
0
210
0
220
0
230
1
0
LINE
5
CF
100
AcDbEntity
8
SK1
62
256
6
ByLayer
370
13
48
1
60
0
100
AcDbLine
10
-41.7
20
32.225
30
0
11
-41.7
21
32.030907
31
0
39
0
210
0
220
0
230
1
0
LINE
5
D1
100
AcDbEntity
8
SK1
62
256
6
ByLayer
370
18
48
1
60
0
100
AcDbLine
10
-48.25
20
32.225
30
0
11
-48.25
21
32.221419
31
0
39
0
210
0
220
0
230
1
0
LINE
5
D2
100
AcDbEntity
8
SK1
62
256
6
ByLayer
370
18
48
1
60
0
100
AcDbLine
10
-48.20375
20
-32.225
30
0
11
-48.20375
21
-32.218166
31
0
39
0
210
0
220
0
230
1
0
LINE
5
D3
100
AcDbEntity
8
SK1
62
256
6
ByLayer
370
13
48
1
60
0
100
AcDbLine
10
-36.7
20
-31.693112
30
0
11
-36.7
21
-32.225
31
0
39
0
210
0
220
0
230
1
0
LINE
5
D4
100
AcDbEntity
8
SK1
62
256
6
ByLayer
370
13
48
1
60
0
100
AcDbLine
10
-49.589566
20
30.49955
30
0
11
-48.969717
21
31.05184
31
0
39
0
210
0
220
0
230
1
0
LINE
5
D5
100
AcDbEntity
8
SK1
62
256
6
ByLayer
370
13
48
1
60
0
100
AcDbLine
10
-49.680346
20
-30.377456
30
0
11
-48.810766
21
-31.152256
31
0
39
0
210
0
220
0
230
1
0
LINE
5
D6
100
AcDbEntity
8
SK1
62
256
6
ByLayer
370
13
48
1
60
0
100
AcDbLine
10
-36.7
20
-31.693112
30
0
11
-40.216558
21
-31.693112
31
0
39
0
210
0
220
0
230
1
0
LINE
5
D7
100
AcDbEntity
8
SK1
62
256
6
ByLayer
370
13
48
1
60
0
100
AcDbLine
10
-36.7
20
-31.693112
30
0
11
-36.7
21
-30.40139
31
0
39
0
210
0
220
0
230
1
0
LINE
5
D8
100
AcDbEntity
8
SK1
62
256
6
ByLayer
370
18
48
1
60
0
100
AcDbLine
10
-49.9
20
-30.461345
30
0
11
-49.9
21
30.486326
31
0
39
0
210
0
220
0
230
1
0
LINE
5
D9
100
AcDbEntity
8
SK1
62
256
6
ByLayer
370
13
48
1
60
0
100
AcDbLine
10
-48.000075
20
32.218019
30
0
11
-48.000075
21
-32.2149
31
0
39
0
210
0
220
0
230
1
0
LINE
5
DA
100
AcDbEntity
8
SK1
62
256
6
ByLayer
370
18
48
1
60
0
100
AcDbLine
10
-34.8
20
-33.862803
30
0
11
-34.8
21
-36.264015
31
0
39
0
210
0
220
0
230
1
0
LINE
5
DB
100
AcDbEntity
8
SK1
62
256
6
ByLayer
370
18
48
1
60
0
100
AcDbLine
10
-39.8
20
36.013514
30
0
11
-39.8
21
33.731867
31
0
39
0
210
0
220
0
230
1
0
LINE
5
DC
100
AcDbEntity
8
SK1
62
256
6
ByLayer
370
18
48
1
60
0
100
AcDbLine
10
-2.066987
20
-37.632252
30
0
11
-2.066987
21
37.632252
31
0
39
0
210
0
220
0
230
1
0
LINE
5
DD
100
AcDbEntity
8
SK1
62
256
6
ByLayer
370
18
48
1
60
0
100
AcDbLine
10
-2.5
20
-37.882252
30
0
11
-2.5
21
37.882252
31
0
39
0
210
0
220
0
230
1
0
LINE
5
DE
100
AcDbEntity
8
SK1
62
256
6
ByLayer
370
13
48
1
60
0
100
AcDbLine
10
-0.8
20
-37.632252
30
0
11
-0.8
21
37.632252
31
0
39
0
210
0
220
0
230
1
0
LINE
5
DF
100
AcDbEntity
8
1
62
256
6
ByLayer
370
18
48
1
60
0
100
AcDbLine
10
4.95
20
49.965
30
0
11
4.949139
21
49.965
31
0
39
0
210
0
220
0
230
1
0
LINE
5
E0
100
AcDbEntity
8
1
62
256
6
ByLayer
370
18
48
1
60
0
100
AcDbLine
10
4.949139
20
49.965
30
0
11
4.948785
21
49.965
31
0
39
0
210
0
220
0
230
1
0
LINE
5
E1
100
AcDbEntity
8
1
62
256
6
ByLayer
370
18
48
1
60
0
100
AcDbLine
10
33.124598
20
32.3
30
0
11
31.95
21
32.3
31
0
39
0
210
0
220
0
230
1
0
LINE
5
E2
100
AcDbEntity
8
1
62
256
6
ByLayer
370
18
48
1
60
0
100
AcDbLine
10
31.95
20
-32.3
30
0
11
33.124598
21
-32.3
31
0
39
0
210
0
220
0
230
1
0
LINE
5
E3
100
AcDbEntity
8
1
62
256
6
ByLayer
370
18
48
1
60
0
100
AcDbLine
10
33.27989
20
-32.320445
30
0
11
33.95
21
-32.5
31
0
39
0
210
0
220
0
230
1
0
LINE
5
E4
100
AcDbEntity
8
1
62
256
6
ByLayer
370
18
48
1
60
0
100
AcDbLine
10
33.95
20
32.5
30
0
11
33.27989
21
32.320445
31
0
39
0
210
0
220
0
230
1
0
LINE
5
E5
100
AcDbEntity
8
1
62
256
6
ByLayer
370
18
48
1
60
0
100
AcDbLine
10
33.95
20
-32.5
30
0
11
108
21
-32.5
31
0
39
0
210
0
220
0
230
1
0
LINE
5
E6
100
AcDbEntity
8
1
62
256
6
ByLayer
370
18
48
1
60
0
100
AcDbLine
10
108
20
32.5
30
0
11
33.95
21
32.5
31
0
39
0
210
0
220
0
230
1
0
LINE
5
E7
100
AcDbEntity
8
1
62
256
6
ByLayer
370
18
48
1
60
0
100
AcDbLine
10
110
20
30.5
30
0
11
108
21
32.5
31
0
39
0
210
0
220
0
230
1
0
LINE
5
E8
100
AcDbEntity
8
1
62
256
6
ByLayer
370
18
48
1
60
0
100
AcDbLine
10
108
20
-32.5
30
0
11
110
21
-30.5
31
0
39
0
210
0
220
0
230
1
0
LINE
5
E9
100
AcDbEntity
8
1
62
256
6
ByLayer
370
18
48
1
60
0
100
AcDbLine
10
0
20
-49.265
30
0
11
0.7
21
-49.965
31
0
39
0
210
0
220
0
230
1
0
LINE
5
EA
100
AcDbEntity
8
1
62
256
6
ByLayer
370
18
48
1
60
0
100
AcDbLine
10
0.7
20
49.965
30
0
11
0
21
49.265
31
0
39
0
210
0
220
0
230
1
0
LINE
5
EB
100
AcDbEntity
8
1
62
256
6
ByLayer
370
18
48
1
60
0
100
AcDbLine
10
4.948785
20
49.965
30
0
11
0.7
21
49.965
31
0
39
0
210
0
220
0
230
1
0
LINE
5
EC
100
AcDbEntity
8
1
62
256
6
ByLayer
370
18
48
1
60
0
100
AcDbLine
10
0.7
20
-49.965
30
0
11
4.95
21
-49.965
31
0
39
0
210
0
220
0
230
1
0
LINE
5
ED
100
AcDbEntity
8
SK1
62
256
6
ByLayer
370
18
48
1
60
0
100
AcDbLine
10
-41.7
20
32.225
30
0
11
-48.25
21
32.225
31
0
39
0
210
0
220
0
230
1
0
LINE
5
EE
100
AcDbEntity
8
SK1
62
256
6
ByLayer
370
18
48
1
60
0
100
AcDbLine
10
-48.25
20
32.225
30
0
11
-49.849203
21
30.625797
31
0
39
0
210
0
220
0
230
1
0
LINE
5
EF
100
AcDbEntity
8
SK1
62
256
6
ByLayer
370
18
48
1
60
0
100
AcDbLine
10
-49.866779
20
-30.561971
30
0
11
-48.20375
21
-32.225
31
0
39
0
210
0
220
0
230
1
0
LINE
5
F0
100
AcDbEntity
8
SK1
62
256
6
ByLayer
370
18
48
1
60
0
100
AcDbLine
10
-48.20375
20
-32.225
30
0
11
-36.7
21
-32.225
31
0
39
0
210
0
220
0
230
1
0
LINE
5
F1
100
AcDbEntity
8
SK1
62
256
6
ByLayer
370
18
48
1
60
0
100
AcDbLine
10
-0.8
20
37.632252
30
0
11
-2.066987
21
37.632252
31
0
39
0
210
0
220
0
230
1
0
LINE
5
F2
100
AcDbEntity
8
SK1
62
256
6
ByLayer
370
18
48
1
60
0
100
AcDbLine
10
-2.066987
20
-37.632252
30
0
11
-0.8
21
-37.632252
31
0
39
0
210
0
220
0
230
1
0
LINE
5
F3
100
AcDbEntity
8
SK1
62
256
6
ByLayer
370
18
48
1
60
0
100
AcDbLine
10
-34.8
20
-36.264015
30
0
11
-21.480951
21
-36.931302
31
0
39
0
210
0
220
0
230
1
0
LINE
5
F4
100
AcDbEntity
8
SK1
62
256
6
ByLayer
370
18
48
1
60
0
100
AcDbLine
10
-7.82303
20
-37.615567
30
0
11
-2.5
21
-37.882252
31
0
39
0
210
0
220
0
230
1
0
LINE
5
F5
100
AcDbEntity
8
SK1
62
256
6
ByLayer
370
18
48
1
60
0
100
AcDbLine
10
-2.5
20
37.882252
30
0
11
-7.833372
21
37.615048
31
0
39
0
210
0
220
0
230
1
0
LINE
5
F6
100
AcDbEntity
8
SK1
62
256
6
ByLayer
370
18
48
1
60
0
100
AcDbLine
10
-21.490774
20
36.93081
30
0
11
-39.8
21
36.013514
31
0
39
0
210
0
220
0
230
1
0
LINE
5
F7
100
AcDbEntity
8
SK1
62
256
6
ByLayer
370
18
48
1
60
0
100
AcDbLine
10
-2.066987
20
37.632252
30
0
11
-2.5
21
37.882252
31
0
39
0
210
0
220
0
230
1
0
LINE
5
F8
100
AcDbEntity
8
SK1
62
256
6
ByLayer
370
18
48
1
60
0
100
AcDbLine
10
-2.5
20
-37.882252
30
0
11
-2.066987
21
-37.632252
31
0
39
0
210
0
220
0
230
1
0
LINE
5
F9
100
AcDbEntity
8
SK2
62
256
6
ByLayer
370
18
48
1
60
0
100
AcDbLine
10
136.725
20
32.5
30
0
11
136.725
21
-32.5
31
0
39
0
210
0
220
0
230
1
0
LINE
5
FA
100
AcDbEntity
8
SK2
62
256
6
ByLayer
370
18
48
1
60
0
100
AcDbLine
10
109.5875
20
-32.5
30
0
11
138.725
21
-32.5
31
0
39
0
210
0
220
0
230
1
0
LINE
5
FB
100
AcDbEntity
8
SK2
62
256
6
ByLayer
370
18
48
1
60
0
100
AcDbLine
10
109.5875
20
32.5
30
0
11
138.725
21
32.5
31
0
39
0
210
0
220
0
230
1
0
LINE
5
FC
100
AcDbEntity
8
1
62
256
6
ByLayer
370
18
48
1
60
1
100
AcDbLine
10
136.725
20
-32.5
30
0
11
136.264216
21
-29.000002
31
0
39
0
210
0
220
0
230
1
0
LINE
5
FD
100
AcDbEntity
8
1
62
256
6
ByLayer
370
18
48
1
60
1
100
AcDbLine
10
136.264216
20
-29.000002
30
0
11
137.185784
21
-28.999998
31
0
39
0
210
0
220
0
230
1
0
LINE
5
FE
100
AcDbEntity
8
1
62
256
6
ByLayer
370
18
48
1
60
1
100
AcDbLine
10
137.185784
20
-28.999998
30
0
11
136.725
21
-32.5
31
0
39
0
210
0
220
0
230
1
0
LINE
5
FF
100
AcDbEntity
8
1
62
256
6
ByLayer
370
18
48
1
60
1
100
AcDbLine
10
136.725
20
32.5
30
0
11
137.185784
21
29.000002
31
0
39
0
210
0
220
0
230
1
0
LINE
5
100
100
AcDbEntity
8
1
62
256
6
ByLayer
370
18
48
1
60
1
100
AcDbLine
10
137.185784
20
29.000002
30
0
11
136.264216
21
28.999998
31
0
39
0
210
0
220
0
230
1
0
LINE
5
101
100
AcDbEntity
8
1
62
256
6
ByLayer
370
18
48
1
60
1
100
AcDbLine
10
136.264216
20
28.999998
30
0
11
136.725
21
32.5
31
0
39
0
210
0
220
0
230
1
0
LINE
5
102
100
AcDbEntity
8
SK2
62
256
6
ByLayer
370
18
48
1
60
0
100
AcDbLine
10
-66.875
20
-49.965
30
0
11
-66.875
21
49.965
31
0
39
0
210
0
220
0
230
1
0
LINE
5
103
100
AcDbEntity
8
SK2
62
256
6
ByLayer
370
18
48
1
60
0
100
AcDbLine
10
-0.8875
20
49.965
30
0
11
-68.875
21
49.965
31
0
39
0
210
0
220
0
230
1
0
LINE
5
104
100
AcDbEntity
8
SK2
62
256
6
ByLayer
370
18
48
1
60
0
100
AcDbLine
10
-0.8875
20
-49.965
30
0
11
-68.875
21
-49.965
31
0
39
0
210
0
220
0
230
1
0
LINE
5
105
100
AcDbEntity
8
1
62
256
6
ByLayer
370
18
48
1
60
1
100
AcDbLine
10
-66.875
20
49.965
30
0
11
-66.414216
21
46.465002
31
0
39
0
210
0
220
0
230
1
0
LINE
5
106
100
AcDbEntity
8
1
62
256
6
ByLayer
370
18
48
1
60
1
100
AcDbLine
10
-66.414216
20
46.465002
30
0
11
-67.335784
21
46.464998
31
0
39
0
210
0
220
0
230
1
0
LINE
5
107
100
AcDbEntity
8
1
62
256
6
ByLayer
370
18
48
1
60
1
100
AcDbLine
10
-67.335784
20
46.464998
30
0
11
-66.875
21
49.965
31
0
39
0
210
0
220
0
230
1
0
LINE
5
108
100
AcDbEntity
8
1
62
256
6
ByLayer
370
18
48
1
60
1
100
AcDbLine
10
-66.875
20
-49.965
30
0
11
-67.335784
21
-46.465002
31
0
39
0
210
0
220
0
230
1
0
LINE
5
109
100
AcDbEntity
8
1
62
256
6
ByLayer
370
18
48
1
60
1
100
AcDbLine
10
-67.335784
20
-46.465002
30
0
11
-66.414216
21
-46.464998
31
0
39
0
210
0
220
0
230
1
0
LINE
5
10A
100
AcDbEntity
8
1
62
256
6
ByLayer
370
18
48
1
60
1
100
AcDbLine
10
-66.414216
20
-46.464998
30
0
11
-66.875
21
-49.965
31
0
39
0
210
0
220
0
230
1
0
LINE
5
10B
100
AcDbEntity
8
2
62
256
6
ByLayer
370
18
48
1
60
0
100
AcDbLine
10
28.95
20
62.815
30
0
11
110
21
62.815
31
0
39
0
210
0
220
0
230
1
0
LINE
5
10C
100
AcDbEntity
8
2
62
256
6
ByLayer
370
18
48
1
60
0
100
AcDbLine
10
110
20
32.0875
30
0
11
110
21
64.815
31
0
39
0
210
0
220
0
230
1
0
LINE
5
10D
100
AcDbEntity
8
2
62
256
6
ByLayer
370
18
48
1
60
0
100
AcDbLine
10
28.95
20
49.822547
30
0
11
28.95
21
64.815
31
0
39
0
210
0
220
0
230
1
0
LINE
5
10E
100
AcDbEntity
8
1
62
256
6
ByLayer
370
18
48
1
60
1
100
AcDbLine
10
110
20
62.815
30
0
11
106.500002
21
62.354216
31
0
39
0
210
0
220
0
230
1
0
LINE
5
10F
100
AcDbEntity
8
1
62
256
6
ByLayer
370
18
48
1
60
1
100
AcDbLine
10
106.500002
20
62.354216
30
0
11
106.499998
21
63.275784
31
0
39
0
210
0
220
0
230
1
0
LINE
5
110
100
AcDbEntity
8
1
62
256
6
ByLayer
370
18
48
1
60
1
100
AcDbLine
10
106.499998
20
63.275784
30
0
11
110
21
62.815
31
0
39
0
210
0
220
0
230
1
0
LINE
5
111
100
AcDbEntity
8
1
62
256
6
ByLayer
370
18
48
1
60
1
100
AcDbLine
10
28.95
20
62.815
30
0
11
32.449998
21
63.275784
31
0
39
0
210
0
220
0
230
1
0
LINE
5
112
100
AcDbEntity
8
1
62
256
6
ByLayer
370
18
48
1
60
1
100
AcDbLine
10
32.449998
20
63.275784
30
0
11
32.450002
21
62.354216
31
0
39
0
210
0
220
0
230
1
0
LINE
5
113
100
AcDbEntity
8
1
62
256
6
ByLayer
370
18
48
1
60
1
100
AcDbLine
10
32.450002
20
62.354216
30
0
11
28.95
21
62.815
31
0
39
0
210
0
220
0
230
1
0
LINE
5
114
100
AcDbEntity
8
SK2
62
256
6
ByLayer
370
18
48
1
60
0
100
AcDbLine
10
110
20
72.815
30
0
11
0
21
72.815
31
0
39
0
210
0
220
0
230
1
0
LINE
5
115
100
AcDbEntity
8
SK2
62
256
6
ByLayer
370
18
48
1
60
0
100
AcDbLine
10
0
20
50.8525
30
0
11
0
21
74.815
31
0
39
0
210
0
220
0
230
1
0
LINE
5
116
100
AcDbEntity
8
SK2
62
256
6
ByLayer
370
18
48
1
60
0
100
AcDbLine
10
110
20
32.0875
30
0
11
110
21
74.815
31
0
39
0
210
0
220
0
230
1
0
LINE
5
117
100
AcDbEntity
8
1
62
256
6
ByLayer
370
18
48
1
60
1
100
AcDbLine
10
0
20
72.815
30
0
11
3.499998
21
73.275784
31
0
39
0
210
0
220
0
230
1
0
LINE
5
118
100
AcDbEntity
8
1
62
256
6
ByLayer
370
18
48
1
60
1
100
AcDbLine
10
3.499998
20
73.275784
30
0
11
3.500002
21
72.354216
31
0
39
0
210
0
220
0
230
1
0
LINE
5
119
100
AcDbEntity
8
1
62
256
6
ByLayer
370
18
48
1
60
1
100
AcDbLine
10
3.500002
20
72.354216
30
0
11
0
21
72.815
31
0
39
0
210
0
220
0
230
1
0
LINE
5
11A
100
AcDbEntity
8
1
62
256
6
ByLayer
370
18
48
1
60
1
100
AcDbLine
10
110
20
72.815
30
0
11
106.500002
21
72.354216
31
0
39
0
210
0
220
0
230
1
0
LINE
5
11B
100
AcDbEntity
8
1
62
256
6
ByLayer
370
18
48
1
60
1
100
AcDbLine
10
106.500002
20
72.354216
30
0
11
106.499998
21
73.275784
31
0
39
0
210
0
220
0
230
1
0
LINE
5
11C
100
AcDbEntity
8
1
62
256
6
ByLayer
370
18
48
1
60
1
100
AcDbLine
10
106.499998
20
73.275784
30
0
11
110
21
72.815
31
0
39
0
210
0
220
0
230
1
0
LINE
5
11D
100
AcDbEntity
8
SK2
62
256
6
ByLayer
370
18
48
1
60
0
100
AcDbLine
10
-49.9
20
72.815
30
0
11
0
21
72.815
31
0
39
0
210
0
220
0
230
1
0
LINE
5
11E
100
AcDbEntity
8
SK2
62
256
6
ByLayer
370
18
48
1
60
0
100
AcDbLine
10
0
20
50.8525
30
0
11
0
21
74.815
31
0
39
0
210
0
220
0
230
1
0
LINE
5
11F
100
AcDbEntity
8
SK2
62
256
6
ByLayer
370
18
48
1
60
0
100
AcDbLine
10
-49.9
20
32.073826
30
0
11
-49.9
21
74.815
31
0
39
0
210
0
220
0
230
1
0
LINE
5
120
100
AcDbEntity
8
1
62
256
6
ByLayer
370
18
48
1
60
1
100
AcDbLine
10
0
20
72.815
30
0
11
-3.499998
21
72.354216
31
0
39
0
210
0
220
0
230
1
0
LINE
5
121
100
AcDbEntity
8
1
62
256
6
ByLayer
370
18
48
1
60
1
100
AcDbLine
10
-3.499998
20
72.354216
30
0
11
-3.500002
21
73.275784
31
0
39
0
210
0
220
0
230
1
0
LINE
5
122
100
AcDbEntity
8
1
62
256
6
ByLayer
370
18
48
1
60
1
100
AcDbLine
10
-3.500002
20
73.275784
30
0
11
0
21
72.815
31
0
39
0
210
0
220
0
230
1
0
LINE
5
123
100
AcDbEntity
8
1
62
256
6
ByLayer
370
18
48
1
60
1
100
AcDbLine
10
-49.9
20
72.815
30
0
11
-46.400002
21
73.275784
31
0
39
0
210
0
220
0
230
1
0
LINE
5
124
100
AcDbEntity
8
1
62
256
6
ByLayer
370
18
48
1
60
1
100
AcDbLine
10
-46.400002
20
73.275784
30
0
11
-46.399998
21
72.354216
31
0
39
0
210
0
220
0
230
1
0
LINE
5
125
100
AcDbEntity
8
1
62
256
6
ByLayer
370
18
48
1
60
1
100
AcDbLine
10
-46.399998
20
72.354216
30
0
11
-49.9
21
72.815
31
0
39
0
210
0
220
0
230
1
0
LINE
5
18F
100
AcDbEntity
8
1
62
256
6
ByLayer
370
18
48
1
60
1
100
AcDbLine
10
136.725
20
-32.5
30
0
11
136.264216
21
-29.000002
31
0
39
0
210
0
220
0
230
1
0
LINE
5
190
100
AcDbEntity
8
1
62
256
6
ByLayer
370
18
48
1
60
1
100
AcDbLine
10
136.264216
20
-29.000002
30
0
11
137.185784
21
-28.999998
31
0
39
0
210
0
220
0
230
1
0
LINE
5
191
100
AcDbEntity
8
1
62
256
6
ByLayer
370
18
48
1
60
1
100
AcDbLine
10
137.185784
20
-28.999998
30
0
11
136.725
21
-32.5
31
0
39
0
210
0
220
0
230
1
0
LINE
5
193
100
AcDbEntity
8
1
62
256
6
ByLayer
370
18
48
1
60
1
100
AcDbLine
10
136.725
20
32.5
30
0
11
137.185784
21
29.000002
31
0
39
0
210
0
220
0
230
1
0
LINE
5
194
100
AcDbEntity
8
1
62
256
6
ByLayer
370
18
48
1
60
1
100
AcDbLine
10
137.185784
20
29.000002
30
0
11
136.264216
21
28.999998
31
0
39
0
210
0
220
0
230
1
0
LINE
5
195
100
AcDbEntity
8
1
62
256
6
ByLayer
370
18
48
1
60
1
100
AcDbLine
10
136.264216
20
28.999998
30
0
11
136.725
21
32.5
31
0
39
0
210
0
220
0
230
1
0
LINE
5
199
100
AcDbEntity
8
1
62
256
6
ByLayer
370
18
48
1
60
1
100
AcDbLine
10
-66.875
20
49.965
30
0
11
-66.414216
21
46.465002
31
0
39
0
210
0
220
0
230
1
0
LINE
5
19A
100
AcDbEntity
8
1
62
256
6
ByLayer
370
18
48
1
60
1
100
AcDbLine
10
-66.414216
20
46.465002
30
0
11
-67.335784
21
46.464998
31
0
39
0
210
0
220
0
230
1
0
LINE
5
19B
100
AcDbEntity
8
1
62
256
6
ByLayer
370
18
48
1
60
1
100
AcDbLine
10
-67.335784
20
46.464998
30
0
11
-66.875
21
49.965
31
0
39
0
210
0
220
0
230
1
0
LINE
5
19D
100
AcDbEntity
8
1
62
256
6
ByLayer
370
18
48
1
60
1
100
AcDbLine
10
-66.875
20
-49.965
30
0
11
-67.335784
21
-46.465002
31
0
39
0
210
0
220
0
230
1
0
LINE
5
19E
100
AcDbEntity
8
1
62
256
6
ByLayer
370
18
48
1
60
1
100
AcDbLine
10
-67.335784
20
-46.465002
30
0
11
-66.414216
21
-46.464998
31
0
39
0
210
0
220
0
230
1
0
LINE
5
19F
100
AcDbEntity
8
1
62
256
6
ByLayer
370
18
48
1
60
1
100
AcDbLine
10
-66.414216
20
-46.464998
30
0
11
-66.875
21
-49.965
31
0
39
0
210
0
220
0
230
1
0
LINE
5
1A2
100
AcDbEntity
8
1
62
256
6
ByLayer
370
18
48
1
60
1
100
AcDbLine
10
110
20
62.815
30
0
11
106.500002
21
62.354216
31
0
39
0
210
0
220
0
230
1
0
LINE
5
1A3
100
AcDbEntity
8
1
62
256
6
ByLayer
370
18
48
1
60
1
100
AcDbLine
10
106.500002
20
62.354216
30
0
11
106.499998
21
63.275784
31
0
39
0
210
0
220
0
230
1
0
LINE
5
1A4
100
AcDbEntity
8
1
62
256
6
ByLayer
370
18
48
1
60
1
100
AcDbLine
10
106.499998
20
63.275784
30
0
11
110
21
62.815
31
0
39
0
210
0
220
0
230
1
0
LINE
5
1A6
100
AcDbEntity
8
1
62
256
6
ByLayer
370
18
48
1
60
1
100
AcDbLine
10
28.95
20
62.815
30
0
11
32.449998
21
63.275784
31
0
39
0
210
0
220
0
230
1
0
LINE
5
1A7
100
AcDbEntity
8
1
62
256
6
ByLayer
370
18
48
1
60
1
100
AcDbLine
10
32.449998
20
63.275784
30
0
11
32.450002
21
62.354216
31
0
39
0
210
0
220
0
230
1
0
LINE
5
1A8
100
AcDbEntity
8
1
62
256
6
ByLayer
370
18
48
1
60
1
100
AcDbLine
10
32.450002
20
62.354216
30
0
11
28.95
21
62.815
31
0
39
0
210
0
220
0
230
1
0
LINE
5
1AB
100
AcDbEntity
8
1
62
256
6
ByLayer
370
18
48
1
60
1
100
AcDbLine
10
0
20
72.815
30
0
11
3.499998
21
73.275784
31
0
39
0
210
0
220
0
230
1
0
LINE
5
1AC
100
AcDbEntity
8
1
62
256
6
ByLayer
370
18
48
1
60
1
100
AcDbLine
10
3.499998
20
73.275784
30
0
11
3.500002
21
72.354216
31
0
39
0
210
0
220
0
230
1
0
LINE
5
1AD
100
AcDbEntity
8
1
62
256
6
ByLayer
370
18
48
1
60
1
100
AcDbLine
10
3.500002
20
72.354216
30
0
11
0
21
72.815
31
0
39
0
210
0
220
0
230
1
0
LINE
5
1AF
100
AcDbEntity
8
1
62
256
6
ByLayer
370
18
48
1
60
1
100
AcDbLine
10
110
20
72.815
30
0
11
106.500002
21
72.354216
31
0
39
0
210
0
220
0
230
1
0
LINE
5
1B0
100
AcDbEntity
8
1
62
256
6
ByLayer
370
18
48
1
60
1
100
AcDbLine
10
106.500002
20
72.354216
30
0
11
106.499998
21
73.275784
31
0
39
0
210
0
220
0
230
1
0
LINE
5
1B1
100
AcDbEntity
8
1
62
256
6
ByLayer
370
18
48
1
60
1
100
AcDbLine
10
106.499998
20
73.275784
30
0
11
110
21
72.815
31
0
39
0
210
0
220
0
230
1
0
LINE
5
1B4
100
AcDbEntity
8
1
62
256
6
ByLayer
370
18
48
1
60
1
100
AcDbLine
10
0
20
72.815
30
0
11
-3.499998
21
72.354216
31
0
39
0
210
0
220
0
230
1
0
LINE
5
1B5
100
AcDbEntity
8
1
62
256
6
ByLayer
370
18
48
1
60
1
100
AcDbLine
10
-3.499998
20
72.354216
30
0
11
-3.500002
21
73.275784
31
0
39
0
210
0
220
0
230
1
0
LINE
5
1B6
100
AcDbEntity
8
1
62
256
6
ByLayer
370
18
48
1
60
1
100
AcDbLine
10
-3.500002
20
73.275784
30
0
11
0
21
72.815
31
0
39
0
210
0
220
0
230
1
0
LINE
5
1B8
100
AcDbEntity
8
1
62
256
6
ByLayer
370
18
48
1
60
1
100
AcDbLine
10
-49.9
20
72.815
30
0
11
-46.400002
21
73.275784
31
0
39
0
210
0
220
0
230
1
0
LINE
5
1B9
100
AcDbEntity
8
1
62
256
6
ByLayer
370
18
48
1
60
1
100
AcDbLine
10
-46.400002
20
73.275784
30
0
11
-46.399998
21
72.354216
31
0
39
0
210
0
220
0
230
1
0
LINE
5
1BA
100
AcDbEntity
8
1
62
256
6
ByLayer
370
18
48
1
60
1
100
AcDbLine
10
-46.399998
20
72.354216
30
0
11
-49.9
21
72.815
31
0
39
0
210
0
220
0
230
1
0
MTEXT
5
18B
100
AcDbEntity
8
SK2
62
256
6
ByLayer
370
18
48
1
60
0
100
AcDbMText
10
135.160366
20
-4.530622
30
0
210
0
220
0
230
1
1
%%c
40
3.5
41
0
44
1.084337
50
90
71
7
72
5
7
iso_b_vert
0
MTEXT
5
18E
100
AcDbEntity
8
SK2
62
256
6
ByLayer
370
18
48
1
60
0
100
AcDbMText
10
135.160366
20
2.442034
30
0
210
0
220
0
230
1
1
\W0.6740;65
40
3.5
41
0
44
1.084337
50
90
71
7
72
5
7
iso_b_vert
0
MTEXT
5
197
100
AcDbEntity
8
SK2
62
256
6
ByLayer
370
18
48
1
60
0
100
AcDbMText
10
-68.439634
20
-5.400922
30
0
210
0
220
0
230
1
1
%%c
40
3.5
41
0
44
1.084337
50
90
71
7
72
5
7
iso_b_vert
0
MTEXT
5
198
100
AcDbEntity
8
SK2
62
256
6
ByLayer
370
18
48
1
60
0
100
AcDbMText
10
-68.439634
20
1.571734
30
0
210
0
220
0
230
1
1
\W0.6217;100
40
3.5
41
0
44
1.084337
50
90
71
7
72
5
7
iso_b_vert
0
MTEXT
5
1A1
100
AcDbEntity
8
2
62
256
6
ByLayer
370
18
48
1
60
0
100
AcDbMText
10
68.007467
20
63.847634
30
0
210
0
220
0
230
1
1
\W0.6351;81
40
3.5
41
0
44
1.084337
50
0
71
7
72
5
7
iso_b_vert
0
MTEXT
5
1AA
100
AcDbEntity
8
SK2
62
256
6
ByLayer
370
18
48
1
60
0
100
AcDbMText
10
52.662167
20
73.847634
30
0
210
0
220
0
230
1
1
\W0.5296;110
40
3.5
41
0
44
1.084337
50
0
71
7
72
5
7
iso_b_vert
0
MTEXT
5
1B3
100
AcDbEntity
8
SK2
62
256
6
ByLayer
370
18
48
1
60
0
100
AcDbMText
10
-29.055966
20
73.847634
30
0
210
0
220
0
230
1
1
\W0.7756;49.9
40
3.5
41
0
44
1.084337
50
0
71
7
72
5
7
iso_b_vert
0
MTEXT
5
1BC
100
AcDbEntity
8
SK6
62
256
6
ByLayer
370
18
48
1
60
0
100
AcDbMText
10
60.482089
20
-92.114886
30
0
210
0
220
0
230
1
1
\W0.7398;HT10-DR40-A065-110
40
3
41
0
44
1.084337
50
0
71
7
72
5
7
iso_b_vert
0
HATCH
5
192
100
AcDbEntity
8
SK2
62
256
6
ByLayer
370
13
48
1
60
0
100
AcDbHatch
10
0
20
0
30
0
210
0
220
0
230
1
2
ANSI31
70
0
71
0
91
1
92
5
93
3
72
1
10
136.725
20
-32.4999999999999
11
136.264216258447
21
-29.0000016925531
72
1
10
136.264216258447
20
-29.0000016925531
11
137.185783741553
21
-28.9999983074467
72
1
10
137.185783741553
20
-28.9999983074467
11
136.725
21
-32.4999999999999
97
0
75
0
76
1
52
0
41
0.0062
77
0
78
1
53
45
43
0
44
0
45
-0.0139193969876572
46
0.0139193969876572
79
0
47
0
98
1
10
0
20
0
0
HATCH
5
196
100
AcDbEntity
8
SK2
62
256
6
ByLayer
370
13
48
1
60
0
100
AcDbHatch
10
0
20
0
30
0
210
0
220
0
230
1
2
ANSI31
70
0
71
0
91
1
92
5
93
3
72
1
10
136.725
20
32.5000000000001
11
137.185783741553
21
29.0000016925533
72
1
10
137.185783741553
20
29.0000016925533
11
136.264216258447
21
28.999998307447
72
1
10
136.264216258447
20
28.999998307447
11
136.725
21
32.5000000000001
97
0
75
0
76
1
52
0
41
0.0062
77
0
78
1
53
45
43
0
44
0
45
-0.0139193969876572
46
0.0139193969876572
79
0
47
0
98
1
10
0
20
0
0
HATCH
5
19C
100
AcDbEntity
8
SK2
62
256
6
ByLayer
370
13
48
1
60
0
100
AcDbHatch
10
0
20
0
30
0
210
0
220
0
230
1
2
ANSI31
70
0
71
0
91
1
92
5
93
3
72
1
10
-66.8750000000001
20
49.965
11
-66.4142162584473
21
46.4650016925532
72
1
10
-66.4142162584473
20
46.4650016925532
11
-67.3357837415528
21
46.4649983074468
72
1
10
-67.3357837415528
20
46.4649983074468
11
-66.8750000000001
21
49.965
97
0
75
0
76
1
52
0
41
0.0062
77
0
78
1
53
45
43
0
44
0
45
-0.0139193969876572
46
0.0139193969876572
79
0
47
0
98
1
10
0
20
0
0
HATCH
5
1A0
100
AcDbEntity
8
SK2
62
256
6
ByLayer
370
13
48
1
60
0
100
AcDbHatch
10
0
20
0
30
0
210
0
220
0
230
1
2
ANSI31
70
0
71
0
91
1
92
5
93
3
72
1
10
-66.8750000000001
20
-49.965
11
-67.3357837415528
21
-46.4650016925532
72
1
10
-67.3357837415528
20
-46.4650016925532
11
-66.4142162584473
21
-46.4649983074468
72
1
10
-66.4142162584473
20
-46.4649983074468
11
-66.8750000000001
21
-49.965
97
0
75
0
76
1
52
0
41
0.0062
77
0
78
1
53
45
43
0
44
0
45
-0.0139193969876572
46
0.0139193969876572
79
0
47
0
98
1
10
0
20
0
0
HATCH
5
1A5
100
AcDbEntity
8
2
62
256
6
ByLayer
370
13
48
1
60
0
100
AcDbHatch
10
0
20
0
30
0
210
0
220
0
230
1
2
ANSI31
70
0
71
0
91
1
92
5
93
3
72
1
10
110
20
62.8150000000001
11
106.500001692553
21
62.3542162584474
72
1
10
106.500001692553
20
62.3542162584474
11
106.499998307447
21
63.2757837415529
72
1
10
106.499998307447
20
63.2757837415529
11
110
21
62.8150000000001
97
0
75
0
76
1
52
0
41
0.0062
77
0
78
1
53
45
43
0
44
0
45
-0.0139193969876572
46
0.0139193969876572
79
0
47
0
98
1
10
0
20
0
0
HATCH
5
1A9
100
AcDbEntity
8
2
62
256
6
ByLayer
370
13
48
1
60
0
100
AcDbHatch
10
0
20
0
30
0
210
0
220
0
230
1
2
ANSI31
70
0
71
0
91
1
92
5
93
3
72
1
10
28.95
20
62.8150000000001
11
32.4499983074468
21
63.2757837415529
72
1
10
32.4499983074468
20
63.2757837415529
11
32.4500016925532
21
62.3542162584474
72
1
10
32.4500016925532
20
62.3542162584474
11
28.95
21
62.8150000000001
97
0
75
0
76
1
52
0
41
0.0062
77
0
78
1
53
45
43
0
44
0
45
-0.0139193969876572
46
0.0139193969876572
79
0
47
0
98
1
10
0
20
0
0
HATCH
5
1AE
100
AcDbEntity
8
SK2
62
256
6
ByLayer
370
13
48
1
60
0
100
AcDbHatch
10
0
20
0
30
0
210
0
220
0
230
1
2
ANSI31
70
0
71
0
91
1
92
5
93
3
72
1
10
0
20
72.8150000000001
11
3.4999983074468
21
73.2757837415529
72
1
10
3.4999983074468
20
73.2757837415529
11
3.5000016925532
21
72.3542162584474
72
1
10
3.5000016925532
20
72.3542162584474
11
0
21
72.8150000000001
97
0
75
0
76
1
52
0
41
0.0062
77
0
78
1
53
45
43
0
44
0
45
-0.0139193969876572
46
0.0139193969876572
79
0
47
0
98
1
10
0
20
0
0
HATCH
5
1B2
100
AcDbEntity
8
SK2
62
256
6
ByLayer
370
13
48
1
60
0
100
AcDbHatch
10
0
20
0
30
0
210
0
220
0
230
1
2
ANSI31
70
0
71
0
91
1
92
5
93
3
72
1
10
110
20
72.8150000000001
11
106.500001692553
21
72.3542162584474
72
1
10
106.500001692553
20
72.3542162584474
11
106.499998307447
21
73.2757837415529
72
1
10
106.499998307447
20
73.2757837415529
11
110
21
72.8150000000001
97
0
75
0
76
1
52
0
41
0.0062
77
0
78
1
53
45
43
0
44
0
45
-0.0139193969876572
46
0.0139193969876572
79
0
47
0
98
1
10
0
20
0
0
HATCH
5
1B7
100
AcDbEntity
8
SK2
62
256
6
ByLayer
370
13
48
1
60
0
100
AcDbHatch
10
0
20
0
30
0
210
0
220
0
230
1
2
ANSI31
70
0
71
0
91
1
92
5
93
3
72
1
10
0
20
72.8150000000001
11
-3.4999983074468
21
72.3542162584474
72
1
10
-3.4999983074468
20
72.3542162584474
11
-3.5000016925532
21
73.2757837415529
72
1
10
-3.5000016925532
20
73.2757837415529
11
0
21
72.8150000000001
97
0
75
0
76
1
52
0
41
0.0062
77
0
78
1
53
45
43
0
44
0
45
-0.0139193969876572
46
0.0139193969876572
79
0
47
0
98
1
10
0
20
0
0
HATCH
5
1BB
100
AcDbEntity
8
SK2
62
256
6
ByLayer
370
13
48
1
60
0
100
AcDbHatch
10
0
20
0
30
0
210
0
220
0
230
1
2
ANSI31
70
0
71
0
91
1
92
5
93
3
72
1
10
-49.9
20
72.8150000000001
11
-46.4000016925532
21
73.2757837415529
72
1
10
-46.4000016925532
20
73.2757837415529
11
-46.3999983074468
21
72.3542162584474
72
1
10
-46.3999983074468
20
72.3542162584474
11
-49.9
21
72.8150000000001
97
0
75
0
76
1
52
0
41
0.0062
77
0
78
1
53
45
43
0
44
0
45
-0.0139193969876572
46
0.0139193969876572
79
0
47
0
98
1
10
0
20
0
0
ENDSEC
0
SECTION
2
OBJECTS
0
DICTIONARY
5
22a
330
0
100
AcDbDictionary
280
0
281
1
3
ACAD_GROUP
350
22b
3
ACAD_MLINESTYLE
350
22c
0
DICTIONARY
5
22b
330
0
100
AcDbDictionary
280
0
281
1
0
DICTIONARY
5
22c
330
0
100
AcDbDictionary
280
0
281
1
3
Standard
350
18
0
MLINESTYLE
5
18
330
22c
100
AcDbMlineStyle
2
Standard
70
0
3

62
256
51
90
52
90
71
2
49
-0.5
62
256
6
ByLayer
49
0.5
62
256
6
ByLayer
0
RASTERVARIABLES
5
219
330

100
AcDbRasterVariables
90
0
70
1
71
1
72
1
0
ENDSEC
0
EOF
