0
SECTION
2
HEADER
9
$ACADVER
1
AC1015
9
$DWGCODEPAGE
3
ANSI_1252
9
$HANDSEED
5
24b
9
$ANGBASE
50
0
9
$ANGDIR
70
0
9
$ATTMODE
70
1
9
$AUNITS
70
0
9
$AUPREC
70
0
9
$CECOLOR
62
256
9
$CELTSCALE
40
1
9
$CELTYPE
6
ByLayer
9
$CELWEIGHT
370
18
9
$CLAYER
8
0
9
$CMLJUST
70
0
9
$CMLSCALE
40
1
9
$CMLSTYLE
2
Standard
9
$DIMSTYLE
2
Standard
9
$TEXTSIZE
40
0.2
9
$TEXTSTYLE
7
Standard
9
$LUNITS
70
2
9
$LUPREC
70
4
9
$EXTNAMES
290
1
9
$INSUNITS
70
4
9
$LTSCALE
40
1
9
$LWDISPLAY
290
1
9
$PDMODE
70
0
9
$PDSIZE
40
0
9
$PLINEGEN
70
0
0
ENDSEC
0
SECTION
2
CLASSES
0
CLASS
1
RASTERVARIABLES
2
AcDbRasterVariables
3
ISM
90
0
280
0
281
0
0
ENDSEC
0
SECTION
2
TABLES
0
TABLE
2
VPORT
5
241
100
AcDbSymbolTable
0
VPORT
5
1
100
AcDbSymbolTableRecord
100
AcDbViewportTableRecord
2
*Active
70
0
10
0
20
0
11
1
21
1
12
-1
22
1
13
0
23
0
14
0.5
24
0.5
15
10
25
10
16
0
26
0
36
1
17
0
27
0
37
0
0
ENDTAB
0
TABLE
2
LTYPE
5
242
100
AcDbSymbolTable
0
LTYPE
5
14
100
AcDbSymbolTableRecord
100
AcDbLinetypeTableRecord
70
0
2
ByBlock
3

72
65
73
0
40
0
0
LTYPE
5
15
100
AcDbSymbolTableRecord
100
AcDbLinetypeTableRecord
70
0
2
ByLayer
3

72
65
73
0
40
0
0
LTYPE
5
16
100
AcDbSymbolTableRecord
100
AcDbLinetypeTableRecord
70
0
2
Continuous
3
Solid line
72
65
73
0
40
0
0
LTYPE
5
6E
100
AcDbSymbolTableRecord
100
AcDbLinetypeTableRecord
70
0
2
CENTER
3
____ _ ____ _ ____ _ ____
72
65
73
4
40
47.5
49
22
74
0
49
-8.5
74
0
49
8.5
74
0
49
-8.5
74
0
0
LTYPE
5
6F
100
AcDbSymbolTableRecord
100
AcDbLinetypeTableRecord
70
0
2
DASHED
3
__ __ __ __ __ __ __ __ __
72
65
73
2
40
25.72
49
12.86
74
0
49
-12.86
74
0
0
ENDTAB
0
TABLE
2
LAYER
5
243
100
AcDbSymbolTable
0
LAYER
5
10
100
AcDbSymbolTableRecord
100
AcDbLayerTableRecord
2
0
70
0
62
7
6
Continuous
290
1
370
-3
390
0
0
LAYER
5
71
100
AcDbSymbolTableRecord
100
AcDbLayerTableRecord
2
2
70
0
62
7
6
Continuous
290
1
370
-3
390
0
0
LAYER
5
87
100
AcDbSymbolTableRecord
100
AcDbLayerTableRecord
2
81
70
0
62
-3
6
Continuous
290
1
370
-3
390
0
0
LAYER
5
89
100
AcDbSymbolTableRecord
100
AcDbLayerTableRecord
2
80
70
0
62
-6
6
Continuous
290
1
370
-3
390
0
0
LAYER
5
8B
100
AcDbSymbolTableRecord
100
AcDbLayerTableRecord
2
4
70
0
62
-2
6
CENTER
290
1
370
-3
390
0
0
LAYER
5
8F
100
AcDbSymbolTableRecord
100
AcDbLayerTableRecord
2
1
70
0
62
4
6
Continuous
290
1
370
-3
390
0
0
LAYER
5
22e
100
AcDbSymbolTableRecord
100
AcDbLayerTableRecord
2
SK1
70
0
62
4
6
Continuous
290
1
370
-3
390
0
0
LAYER
5
22f
100
AcDbSymbolTableRecord
100
AcDbLayerTableRecord
2
SK2
70
0
62
7
6
Continuous
290
1
370
-3
390
0
0
LAYER
5
230
100
AcDbSymbolTableRecord
100
AcDbLayerTableRecord
2
SK6
70
0
62
5
6
Continuous
290
1
370
-3
390
0
0
ENDTAB
0
TABLE
2
STYLE
5
244
100
AcDbSymbolTable
0
STYLE
5
11
100
AcDbSymbolTableRecord
100
AcDbTextStyleTableRecord
2
Standard
3
txt
70
0
71
0
40
0
41
1
42
0
50
0
0
STYLE
5
1A0
100
AcDbSymbolTableRecord
100
AcDbTextStyleTableRecord
2
iso_b_vert
3
simplex.shx
70
0
71
0
40
0
41
1
42
0
50
0
0
STYLE
5
1A1
100
AcDbSymbolTableRecord
100
AcDbTextStyleTableRecord
2
DWGDirectTextStyle
3
simplex
70
0
71
0
40
0
41
1
42
0
50
0
0
ENDTAB
0
TABLE
2
DIMSTYLE
5
245
100
AcDbSymbolTable
100
AcDbDimStyleTable
0
DIMSTYLE
105
27
100
AcDbSymbolTableRecord
100
AcDbDimStyleTableRecord
2
Standard
70
0
3
<>
41
0.18
42
0.0625
44
0.18
140
0.18
147
0.09
73
0
74
0
77
1
271
2
275
0
278
52
280
0
340
11
0
ENDTAB
0
TABLE
2
VIEW
5
246
100
AcDbSymbolTable
0
ENDTAB
0
TABLE
2
UCS
5
247
100
AcDbSymbolTable
0
ENDTAB
0
TABLE
2
APPID
5
248
100
AcDbSymbolTable
0
APPID
5
12
100
AcDbSymbolTableRecord
100
AcDbRegAppTableRecord
2
ACAD
70
0
0
APPID
5
22A
100
AcDbSymbolTableRecord
100
AcDbRegAppTableRecord
2
ACAD_MLEADERVER
70
0
0
ENDTAB
0
TABLE
2
BLOCK_RECORD
5
249
100
AcDbSymbolTable
0
BLOCK_RECORD
5
1F
100
AcDbSymbolTableRecord
100
AcDbBlockTableRecord
2
*Model_Space
340
0
70
0
0
BLOCK_RECORD
5
1B
100
AcDbSymbolTableRecord
100
AcDbBlockTableRecord
2
*Paper_Space
340
0
70
0
0
BLOCK_RECORD
5
23
100
AcDbSymbolTableRecord
100
AcDbBlockTableRecord
2
*Paper_Space0
340
0
70
0
0
ENDTAB
0
ENDSEC
0
SECTION
2
BLOCKS
0
BLOCK
5
20
100
AcDbEntity
8
0
100
AcDbBlockBegin
2
*Model_Space
70
0
10
0
20
0
30
0
3
*Model_Space
0
ENDBLK
5
21
100
AcDbEntity
8
0
100
AcDbBlockEnd
0
BLOCK
5
1C
100
AcDbEntity
8
0
100
AcDbBlockBegin
2
*Paper_Space
70
0
10
0
20
0
30
0
3
*Paper_Space
0
ENDBLK
5
1D
100
AcDbEntity
8
0
100
AcDbBlockEnd
0
BLOCK
5
24
100
AcDbEntity
8
0
100
AcDbBlockBegin
2
*Paper_Space0
70
0
10
0
20
0
30
0
3
*Paper_Space0
0
ENDBLK
5
25
100
AcDbEntity
8
0
100
AcDbBlockEnd
0
ENDSEC
0
SECTION
2
ENTITIES
0
ARC
5
118
100
AcDbEntity
8
SK2
62
256
6
ByLayer
370
18
48
1
60
0
100
AcDbCircle
39
0
10
51
20
0
30
0
40
5.77350269189593
210
0
220
0
230
1
100
AcDbArc
50
150
51
210
0
ARC
5
119
100
AcDbEntity
8
SK2
62
256
6
ByLayer
370
18
48
1
60
0
100
AcDbCircle
39
0
10
51
20
0
30
0
40
5.77350269189593
210
0
220
0
230
1
100
AcDbArc
50
330
51
30
0
ARC
5
11A
100
AcDbEntity
8
SK2
62
256
6
ByLayer
370
18
48
1
60
0
100
AcDbCircle
39
0
10
51
20
0
30
0
40
5.77350269189593
210
0
220
0
230
1
100
AcDbArc
50
30
51
90
0
ARC
5
11B
100
AcDbEntity
8
SK2
62
256
6
ByLayer
370
18
48
1
60
0
100
AcDbCircle
39
0
10
51
20
0
30
0
40
5.77350269189593
210
0
220
0
230
1
100
AcDbArc
50
210
51
270
0
ARC
5
11C
100
AcDbEntity
8
SK2
62
256
6
ByLayer
370
18
48
1
60
0
100
AcDbCircle
39
0
10
51
20
0
30
0
40
5.77350269189593
210
0
220
0
230
1
100
AcDbArc
50
90
51
150
0
ARC
5
11D
100
AcDbEntity
8
SK2
62
256
6
ByLayer
370
18
48
1
60
0
100
AcDbCircle
39
0
10
51
20
0
30
0
40
5.77350269189593
210
0
220
0
230
1
100
AcDbArc
50
270
51
330
0
ARC
5
11F
100
AcDbEntity
8
SK2
62
256
6
ByLayer
370
18
48
1
60
0
100
AcDbCircle
39
0
10
76
20
0
30
0
40
5.77350269189593
210
0
220
0
230
1
100
AcDbArc
50
150
51
210
0
ARC
5
120
100
AcDbEntity
8
SK2
62
256
6
ByLayer
370
18
48
1
60
0
100
AcDbCircle
39
0
10
76
20
0
30
0
40
5.77350269189593
210
0
220
0
230
1
100
AcDbArc
50
330
51
30
0
ARC
5
121
100
AcDbEntity
8
SK2
62
256
6
ByLayer
370
18
48
1
60
0
100
AcDbCircle
39
0
10
76
20
0
30
0
40
5.77350269189593
210
0
220
0
230
1
100
AcDbArc
50
30
51
90
0
ARC
5
122
100
AcDbEntity
8
SK2
62
256
6
ByLayer
370
18
48
1
60
0
100
AcDbCircle
39
0
10
76
20
0
30
0
40
5.77350269189593
210
0
220
0
230
1
100
AcDbArc
50
210
51
270
0
ARC
5
123
100
AcDbEntity
8
SK2
62
256
6
ByLayer
370
18
48
1
60
0
100
AcDbCircle
39
0
10
76
20
0
30
0
40
5.77350269189593
210
0
220
0
230
1
100
AcDbArc
50
90
51
150
0
ARC
5
124
100
AcDbEntity
8
SK2
62
256
6
ByLayer
370
18
48
1
60
0
100
AcDbCircle
39
0
10
76
20
0
30
0
40
5.77350269189593
210
0
220
0
230
1
100
AcDbArc
50
270
51
330
0
ARC
5
125
100
AcDbEntity
8
1
62
256
6
ByLayer
370
18
48
1
60
0
100
AcDbCircle
39
0
10
30.624598
20
32.9
30
0
40
0.600000000000001
210
0
220
0
230
1
100
AcDbArc
50
270
51
285
0
ARC
5
126
100
AcDbEntity
8
1
62
256
6
ByLayer
370
18
48
1
60
0
100
AcDbCircle
39
0
10
30.624598
20
-32.9
30
0
40
0.600000000000001
210
0
220
0
230
1
100
AcDbArc
50
75
51
90
0
ARC
5
127
100
AcDbEntity
8
1
62
256
6
ByLayer
370
18
48
1
60
0
100
AcDbCircle
39
0
10
29.95
20
33.3
30
0
40
1
210
0
220
0
230
1
100
AcDbArc
50
180
51
270
0
ARC
5
128
100
AcDbEntity
8
1
62
256
6
ByLayer
370
18
48
1
60
0
100
AcDbCircle
39
0
10
29.95
20
-33.3
30
0
40
1
210
0
220
0
230
1
100
AcDbArc
50
90
51
180
0
ARC
5
129
100
AcDbEntity
8
SK1
62
256
6
ByLayer
370
18
48
1
60
0
100
AcDbCircle
39
0
10
-41.7
20
34.125
30
0
40
1.9
210
0
220
0
230
1
100
AcDbArc
50
270
51
313.91428
0
ARC
5
12A
100
AcDbEntity
8
SK1
62
256
6
ByLayer
370
18
48
1
60
0
100
AcDbCircle
39
0
10
-36.7
20
-34.125
30
0
40
1.9
210
0
220
0
230
1
100
AcDbArc
50
34.902187
51
90
0
ARC
5
12B
100
AcDbEntity
8
SK1
62
256
6
ByLayer
370
18
48
1
60
0
100
AcDbCircle
39
0
10
-0.8
20
38.632252
30
0
40
1
210
0
220
0
230
1
100
AcDbArc
50
270
51
323.130102
0
ARC
5
12C
100
AcDbEntity
8
SK1
62
256
6
ByLayer
370
18
48
1
60
0
100
AcDbCircle
39
0
10
-0.8
20
-38.632252
30
0
40
1
210
0
220
0
230
1
100
AcDbArc
50
36.869898
51
90
0
ARC
5
12D
100
AcDbEntity
8
1
62
256
6
ByLayer
370
18
48
1
60
0
100
AcDbCircle
39
0
10
43.5
20
21.285613
30
0
40
1.9
210
0
220
0
230
1
100
AcDbArc
50
33.738742
51
146.255621
0
CIRCLE
5
117
100
AcDbEntity
8
SK2
62
256
6
ByLayer
370
18
48
1
60
0
100
AcDbCircle
10
51
20
0
30
0
40
7.5
39
0
210
0
220
0
230
1
0
CIRCLE
5
11E
100
AcDbEntity
8
SK2
62
256
6
ByLayer
370
18
48
1
60
0
100
AcDbCircle
10
76
20
0
30
0
40
7.5
39
0
210
0
220
0
230
1
0
ELLIPSE
5
12E
100
AcDbEntity
8
1
62
256
6
ByLayer
370
18
48
1
60
0
100
AcDbEllipse
10
43.5
20
23.162742
30
0
11
2.50000000000002
21
0
31
0
210
0
220
0
230
1
40
0.694658
41
-1.30808052465131
42
0
0
ELLIPSE
5
12F
100
AcDbEntity
8
1
62
256
6
ByLayer
370
18
48
1
60
0
100
AcDbEllipse
10
43.5
20
23.162742
30
0
11
2.50000000000002
21
0
31
0
210
0
220
0
230
1
40
0.694658
41
0
42
-1.83351184011358
0
ELLIPSE
5
130
100
AcDbEntity
8
1
62
256
6
ByLayer
370
18
48
1
60
0
100
AcDbEllipse
10
43.5
20
-23.162742
30
0
11
-2.50000000000002
21
-8.04071436169569E-16
31
0
210
0
220
0
230
1
40
0.694658
41
-1.30817865153784
42
0
0
ELLIPSE
5
131
100
AcDbEntity
8
1
62
256
6
ByLayer
370
18
48
1
60
0
100
AcDbEllipse
10
43.5
20
-23.162742
30
0
11
-2.50000000000002
21
-8.04071436169569E-16
31
0
210
0
220
0
230
1
40
0.694658
41
0
42
1.57079626866498
0
ELLIPSE
5
132
100
AcDbEntity
8
1
62
256
6
ByLayer
370
18
48
1
60
0
100
AcDbEllipse
10
43.5
20
-23.162742
30
0
11
-2.50000000000002
21
-8.04071436169569E-16
31
0
210
0
220
0
230
1
40
0.694658
41
1.57079650118457
42
-1.83341347654756
0
ELLIPSE
5
133
100
AcDbEntity
8
1
62
256
6
ByLayer
370
18
48
1
60
0
100
AcDbEllipse
10
20
20
-7.629233
30
0
11
1.75000000000001
21
0
31
0
210
0
220
0
230
1
40
0.984808
41
-3.08180417172496
42
-0.0617518050809049
0
ELLIPSE
5
134
100
AcDbEntity
8
1
62
256
6
ByLayer
370
18
48
1
60
0
100
AcDbEllipse
10
20
20
7.629233
30
0
11
-1.75000000000001
21
-5.62850005318697E-16
31
0
210
0
220
0
230
1
40
0.984808
41
-1.57079655876472
42
-0.125860244287696
0
ELLIPSE
5
135
100
AcDbEntity
8
1
62
256
6
ByLayer
370
18
48
1
60
0
100
AcDbEllipse
10
20
20
7.629233
30
0
11
-1.75000000000001
21
-5.62850005318697E-16
31
0
210
0
220
0
230
1
40
0.984808
41
-3.06570356230511
42
-1.57079655876473
0
ELLIPSE
5
136
100
AcDbEntity
8
1
62
256
6
ByLayer
370
18
48
1
60
0
100
AcDbEllipse
10
43.5
20
-20.848056
30
0
11
-1.8
21
-5.78931434042085E-16
31
0
210
0
220
0
230
1
40
0.694658
41
0.990877700286416
42
1.57079616785122
0
ELLIPSE
5
137
100
AcDbEntity
8
1
62
256
6
ByLayer
370
18
48
1
60
0
100
AcDbEllipse
10
43.5
20
-20.848056
30
0
11
-1.8
21
-5.78931434042085E-16
31
0
210
0
220
0
230
1
40
0.694658
41
1.57079616785121
42
2.15071460741237
0
ELLIPSE
5
138
100
AcDbEntity
8
1
62
256
6
ByLayer
370
18
48
1
60
0
100
AcDbEllipse
10
43.5
20
-21.723171
30
0
11
1.8
21
0
31
0
210
0
220
0
230
1
40
0.694658
41
-2.63334182166332
42
-0.508250968146129
0
ELLIPSE
5
139
100
AcDbEntity
8
1
62
256
6
ByLayer
370
18
48
1
60
0
100
AcDbEllipse
10
43.5
20
-22.940095
30
0
11
-1.8
21
-5.78931434042085E-16
31
0
210
0
220
0
230
1
40
0.694658
41
0
42
6.28318530717959
0
ELLIPSE
5
13A
100
AcDbEntity
8
1
62
256
6
ByLayer
370
18
48
1
60
0
100
AcDbEllipse
10
43.5
20
-22.796774
30
0
11
-2.43803518639975
21
-7.84141781504149E-16
31
0
210
0
220
0
230
1
40
0.694658
41
-0.0110938648770605
42
0
0
ELLIPSE
5
13B
100
AcDbEntity
8
1
62
256
6
ByLayer
370
18
48
1
60
0
100
AcDbEllipse
10
43.5
20
-22.796774
30
0
11
-2.43803518639975
21
-7.84141781504149E-16
31
0
210
0
220
0
230
1
40
0.694658
41
0
42
1.5707961696827
0
ELLIPSE
5
13C
100
AcDbEntity
8
1
62
256
6
ByLayer
370
18
48
1
60
0
100
AcDbEllipse
10
43.5
20
-22.796774
30
0
11
-2.43803518639975
21
-7.84141781504149E-16
31
0
210
0
220
0
230
1
40
0.694658
41
1.57079638796506
42
-3.13049892681761
0
ELLIPSE
5
13D
100
AcDbEntity
8
1
62
256
6
ByLayer
370
18
48
1
60
0
100
AcDbEllipse
10
43.5
20
-22.940095
30
0
11
2.22060403785022
21
0
31
0
210
0
220
0
230
1
40
0.694658
41
-1.57079634899828
42
0
0
ELLIPSE
5
13E
100
AcDbEntity
8
1
62
256
6
ByLayer
370
18
48
1
60
0
100
AcDbEllipse
10
43.5
20
-22.940095
30
0
11
2.22060403785022
21
0
31
0
210
0
220
0
230
1
40
0.694658
41
0
42
1.02445351208806
0
ELLIPSE
5
13F
100
AcDbEntity
8
1
62
256
6
ByLayer
370
18
48
1
60
0
100
AcDbEllipse
10
43.5
20
-22.940095
30
0
11
2.22060403785022
21
0
31
0
210
0
220
0
230
1
40
0.694658
41
2.11713909362545
42
-1.57079634899832
0
ELLIPSE
5
140
100
AcDbEntity
8
1
62
256
6
ByLayer
370
18
48
1
60
0
100
AcDbEllipse
10
43.5
20
22.940095
30
0
11
1.8
21
0
31
0
210
0
220
0
230
1
40
0.694658
41
0
42
6.28318530717959
0
ELLIPSE
5
141
100
AcDbEntity
8
1
62
256
6
ByLayer
370
18
48
1
60
0
100
AcDbEllipse
10
43.5
20
22.796774
30
0
11
2.43803518639975
21
0
31
0
210
0
220
0
230
1
40
0.694658
41
-0.0109958553162461
42
0
0
ELLIPSE
5
142
100
AcDbEntity
8
1
62
256
6
ByLayer
370
18
48
1
60
0
100
AcDbEllipse
10
43.5
20
22.796774
30
0
11
2.43803518639975
21
0
31
0
210
0
220
0
230
1
40
0.694658
41
0
42
-3.130597250588
0
ELLIPSE
5
143
100
AcDbEntity
8
1
62
256
6
ByLayer
370
18
48
1
60
0
100
AcDbEllipse
10
43.5
20
22.940095
30
0
11
-2.22060403785022
21
-7.14209711151262E-16
31
0
210
0
220
0
230
1
40
0.694658
41
2.11723716836254
42
0
0
ELLIPSE
5
144
100
AcDbEntity
8
1
62
256
6
ByLayer
370
18
48
1
60
0
100
AcDbEllipse
10
43.5
20
22.940095
30
0
11
-2.22060403785022
21
-7.14209711151262E-16
31
0
210
0
220
0
230
1
40
0.694658
41
0
42
1.02435543734973
0
ELLIPSE
5
145
100
AcDbEntity
8
1
62
256
6
ByLayer
370
18
48
1
60
0
100
AcDbEllipse
10
43.5
20
-20.848056
30
0
11
-1.8
21
-5.78931434042085E-16
31
0
210
0
220
0
230
1
40
0.694658
41
0.990877700286416
42
1.57079616785122
0
ELLIPSE
5
146
100
AcDbEntity
8
1
62
256
6
ByLayer
370
18
48
1
60
0
100
AcDbEllipse
10
43.5
20
-20.848056
30
0
11
-1.8
21
-5.78931434042085E-16
31
0
210
0
220
0
230
1
40
0.694658
41
1.57079616785121
42
2.15071460741237
0
ELLIPSE
5
147
100
AcDbEntity
8
1
62
256
6
ByLayer
370
18
48
1
60
0
100
AcDbEllipse
10
43.5
20
-21.723171
30
0
11
1.8
21
0
31
0
210
0
220
0
230
1
40
0.694658
41
-2.63334182166332
42
-0.508250968146129
0
ELLIPSE
5
148
100
AcDbEntity
8
1
62
256
6
ByLayer
370
18
48
1
60
0
100
AcDbEllipse
10
43.5
20
-22.940095
30
0
11
-1.8
21
-5.78931434042085E-16
31
0
210
0
220
0
230
1
40
0.694658
41
0
42
6.28318530717959
0
ELLIPSE
5
149
100
AcDbEntity
8
1
62
256
6
ByLayer
370
18
48
1
60
0
100
AcDbEllipse
10
43.5
20
-22.940095
30
0
11
2.22060403785022
21
0
31
0
210
0
220
0
230
1
40
0.694658
41
-1.57079634899828
42
0
0
ELLIPSE
5
14A
100
AcDbEntity
8
1
62
256
6
ByLayer
370
18
48
1
60
0
100
AcDbEllipse
10
43.5
20
-22.940095
30
0
11
2.22060403785022
21
0
31
0
210
0
220
0
230
1
40
0.694658
41
0
42
1.02445351208806
0
ELLIPSE
5
14B
100
AcDbEntity
8
1
62
256
6
ByLayer
370
18
48
1
60
0
100
AcDbEllipse
10
43.5
20
-22.940095
30
0
11
2.22060403785022
21
0
31
0
210
0
220
0
230
1
40
0.694658
41
2.11713909362545
42
-1.57079634899832
0
ELLIPSE
5
14C
100
AcDbEntity
8
1
62
256
6
ByLayer
370
18
48
1
60
0
100
AcDbEllipse
10
43.5
20
-22.796774
30
0
11
-2.43803518639975
21
-7.84141781504149E-16
31
0
210
0
220
0
230
1
40
0.694658
41
-0.0110938648770605
42
0
0
ELLIPSE
5
14D
100
AcDbEntity
8
1
62
256
6
ByLayer
370
18
48
1
60
0
100
AcDbEllipse
10
43.5
20
-22.796774
30
0
11
-2.43803518639975
21
-7.84141781504149E-16
31
0
210
0
220
0
230
1
40
0.694658
41
0
42
1.5707961696827
0
ELLIPSE
5
14E
100
AcDbEntity
8
1
62
256
6
ByLayer
370
18
48
1
60
0
100
AcDbEllipse
10
43.5
20
-22.796774
30
0
11
-2.43803518639975
21
-7.84141781504149E-16
31
0
210
0
220
0
230
1
40
0.694658
41
1.57079638796506
42
-3.13049892681761
0
ELLIPSE
5
14F
100
AcDbEntity
8
1
62
256
6
ByLayer
370
18
48
1
60
0
100
AcDbEllipse
10
43.5
20
22.940095
30
0
11
1.8
21
0
31
0
210
0
220
0
230
1
40
0.694658
41
0
42
6.28318530717959
0
ELLIPSE
5
150
100
AcDbEntity
8
1
62
256
6
ByLayer
370
18
48
1
60
0
100
AcDbEllipse
10
43.5
20
22.940095
30
0
11
-2.22060403785022
21
-7.14209711151262E-16
31
0
210
0
220
0
230
1
40
0.694658
41
2.11723716836254
42
0
0
ELLIPSE
5
151
100
AcDbEntity
8
1
62
256
6
ByLayer
370
18
48
1
60
0
100
AcDbEllipse
10
43.5
20
22.940095
30
0
11
-2.22060403785022
21
-7.14209711151262E-16
31
0
210
0
220
0
230
1
40
0.694658
41
0
42
1.02435543734973
0
ELLIPSE
5
152
100
AcDbEntity
8
1
62
256
6
ByLayer
370
18
48
1
60
0
100
AcDbEllipse
10
43.5
20
22.796774
30
0
11
2.43803518639975
21
0
31
0
210
0
220
0
230
1
40
0.694658
41
-0.0109958553162461
42
0
0
ELLIPSE
5
153
100
AcDbEntity
8
1
62
256
6
ByLayer
370
18
48
1
60
0
100
AcDbEllipse
10
43.5
20
22.796774
30
0
11
2.43803518639975
21
0
31
0
210
0
220
0
230
1
40
0.694658
41
0
42
-3.130597250588
0
ELLIPSE
5
154
100
AcDbEntity
8
SK1
62
256
6
ByLayer
370
13
48
1
60
0
100
AcDbEllipse
10
-36.7
20
-33.386024
30
0
11
1.9
21
0
31
0
210
0
220
0
230
1
40
0.891007
41
1.11205041920186
42
1.5707963267949
0
ELLIPSE
5
155
100
AcDbEntity
8
1
62
256
6
ByLayer
370
18
48
1
60
0
100
AcDbEllipse
10
43.5
20
22.940095
30
0
11
1.8
21
0
31
0
210
0
220
0
230
1
40
0.694658
41
0
42
6.28318530717959
0
ELLIPSE
5
156
100
AcDbEntity
8
1
62
256
6
ByLayer
370
18
48
1
60
0
100
AcDbEllipse
10
43.5
20
22.796774
30
0
11
2.43803518639975
21
0
31
0
210
0
220
0
230
1
40
0.694658
41
-0.0109958553162461
42
0
0
ELLIPSE
5
157
100
AcDbEntity
8
1
62
256
6
ByLayer
370
18
48
1
60
0
100
AcDbEllipse
10
43.5
20
22.796774
30
0
11
2.43803518639975
21
0
31
0
210
0
220
0
230
1
40
0.694658
41
0
42
-3.130597250588
0
ELLIPSE
5
158
100
AcDbEntity
8
1
62
256
6
ByLayer
370
18
48
1
60
0
100
AcDbEllipse
10
43.5
20
22.940095
30
0
11
-2.22060403785022
21
-7.14209711151262E-16
31
0
210
0
220
0
230
1
40
0.694658
41
2.11723716836253
42
0
0
ELLIPSE
5
159
100
AcDbEntity
8
1
62
256
6
ByLayer
370
18
48
1
60
0
100
AcDbEllipse
10
43.5
20
22.940095
30
0
11
-2.22060403785022
21
-7.14209711151262E-16
31
0
210
0
220
0
230
1
40
0.694658
41
0
42
1.02435543734973
0
ELLIPSE
5
15A
100
AcDbEntity
8
1
62
256
6
ByLayer
370
18
48
1
60
0
100
AcDbEllipse
10
100
20
11.293635
30
0
11
0.0470873630967225
21
1.49926074457934
31
0
210
0
220
0
230
1
40
0.030301
41
-2.33826497253348
42
-0.767468475956468
0
ELLIPSE
5
15B
100
AcDbEntity
8
1
62
256
6
ByLayer
370
18
48
1
60
0
100
AcDbEllipse
10
100
20
11.293635
30
0
11
0.0470873630967225
21
1.49926074457934
31
0
210
0
220
0
230
1
40
0.030301
41
-0.767469435660949
42
-0.0524694675212797
0
ELLIPSE
5
15C
100
AcDbEntity
8
1
62
256
6
ByLayer
370
18
48
1
60
0
100
AcDbEllipse
10
100
20
-11.293635
30
0
11
-0.047087363096731
21
1.49926074457934
31
0
210
0
220
0
230
1
40
0.030301
41
-3.08913582354412
42
-2.37412431934956
0
ELLIPSE
5
15D
100
AcDbEntity
8
1
62
256
6
ByLayer
370
18
48
1
60
0
100
AcDbEllipse
10
100
20
-11.293635
30
0
11
-0.047087363096731
21
1.49926074457934
31
0
210
0
220
0
230
1
40
0.030301
41
-2.3741233596451
42
-0.803326891834251
0
ELLIPSE
5
15E
100
AcDbEntity
8
1
62
256
6
ByLayer
370
18
48
1
60
0
100
AcDbEllipse
10
100
20
11.293635
30
0
11
0.0470873630967225
21
1.49926074457934
31
0
210
0
220
0
230
1
40
0.030301
41
-2.33826497253348
42
-0.767468475956468
0
ELLIPSE
5
15F
100
AcDbEntity
8
1
62
256
6
ByLayer
370
18
48
1
60
0
100
AcDbEllipse
10
100
20
11.293635
30
0
11
0.0470873630967225
21
1.49926074457934
31
0
210
0
220
0
230
1
40
0.030301
41
-0.767469435660907
42
-0.0524694675211621
0
POINT
5
70
100
AcDbEntity
8
2
62
256
6
ByLayer
370
18
48
1
60
0
100
AcDbPoint
10
76
20
0
30
0
39
0
210
0
220
0
230
1
50
360
0
POINT
5
72
100
AcDbEntity
8
2
62
256
6
ByLayer
370
18
48
1
60
0
100
AcDbPoint
10
100
20
0
30
0
39
0
210
0
220
0
230
1
50
360
0
POINT
5
73
100
AcDbEntity
8
2
62
256
6
ByLayer
370
18
48
1
60
0
100
AcDbPoint
10
43.5
20
23.378544
30
0
39
0
210
0
220
0
230
1
50
360
0
POINT
5
74
100
AcDbEntity
8
2
62
256
6
ByLayer
370
18
48
1
60
0
100
AcDbPoint
10
51
20
0
30
0
39
0
210
0
220
0
230
1
50
360
0
POINT
5
75
100
AcDbEntity
8
2
62
256
6
ByLayer
370
18
48
1
60
0
100
AcDbPoint
10
51
20
0
30
0
39
0
210
0
220
0
230
1
50
360
0
POINT
5
76
100
AcDbEntity
8
2
62
256
6
ByLayer
370
18
48
1
60
0
100
AcDbPoint
10
100
20
0
30
0
39
0
210
0
220
0
230
1
50
360
0
POINT
5
77
100
AcDbEntity
8
2
62
256
6
ByLayer
370
18
48
1
60
0
100
AcDbPoint
10
100
20
0
30
0
39
0
210
0
220
0
230
1
50
360
0
POINT
5
78
100
AcDbEntity
8
2
62
256
6
ByLayer
370
18
48
1
60
0
100
AcDbPoint
10
100
20
0
30
0
39
0
210
0
220
0
230
1
50
360
0
POINT
5
79
100
AcDbEntity
8
2
62
256
6
ByLayer
370
18
48
1
60
0
100
AcDbPoint
10
28.95
20
0
30
0
39
0
210
0
220
0
230
1
50
360
0
POINT
5
7A
100
AcDbEntity
8
2
62
256
6
ByLayer
370
18
48
1
60
0
100
AcDbPoint
10
76
20
0
30
0
39
0
210
0
220
0
230
1
50
360
0
POINT
5
7B
100
AcDbEntity
8
2
62
256
6
ByLayer
370
18
48
1
60
0
100
AcDbPoint
10
40
20
0
30
0
39
0
210
0
220
0
230
1
50
360
0
POINT
5
7C
100
AcDbEntity
8
2
62
256
6
ByLayer
370
18
48
1
60
0
100
AcDbPoint
10
76
20
0
30
0
39
0
210
0
220
0
230
1
50
360
0
POINT
5
7D
100
AcDbEntity
8
2
62
256
6
ByLayer
370
18
48
1
60
0
100
AcDbPoint
10
100
20
0
30
0
39
0
210
0
220
0
230
1
50
360
0
POINT
5
7E
100
AcDbEntity
8
2
62
256
6
ByLayer
370
18
48
1
60
0
100
AcDbPoint
10
0
20
0
30
0
39
0
210
0
220
0
230
1
50
360
0
POINT
5
7F
100
AcDbEntity
8
2
62
256
6
ByLayer
370
18
48
1
60
0
100
AcDbPoint
10
76
20
0
30
0
39
0
210
0
220
0
230
1
50
360
0
POINT
5
80
100
AcDbEntity
8
2
62
256
6
ByLayer
370
18
48
1
60
0
100
AcDbPoint
10
43.5
20
23.378544
30
0
39
0
210
0
220
0
230
1
50
360
0
POINT
5
81
100
AcDbEntity
8
2
62
256
6
ByLayer
370
18
48
1
60
0
100
AcDbPoint
10
100
20
0
30
0
39
0
210
0
220
0
230
1
50
360
0
POINT
5
82
100
AcDbEntity
8
2
62
256
6
ByLayer
370
18
48
1
60
0
100
AcDbPoint
10
100
20
0
30
0
39
0
210
0
220
0
230
1
50
360
0
POINT
5
83
100
AcDbEntity
8
2
62
256
6
ByLayer
370
18
48
1
60
0
100
AcDbPoint
10
43.5
20
24.817223
30
0
39
0
210
0
220
0
230
1
50
360
0
POINT
5
84
100
AcDbEntity
8
2
62
256
6
ByLayer
370
18
48
1
60
0
100
AcDbPoint
10
40
20
0
30
0
39
0
210
0
220
0
230
1
50
360
0
POINT
5
85
100
AcDbEntity
8
2
62
256
6
ByLayer
370
18
48
1
60
0
100
AcDbPoint
10
100
20
11.293635
30
0
39
0
210
0
220
0
230
1
50
360
0
POINT
5
86
100
AcDbEntity
8
81
62
256
6
ByLayer
370
18
48
1
60
0
100
AcDbPoint
10
100
20
0
30
0
39
0
210
0
220
0
230
1
50
360
0
POINT
5
88
100
AcDbEntity
8
80
62
256
6
ByLayer
370
18
48
1
60
0
100
AcDbPoint
10
0
20
0
30
0
39
0
210
0
220
0
230
1
50
360
0
SPLINE
5
160
100
AcDbEntity
8
1
62
256
6
ByLayer
370
18
48
1
60
0
100
AcDbSpline
70
4
71
3
72
8
73
4
40
0
40
0
40
0
40
0
40
1
40
1
40
1
40
1
41
1
10
28.9499999999999
20
48.2350472581919
30
0
41
1
10
28.7167026129473
20
48.4733261949083
30
0
41
1
10
28.4833687655885
20
48.7115693312277
30
0
41
1
10
28.2499999999999
20
48.9497781813156
30
0
0
SPLINE
5
161
100
AcDbEntity
8
1
62
256
6
ByLayer
370
18
48
1
60
0
100
AcDbSpline
70
4
71
3
72
8
73
4
40
0
40
0
40
0
40
0
40
1
40
1
40
1
40
1
41
1
10
28.9499999999999
20
38.0028646946517
30
0
41
1
10
28.717385155116
20
38.3044148652845
30
0
41
1
10
28.4840015193126
20
38.6055081962349
30
0
41
1
10
28.2499999999999
20
38.9060242764537
30
0
0
SPLINE
5
162
100
AcDbEntity
8
1
62
256
6
ByLayer
370
18
48
1
60
0
100
AcDbSpline
70
4
71
3
72
8
73
4
40
0
40
0
40
0
40
0
40
1
40
1
40
1
40
1
41
1
10
23.2418217614997
20
48.9497781813156
30
0
41
1
10
22.8025473277702
20
48.1731525519585
30
0
41
1
10
22.3635905977074
20
47.3963468891299
30
0
41
1
10
21.9249999999999
20
46.6193337496941
30
0
0
SPLINE
5
163
100
AcDbEntity
8
1
62
256
6
ByLayer
370
18
48
1
60
0
100
AcDbSpline
70
4
71
3
72
8
73
4
40
0
40
0
40
0
40
0
40
1
40
1
40
1
40
1
41
1
10
23.2418217614997
20
38.9060242764537
30
0
41
1
10
22.7970974394247
20
37.9167868306777
30
0
41
1
10
22.3578450722474
20
36.9249075564603
30
0
41
1
10
21.925
20
35.9299348769987
30
0
0
SPLINE
5
164
100
AcDbEntity
8
1
62
256
6
ByLayer
370
18
48
1
60
0
100
AcDbSpline
70
4
71
3
72
8
73
4
40
0
40
0
40
0
40
0
40
1
40
1
40
1
40
1
41
1
10
18.075
20
46.6193337496941
30
0
41
1
10
17.6364094022925
20
47.3963468891299
30
0
41
1
10
17.1974526722297
20
48.1731525519585
30
0
41
1
10
16.7581782385002
20
48.9497781813156
30
0
0
SPLINE
5
165
100
AcDbEntity
8
1
62
256
6
ByLayer
370
18
48
1
60
0
100
AcDbSpline
70
4
71
3
72
8
73
4
40
0
40
0
40
0
40
0
40
1
40
1
40
1
40
1
41
1
10
18.075
20
35.9299348769987
30
0
41
1
10
17.6421549277525
20
36.9249075564604
30
0
41
1
10
17.2029025605752
20
37.9167868306777
30
0
41
1
10
16.7581782385002
20
38.9060242764537
30
0
0
SPLINE
5
166
100
AcDbEntity
8
1
62
256
6
ByLayer
370
18
48
1
60
0
100
AcDbSpline
70
4
71
3
72
30
73
26
40
0
40
0
40
0
40
0
40
0.0625000000000112
40
0.0625000000000112
40
0.125000000000022
40
0.125000000000022
40
0.187500000000034
40
0.187500000000034
40
0.250000000000045
40
0.250000000000045
40
0.375000000000082
40
0.375000000000082
40
0.437500000000094
40
0.437500000000094
40
0.500000000000106
40
0.500000000000106
40
0.625000000000095
40
0.625000000000095
40
0.750000000000083
40
0.750000000000083
40
0.812500000000063
40
0.812500000000063
40
0.875000000000042
40
0.875000000000042
40
1
40
1
40
1
40
1
41
1
10
18.4749999999999
20
44.8695908606263
30
0
41
1
10
18.4618093595737
20
44.8695908606263
30
0
41
1
10
18.4485886846155
20
44.8702576854818
30
0
41
1
10
18.4220855200817
20
44.8729637395628
30
0
41
1
10
18.4088465110679
20
44.8750053678631
30
0
41
1
10
18.3827839009758
20
44.8803985689214
30
0
41
1
10
18.3699040115914
20
44.8837549149648
30
0
41
1
10
18.3444487081401
20
44.8917942612597
30
0
41
1
10
18.3319382570215
20
44.8964625944705
30
0
41
1
10
18.2955008289096
20
44.9121802857078
30
0
41
1
10
18.2724668314571
20
44.9249841060693
30
0
41
1
10
18.2397920090741
20
44.9476589084756
30
0
41
1
10
18.2291637911831
20
44.9558484894339
30
0
41
1
10
18.2089483809423
20
44.9730931376429
30
0
41
1
10
18.1993293389751
20
44.9821611683337
30
0
41
1
10
18.171895502146
20
45.0106634334105
30
0
41
1
10
18.1554780526558
20
45.0314027938814
30
0
41
1
10
18.1265671857289
20
45.076336873242
30
0
41
1
10
18.114510811826
20
45.0998433624449
30
0
41
1
10
18.0998494468446
20
45.1365862771484
30
0
41
1
10
18.0955371249715
20
45.14908296104
30
0
41
1
10
18.0880827238372
20
45.1745833642234
30
0
41
1
10
18.0849411830151
20
45.1876202913674
30
0
41
1
10
18.0774740646744
20
45.2266874028822
30
0
41
1
10
18.0749999999999
20
45.2529263401313
30
0
41
1
10
18.0749999999999
20
45.2793571509138
30
0
0
SPLINE
5
167
100
AcDbEntity
8
1
62
256
6
ByLayer
370
18
48
1
60
0
100
AcDbSpline
70
4
71
3
72
34
73
30
40
0
40
0
40
0
40
0
40
0.0625000000000139
40
0.0625000000000139
40
0.125000000000028
40
0.125000000000028
40
0.187500000000042
40
0.187500000000042
40
0.218750000000049
40
0.218750000000049
40
0.250000000000056
40
0.250000000000056
40
0.375000000000072
40
0.375000000000072
40
0.437500000000075
40
0.437500000000075
40
0.500000000000079
40
0.500000000000079
40
0.625000000000085
40
0.625000000000085
40
0.687500000000086
40
0.687500000000086
40
0.750000000000087
40
0.750000000000087
40
0.875000000000057
40
0.875000000000057
40
0.937500000000029
40
0.937500000000029
40
1
40
1
40
1
40
1
41
1
10
18.4749999999999
20
33.6285314130725
30
0
41
1
10
18.4594882405669
20
33.6285314130725
30
0
41
1
10
18.4439344663119
20
33.6297621349265
30
0
41
1
10
18.4127970175117
20
33.6347589273291
30
0
41
1
10
18.3976373727532
20
33.6384542021108
30
0
41
1
10
18.3680630304846
20
33.648024306251
30
0
41
1
10
18.3536487207877
20
33.6539002702671
30
0
41
1
10
18.3325586496574
20
33.6642689585262
30
0
41
1
10
18.3255960417933
20
33.6679990959239
30
0
41
1
10
18.3120442414648
20
33.6758520526728
30
0
41
1
10
18.3054342697433
20
33.6799831186369
30
0
41
1
10
18.2731571422788
20
33.7015912158019
30
0
41
1
10
18.2497744825614
20
33.721885000583
30
0
41
1
10
18.2177582987101
20
33.7560959120318
30
0
41
1
10
18.2076153875601
20
33.768138493339
30
0
41
1
10
18.1887200690627
20
33.7928550225247
30
0
41
1
10
18.1799020425184
20
33.8055962314181
30
0
41
1
10
18.1551541452064
20
33.8448575627649
30
0
41
1
10
18.1409155590863
20
33.87240632908
30
0
41
1
10
18.1225932403435
20
33.9155757145572
30
0
41
1
10
18.1170363742524
20
33.9301883855126
30
0
41
1
10
18.1070380634342
20
33.9595750563925
30
0
41
1
10
18.1025796600349
20
33.9743892279974
30
0
41
1
10
18.0907326299962
20
34.0191732291611
30
0
41
1
10
18.0848612186958
20
34.0494820948762
30
0
41
1
10
18.0789548996022
20
34.0955936042399
30
0
41
1
10
18.0774724964124
20
34.1110727913147
30
0
41
1
10
18.0754907636629
20
34.1422508425901
30
0
41
1
10
18.0749999999999
20
34.1578391207073
30
0
41
1
10
18.075
20
34.1733540203475
30
0
0
SPLINE
5
168
100
AcDbEntity
8
1
62
256
6
ByLayer
370
18
48
1
60
0
100
AcDbSpline
70
4
71
3
72
30
73
26
40
0
40
0
40
0
40
0
40
0.124999999999968
40
0.124999999999968
40
0.187499999999968
40
0.187499999999968
40
0.249999999999969
40
0.249999999999969
40
0.374999999999969
40
0.374999999999969
40
0.437499999999974
40
0.437499999999974
40
0.499999999999979
40
0.499999999999979
40
0.624999999999988
40
0.624999999999988
40
0.687499999999993
40
0.687499999999993
40
0.749999999999997
40
0.749999999999997
40
0.812500000000002
40
0.812500000000002
40
0.875000000000007
40
0.875000000000007
40
1
40
1
40
1
40
1
41
1
10
21.9250000000228
20
45.2793571509098
30
0
41
1
10
21.9250000000226
20
45.2526271959507
30
0
41
1
10
21.9224702320172
20
45.2263263466329
30
0
41
1
10
21.9150279070761
20
45.1874938001562
30
0
41
1
10
21.9119347879334
20
45.1746534853615
30
0
41
1
10
21.9044957734936
20
45.1491853548288
30
0
41
1
10
21.9001219702072
20
45.1364987669532
30
0
41
1
10
21.8853400702993
20
45.0995017490213
30
0
41
1
10
21.8732629096745
20
45.0760730842746
30
0
41
1
10
21.851836540537
20
45.0427711988122
30
0
41
1
10
21.8441388562989
20
45.0319795298714
30
0
41
1
10
21.8275873615172
20
45.0110391387326
30
0
41
1
10
21.818815507744
20
45.0010010695113
30
0
41
1
10
21.7912962753
20
44.9724452388068
30
0
41
1
10
21.7712561461914
20
44.9553423658858
30
0
41
1
10
21.738598138628
20
44.9326544978527
30
0
41
1
10
21.7272194749054
20
44.9255614720513
30
0
41
1
10
21.7039181381345
20
44.9126247687908
30
0
41
1
10
21.6919842719135
20
44.90676457949
30
0
41
1
10
21.6675504216865
20
44.8962599287919
30
0
41
1
10
21.6549980971923
20
44.8915997995026
30
0
41
1
10
21.629567024321
20
44.8836084660223
30
0
41
1
10
21.6167445016848
20
44.880288261731
30
0
41
1
10
21.5779642071673
20
44.8723020631289
30
0
41
1
10
21.5516968166702
20
44.8695908606264
30
0
41
1
10
21.5249999999999
20
44.8695908606264
30
0
0
SPLINE
5
169
100
AcDbEntity
8
1
62
256
6
ByLayer
370
18
48
1
60
0
100
AcDbSpline
70
4
71
3
72
32
73
28
40
0
40
0
40
0
40
0
40
0.062500000000005
40
0.062500000000005
40
0.12500000000001
40
0.12500000000001
40
0.25000000000002
40
0.25000000000002
40
0.312500000000011
40
0.312500000000011
40
0.375000000000003
40
0.375000000000003
40
0.499999999999991
40
0.499999999999991
40
0.562499999999985
40
0.562499999999985
40
0.62499999999998
40
0.62499999999998
40
0.749999999999979
40
0.749999999999979
40
0.812499999999984
40
0.812499999999984
40
0.874999999999989
40
0.874999999999989
40
0.937499999999995
40
0.937499999999995
40
1
40
1
40
1
40
1
41
1
10
21.9249999999999
20
34.1733540203475
30
0
41
1
10
21.9249999999999
20
34.1577441557297
30
0
41
1
10
21.9245016761415
20
34.1421211416387
30
0
41
1
10
21.9225309625993
20
34.111137991902
30
0
41
1
10
21.92105891339
20
34.0957350218261
30
0
41
1
10
21.9151868880887
20
34.0497911614099
30
0
41
1
10
21.9093431109088
20
34.0195131222784
30
0
41
1
10
21.8974980740979
20
33.9746566784797
30
0
41
1
10
21.8930336997149
20
33.9597984761668
30
0
41
1
10
21.8830000961517
20
33.9302832158826
30
0
41
1
10
21.8774184903454
20
33.9156100206178
30
0
41
1
10
21.8591819896765
20
33.8726228962078
30
0
41
1
10
21.8449831323771
20
33.8450985960815
30
0
41
1
10
21.8202005592371
20
33.8057474995698
30
0
41
1
10
21.8113550357058
20
33.7929552210946
30
0
41
1
10
21.7923549663909
20
33.7680977629427
30
0
41
1
10
21.7822317389739
20
33.7560880110446
30
0
41
1
10
21.7503563397752
20
33.722019316658
30
0
41
1
10
21.7269594387176
20
33.7016524159592
30
0
41
1
10
21.687845691874
20
33.6754928423141
30
0
41
1
10
21.674134045728
20
33.667542013257
30
0
41
1
10
21.6460786379622
20
33.6537839415104
30
0
41
1
10
21.6316933229531
20
33.6479335657893
30
0
41
1
10
21.6021681168188
20
33.6384033351323
30
0
41
1
10
21.5869812296858
20
33.6347149886803
30
0
41
1
10
21.5559767767759
20
33.6297563285023
30
0
41
1
10
21.540483848586
20
33.6285314130726
30
0
41
1
10
21.525
20
33.6285314130726
30
0
0
SPLINE
5
16A
100
AcDbEntity
8
1
62
256
6
ByLayer
370
18
48
1
60
0
100
AcDbSpline
70
2053
71
3
72
157
73
153
40
0
40
0
40
0
40
0
40
0.0156249999999981
40
0.0312499999999961
40
0.0468749999999942
40
0.0468749999999942
40
0.0507812499999939
40
0.0507812499999939
40
0.0546874999999937
40
0.0624999999999928
40
0.0624999999999928
40
0.0781249999999914
40
0.09374999999999
40
0.09374999999999
40
0.0976562499999891
40
0.0976562499999891
40
0.101562499999988
40
0.101562499999988
40
0.109374999999986
40
0.109374999999986
40
0.124999999999982
40
0.140624999999977
40
0.140624999999977
40
0.148437499999976
40
0.148437499999976
40
0.152343749999975
40
0.152343749999975
40
0.156249999999973
40
0.171874999999969
40
0.187499999999965
40
0.203124999999961
40
0.203124999999961
40
0.218749999999957
40
0.218749999999957
40
0.234374999999953
40
0.249999999999949
40
0.249999999999949
40
0.257812499999948
40
0.257812499999948
40
0.261718749999947
40
0.261718749999947
40
0.265624999999947
40
0.281249999999944
40
0.296874999999942
40
0.312499999999939
40
0.312499999999939
40
0.316406249999939
40
0.316406249999939
40
0.320312499999939
40
0.328124999999939
40
0.328124999999939
40
0.343749999999938
40
0.359374999999936
40
0.359374999999936
40
0.367187499999936
40
0.371093749999935
40
0.371093749999935
40
0.374999999999935
40
0.374999999999935
40
0.390624999999934
40
0.406249999999934
40
0.421874999999933
40
0.421874999999933
40
0.425781249999933
40
0.425781249999933
40
0.429687499999933
40
0.429687499999933
40
0.437499999999934
40
0.437499999999934
40
0.453124999999936
40
0.468749999999938
40
0.468749999999938
40
0.476562499999939
40
0.476562499999939
40
0.48437499999994
40
0.48437499999994
40
0.499999999999942
40
0.515624999999944
40
0.515624999999944
40
0.531249999999945
40
0.531249999999945
40
0.535156249999946
40
0.535156249999946
40
0.539062499999946
40
0.546874999999947
40
0.546874999999947
40
0.562499999999948
40
0.578124999999949
40
0.578124999999949
40
0.58593749999995
40
0.58593749999995
40
0.593749999999951
40
0.593749999999951
40
0.609374999999951
40
0.624999999999951
40
0.624999999999951
40
0.632812499999951
40
0.632812499999951
40
0.64062499999995
40
0.64062499999995
40
0.656249999999949
40
0.671874999999947
40
0.671874999999947
40
0.679687499999947
40
0.683593749999946
40
0.683593749999946
40
0.687499999999946
40
0.687499999999946
40
0.703124999999949
40
0.718749999999951
40
0.734374999999953
40
0.734374999999953
40
0.738281249999953
40
0.738281249999953
40
0.742187499999953
40
0.742187499999953
40
0.749999999999954
40
0.749999999999954
40
0.765624999999957
40
0.781249999999961
40
0.796874999999964
40
0.796874999999964
40
0.804687499999966
40
0.804687499999966
40
0.812499999999968
40
0.812499999999968
40
0.828124999999972
40
0.843749999999975
40
0.843749999999975
40
0.851562499999977
40
0.851562499999977
40
0.855468749999978
40
0.855468749999978
40
0.859374999999979
40
0.874999999999981
40
0.890624999999984
40
0.906249999999986
40
0.906249999999986
40
0.914062499999988
40
0.914062499999988
40
0.921874999999989
40
0.921874999999989
40
0.937499999999991
40
0.953124999999994
40
0.953124999999994
40
0.960937499999995
40
0.960937499999995
40
0.968749999999996
40
0.968749999999996
40
0.984374999999998
40
0.984374999999998
40
1
40
1
40
1
40
1
41
1
10
40.7070174821181
20
23.2460979561102
30
0
41
1
10
40.7003292080519
20
23.3093337793059
30
0
41
1
10
40.6965859318209
20
23.4346649357027
30
0
41
1
10
40.7189196666746
20
23.6193435774616
30
0
41
1
10
40.7523655266849
20
23.7402843502842
30
0
41
1
10
40.7792224705905
20
23.8151914246938
30
0
41
1
10
40.7848951017711
20
23.8301431984193
30
0
41
1
10
40.7967712938836
20
23.8598079222995
30
0
41
1
10
40.8154047967193
20
23.9040110335154
30
0
41
1
10
40.8364622426575
20
23.9473471520852
30
0
41
1
10
40.8817474283914
20
24.0328940205119
30
0
41
1
10
40.9505662186078
20
24.1439609893809
30
0
41
1
10
41.035997959011
20
24.2492390237605
30
0
41
1
10
41.0946574618353
20
24.3132445479591
30
0
41
1
10
41.1066532127743
20
24.325955805562
30
0
41
1
10
41.131176768521
20
24.3511982708817
30
0
41
1
10
41.1436960617051
20
24.3637195707957
30
0
41
1
10
41.1818428395417
20
24.4008108989957
30
0
41
1
10
41.2081229526109
20
24.4249754754013
30
0
41
1
10
41.2894502001247
20
24.4958340099536
30
0
41
1
10
41.4045041635933
20
24.5859614948246
30
0
41
1
10
41.5324695137322
20
24.6677532299124
30
0
41
1
10
41.6333061129551
20
24.7260170457283
30
0
41
1
10
41.6677301993848
20
24.7449240612586
30
0
41
1
10
41.7206002746242
20
24.7725104720457
30
0
41
1
10
41.7384388973308
20
24.781580919275
30
0
41
1
10
41.7743400041653
20
24.799370750179
30
0
41
1
10
41.8647672121045
20
24.8430225287669
30
0
41
1
10
42.0334895472608
20
24.9143641897172
30
0
41
1
10
42.2707654969814
20
24.9947461423432
30
0
41
1
10
42.4371323223487
20
25.0386680997824
30
0
41
1
10
42.6076958513334
20
25.0776903027175
30
0
41
1
10
42.6938359341204
20
25.0944653821368
30
0
41
1
10
42.8675065968591
20
25.1227385609988
30
0
41
1
10
43.0426564354885
20
25.1457534416551
30
0
41
1
10
43.2207322340677
20
25.1584292967808
30
0
41
1
10
43.3554045927542
20
25.1640078332435
30
0
41
1
10
43.4004816128287
20
25.165211399595
30
0
41
1
10
43.4683817868874
20
25.1660148328925
30
0
41
1
10
43.4910440029437
20
25.1661148684297
30
0
41
1
10
43.5362310511462
20
25.1659808861213
30
0
41
1
10
43.6489916582151
20
25.164808648946
30
0
41
1
10
43.8501265308676
20
25.1552828567038
30
0
41
1
10
44.1144738619579
20
25.1270512624136
30
0
41
1
10
44.2881355612872
20
25.0977649266413
30
0
41
1
10
44.3958432197672
20
25.0760518143178
30
0
41
1
10
44.4173712329601
20
25.0715320475433
30
0
41
1
10
44.4601906681536
20
25.0621792512885
30
0
41
1
10
44.5240327982635
20
25.0476884351571
30
0
41
1
10
44.5867260561398
20
25.0318237961282
30
0
41
1
10
44.7106013960083
20
24.9982773264616
30
0
41
1
10
44.871744613212
20
24.9487098450179
30
0
41
1
10
45.0248878307257
20
24.8894002820569
30
0
41
1
10
45.1366768400611
20
24.8411283993209
30
0
41
1
10
45.1918030197411
20
24.8160434340485
30
0
41
1
10
45.2457502567144
20
24.7894914001978
30
0
41
1
10
45.2814493410917
20
24.7714581111412
30
0
41
1
10
45.2991476547074
20
24.7622840561981
30
0
41
1
10
45.3864832397576
20
24.7158352247671
30
0
41
1
10
45.5195831145244
20
24.6374529779471
30
0
41
1
10
45.6997063357869
20
24.5076886513198
30
0
41
1
10
45.8066590091504
20
24.4128267421422
30
0
41
1
10
45.8692394478506
20
24.3507764822404
30
0
41
1
10
45.8815417570983
20
24.3382280100923
30
0
41
1
10
45.9057125503831
20
24.3128489997598
30
0
41
1
10
45.9175911421976
20
24.3000061797001
30
0
41
1
10
45.9523660973153
20
24.2612738453589
30
0
41
1
10
45.974466644391
20
24.235115718654
30
0
41
1
10
46.0375694589681
20
24.155634515052
30
0
41
1
10
46.1131902771916
20
24.0469779551097
30
0
41
1
10
46.1719171304096
20
23.9328845129773
30
0
41
1
10
46.209487851447
20
23.8451944551878
30
0
41
1
10
46.2209303657201
20
23.8156105447186
30
0
41
1
10
46.2416044530105
20
23.7557140597521
30
0
41
1
10
46.2508553656045
20
23.7253129588909
30
0
41
1
10
46.2749527766997
20
23.6339658994364
30
0
41
1
10
46.2975340581056
20
23.5114505846838
30
0
41
1
10
46.3015236208472
20
23.3874974471567
30
0
41
1
10
46.2961905023746
20
23.2628199553591
30
0
41
1
10
46.2888634520184
20
23.2001190582553
30
0
41
1
10
46.2736830930519
20
23.1212830220152
30
0
41
1
10
46.2703452186252
20
23.1054987348656
30
0
41
1
10
46.2631069309449
20
23.0740731217362
30
0
41
1
10
46.2513919766696
20
23.0270788240104
30
0
41
1
10
46.2371380980851
20
22.9805129054486
30
0
41
1
10
46.2053055348128
20
22.8879477808309
30
0
41
1
10
46.1540121112954
20
22.7660353981527
30
0
41
1
10
46.0852532569532
20
22.6471786144711
30
0
41
1
10
46.027025355015
20
22.5592407837204
30
0
41
1
10
46.0064434810571
20
22.5300534115977
30
0
41
1
10
45.9634456108779
20
22.4726559229951
30
0
41
1
10
45.9410114269578
20
22.4444073484229
30
0
41
1
10
45.8709683309207
20
22.3609924673545
30
0
41
1
10
45.7702831655683
20
22.2533147218564
30
0
41
1
10
45.655355383161
20
22.1526845865603
30
0
41
1
10
45.5637894226699
20
22.0799224276306
30
0
41
1
10
45.5323707952742
20
22.0561209525845
30
0
41
1
10
45.4677153006331
20
22.0094449722707
30
0
41
1
10
45.4346436538767
20
21.9866928792179
30
0
41
1
10
45.3336613783359
20
21.920454807599
30
0
41
1
10
45.1939681674868
20
21.837258083007
30
0
41
1
10
45.0444817875072
20
21.7641260151992
30
0
41
1
10
44.9287022970071
20
21.7130911795678
30
0
41
1
10
44.8698948926508
20
21.6885287896685
30
0
41
1
10
44.8096971104725
20
21.6654218711551
30
0
41
1
10
44.7692538838719
20
21.6503441152482
30
0
41
1
10
44.7488497324792
20
21.6429594112914
30
0
41
1
10
44.6464340561078
20
21.6069991225158
30
0
41
1
10
44.4801386111661
20
21.5556146893327
30
0
41
1
10
44.2236713625703
20
21.4964614399389
30
0
41
1
10
44.048055336655
20
21.4689365770824
30
0
41
1
10
43.9368195554556
20
21.4555407819799
30
0
41
1
10
43.9144984491616
20
21.4530523757345
30
0
41
1
10
43.8697070114841
20
21.4484608048223
30
0
41
1
10
43.8472076338448
20
21.4463553173591
30
0
41
1
10
43.7797266746831
20
21.4406431379038
30
0
41
1
10
43.7347911431342
20
21.4376402052774
30
0
41
1
10
43.6001367922656
20
21.4310013482688
30
0
41
1
10
43.4210028950908
20
21.4284585546559
30
0
41
1
10
43.1534949455005
20
21.4432238613774
30
0
41
1
10
42.9759580302726
20
21.465534562984
30
0
41
1
10
42.8431170265343
20
21.4870972316994
30
0
41
1
10
42.7991657761027
20
21.4950475643694
30
0
41
1
10
42.7121385746325
20
21.512403830061
30
0
41
1
10
42.6690250579377
20
21.5218158465806
30
0
41
1
10
42.5408702408276
20
21.5522200857623
30
0
41
1
10
42.3731547449542
20
21.5985330167114
30
0
41
1
10
42.2117329318284
20
21.6562668658208
30
0
41
1
10
42.0930862726896
20
21.7039174790526
30
0
41
1
10
42.0539413779136
20
21.7205272552395
30
0
41
1
10
41.9958443739277
20
21.746551340718
30
0
41
1
10
41.9765555803437
20
21.7554238189998
30
0
41
1
10
41.9383541825339
20
21.7734631430726
30
0
41
1
10
41.8437767238902
20
21.8193051141343
30
0
41
1
10
41.68175043959
20
21.9083924299088
30
0
41
1
10
41.4829568952302
20
22.0407703937207
30
0
41
1
10
41.3620576701377
20
22.1380534438476
30
0
41
1
10
41.2759309507966
20
22.2144929295462
30
0
41
1
10
41.2479258110032
20
22.2406140818289
30
0
41
1
10
41.1940739465614
20
22.2934448907562
30
0
41
1
10
41.1681584449626
20
22.320210076058
30
0
41
1
10
41.0934037588152
20
22.4015284919758
30
0
41
1
10
41.0016970880399
20
22.5126756138317
30
0
41
1
10
40.9258606097958
20
22.6291203925034
30
0
41
1
10
40.8750916586133
20
22.7184507468137
30
0
41
1
10
40.8591886292646
20
22.7485610058057
30
0
41
1
10
40.8294731910158
20
22.8094588615583
30
0
41
1
10
40.8156488474776
20
22.840290147336
30
0
41
1
10
40.7777705988837
20
22.9328693555446
30
0
41
1
10
40.7571495159824
20
22.9949859273848
30
0
41
1
10
40.7251180273662
20
23.1199750367726
30
0
41
1
10
40.7137057561842
20
23.1828621329145
30
0
41
1
10
40.7070174821181
20
23.2460979561102
30
0
0
SPLINE
5
16B
100
AcDbEntity
8
1
62
256
6
ByLayer
370
18
48
1
60
0
100
AcDbSpline
70
2053
71
3
72
211
73
207
40
0
40
0
40
0
40
0
40
0.015624999999997
40
0.015624999999997
40
0.031249999999994
40
0.031249999999994
40
0.0468749999999909
40
0.0468749999999909
40
0.0624999999999879
40
0.0624999999999879
40
0.0781249999999849
40
0.0781249999999849
40
0.0937499999999819
40
0.0937499999999819
40
0.0976562499999811
40
0.0996093749999807
40
0.0996093749999807
40
0.10156249999998
40
0.10156249999998
40
0.109374999999979
40
0.109374999999979
40
0.124999999999976
40
0.124999999999976
40
0.140624999999973
40
0.140624999999973
40
0.144531249999973
40
0.144531249999973
40
0.146484374999972
40
0.146484374999972
40
0.148437499999972
40
0.156249999999971
40
0.156249999999971
40
0.171874999999968
40
0.171874999999968
40
0.179687499999967
40
0.179687499999967
40
0.183593749999967
40
0.183593749999967
40
0.187499999999966
40
0.187499999999966
40
0.203124999999964
40
0.203124999999964
40
0.218749999999962
40
0.218749999999962
40
0.226562499999961
40
0.226562499999961
40
0.230468749999961
40
0.230468749999961
40
0.23242187499996
40
0.23242187499996
40
0.23437499999996
40
0.249999999999959
40
0.249999999999959
40
0.265624999999957
40
0.265624999999957
40
0.281249999999955
40
0.281249999999955
40
0.296874999999954
40
0.296874999999954
40
0.312499999999952
40
0.312499999999952
40
0.32812499999995
40
0.32812499999995
40
0.335937499999949
40
0.335937499999949
40
0.339843749999949
40
0.339843749999949
40
0.343749999999948
40
0.343749999999948
40
0.359374999999945
40
0.359374999999945
40
0.374999999999942
40
0.374999999999942
40
0.390624999999939
40
0.390624999999939
40
0.398437499999938
40
0.398437499999938
40
0.400390624999938
40
0.400390624999938
40
0.402343749999937
40
0.406249999999938
40
0.406249999999938
40
0.421874999999939
40
0.437499999999941
40
0.437499999999941
40
0.453124999999942
40
0.453124999999942
40
0.460937499999943
40
0.460937499999943
40
0.462890624999943
40
0.462890624999943
40
0.464843749999943
40
0.468749999999944
40
0.468749999999944
40
0.484374999999947
40
0.484374999999947
40
0.49999999999995
40
0.49999999999995
40
0.515624999999953
40
0.515624999999953
40
0.519531249999953
40
0.519531249999953
40
0.523437499999954
40
0.523437499999954
40
0.531249999999956
40
0.531249999999956
40
0.54687499999996
40
0.54687499999996
40
0.562499999999964
40
0.562499999999964
40
0.570312499999966
40
0.570312499999966
40
0.572265624999967
40
0.572265624999967
40
0.574218749999967
40
0.578124999999968
40
0.578124999999968
40
0.593749999999974
40
0.593749999999974
40
0.609374999999979
40
0.609374999999979
40
0.617187499999982
40
0.617187499999982
40
0.619140624999982
40
0.619140624999982
40
0.621093749999983
40
0.621093749999983
40
0.624999999999984
40
0.624999999999984
40
0.640624999999989
40
0.640624999999989
40
0.656249999999994
40
0.656249999999994
40
0.660156249999996
40
0.662109374999996
40
0.662109374999996
40
0.664062499999997
40
0.664062499999997
40
0.671874999999999
40
0.671874999999999
40
0.687500000000003
40
0.687500000000003
40
0.703125000000007
40
0.703125000000007
40
0.707031250000008
40
0.707031250000008
40
0.710937500000009
40
0.718750000000011
40
0.718750000000011
40
0.734375000000014
40
0.734375000000014
40
0.750000000000018
40
0.750000000000018
40
0.751953125000019
40
0.751953125000019
40
0.753906250000019
40
0.757812500000019
40
0.765625000000019
40
0.765625000000019
40
0.781250000000018
40
0.781250000000018
40
0.796875000000017
40
0.796875000000017
40
0.800781250000017
40
0.802734375000017
40
0.802734375000017
40
0.804687500000017
40
0.804687500000017
40
0.812500000000017
40
0.812500000000017
40
0.828125000000017
40
0.828125000000017
40
0.843750000000017
40
0.859375000000017
40
0.859375000000017
40
0.863281250000017
40
0.863281250000017
40
0.867187500000016
40
0.875000000000016
40
0.875000000000016
40
0.890625000000014
40
0.906250000000012
40
0.906250000000012
40
0.92187500000001
40
0.92187500000001
40
0.92382812500001
40
0.92382812500001
40
0.92578125000001
40
0.92578125000001
40
0.929687500000009
40
0.937500000000008
40
0.937500000000008
40
0.953125000000006
40
0.953125000000006
40
0.968750000000004
40
0.968750000000004
40
0.984375000000002
40
0.984375000000002
40
0.988281250000002
40
0.988281250000002
40
0.992187500000001
40
0.996093750000001
40
0.998046875
40
0.9990234375
40
0.9990234375
40
1
40
1
40
1
40
1
41
1
10
68.589014704737
20
-6.76926711410607
30
0
41
1
10
68.3350501995845
20
-6.55795238346064
30
0
41
1
10
68.092965107439
20
-6.33605336138825
30
0
41
1
10
67.632716789774
20
-5.87071829370237
30
0
41
1
10
67.4145503741586
20
-5.62728554184258
30
0
41
1
10
67.0031030201432
20
-5.11779496302569
30
0
41
1
10
66.8098136390578
20
-4.85174525069266
30
0
41
1
10
66.4500506149177
20
-4.29504909062317
30
0
41
1
10
66.2869612143462
20
-4.00960158970375
30
0
41
1
10
65.9944576842698
20
-3.42466184016342
30
0
41
1
10
65.8650168742046
20
-3.12513240907558
30
0
41
1
10
65.640823827072
20
-2.51142372634442
30
0
41
1
10
65.5460627107661
20
-2.19724830124218
30
0
41
1
10
65.4507491907721
20
-1.79471715220362
30
0
41
1
10
65.4238957196927
20
-1.67321975582863
30
0
41
1
10
65.3997120098572
20
-1.55058944657264
30
0
41
1
10
65.3841900203219
20
-1.46858100447349
30
0
41
1
10
65.37673714804
20
-1.42748752017457
30
0
41
1
10
65.3411214511461
20
-1.22218720179413
30
0
41
1
10
65.3177919279054
20
-1.05791189831837
30
0
41
1
10
65.2630214744317
20
-0.56498257984677
30
0
41
1
10
65.2467584244224
20
-0.236225415973564
30
0
41
1
10
65.2543046512697
20
0.421561421982716
30
0
41
1
10
65.2781126960972
20
0.750591088089692
30
0
41
1
10
65.3334686290193
20
1.16205205913315
30
0
41
1
10
65.3458229222732
20
1.2443529691011
30
0
41
1
10
65.366299637752
20
1.3678175408991
30
0
41
1
10
65.3734538759201
20
1.40899588796623
30
0
41
1
10
65.388359625932
20
1.49106624221301
30
0
41
1
10
65.4271453514118
20
1.69569177854848
30
0
41
1
10
65.4734497248808
20
1.89759817886892
30
0
41
1
10
65.5985467373793
20
2.37713059894591
30
0
41
1
10
65.7005274477958
20
2.69010861836284
30
0
41
1
10
65.8802816159023
20
3.14994707630737
30
0
41
1
10
65.9446737239274
20
3.3016182484898
30
0
41
1
10
66.0479237075546
20
3.52673695592839
30
0
41
1
10
66.0834512536052
20
3.60137831604993
30
0
41
1
10
66.1567268419948
20
3.74986630174857
30
0
41
1
10
66.1945016577814
20
3.82376335444999
30
0
41
1
10
66.3886466192759
20
4.1907180988531
30
0
41
1
10
66.5589478249197
20
4.47282146570333
30
0
41
1
10
66.92735742812
20
5.01592649893189
30
0
41
1
10
67.1254749687464
20
5.27692089171509
30
0
41
1
10
67.4427200177635
20
5.65331850693701
30
0
41
1
10
67.5518208266406
20
5.77626295514142
30
0
41
1
10
67.7204658949856
20
5.95694175787986
30
0
41
1
10
67.7775136604429
20
6.01654472587626
30
0
41
1
10
67.8643339342935
20
6.10501690780382
30
0
41
1
10
67.8934846011301
20
6.13435411650076
30
0
41
1
10
67.9520581960361
20
6.19257789270478
30
0
41
1
10
68.2170308733407
20
6.4527077295219
30
0
41
1
10
68.4943129809029
20
6.69625696640978
30
0
41
1
10
69.0056383008827
20
7.10474504972893
30
0
41
1
10
69.2704951581127
20
7.2967383269374
30
0
41
1
10
69.8181620055563
20
7.6570640819622
30
0
41
1
10
70.1009924374777
20
7.82540446629946
30
0
41
1
10
70.68464817666
20
8.13847775913246
30
0
41
1
10
70.9815552514118
20
8.28111523734179
30
0
41
1
10
71.5850939849149
20
8.54004616228619
30
0
41
1
10
71.8917274611052
20
8.65633415291256
30
0
41
1
10
72.5145697369368
20
8.86319674378868
30
0
41
1
10
72.8307790889457
20
8.95376955785386
30
0
41
1
10
73.3123453606503
20
9.07029246400964
30
0
41
1
10
73.4740780195972
20
9.10590539093656
30
0
41
1
10
73.7185186721984
20
9.1544280108553
30
0
41
1
10
73.8003950052597
20
9.16980042973987
30
0
41
1
10
73.964107082574
20
9.19878639080375
30
0
41
1
10
74.0459858704549
20
9.21241053664309
30
0
41
1
10
74.455492430679
20
9.27623492311056
30
0
41
1
10
74.7834574000068
20
9.31357400992147
30
0
41
1
10
75.4400890306243
20
9.36157283193091
30
0
41
1
10
75.7687557376389
20
9.37223066627254
30
0
41
1
10
76.4267892094473
20
9.36695308462853
30
0
41
1
10
76.7561559506765
20
9.35101863026617
30
0
41
1
10
77.2507415501331
20
9.30674755824666
30
0
41
1
10
77.4156927885491
20
9.28859044231729
30
0
41
1
10
77.6219956406539
20
9.26155783632663
30
0
41
1
10
77.663279747067
20
9.25593165621018
30
0
41
1
10
77.7456705231106
20
9.24427039408354
30
0
41
1
10
77.8690493088367
20
9.22615787421697
30
0
41
1
10
77.9918091661391
20
9.20619218410897
30
0
41
1
10
78.3996452798807
20
9.13555333955637
30
0
41
1
10
79.0434730727773
20
8.99642664406929
30
0
41
1
10
79.6702220851815
20
8.8058255849019
30
0
41
1
10
80.2883917812101
20
8.58917227712192
30
0
41
1
10
80.5931880198783
20
8.46782308499769
30
0
41
1
10
81.043749579258
20
8.2654750827017
30
0
41
1
10
81.1928294475668
20
8.19463232699042
30
0
41
1
10
81.3777587599208
20
8.10170379136684
30
0
41
1
10
81.4146654151492
20
8.08290286481031
30
0
41
1
10
81.4881457844505
20
8.04495932111766
30
0
41
1
10
81.5979374192764
20
7.9874961056361
30
0
41
1
10
81.7064469785428
20
7.9283931311347
30
0
41
1
10
82.0653116293738
20
7.72774950800058
30
0
41
1
10
82.3433557706467
20
7.55563407274772
30
0
41
1
10
82.8814030791582
20
7.1880262352536
30
0
41
1
10
83.1414079193463
20
6.99253644563288
30
0
41
1
10
83.6428807080447
20
6.57727645530639
30
0
41
1
10
83.8843535227421
20
6.35751318971535
30
0
41
1
10
84.1738972354977
20
6.0665291060993
30
0
41
1
10
84.2311892943564
20
6.00751582790892
30
0
41
1
10
84.3445143145627
20
5.88781795236323
30
0
41
1
10
84.4005802104657
20
5.82709671049145
30
0
41
1
10
84.5666350052575
20
5.64259502669171
30
0
41
1
10
84.6737844194276
20
5.51726110311992
30
0
41
1
10
84.9845662357819
20
5.13422479838431
30
0
41
1
10
85.1775629166995
20
4.86950791973763
30
0
41
1
10
85.5344306131841
20
4.32069894522257
30
0
41
1
10
85.6983084119758
20
4.03661164442821
30
0
41
1
10
85.9209317549916
20
3.59493756269467
30
0
41
1
10
85.9912651002143
20
3.44511648775364
30
0
41
1
10
86.0741200097806
20
3.25443733970496
30
0
41
1
10
86.0904479864402
20
3.21610546370488
30
0
41
1
10
86.122485701228
20
3.13935279316746
30
0
41
1
10
86.1696487479406
20
3.0240149720357
30
0
41
1
10
86.2141393277393
20
2.90805217376874
30
0
41
1
10
86.3565252581776
20
2.52012426303517
30
0
41
1
10
86.4515510458029
20
2.20535991721704
30
0
41
1
10
86.6036431565509
20
1.5669056196252
30
0
41
1
10
86.6607132934353
20
1.24321660282047
30
0
41
1
10
86.7167514761867
20
0.750713973540286
30
0
41
1
10
86.7304927999682
20
0.585382607920593
30
0
41
1
10
86.7412968018558
20
0.377215601181746
30
0
41
1
10
86.7431387237952
20
0.335507004180613
30
0
41
1
10
86.746178794618
20
0.251937988445775
30
0
41
1
10
86.7473761249755
20
0.210076312185521
30
0
41
1
10
86.7499875041865
20
0.0847580192067312
30
0
41
1
10
86.750428026079
20
0.0014028973135396
30
0
41
1
10
86.7462188436732
20
-0.414433867413066
30
0
41
1
10
86.7223888184831
20
-0.744106654557072
30
0
41
1
10
86.6351936471656
20
-1.39766836783269
30
0
41
1
10
86.5718250291105
20
-1.72155677851495
30
0
41
1
10
86.4679407209703
20
-2.12281734999976
30
0
41
1
10
86.4349202680175
20
-2.24292488171156
30
0
41
1
10
86.3991035609417
20
-2.36262486510301
30
0
41
1
10
86.3746023710887
20
-2.44233404300672
30
0
41
1
10
86.3620388353787
20
-2.48214490229574
30
0
41
1
10
86.2978778238367
20
-2.68031110513235
30
0
41
1
10
86.2420929233216
20
-2.83653866121597
30
0
41
1
10
86.0618838445273
20
-3.29858736310365
30
0
41
1
10
85.9246431821757
20
-3.5977935825822
30
0
41
1
10
85.617666449932
20
-4.17953675390726
30
0
41
1
10
85.4479247580602
20
-4.46207062442517
30
0
41
1
10
85.2157736242761
20
-4.80506825596231
30
0
41
1
10
85.1683079719497
20
-4.87320053950458
30
0
41
1
10
85.0718900672581
20
-5.00774487247773
30
0
41
1
10
84.9248610693782
20
-5.20723716682423
30
0
41
1
10
84.7707824095991
20
-5.3999239698496
30
0
41
1
10
84.4535385753679
20
-5.77656705280171
30
0
41
1
10
84.2299529014562
20
-6.01604630094894
30
0
41
1
10
83.7595820941823
20
-6.47293753156791
30
0
41
1
10
83.5127935850307
20
-6.690345859198
30
0
41
1
10
83.2222121640638
20
-6.92274660990026
30
0
41
1
10
83.1897322479213
20
-6.94840896821941
30
0
41
1
10
83.1245572096297
20
-6.99928188103334
30
0
41
1
10
83.0264260228028
20
-7.07495164611089
30
0
41
1
10
82.794891202065
20
-7.2470750575859
30
0
41
1
10
82.5921130510438
20
-7.38714567676331
30
0
41
1
10
82.1809367091883
20
-7.65763028718789
30
0
41
1
10
81.8993394952083
20
-7.82510228240827
30
0
41
1
10
81.3215666300446
20
-8.13526686954054
30
0
41
1
10
81.0253895530384
20
-8.27795659377173
30
0
41
1
10
80.6460265804803
20
-8.44093341784404
30
0
41
1
10
80.531530596454
20
-8.4886699838105
30
0
41
1
10
80.4159985901033
20
-8.53466676222982
30
0
41
1
10
80.3387462758469
20
-8.56494383558712
30
0
41
1
10
80.299983939221
20
-8.57989636213603
30
0
41
1
10
80.1059734000488
20
-8.65354482866826
30
0
41
1
10
79.9499739931747
20
-8.70896563740141
30
0
41
1
10
79.4796533065926
20
-8.86500083481948
30
0
41
1
10
79.1630143405198
20
-8.9554107431025
30
0
41
1
10
78.5236956627584
20
-9.10982406059617
30
0
41
1
10
77.8783347005048
20
-9.23782384763999
30
0
41
1
10
77.2208798694045
20
-9.31323416558618
30
0
41
1
10
76.8060988197275
20
-9.34358251985614
30
0
41
1
10
76.7229115745223
20
-9.3488132647548
30
0
41
1
10
76.5563023873216
20
-9.35756962276884
30
0
41
1
10
76.306692005553
20
-9.3681123346781
30
0
41
1
10
76.05798178019
20
-9.37096830445421
30
0
41
1
10
75.5617425307631
20
-9.36659526757995
30
0
41
1
10
74.9032357651939
20
-9.33391136386902
30
0
41
1
10
74.2509269883473
20
-9.24824344632842
30
0
41
1
10
73.601740836967
20
-9.13578485735178
30
0
41
1
10
73.2787087419303
20
-9.06616336975836
30
0
41
1
10
72.9171093122985
20
-8.97220712405715
30
0
41
1
10
72.8769568129501
20
-8.9615499314607
30
0
41
1
10
72.796702530887
20
-8.93979748144525
30
0
41
1
10
72.7565840720349
20
-8.92869728561456
30
0
41
1
10
72.6365874702092
20
-8.89481647152647
30
0
41
1
10
72.3977881219416
20
-8.8246676636235
30
0
41
1
10
72.1625356568109
20
-8.74741426473557
30
0
41
1
10
71.6967017267833
20
-8.58351441480696
30
0
41
1
10
71.392363537017
20
-8.46174553137692
30
0
41
1
10
70.7960600694803
20
-8.19310482983752
30
0
41
1
10
70.5040937367795
20
-8.04623554568053
30
0
41
1
10
69.9328111767325
20
-7.72657076580379
30
0
41
1
10
69.653492015711
20
-7.55378188523105
30
0
41
1
10
69.3126705513688
20
-7.32054224053994
30
0
41
1
10
69.2448693183699
20
-7.27298920751807
30
0
41
1
10
69.1104831435325
20
-7.17638265404418
30
0
41
1
10
68.977280342975
20
-7.07825743507985
30
0
41
1
10
68.8137518248863
20
-6.95177232730367
30
0
41
1
10
68.7008557894161
20
-6.86120153896741
30
0
41
1
10
68.6528106213792
20
-6.82194757844692
30
0
41
1
10
68.6208559975134
20
-6.79568064621114
30
0
41
1
10
68.604887486309
20
-6.78247428477141
30
0
41
1
10
68.589014704737
20
-6.76926711410607
30
0
0
SPLINE
5
16C
100
AcDbEntity
8
1
62
256
6
ByLayer
370
18
48
1
60
0
100
AcDbSpline
70
2053
71
3
72
161
73
157
40
0
40
0
40
0
40
0
40
0.0156249999999998
40
0.0312499999999995
40
0.0312499999999995
40
0.0468749999999993
40
0.0468749999999993
40
0.0546874999999994
40
0.0546874999999994
40
0.0624999999999995
40
0.0624999999999995
40
0.0781249999999989
40
0.0937499999999984
40
0.0937499999999984
40
0.0976562499999987
40
0.0976562499999987
40
0.101562499999999
40
0.101562499999999
40
0.109375
40
0.109375
40
0.125000000000003
40
0.140625000000005
40
0.140625000000005
40
0.148437500000007
40
0.148437500000007
40
0.152343750000008
40
0.152343750000008
40
0.156250000000009
40
0.171875000000011
40
0.187500000000014
40
0.187500000000014
40
0.195312500000015
40
0.199218750000016
40
0.199218750000016
40
0.203125000000017
40
0.203125000000017
40
0.21875000000002
40
0.21875000000002
40
0.234375000000024
40
0.250000000000027
40
0.250000000000027
40
0.253906250000028
40
0.253906250000028
40
0.257812500000029
40
0.26562500000003
40
0.26562500000003
40
0.281250000000033
40
0.296875000000036
40
0.296875000000036
40
0.304687500000037
40
0.304687500000037
40
0.308593750000038
40
0.308593750000038
40
0.312500000000038
40
0.32812500000004
40
0.343750000000042
40
0.359375000000044
40
0.359375000000044
40
0.363281250000044
40
0.363281250000044
40
0.367187500000045
40
0.375000000000046
40
0.375000000000046
40
0.390625000000048
40
0.406250000000049
40
0.406250000000049
40
0.41406250000005
40
0.41406250000005
40
0.421875000000051
40
0.421875000000051
40
0.437500000000053
40
0.453125000000055
40
0.468750000000057
40
0.468750000000057
40
0.472656250000058
40
0.472656250000058
40
0.476562500000058
40
0.476562500000058
40
0.484375000000059
40
0.484375000000059
40
0.50000000000006
40
0.515625000000061
40
0.515625000000061
40
0.523437500000061
40
0.527343750000062
40
0.527343750000062
40
0.531250000000062
40
0.531250000000062
40
0.546875000000061
40
0.56250000000006
40
0.578125000000059
40
0.578125000000059
40
0.582031250000059
40
0.582031250000059
40
0.585937500000058
40
0.585937500000058
40
0.593750000000058
40
0.593750000000058
40
0.609375000000057
40
0.625000000000055
40
0.625000000000055
40
0.632812500000055
40
0.632812500000055
40
0.636718750000054
40
0.636718750000054
40
0.640625000000054
40
0.656250000000051
40
0.671875000000049
40
0.671875000000049
40
0.679687500000047
40
0.683593750000047
40
0.683593750000047
40
0.687500000000046
40
0.687500000000046
40
0.703125000000045
40
0.703125000000045
40
0.718750000000044
40
0.734375000000043
40
0.734375000000043
40
0.738281250000043
40
0.738281250000043
40
0.742187500000042
40
0.750000000000042
40
0.750000000000042
40
0.765625000000043
40
0.781250000000043
40
0.781250000000043
40
0.789062500000043
40
0.789062500000043
40
0.796875000000043
40
0.796875000000043
40
0.812500000000043
40
0.828125000000043
40
0.828125000000043
40
0.843750000000043
40
0.843750000000043
40
0.859375000000043
40
0.875000000000043
40
0.890625000000043
40
0.890625000000043
40
0.898437500000043
40
0.898437500000043
40
0.902343750000042
40
0.902343750000042
40
0.906250000000041
40
0.921875000000034
40
0.937500000000027
40
0.95312500000002
40
0.95312500000002
40
0.960937500000017
40
0.960937500000017
40
0.968750000000014
40
0.968750000000014
40
0.984375000000007
40
0.984375000000007
40
1
40
1
40
1
40
1
41
1
10
41.3663527761612
20
-24.5539096490303
30
0
41
1
10
41.3063091803121
20
-24.5093889937269
30
0
41
1
10
41.1938897535269
20
-24.4167951267855
30
0
41
1
10
41.0965219849288
20
-24.3170748667774
30
0
41
1
10
41.0067625393092
20
-24.2136802402494
30
0
41
1
10
40.9656859854516
20
-24.1601463215356
30
0
41
1
10
40.9100158997889
20
-24.0769249797682
30
0
41
1
10
40.892572004744
20
-24.0488718735594
30
0
41
1
10
40.8599878528906
20
-23.9923227068336
30
0
41
1
10
40.8448282039318
20
-23.9637977412284
30
0
41
1
10
40.8027082676516
20
-23.8774710039604
30
0
41
1
10
40.755493251312
20
-23.7603655587321
30
0
41
1
10
40.726163239425
20
-23.6391772466232
30
0
41
1
10
40.7135919218605
20
-23.562103850601
30
0
41
1
10
40.7113663583715
20
-23.5466225086356
30
0
41
1
10
40.7074998245324
20
-23.5155245945709
30
0
41
1
10
40.7058574989707
20
-23.4998861188525
30
0
41
1
10
40.7018387721886
20
-23.4530188803319
30
0
41
1
10
40.7003603477743
20
-23.4217891972109
30
0
41
1
10
40.6994540646677
20
-23.3281436940806
30
0
41
1
10
40.7076381501997
20
-23.2033980879583
30
0
41
1
10
40.7342701062502
20
-23.0788917904875
30
0
41
1
10
40.7612434569879
20
-22.9856195575689
30
0
41
1
10
40.7714032803762
20
-22.9545468771409
30
0
41
1
10
40.7884265292801
20
-22.9079686063769
30
0
41
1
10
40.7944071658334
20
-22.8924271039666
30
0
41
1
10
40.8069021893495
20
-22.8615162964514
30
0
41
1
10
40.8394999472124
20
-22.7846101850612
30
0
41
1
10
40.9101749510656
20
-22.6494641009031
30
0
41
1
10
40.9895219879691
20
-22.5339523622719
30
0
41
1
10
41.0552129601228
20
-22.4490892599102
30
0
41
1
10
41.0896062167534
20
-22.407101210928
30
0
41
1
10
41.1263451148692
20
-22.3657944845472
30
0
41
1
10
41.1513631425047
20
-22.3384103579039
30
0
41
1
10
41.1641457517093
20
-22.3247847363969
30
0
41
1
10
41.2290277360567
20
-22.2574095437237
30
0
41
1
10
41.2842659315183
20
-22.2056404072163
30
0
41
1
10
41.4011355539767
20
-22.1062585263108
30
0
41
1
10
41.524400436527
20
-22.0110345899594
30
0
41
1
10
41.6603057305128
20
-21.9241684111048
30
0
41
1
10
41.7492661234942
20
-21.8725794902179
30
0
41
1
10
41.7672835491198
20
-21.8623842252429
30
0
41
1
10
41.8035677660927
20
-21.8423536409072
30
0
41
1
10
41.8583841978177
20
-21.8128367089218
30
0
41
1
10
41.9143545339247
20
-21.7848891822222
30
0
41
1
10
42.0278031206928
20
-21.731057008007
30
0
41
1
10
42.1830813733792
20
-21.6647723297185
30
0
41
1
10
42.3462402808068
20
-21.6093879249873
30
0
41
1
10
42.4715936163507
20
-21.5720165106079
30
0
41
1
10
42.5138762825889
20
-21.5602549936773
30
0
41
1
10
42.5780593116136
20
-21.5436768323568
30
0
41
1
10
42.5995781806479
20
-21.5383294510302
30
0
41
1
10
42.6426455779096
20
-21.528044512279
30
0
41
1
10
42.7505281752536
20
-21.5033240576171
30
0
41
1
10
42.9466117784428
20
-21.4676230149537
30
0
41
1
10
43.2119952839203
20
-21.4383968126227
30
0
41
1
10
43.3915461592766
20
-21.4312144132623
30
0
41
1
10
43.5046109731248
20
-21.4306870834162
30
0
41
1
10
43.5272901631037
20
-21.4307807903775
30
0
41
1
10
43.5725144179009
20
-21.4313654733173
30
0
41
1
10
43.6402114089166
20
-21.4328373376138
30
0
41
1
10
43.7074949017432
20
-21.4360736213242
30
0
41
1
10
43.8415187651754
20
-21.4448621349572
30
0
41
1
10
44.0187711546387
20
-21.4627469846724
30
0
41
1
10
44.1931579739681
20
-21.4928168573233
30
0
41
1
10
44.3228535957192
20
-21.5200007956367
30
0
41
1
10
44.3659027432671
20
-21.5298352555432
30
0
41
1
10
44.4516282884762
20
-21.5510764656715
30
0
41
1
10
44.4943914294123
20
-21.5625115044461
30
0
41
1
10
44.6208262724238
20
-21.5988433942076
30
0
41
1
10
44.78516724299
20
-21.6528239078743
30
0
41
1
10
45.0192268786997
20
-21.7499103847393
30
0
41
1
10
45.1669138130275
20
-21.8253289653611
30
0
41
1
10
45.2565139195602
20
-21.8758863889621
30
0
41
1
10
45.2742984066539
20
-21.8861693027273
30
0
41
1
10
45.3095926140187
20
-21.9070815781414
30
0
41
1
10
45.3271214321536
20
-21.9177233523144
30
0
41
1
10
45.3790146536932
20
-21.9500007617334
30
0
41
1
10
45.4127601029642
20
-21.9720297131154
30
0
41
1
10
45.5114836692132
20
-22.0396128024212
30
0
41
1
10
45.6364260873651
20
-22.1337063965759
30
0
41
1
10
45.7480908475901
20
-22.2355649591499
30
0
41
1
10
45.8267507436087
20
-22.314882435857
30
0
41
1
10
45.8648064315237
20
-22.355273289278
30
0
41
1
10
45.9009069729848
20
-22.3967779023369
30
0
41
1
10
45.9245332813883
20
-22.4246976642814
30
0
41
1
10
45.9361427248266
20
-22.4388036629217
30
0
41
1
10
45.9928407375819
20
-22.5096763090686
30
0
41
1
10
46.0748047661587
20
-22.6250375079284
30
0
41
1
10
46.1721401693246
20
-22.8036505644758
30
0
41
1
10
46.2198784174287
20
-22.92635835814
30
0
41
1
10
46.2441655536929
20
-23.0042018703681
30
0
41
1
10
46.2487448300678
20
-23.0198283000208
30
0
41
1
10
46.2573394721941
20
-23.0511977203597
30
0
41
1
10
46.2613551337872
20
-23.0669465367909
30
0
41
1
10
46.2724805385484
20
-23.1140780799084
30
0
41
1
10
46.2786970219493
20
-23.1454413834352
30
0
41
1
10
46.293811072583
20
-23.2393573700573
30
0
41
1
10
46.304552677363
20
-23.3641147715951
30
0
41
1
10
46.2967381402144
20
-23.4879393394398
30
0
41
1
10
46.2838084501915
20
-23.5804574304576
30
0
41
1
10
46.2783182529408
20
-23.6112384188001
30
0
41
1
10
46.2682780173565
20
-23.6573224025618
30
0
41
1
10
46.2646253201972
20
-23.6726856805577
30
0
41
1
10
46.2567585332264
20
-23.7032100635052
30
0
41
1
10
46.2356648794395
20
-23.7791042046832
30
0
41
1
10
46.1850918462697
20
-23.9120379572817
30
0
41
1
10
46.1227436259839
20
-24.0252029205423
30
0
41
1
10
46.0694608884658
20
-24.1082404778632
30
0
41
1
10
46.0411863885952
20
-24.1492995623748
30
0
41
1
10
46.0104338270709
20
-24.189669609187
30
0
41
1
10
45.9893766733241
20
-24.2164295424184
30
0
41
1
10
45.9785667506904
20
-24.2297357070305
30
0
41
1
10
45.9234359150441
20
-24.295511747574
30
0
41
1
10
45.8756475397362
20
-24.3460265228395
30
0
41
1
10
45.7729986385893
20
-24.4430831647668
30
0
41
1
10
45.6632756231556
20
-24.5361656976758
30
0
41
1
10
45.5395574106824
20
-24.6215366672309
30
0
41
1
10
45.4577779311339
20
-24.6724885332966
30
0
41
1
10
45.44118907643
20
-24.682563391544
30
0
41
1
10
45.4077406546715
20
-24.7023674340493
30
0
41
1
10
45.3570995696124
20
-24.7315941485603
30
0
41
1
10
45.3050727379664
20
-24.7594086205554
30
0
41
1
10
45.1992079337406
20
-24.8132064642958
30
0
41
1
10
45.0532337881635
20
-24.8800631819373
30
0
41
1
10
44.8977881428883
20
-24.9374928013653
30
0
41
1
10
44.7776139801331
20
-24.9770437570563
30
0
41
1
10
44.7369345169455
20
-24.9896458437031
30
0
41
1
10
44.6544480207148
20
-25.0136366877779
30
0
41
1
10
44.6129193633479
20
-25.0249453737074
30
0
41
1
10
44.4874969638781
20
-25.0568698067254
30
0
41
1
10
44.3180406262978
20
-25.094108508646
30
0
41
1
10
44.1442410542928
20
-25.1210523992336
30
0
41
1
10
43.9682638706959
20
-25.1428712449955
30
0
41
1
10
43.8791725125746
20
-25.1512193991623
30
0
41
1
10
43.6988015915098
20
-25.1626523300725
30
0
41
1
10
43.5190083890406
20
-25.1686495527254
30
0
41
1
10
43.2509931261357
20
-25.1619144636155
30
0
41
1
10
43.0734247726105
20
-25.1469988018153
30
0
41
1
10
42.9406727600369
20
-25.1318060780586
30
0
41
1
10
42.8964929184126
20
-25.1260729235068
30
0
41
1
10
42.830331632164
20
-25.1164457095336
30
0
41
1
10
42.8082847178424
20
-25.1130629882864
30
0
41
1
10
42.764459497512
20
-25.1059895934689
30
0
41
1
10
42.6554289038111
20
-25.0875130520618
30
0
41
1
10
42.4638946595445
20
-25.0472118797199
30
0
41
1
10
42.2184038371343
20
-24.9785826358113
30
0
41
1
10
42.0613926750083
20
-24.9226984183274
30
0
41
1
10
41.9462235847004
20
-24.8767879057843
30
0
41
1
10
41.9082086729147
20
-24.8607875550873
30
0
41
1
10
41.8337754892304
20
-24.8277295196286
30
0
41
1
10
41.7972752519962
20
-24.81064189976
30
0
41
1
10
41.68990828938
20
-24.7577008628127
30
0
41
1
10
41.6211701447927
20
-24.7201734788003
30
0
41
1
10
41.4894163234203
20
-24.6405392151833
30
0
41
1
10
41.4263963720102
20
-24.5984303043337
30
0
41
1
10
41.3663527761612
20
-24.5539096490303
30
0
0
SPLINE
5
16D
100
AcDbEntity
8
1
62
256
6
ByLayer
370
18
48
1
60
0
100
AcDbSpline
70
2053
71
3
72
211
73
207
40
0
40
0
40
0
40
0
40
0.0156249999999986
40
0.0156249999999986
40
0.0312499999999973
40
0.0312499999999973
40
0.0468749999999959
40
0.0468749999999959
40
0.0624999999999945
40
0.0624999999999945
40
0.0781249999999931
40
0.0781249999999931
40
0.0937499999999917
40
0.0937499999999917
40
0.0976562499999914
40
0.0996093749999912
40
0.0996093749999912
40
0.101562499999991
40
0.101562499999991
40
0.10937499999999
40
0.10937499999999
40
0.124999999999988
40
0.124999999999988
40
0.140624999999987
40
0.140624999999987
40
0.144531249999986
40
0.144531249999986
40
0.146484374999986
40
0.146484374999986
40
0.148437499999986
40
0.156249999999985
40
0.156249999999985
40
0.171874999999984
40
0.171874999999984
40
0.179687499999984
40
0.179687499999984
40
0.183593749999983
40
0.183593749999983
40
0.187499999999983
40
0.187499999999983
40
0.203124999999982
40
0.203124999999982
40
0.218749999999981
40
0.218749999999981
40
0.226562499999981
40
0.226562499999981
40
0.23046874999998
40
0.23046874999998
40
0.23242187499998
40
0.23242187499998
40
0.23437499999998
40
0.249999999999978
40
0.249999999999978
40
0.265624999999977
40
0.265624999999977
40
0.281249999999976
40
0.281249999999976
40
0.296874999999974
40
0.296874999999974
40
0.312499999999973
40
0.312499999999973
40
0.328124999999971
40
0.328124999999971
40
0.335937499999971
40
0.335937499999971
40
0.33984374999997
40
0.33984374999997
40
0.34374999999997
40
0.34374999999997
40
0.35937499999997
40
0.35937499999997
40
0.37499999999997
40
0.37499999999997
40
0.39062499999997
40
0.39062499999997
40
0.39843749999997
40
0.39843749999997
40
0.40039062499997
40
0.40039062499997
40
0.40234374999997
40
0.40624999999997
40
0.40624999999997
40
0.421874999999971
40
0.437499999999971
40
0.437499999999971
40
0.453124999999972
40
0.453124999999972
40
0.460937499999972
40
0.460937499999972
40
0.462890624999972
40
0.462890624999972
40
0.464843749999972
40
0.468749999999973
40
0.468749999999973
40
0.484374999999975
40
0.484374999999975
40
0.499999999999976
40
0.499999999999976
40
0.515624999999978
40
0.515624999999978
40
0.519531249999979
40
0.519531249999979
40
0.523437499999979
40
0.523437499999979
40
0.53124999999998
40
0.53124999999998
40
0.546874999999982
40
0.546874999999982
40
0.562499999999984
40
0.562499999999984
40
0.570312499999985
40
0.570312499999985
40
0.572265624999985
40
0.572265624999985
40
0.574218749999985
40
0.578124999999986
40
0.578124999999986
40
0.593749999999987
40
0.593749999999987
40
0.609374999999988
40
0.609374999999988
40
0.617187499999989
40
0.617187499999989
40
0.619140624999989
40
0.619140624999989
40
0.621093749999989
40
0.621093749999989
40
0.62499999999999
40
0.62499999999999
40
0.640624999999991
40
0.640624999999991
40
0.656249999999992
40
0.656249999999992
40
0.660156249999993
40
0.662109374999993
40
0.662109374999993
40
0.664062499999993
40
0.664062499999993
40
0.671874999999993
40
0.671874999999993
40
0.687499999999993
40
0.687499999999993
40
0.703124999999993
40
0.703124999999993
40
0.707031249999993
40
0.707031249999993
40
0.710937499999993
40
0.718749999999993
40
0.718749999999993
40
0.734374999999992
40
0.734374999999992
40
0.749999999999992
40
0.749999999999992
40
0.751953124999992
40
0.751953124999992
40
0.753906249999992
40
0.757812499999992
40
0.765624999999993
40
0.765624999999993
40
0.781249999999995
40
0.781249999999995
40
0.796874999999996
40
0.796874999999996
40
0.800781249999997
40
0.802734374999997
40
0.802734374999997
40
0.804687499999997
40
0.804687499999997
40
0.812499999999998
40
0.812499999999998
40
0.828124999999998
40
0.828124999999998
40
0.843749999999999
40
0.859374999999999
40
0.859374999999999
40
0.86328125
40
0.86328125
40
0.8671875
40
0.875
40
0.875
40
0.890625000000001
40
0.906250000000001
40
0.906250000000001
40
0.921875000000002
40
0.921875000000002
40
0.923828125000002
40
0.923828125000002
40
0.925781250000002
40
0.925781250000002
40
0.929687500000002
40
0.937500000000002
40
0.937500000000002
40
0.953125000000001
40
0.953125000000001
40
0.968750000000001
40
0.968750000000001
40
0.984375
40
0.984375
40
0.98828125
40
0.98828125
40
0.9921875
40
0.99609375
40
0.998046875
40
0.9990234375
40
0.9990234375
40
1
40
1
40
1
40
1
41
1
10
43.589014704737
20
-6.76926711410612
30
0
41
1
10
43.3350501995845
20
-6.55795238346067
30
0
41
1
10
43.092965107439
20
-6.33605336138828
30
0
41
1
10
42.632716789774
20
-5.8707182937024
30
0
41
1
10
42.4145503741587
20
-5.62728554184261
30
0
41
1
10
42.0031030201432
20
-5.11779496302572
30
0
41
1
10
41.8098136390578
20
-4.85174525069269
30
0
41
1
10
41.4500506149177
20
-4.29504909062322
30
0
41
1
10
41.2869612143462
20
-4.00960158970381
30
0
41
1
10
40.9944576842698
20
-3.42466184016345
30
0
41
1
10
40.8650168742046
20
-3.1251324090756
30
0
41
1
10
40.640823827072
20
-2.51142372634445
30
0
41
1
10
40.5460627107661
20
-2.19724830124221
30
0
41
1
10
40.4507491907721
20
-1.79471715220365
30
0
41
1
10
40.4238957196927
20
-1.67321975582868
30
0
41
1
10
40.3997120098572
20
-1.55058944657267
30
0
41
1
10
40.3841900203219
20
-1.46858100447352
30
0
41
1
10
40.37673714804
20
-1.42748752017462
30
0
41
1
10
40.3411214511461
20
-1.22218720179419
30
0
41
1
10
40.3177919279054
20
-1.05791189831842
30
0
41
1
10
40.2630214744317
20
-0.564982579846827
30
0
41
1
10
40.2467584244224
20
-0.236225415973621
30
0
41
1
10
40.2543046512697
20
0.421561421982659
30
0
41
1
10
40.2781126960972
20
0.750591088089664
30
0
41
1
10
40.3334686290193
20
1.16205205913312
30
0
41
1
10
40.3458229222733
20
1.24435296910104
30
0
41
1
10
40.366299637752
20
1.36781754089907
30
0
41
1
10
40.3734538759201
20
1.40899588796617
30
0
41
1
10
40.388359625932
20
1.49106624221298
30
0
41
1
10
40.4271453514118
20
1.69569177854845
30
0
41
1
10
40.4734497248808
20
1.89759817886889
30
0
41
1
10
40.5985467373794
20
2.37713059894588
30
0
41
1
10
40.7005274477958
20
2.69010861836281
30
0
41
1
10
40.8802816159023
20
3.14994707630731
30
0
41
1
10
40.9446737239274
20
3.30161824848975
30
0
41
1
10
41.0479237075546
20
3.52673695592836
30
0
41
1
10
41.0834512536052
20
3.6013783160499
30
0
41
1
10
41.1567268419948
20
3.74986630174854
30
0
41
1
10
41.1945016577814
20
3.82376335444994
30
0
41
1
10
41.3886466192758
20
4.19071809885304
30
0
41
1
10
41.5589478249197
20
4.47282146570328
30
0
41
1
10
41.92735742812
20
5.01592649893186
30
0
41
1
10
42.1254749687464
20
5.27692089171507
30
0
41
1
10
42.4427200177634
20
5.65331850693698
30
0
41
1
10
42.5518208266406
20
5.77626295514139
30
0
41
1
10
42.7204658949856
20
5.95694175787983
30
0
41
1
10
42.777513660443
20
6.01654472587623
30
0
41
1
10
42.8643339342936
20
6.10501690780379
30
0
41
1
10
42.89348460113
20
6.1343541165007
30
0
41
1
10
42.9520581960362
20
6.19257789270475
30
0
41
1
10
43.2170308733406
20
6.45270772952188
30
0
41
1
10
43.4943129809029
20
6.69625696640975
30
0
41
1
10
44.0056383008827
20
7.1047450497289
30
0
41
1
10
44.2704951581127
20
7.29673832693737
30
0
41
1
10
44.8181620055563
20
7.65706408196218
30
0
41
1
10
45.1009924374777
20
7.82540446629943
30
0
41
1
10
45.6846481766601
20
8.13847775913243
30
0
41
1
10
45.9815552514118
20
8.28111523734177
30
0
41
1
10
46.5850939849149
20
8.54004616228616
30
0
41
1
10
46.8917274611052
20
8.65633415291256
30
0
41
1
10
47.5145697369368
20
8.86319674378865
30
0
41
1
10
47.8307790889457
20
8.95376955785383
30
0
41
1
10
48.3123453606503
20
9.07029246400961
30
0
41
1
10
48.4740780195972
20
9.10590539093653
30
0
41
1
10
48.7185186721984
20
9.1544280108553
30
0
41
1
10
48.8003950052597
20
9.16980042973987
30
0
41
1
10
48.964107082574
20
9.19878639080372
30
0
41
1
10
49.0459858704549
20
9.21241053664303
30
0
41
1
10
49.455492430679
20
9.27623492311054
30
0
41
1
10
49.7834574000068
20
9.31357400992147
30
0
41
1
10
50.4400890306243
20
9.36157283193089
30
0
41
1
10
50.7687557376389
20
9.37223066627251
30
0
41
1
10
51.4267892094474
20
9.36695308462853
30
0
41
1
10
51.7561559506765
20
9.35101863026614
30
0
41
1
10
52.2507415501331
20
9.30674755824663
30
0
41
1
10
52.4156927885492
20
9.28859044231729
30
0
41
1
10
52.6219956406539
20
9.2615578363266
30
0
41
1
10
52.663279747067
20
9.25593165621015
30
0
41
1
10
52.7456705231106
20
9.24427039408351
30
0
41
1
10
52.8690493088367
20
9.22615787421694
30
0
41
1
10
52.9918091661391
20
9.20619218410897
30
0
41
1
10
53.3996452798807
20
9.13555333955637
30
0
41
1
10
54.0434730727773
20
8.99642664406923
30
0
41
1
10
54.6702220851815
20
8.8058255849019
30
0
41
1
10
55.2883917812101
20
8.58917227712189
30
0
41
1
10
55.5931880198784
20
8.46782308499766
30
0
41
1
10
56.043749579258
20
8.26547508270167
30
0
41
1
10
56.1928294475669
20
8.19463232699039
30
0
41
1
10
56.3777587599209
20
8.10170379136682
30
0
41
1
10
56.4146654151492
20
8.08290286481028
30
0
41
1
10
56.4881457844505
20
8.04495932111763
30
0
41
1
10
56.5979374192764
20
7.9874961056361
30
0
41
1
10
56.7064469785429
20
7.92839313113467
30
0
41
1
10
57.0653116293738
20
7.72774950800056
30
0
41
1
10
57.3433557706467
20
7.55563407274772
30
0
41
1
10
57.8814030791582
20
7.1880262352536
30
0
41
1
10
58.1414079193463
20
6.99253644563285
30
0
41
1
10
58.6428807080447
20
6.57727645530636
30
0
41
1
10
58.8843535227421
20
6.35751318971532
30
0
41
1
10
59.1738972354977
20
6.06652910609927
30
0
41
1
10
59.2311892943564
20
6.00751582790892
30
0
41
1
10
59.3445143145628
20
5.88781795236323
30
0
41
1
10
59.4005802104656
20
5.82709671049142
30
0
41
1
10
59.5666350052575
20
5.64259502669168
30
0
41
1
10
59.6737844194276
20
5.51726110311989
30
0
41
1
10
59.9845662357819
20
5.13422479838428
30
0
41
1
10
60.1775629166996
20
4.86950791973763
30
0
41
1
10
60.5344306131841
20
4.32069894522257
30
0
41
1
10
60.6983084119758
20
4.03661164442821
30
0
41
1
10
60.9209317549916
20
3.59493756269467
30
0
41
1
10
60.9912651002142
20
3.44511648775364
30
0
41
1
10
61.0741200097806
20
3.25443733970494
30
0
41
1
10
61.0904479864402
20
3.21610546370485
30
0
41
1
10
61.122485701228
20
3.13935279316743
30
0
41
1
10
61.1696487479406
20
3.0240149720357
30
0
41
1
10
61.2141393277393
20
2.90805217376874
30
0
41
1
10
61.3565252581777
20
2.52012426303517
30
0
41
1
10
61.4515510458029
20
2.20535991721701
30
0
41
1
10
61.6036431565509
20
1.56690561962517
30
0
41
1
10
61.6607132934353
20
1.24321660282047
30
0
41
1
10
61.7167514761866
20
0.750713973540286
30
0
41
1
10
61.7304927999682
20
0.585382607920593
30
0
41
1
10
61.7412968018558
20
0.377215601181746
30
0
41
1
10
61.7431387237951
20
0.335507004180584
30
0
41
1
10
61.746178794618
20
0.251937988445775
30
0
41
1
10
61.7473761249756
20
0.210076312185521
30
0
41
1
10
61.7499875041866
20
0.0847580192067312
30
0
41
1
10
61.750428026079
20
0.0014028973135396
30
0
41
1
10
61.7462188436732
20
-0.414433867413095
30
0
41
1
10
61.7223888184831
20
-0.744106654557072
30
0
41
1
10
61.6351936471656
20
-1.39766836783272
30
0
41
1
10
61.5718250291105
20
-1.72155677851495
30
0
41
1
10
61.4679407209703
20
-2.12281734999979
30
0
41
1
10
61.4349202680175
20
-2.24292488171159
30
0
41
1
10
61.3991035609417
20
-2.36262486510301
30
0
41
1
10
61.3746023710888
20
-2.44233404300675
30
0
41
1
10
61.3620388353787
20
-2.48214490229577
30
0
41
1
10
61.2978778238368
20
-2.68031110513237
30
0
41
1
10
61.2420929233216
20
-2.83653866121597
30
0
41
1
10
61.0618838445273
20
-3.29858736310365
30
0
41
1
10
60.9246431821757
20
-3.5977935825822
30
0
41
1
10
60.617666449932
20
-4.17953675390726
30
0
41
1
10
60.4479247580603
20
-4.46207062442519
30
0
41
1
10
60.2157736242761
20
-4.80506825596231
30
0
41
1
10
60.1683079719498
20
-4.87320053950458
30
0
41
1
10
60.0718900672582
20
-5.00774487247773
30
0
41
1
10
59.9248610693783
20
-5.20723716682423
30
0
41
1
10
59.7707824095991
20
-5.3999239698496
30
0
41
1
10
59.4535385753679
20
-5.77656705280171
30
0
41
1
10
59.2299529014562
20
-6.01604630094897
30
0
41
1
10
58.7595820941822
20
-6.47293753156794
30
0
41
1
10
58.5127935850308
20
-6.69034585919806
30
0
41
1
10
58.2222121640638
20
-6.92274660990029
30
0
41
1
10
58.1897322479213
20
-6.94840896821944
30
0
41
1
10
58.1245572096297
20
-6.9992818810334
30
0
41
1
10
58.0264260228028
20
-7.07495164611095
30
0
41
1
10
57.794891202065
20
-7.24707505758593
30
0
41
1
10
57.5921130510438
20
-7.38714567676334
30
0
41
1
10
57.1809367091884
20
-7.65763028718791
30
0
41
1
10
56.8993394952083
20
-7.8251022824083
30
0
41
1
10
56.3215666300445
20
-8.13526686954057
30
0
41
1
10
56.0253895530385
20
-8.27795659377179
30
0
41
1
10
55.6460265804803
20
-8.44093341784406
30
0
41
1
10
55.5315305964541
20
-8.48866998381052
30
0
41
1
10
55.4159985901034
20
-8.53466676222985
30
0
41
1
10
55.338746275847
20
-8.56494383558714
30
0
41
1
10
55.299983939221
20
-8.57989636213605
30
0
41
1
10
55.1059734000488
20
-8.65354482866829
30
0
41
1
10
54.9499739931747
20
-8.70896563740143
30
0
41
1
10
54.4796533065926
20
-8.86500083481951
30
0
41
1
10
54.1630143405198
20
-8.95541074310253
30
0
41
1
10
53.5236956627584
20
-9.1098240605962
30
0
41
1
10
52.8783347005049
20
-9.23782384764002
30
0
41
1
10
52.2208798694045
20
-9.31323416558621
30
0
41
1
10
51.8060988197275
20
-9.34358251985617
30
0
41
1
10
51.7229115745223
20
-9.34881326475482
30
0
41
1
10
51.5563023873217
20
-9.35756962276886
30
0
41
1
10
51.3066920055531
20
-9.36811233467813
30
0
41
1
10
51.05798178019
20
-9.37096830445424
30
0
41
1
10
50.5617425307631
20
-9.36659526757998
30
0
41
1
10
49.9032357651939
20
-9.33391136386908
30
0
41
1
10
49.2509269883472
20
-9.24824344632844
30
0
41
1
10
48.601740836967
20
-9.13578485735181
30
0
41
1
10
48.2787087419302
20
-9.06616336975839
30
0
41
1
10
47.9171093122985
20
-8.97220712405721
30
0
41
1
10
47.8769568129501
20
-8.96154993146072
30
0
41
1
10
47.7967025308871
20
-8.93979748144531
30
0
41
1
10
47.7565840720348
20
-8.92869728561462
30
0
41
1
10
47.6365874702093
20
-8.8948164715265
30
0
41
1
10
47.3977881219416
20
-8.82466766362353
30
0
41
1
10
47.162535656811
20
-8.7474142647356
30
0
41
1
10
46.6967017267834
20
-8.58351441480698
30
0
41
1
10
46.392363537017
20
-8.46174553137698
30
0
41
1
10
45.7960600694803
20
-8.19310482983755
30
0
41
1
10
45.5040937367795
20
-8.04623554568056
30
0
41
1
10
44.9328111767325
20
-7.72657076580384
30
0
41
1
10
44.6534920157111
20
-7.55378188523108
30
0
41
1
10
44.3126705513688
20
-7.32054224053999
30
0
41
1
10
44.2448693183699
20
-7.27298920751812
30
0
41
1
10
44.1104831435326
20
-7.1763826540442
30
0
41
1
10
43.977280342975
20
-7.07825743507988
30
0
41
1
10
43.8137518248863
20
-6.9517723273037
30
0
41
1
10
43.7008557894161
20
-6.86120153896746
30
0
41
1
10
43.6528106213792
20
-6.82194757844698
30
0
41
1
10
43.6208559975134
20
-6.79568064621117
30
0
41
1
10
43.604887486309
20
-6.78247428477147
30
0
41
1
10
43.589014704737
20
-6.76926711410612
30
0
0
SPLINE
5
16E
100
AcDbEntity
8
1
62
256
6
ByLayer
370
18
48
1
60
0
100
AcDbSpline
70
4
71
3
72
52
73
48
40
0
40
0
40
0
40
0
40
0.0625000000000002
40
0.0625000000000002
40
0.125000000000001
40
0.125000000000001
40
0.156250000000001
40
0.156250000000001
40
0.171875000000001
40
0.171875000000001
40
0.187500000000002
40
0.187500000000002
40
0.250000000000001
40
0.312500000000001
40
0.312500000000001
40
0.328125000000002
40
0.328125000000002
40
0.343750000000004
40
0.375000000000007
40
0.375000000000007
40
0.437500000000013
40
0.437500000000013
40
0.468750000000016
40
0.468750000000016
40
0.484375000000016
40
0.484375000000016
40
0.500000000000016
40
0.500000000000016
40
0.562500000000008
40
0.625
40
0.625
40
0.656249999999998
40
0.656249999999998
40
0.687499999999995
40
0.687499999999995
40
0.749999999999993
40
0.749999999999993
40
0.781249999999993
40
0.781249999999993
40
0.812499999999994
40
0.812499999999994
40
0.874999999999995
40
0.937499999999997
40
0.937499999999997
40
0.968749999999999
40
0.968749999999999
40
1
40
1
40
1
40
1
41
1
10
21.525
20
-8.82745624824832
30
0
41
1
10
21.4868069191872
20
-8.89405662171495
30
0
41
1
10
21.4445393521354
20
-8.95738557328821
30
0
41
1
10
21.3521820525017
20
-9.07777667488116
30
0
41
1
10
21.3020913073827
20
-9.13483797258399
30
0
41
1
10
21.2210176285772
20
-9.21568410815607
30
0
41
1
10
21.1930003321058
20
-9.24183934221421
30
0
41
1
10
21.1494463535622
20
-9.27985231561817
30
0
41
1
10
21.1346970561602
20
-9.29229762208823
30
0
41
1
10
21.1049044143238
20
-9.31660228793899
30
0
41
1
10
21.0898374884485
20
-9.32848243337534
30
0
41
1
10
21.0136604445855
20
-9.38653975566419
30
0
41
1
10
20.8864073112505
20
-9.47086828252657
30
0
41
1
10
20.7485963096025
20
-9.53838905803212
30
0
41
1
10
20.6590455338954
20
-9.57515479974671
30
0
41
1
10
20.6409479910478
20
-9.58223959886814
30
0
41
1
10
20.6046770413671
20
-9.59575732322034
30
0
41
1
10
20.5500618332412
20
-9.61509657435266
30
0
41
1
10
20.4948292946162
20
-9.63166507308722
30
0
41
1
10
20.3835545576634
20
-9.66116977299058
30
0
41
1
10
20.3082953177793
20
-9.67601216104055
30
0
41
1
10
20.1937818779665
20
-9.69099236742503
30
0
41
1
10
20.1553391080921
20
-9.69476798755377
30
0
41
1
10
20.0972580378113
20
-9.69856254593415
30
0
41
1
10
20.0777917736344
20
-9.69951633011652
30
0
41
1
10
20.0389567133677
20
-9.7007842015534
30
0
41
1
10
20.0195793242685
20
-9.70110026133048
30
0
41
1
10
19.922890291599
20
-9.7011133144054
30
0
41
1
10
19.7694493182328
20
-9.69114502340113
30
0
41
1
10
19.6184745206943
20
-9.66164390750941
30
0
41
1
10
19.5061960782849
20
-9.63196802955144
30
0
41
1
10
19.468873257701
20
-9.62078432294811
30
0
41
1
10
19.3956486621457
20
-9.59620893091778
30
0
41
1
10
19.3596109906603
20
-9.58278629233351
30
0
41
1
10
19.2531888136589
20
-9.53917684240375
30
0
41
1
10
19.1844879565527
20
-9.50566279471809
30
0
41
1
10
19.0848097952278
20
-9.44871626293656
30
0
41
1
10
19.0521477244275
20
-9.4286179396407
30
0
41
1
10
18.9879743860366
20
-9.38614199014489
30
0
41
1
10
18.9563756081481
20
-9.36368915668098
30
0
41
1
10
18.8646369132871
20
-9.29381338114021
30
0
41
1
10
18.7497151339958
20
-9.19354381991002
30
0
41
1
10
18.6491776746128
20
-9.07943318378551
30
0
41
1
10
18.5793021095527
20
-8.98851999372255
30
0
41
1
10
18.5568862804428
20
-8.95724713254145
30
0
41
1
10
18.5142942130732
20
-8.89337354521541
30
0
41
1
10
18.4940965129716
20
-8.86075638714132
30
0
41
1
10
18.475
20
-8.82745624824832
30
0
0
SPLINE
5
16F
100
AcDbEntity
8
1
62
256
6
ByLayer
370
18
48
1
60
0
100
AcDbSpline
70
4
71
3
72
52
73
48
40
0
40
0
40
0
40
0
40
0.0624999999999973
40
0.0624999999999973
40
0.124999999999995
40
0.124999999999995
40
0.156249999999992
40
0.156249999999992
40
0.17187499999999
40
0.17187499999999
40
0.187499999999989
40
0.187499999999989
40
0.249999999999982
40
0.312499999999974
40
0.312499999999974
40
0.328124999999974
40
0.328124999999974
40
0.343749999999974
40
0.374999999999974
40
0.374999999999974
40
0.437499999999974
40
0.437499999999974
40
0.468749999999974
40
0.468749999999974
40
0.484374999999976
40
0.484374999999976
40
0.499999999999977
40
0.499999999999977
40
0.562499999999974
40
0.624999999999971
40
0.624999999999971
40
0.656249999999972
40
0.656249999999972
40
0.687499999999972
40
0.687499999999972
40
0.749999999999975
40
0.749999999999975
40
0.781249999999978
40
0.781249999999978
40
0.812499999999981
40
0.812499999999981
40
0.874999999999987
40
0.937499999999993
40
0.937499999999993
40
0.968749999999997
40
0.968749999999997
40
1
40
1
40
1
40
1
41
1
10
18.475
20
8.82745624824835
30
0
41
1
10
18.5131930808128
20
8.89405662171498
30
0
41
1
10
18.5554606478646
20
8.95738557328824
30
0
41
1
10
18.6478179474983
20
9.07777667488122
30
0
41
1
10
18.6979086926173
20
9.13483797258405
30
0
41
1
10
18.7789823714228
20
9.2156841081561
30
0
41
1
10
18.8069996678941
20
9.24183934221426
30
0
41
1
10
18.8505536464378
20
9.27985231561823
30
0
41
1
10
18.8653029438397
20
9.29229762208826
30
0
41
1
10
18.8950955856762
20
9.31660228793902
30
0
41
1
10
18.9101625115515
20
9.32848243337537
30
0
41
1
10
18.9863395554145
20
9.38653975566422
30
0
41
1
10
19.1135926887495
20
9.4708682825266
30
0
41
1
10
19.2514036903975
20
9.53838905803218
30
0
41
1
10
19.3409544661046
20
9.57515479974677
30
0
41
1
10
19.3590520089522
20
9.5822395988682
30
0
41
1
10
19.3953229586329
20
9.5957573232204
30
0
41
1
10
19.4499381667587
20
9.61509657435272
30
0
41
1
10
19.5051707053838
20
9.63166507308728
30
0
41
1
10
19.6164454423366
20
9.66116977299063
30
0
41
1
10
19.6917046822207
20
9.6760121610406
30
0
41
1
10
19.8062181220335
20
9.69099236742508
30
0
41
1
10
19.8446608919079
20
9.69476798755383
30
0
41
1
10
19.9027419621887
20
9.69856254593421
30
0
41
1
10
19.9222082263656
20
9.69951633011655
30
0
41
1
10
19.9610432866323
20
9.70078420155346
30
0
41
1
10
19.9804206757315
20
9.70110026133054
30
0
41
1
10
20.077109708401
20
9.70111331440546
30
0
41
1
10
20.2305506817672
20
9.69114502340119
30
0
41
1
10
20.3815254793057
20
9.66164390750947
30
0
41
1
10
20.493803921715
20
9.63196802955147
30
0
41
1
10
20.531126742299
20
9.62078432294817
30
0
41
1
10
20.6043513378543
20
9.59620893091787
30
0
41
1
10
20.6403890093397
20
9.58278629233357
30
0
41
1
10
20.7468111863411
20
9.5391768424038
30
0
41
1
10
20.8155120434473
20
9.50566279471815
30
0
41
1
10
20.9151902047722
20
9.44871626293661
30
0
41
1
10
20.9478522755725
20
9.42861793964076
30
0
41
1
10
21.0120256139634
20
9.38614199014495
30
0
41
1
10
21.0436243918519
20
9.36368915668103
30
0
41
1
10
21.1353630867129
20
9.29381338114027
30
0
41
1
10
21.2502848660041
20
9.19354381991008
30
0
41
1
10
21.3508223253872
20
9.07943318378557
30
0
41
1
10
21.4206978904473
20
8.9885199937226
30
0
41
1
10
21.4431137195572
20
8.95724713254154
30
0
41
1
10
21.4857057869268
20
8.89337354521547
30
0
41
1
10
21.5059034870284
20
8.86075638714138
30
0
41
1
10
21.525
20
8.82745624824838
30
0
0
SPLINE
5
170
100
AcDbEntity
8
1
62
256
6
ByLayer
370
18
48
1
60
0
100
AcDbSpline
70
4
71
3
72
52
73
48
40
0
40
0
40
0
40
0
40
0.0625000000000073
40
0.0625000000000073
40
0.125000000000014
40
0.125000000000014
40
0.156250000000019
40
0.156250000000019
40
0.171875000000021
40
0.171875000000021
40
0.187500000000023
40
0.187500000000023
40
0.250000000000026
40
0.31250000000003
40
0.31250000000003
40
0.328125000000032
40
0.328125000000032
40
0.343750000000034
40
0.375000000000038
40
0.375000000000038
40
0.437500000000045
40
0.437500000000045
40
0.468750000000049
40
0.468750000000049
40
0.484375000000049
40
0.484375000000049
40
0.50000000000005
40
0.50000000000005
40
0.562500000000043
40
0.625000000000036
40
0.625000000000036
40
0.656250000000034
40
0.656250000000034
40
0.687500000000032
40
0.687500000000032
40
0.750000000000026
40
0.750000000000026
40
0.781250000000023
40
0.781250000000023
40
0.812500000000019
40
0.812500000000019
40
0.875000000000013
40
0.937500000000006
40
0.937500000000006
40
0.968750000000003
40
0.968750000000003
40
1
40
1
40
1
40
1
41
1
10
21.525
20
7.1367102590817
30
0
41
1
10
21.4868069191872
20
7.06966982881343
30
0
41
1
10
21.4445393521354
20
7.00587025666869
30
0
41
1
10
21.3521820525017
20
6.88450330592335
30
0
41
1
10
21.3020913073827
20
6.82693670265508
30
0
41
1
10
21.2210176285772
20
6.74532595300249
30
0
41
1
10
21.1930003321058
20
6.71891474029712
30
0
41
1
10
21.1494463535622
20
6.68051865864237
30
0
41
1
10
21.1346970561602
20
6.66794601142828
30
0
41
1
10
21.1049044143238
20
6.64338922161218
30
0
41
1
10
21.0898374884485
20
6.63138408428509
30
0
41
1
10
21.0136604445855
20
6.57270811008976
30
0
41
1
10
20.8864073112505
20
6.48743024054053
30
0
41
1
10
20.7485963096024
20
6.4190882097121
30
0
41
1
10
20.6590455338954
20
6.38186424615404
30
0
41
1
10
20.6409479910477
20
6.37469050014118
30
0
41
1
10
20.6046770413671
20
6.36100202225884
30
0
41
1
10
20.5500618332412
20
6.34141684334611
30
0
41
1
10
20.4948292946162
20
6.32463383686246
30
0
41
1
10
20.3835545576634
20
6.29474411539377
30
0
41
1
10
20.3082953177793
20
6.27970369831232
30
0
41
1
10
20.1937818779665
20
6.26452270090064
30
0
41
1
10
20.1553391080921
20
6.26069619257271
30
0
41
1
10
20.0972580378113
20
6.25685043140464
30
0
41
1
10
20.0777917736344
20
6.25588375910309
30
0
41
1
10
20.0389567133676
20
6.25459875053053
30
0
41
1
10
20.0195793242685
20
6.25427841514934
30
0
41
1
10
19.922890291599
20
6.254265185544
30
0
41
1
10
19.7694493182328
20
6.26436884348033
30
0
41
1
10
19.6184745206943
20
6.2942637364566
30
0
41
1
10
19.5061960782849
20
6.32432695479451
30
0
41
1
10
19.468873257701
20
6.33565546844014
30
0
41
1
10
19.3956486621457
20
6.36054510369158
30
0
41
1
10
19.3596109906603
20
6.37413758752493
30
0
41
1
10
19.2531888136589
20
6.41829070974688
30
0
41
1
10
19.1844879565527
20
6.45221272773577
30
0
41
1
10
19.0848097952277
20
6.50982371252888
30
0
41
1
10
19.0521477244275
20
6.530152271101
30
0
41
1
10
18.9879743860365
20
6.57310349914553
30
0
41
1
10
18.9563756081481
20
6.59580214597716
30
0
41
1
10
18.8646369132871
20
6.66642267742495
30
0
41
1
10
18.7497151339958
20
6.76770948571948
30
0
41
1
10
18.6491776746128
20
6.88283276927342
30
0
41
1
10
18.5793021095527
20
6.97448376243372
30
0
41
1
10
18.5568862804427
20
7.00599948201594
30
0
41
1
10
18.5142942130732
20
7.07034433321834
30
0
41
1
10
18.4940965129716
20
7.10319009210397
30
0
41
1
10
18.475
20
7.1367102590817
30
0
0
SPLINE
5
171
100
AcDbEntity
8
1
62
256
6
ByLayer
370
18
48
1
60
0
100
AcDbSpline
70
4
71
3
72
52
73
48
40
0
40
0
40
0
40
0
40
0.0625000000000071
40
0.0625000000000071
40
0.125000000000014
40
0.125000000000014
40
0.156250000000018
40
0.156250000000018
40
0.17187500000002
40
0.17187500000002
40
0.187500000000022
40
0.187500000000022
40
0.250000000000026
40
0.312500000000031
40
0.312500000000031
40
0.328125000000034
40
0.328125000000034
40
0.343750000000036
40
0.375000000000042
40
0.375000000000042
40
0.437500000000052
40
0.437500000000052
40
0.468750000000056
40
0.468750000000056
40
0.484375000000057
40
0.484375000000057
40
0.500000000000057
40
0.500000000000057
40
0.562500000000051
40
0.625000000000045
40
0.625000000000045
40
0.656250000000042
40
0.656250000000042
40
0.687500000000039
40
0.687500000000039
40
0.750000000000031
40
0.750000000000031
40
0.781250000000027
40
0.781250000000027
40
0.812500000000023
40
0.812500000000023
40
0.875000000000015
40
0.937500000000008
40
0.937500000000008
40
0.968750000000004
40
0.968750000000004
40
1
40
1
40
1
40
1
41
1
10
18.475
20
-7.13671025908167
30
0
41
1
10
18.5131930808128
20
-7.06966982881337
30
0
41
1
10
18.5554606478646
20
-7.00587025666866
30
0
41
1
10
18.6478179474983
20
-6.88450330592329
30
0
41
1
10
18.6979086926173
20
-6.82693670265505
30
0
41
1
10
18.7789823714228
20
-6.74532595300246
30
0
41
1
10
18.8069996678942
20
-6.71891474029707
30
0
41
1
10
18.8505536464378
20
-6.68051865864234
30
0
41
1
10
18.8653029438398
20
-6.66794601142826
30
0
41
1
10
18.8950955856762
20
-6.64338922161215
30
0
41
1
10
18.9101625115515
20
-6.63138408428503
30
0
41
1
10
18.9863395554145
20
-6.57270811008974
30
0
41
1
10
19.1135926887495
20
-6.48743024054048
30
0
41
1
10
19.2514036903975
20
-6.41908820971207
30
0
41
1
10
19.3409544661046
20
-6.38186424615398
30
0
41
1
10
19.3590520089523
20
-6.37469050014116
30
0
41
1
10
19.3953229586329
20
-6.36100202225882
30
0
41
1
10
19.4499381667588
20
-6.34141684334605
30
0
41
1
10
19.5051707053838
20
-6.32463383686243
30
0
41
1
10
19.6164454423366
20
-6.29474411539371
30
0
41
1
10
19.6917046822207
20
-6.27970369831226
30
0
41
1
10
19.8062181220335
20
-6.26452270090059
30
0
41
1
10
19.8446608919079
20
-6.26069619257265
30
0
41
1
10
19.9027419621887
20
-6.25685043140462
30
0
41
1
10
19.9222082263656
20
-6.25588375910303
30
0
41
1
10
19.9610432866323
20
-6.25459875053048
30
0
41
1
10
19.9804206757315
20
-6.25427841514932
30
0
41
1
10
20.0771097084011
20
-6.25426518554397
30
0
41
1
10
20.2305506817672
20
-6.2643688434803
30
0
41
1
10
20.3815254793057
20
-6.29426373645654
30
0
41
1
10
20.4938039217151
20
-6.32432695479446
30
0
41
1
10
20.531126742299
20
-6.33565546844008
30
0
41
1
10
20.6043513378543
20
-6.36054510369152
30
0
41
1
10
20.6403890093397
20
-6.3741375875249
30
0
41
1
10
20.7468111863411
20
-6.41829070974683
30
0
41
1
10
20.8155120434473
20
-6.45221272773571
30
0
41
1
10
20.9151902047722
20
-6.50982371252886
30
0
41
1
10
20.9478522755725
20
-6.53015227110095
30
0
41
1
10
21.0120256139634
20
-6.57310349914547
30
0
41
1
10
21.0436243918519
20
-6.5958021459771
30
0
41
1
10
21.1353630867129
20
-6.66642267742486
30
0
41
1
10
21.2502848660042
20
-6.76770948571942
30
0
41
1
10
21.3508223253872
20
-6.88283276927336
30
0
41
1
10
21.4206978904473
20
-6.97448376243366
30
0
41
1
10
21.4431137195572
20
-7.00599948201588
30
0
41
1
10
21.4857057869268
20
-7.07034433321826
30
0
41
1
10
21.5059034870284
20
-7.10319009210392
30
0
41
1
10
21.525
20
-7.13671025908164
30
0
0
SPLINE
5
172
100
AcDbEntity
8
1
62
256
6
ByLayer
370
18
48
1
60
0
100
AcDbSpline
70
4
71
3
72
31
73
27
40
0
40
0
40
0
40
0
40
0.0625000000000086
40
0.0625000000000086
40
0.125000000000017
40
0.125000000000017
40
0.250000000000037
40
0.250000000000037
40
0.312500000000032
40
0.312500000000032
40
0.375000000000027
40
0.375000000000027
40
0.499999999999989
40
0.499999999999989
40
0.562499999999988
40
0.562499999999988
40
0.624999999999986
40
0.687499999999985
40
0.687499999999985
40
0.749999999999983
40
0.749999999999983
40
0.874999999999995
40
0.874999999999995
40
0.937499999999998
40
0.937499999999998
40
1
40
1
40
1
40
1
41
1
10
21.925
20
-45.0464003445336
30
0
41
1
10
21.925
20
-45.0331626603318
30
0
41
1
10
21.9243814956821
20
-45.0198947900488
30
0
41
1
10
21.9218726395179
20
-44.9932969770096
30
0
41
1
10
21.9199785565726
20
-44.9800081055473
30
0
41
1
10
21.9125069641339
20
-44.9408759852542
30
0
41
1
10
21.9051361068651
20
-44.9154933320043
30
0
41
1
10
21.890471836696
20
-44.8784843675956
30
0
41
1
10
21.8849526780865
20
-44.8662777778366
30
0
41
1
10
21.8727654232932
20
-44.8424668183442
30
0
41
1
10
21.8661456968194
20
-44.8309442994393
30
0
41
1
10
21.8447456214818
20
-44.7974983998839
30
0
41
1
10
21.8284392770504
20
-44.7766858300516
30
0
41
1
10
21.8008015924791
20
-44.7477804442197
30
0
41
1
10
21.7910273232173
20
-44.7385200855485
30
0
41
1
10
21.7708356920274
20
-44.7212068053836
30
0
41
1
10
21.7499032588599
20
-44.7049883816988
30
0
41
1
10
21.727505134293
20
-44.6909361532664
30
0
41
1
10
21.7043606202103
20
-44.6779870393273
30
0
41
1
10
21.6923744597048
20
-44.672046490774
30
0
41
1
10
21.6555104913067
20
-44.6560758480441
30
0
41
1
10
21.6302617191814
20
-44.6480861211985
30
0
41
1
10
21.5914053943374
20
-44.6399847983876
30
0
41
1
10
21.5782882184711
20
-44.6379363339769
30
0
41
1
10
21.5517131422166
20
-44.6351851835538
30
0
41
1
10
21.5382858068625
20
-44.6344954491478
30
0
41
1
10
21.5250000000001
20
-44.6344954491478
30
0
0
SPLINE
5
173
100
AcDbEntity
8
1
62
256
6
ByLayer
370
18
48
1
60
0
100
AcDbSpline
70
4
71
3
72
32
73
28
40
0
40
0
40
0
40
0
40
0.0596037024530934
40
0.0596037024530934
40
0.122296788956226
40
0.122296788956226
40
0.247682961962491
40
0.247682961962491
40
0.31037604846561
40
0.31037604846561
40
0.373069134968729
40
0.373069134968729
40
0.498455307974972
40
0.498455307974972
40
0.561148394478093
40
0.561148394478093
40
0.623841480981215
40
0.623841480981215
40
0.749227653987469
40
0.749227653987469
40
0.811920740490602
40
0.811920740490602
40
0.874613826993735
40
0.874613826993735
40
0.937306913496867
40
0.937306913496867
40
1
40
1
40
1
40
1
41
1
10
21.925
20
31.3500000000001
30
0
41
1
10
21.9249451848047
20
31.3500000000001
30
0
41
1
10
21.9244531198228
20
31.35
30
0
41
1
10
21.9225309625993
20
31.35
30
0
41
1
10
21.92105891339
20
31.35
30
0
41
1
10
21.9151868880887
20
31.3500000000001
30
0
41
1
10
21.9093431109088
20
31.35
30
0
41
1
10
21.8974980740979
20
31.3500000000001
30
0
41
1
10
21.8930336997149
20
31.35
30
0
41
1
10
21.8830000961517
20
31.3500000000001
30
0
41
1
10
21.8774184903455
20
31.35
30
0
41
1
10
21.8591819896765
20
31.35
30
0
41
1
10
21.8449831323771
20
31.35
30
0
41
1
10
21.8202005592371
20
31.35
30
0
41
1
10
21.8113550357058
20
31.35
30
0
41
1
10
21.7923549663909
20
31.35
30
0
41
1
10
21.7822317389739
20
31.35
30
0
41
1
10
21.7503563397752
20
31.35
30
0
41
1
10
21.7269594387176
20
31.35
30
0
41
1
10
21.687845691874
20
31.35
30
0
41
1
10
21.674134045728
20
31.35
30
0
41
1
10
21.6460786379622
20
31.35
30
0
41
1
10
21.6316933229531
20
31.35
30
0
41
1
10
21.6021681168188
20
31.35
30
0
41
1
10
21.5869812296858
20
31.35
30
0
41
1
10
21.5559767767759
20
31.35
30
0
41
1
10
21.540483848586
20
31.35
30
0
41
1
10
21.525
20
31.35
30
0
0
SPLINE
5
174
100
AcDbEntity
8
1
62
256
6
ByLayer
370
18
48
1
60
0
100
AcDbSpline
70
4
71
3
72
32
73
28
40
0
40
0
40
0
40
0
40
0.124999999999991
40
0.124999999999991
40
0.249999999999982
40
0.249999999999982
40
0.28124999999998
40
0.28124999999998
40
0.312499999999978
40
0.312499999999978
40
0.374999999999978
40
0.374999999999978
40
0.499999999999974
40
0.499999999999974
40
0.562499999999972
40
0.562499999999972
40
0.593749999999972
40
0.593749999999972
40
0.624999999999974
40
0.624999999999974
40
0.749999999999983
40
0.749999999999983
40
0.874999999999992
40
0.874999999999992
40
0.937499999999996
40
0.937499999999996
40
1
40
1
40
1
40
1
41
1
10
21.525
20
8.82745624824838
30
0
41
1
10
21.5622135533389
20
8.76256395630318
30
0
41
1
10
21.5945507572113
20
8.69722547386363
30
0
41
1
10
21.6502891850489
20
8.56422661798982
30
0
41
1
10
21.6736825704932
20
8.49658590374048
30
0
41
1
10
21.6973652752123
20
8.40980695132887
30
0
41
1
10
21.7018222231347
20
8.39233946392318
30
0
41
1
10
21.7101711842059
20
8.35715950288491
30
0
41
1
10
21.7140646364327
20
8.33943418600856
30
0
41
1
10
21.7248159420034
20
8.2862321680293
30
0
41
1
10
21.7307755840754
20
8.25061249335553
30
0
41
1
10
21.7450982762107
20
8.14316707428333
30
0
41
1
10
21.749920308011
20
8.07073664892107
30
0
41
1
10
21.7500383828471
20
7.9606191966156
30
0
41
1
10
21.748888025732
20
7.92367239491401
30
0
41
1
10
21.7453404958646
20
7.86790025401413
30
0
41
1
10
21.7438540858957
20
7.8492512080596
30
0
41
1
10
21.7402643570638
20
7.81184177844327
30
0
41
1
10
21.738160631509
20
7.79309330691444
30
0
41
1
10
21.7261908779866
20
7.69986645461572
30
0
41
1
10
21.7119448319527
20
7.62630143925585
30
0
41
1
10
21.6743590897382
20
7.48138135487187
30
0
41
1
10
21.6510212265597
20
7.41002551449398
30
0
41
1
10
21.6088377492037
20
7.30494817339948
30
0
41
1
10
21.5936202284329
20
7.27037709534622
30
0
41
1
10
21.5609982725867
20
7.20258607374529
30
0
41
1
10
21.5435720825125
20
7.16930989168466
30
0
41
1
10
21.5250000000016
20
7.13671025908076
30
0
0
SPLINE
5
175
100
AcDbEntity
8
1
62
256
6
ByLayer
370
18
48
1
60
0
100
AcDbSpline
70
4
71
3
72
32
73
28
40
0
40
0
40
0
40
0
40
0.124999999999996
40
0.124999999999996
40
0.249999999999993
40
0.249999999999993
40
0.281249999999992
40
0.281249999999992
40
0.312499999999991
40
0.312499999999991
40
0.37499999999999
40
0.37499999999999
40
0.499999999999987
40
0.499999999999987
40
0.562499999999986
40
0.562499999999986
40
0.593749999999986
40
0.593749999999986
40
0.624999999999985
40
0.624999999999985
40
0.749999999999989
40
0.749999999999989
40
0.874999999999993
40
0.874999999999993
40
0.937499999999997
40
0.937499999999997
40
1
40
1
40
1
40
1
41
1
10
21.525
20
-7.13671025908164
30
0
41
1
10
21.5622135533389
20
-7.20203132181231
30
0
41
1
10
21.5945507572113
20
-7.26951057032846
30
0
41
1
10
21.650289185049
20
-7.40805388100128
30
0
41
1
10
21.6736825704932
20
-7.47912642561607
30
0
41
1
10
21.6973652752123
20
-7.57000440345766
30
0
41
1
10
21.7018222231347
20
-7.5882825550903
30
0
41
1
10
21.7101711842059
20
-7.62504133175244
30
0
41
1
10
21.7140646364327
20
-7.64353518078499
30
0
41
1
10
21.7248159420035
20
-7.69892859380749
30
0
41
1
10
21.7307755840754
20
-7.73586111078589
30
0
41
1
10
21.7450982762107
20
-7.84657353992492
30
0
41
1
10
21.749920308011
20
-7.92025447498543
30
0
41
1
10
21.7500383828471
20
-8.03040138417364
30
0
41
1
10
21.7488880257321
20
-8.06705790291497
30
0
41
1
10
21.7453404958647
20
-8.12196385028309
30
0
41
1
10
21.7438540858958
20
-8.14025293669152
30
0
41
1
10
21.7402643570638
20
-8.17680976898615
30
0
41
1
10
21.738160631509
20
-8.1950655995098
30
0
41
1
10
21.7261908779867
20
-8.28555846015999
30
0
41
1
10
21.7119448319527
20
-8.35604500871304
30
0
41
1
10
21.6743590897382
20
-8.49443673746637
30
0
41
1
10
21.6510212265597
20
-8.56234083732667
30
0
41
1
10
21.6088377492037
20
-8.66320268493726
30
0
41
1
10
21.5936202284329
20
-8.69653726119415
30
0
41
1
10
21.5609982725867
20
-8.76244493810518
30
0
41
1
10
21.5435720825125
20
-8.79507060129495
30
0
41
1
10
21.5250000000017
20
-8.82745624824869
30
0
0
SPLINE
5
176
100
AcDbEntity
8
1
62
256
6
ByLayer
370
18
48
1
60
0
100
AcDbSpline
70
4
71
3
72
30
73
26
40
0
40
0
40
0
40
0
40
0.12500000000001
40
0.12500000000001
40
0.18750000000001
40
0.18750000000001
40
0.250000000000011
40
0.312500000000011
40
0.312500000000011
40
0.375000000000012
40
0.375000000000012
40
0.499999999999981
40
0.499999999999981
40
0.562499999999971
40
0.562499999999971
40
0.624999999999962
40
0.624999999999962
40
0.74999999999997
40
0.74999999999997
40
0.812499999999978
40
0.812499999999978
40
0.874999999999985
40
0.937499999999993
40
0.937499999999993
40
1
40
1
40
1
40
1
41
1
10
18.4750000000001
20
-44.6344954491478
30
0
41
1
10
18.4485341742596
20
-44.6344954491478
30
0
41
1
10
18.4221876622999
20
-44.6371739420283
30
0
41
1
10
18.3828527014004
20
-44.6453404421853
30
0
41
1
10
18.3699223084826
20
-44.6487321702134
30
0
41
1
10
18.3446383622327
20
-44.6567516674785
30
0
41
1
10
18.3198566595847
20
-44.6660226491209
30
0
41
1
10
18.2960663965616
20
-44.6777640877221
30
0
41
1
10
18.2727800295457
20
-44.690761128144
30
0
41
1
10
18.2613761041526
20
-44.6979067061606
30
0
41
1
10
18.2286697661727
20
-44.7207536660762
30
0
41
1
10
18.208594589125
20
-44.7379847650582
30
0
41
1
10
18.1810246238523
20
-44.7667723797967
30
0
41
1
10
18.172218645988
20
-44.7769193957751
30
0
41
1
10
18.1557299046675
20
-44.7979172518189
30
0
41
1
10
18.1480519207857
20
-44.8087477773346
30
0
41
1
10
18.1266609702834
20
-44.8422012673345
30
0
41
1
10
18.1145757667847
20
-44.8657772240004
30
0
41
1
10
18.0997731338375
20
-44.9030879184287
30
0
41
1
10
18.0954457087348
20
-44.915740152683
30
0
41
1
10
18.0880509279735
20
-44.9412179208894
30
0
41
1
10
18.0818855124323
20
-44.9669457529298
30
0
41
1
10
18.0781457804928
20
-44.9931669906171
30
0
41
1
10
18.0756366060288
20
-45.0196385346539
30
0
41
1
10
18.075
20
-45.0330697628053
30
0
41
1
10
18.075
20
-45.0464003445336
30
0
0
SPLINE
5
177
100
AcDbEntity
8
1
62
256
6
ByLayer
370
18
48
1
60
0
100
AcDbSpline
70
4
71
3
72
32
73
28
40
0
40
0
40
0
40
0
40
0.124999999999996
40
0.124999999999996
40
0.249999999999992
40
0.249999999999992
40
0.281249999999991
40
0.281249999999991
40
0.31249999999999
40
0.31249999999999
40
0.374999999999985
40
0.374999999999985
40
0.499999999999976
40
0.499999999999976
40
0.562499999999973
40
0.562499999999973
40
0.593749999999974
40
0.593749999999974
40
0.624999999999975
40
0.624999999999975
40
0.749999999999983
40
0.749999999999983
40
0.874999999999992
40
0.874999999999992
40
0.937499999999996
40
0.937499999999996
40
1
40
1
40
1
40
1
41
1
10
18.475
20
-8.8274562482483
30
0
41
1
10
18.4377864466611
20
-8.76256395630313
30
0
41
1
10
18.4054492427887
20
-8.69722547386357
30
0
41
1
10
18.3497108149511
20
-8.56422661798973
30
0
41
1
10
18.3263174295068
20
-8.49658590374042
30
0
41
1
10
18.3026347247877
20
-8.40980695132882
30
0
41
1
10
18.2981777768653
20
-8.39233946392312
30
0
41
1
10
18.2898288157941
20
-8.35715950288483
30
0
41
1
10
18.2859353635673
20
-8.3394341860085
30
0
41
1
10
18.2751840579966
20
-8.28623216802924
30
0
41
1
10
18.2692244159246
20
-8.25061249335548
30
0
41
1
10
18.2549017237893
20
-8.14316707428327
30
0
41
1
10
18.250079691989
20
-8.07073664892101
30
0
41
1
10
18.2499616171529
20
-7.96061919661557
30
0
41
1
10
18.251111974268
20
-7.92367239491395
30
0
41
1
10
18.2546595041354
20
-7.86790025401407
30
0
41
1
10
18.2561459141043
20
-7.84925120805957
30
0
41
1
10
18.2597356429362
20
-7.81184177844324
30
0
41
1
10
18.261839368491
20
-7.79309330691439
30
0
41
1
10
18.2738091220134
20
-7.69986645461569
30
0
41
1
10
18.2880551680473
20
-7.6263014392558
30
0
41
1
10
18.3256409102619
20
-7.48138135487181
30
0
41
1
10
18.3489787734403
20
-7.41002551449392
30
0
41
1
10
18.3911622507963
20
-7.30494817339942
30
0
41
1
10
18.4063797715671
20
-7.27037709534619
30
0
41
1
10
18.4390017274133
20
-7.20258607374527
30
0
41
1
10
18.4564279174875
20
-7.16930989168463
30
0
41
1
10
18.4749999999984
20
-7.13671025908073
30
0
0
SPLINE
5
178
100
AcDbEntity
8
1
62
256
6
ByLayer
370
18
48
1
60
0
100
AcDbSpline
70
4
71
3
72
32
73
28
40
0
40
0
40
0
40
0
40
0.125000000000002
40
0.125000000000002
40
0.250000000000004
40
0.250000000000004
40
0.281250000000004
40
0.281250000000004
40
0.312500000000005
40
0.312500000000005
40
0.375000000000005
40
0.375000000000005
40
0.500000000000002
40
0.500000000000002
40
0.562500000000002
40
0.562500000000002
40
0.593750000000001
40
0.593750000000001
40
0.624999999999999
40
0.624999999999999
40
0.75
40
0.75
40
0.875
40
0.875
40
0.9375
40
0.9375
40
1
40
1
40
1
40
1
41
1
10
18.475
20
7.1367102590817
30
0
41
1
10
18.4377864466611
20
7.20203132181237
30
0
41
1
10
18.4054492427887
20
7.26951057032852
30
0
41
1
10
18.349710814951
20
7.40805388100134
30
0
41
1
10
18.3263174295068
20
7.47912642561613
30
0
41
1
10
18.3026347247877
20
7.57000440345772
30
0
41
1
10
18.2981777768653
20
7.58828255509036
30
0
41
1
10
18.2898288157941
20
7.6250413317525
30
0
41
1
10
18.2859353635673
20
7.64353518078505
30
0
41
1
10
18.2751840579965
20
7.69892859380752
30
0
41
1
10
18.2692244159246
20
7.73586111078592
30
0
41
1
10
18.2549017237893
20
7.84657353992495
30
0
41
1
10
18.250079691989
20
7.92025447498548
30
0
41
1
10
18.2499616171529
20
8.03040138417367
30
0
41
1
10
18.2511119742679
20
8.06705790291502
30
0
41
1
10
18.2546595041353
20
8.12196385028315
30
0
41
1
10
18.2561459141042
20
8.14025293669155
30
0
41
1
10
18.2597356429362
20
8.17680976898617
30
0
41
1
10
18.261839368491
20
8.19506559950983
30
0
41
1
10
18.2738091220133
20
8.28555846016005
30
0
41
1
10
18.2880551680473
20
8.3560450087131
30
0
41
1
10
18.3256409102618
20
8.4944367374664
30
0
41
1
10
18.3489787734403
20
8.5623408373267
30
0
41
1
10
18.3911622507963
20
8.66320268493729
30
0
41
1
10
18.4063797715671
20
8.69653726119418
30
0
41
1
10
18.4390017274133
20
8.7624449381052
30
0
41
1
10
18.4564279174875
20
8.79507060129501
30
0
41
1
10
18.4749999999983
20
8.82745624824872
30
0
0
SPLINE
5
179
100
AcDbEntity
8
1
62
256
6
ByLayer
370
18
48
1
60
0
100
AcDbSpline
70
4
71
3
72
34
73
30
40
0
40
0
40
0
40
0
40
0.0625000000000139
40
0.0625000000000139
40
0.125000000000028
40
0.125000000000028
40
0.187500000000042
40
0.187500000000042
40
0.218750000000049
40
0.218750000000049
40
0.250000000000056
40
0.250000000000056
40
0.375000000000072
40
0.375000000000072
40
0.437500000000075
40
0.437500000000075
40
0.500000000000079
40
0.500000000000079
40
0.625000000000085
40
0.625000000000085
40
0.687500000000086
40
0.687500000000086
40
0.750000000000087
40
0.750000000000087
40
0.875000000000057
40
0.875000000000057
40
0.937500000000029
40
0.937500000000029
40
1
40
1
40
1
40
1
41
1
10
18.4749999999999
20
31.35
30
0
41
1
10
18.4594882405669
20
31.35
30
0
41
1
10
18.4439344663119
20
31.35
30
0
41
1
10
18.4127970175117
20
31.35
30
0
41
1
10
18.3976373727532
20
31.35
30
0
41
1
10
18.3680630304846
20
31.3500000000001
30
0
41
1
10
18.3536487207877
20
31.35
30
0
41
1
10
18.3325586496574
20
31.3500000000001
30
0
41
1
10
18.3255960417933
20
31.35
30
0
41
1
10
18.3120442414648
20
31.35
30
0
41
1
10
18.3054342697433
20
31.35
30
0
41
1
10
18.2731571422788
20
31.35
30
0
41
1
10
18.2497744825614
20
31.35
30
0
41
1
10
18.2177582987101
20
31.35
30
0
41
1
10
18.2076153875601
20
31.35
30
0
41
1
10
18.1887200690627
20
31.35
30
0
41
1
10
18.1799020425184
20
31.35
30
0
41
1
10
18.1551541452064
20
31.35
30
0
41
1
10
18.1409155590863
20
31.35
30
0
41
1
10
18.1225932403435
20
31.35
30
0
41
1
10
18.1170363742524
20
31.35
30
0
41
1
10
18.1070380634342
20
31.35
30
0
41
1
10
18.1025796600349
20
31.35
30
0
41
1
10
18.0907326299962
20
31.35
30
0
41
1
10
18.0848612186958
20
31.35
30
0
41
1
10
18.0789548996022
20
31.3500000000001
30
0
41
1
10
18.0774724964124
20
31.35
30
0
41
1
10
18.0754907636629
20
31.35
30
0
41
1
10
18.0749889989
20
31.3499999999999
30
0
41
1
10
18.075004750475
20
31.3500000000001
30
0
0
SPLINE
5
17A
100
AcDbEntity
8
1
62
256
6
ByLayer
370
18
48
1
60
0
100
AcDbSpline
70
4
71
3
72
55
73
51
40
0
40
0
40
0
40
0
40
0.0624999999999992
40
0.0624999999999992
40
0.124999999999998
40
0.124999999999998
40
0.187499999999998
40
0.187499999999998
40
0.203124999999997
40
0.203124999999997
40
0.218749999999997
40
0.218749999999997
40
0.249999999999997
40
0.249999999999997
40
0.312499999999995
40
0.312499999999995
40
0.374999999999994
40
0.374999999999994
40
0.406249999999994
40
0.406249999999994
40
0.421874999999993
40
0.421874999999993
40
0.437499999999993
40
0.437499999999993
40
0.499999999999992
40
0.499999999999992
40
0.562499999999991
40
0.562499999999991
40
0.62499999999999
40
0.62499999999999
40
0.632812499999991
40
0.632812499999991
40
0.640624999999991
40
0.640624999999991
40
0.656249999999991
40
0.687499999999992
40
0.687499999999992
40
0.749999999999993
40
0.749999999999993
40
0.812499999999995
40
0.812499999999995
40
0.843749999999996
40
0.843749999999996
40
0.859374999999996
40
0.859374999999996
40
0.874999999999997
40
0.874999999999997
40
0.937499999999998
40
0.937499999999998
40
1
40
1
40
1
40
1
41
1
10
14.9500000000001
20
-48.7343696378644
30
0
41
1
10
14.6186180770483
20
-48.7343696378644
30
0
41
1
10
14.2901293667462
20
-48.7380932241918
30
0
41
1
10
13.6387232911421
20
-48.7526151918802
30
0
41
1
10
13.3158065177085
20
-48.7634141371864
30
0
41
1
10
12.6754919299054
20
-48.7917402554333
30
0
41
1
10
12.3580939389171
20
-48.809267872866
30
0
41
1
10
11.9648592282068
20
-48.8351718883636
30
0
41
1
10
11.8863883176173
20
-48.8405524220114
30
0
41
1
10
11.7298017686215
20
-48.8517076682971
30
0
41
1
10
11.6515991381983
20
-48.8574894582082
30
0
41
1
10
11.4187515333456
20
-48.8753220985444
30
0
41
1
10
11.2655498884333
20
-48.8878806568078
30
0
41
1
10
10.811895150555
20
-48.9273980953649
30
0
41
1
10
10.517377974707
20
-48.9561972782341
30
0
41
1
10
9.94380215106827
20
-49.0178549347292
30
0
41
1
10
9.664743946877
20
-49.0507146985876
30
0
41
1
10
9.2578074013154
20
-49.1024378176854
30
0
41
1
10
9.12410716979446
20
-49.1200845666749
30
0
41
1
10
8.92651453327991
20
-49.1470866090043
30
0
41
1
10
8.8611435080926
20
-49.1561759362458
30
0
41
1
10
8.73139739917741
20
-49.1745189755888
30
0
41
1
10
8.66727138387012
20
-49.1837374881247
30
0
41
1
10
8.35046385487286
20
-49.2300062218261
30
0
41
1
10
8.10907647024374
20
-49.267602508421
30
0
41
1
10
7.64966054039311
20
-49.3429973753042
30
0
41
1
10
7.43163375382832
20
-49.380797599762
30
0
41
1
10
7.01889930623042
20
-49.4556861023258
30
0
41
1
10
6.82418992981576
20
-49.4927759662818
30
0
41
1
10
6.61863457130431
20
-49.5335844296443
30
0
41
1
10
6.59598297197473
20
-49.5381059367661
30
0
41
1
10
6.55105770947233
20
-49.547121570508
30
0
41
1
10
6.52877521323919
20
-49.5516175187617
30
0
41
1
10
6.46267533310359
20
-49.5650253864375
30
0
41
1
10
6.3333005491273
20
-49.5915542938287
30
0
41
1
10
6.21230230261048
20
-49.617172972123
30
0
41
1
10
5.98129593649497
20
-49.6670683357459
30
0
41
1
10
5.84191861237488
20
-49.6985422181599
30
0
41
1
10
5.5921360950997
20
-49.7572475370043
30
0
41
1
10
5.48173027698678
20
-49.7844801347868
30
0
41
1
10
5.33828630346619
20
-49.8216503380533
30
0
41
1
10
5.29417252865383
20
-49.8334271708375
30
0
41
1
10
5.23367267386439
20
-49.8501079866212
30
0
41
1
10
5.21443098384972
20
-49.8555101959131
30
0
41
1
10
5.17800678971318
20
-49.8659342277255
30
0
41
1
10
5.16081455682297
20
-49.8709584653659
30
0
41
1
10
5.07992001326329
20
-49.8951321864374
30
0
41
1
10
5.03138034853981
20
-49.9114393168579
30
0
41
1
10
4.96642087804364
20
-49.93777114671
30
0
41
1
10
4.95000000000004
20
-49.9477962365168
30
0
41
1
10
4.95000000000004
20
-49.9545671986056
30
0
0
SPLINE
5
17B
100
AcDbEntity
8
1
62
256
6
ByLayer
370
18
48
1
60
0
100
AcDbSpline
70
4
71
3
72
54
73
50
40
0
40
0
40
0
40
0
40
0.0625000000000046
40
0.0625000000000046
40
0.125000000000009
40
0.125000000000009
40
0.156250000000011
40
0.156250000000011
40
0.171875000000013
40
0.171875000000013
40
0.179687500000013
40
0.179687500000013
40
0.187500000000014
40
0.250000000000017
40
0.250000000000017
40
0.31250000000002
40
0.31250000000002
40
0.343750000000022
40
0.343750000000022
40
0.359375000000023
40
0.359375000000023
40
0.375000000000023
40
0.375000000000023
40
0.437500000000022
40
0.437500000000022
40
0.50000000000002
40
0.50000000000002
40
0.531250000000019
40
0.531250000000019
40
0.546875000000018
40
0.546875000000018
40
0.562500000000017
40
0.562500000000017
40
0.625000000000014
40
0.625000000000014
40
0.687500000000012
40
0.687500000000012
40
0.75000000000001
40
0.75000000000001
40
0.812500000000008
40
0.812500000000008
40
0.828125000000007
40
0.828125000000007
40
0.843750000000006
40
0.875000000000005
40
0.875000000000005
40
0.937500000000002
40
0.937500000000002
40
1
40
1
40
1
40
1
41
1
10
14.6579668481793
20
38.9060242764537
30
0
41
1
10
14.3262055454705
20
38.9060242764537
30
0
41
1
10
13.9982314324205
20
38.8927740584742
30
0
41
1
10
13.3494884639966
20
38.8409468046657
30
0
41
1
10
13.0287211904854
20
38.8023638648199
30
0
41
1
10
12.552897130635
20
38.7255085306534
30
0
41
1
10
12.3951788176721
20
38.6967182657897
30
0
41
1
10
12.1599425935178
20
38.6487040358918
30
0
41
1
10
12.0817541728103
20
38.631893977704
30
0
41
1
10
11.9648088811361
20
38.6054573881724
30
0
41
1
10
11.9258505361288
20
38.5964336327105
30
0
41
1
10
11.8482629583255
20
38.578028176335
30
0
41
1
10
11.5005289804831
20
38.4935751366774
30
0
41
1
10
11.1652705504387
20
38.3946725236202
30
0
41
1
10
10.5875999459265
20
38.1969250689817
30
0
41
1
10
10.3079435270821
20
38.0870837881047
30
0
41
1
10
9.90165447329341
20
37.9059676052274
30
0
41
1
10
9.76842814056982
20
37.8428644174422
30
0
41
1
10
9.57185509555842
20
37.744080036068
30
0
41
1
10
9.50679720570039
20
37.7104203128559
30
0
41
1
10
9.37835931584303
20
37.6420360731437
30
0
41
1
10
9.3149350548901
20
37.6072918684044
30
0
41
1
10
9.00168607829102
20
37.4308471022575
30
0
41
1
10
8.76344828742162
20
37.2809936596243
30
0
41
1
10
8.30963504081856
20
36.9645103482153
30
0
41
1
10
8.09406753443051
20
36.7978760141893
30
0
41
1
10
7.78664486798198
20
36.5355105945935
30
0
41
1
10
7.68682949793859
20
36.4459838849724
30
0
41
1
10
7.5409915732815
20
36.3085877719226
30
0
41
1
10
7.49300338429049
20
36.2622457279512
30
0
41
1
10
7.39871073722375
20
36.168933948457
30
0
41
1
10
7.35235508974077
20
36.1219173484746
30
0
41
1
10
7.12441385726513
20
35.8850538034044
30
0
41
1
10
6.95431142198197
20
35.6898731010346
30
0
41
1
10
6.63611579279177
20
35.2885830304332
30
0
41
1
10
6.48802988911692
20
35.0824716093137
30
0
41
1
10
6.21196751048581
20
34.6596037717813
30
0
41
1
10
6.08399561077695
20
34.4428460931387
30
0
41
1
10
5.84665848574906
20
33.9988565429648
30
0
41
1
10
5.73729627096537
20
33.7716238615614
30
0
41
1
10
5.61146291574025
20
33.4810915639198
30
0
41
1
10
5.58682966850486
20
33.4226330338351
30
0
41
1
10
5.53873784212769
20
33.3053249230112
30
0
41
1
10
5.46832869888439
20
33.1287026457599
30
0
41
1
10
5.4029733913236
20
32.9501121322119
30
0
41
1
10
5.27868145349734
20
32.5903347296151
30
0
41
1
10
5.20437002393044
20
32.3470224395354
30
0
41
1
10
5.07137549330966
20
31.8535937630817
30
0
41
1
10
5.01269470093902
20
31.6034770871432
30
0
41
1
10
4.96121570861115
20
31.35
30
0
0
SPLINE
5
17C
100
AcDbEntity
8
1
62
256
6
ByLayer
370
18
48
1
60
0
100
AcDbSpline
70
4
71
3
72
58
73
54
40
0
40
0
40
0
40
0
40
0.0624999999999995
40
0.0624999999999995
40
0.124999999999999
40
0.124999999999999
40
0.187499999999998
40
0.187499999999998
40
0.203124999999998
40
0.203124999999998
40
0.218749999999998
40
0.218749999999998
40
0.249999999999998
40
0.249999999999998
40
0.312499999999998
40
0.312499999999998
40
0.374999999999997
40
0.374999999999997
40
0.406249999999997
40
0.406249999999997
40
0.421874999999997
40
0.421874999999997
40
0.429687499999997
40
0.429687499999997
40
0.437499999999997
40
0.499999999999997
40
0.499999999999997
40
0.562499999999997
40
0.562499999999997
40
0.624999999999998
40
0.624999999999998
40
0.632812499999998
40
0.632812499999998
40
0.640624999999998
40
0.640624999999998
40
0.656249999999998
40
0.687499999999998
40
0.687499999999998
40
0.749999999999998
40
0.749999999999998
40
0.812499999999998
40
0.812499999999998
40
0.843749999999998
40
0.843749999999998
40
0.851562499999999
40
0.851562499999999
40
0.859374999999999
40
0.859374999999999
40
0.874999999999999
40
0.874999999999999
40
0.937499999999999
40
0.937499999999999
40
1
40
1
40
1
40
1
41
1
10
4.94999999999993
20
49.9649955869107
30
0
41
1
10
4.94999999999993
20
49.9648564514862
30
0
41
1
10
4.96639535724594
20
49.9614297711209
30
0
41
1
10
5.03079012918496
20
49.9483282305161
30
0
41
1
10
5.078792905775
20
49.9386528049884
30
0
41
1
10
5.20617528592703
20
49.913360558211
30
0
41
1
10
5.2855537250436
20
49.8977432003455
30
0
41
1
10
5.40481488311906
20
49.8746982349491
30
0
41
1
10
5.4296713505814
20
49.8699130944682
30
0
41
1
10
5.48141309188898
20
49.8599953876833
30
0
41
1
10
5.50833605914661
20
49.8548556940175
30
0
41
1
10
5.59176278263863
20
49.8390028750116
30
0
41
1
10
5.65098412594429
20
49.8278440931124
30
0
41
1
10
5.83923536919087
20
49.7927497543001
30
0
41
1
10
5.97882664442
20
49.7671969271402
30
0
41
1
10
6.28566007065069
20
49.7125601134017
30
0
41
1
10
6.45290276134619
20
49.6834747686273
30
0
41
1
10
6.72472807627176
20
49.6377773603114
30
0
41
1
10
6.81883642419393
20
49.6222000592038
30
0
41
1
10
6.96533658581001
20
49.5983914265066
30
0
41
1
10
7.01506001162426
20
49.5903814561262
30
0
41
1
10
7.09099523328789
20
49.5782654147636
30
0
41
1
10
7.1165240763516
20
49.574211187792
30
0
41
1
10
7.16789264653997
20
49.5660929330668
30
0
41
1
10
7.40060319140778
20
49.5294925582587
30
0
41
1
10
7.64713918623045
20
49.4923590230609
30
0
41
1
10
8.10670693309032
20
49.4264420405032
30
0
41
1
10
8.34713297584113
20
49.3935310568328
30
0
41
1
10
8.84934930388641
20
49.3287304702773
30
0
41
1
10
9.11113785088074
20
49.2968392696675
30
0
41
1
10
9.41807611856308
20
49.2620739608192
30
0
41
1
10
9.45235340070909
20
49.2582266370262
30
0
41
1
10
9.52125623397231
20
49.2505649163322
30
0
41
1
10
9.55590568536479
20
49.2467479240446
30
0
41
1
10
9.66018379123648
20
49.2353706337422
30
0
41
1
10
9.8699616226439
20
49.2129207084335
30
0
41
1
10
10.0833656513847
20
49.1914366408169
30
0
41
1
10
10.5149408311131
20
49.1498915200009
30
0
41
1
10
10.809002564692
20
49.1240922202927
30
0
41
1
10
11.4097370601155
20
49.076996069962
30
0
41
1
10
11.7164095384446
20
49.0556981620596
30
0
41
1
10
12.186090484687
20
49.027664215513
30
0
41
1
10
12.3442656931892
20
49.0189718879699
30
0
41
1
10
12.5440485131774
20
49.008980071156
30
0
41
1
10
12.5841083314372
20
49.0070253954911
30
0
41
1
10
12.6644358672602
20
49.003204909123
30
0
41
1
10
12.7047159750549
20
49.001338598664
30
0
41
1
10
12.8255808796394
20
48.9958879253751
30
0
41
1
10
12.9062796748493
20
48.9924474346058
30
0
41
1
10
13.3103808608993
20
48.9762212253996
30
0
41
1
10
13.635600603187
20
48.9663646229261
30
0
41
1
10
14.289891263086
20
48.9531432682525
30
0
41
1
10
14.6189620704916
20
48.9497781813156
30
0
41
1
10
14.95
20
48.9497781813156
30
0
0
SPLINE
5
17D
100
AcDbEntity
8
1
62
256
6
ByLayer
370
18
48
1
60
0
100
AcDbSpline
70
4
71
3
72
8
73
4
40
0
40
0
40
0
40
0
40
1
40
1
40
1
40
1
41
1
10
23.2418217614998
20
-48.7343696378644
30
0
41
1
10
22.8024719501864
20
-47.9541774266955
30
0
41
1
10
22.363511531413
20
-47.1737672945194
30
0
41
1
10
21.925
20
-46.3931059454458
30
0
0
SPLINE
5
17E
100
AcDbEntity
8
1
62
256
6
ByLayer
370
18
48
1
60
0
100
AcDbSpline
70
4
71
3
72
8
73
4
40
0
40
0
40
0
40
0
40
1
40
1
40
1
40
1
41
1
10
23.2418217614997
20
31.35
30
0
41
1
10
22.7970974394247
20
31.35
30
0
41
1
10
22.3578450722474
20
31.35
30
0
41
1
10
21.925
20
31.35
30
0
0
SPLINE
5
17F
100
AcDbEntity
8
1
62
256
6
ByLayer
370
18
48
1
60
0
100
AcDbSpline
70
4
71
3
72
8
73
4
40
0
40
0
40
0
40
0
40
1
40
1
40
1
40
1
41
1
10
28.95
20
-48.0164324372396
30
0
41
1
10
28.716710876918
20
-48.2557877592673
30
0
41
1
10
28.4833769086862
20
-48.4950995430802
30
0
41
1
10
28.2500000000001
20
-48.7343696378644
30
0
0
SPLINE
5
180
100
AcDbEntity
8
1
62
256
6
ByLayer
370
18
48
1
60
0
100
AcDbSpline
70
4
71
3
72
8
73
4
40
0
40
0
40
0
40
0
40
1
40
1
40
1
40
1
41
1
10
28.95
20
31.3500000000001
30
0
41
1
10
28.717385155116
20
31.35
30
0
41
1
10
28.4840015193126
20
31.35
30
0
41
1
10
28.2499999999999
20
31.35
30
0
0
SPLINE
5
181
100
AcDbEntity
8
1
62
256
6
ByLayer
370
18
48
1
60
0
100
AcDbSpline
70
4
71
3
72
8
73
4
40
0
40
0
40
0
40
0
40
1
40
1
40
1
40
1
41
1
10
18.075
20
-46.3931059454459
30
0
41
1
10
17.6364884685871
20
-47.1737672945194
30
0
41
1
10
17.1975280498137
20
-47.9541774266955
30
0
41
1
10
16.7581782385003
20
-48.7343696378644
30
0
0
SPLINE
5
182
100
AcDbEntity
8
1
62
256
6
ByLayer
370
18
48
1
60
0
100
AcDbSpline
70
4
71
3
72
8
73
4
40
0
40
0
40
0
40
0
40
1
40
1
40
1
40
1
41
1
10
18.075
20
31.35
30
0
41
1
10
17.6421549277525
20
31.35
30
0
41
1
10
17.2029025605752
20
31.35
30
0
41
1
10
16.7581782385002
20
31.35
30
0
0
SPLINE
5
183
100
AcDbEntity
8
SK2
62
256
6
ByLayer
370
18
48
1
60
0
100
AcDbSpline
70
4
71
3
72
28
73
24
40
0
40
0
40
0
40
0
40
0.124999999999999
40
0.124999999999999
40
0.156249999999999
40
0.156249999999999
40
0.187499999999999
40
0.25
40
0.25
40
0.375
40
0.375
40
0.500000000000001
40
0.500000000000001
40
0.625000000000001
40
0.625000000000001
40
0.656250000000001
40
0.656250000000001
40
0.687500000000001
40
0.750000000000001
40
0.750000000000001
40
0.875
40
0.875
40
1
40
1
40
1
40
1
41
1
10
46
20
-2.88675134594831
30
0
41
1
10
46
20
-2.65221904826029
30
0
41
1
10
46
20
-2.41557006562974
30
0
41
1
10
46
20
-2.11641922368605
30
0
41
1
10
46
20
-2.05638703215547
30
0
41
1
10
46
20
-1.93612762286966
30
0
41
1
10
46
20
-1.75564603469027
30
0
41
1
10
46
20
-1.57487575709826
30
0
41
1
10
46
20
-1.2129220795623
30
0
41
1
10
46
20
-0.971067172785979
30
0
41
1
10
46
20
-0.486130329323743
30
0
41
1
10
46
20
-0.243047512392934
30
0
41
1
10
46
20
0.24440611469322
30
0
41
1
10
46
20
0.488777132152023
30
0
41
1
10
46
20
0.79503316042323
30
0
41
1
10
46
20
0.856366764760537
30
0
41
1
10
46
20
0.978919544658424
30
0
41
1
10
46
20
1.1622391663725
30
0
41
1
10
46
20
1.34408632372157
30
0
41
1
10
46
20
1.705974785058
30
0
41
1
10
46
20
1.94482750453358
30
0
41
1
10
46
20
2.4185672669052
30
0
41
1
10
46
20
2.65345676163267
30
0
41
1
10
46
20
2.88675134594755
30
0
0
SPLINE
5
184
100
AcDbEntity
8
SK2
62
256
6
ByLayer
370
18
48
1
60
0
100
AcDbSpline
70
4
71
3
72
28
73
24
40
0
40
0
40
0
40
0
40
0.124999999999999
40
0.124999999999999
40
0.156249999999999
40
0.156249999999999
40
0.187499999999999
40
0.249999999999999
40
0.249999999999999
40
0.374999999999999
40
0.374999999999999
40
0.499999999999999
40
0.499999999999999
40
0.624999999999999
40
0.624999999999999
40
0.656249999999999
40
0.656249999999999
40
0.687499999999999
40
0.749999999999999
40
0.749999999999999
40
0.875
40
0.875
40
1
40
1
40
1
40
1
41
1
10
56
20
-2.8867513459474
30
0
41
1
10
56
20
-2.65221904825898
30
0
41
1
10
56
20
-2.41557006562766
30
0
41
1
10
56
20
-2.11641922368258
30
0
41
1
10
56
20
-2.05638703215141
30
0
41
1
10
56
20
-1.93612762286605
30
0
41
1
10
56
20
-1.75564603468737
30
0
41
1
10
56
20
-1.57487575709638
30
0
41
1
10
56
20
-1.21292207956282
30
0
41
1
10
56
20
-0.971067172788622
30
0
41
1
10
56
20
-0.486130329331843
30
0
41
1
10
56
20
-0.24304751240436
30
0
41
1
10
56
20
0.244406114673893
30
0
41
1
10
56
20
0.488777132128149
30
0
41
1
10
56
20
0.795033160392819
30
0
41
1
10
56
20
0.856366764726829
30
0
41
1
10
56
20
0.978919544628297
30
0
41
1
10
56
20
1.16223916634743
30
0
41
1
10
56
20
1.34408632370082
30
0
41
1
10
56
20
1.70597478504507
30
0
41
1
10
56
20
1.94482750452465
30
0
41
1
10
56
20
2.41856726690244
30
0
41
1
10
56
20
2.6534567616321
30
0
41
1
10
56
20
2.88675134594848
30
0
0
SPLINE
5
185
100
AcDbEntity
8
SK2
62
256
6
ByLayer
370
18
48
1
60
0
100
AcDbSpline
70
4
71
3
72
22
73
18
40
0
40
0
40
0
40
0
40
0.250000000000001
40
0.250000000000001
40
0.375000000000003
40
0.375000000000003
40
0.437500000000004
40
0.437500000000004
40
0.468750000000004
40
0.468750000000004
40
0.500000000000005
40
0.500000000000005
40
0.625000000000004
40
0.625000000000004
40
0.750000000000002
40
0.750000000000002
40
1
40
1
40
1
40
1
41
1
10
55.9999999999995
20
2.88675134594851
30
0
41
1
10
55.5912889637254
20
3.12272077276211
30
0
41
1
10
55.1791616003532
20
3.36066261694549
30
0
41
1
10
54.5535222715924
20
3.72187565182111
30
0
41
1
10
54.3437308096306
20
3.84299880885848
30
0
41
1
10
54.0269193101153
20
4.02591001338601
30
0
41
1
10
53.9209620455693
20
4.08708446859421
30
0
41
1
10
53.7614720200222
20
4.1791660777769
30
0
41
1
10
53.7081770285368
20
4.20993595545747
30
0
41
1
10
53.6015783236677
20
4.27148074640888
30
0
41
1
10
53.5483607058459
20
4.30220595238399
30
0
41
1
10
53.2826783312042
20
4.45559774290231
30
0
41
1
10
53.0714363751955
20
4.57755834306806
30
0
41
1
10
52.6513886515023
20
4.82007300941481
30
0
41
1
10
52.442580782273
20
4.94062828892322
30
0
41
1
10
51.8193808846491
20
5.30043291757534
30
0
41
1
10
51.4082022821818
20
5.53782699439486
30
0
41
1
10
51.0000000000005
20
5.77350269189606
30
0
0
SPLINE
5
186
100
AcDbEntity
8
SK2
62
256
6
ByLayer
370
18
48
1
60
0
100
AcDbSpline
70
4
71
3
72
22
73
18
40
0
40
0
40
0
40
0
40
0.250000000000002
40
0.250000000000002
40
0.375000000000003
40
0.375000000000003
40
0.437500000000005
40
0.437500000000005
40
0.468750000000004
40
0.468750000000004
40
0.500000000000004
40
0.500000000000004
40
0.625000000000002
40
0.625000000000002
40
0.750000000000001
40
0.750000000000001
40
1
40
1
40
1
40
1
41
1
10
51.0000000000003
20
-5.77350269189634
30
0
41
1
10
50.5912889637262
20
-5.53753326508271
30
0
41
1
10
50.1791616003539
20
-5.2995914208993
30
0
41
1
10
49.5535222715931
20
-4.93837838602363
30
0
41
1
10
49.3437308096312
20
-4.81725522898626
30
0
41
1
10
49.0269193101158
20
-4.63434402445867
30
0
41
1
10
48.9209620455698
20
-4.57316956925047
30
0
41
1
10
48.7614720200227
20
-4.48108796006775
30
0
41
1
10
48.7081770285373
20
-4.45031808238718
30
0
41
1
10
48.6015783236682
20
-4.38877329143577
30
0
41
1
10
48.5483607058463
20
-4.35804808546067
30
0
41
1
10
48.2826783312046
20
-4.20465629494231
30
0
41
1
10
48.0714363751958
20
-4.08269569477653
30
0
41
1
10
47.6513886515025
20
-3.84018102842973
30
0
41
1
10
47.4425807822733
20
-3.71962574892132
30
0
41
1
10
46.8193808846493
20
-3.35982112026912
30
0
41
1
10
46.4082022821819
20
-3.12242704344956
30
0
41
1
10
46.0000000000005
20
-2.88675134594834
30
0
0
SPLINE
5
187
100
AcDbEntity
8
SK2
62
256
6
ByLayer
370
18
48
1
60
0
100
AcDbSpline
70
4
71
3
72
22
73
18
40
0
40
0
40
0
40
0
40
0.249999999999996
40
0.249999999999996
40
0.374999999999995
40
0.374999999999995
40
0.437499999999996
40
0.437499999999996
40
0.468749999999999
40
0.468749999999999
40
0.500000000000001
40
0.500000000000001
40
0.625000000000001
40
0.625000000000001
40
0.75
40
0.75
40
1
40
1
40
1
40
1
41
1
10
45.9999999999997
20
2.88675134594803
30
0
41
1
10
46.4087110362739
20
3.12272077276171
30
0
41
1
10
46.8208383996463
20
3.36066261694515
30
0
41
1
10
47.4464777284073
20
3.72187565182091
30
0
41
1
10
47.6562691903691
20
3.84299880885831
30
0
41
1
10
47.9730806898846
20
4.0259100133859
30
0
41
1
10
48.0790379544306
20
4.08708446859413
30
0
41
1
10
48.2385279799777
20
4.17916607777687
30
0
41
1
10
48.2918229714632
20
4.20993595545741
30
0
41
1
10
48.3984216763323
20
4.27148074640886
30
0
41
1
10
48.4516392941541
20
4.30220595238396
30
0
41
1
10
48.717321668796
20
4.45559774290234
30
0
41
1
10
48.9285636248047
20
4.57755834306815
30
0
41
1
10
49.3486113484981
20
4.82007300941498
30
0
41
1
10
49.5574192177273
20
4.94062828892342
30
0
41
1
10
50.1806191153515
20
5.30043291757565
30
0
41
1
10
50.5917977178189
20
5.53782699439526
30
0
41
1
10
51.0000000000003
20
5.77350269189654
30
0
0
SPLINE
5
188
100
AcDbEntity
8
SK2
62
256
6
ByLayer
370
18
48
1
60
0
100
AcDbSpline
70
4
71
3
72
22
73
18
40
0
40
0
40
0
40
0
40
0.250000000000008
40
0.250000000000008
40
0.375000000000013
40
0.375000000000013
40
0.437500000000016
40
0.437500000000016
40
0.468750000000016
40
0.468750000000016
40
0.500000000000016
40
0.500000000000016
40
0.625000000000012
40
0.625000000000012
40
0.750000000000008
40
0.750000000000008
40
1
40
1
40
1
40
1
41
1
10
51.0000000000006
20
-5.77350269189589
30
0
41
1
10
51.4087110362746
20
-5.53753326508223
30
0
41
1
10
51.820838399647
20
-5.29959142089882
30
0
41
1
10
52.4464777284078
20
-4.93837838602315
30
0
41
1
10
52.6562691903697
20
-4.81725522898574
30
0
41
1
10
52.9730806898851
20
-4.63434402445819
30
0
41
1
10
53.0790379544311
20
-4.57316956924996
30
0
41
1
10
53.2385279799782
20
-4.48108796006724
30
0
41
1
10
53.2918229714636
20
-4.4503180823867
30
0
41
1
10
53.3984216763327
20
-4.38877329143526
30
0
41
1
10
53.4516392941546
20
-4.35804808546015
30
0
41
1
10
53.7173216687963
20
-4.20465629494183
30
0
41
1
10
53.9285636248051
20
-4.08269569477605
30
0
41
1
10
54.3486113484983
20
-3.84018102842924
30
0
41
1
10
54.5574192177276
20
-3.71962574892081
30
0
41
1
10
55.1806191153516
20
-3.35982112026863
30
0
41
1
10
55.591797717819
20
-3.12242704344908
30
0
41
1
10
56.0000000000003
20
-2.88675134594786
30
0
0
SPLINE
5
189
100
AcDbEntity
8
SK2
62
256
6
ByLayer
370
18
48
1
60
0
100
AcDbSpline
70
4
71
3
72
28
73
24
40
0
40
0
40
0
40
0
40
0.125
40
0.125
40
0.15625
40
0.15625
40
0.1875
40
0.25
40
0.25
40
0.375
40
0.375
40
0.5
40
0.5
40
0.625
40
0.625
40
0.65625
40
0.65625
40
0.687499999999999
40
0.75
40
0.75
40
0.875
40
0.875
40
1
40
1
40
1
40
1
41
1
10
71
20
-2.88675134594826
30
0
41
1
10
71
20
-2.65221904826026
30
0
41
1
10
71
20
-2.41557006562968
30
0
41
1
10
71
20
-2.116419223686
30
0
41
1
10
71
20
-2.05638703215541
30
0
41
1
10
71
20
-1.93612762286963
30
0
41
1
10
71
20
-1.75564603469024
30
0
41
1
10
71
20
-1.57487575709823
30
0
41
1
10
71
20
-1.21292207956228
30
0
41
1
10
71
20
-0.971067172785951
30
0
41
1
10
71
20
-0.486130329323714
30
0
41
1
10
71
20
-0.243047512392906
30
0
41
1
10
71
20
0.244406114693248
30
0
41
1
10
71
20
0.488777132152052
30
0
41
1
10
71
20
0.795033160423259
30
0
41
1
10
71
20
0.856366764760566
30
0
41
1
10
71
20
0.978919544658453
30
0
41
1
10
71
20
1.16223916637253
30
0
41
1
10
71
20
1.3440863237216
30
0
41
1
10
71
20
1.70597478505803
30
0
41
1
10
71
20
1.94482750453361
30
0
41
1
10
71
20
2.41856726690523
30
0
41
1
10
71
20
2.6534567616327
30
0
41
1
10
71
20
2.88675134594757
30
0
0
SPLINE
5
18A
100
AcDbEntity
8
SK2
62
256
6
ByLayer
370
18
48
1
60
0
100
AcDbSpline
70
4
71
3
72
28
73
24
40
0
40
0
40
0
40
0
40
0.125
40
0.125
40
0.15625
40
0.15625
40
0.1875
40
0.25
40
0.25
40
0.374999999999999
40
0.374999999999999
40
0.499999999999999
40
0.499999999999999
40
0.624999999999999
40
0.624999999999999
40
0.656249999999999
40
0.656249999999999
40
0.687499999999999
40
0.749999999999999
40
0.749999999999999
40
0.875
40
0.875
40
1
40
1
40
1
40
1
41
1
10
81
20
-2.88675134594737
30
0
41
1
10
81
20
-2.65221904825896
30
0
41
1
10
81
20
-2.41557006562763
30
0
41
1
10
81
20
-2.11641922368256
30
0
41
1
10
81
20
-2.05638703215138
30
0
41
1
10
81
20
-1.93612762286602
30
0
41
1
10
81
20
-1.75564603468735
30
0
41
1
10
81
20
-1.57487575709635
30
0
41
1
10
81
20
-1.21292207956279
30
0
41
1
10
81
20
-0.971067172788594
30
0
41
1
10
81
20
-0.486130329331814
30
0
41
1
10
81
20
-0.243047512404331
30
0
41
1
10
81
20
0.244406114673922
30
0
41
1
10
81
20
0.488777132128178
30
0
41
1
10
81
20
0.795033160392848
30
0
41
1
10
81
20
0.856366764726857
30
0
41
1
10
81
20
0.978919544628326
30
0
41
1
10
81
20
1.16223916634746
30
0
41
1
10
81
20
1.34408632370088
30
0
41
1
10
81.0000000000001
20
1.7059747850451
30
0
41
1
10
81
20
1.94482750452468
30
0
41
1
10
81
20
2.41856726690247
30
0
41
1
10
81
20
2.65345676163213
30
0
41
1
10
81
20
2.88675134594851
30
0
0
SPLINE
5
18B
100
AcDbEntity
8
SK2
62
256
6
ByLayer
370
18
48
1
60
0
100
AcDbSpline
70
4
71
3
72
22
73
18
40
0
40
0
40
0
40
0
40
0.250000000000012
40
0.250000000000012
40
0.375000000000018
40
0.375000000000018
40
0.437500000000018
40
0.437500000000018
40
0.468750000000018
40
0.468750000000018
40
0.500000000000018
40
0.500000000000018
40
0.625000000000012
40
0.625000000000012
40
0.750000000000006
40
0.750000000000006
40
1
40
1
40
1
40
1
41
1
10
80.9999999999995
20
2.88675134594854
30
0
41
1
10
80.5912889637255
20
3.12272077276214
30
0
41
1
10
80.1791616003532
20
3.36066261694552
30
0
41
1
10
79.5535222715925
20
3.72187565182114
30
0
41
1
10
79.3437308096306
20
3.84299880885851
30
0
41
1
10
79.0269193101153
20
4.02591001338604
30
0
41
1
10
78.9209620455694
20
4.08708446859424
30
0
41
1
10
78.7614720200222
20
4.17916607777696
30
0
41
1
10
78.7081770285368
20
4.2099359554575
30
0
41
1
10
78.6015783236678
20
4.27148074640891
30
0
41
1
10
78.5483607058459
20
4.30220595238401
30
0
41
1
10
78.2826783312042
20
4.45559774290234
30
0
41
1
10
78.0714363751955
20
4.57755834306809
30
0
41
1
10
77.6513886515023
20
4.82007300941487
30
0
41
1
10
77.442580782273
20
4.94062828892325
30
0
41
1
10
76.8193808846491
20
5.30043291757536
30
0
41
1
10
76.4082022821818
20
5.53782699439489
30
0
41
1
10
76.0000000000005
20
5.77350269189608
30
0
0
SPLINE
5
18C
100
AcDbEntity
8
SK2
62
256
6
ByLayer
370
18
48
1
60
0
100
AcDbSpline
70
4
71
3
72
22
73
18
40
0
40
0
40
0
40
0
40
0.250000000000004
40
0.250000000000004
40
0.375000000000003
40
0.375000000000003
40
0.437500000000002
40
0.437500000000002
40
0.468750000000005
40
0.468750000000005
40
0.500000000000007
40
0.500000000000007
40
0.625000000000006
40
0.625000000000006
40
0.750000000000004
40
0.750000000000004
40
1
40
1
40
1
40
1
41
1
10
76.0000000000003
20
-5.77350269189631
30
0
41
1
10
75.5912889637262
20
-5.53753326508269
30
0
41
1
10
75.1791616003539
20
-5.29959142089928
30
0
41
1
10
74.5535222715931
20
-4.9383783860236
30
0
41
1
10
74.3437308096312
20
-4.81725522898623
30
0
41
1
10
74.0269193101158
20
-4.63434402445864
30
0
41
1
10
73.9209620455698
20
-4.57316956925044
30
0
41
1
10
73.7614720200227
20
-4.48108796006773
30
0
41
1
10
73.7081770285373
20
-4.45031808238716
30
0
41
1
10
73.6015783236682
20
-4.38877329143574
30
0
41
1
10
73.5483607058463
20
-4.35804808546064
30
0
41
1
10
73.2826783312046
20
-4.20465629494228
30
0
41
1
10
73.0714363751958
20
-4.0826956947765
30
0
41
1
10
72.6513886515025
20
-3.8401810284297
30
0
41
1
10
72.4425807822733
20
-3.71962574892129
30
0
41
1
10
71.8193808846493
20
-3.35982112026909
30
0
41
1
10
71.4082022821819
20
-3.12242704344953
30
0
41
1
10
71.0000000000005
20
-2.88675134594831
30
0
0
SPLINE
5
18D
100
AcDbEntity
8
SK2
62
256
6
ByLayer
370
18
48
1
60
0
100
AcDbSpline
70
4
71
3
72
22
73
18
40
0
40
0
40
0
40
0
40
0.250000000000015
40
0.250000000000015
40
0.375000000000022
40
0.375000000000022
40
0.437500000000026
40
0.437500000000026
40
0.468750000000025
40
0.468750000000025
40
0.500000000000024
40
0.500000000000024
40
0.625000000000019
40
0.625000000000019
40
0.750000000000015
40
0.750000000000015
40
1
40
1
40
1
40
1
41
1
10
70.9999999999997
20
2.88675134594806
30
0
41
1
10
71.4087110362739
20
3.12272077276174
30
0
41
1
10
71.8208383996463
20
3.36066261694518
30
0
41
1
10
72.4464777284072
20
3.72187565182094
30
0
41
1
10
72.6562691903692
20
3.84299880885834
30
0
41
1
10
72.9730806898846
20
4.02591001338592
30
0
41
1
10
73.0790379544306
20
4.08708446859416
30
0
41
1
10
73.2385279799778
20
4.1791660777769
30
0
41
1
10
73.2918229714632
20
4.20993595545744
30
0
41
1
10
73.3984216763323
20
4.27148074640888
30
0
41
1
10
73.4516392941541
20
4.30220595238399
30
0
41
1
10
73.717321668796
20
4.45559774290237
30
0
41
1
10
73.9285636248047
20
4.57755834306818
30
0
41
1
10
74.348611348498
20
4.82007300941501
30
0
41
1
10
74.5574192177273
20
4.94062828892345
30
0
41
1
10
75.1806191153514
20
5.30043291757571
30
0
41
1
10
75.5917977178189
20
5.53782699439529
30
0
41
1
10
76.0000000000003
20
5.77350269189657
30
0
0
SPLINE
5
18E
100
AcDbEntity
8
SK2
62
256
6
ByLayer
370
18
48
1
60
0
100
AcDbSpline
70
4
71
3
72
22
73
18
40
0
40
0
40
0
40
0
40
0.249999999999993
40
0.249999999999993
40
0.37499999999999
40
0.37499999999999
40
0.437499999999988
40
0.437499999999988
40
0.468749999999987
40
0.468749999999987
40
0.499999999999987
40
0.499999999999987
40
0.62499999999999
40
0.62499999999999
40
0.749999999999993
40
0.749999999999993
40
1
40
1
40
1
40
1
41
1
10
76.0000000000005
20
-5.77350269189586
30
0
41
1
10
76.4087110362747
20
-5.53753326508223
30
0
41
1
10
76.820838399647
20
-5.29959142089882
30
0
41
1
10
77.4464777284078
20
-4.93837838602312
30
0
41
1
10
77.6562691903697
20
-4.81725522898572
30
0
41
1
10
77.9730806898851
20
-4.63434402445816
30
0
41
1
10
78.0790379544311
20
-4.57316956924993
30
0
41
1
10
78.2385279799782
20
-4.48108796006721
30
0
41
1
10
78.2918229714636
20
-4.45031808238667
30
0
41
1
10
78.3984216763327
20
-4.38877329143523
30
0
41
1
10
78.4516392941546
20
-4.35804808546013
30
0
41
1
10
78.7173216687963
20
-4.2046562949418
30
0
41
1
10
78.9285636248051
20
-4.08269569477602
30
0
41
1
10
79.3486113484983
20
-3.84018102842921
30
0
41
1
10
79.5574192177276
20
-3.71962574892078
30
0
41
1
10
80.1806191153516
20
-3.35982112026861
30
0
41
1
10
80.5917977178189
20
-3.12242704344905
30
0
41
1
10
81.0000000000004
20
-2.8867513459478
30
0
0
SPLINE
5
18F
100
AcDbEntity
8
SK1
62
256
6
ByLayer
370
18
48
1
60
0
100
AcDbSpline
70
4
71
3
72
8
73
4
40
0
40
0
40
0
40
0
40
1
40
1
40
1
40
1
41
1
10
-48.25
20
32.2214193285101
30
0
41
1
10
-48.1701861715093
20
32.2200218734064
30
0
41
1
10
-48.0872675817396
20
32.2186394191731
30
0
41
1
10
-48.0000748840349
20
32.218019138109
30
0
0
SPLINE
5
190
100
AcDbEntity
8
SK1
62
256
6
ByLayer
370
18
48
1
60
0
100
AcDbSpline
70
4
71
3
72
24
73
20
40
0
40
0
40
0
40
0
40
0.250000000000004
40
0.250000000000004
40
0.375000000000003
40
0.375000000000003
40
0.500000000000002
40
0.500000000000002
40
0.625000000000001
40
0.625000000000001
40
0.75
40
0.75
40
0.874999999999999
40
0.874999999999999
40
0.90625
40
0.90625
40
0.937500000000001
40
0.937500000000001
40
1
40
1
40
1
40
1
41
1
10
-48.25
20
32.2214193285101
30
0
41
1
10
-48.327192599652
20
32.1386292161066
30
0
41
1
10
-48.4027254536899
20
32.050930952745
30
0
41
1
10
-48.5122537211954
20
31.9125478699341
30
0
41
1
10
-48.5481267099528
20
31.865283010005
30
0
41
1
10
-48.6182019131828
20
31.768643632154
30
0
41
1
10
-48.6524094876907
20
31.7192660384394
30
0
41
1
10
-48.7185088967078
20
31.6186886425619
30
0
41
1
10
-48.7504117861866
20
31.5674825904549
30
0
41
1
10
-48.8107721610409
20
31.4637940025207
30
0
41
1
10
-48.8392511338386
20
31.411299830844
30
0
41
1
10
-48.8906794646078
20
31.3060996950026
30
0
41
1
10
-48.9136552967582
20
31.2533820293383
30
0
41
1
10
-48.936535416281
20
31.1885883728348
30
0
41
1
10
-48.940814242955
20
31.1756874081561
30
0
41
1
10
-48.948696824415
20
31.1500417843306
30
0
41
1
10
-48.9523016290038
20
31.1372862940232
30
0
41
1
10
-48.9618992672905
20
31.0996474846813
30
0
41
1
10
-48.9667024842001
20
31.0752951187508
30
0
41
1
10
-48.9697166806893
20
31.0518395799779
30
0
0
SPLINE
5
191
100
AcDbEntity
8
SK1
62
256
6
ByLayer
370
18
48
1
60
0
100
AcDbSpline
70
4
71
3
72
70
73
66
40
0
40
0
40
0
40
0
40
0.125000000000005
40
0.125000000000005
40
0.187500000000008
40
0.187500000000008
40
0.250000000000011
40
0.250000000000011
40
0.312500000000015
40
0.312500000000015
40
0.343750000000017
40
0.343750000000017
40
0.375000000000019
40
0.375000000000019
40
0.406250000000021
40
0.406250000000021
40
0.421875000000023
40
0.421875000000023
40
0.437500000000026
40
0.437500000000026
40
0.453125000000028
40
0.453125000000028
40
0.46875000000003
40
0.46875000000003
40
0.484375000000032
40
0.484375000000032
40
0.492187500000033
40
0.492187500000033
40
0.496093750000035
40
0.496093750000035
40
0.500000000000036
40
0.500000000000036
40
0.507812500000037
40
0.507812500000037
40
0.51171875000004
40
0.51171875000004
40
0.515625000000042
40
0.515625000000042
40
0.523437500000041
40
0.523437500000041
40
0.531250000000041
40
0.531250000000041
40
0.53906250000004
40
0.53906250000004
40
0.546875000000039
40
0.546875000000039
40
0.56250000000004
40
0.56250000000004
40
0.578125000000041
40
0.578125000000041
40
0.593750000000042
40
0.593750000000042
40
0.625000000000039
40
0.625000000000039
40
0.656250000000036
40
0.656250000000036
40
0.687500000000033
40
0.687500000000033
40
0.750000000000026
40
0.750000000000026
40
0.812500000000019
40
0.812500000000019
40
0.875000000000011
40
0.875000000000011
40
1
40
1
40
1
40
1
41
1
10
-48.9697166806892
20
31.0518395799779
30
0
41
1
10
-48.9785930171012
20
30.9827666931837
30
0
41
1
10
-48.9898013946799
20
30.9116838812296
30
0
41
1
10
-49.0109707463911
20
30.8017288815651
30
0
41
1
10
-49.0187600784454
20
30.76450750334
30
0
41
1
10
-49.0360979042102
20
30.6886972475776
30
0
41
1
10
-49.0456412109662
20
30.6501124021636
30
0
41
1
10
-49.0669842456738
20
30.5711886630805
30
0
41
1
10
-49.0787823554537
20
30.5308288316399
30
0
41
1
10
-49.0987807186822
20
30.468755773989
30
0
41
1
10
-49.1058367731061
20
30.4477965169349
30
0
41
1
10
-49.120940239487
20
30.4051960411474
30
0
41
1
10
-49.1289839414118
20
30.3835573745708
30
0
41
1
10
-49.1464161598915
20
30.3393549341653
30
0
41
1
10
-49.1557915613357
20
30.3168123044038
30
0
41
1
10
-49.1712542660582
20
30.2822073879468
30
0
41
1
10
-49.1766471023966
20
30.2705321424928
30
0
41
1
10
-49.1880532434731
20
30.2468168794591
30
0
41
1
10
-49.1940597200795
20
30.2347910097153
30
0
41
1
10
-49.2068021472639
20
30.2104630755181
30
0
41
1
10
-49.2135433509848
20
30.1981428720513
30
0
41
1
10
-49.2281075980201
20
30.1730456348511
30
0
41
1
10
-49.2359160105215
20
30.1602747792963
30
0
41
1
10
-49.2533322974318
20
30.133973206311
30
0
41
1
10
-49.262708398457
20
30.1207741623828
30
0
41
1
10
-49.2784969686656
20
30.1009697522194
30
0
41
1
10
-49.284033972932
20
30.0944024637514
30
0
41
1
10
-49.2925946962343
20
30.0849475215287
30
0
41
1
10
-49.295501463715
20
30.081848803047
30
0
41
1
10
-49.301436173139
20
30.0757719388759
30
0
41
1
10
-49.3044657180065
20
30.0727949345413
30
0
41
1
10
-49.313468788581
20
30.0643340487117
30
0
41
1
10
-49.3194469454136
20
30.0592250680206
30
0
41
1
10
-49.3283778259733
20
30.0523705687564
30
0
41
1
10
-49.3313357680737
20
30.0502326266784
30
0
41
1
10
-49.337073906878
20
30.0463292146682
30
0
41
1
10
-49.3398758296209
20
30.0445467352402
30
0
41
1
10
-49.3481015269572
20
30.0396531211838
30
0
41
1
10
-49.3533520880974
20
30.0369994700209
30
0
41
1
10
-49.3631210109243
20
30.0327937630131
30
0
41
1
10
-49.3676993612993
20
30.0312048005844
30
0
41
1
10
-49.3764011833092
20
30.0287905140654
30
0
41
1
10
-49.3805378391983
20
30.027967429531
30
0
41
1
10
-49.3883082638221
20
30.0269340203178
30
0
41
1
10
-49.3919628304064
20
30.026716668303
30
0
41
1
10
-49.4024036858999
20
30.0267432061597
30
0
41
1
10
-49.4086755467698
20
30.0276547666116
30
0
41
1
10
-49.420330380932
20
30.0306315650748
30
0
41
1
10
-49.4257129893117
20
30.0327093730988
30
0
41
1
10
-49.435801346484
20
30.0376918006764
30
0
41
1
10
-49.4404740786221
20
30.040580940088
30
0
41
1
10
-49.4536778614137
20
30.0501208287682
30
0
41
1
10
-49.4614087761094
20
30.0576287530105
30
0
41
1
10
-49.4755392658972
20
30.0740708478453
30
0
41
1
10
-49.4819254036185
20
30.083019413714
30
0
41
1
10
-49.4937409641775
20
30.1019414613386
30
0
41
1
10
-49.4991661019387
20
30.1119195336397
30
0
41
1
10
-49.5143429423717
20
30.1430306369774
30
0
41
1
10
-49.5230220224296
20
30.1653523999026
30
0
41
1
10
-49.5384223292372
20
30.2118316987656
30
0
41
1
10
-49.5451375152842
20
30.2360129904058
30
0
41
1
10
-49.5571465436213
20
30.285734397677
30
0
41
1
10
-49.5624346294612
20
30.3112800165527
30
0
41
1
10
-49.5766234575257
20
30.3895186065591
30
0
41
1
10
-49.5838746389943
20
30.4437885802401
30
0
41
1
10
-49.5895655549791
20
30.4995501889749
30
0
0
SPLINE
5
192
100
AcDbEntity
8
SK1
62
256
6
ByLayer
370
18
48
1
60
0
100
AcDbSpline
70
4
71
3
72
34
73
30
40
0
40
0
40
0
40
0
40
0.0312499999999973
40
0.0312499999999973
40
0.0624999999999946
40
0.0624999999999946
40
0.124999999999992
40
0.124999999999992
40
0.187499999999988
40
0.187499999999988
40
0.249999999999985
40
0.249999999999985
40
0.312499999999982
40
0.312499999999982
40
0.343749999999983
40
0.343749999999983
40
0.374999999999983
40
0.374999999999983
40
0.499999999999986
40
0.499999999999986
40
0.624999999999989
40
0.624999999999989
40
0.749999999999993
40
0.749999999999993
40
0.874999999999996
40
0.874999999999996
40
0.937499999999998
40
0.937499999999998
40
1
40
1
40
1
40
1
41
1
10
-49.5895655549782
20
30.4995501889756
30
0
41
1
10
-49.5906351317007
20
30.510030280207
30
0
41
1
10
-49.5921127560824
20
30.5199078429214
30
0
41
1
10
-49.5958301896483
20
30.5385033474053
30
0
41
1
10
-49.5980733242939
20
30.5472325987984
30
0
41
1
10
-49.6058113909971
20
30.5717014639753
30
0
41
1
10
-49.6122375394779
20
30.5855321487869
30
0
41
1
10
-49.6267759139587
20
30.609288989262
30
0
41
1
10
-49.634886687367
20
30.619215523265
30
0
41
1
10
-49.65210942919
20
30.6359601335406
30
0
41
1
10
-49.6612223440854
20
30.642776372556
30
0
41
1
10
-49.6799383635281
20
30.653855855274
30
0
41
1
10
-49.689542877774
20
30.6581170912418
30
0
41
1
10
-49.7040333535638
20
30.6628783121558
30
0
41
1
10
-49.7088808008064
20
30.6641925247824
30
0
41
1
10
-49.7185317603698
20
30.6663048905636
30
0
41
1
10
-49.7233395104552
20
30.6671046788121
30
0
41
1
10
-49.747211496648
20
30.6699145816138
30
0
41
1
10
-49.7657469243847
20
30.6684012656593
30
0
41
1
10
-49.8002576291982
20
30.659373379087
30
0
41
1
10
-49.8162471080165
20
30.6518383513143
30
0
41
1
10
-49.8447041144178
20
30.6315404010519
30
0
41
1
10
-49.8571777745759
20
30.6187686284921
30
0
41
1
10
-49.8777805829282
20
30.5885037368819
30
0
41
1
10
-49.8859126594732
20
30.57100594764
30
0
41
1
10
-49.8942491836921
20
30.5415330190178
30
0
41
1
10
-49.8963843388715
20
30.5311706963509
30
0
41
1
10
-49.8992629101628
20
30.5094241876666
30
0
41
1
10
-49.9000000000001
20
30.4980716034621
30
0
41
1
10
-49.9000000000001
20
30.486325550098
30
0
0
SPLINE
5
193
100
AcDbEntity
8
SK1
62
256
6
ByLayer
370
18
48
1
60
0
100
AcDbSpline
70
4
71
3
72
34
73
30
40
0
40
0
40
0
40
0
40
0.0312500000000007
40
0.0312500000000007
40
0.0625000000000014
40
0.0625000000000014
40
0.125000000000003
40
0.125000000000003
40
0.187500000000005
40
0.187500000000005
40
0.250000000000007
40
0.250000000000007
40
0.312500000000009
40
0.312500000000009
40
0.343750000000007
40
0.343750000000007
40
0.375000000000005
40
0.375000000000005
40
0.500000000000004
40
0.500000000000004
40
0.625000000000003
40
0.625000000000003
40
0.750000000000001
40
0.750000000000001
40
0.875
40
0.875
40
0.9375
40
0.9375
40
1
40
1
40
1
40
1
41
1
10
-49.5895655549782
20
-30.4995501889757
30
0
41
1
10
-49.590635128866
20
-30.5100302524322
30
0
41
1
10
-49.5921127463331
20
-30.5199077725872
30
0
41
1
10
-49.5958301509183
20
-30.5385031752347
30
0
41
1
10
-49.5980732281669
20
-30.5472322605517
30
0
41
1
10
-49.6058113389978
20
-30.5717013681046
30
0
41
1
10
-49.6122375259955
20
-30.5855321316441
30
0
41
1
10
-49.6267759592584
20
-30.6092890583971
30
0
41
1
10
-49.6348867534571
20
-30.6192155991345
30
0
41
1
10
-49.6521095088273
20
-30.635960199353
30
0
41
1
10
-49.6612224168293
20
-30.6427764210179
30
0
41
1
10
-49.6799383965105
20
-30.6538558694
30
0
41
1
10
-49.6895428780525
20
-30.6581170880887
30
0
41
1
10
-49.7040332900463
20
-30.662878292908
30
0
41
1
10
-49.7088807488955
20
-30.6641925125833
30
0
41
1
10
-49.7185317643562
20
-30.6663048922734
30
0
41
1
10
-49.7233395403919
20
-30.6671046840937
30
0
41
1
10
-49.7472116456447
20
-30.6699145921211
30
0
41
1
10
-49.7657471332943
20
-30.66840124174
30
0
41
1
10
-49.8002578924657
20
-30.6593732794862
30
0
41
1
10
-49.8162473661745
20
-30.6518382094738
30
0
41
1
10
-49.8447043216352
20
-30.6315402109467
30
0
41
1
10
-49.8571779360089
20
-30.6187684321095
30
0
41
1
10
-49.877780648273
20
-30.5885036001347
30
0
41
1
10
-49.8859126744471
20
-30.5710058767978
30
0
41
1
10
-49.8942491563155
20
-30.5415331247567
30
0
41
1
10
-49.8963843030189
20
-30.5311708738666
30
0
41
1
10
-49.8992628761555
20
-30.5094245379123
30
0
41
1
10
-49.9
20
-30.4980717145813
30
0
41
1
10
-49.9
20
-30.4863255500981
30
0
0
SPLINE
5
194
100
AcDbEntity
8
SK1
62
256
6
ByLayer
370
18
48
1
60
0
100
AcDbSpline
70
4
71
3
72
70
73
66
40
0
40
0
40
0
40
0
40
0.124999999999989
40
0.124999999999989
40
0.187499999999985
40
0.187499999999985
40
0.24999999999998
40
0.24999999999998
40
0.312499999999976
40
0.312499999999976
40
0.343749999999974
40
0.343749999999974
40
0.374999999999972
40
0.374999999999972
40
0.40624999999997
40
0.40624999999997
40
0.421874999999969
40
0.421874999999969
40
0.437499999999968
40
0.437499999999968
40
0.453124999999967
40
0.453124999999967
40
0.468749999999966
40
0.468749999999966
40
0.484374999999965
40
0.484374999999965
40
0.492187499999961
40
0.492187499999961
40
0.49609374999996
40
0.49609374999996
40
0.499999999999958
40
0.499999999999958
40
0.507812499999952
40
0.507812499999952
40
0.511718749999952
40
0.511718749999952
40
0.515624999999952
40
0.515624999999952
40
0.523437499999952
40
0.523437499999952
40
0.531249999999953
40
0.531249999999953
40
0.539062499999953
40
0.539062499999953
40
0.546874999999953
40
0.546874999999953
40
0.562499999999954
40
0.562499999999954
40
0.578124999999955
40
0.578124999999955
40
0.593749999999956
40
0.593749999999956
40
0.624999999999958
40
0.624999999999958
40
0.656249999999961
40
0.656249999999961
40
0.687499999999963
40
0.687499999999963
40
0.749999999999971
40
0.749999999999971
40
0.812499999999978
40
0.812499999999978
40
0.874999999999986
40
0.874999999999986
40
1
40
1
40
1
40
1
41
1
10
-48.9697166806892
20
-31.051839579978
30
0
41
1
10
-48.9785920072054
20
-30.9827745518778
30
0
41
1
10
-48.9897988429113
20
-30.9117001184866
30
0
41
1
10
-49.0109647633667
20
-30.8017584669498
30
0
41
1
10
-49.018752765391
20
-30.7645416601613
30
0
41
1
10
-49.0360874261683
20
-30.6887408851895
30
0
41
1
10
-49.0456289023846
20
-30.6501609458562
30
0
41
1
10
-49.0669675034832
20
-30.5712475494472
30
0
41
1
10
-49.0787629361652
20
-30.5308934418214
30
0
41
1
10
-49.0987562930165
20
-30.4688294272677
30
0
41
1
10
-49.1058105146937
20
-30.4478732539891
30
0
41
1
10
-49.1209098209548
20
-30.4052791757413
30
0
41
1
10
-49.1289512012184
20
-30.3836438194118
30
0
41
1
10
-49.1463779452356
20
-30.3394484216825
30
0
41
1
10
-49.1557499117386
20
-30.3169102508101
30
0
41
1
10
-49.1712062282391
20
-30.2823125423261
30
0
41
1
10
-49.1765967098923
20
-30.270639828982
30
0
41
1
10
-49.187997429399
20
-30.2469300411002
30
0
41
1
10
-49.1940016588574
20
-30.2349054963983
30
0
41
1
10
-49.2067373070769
20
-30.2105832680141
30
0
41
1
10
-49.2134742645568
20
-30.1982668746687
30
0
41
1
10
-49.2280264993186
20
-30.1731804834021
30
0
41
1
10
-49.2358273164295
20
-30.1604165682773
30
0
41
1
10
-49.2532197444649
20
-30.1341354250804
30
0
41
1
10
-49.2626054593647
20
-30.1209142770372
30
0
41
1
10
-49.278375252735
20
-30.1011170203335
30
0
41
1
10
-49.2839152326934
20
-30.0945400212559
30
0
41
1
10
-49.2924720071773
20
-30.0850799204047
30
0
41
1
10
-49.295376635661
20
-30.0819802199017
30
0
41
1
10
-49.3013049674433
20
-30.07590284072
30
0
41
1
10
-49.3043370960416
20
-30.0729194623555
30
0
41
1
10
-49.3133471331076
20
-30.0644412999453
30
0
41
1
10
-49.319326158545
20
-30.0593250574942
30
0
41
1
10
-49.3282527570283
20
-30.0524630297553
30
0
41
1
10
-49.3312153507712
20
-30.0503179942726
30
0
41
1
10
-49.3369592386173
20
-30.0464039042838
30
0
41
1
10
-49.3397632724002
20
-30.0446168883957
30
0
41
1
10
-49.3479935042783
20
-30.0397111939901
30
0
41
1
10
-49.353250201828
20
-30.0370484824603
30
0
41
1
10
-49.363029831547
20
-30.0328279696566
30
0
41
1
10
-49.3676116126621
20
-30.0312334148453
30
0
41
1
10
-49.3763182059843
20
-30.0288093499522
30
0
41
1
10
-49.3804580471837
20
-30.0279815778646
30
0
41
1
10
-49.3882378147308
20
-30.0269399205925
30
0
41
1
10
-49.3918959362056
20
-30.0267193374018
30
0
41
1
10
-49.4023455028561
20
-30.0267374574299
30
0
41
1
10
-49.4086206278607
20
-30.0276450476097
30
0
41
1
10
-49.4202799499303
20
-30.0306144150719
30
0
41
1
10
-49.4256604855126
20
-30.0326871954358
30
0
41
1
10
-49.4357579429469
20
-30.0376666472005
30
0
41
1
10
-49.4404341462281
20
-30.0405548764118
30
0
41
1
10
-49.4536465627312
20
-30.0500926742598
30
0
41
1
10
-49.4613809145856
20
-30.0576000217039
30
0
41
1
10
-49.4755165521725
20
-30.0740407434774
30
0
41
1
10
-49.4819043194364
20
-30.0829885789797
30
0
41
1
10
-49.4937222729306
20
-30.1019086074983
30
0
41
1
10
-49.4991481547125
20
-30.1118854051319
30
0
41
1
10
-49.514326543323
20
-30.1429917109392
30
0
41
1
10
-49.5230060395861
20
-30.1653087850472
30
0
41
1
10
-49.5384114740619
20
-30.2117943224838
30
0
41
1
10
-49.5451285655854
20
-30.2359789659316
30
0
41
1
10
-49.5571407002954
20
-30.2857071777953
30
0
41
1
10
-49.5624299764209
20
-30.3112562572779
30
0
41
1
10
-49.5766217121048
20
-30.3895051882631
30
0
41
1
10
-49.5838739667782
20
-30.4437819936305
30
0
41
1
10
-49.589565554979
20
-30.499550188975
30
0
0
SPLINE
5
195
100
AcDbEntity
8
SK1
62
256
6
ByLayer
370
18
48
1
60
0
100
AcDbSpline
70
4
71
3
72
24
73
20
40
0
40
0
40
0
40
0
40
0.250000000000001
40
0.250000000000001
40
0.375000000000002
40
0.375000000000002
40
0.500000000000003
40
0.500000000000003
40
0.625000000000003
40
0.625000000000003
40
0.750000000000004
40
0.750000000000004
40
0.875000000000005
40
0.875000000000005
40
0.906250000000003
40
0.906250000000003
40
0.937500000000001
40
0.937500000000001
40
1
40
1
40
1
40
1
41
1
10
-48.25
20
-32.2214193285102
30
0
41
1
10
-48.3271926111222
20
-32.1386292038047
30
0
41
1
10
-48.4027254550249
20
-32.0509309488243
30
0
41
1
10
-48.5122536734003
20
-31.9125479314377
30
0
41
1
10
-48.5481266401182
20
-31.8652831022076
30
0
41
1
10
-48.618201788153
20
-31.7686438086852
30
0
41
1
10
-48.6524093294458
20
-31.7192662685852
30
0
41
1
10
-48.7185086625097
20
-31.6186890095605
30
0
41
1
10
-48.7504115090574
20
-31.5674830406985
30
0
41
1
10
-48.8107717948452
20
-31.4637946573968
30
0
41
1
10
-48.8392507208948
20
-31.4113006072307
30
0
41
1
10
-48.8906789766632
20
-31.3061007614429
30
0
41
1
10
-48.9136547790546
20
-31.2533832647303
30
0
41
1
10
-48.9365349150508
20
-31.1885898499224
30
0
41
1
10
-48.9408137478882
20
-31.1756889350705
30
0
41
1
10
-48.9486963493385
20
-31.150043413723
30
0
41
1
10
-48.9523012357624
20
-31.1372877467467
30
0
41
1
10
-48.961899115855
20
-31.0996482574302
30
0
41
1
10
-48.9667024377093
20
-31.0752954805269
30
0
41
1
10
-48.9697166806892
20
-31.051839579978
30
0
0
SPLINE
5
196
100
AcDbEntity
8
SK1
62
256
6
ByLayer
370
18
48
1
60
0
100
AcDbSpline
70
4
71
3
72
8
73
4
40
0
40
0
40
0
40
0
40
1
40
1
40
1
40
1
41
1
10
-48.2500000000025
20
-32.2214193285102
30
0
41
1
10
-48.1701858378083
20
-32.2200218675636
30
0
41
1
10
-48.0872671766727
20
-32.2186394162916
30
0
41
1
10
-48.0000748840348
20
-32.2180191381092
30
0
0
SPLINE
5
197
100
AcDbEntity
8
SK1
62
256
6
ByLayer
370
18
48
1
60
0
100
AcDbSpline
70
4
71
3
72
100
73
96
40
0
40
0
40
0
40
0
40
0.0238846657704477
40
0.0238846657704477
40
0.0551300797192873
40
0.0551300797192873
40
0.0707527866937071
40
0.0707527866937071
40
0.0785641401809169
40
0.0785641401809169
40
0.0863754936681268
40
0.0863754936681268
40
0.117620907616967
40
0.117620907616967
40
0.148866321565806
40
0.148866321565806
40
0.164489028540226
40
0.164489028540226
40
0.172300382027436
40
0.172300382027436
40
0.180111735514646
40
0.180111735514646
40
0.211357149463485
40
0.211357149463485
40
0.242602563412325
40
0.242602563412325
40
0.258225270386744
40
0.258225270386744
40
0.266036623873954
40
0.266036623873954
40
0.273847977361164
40
0.273847977361164
40
0.305093391310003
40
0.305093391310003
40
0.336338805258842
40
0.367584219207681
40
0.367584219207681
40
0.375395572694891
40
0.375395572694891
40
0.383206926182101
40
0.39882963315652
40
0.39882963315652
40
0.430075047105358
40
0.461320461054197
40
0.461320461054197
40
0.476943168028617
40
0.476943168028617
40
0.484754521515826
40
0.484754521515826
40
0.492565875003036
40
0.492565875003036
40
0.523811288951875
40
0.523811288951875
40
0.555056702900715
40
0.555056702900715
40
0.586302116849553
40
0.586302116849553
40
0.601924823823973
40
0.601924823823973
40
0.609736177311183
40
0.609736177311183
40
0.617547530798392
40
0.617547530798392
40
0.64879294474723
40
0.680038358696069
40
0.680038358696069
40
0.711283772644907
40
0.711283772644907
40
0.719095126132117
40
0.719095126132117
40
0.726906479619327
40
0.726906479619327
40
0.742529186593746
40
0.742529186593746
40
0.773774600542585
40
0.773774600542585
40
0.805020014491423
40
0.805020014491423
40
0.836265428440262
40
0.836265428440262
40
0.844076781927472
40
0.844076781927472
40
0.851888135414681
40
0.8675108423891
40
0.8675108423891
40
0.898756256337938
40
0.898756256337938
40
0.930001670286776
40
0.930001670286776
40
0.945624377261195
40
0.945624377261195
40
0.961247084235614
40
0.961247084235614
40
0.992492498184452
40
1
40
1
40
1
40
1
41
1
10
-7.81434278991723
20
37.6160019142287
30
0
41
1
10
-7.81433166005561
20
37.6160035144742
30
0
41
1
10
-7.82145260391529
20
37.6145614268017
30
0
41
1
10
-7.85398639016557
20
37.6079890454921
30
0
41
1
10
-7.88436169025053
20
37.6018587592899
30
0
41
1
10
-7.9478626297211
20
37.5891496233603
30
0
41
1
10
-7.97202496076235
20
37.584327300096
30
0
41
1
10
-8.01281842288566
20
37.5762238920478
30
0
41
1
10
-8.02719804135737
20
37.5733731876624
30
0
41
1
10
-8.05736797740434
20
37.5674069302578
30
0
41
1
10
-8.07314358608417
20
37.5642942690055
30
0
41
1
10
-8.15541671604804
20
37.5481048669995
30
0
41
1
10
-8.23207017172504
20
37.5331528904395
30
0
41
1
10
-8.40605338627101
20
37.4997459648323
30
0
41
1
10
-8.50338630322294
20
37.4812899916831
30
0
41
1
10
-8.66466593997006
20
37.4513060997541
30
0
41
1
10
-8.72097755367534
20
37.4409277790794
30
0
41
1
10
-8.80928859004135
20
37.424823312953
30
0
41
1
10
-8.83940017626215
20
37.4193596305243
30
0
41
1
10
-8.90059668695476
20
37.4083161368078
30
0
41
1
10
-8.93170940381957
20
37.4027311980643
30
0
41
1
10
-9.08980160651234
20
37.3745138275953
30
0
41
1
10
-9.22434516049198
20
37.3510060707369
30
0
41
1
10
-9.50882133136049
20
37.3026700550151
30
0
41
1
10
-9.65875653237987
20
37.2778407127451
30
0
41
1
10
-9.89502074972738
20
37.2399778514852
30
0
41
1
10
-9.97567274087328
20
37.2272534703191
30
0
41
1
10
-10.0995062223642
20
37.2080566596274
30
0
41
1
10
-10.141267832343
20
37.2016381782455
30
0
41
1
10
-10.2257164832329
20
37.1887766252454
30
0
41
1
10
-10.268263380102
20
37.1823548873661
30
0
41
1
10
-10.4825863455032
20
37.1503091954741
30
0
41
1
10
-10.6591151028225
20
37.1248758638604
30
0
41
1
10
-11.0219043219779
20
37.0748416966607
30
0
41
1
10
-11.3944280795168
20
37.0256391598448
30
0
41
1
10
-11.7861963197059
20
36.9788917937938
30
0
41
1
10
-12.0371658958116
20
36.9506844708766
30
0
41
1
10
-12.0877271193422
20
36.9450869320612
30
0
41
1
10
-12.1890952403971
20
36.9340392369721
30
0
41
1
10
-12.3415246943459
20
36.9176869799982
30
0
41
1
10
-12.495072902259
20
36.9020073941175
30
0
41
1
10
-12.8036374861119
20
36.8715829912882
30
0
41
1
10
-13.2189658117113
20
36.833510598003
30
0
41
1
10
-13.642018801178
20
36.8008098290912
30
0
41
1
10
-13.9622438041629
20
36.7784385960326
30
0
41
1
10
-14.0694754356938
20
36.7713405480661
30
0
41
1
10
-14.2310696927793
20
36.761249480338
30
0
41
1
10
-14.2850589639675
20
36.7579784591991
30
0
41
1
10
-14.3932891502435
20
36.7516246805944
30
0
41
1
10
-14.4475729623614
20
36.7485397853308
30
0
41
1
10
-14.7183259174543
20
36.7336627263858
30
0
41
1
10
-14.9337134652921
20
36.7234563940047
30
0
41
1
10
-15.3621199571432
20
36.7063373984835
30
0
41
1
10
-15.5751387632466
20
36.6994248914492
30
0
41
1
10
-15.9988028791435
20
36.6887973896278
30
0
41
1
10
-16.2094483431879
20
36.6850825376171
30
0
41
1
10
-16.523583770087
20
36.6818333037753
30
0
41
1
10
-16.6279895922839
20
36.6811373560974
30
0
41
1
10
-16.7841276018174
20
36.6806641778682
30
0
41
1
10
-16.8361578298839
20
36.6806016501545
30
0
41
1
10
-16.939740627904
20
36.6806647564302
30
0
41
1
10
-16.9912457215227
20
36.6807900862659
30
0
41
1
10
-17.2473507007046
20
36.6818701855072
30
0
41
1
10
-17.6480469082921
20
36.6864983624037
30
0
41
1
10
-18.0308478261488
20
36.6961681828052
30
0
41
1
10
-18.4045781572909
20
36.7079892290944
30
0
41
1
10
-18.586909326751
20
36.7149758964626
30
0
41
1
10
-18.8089119312429
20
36.7248201453047
30
0
41
1
10
-18.8530161673033
20
36.7268445060811
30
0
41
1
10
-18.9406229554332
20
36.7309982170252
30
0
41
1
10
-18.9841526281097
20
36.7331289394498
30
0
41
1
10
-19.1136492728623
20
36.7396605784225
30
0
41
1
10
-19.1980051024613
20
36.7441742643364
30
0
41
1
10
-19.4452185588362
20
36.7580919956344
30
0
41
1
10
-19.6022364149495
20
36.7678719858305
30
0
41
1
10
-19.9007220590616
20
36.7879222101687
30
0
41
1
10
-20.0421909145451
20
36.7981932526885
30
0
41
1
10
-20.309140922944
20
36.8187283621882
30
0
41
1
10
-20.4346258242081
20
36.8289932916957
30
0
41
1
10
-20.5808803797061
20
36.8415026446233
30
0
41
1
10
-20.609629024321
20
36.8439909982552
30
0
41
1
10
-20.6657008478369
20
36.8488969874556
30
0
41
1
10
-20.7477877772849
20
36.8561600354919
30
0
41
1
10
-20.8238605098264
20
36.8631042785771
30
0
41
1
10
-20.9680482129712
20
36.8764897079226
30
0
41
1
10
-21.0535834604935
20
36.8847417938078
30
0
41
1
10
-21.2033054236258
20
36.8995133540455
30
0
41
1
10
-21.2674946623101
20
36.9060334534641
30
0
41
1
10
-21.3471276490649
20
36.9142365164306
30
0
41
1
10
-21.3708912689803
20
36.9167081068455
30
0
41
1
10
-21.4126754407559
20
36.9210795741509
30
0
41
1
10
-21.4304990313832
20
36.9229587401183
30
0
41
1
10
-21.4748674579968
20
36.9276541815562
30
0
41
1
10
-21.4965762357783
20
36.9299821243566
30
0
41
1
10
-21.5000227165701
20
36.9303498538225
30
0
41
1
10
-21.5000026474569
20
36.9303474862291
30
0
0
SPLINE
5
198
100
AcDbEntity
8
SK1
62
256
6
ByLayer
370
18
48
1
60
0
100
AcDbSpline
70
4
71
3
72
104
73
100
40
0
40
0
40
0
40
0
40
0.0214340325325456
40
0.0214340325325456
40
0.0292417815539787
40
0.0292417815539787
40
0.0370495305754117
40
0.0370495305754117
40
0.0526650286182778
40
0.0526650286182778
40
0.0838960247040099
40
0.0838960247040099
40
0.115127020789742
40
0.115127020789742
40
0.122934769811175
40
0.122934769811175
40
0.130742518832608
40
0.130742518832608
40
0.146358016875474
40
0.146358016875474
40
0.177589012961205
40
0.177589012961205
40
0.208820009046937
40
0.208820009046937
40
0.224435507089803
40
0.224435507089803
40
0.232243256111236
40
0.232243256111236
40
0.240051005132669
40
0.240051005132669
40
0.271282001218401
40
0.271282001218401
40
0.302512997304134
40
0.302512997304134
40
0.318128495347
40
0.318128495347
40
0.325936244368432
40
0.325936244368432
40
0.333743993389865
40
0.333743993389865
40
0.364974989475597
40
0.364974989475597
40
0.396205985561328
40
0.42743698164706
40
0.42743698164706
40
0.435244730668492
40
0.435244730668492
40
0.443052479689925
40
0.443052479689925
40
0.458667977732791
40
0.458667977732791
40
0.489898973818522
40
0.521129969904254
40
0.521129969904254
40
0.552360965989985
40
0.552360965989985
40
0.567976464032851
40
0.567976464032851
40
0.583591962075717
40
0.583591962075717
40
0.614822958161448
40
0.614822958161448
40
0.646053954247179
40
0.646053954247179
40
0.661669452290044
40
0.661669452290044
40
0.669477201311477
40
0.669477201311477
40
0.67728495033291
40
0.67728495033291
40
0.70851594641864
40
0.73974694250437
40
0.73974694250437
40
0.7709779385901
40
0.7709779385901
40
0.786593436632965
40
0.786593436632965
40
0.794401185654397
40
0.794401185654397
40
0.802208934675829
40
0.802208934675829
40
0.83343993076156
40
0.83343993076156
40
0.864670926847291
40
0.864670926847291
40
0.895901922933021
40
0.895901922933021
40
0.903709671954454
40
0.903709671954454
40
0.911517420975886
40
0.927132919018752
40
0.927132919018752
40
0.958363915104483
40
0.958363915104483
40
0.989594911190214
40
0.989594911190214
40
0.997402660211646
40
0.997402660211646
40
1
40
1
40
1
40
1
41
1
10
-21.500004136823
20
-36.9303474626995
30
0
41
1
10
-21.4999610053509
20
-36.9303423075651
30
0
41
1
10
-21.4943059782018
20
-36.929736987753
30
0
41
1
10
-21.4788146901815
20
-36.9280844022563
30
0
41
1
10
-21.4739201863398
20
-36.9275628229828
30
0
41
1
10
-21.4625984188041
20
-36.9263587882752
30
0
41
1
10
-21.456159678233
20
-36.9256751175436
30
0
41
1
10
-21.4346038918093
20
-36.9233921087882
30
0
41
1
10
-21.4172853236873
20
-36.9215646027249
30
0
41
1
10
-21.3567175465797
20
-36.9152207223246
30
0
41
1
10
-21.3048787016907
20
-36.9098423275229
30
0
41
1
10
-21.1789309579673
20
-36.8970925582696
30
0
41
1
10
-21.1048206678252
20
-36.8897206477529
30
0
41
1
10
-20.9982266626119
20
-36.8794674924612
30
0
41
1
10
-20.9762083560189
20
-36.877365038639
30
0
41
1
10
-20.9307649649809
20
-36.8730620891702
30
0
41
1
10
-20.9073116441753
20
-36.8708589697204
30
0
41
1
10
-20.8350267778472
20
-36.8641299500312
30
0
41
1
10
-20.7844346280646
20
-36.8594994391821
30
0
41
1
10
-20.6256720613504
20
-36.8452686128388
30
0
41
1
10
-20.5105338999628
20
-36.8353289800472
30
0
41
1
10
-20.2623510498034
20
-36.8150389241277
30
0
41
1
10
-20.1293043334719
20
-36.8046876711257
30
0
41
1
10
-19.91638920189
20
-36.7892298094071
30
0
41
1
10
-19.8431890827454
20
-36.7840888488859
30
0
41
1
10
-19.730018892489
20
-36.7764444530324
30
0
41
1
10
-19.6918185387117
20
-36.7739133512502
30
0
41
1
10
-19.6146633567857
20
-36.7689052849555
30
0
41
1
10
-19.5756796286263
20
-36.7664263623772
30
0
41
1
10
-19.3787599051635
20
-36.7541757720302
30
0
41
1
10
-19.2148365238776
20
-36.744836639178
30
0
41
1
10
-18.8747060959729
20
-36.7275433503458
30
0
41
1
10
-18.6984974556378
20
-36.7195884919542
30
0
41
1
10
-18.4250584232746
20
-36.7090407437918
30
0
41
1
10
-18.3323883185654
20
-36.7057556503408
30
0
41
1
10
-18.191084045122
20
-36.7012188650766
30
0
41
1
10
-18.1435992640363
20
-36.6997717581898
30
0
41
1
10
-18.0478586633436
20
-36.6970154697969
30
0
41
1
10
-17.999653619819
20
-36.6957079602148
30
0
41
1
10
-17.7578685588756
20
-36.6895608632595
30
0
41
1
10
-17.5611877471659
20
-36.6858688417225
30
0
41
1
10
-17.1615918134346
20
-36.6812078751488
30
0
41
1
10
-16.7557600995883
20
-36.6792706883382
30
0
41
1
10
-16.337639291229
20
-36.6833084047731
30
0
41
1
10
-16.0724270604448
20
-36.6878676419242
30
0
41
1
10
-16.0191898703303
20
-36.6888812978831
30
0
41
1
10
-15.9123231813235
20
-36.6911165651665
30
0
41
1
10
-15.8587245631855
20
-36.6923378179717
30
0
41
1
10
-15.6981171897024
20
-36.6962984120905
30
0
41
1
10
-15.5910468347989
20
-36.6993396267423
30
0
41
1
10
-15.2698405249356
20
-36.7096640573479
30
0
41
1
10
-14.8415784063018
20
-36.7266323994577
30
0
41
1
10
-14.4133472399135
20
-36.7499812987965
30
0
41
1
10
-13.9851301278561
20
-36.77650436602
30
0
41
1
10
-13.77102861071
20
-36.7913529689849
30
0
41
1
10
-13.4498827823393
20
-36.8159916819972
30
0
41
1
10
-13.3435218403948
20
-36.8245465128171
30
0
41
1
10
-13.1324691999272
20
-36.8422802842674
30
0
41
1
10
-13.0277242446182
20
-36.8514633165786
30
0
41
1
10
-12.7158020909691
20
-36.8799092160374
30
0
41
1
10
-12.5109326313958
20
-36.9000690563235
30
0
41
1
10
-12.1073058848507
20
-36.9425045735183
30
0
41
1
10
-11.9085482732514
20
-36.9647806292254
30
0
41
1
10
-11.6150846181188
20
-36.9995676956445
30
0
41
1
10
-11.5180434948078
20
-37.0113921032897
30
0
41
1
10
-11.3736757629307
20
-37.0294435408716
30
0
41
1
10
-11.3257522711256
20
-37.0355131453339
30
0
41
1
10
-11.2303086104432
20
-37.047752391391
30
0
41
1
10
-11.1827930088945
20
-37.0539217032554
30
0
41
1
10
-10.947483899805
20
-37.0848401707009
30
0
41
1
10
-10.5834454180355
20
-37.1350219327149
30
0
41
1
10
-10.2439178705042
20
-37.1857536590411
30
0
41
1
10
-9.91680582136412
20
-37.2363058560044
30
0
41
1
10
-9.7594556403358
20
-37.261493092313
30
0
41
1
10
-9.53315123438242
20
-37.2987717627024
30
0
41
1
10
-9.45933976558801
20
-37.3111139183836
30
0
41
1
10
-9.35114147531012
20
-37.3294504599706
30
0
41
1
10
-9.31544598229635
20
-37.3355417155964
30
0
41
1
10
-9.24528651889085
20
-37.3475917734859
30
0
41
1
10
-9.21079474785212
20
-37.3535551599553
30
0
41
1
10
-9.04126021025348
20
-37.3830467128493
30
0
41
1
10
-8.91496798581709
20
-37.4055997258587
30
0
41
1
10
-8.68102049697195
20
-37.4481731269532
30
0
41
1
10
-8.57336408604834
20
-37.4681944204207
30
0
41
1
10
-8.37723597964056
20
-37.5052140736219
30
0
41
1
10
-8.28875977321565
20
-37.5222136809379
30
0
41
1
10
-8.19090987217122
20
-37.5412230011621
30
0
41
1
10
-8.17197900693107
20
-37.5449126248416
30
0
41
1
10
-8.13542173547236
20
-37.5520576280708
30
0
41
1
10
-8.0828343665674
20
-37.5623670168447
30
0
41
1
10
-8.03692789472021
20
-37.5714414484335
30
0
41
1
10
-7.95392293194833
20
-37.5879127414501
30
0
41
1
10
-7.91030798153002
20
-37.5966581461133
30
0
41
1
10
-7.84653768425606
20
-37.6094845934289
30
0
41
1
10
-7.82638053715206
20
-37.6135660976588
30
0
41
1
10
-7.81631631923312
20
-37.6156028036189
30
0
41
1
10
-7.81506199719574
20
-37.6158567492838
30
0
41
1
10
-7.81441442573748
20
-37.6159878489147
30
0
41
1
10
-7.81433787475646
20
-37.6160033452825
30
0
41
1
10
-7.81434678361769
20
-37.6160015407417
30
0
0
SPLINE
5
199
100
AcDbEntity
8
SK1
62
256
6
ByLayer
370
18
48
1
60
0
100
AcDbSpline
70
4
71
3
72
54
73
50
40
0
40
0
40
0
40
0
40
0.0312500000000035
40
0.0312500000000035
40
0.0625000000000071
40
0.0625000000000071
40
0.125000000000013
40
0.125000000000013
40
0.250000000000024
40
0.250000000000024
40
0.375000000000035
40
0.375000000000035
40
0.406250000000037
40
0.406250000000037
40
0.437500000000038
40
0.50000000000004
40
0.50000000000004
40
0.625000000000048
40
0.625000000000048
40
0.687500000000053
40
0.687500000000053
40
0.750000000000058
40
0.750000000000058
40
0.781250000000059
40
0.781250000000059
40
0.81250000000006
40
0.81250000000006
40
0.843750000000061
40
0.843750000000061
40
0.875000000000063
40
0.875000000000063
40
0.906250000000064
40
0.906250000000064
40
0.914062500000063
40
0.914062500000063
40
0.921875000000062
40
0.921875000000062
40
0.937500000000055
40
0.937500000000055
40
0.945312500000049
40
0.945312500000049
40
0.953125000000044
40
0.953125000000044
40
0.968750000000032
40
0.976562500000024
40
0.976562500000024
40
0.984375000000016
40
0.984375000000016
40
1
40
1
40
1
40
1
41
1
10
-39.8
20
33.7318671810039
30
0
41
1
10
-39.7999999999999
20
33.7145710701311
30
0
41
1
10
-39.8008000946281
20
33.6971565007765
30
0
41
1
10
-39.8039168623024
20
33.6621962213471
30
0
41
1
10
-39.8062335132834
20
33.6446342134734
30
0
41
1
10
-39.8153484367684
20
33.5917053852178
30
0
41
1
10
-39.8243080567448
20
33.5560957915865
30
0
41
1
10
-39.8591124485095
20
33.4483170327042
30
0
41
1
10
-39.8928472522366
20
33.3751982231631
30
0
41
1
10
-39.9786760357966
20
33.2265304775473
30
0
41
1
10
-40.0307804205494
20
33.1509812446763
30
0
41
1
10
-40.1063660693582
20
33.0550850028676
30
0
41
1
10
-40.1219937947637
20
33.035852199307
30
0
41
1
10
-40.1541498540921
20
32.9973928162119
30
0
41
1
10
-40.2037751165397
20
32.9396636457768
30
0
41
1
10
-40.2574425199022
20
32.8818159360059
30
0
41
1
10
-40.3699446706122
20
32.7659816807454
30
0
41
1
10
-40.4517476783099
20
32.688560134193
30
0
41
1
10
-40.5849329745246
20
32.572369990688
30
0
41
1
10
-40.6310900751579
20
32.5336324584858
30
0
41
1
10
-40.7273802545145
20
32.456248481954
30
0
41
1
10
-40.7774939797117
20
32.4175986160054
30
0
41
1
10
-40.8564695396308
20
32.3598547383015
30
0
41
1
10
-40.88345848061
20
32.3406304247495
30
0
41
1
10
-40.9388920650189
20
32.3023874881928
30
0
41
1
10
-40.9672925131056
20
32.2833959934678
30
0
41
1
10
-41.0258361258168
20
32.245788614309
30
0
41
1
10
-41.0559730128129
20
32.2271708721062
30
0
41
1
10
-41.1186305548424
20
32.1905053329399
30
0
41
1
10
-41.1510308179744
20
32.1725200428503
30
0
41
1
10
-41.2188385127876
20
32.1377315395356
30
0
41
1
10
-41.2542332468957
20
32.1209048401273
30
0
41
1
10
-41.3015842990544
20
32.1011135781885
30
0
41
1
10
-41.3112139355684
20
32.097219144498
30
0
41
1
10
-41.3308439340923
20
32.0895800189203
30
0
41
1
10
-41.3408651858732
20
32.0858280947414
30
0
41
1
10
-41.3713588597964
20
32.0749170218882
30
0
41
1
10
-41.3922831904341
20
32.0680860715368
30
0
41
1
10
-41.4248486397641
20
32.0587260689411
30
0
41
1
10
-41.4359013558928
20
32.0557546283677
30
0
41
1
10
-41.4584661089438
20
32.0501584370334
30
0
41
1
10
-41.4700314002366
20
32.0475237786972
30
0
41
1
10
-41.5049753605481
20
32.0403392906633
30
0
41
1
10
-41.5405101097732
20
32.0345573260281
30
0
41
1
10
-41.5770691708598
20
32.031213916461
30
0
41
1
10
-41.6016844245104
20
32.0295626507329
30
0
41
1
10
-41.6141876951168
20
32.0290255903479
30
0
41
1
10
-41.6514384574835
20
32.0283362059759
30
0
41
1
10
-41.6758884507612
20
32.0290885535356
30
0
41
1
10
-41.7000000000014
20
32.0309069691633
30
0
0
SPLINE
5
19A
100
AcDbEntity
8
SK1
62
256
6
ByLayer
370
18
48
1
60
0
100
AcDbSpline
70
4
71
3
72
20
73
16
40
0
40
0
40
0
40
0
40
0.0625000000000004
40
0.0625000000000004
40
0.125000000000001
40
0.125000000000001
40
0.250000000000002
40
0.250000000000002
40
0.375000000000002
40
0.375000000000002
40
0.500000000000003
40
0.500000000000003
40
0.750000000000002
40
0.750000000000002
40
1
40
1
40
1
40
1
41
1
10
-41.7
20
32.0309069691676
30
0
41
1
10
-41.8292303865967
20
32.0406531099989
30
0
41
1
10
-41.9587402151836
20
32.0495880288662
30
0
41
1
10
-42.2181916807764
20
32.0662053277564
30
0
41
1
10
-42.3481340998353
20
32.0738854313833
30
0
41
1
10
-42.7384836861428
20
32.0954119185672
30
0
41
1
10
-42.9994066846657
20
32.1077633929635
30
0
41
1
10
-43.5222154791105
20
32.1296814395211
30
0
41
1
10
-43.7841056976777
20
32.1392351380778
30
0
41
1
10
-44.3086156108632
20
32.1562368503895
30
0
41
1
10
-44.5712371095368
20
32.1636796127771
30
0
41
1
10
-45.3599684301978
20
32.183511338927
30
0
41
1
10
-45.8869332192805
20
32.1934382596067
30
0
41
1
10
-46.9424227013034
20
32.2088227892335
30
0
41
1
10
-47.4709561074664
20
32.2142550343911
30
0
41
1
10
-48.0000748840305
20
32.2180191381098
30
0
0
SPLINE
5
19B
100
AcDbEntity
8
SK1
62
256
6
ByLayer
370
18
48
1
60
0
100
AcDbSpline
70
4
71
3
72
48
73
44
40
0
40
0
40
0
40
0
40
0.0078124999999993
40
0.0078124999999993
40
0.0156249999999986
40
0.0156249999999986
40
0.0234374999999979
40
0.0234374999999979
40
0.0273437499999983
40
0.0273437499999983
40
0.0312499999999987
40
0.0312499999999987
40
0.0468749999999985
40
0.0468749999999985
40
0.0624999999999983
40
0.0624999999999983
40
0.0781249999999982
40
0.0781249999999982
40
0.093749999999998
40
0.093749999999998
40
0.124999999999999
40
0.124999999999999
40
0.156249999999999
40
0.156249999999999
40
0.1875
40
0.1875
40
0.25
40
0.25
40
0.312500000000001
40
0.312500000000001
40
0.375000000000002
40
0.375000000000002
40
0.437500000000002
40
0.437500000000002
40
0.500000000000003
40
0.500000000000003
40
0.625000000000002
40
0.625000000000002
40
0.750000000000001
40
0.750000000000001
40
0.875000000000001
40
0.875000000000001
40
1
40
1
40
1
40
1
41
1
10
-39.778558650078
20
-31.6931118380393
30
0
41
1
10
-39.7883868929647
20
-31.7025532223723
30
0
41
1
10
-39.7998706288389
20
-31.7112964132592
30
0
41
1
10
-39.8252016759508
20
-31.727785998335
30
0
41
1
10
-39.8390578213016
20
-31.7355286667195
30
0
41
1
10
-39.8685800443004
20
-31.750250722256
30
0
41
1
10
-39.8842499492025
20
-31.7572284952427
30
0
41
1
10
-39.9088364476932
20
-31.7672390262543
30
0
41
1
10
-39.9172164474952
20
-31.7704998116272
30
0
41
1
10
-39.9341558223724
20
-31.7768308195506
30
0
41
1
10
-39.9427338921214
20
-31.7799088406371
30
0
41
1
10
-39.9860999153235
20
-31.7949150039898
30
0
41
1
10
-40.0222836011686
20
-31.8057165804868
30
0
41
1
10
-40.0965785854911
20
-31.8257640107126
30
0
41
1
10
-40.1347044611034
20
-31.8349980967299
30
0
41
1
10
-40.2123544869192
20
-31.8523378844301
30
0
41
1
10
-40.2518838303321
20
-31.8604393937541
30
0
41
1
10
-40.3320141072488
20
-31.8757777665964
30
0
41
1
10
-40.3726666338483
20
-31.8830200024942
30
0
41
1
10
-40.4951266360556
20
-31.9035883692501
30
0
41
1
10
-40.5776697606834
20
-31.915826027001
30
0
41
1
10
-40.7439405062895
20
-31.9383679597266
30
0
41
1
10
-40.8276763429015
20
-31.9486588126606
30
0
41
1
10
-40.9960139224065
20
-31.9678276439839
30
0
41
1
10
-41.0806186654916
20
-31.9767007208723
30
0
41
1
10
-41.33543416251
20
-32.0016868475027
30
0
41
1
10
-41.5066306756243
20
-32.0161921309117
30
0
41
1
10
-41.8507484759028
20
-32.0423921766892
30
0
41
1
10
-42.0236820904267
20
-32.0540667991598
30
0
41
1
10
-42.3708095889411
20
-32.0753644737565
30
0
41
1
10
-42.5450843964524
20
-32.0849837750873
30
0
41
1
10
-42.8940811800661
20
-32.1026167213463
30
0
41
1
10
-43.0688393204492
20
-32.1106302325481
30
0
41
1
10
-43.4187678624608
20
-32.1253844913356
30
0
41
1
10
-43.5939388196759
20
-32.1321235129213
30
0
41
1
10
-44.1199599676554
20
-32.1507735448825
30
0
41
1
10
-44.4713128141199
20
-32.1611349844006
30
0
41
1
10
-45.1749837599867
20
-32.178891275667
30
0
41
1
10
-45.5273054366393
20
-32.1862750140274
30
0
41
1
10
-46.2326933029751
20
-32.1987617510054
30
0
41
1
10
-46.5857610311104
20
-32.2038599700751
30
0
41
1
10
-47.2924944621188
20
-32.2122309846564
30
0
41
1
10
-47.6461609228116
20
-32.2155014257993
30
0
41
1
10
-48.0000748840304
20
-32.2180191381099
30
0
0
SPLINE
5
19C
100
AcDbEntity
8
SK1
62
256
6
ByLayer
370
18
48
1
60
0
100
AcDbSpline
70
4
71
3
72
30
73
26
40
0
40
0
40
0
40
0
40
0.125000000000001
40
0.125000000000001
40
0.250000000000002
40
0.250000000000002
40
0.375000000000003
40
0.375000000000003
40
0.500000000000003
40
0.500000000000003
40
0.625000000000004
40
0.625000000000004
40
0.750000000000005
40
0.750000000000005
40
0.812500000000004
40
0.812500000000004
40
0.875000000000002
40
0.875000000000002
40
0.937500000000001
40
0.937500000000001
40
0.968749999999999
40
0.968749999999999
40
0.984375
40
0.984375
40
1
40
1
40
1
40
1
41
1
10
-36.7000000000011
20
-30.5167400608155
30
0
41
1
10
-36.8506709106858
20
-30.5527315407427
30
0
41
1
10
-37.0000536735529
20
-30.5896420168468
30
0
41
1
10
-37.2957818766288
20
-30.6656298693689
30
0
41
1
10
-37.44212940243
20
-30.7047057578746
30
0
41
1
10
-37.7311755276813
20
-30.7854607682416
30
0
41
1
10
-37.8738777626771
20
-30.8271372964159
30
0
41
1
10
-38.1547862550161
20
-30.9136978932481
30
0
41
1
10
-38.2929993722038
20
-30.958577067925
30
0
41
1
10
-38.563697833774
20
-31.052421750569
30
0
41
1
10
-38.6962321779394
20
-31.1013909032134
30
0
41
1
10
-38.9535199055933
20
-31.2047247335559
30
0
41
1
10
-39.0766267398936
20
-31.258428756578
30
0
41
1
10
-39.2504780956698
20
-31.3429614515447
30
0
41
1
10
-39.3066168755561
20
-31.3718055420265
30
0
41
1
10
-39.4146820998372
20
-31.4310434676065
30
0
41
1
10
-39.4666107278892
20
-31.4614364993235
30
0
41
1
10
-39.5654932840106
20
-31.5240527860465
30
0
41
1
10
-39.6124508238217
20
-31.5562747122699
30
0
41
1
10
-39.6783892375735
20
-31.6062624057088
30
0
41
1
10
-39.6996167056853
20
-31.6232016368542
30
0
41
1
10
-39.7302067583249
20
-31.649070789322
30
0
41
1
10
-39.7401947032164
20
-31.6577706366487
30
0
41
1
10
-39.7597296975045
20
-31.6753325395168
30
0
41
1
10
-39.7692891468385
20
-31.6842072002859
30
0
41
1
10
-39.7785586500778
20
-31.6931118380393
30
0
0
SPLINE
5
19D
100
AcDbEntity
8
SK1
62
256
6
ByLayer
370
18
48
1
60
0
100
AcDbSpline
70
4
71
3
72
50
73
46
40
0
40
0
40
0
40
0
40
0.0156249999999889
40
0.0156249999999889
40
0.0234374999999828
40
0.0234374999999828
40
0.0312499999999768
40
0.0312499999999768
40
0.0468749999999647
40
0.0468749999999647
40
0.054687499999962
40
0.054687499999962
40
0.0624999999999593
40
0.0624999999999593
40
0.0781249999999593
40
0.0781249999999593
40
0.0937499999999594
40
0.0937499999999594
40
0.109374999999959
40
0.109374999999959
40
0.124999999999959
40
0.124999999999959
40
0.156249999999959
40
0.156249999999959
40
0.18749999999996
40
0.18749999999996
40
0.21874999999996
40
0.21874999999996
40
0.24999999999996
40
0.24999999999996
40
0.312499999999964
40
0.312499999999964
40
0.374999999999969
40
0.374999999999969
40
0.499999999999983
40
0.499999999999983
40
0.562499999999987
40
0.562499999999987
40
0.624999999999992
40
0.624999999999992
40
0.749999999999995
40
0.749999999999995
40
0.874999999999997
40
0.874999999999997
40
1
40
1
40
1
40
1
41
1
10
-36.7
20
-30.5167400608164
30
0
41
1
10
-36.6861760057711
20
-30.5134378573018
30
0
41
1
10
-36.6719236192518
20
-30.5108892459393
30
0
41
1
10
-36.6497726064996
20
-30.5084288522914
30
0
41
1
10
-36.6422597446632
20
-30.5078365983351
30
0
41
1
10
-36.6269468849827
20
-30.5071589463332
30
0
41
1
10
-36.6191045834997
20
-30.5070782908792
30
0
41
1
10
-36.5958394754029
20
-30.5076493122667
30
0
41
1
10
-36.5804742375449
20
-30.5090929182694
30
0
41
1
10
-36.5576335628327
20
-30.5127783281781
30
0
41
1
10
-36.5501004416419
20
-30.5142557100426
30
0
41
1
10
-36.5354423486814
20
-30.5176064302121
30
0
41
1
10
-36.5282751131219
20
-30.519486290667
30
0
41
1
10
-36.5072050500108
20
-30.5256707052649
30
0
41
1
10
-36.49368013741
20
-30.5305497512156
30
0
41
1
10
-36.4683289496342
20
-30.5411194270436
30
0
41
1
10
-36.4563799297747
20
-30.5468414483073
30
0
41
1
10
-36.4335727273276
20
-30.5589376700893
30
0
41
1
10
-36.4226910078859
20
-30.5653305504942
30
0
41
1
10
-36.4019102061098
20
-30.5785563181124
30
0
41
1
10
-36.3920943798003
20
-30.58533272851
30
0
41
1
10
-36.3639622379691
20
-30.6060308129229
30
0
41
1
10
-36.3469408538926
20
-30.6203152750523
30
0
41
1
10
-36.3151727496401
20
-30.6494987224847
30
0
41
1
10
-36.3004429011484
20
-30.664402704273
30
0
41
1
10
-36.272663942593
20
-30.6946459721731
30
0
41
1
10
-36.25959332707
20
-30.710023998788
30
0
41
1
10
-36.2349763421032
20
-30.7408303858341
30
0
41
1
10
-36.2234077468714
20
-30.7562814464429
30
0
41
1
10
-36.1904370426651
20
-30.802725501164
30
0
41
1
10
-36.1707455744194
20
-30.8338067335522
30
0
41
1
10
-36.1344790632362
20
-30.896045397797
30
0
41
1
10
-36.1179231578378
20
-30.9272048762935
30
0
41
1
10
-36.0717993238637
20
-31.0206707065773
30
0
41
1
10
-36.0457186531499
20
-31.0829582265782
30
0
41
1
10
-36.0112013735234
20
-31.176078536837
30
0
41
1
10
-36.0004790582839
20
-31.2070846709192
30
0
41
1
10
-35.9804074810478
20
-31.2688986166914
30
0
41
1
10
-35.9710667512765
20
-31.299679825393
30
0
41
1
10
-35.9448540024585
20
-31.3916417224263
30
0
41
1
10
-35.9297771234306
20
-31.4524405088437
30
0
41
1
10
-35.9034606976511
20
-31.573002406175
30
0
41
1
10
-35.8922289556274
20
-31.6327656209781
30
0
41
1
10
-35.8730490415186
20
-31.751243792232
30
0
41
1
10
-35.8651043543943
20
-31.8099588001334
30
0
41
1
10
-35.8586343515166
20
-31.8681445143571
30
0
0
SPLINE
5
19E
100
AcDbEntity
8
SK1
62
256
6
ByLayer
370
18
48
1
60
0
100
AcDbSpline
70
4
71
3
72
34
73
30
40
0
40
0
40
0
40
0
40
0.0312499999999984
40
0.0312499999999984
40
0.0624999999999967
40
0.0624999999999967
40
0.124999999999998
40
0.124999999999998
40
0.187499999999999
40
0.187499999999999
40
0.250000000000001
40
0.250000000000001
40
0.312500000000002
40
0.312500000000002
40
0.375000000000003
40
0.375000000000003
40
0.500000000000002
40
0.500000000000002
40
0.625000000000002
40
0.625000000000002
40
0.750000000000001
40
0.750000000000001
40
0.875
40
0.875
40
0.906250000000001
40
0.906250000000001
40
0.937500000000001
40
0.937500000000001
40
1
40
1
40
1
40
1
41
1
10
-35.8586343515165
20
-31.8681445143572
30
0
41
1
10
-35.8559584193055
20
-31.8922095773651
30
0
41
1
10
-35.8518135153311
20
-31.9163638905433
30
0
41
1
10
-35.8409285844262
20
-31.964131951572
30
0
41
1
10
-35.8341896585341
20
-31.9878129216072
30
0
41
1
10
-35.8106132186994
20
-32.0583025828621
30
0
41
1
10
-35.7904281681568
20
-32.1045597838675
30
0
41
1
10
-35.7439822297338
20
-32.1958854178849
30
0
41
1
10
-35.7177324522673
20
-32.2409545810473
30
0
41
1
10
-35.6615604551228
20
-32.3301279018396
30
0
41
1
10
-35.6316363321779
20
-32.3742317028649
30
0
41
1
10
-35.5699034913987
20
-32.4616320223601
30
0
41
1
10
-35.5380898463449
20
-32.5049279973811
30
0
41
1
10
-35.4738846774947
20
-32.5908206651138
30
0
41
1
10
-35.4414888109944
20
-32.6334169185666
30
0
41
1
10
-35.3448966005915
20
-32.7602674648848
30
0
41
1
10
-35.2813492424227
20
-32.8436033441989
30
0
41
1
10
-35.1616455253844
20
-33.0078777750666
30
0
41
1
10
-35.105424529817
20
-33.0888330619472
30
0
41
1
10
-35.0042274646478
20
-33.2484814297211
30
0
41
1
10
-34.9592222794925
20
-33.3271729985641
30
0
41
1
10
-34.8839372794758
20
-33.4823184480597
30
0
41
1
10
-34.8536295063491
20
-33.5587714504724
30
0
41
1
10
-34.8273626619223
20
-33.6529305027061
30
0
41
1
10
-34.8226923405656
20
-33.6716918907441
30
0
41
1
10
-34.8145899823543
20
-33.7090734310725
30
0
41
1
10
-34.8111615157959
20
-33.7276856282373
30
0
41
1
10
-34.8028771809869
20
-33.7830433478833
30
0
41
1
10
-34.7999999999999
20
-33.8193960990672
30
0
41
1
10
-34.7999999999999
20
-33.8551849401856
30
0
0
LINE
5
8A
100
AcDbEntity
8
4
62
256
6
ByLayer
370
18
48
0.05
60
0
100
AcDbLine
10
0
20
0
30
0
11
100
21
0
31
0
39
0
210
0
220
0
230
1
0
LINE
5
8C
100
AcDbEntity
8
81
62
256
6
ByLayer
370
18
48
1
60
0
100
AcDbLine
10
100
20
0
30
0
11
105
21
0
31
0
39
0
210
0
220
0
230
1
0
LINE
5
8D
100
AcDbEntity
8
80
62
256
6
ByLayer
370
18
48
1
60
0
100
AcDbLine
10
0
20
0
30
0
11
-5
21
0
31
0
39
0
210
0
220
0
230
1
0
LINE
5
8E
100
AcDbEntity
8
1
62
256
6
ByLayer
370
18
48
1
60
0
100
AcDbLine
10
28.95
20
48.235047
30
0
11
28.95
21
38.002865
31
0
39
0
210
0
220
0
230
1
0
LINE
5
90
100
AcDbEntity
8
1
62
256
6
ByLayer
370
18
48
1
60
0
100
AcDbLine
10
21.525
20
44.869591
30
0
11
18.475
21
44.869591
31
0
39
0
210
0
220
0
230
1
0
LINE
5
91
100
AcDbEntity
8
1
62
256
6
ByLayer
370
18
48
1
60
0
100
AcDbLine
10
28.95
20
31.35
30
0
11
28.95
21
38.002865
31
0
39
0
210
0
220
0
230
1
0
LINE
5
92
100
AcDbEntity
8
1
62
256
6
ByLayer
370
18
48
1
60
0
100
AcDbLine
10
21.925
20
35.929935
30
0
11
21.925
21
34.173354
31
0
39
0
210
0
220
0
230
1
0
LINE
5
93
100
AcDbEntity
8
1
62
256
6
ByLayer
370
18
48
1
60
0
100
AcDbLine
10
21.525
20
33.628531
30
0
11
18.475
21
33.628531
31
0
39
0
210
0
220
0
230
1
0
LINE
5
94
100
AcDbEntity
8
1
62
256
6
ByLayer
370
18
48
1
60
0
100
AcDbLine
10
18.075
20
34.173354
30
0
11
18.075
21
35.929935
31
0
39
0
210
0
220
0
230
1
0
LINE
5
95
100
AcDbEntity
8
1
62
256
6
ByLayer
370
18
48
1
60
0
100
AcDbLine
10
21.925
20
46.619334
30
0
11
21.925
21
35.929935
31
0
39
0
210
0
220
0
230
1
0
LINE
5
96
100
AcDbEntity
8
1
62
256
6
ByLayer
370
18
48
1
60
0
100
AcDbLine
10
18.075
20
46.619334
30
0
11
18.075
21
35.929935
31
0
39
0
210
0
220
0
230
1
0
LINE
5
97
100
AcDbEntity
8
1
62
256
6
ByLayer
370
13
48
1
60
0
100
AcDbLine
10
18.475
20
44.869591
30
0
11
18.475
21
33.628531
31
0
39
0
210
0
220
0
230
1
0
LINE
5
98
100
AcDbEntity
8
1
62
256
6
ByLayer
370
18
48
1
60
0
100
AcDbLine
10
28.25
20
38.906024
30
0
11
28.25
21
48.949778
31
0
39
0
210
0
220
0
230
1
0
LINE
5
99
100
AcDbEntity
8
1
62
256
6
ByLayer
370
18
48
1
60
0
100
AcDbLine
10
28.25
20
48.949778
30
0
11
23.241822
21
48.949778
31
0
39
0
210
0
220
0
230
1
0
LINE
5
9A
100
AcDbEntity
8
1
62
256
6
ByLayer
370
18
48
1
60
0
100
AcDbLine
10
23.241822
20
48.949778
30
0
11
23.241822
21
38.906024
31
0
39
0
210
0
220
0
230
1
0
LINE
5
9B
100
AcDbEntity
8
1
62
256
6
ByLayer
370
18
48
1
60
0
100
AcDbLine
10
28.25
20
38.906024
30
0
11
23.241822
21
38.906024
31
0
39
0
210
0
220
0
230
1
0
LINE
5
9C
100
AcDbEntity
8
1
62
256
6
ByLayer
370
13
48
1
60
0
100
AcDbLine
10
21.525
20
44.869591
30
0
11
21.525
21
33.628531
31
0
39
0
210
0
220
0
230
1
0
LINE
5
9D
100
AcDbEntity
8
1
62
256
6
ByLayer
370
13
48
1
60
0
100
AcDbLine
10
30.624598
20
-32.3
30
0
11
30.624598
21
32.3
31
0
39
0
210
0
220
0
230
1
0
LINE
5
9E
100
AcDbEntity
8
1
62
256
6
ByLayer
370
18
48
1
60
0
100
AcDbLine
10
100
20
24.5
30
0
11
100
21
-24.5
31
0
39
0
210
0
220
0
230
1
0
LINE
5
9F
100
AcDbEntity
8
1
62
256
6
ByLayer
370
18
48
1
60
0
100
AcDbLine
10
92
20
-32.5
30
0
11
92
21
32.5
31
0
39
0
210
0
220
0
230
1
0
LINE
5
A0
100
AcDbEntity
8
1
62
256
6
ByLayer
370
18
48
1
60
0
100
AcDbLine
10
31.45
20
32.5
30
0
11
31.45
21
-32.5
31
0
39
0
210
0
220
0
230
1
0
LINE
5
A1
100
AcDbEntity
8
1
62
256
6
ByLayer
370
13
48
1
60
0
100
AcDbLine
10
30.77989
20
-32.320445
30
0
11
30.77989
21
32.320445
31
0
39
0
210
0
220
0
230
1
0
LINE
5
A2
100
AcDbEntity
8
1
62
256
6
ByLayer
370
13
48
1
60
0
100
AcDbLine
10
29.95
20
-32.3
30
0
11
29.95
21
32.3
31
0
39
0
210
0
220
0
230
1
0
LINE
5
A3
100
AcDbEntity
8
1
62
256
6
ByLayer
370
13
48
1
60
0
100
AcDbLine
10
14.657967
20
38.906024
30
0
11
14.657967
21
31.35
31
0
39
0
210
0
220
0
230
1
0
LINE
5
A4
100
AcDbEntity
8
1
62
256
6
ByLayer
370
18
48
1
60
0
100
AcDbLine
10
21.525
20
31.35
30
0
11
18.475
21
31.35
31
0
39
0
210
0
220
0
230
1
0
LINE
5
A5
100
AcDbEntity
8
1
62
256
6
ByLayer
370
18
48
1
60
0
100
AcDbLine
10
21.525
20
-44.634495
30
0
11
18.475
21
-44.634495
31
0
39
0
210
0
220
0
230
1
0
LINE
5
A6
100
AcDbEntity
8
1
62
256
6
ByLayer
370
13
48
1
60
0
100
AcDbLine
10
21.525
20
31.35
30
0
11
21.525
21
8.827456
31
0
39
0
210
0
220
0
230
1
0
LINE
5
A7
100
AcDbEntity
8
1
62
256
6
ByLayer
370
13
48
1
60
0
100
AcDbLine
10
21.525
20
7.13671
30
0
11
21.525
21
-7.13671
31
0
39
0
210
0
220
0
230
1
0
LINE
5
A8
100
AcDbEntity
8
1
62
256
6
ByLayer
370
13
48
1
60
0
100
AcDbLine
10
21.525
20
-8.827456
30
0
11
21.525
21
-44.634495
31
0
39
0
210
0
220
0
230
1
0
LINE
5
A9
100
AcDbEntity
8
1
62
256
6
ByLayer
370
13
48
1
60
0
100
AcDbLine
10
18.475
20
-8.827456
30
0
11
18.475
21
-44.634495
31
0
39
0
210
0
220
0
230
1
0
LINE
5
AA
100
AcDbEntity
8
1
62
256
6
ByLayer
370
13
48
1
60
0
100
AcDbLine
10
18.475
20
7.13671
30
0
11
18.475
21
-7.13671
31
0
39
0
210
0
220
0
230
1
0
LINE
5
AB
100
AcDbEntity
8
1
62
256
6
ByLayer
370
13
48
1
60
0
100
AcDbLine
10
18.475
20
31.35
30
0
11
18.475
21
8.827456
31
0
39
0
210
0
220
0
230
1
0
LINE
5
AC
100
AcDbEntity
8
1
62
256
6
ByLayer
370
18
48
1
60
0
100
AcDbLine
10
0
20
-49.265
30
0
11
0
21
49.265
31
0
39
0
210
0
220
0
230
1
0
LINE
5
AD
100
AcDbEntity
8
1
62
256
6
ByLayer
370
18
48
1
60
0
100
AcDbLine
10
0.7
20
-49.965
30
0
11
0.7
21
49.965
31
0
39
0
210
0
220
0
230
1
0
LINE
5
AE
100
AcDbEntity
8
1
62
256
6
ByLayer
370
18
48
1
60
0
100
AcDbLine
10
4.95
20
-49.954567
30
0
11
4.95
21
-49.965
31
0
39
0
210
0
220
0
230
1
0
LINE
5
AF
100
AcDbEntity
8
1
62
256
6
ByLayer
370
18
48
1
60
0
100
AcDbLine
10
16.758178
20
-48.73437
30
0
11
14.95
21
-48.73437
31
0
39
0
210
0
220
0
230
1
0
LINE
5
B0
100
AcDbEntity
8
1
62
256
6
ByLayer
370
18
48
1
60
0
100
AcDbLine
10
16.758178
20
31.35
30
0
11
4.961216
21
31.35
31
0
39
0
210
0
220
0
230
1
0
LINE
5
B1
100
AcDbEntity
8
1
62
256
6
ByLayer
370
18
48
1
60
0
100
AcDbLine
10
16.758178
20
38.906024
30
0
11
14.657967
21
38.906024
31
0
39
0
210
0
220
0
230
1
0
LINE
5
B2
100
AcDbEntity
8
1
62
256
6
ByLayer
370
18
48
1
60
0
100
AcDbLine
10
16.758178
20
38.906024
30
0
11
16.758178
21
48.949778
31
0
39
0
210
0
220
0
230
1
0
LINE
5
B3
100
AcDbEntity
8
1
62
256
6
ByLayer
370
18
48
1
60
0
100
AcDbLine
10
16.758178
20
48.949778
30
0
11
14.95
21
48.949778
31
0
39
0
210
0
220
0
230
1
0
LINE
5
B4
100
AcDbEntity
8
1
62
256
6
ByLayer
370
18
48
1
60
0
100
AcDbLine
10
21.925
20
31.35
30
0
11
21.925
21
-46.393106
31
0
39
0
210
0
220
0
230
1
0
LINE
5
B5
100
AcDbEntity
8
1
62
256
6
ByLayer
370
18
48
1
60
0
100
AcDbLine
10
28.95
20
31.35
30
0
11
28.95
21
-48.016432
31
0
39
0
210
0
220
0
230
1
0
LINE
5
B6
100
AcDbEntity
8
1
62
256
6
ByLayer
370
18
48
1
60
0
100
AcDbLine
10
18.075
20
31.35
30
0
11
18.075
21
-46.393106
31
0
39
0
210
0
220
0
230
1
0
LINE
5
B7
100
AcDbEntity
8
1
62
256
6
ByLayer
370
18
48
1
60
0
100
AcDbLine
10
16.758178
20
-48.73437
30
0
11
16.758178
21
31.35
31
0
39
0
210
0
220
0
230
1
0
LINE
5
B8
100
AcDbEntity
8
1
62
256
6
ByLayer
370
18
48
1
60
0
100
AcDbLine
10
28.25
20
-48.73437
30
0
11
23.241822
21
-48.73437
31
0
39
0
210
0
220
0
230
1
0
LINE
5
B9
100
AcDbEntity
8
1
62
256
6
ByLayer
370
18
48
1
60
0
100
AcDbLine
10
28.25
20
-48.73437
30
0
11
28.25
21
31.35
31
0
39
0
210
0
220
0
230
1
0
LINE
5
BA
100
AcDbEntity
8
1
62
256
6
ByLayer
370
18
48
1
60
0
100
AcDbLine
10
28.25
20
31.35
30
0
11
23.241822
21
31.35
31
0
39
0
210
0
220
0
230
1
0
LINE
5
BB
100
AcDbEntity
8
1
62
256
6
ByLayer
370
18
48
1
60
0
100
AcDbLine
10
23.241822
20
31.35
30
0
11
23.241822
21
-48.73437
31
0
39
0
210
0
220
0
230
1
0
LINE
5
BC
100
AcDbEntity
8
SK1
62
256
6
ByLayer
370
13
48
1
60
0
100
AcDbLine
10
-41.7
20
32.225
30
0
11
-41.7
21
32.030907
31
0
39
0
210
0
220
0
230
1
0
LINE
5
BE
100
AcDbEntity
8
SK1
62
256
6
ByLayer
370
18
48
1
60
0
100
AcDbLine
10
-48.25
20
32.225
30
0
11
-48.25
21
32.221419
31
0
39
0
210
0
220
0
230
1
0
LINE
5
BF
100
AcDbEntity
8
SK1
62
256
6
ByLayer
370
18
48
1
60
0
100
AcDbLine
10
-48.25
20
-32.225
30
0
11
-48.25
21
-32.221419
31
0
39
0
210
0
220
0
230
1
0
LINE
5
C0
100
AcDbEntity
8
SK1
62
256
6
ByLayer
370
13
48
1
60
0
100
AcDbLine
10
-36.7
20
-31.693112
30
0
11
-36.7
21
-32.225
31
0
39
0
210
0
220
0
230
1
0
LINE
5
C1
100
AcDbEntity
8
SK1
62
256
6
ByLayer
370
13
48
1
60
0
100
AcDbLine
10
-49.589566
20
30.49955
30
0
11
-48.969717
21
31.05184
31
0
39
0
210
0
220
0
230
1
0
LINE
5
C2
100
AcDbEntity
8
SK1
62
256
6
ByLayer
370
13
48
1
60
0
100
AcDbLine
10
-49.589566
20
-30.49955
30
0
11
-48.969717
21
-31.05184
31
0
39
0
210
0
220
0
230
1
0
LINE
5
C3
100
AcDbEntity
8
SK1
62
256
6
ByLayer
370
13
48
1
60
0
100
AcDbLine
10
-36.7
20
-31.693112
30
0
11
-39.778559
21
-31.693112
31
0
39
0
210
0
220
0
230
1
0
LINE
5
C4
100
AcDbEntity
8
SK1
62
256
6
ByLayer
370
13
48
1
60
0
100
AcDbLine
10
-36.7
20
-31.693112
30
0
11
-36.7
21
-30.51674
31
0
39
0
210
0
220
0
230
1
0
LINE
5
C5
100
AcDbEntity
8
SK1
62
256
6
ByLayer
370
18
48
1
60
0
100
AcDbLine
10
-49.9
20
-30.486326
30
0
11
-49.9
21
30.486326
31
0
39
0
210
0
220
0
230
1
0
LINE
5
C6
100
AcDbEntity
8
SK1
62
256
6
ByLayer
370
18
48
1
60
0
100
AcDbLine
10
-2.066987
20
-37.632252
30
0
11
-2.066987
21
37.632252
31
0
39
0
210
0
220
0
230
1
0
LINE
5
C7
100
AcDbEntity
8
SK1
62
256
6
ByLayer
370
18
48
1
60
0
100
AcDbLine
10
-39.8
20
36.013514
30
0
11
-39.8
21
33.731867
31
0
39
0
210
0
220
0
230
1
0
LINE
5
C8
100
AcDbEntity
8
SK1
62
256
6
ByLayer
370
13
48
1
60
0
100
AcDbLine
10
-48.000075
20
32.218019
30
0
11
-48.000075
21
-32.218019
31
0
39
0
210
0
220
0
230
1
0
LINE
5
C9
100
AcDbEntity
8
SK1
62
256
6
ByLayer
370
18
48
1
60
0
100
AcDbLine
10
-34.8
20
-33.855185
30
0
11
-34.8
21
-36.264015
31
0
39
0
210
0
220
0
230
1
0
LINE
5
CA
100
AcDbEntity
8
SK1
62
256
6
ByLayer
370
18
48
1
60
0
100
AcDbLine
10
-2.5
20
-37.882252
30
0
11
-2.5
21
37.882252
31
0
39
0
210
0
220
0
230
1
0
LINE
5
CB
100
AcDbEntity
8
SK1
62
256
6
ByLayer
370
13
48
1
60
0
100
AcDbLine
10
-0.8
20
-37.632252
30
0
11
-0.8
21
37.632252
31
0
39
0
210
0
220
0
230
1
0
LINE
5
CC
100
AcDbEntity
8
1
62
256
6
ByLayer
370
18
48
1
60
0
100
AcDbLine
10
4.95
20
49.965
30
0
11
4.949139
21
49.965
31
0
39
0
210
0
220
0
230
1
0
LINE
5
CD
100
AcDbEntity
8
1
62
256
6
ByLayer
370
18
48
1
60
0
100
AcDbLine
10
4.949139
20
49.965
30
0
11
4.948785
21
49.965
31
0
39
0
210
0
220
0
230
1
0
LINE
5
CE
100
AcDbEntity
8
1
62
256
6
ByLayer
370
18
48
1
60
0
100
AcDbLine
10
30.624598
20
32.3
30
0
11
29.95
21
32.3
31
0
39
0
210
0
220
0
230
1
0
LINE
5
CF
100
AcDbEntity
8
1
62
256
6
ByLayer
370
18
48
1
60
0
100
AcDbLine
10
29.95
20
-32.3
30
0
11
30.624598
21
-32.3
31
0
39
0
210
0
220
0
230
1
0
LINE
5
D0
100
AcDbEntity
8
1
62
256
6
ByLayer
370
18
48
1
60
0
100
AcDbLine
10
100
20
24.5
30
0
11
92
21
32.5
31
0
39
0
210
0
220
0
230
1
0
LINE
5
D1
100
AcDbEntity
8
1
62
256
6
ByLayer
370
18
48
1
60
0
100
AcDbLine
10
92
20
-32.5
30
0
11
100
21
-24.5
31
0
39
0
210
0
220
0
230
1
0
LINE
5
D2
100
AcDbEntity
8
1
62
256
6
ByLayer
370
18
48
1
60
0
100
AcDbLine
10
31.45
20
-32.5
30
0
11
92
21
-32.5
31
0
39
0
210
0
220
0
230
1
0
LINE
5
D3
100
AcDbEntity
8
1
62
256
6
ByLayer
370
18
48
1
60
0
100
AcDbLine
10
92
20
32.5
30
0
11
31.45
21
32.5
31
0
39
0
210
0
220
0
230
1
0
LINE
5
D4
100
AcDbEntity
8
1
62
256
6
ByLayer
370
18
48
1
60
0
100
AcDbLine
10
30.77989
20
-32.320445
30
0
11
31.45
21
-32.5
31
0
39
0
210
0
220
0
230
1
0
LINE
5
D5
100
AcDbEntity
8
1
62
256
6
ByLayer
370
18
48
1
60
0
100
AcDbLine
10
31.45
20
32.5
30
0
11
30.77989
21
32.320445
31
0
39
0
210
0
220
0
230
1
0
LINE
5
D6
100
AcDbEntity
8
1
62
256
6
ByLayer
370
18
48
1
60
0
100
AcDbLine
10
0
20
-49.265
30
0
11
0.7
21
-49.965
31
0
39
0
210
0
220
0
230
1
0
LINE
5
D7
100
AcDbEntity
8
1
62
256
6
ByLayer
370
18
48
1
60
0
100
AcDbLine
10
0.7
20
49.965
30
0
11
0
21
49.265
31
0
39
0
210
0
220
0
230
1
0
LINE
5
D8
100
AcDbEntity
8
1
62
256
6
ByLayer
370
18
48
1
60
0
100
AcDbLine
10
4.948785
20
49.965
30
0
11
0.7
21
49.965
31
0
39
0
210
0
220
0
230
1
0
LINE
5
D9
100
AcDbEntity
8
1
62
256
6
ByLayer
370
18
48
1
60
0
100
AcDbLine
10
0.7
20
-49.965
30
0
11
4.95
21
-49.965
31
0
39
0
210
0
220
0
230
1
0
LINE
5
DA
100
AcDbEntity
8
SK1
62
256
6
ByLayer
370
18
48
1
60
0
100
AcDbLine
10
-41.7
20
32.225
30
0
11
-48.25
21
32.225
31
0
39
0
210
0
220
0
230
1
0
LINE
5
DB
100
AcDbEntity
8
SK1
62
256
6
ByLayer
370
18
48
1
60
0
100
AcDbLine
10
-49.849203
20
-30.625797
30
0
11
-48.25
21
-32.225
31
0
39
0
210
0
220
0
230
1
0
LINE
5
DC
100
AcDbEntity
8
SK1
62
256
6
ByLayer
370
18
48
1
60
0
100
AcDbLine
10
-48.25
20
32.225
30
0
11
-49.849203
21
30.625797
31
0
39
0
210
0
220
0
230
1
0
LINE
5
DD
100
AcDbEntity
8
SK1
62
256
6
ByLayer
370
18
48
1
60
0
100
AcDbLine
10
-48.25
20
-32.225
30
0
11
-36.7
21
-32.225
31
0
39
0
210
0
220
0
230
1
0
LINE
5
DE
100
AcDbEntity
8
SK1
62
256
6
ByLayer
370
18
48
1
60
0
100
AcDbLine
10
-0.8
20
37.632252
30
0
11
-2.066987
21
37.632252
31
0
39
0
210
0
220
0
230
1
0
LINE
5
DF
100
AcDbEntity
8
SK1
62
256
6
ByLayer
370
18
48
1
60
0
100
AcDbLine
10
-2.066987
20
-37.632252
30
0
11
-0.8
21
-37.632252
31
0
39
0
210
0
220
0
230
1
0
LINE
5
E0
100
AcDbEntity
8
SK1
62
256
6
ByLayer
370
18
48
1
60
0
100
AcDbLine
10
-2.066987
20
37.632252
30
0
11
-2.5
21
37.882252
31
0
39
0
210
0
220
0
230
1
0
LINE
5
E1
100
AcDbEntity
8
SK1
62
256
6
ByLayer
370
18
48
1
60
0
100
AcDbLine
10
-2.5
20
-37.882252
30
0
11
-2.066987
21
-37.632252
31
0
39
0
210
0
220
0
230
1
0
LINE
5
E2
100
AcDbEntity
8
SK1
62
256
6
ByLayer
370
18
48
1
60
0
100
AcDbLine
10
-34.8
20
-36.264015
30
0
11
-21.480951
21
-36.931302
31
0
39
0
210
0
220
0
230
1
0
LINE
5
E3
100
AcDbEntity
8
SK1
62
256
6
ByLayer
370
18
48
1
60
0
100
AcDbLine
10
-7.82303
20
-37.615567
30
0
11
-2.5
21
-37.882252
31
0
39
0
210
0
220
0
230
1
0
LINE
5
E4
100
AcDbEntity
8
SK1
62
256
6
ByLayer
370
18
48
1
60
0
100
AcDbLine
10
-2.5
20
37.882252
30
0
11
-7.833372
21
37.615048
31
0
39
0
210
0
220
0
230
1
0
LINE
5
E5
100
AcDbEntity
8
SK1
62
256
6
ByLayer
370
18
48
1
60
0
100
AcDbLine
10
-21.490774
20
36.93081
30
0
11
-39.8
21
36.013514
31
0
39
0
210
0
220
0
230
1
0
LINE
5
E6
100
AcDbEntity
8
1
62
256
6
ByLayer
370
18
48
1
60
0
100
AcDbLine
10
100.049408
20
12.790753
30
0
11
99.999997
21
12.883075
31
0
39
0
210
0
220
0
230
1
0
LINE
5
E7
100
AcDbEntity
8
1
62
256
6
ByLayer
370
18
48
1
60
0
100
AcDbLine
10
99.999997
20
-12.883075
30
0
11
100.049408
21
-12.790753
31
0
39
0
210
0
220
0
230
1
0
LINE
5
E8
100
AcDbEntity
8
1
62
256
6
ByLayer
370
18
48
1
60
0
100
AcDbLine
10
100.049408
20
12.790753
30
0
11
99.999997
21
12.883075
31
0
39
0
210
0
220
0
230
1
0
LINE
5
E9
100
AcDbEntity
8
SK2
62
256
6
ByLayer
370
18
48
1
60
0
100
AcDbLine
10
126.87201
20
32.5
30
0
11
126.87201
21
-32.5
31
0
39
0
210
0
220
0
230
1
0
LINE
5
EB
100
AcDbEntity
8
SK2
62
256
6
ByLayer
370
18
48
1
60
0
100
AcDbLine
10
93.5875
20
-32.5
30
0
11
128.87201
21
-32.5
31
0
39
0
210
0
220
0
230
1
0
LINE
5
EC
100
AcDbEntity
8
SK2
62
256
6
ByLayer
370
18
48
1
60
0
100
AcDbLine
10
93.5875
20
32.5
30
0
11
128.87201
21
32.5
31
0
39
0
210
0
220
0
230
1
0
LINE
5
ED
100
AcDbEntity
8
1
62
256
6
ByLayer
370
18
48
1
60
1
100
AcDbLine
10
126.87201
20
-32.5
30
0
11
126.411226
21
-29.000002
31
0
39
0
210
0
220
0
230
1
0
LINE
5
EE
100
AcDbEntity
8
1
62
256
6
ByLayer
370
18
48
1
60
1
100
AcDbLine
10
126.411226
20
-29.000002
30
0
11
127.332794
21
-28.999998
31
0
39
0
210
0
220
0
230
1
0
LINE
5
EF
100
AcDbEntity
8
1
62
256
6
ByLayer
370
18
48
1
60
1
100
AcDbLine
10
127.332794
20
-28.999998
30
0
11
126.87201
21
-32.5
31
0
39
0
210
0
220
0
230
1
0
LINE
5
F0
100
AcDbEntity
8
1
62
256
6
ByLayer
370
18
48
1
60
1
100
AcDbLine
10
126.87201
20
32.5
30
0
11
127.332794
21
29.000002
31
0
39
0
210
0
220
0
230
1
0
LINE
5
F1
100
AcDbEntity
8
1
62
256
6
ByLayer
370
18
48
1
60
1
100
AcDbLine
10
127.332794
20
29.000002
30
0
11
126.411226
21
28.999998
31
0
39
0
210
0
220
0
230
1
0
LINE
5
F2
100
AcDbEntity
8
1
62
256
6
ByLayer
370
18
48
1
60
1
100
AcDbLine
10
126.411226
20
28.999998
30
0
11
126.87201
21
32.5
31
0
39
0
210
0
220
0
230
1
0
LINE
5
F3
100
AcDbEntity
8
SK2
62
256
6
ByLayer
370
18
48
1
60
0
100
AcDbLine
10
-66.875025
20
-49.965
30
0
11
-66.875025
21
49.965
31
0
39
0
210
0
220
0
230
1
0
LINE
5
F4
100
AcDbEntity
8
SK2
62
256
6
ByLayer
370
18
48
1
60
0
100
AcDbLine
10
-0.8875
20
49.965
30
0
11
-68.875025
21
49.965
31
0
39
0
210
0
220
0
230
1
0
LINE
5
F5
100
AcDbEntity
8
SK2
62
256
6
ByLayer
370
18
48
1
60
0
100
AcDbLine
10
-0.8875
20
-49.965
30
0
11
-68.875025
21
-49.965
31
0
39
0
210
0
220
0
230
1
0
LINE
5
F6
100
AcDbEntity
8
1
62
256
6
ByLayer
370
18
48
1
60
1
100
AcDbLine
10
-66.875025
20
49.965
30
0
11
-66.414241
21
46.465002
31
0
39
0
210
0
220
0
230
1
0
LINE
5
F7
100
AcDbEntity
8
1
62
256
6
ByLayer
370
18
48
1
60
1
100
AcDbLine
10
-66.414241
20
46.465002
30
0
11
-67.335809
21
46.464998
31
0
39
0
210
0
220
0
230
1
0
LINE
5
F8
100
AcDbEntity
8
1
62
256
6
ByLayer
370
18
48
1
60
1
100
AcDbLine
10
-67.335809
20
46.464998
30
0
11
-66.875025
21
49.965
31
0
39
0
210
0
220
0
230
1
0
LINE
5
F9
100
AcDbEntity
8
1
62
256
6
ByLayer
370
18
48
1
60
1
100
AcDbLine
10
-66.875025
20
-49.965
30
0
11
-67.335809
21
-46.465002
31
0
39
0
210
0
220
0
230
1
0
LINE
5
FA
100
AcDbEntity
8
1
62
256
6
ByLayer
370
18
48
1
60
1
100
AcDbLine
10
-67.335809
20
-46.465002
30
0
11
-66.414241
21
-46.464998
31
0
39
0
210
0
220
0
230
1
0
LINE
5
FB
100
AcDbEntity
8
1
62
256
6
ByLayer
370
18
48
1
60
1
100
AcDbLine
10
-66.414241
20
-46.464998
30
0
11
-66.875025
21
-49.965
31
0
39
0
210
0
220
0
230
1
0
LINE
5
FC
100
AcDbEntity
8
2
62
256
6
ByLayer
370
18
48
1
60
0
100
AcDbLine
10
28.95
20
62.815
30
0
11
100
21
62.815
31
0
39
0
210
0
220
0
230
1
0
LINE
5
FD
100
AcDbEntity
8
2
62
256
6
ByLayer
370
18
48
1
60
0
100
AcDbLine
10
100
20
26.0875
30
0
11
100
21
64.815
31
0
39
0
210
0
220
0
230
1
0
LINE
5
FE
100
AcDbEntity
8
2
62
256
6
ByLayer
370
18
48
1
60
0
100
AcDbLine
10
28.95
20
49.822547
30
0
11
28.95
21
64.815
31
0
39
0
210
0
220
0
230
1
0
LINE
5
FF
100
AcDbEntity
8
1
62
256
6
ByLayer
370
18
48
1
60
1
100
AcDbLine
10
100
20
62.815
30
0
11
96.500002
21
62.354216
31
0
39
0
210
0
220
0
230
1
0
LINE
5
100
100
AcDbEntity
8
1
62
256
6
ByLayer
370
18
48
1
60
1
100
AcDbLine
10
96.500002
20
62.354216
30
0
11
96.499998
21
63.275784
31
0
39
0
210
0
220
0
230
1
0
LINE
5
101
100
AcDbEntity
8
1
62
256
6
ByLayer
370
18
48
1
60
1
100
AcDbLine
10
96.499998
20
63.275784
30
0
11
100
21
62.815
31
0
39
0
210
0
220
0
230
1
0
LINE
5
102
100
AcDbEntity
8
1
62
256
6
ByLayer
370
18
48
1
60
1
100
AcDbLine
10
28.95
20
62.815
30
0
11
32.449998
21
63.275784
31
0
39
0
210
0
220
0
230
1
0
LINE
5
103
100
AcDbEntity
8
1
62
256
6
ByLayer
370
18
48
1
60
1
100
AcDbLine
10
32.449998
20
63.275784
30
0
11
32.450002
21
62.354216
31
0
39
0
210
0
220
0
230
1
0
LINE
5
104
100
AcDbEntity
8
1
62
256
6
ByLayer
370
18
48
1
60
1
100
AcDbLine
10
32.450002
20
62.354216
30
0
11
28.95
21
62.815
31
0
39
0
210
0
220
0
230
1
0
LINE
5
105
100
AcDbEntity
8
SK2
62
256
6
ByLayer
370
18
48
1
60
0
100
AcDbLine
10
100
20
72.815
30
0
11
0
21
72.815
31
0
39
0
210
0
220
0
230
1
0
LINE
5
106
100
AcDbEntity
8
SK2
62
256
6
ByLayer
370
18
48
1
60
0
100
AcDbLine
10
0
20
50.8525
30
0
11
0
21
74.815
31
0
39
0
210
0
220
0
230
1
0
LINE
5
107
100
AcDbEntity
8
SK2
62
256
6
ByLayer
370
18
48
1
60
0
100
AcDbLine
10
100
20
26.0875
30
0
11
100
21
74.815
31
0
39
0
210
0
220
0
230
1
0
LINE
5
108
100
AcDbEntity
8
1
62
256
6
ByLayer
370
18
48
1
60
1
100
AcDbLine
10
0
20
72.815
30
0
11
3.499998
21
73.275784
31
0
39
0
210
0
220
0
230
1
0
LINE
5
109
100
AcDbEntity
8
1
62
256
6
ByLayer
370
18
48
1
60
1
100
AcDbLine
10
3.499998
20
73.275784
30
0
11
3.500002
21
72.354216
31
0
39
0
210
0
220
0
230
1
0
LINE
5
10A
100
AcDbEntity
8
1
62
256
6
ByLayer
370
18
48
1
60
1
100
AcDbLine
10
3.500002
20
72.354216
30
0
11
0
21
72.815
31
0
39
0
210
0
220
0
230
1
0
LINE
5
10B
100
AcDbEntity
8
1
62
256
6
ByLayer
370
18
48
1
60
1
100
AcDbLine
10
100
20
72.815
30
0
11
96.500002
21
72.354216
31
0
39
0
210
0
220
0
230
1
0
LINE
5
10C
100
AcDbEntity
8
1
62
256
6
ByLayer
370
18
48
1
60
1
100
AcDbLine
10
96.500002
20
72.354216
30
0
11
96.499998
21
73.275784
31
0
39
0
210
0
220
0
230
1
0
LINE
5
10D
100
AcDbEntity
8
1
62
256
6
ByLayer
370
18
48
1
60
1
100
AcDbLine
10
96.499998
20
73.275784
30
0
11
100
21
72.815
31
0
39
0
210
0
220
0
230
1
0
LINE
5
10E
100
AcDbEntity
8
SK2
62
256
6
ByLayer
370
18
48
1
60
0
100
AcDbLine
10
-49.9
20
72.815
30
0
11
0
21
72.815
31
0
39
0
210
0
220
0
230
1
0
LINE
5
10F
100
AcDbEntity
8
SK2
62
256
6
ByLayer
370
18
48
1
60
0
100
AcDbLine
10
0
20
50.8525
30
0
11
0
21
74.815
31
0
39
0
210
0
220
0
230
1
0
LINE
5
110
100
AcDbEntity
8
SK2
62
256
6
ByLayer
370
18
48
1
60
0
100
AcDbLine
10
-49.9
20
32.073826
30
0
11
-49.9
21
74.815
31
0
39
0
210
0
220
0
230
1
0
LINE
5
111
100
AcDbEntity
8
1
62
256
6
ByLayer
370
18
48
1
60
1
100
AcDbLine
10
0
20
72.815
30
0
11
-3.499998
21
72.354216
31
0
39
0
210
0
220
0
230
1
0
LINE
5
112
100
AcDbEntity
8
1
62
256
6
ByLayer
370
18
48
1
60
1
100
AcDbLine
10
-3.499998
20
72.354216
30
0
11
-3.500002
21
73.275784
31
0
39
0
210
0
220
0
230
1
0
LINE
5
113
100
AcDbEntity
8
1
62
256
6
ByLayer
370
18
48
1
60
1
100
AcDbLine
10
-3.500002
20
73.275784
30
0
11
0
21
72.815
31
0
39
0
210
0
220
0
230
1
0
LINE
5
114
100
AcDbEntity
8
1
62
256
6
ByLayer
370
18
48
1
60
1
100
AcDbLine
10
-49.9
20
72.815
30
0
11
-46.400002
21
73.275784
31
0
39
0
210
0
220
0
230
1
0
LINE
5
115
100
AcDbEntity
8
1
62
256
6
ByLayer
370
18
48
1
60
1
100
AcDbLine
10
-46.400002
20
73.275784
30
0
11
-46.399998
21
72.354216
31
0
39
0
210
0
220
0
230
1
0
LINE
5
116
100
AcDbEntity
8
1
62
256
6
ByLayer
370
18
48
1
60
1
100
AcDbLine
10
-46.399998
20
72.354216
30
0
11
-49.9
21
72.815
31
0
39
0
210
0
220
0
230
1
0
LINE
5
1A3
100
AcDbEntity
8
1
62
256
6
ByLayer
370
18
48
1
60
1
100
AcDbLine
10
126.87201
20
-32.5
30
0
11
126.411226
21
-29.000002
31
0
39
0
210
0
220
0
230
1
0
LINE
5
1A4
100
AcDbEntity
8
1
62
256
6
ByLayer
370
18
48
1
60
1
100
AcDbLine
10
126.411226
20
-29.000002
30
0
11
127.332794
21
-28.999998
31
0
39
0
210
0
220
0
230
1
0
LINE
5
1A5
100
AcDbEntity
8
1
62
256
6
ByLayer
370
18
48
1
60
1
100
AcDbLine
10
127.332794
20
-28.999998
30
0
11
126.87201
21
-32.5
31
0
39
0
210
0
220
0
230
1
0
LINE
5
1A7
100
AcDbEntity
8
1
62
256
6
ByLayer
370
18
48
1
60
1
100
AcDbLine
10
126.87201
20
32.5
30
0
11
127.332794
21
29.000002
31
0
39
0
210
0
220
0
230
1
0
LINE
5
1A8
100
AcDbEntity
8
1
62
256
6
ByLayer
370
18
48
1
60
1
100
AcDbLine
10
127.332794
20
29.000002
30
0
11
126.411226
21
28.999998
31
0
39
0
210
0
220
0
230
1
0
LINE
5
1A9
100
AcDbEntity
8
1
62
256
6
ByLayer
370
18
48
1
60
1
100
AcDbLine
10
126.411226
20
28.999998
30
0
11
126.87201
21
32.5
31
0
39
0
210
0
220
0
230
1
0
LINE
5
1AD
100
AcDbEntity
8
1
62
256
6
ByLayer
370
18
48
1
60
1
100
AcDbLine
10
-66.875025
20
49.965
30
0
11
-66.414241
21
46.465002
31
0
39
0
210
0
220
0
230
1
0
LINE
5
1AE
100
AcDbEntity
8
1
62
256
6
ByLayer
370
18
48
1
60
1
100
AcDbLine
10
-66.414241
20
46.465002
30
0
11
-67.335809
21
46.464998
31
0
39
0
210
0
220
0
230
1
0
LINE
5
1AF
100
AcDbEntity
8
1
62
256
6
ByLayer
370
18
48
1
60
1
100
AcDbLine
10
-67.335809
20
46.464998
30
0
11
-66.875025
21
49.965
31
0
39
0
210
0
220
0
230
1
0
LINE
5
1B1
100
AcDbEntity
8
1
62
256
6
ByLayer
370
18
48
1
60
1
100
AcDbLine
10
-66.875025
20
-49.965
30
0
11
-67.335809
21
-46.465002
31
0
39
0
210
0
220
0
230
1
0
LINE
5
1B2
100
AcDbEntity
8
1
62
256
6
ByLayer
370
18
48
1
60
1
100
AcDbLine
10
-67.335809
20
-46.465002
30
0
11
-66.414241
21
-46.464998
31
0
39
0
210
0
220
0
230
1
0
LINE
5
1B3
100
AcDbEntity
8
1
62
256
6
ByLayer
370
18
48
1
60
1
100
AcDbLine
10
-66.414241
20
-46.464998
30
0
11
-66.875025
21
-49.965
31
0
39
0
210
0
220
0
230
1
0
LINE
5
1B6
100
AcDbEntity
8
1
62
256
6
ByLayer
370
18
48
1
60
1
100
AcDbLine
10
100
20
62.815
30
0
11
96.500002
21
62.354216
31
0
39
0
210
0
220
0
230
1
0
LINE
5
1B7
100
AcDbEntity
8
1
62
256
6
ByLayer
370
18
48
1
60
1
100
AcDbLine
10
96.500002
20
62.354216
30
0
11
96.499998
21
63.275784
31
0
39
0
210
0
220
0
230
1
0
LINE
5
1B8
100
AcDbEntity
8
1
62
256
6
ByLayer
370
18
48
1
60
1
100
AcDbLine
10
96.499998
20
63.275784
30
0
11
100
21
62.815
31
0
39
0
210
0
220
0
230
1
0
LINE
5
1BA
100
AcDbEntity
8
1
62
256
6
ByLayer
370
18
48
1
60
1
100
AcDbLine
10
28.95
20
62.815
30
0
11
32.449998
21
63.275784
31
0
39
0
210
0
220
0
230
1
0
LINE
5
1BB
100
AcDbEntity
8
1
62
256
6
ByLayer
370
18
48
1
60
1
100
AcDbLine
10
32.449998
20
63.275784
30
0
11
32.450002
21
62.354216
31
0
39
0
210
0
220
0
230
1
0
LINE
5
1BC
100
AcDbEntity
8
1
62
256
6
ByLayer
370
18
48
1
60
1
100
AcDbLine
10
32.450002
20
62.354216
30
0
11
28.95
21
62.815
31
0
39
0
210
0
220
0
230
1
0
LINE
5
1BF
100
AcDbEntity
8
1
62
256
6
ByLayer
370
18
48
1
60
1
100
AcDbLine
10
0
20
72.815
30
0
11
3.499998
21
73.275784
31
0
39
0
210
0
220
0
230
1
0
LINE
5
1C0
100
AcDbEntity
8
1
62
256
6
ByLayer
370
18
48
1
60
1
100
AcDbLine
10
3.499998
20
73.275784
30
0
11
3.500002
21
72.354216
31
0
39
0
210
0
220
0
230
1
0
LINE
5
1C1
100
AcDbEntity
8
1
62
256
6
ByLayer
370
18
48
1
60
1
100
AcDbLine
10
3.500002
20
72.354216
30
0
11
0
21
72.815
31
0
39
0
210
0
220
0
230
1
0
LINE
5
1C3
100
AcDbEntity
8
1
62
256
6
ByLayer
370
18
48
1
60
1
100
AcDbLine
10
100
20
72.815
30
0
11
96.500002
21
72.354216
31
0
39
0
210
0
220
0
230
1
0
LINE
5
1C4
100
AcDbEntity
8
1
62
256
6
ByLayer
370
18
48
1
60
1
100
AcDbLine
10
96.500002
20
72.354216
30
0
11
96.499998
21
73.275784
31
0
39
0
210
0
220
0
230
1
0
LINE
5
1C5
100
AcDbEntity
8
1
62
256
6
ByLayer
370
18
48
1
60
1
100
AcDbLine
10
96.499998
20
73.275784
30
0
11
100
21
72.815
31
0
39
0
210
0
220
0
230
1
0
LINE
5
1C8
100
AcDbEntity
8
1
62
256
6
ByLayer
370
18
48
1
60
1
100
AcDbLine
10
0
20
72.815
30
0
11
-3.499998
21
72.354216
31
0
39
0
210
0
220
0
230
1
0
LINE
5
1C9
100
AcDbEntity
8
1
62
256
6
ByLayer
370
18
48
1
60
1
100
AcDbLine
10
-3.499998
20
72.354216
30
0
11
-3.500002
21
73.275784
31
0
39
0
210
0
220
0
230
1
0
LINE
5
1CA
100
AcDbEntity
8
1
62
256
6
ByLayer
370
18
48
1
60
1
100
AcDbLine
10
-3.500002
20
73.275784
30
0
11
0
21
72.815
31
0
39
0
210
0
220
0
230
1
0
LINE
5
1CC
100
AcDbEntity
8
1
62
256
6
ByLayer
370
18
48
1
60
1
100
AcDbLine
10
-49.9
20
72.815
30
0
11
-46.400002
21
73.275784
31
0
39
0
210
0
220
0
230
1
0
LINE
5
1CD
100
AcDbEntity
8
1
62
256
6
ByLayer
370
18
48
1
60
1
100
AcDbLine
10
-46.400002
20
73.275784
30
0
11
-46.399998
21
72.354216
31
0
39
0
210
0
220
0
230
1
0
LINE
5
1CE
100
AcDbEntity
8
1
62
256
6
ByLayer
370
18
48
1
60
1
100
AcDbLine
10
-46.399998
20
72.354216
30
0
11
-49.9
21
72.815
31
0
39
0
210
0
220
0
230
1
0
MTEXT
5
19F
100
AcDbEntity
8
SK2
62
256
6
ByLayer
370
18
48
1
60
0
100
AcDbMText
10
125.307377
20
-4.530622
30
0
210
0
220
0
230
1
1
%%c
40
3.5
41
0
44
1.084337
50
90
71
7
72
5
7
iso_b_vert
0
MTEXT
5
1A2
100
AcDbEntity
8
SK2
62
256
6
ByLayer
370
18
48
1
60
0
100
AcDbMText
10
125.307377
20
2.442034
30
0
210
0
220
0
230
1
1
\W0.6740;65
40
3.5
41
0
44
1.084337
50
90
71
7
72
5
7
iso_b_vert
0
MTEXT
5
1AB
100
AcDbEntity
8
SK2
62
256
6
ByLayer
370
18
48
1
60
0
100
AcDbMText
10
-68.439659
20
-5.400922
30
0
210
0
220
0
230
1
1
%%c
40
3.5
41
0
44
1.084337
50
90
71
7
72
5
7
iso_b_vert
0
MTEXT
5
1AC
100
AcDbEntity
8
SK2
62
256
6
ByLayer
370
18
48
1
60
0
100
AcDbMText
10
-68.439659
20
1.571734
30
0
210
0
220
0
230
1
1
\W0.6217;100
40
3.5
41
0
44
1.084337
50
90
71
7
72
5
7
iso_b_vert
0
MTEXT
5
1B5
100
AcDbEntity
8
2
62
256
6
ByLayer
370
18
48
1
60
0
100
AcDbMText
10
63.007467
20
63.847634
30
0
210
0
220
0
230
1
1
\W0.6351;71
40
3.5
41
0
44
1.084337
50
0
71
7
72
5
7
iso_b_vert
0
MTEXT
5
1BE
100
AcDbEntity
8
SK2
62
256
6
ByLayer
370
18
48
1
60
0
100
AcDbMText
10
47.224734
20
73.847634
30
0
210
0
220
0
230
1
1
\W0.6217;100
40
3.5
41
0
44
1.084337
50
0
71
7
72
5
7
iso_b_vert
0
MTEXT
5
1C7
100
AcDbEntity
8
SK2
62
256
6
ByLayer
370
18
48
1
60
0
100
AcDbMText
10
-29.055966
20
73.847634
30
0
210
0
220
0
230
1
1
\W0.7756;49.9
40
3.5
41
0
44
1.084337
50
0
71
7
72
5
7
iso_b_vert
0
MTEXT
5
1D0
100
AcDbEntity
8
SK6
62
256
6
ByLayer
370
18
48
1
60
0
100
AcDbMText
10
54.983324
20
-92.114886
30
0
210
0
220
0
230
1
1
\W0.7498;HA10-WE25-B065-100
40
3
41
0
44
1.084337
50
0
71
7
72
5
7
iso_b_vert
0
HATCH
5
1A6
100
AcDbEntity
8
SK2
62
256
6
ByLayer
370
13
48
1
60
0
100
AcDbHatch
10
0
20
0
30
0
210
0
220
0
230
1
2
ANSI31
70
0
71
0
91
1
92
5
93
3
72
1
10
126.872010088274
20
-32.4999999999999
11
126.411226346722
21
-29.0000016925531
72
1
10
126.411226346722
20
-29.0000016925531
11
127.332793829827
21
-28.9999983074467
72
1
10
127.332793829827
20
-28.9999983074467
11
126.872010088274
21
-32.4999999999999
97
0
75
0
76
1
52
0
41
0.0062
77
0
78
1
53
45
43
0
44
0
45
-0.0139193969876572
46
0.0139193969876572
79
0
47
0
98
1
10
0
20
0
0
HATCH
5
1AA
100
AcDbEntity
8
SK2
62
256
6
ByLayer
370
13
48
1
60
0
100
AcDbHatch
10
0
20
0
30
0
210
0
220
0
230
1
2
ANSI31
70
0
71
0
91
1
92
5
93
3
72
1
10
126.872010088274
20
32.5000000000001
11
127.332793829827
21
29.0000016925533
72
1
10
127.332793829827
20
29.0000016925533
11
126.411226346722
21
28.9999983074469
72
1
10
126.411226346722
20
28.9999983074469
11
126.872010088274
21
32.5000000000001
97
0
75
0
76
1
52
0
41
0.0062
77
0
78
1
53
45
43
0
44
0
45
-0.0139193969876572
46
0.0139193969876572
79
0
47
0
98
1
10
0
20
0
0
HATCH
5
1B0
100
AcDbEntity
8
SK2
62
256
6
ByLayer
370
13
48
1
60
0
100
AcDbHatch
10
0
20
0
30
0
210
0
220
0
230
1
2
ANSI31
70
0
71
0
91
1
92
5
93
3
72
1
10
-66.8750250000001
20
49.965
11
-66.4142412584473
21
46.4650016925532
72
1
10
-66.4142412584473
20
46.4650016925532
11
-67.3358087415528
21
46.4649983074468
72
1
10
-67.3358087415528
20
46.4649983074468
11
-66.8750250000001
21
49.965
97
0
75
0
76
1
52
0
41
0.0062
77
0
78
1
53
45
43
0
44
0
45
-0.0139193969876572
46
0.0139193969876572
79
0
47
0
98
1
10
0
20
0
0
HATCH
5
1B4
100
AcDbEntity
8
SK2
62
256
6
ByLayer
370
13
48
1
60
0
100
AcDbHatch
10
0
20
0
30
0
210
0
220
0
230
1
2
ANSI31
70
0
71
0
91
1
92
5
93
3
72
1
10
-66.8750250000001
20
-49.965
11
-67.3358087415528
21
-46.4650016925532
72
1
10
-67.3358087415528
20
-46.4650016925532
11
-66.4142412584473
21
-46.4649983074468
72
1
10
-66.4142412584473
20
-46.4649983074468
11
-66.8750250000001
21
-49.965
97
0
75
0
76
1
52
0
41
0.0062
77
0
78
1
53
45
43
0
44
0
45
-0.0139193969876572
46
0.0139193969876572
79
0
47
0
98
1
10
0
20
0
0
HATCH
5
1B9
100
AcDbEntity
8
2
62
256
6
ByLayer
370
13
48
1
60
0
100
AcDbHatch
10
0
20
0
30
0
210
0
220
0
230
1
2
ANSI31
70
0
71
0
91
1
92
5
93
3
72
1
10
100
20
62.8150000000001
11
96.5000016925532
21
62.3542162584473
72
1
10
96.5000016925532
20
62.3542162584473
11
96.4999983074468
21
63.2757837415529
72
1
10
96.4999983074468
20
63.2757837415529
11
100
21
62.8150000000001
97
0
75
0
76
1
52
0
41
0.0062
77
0
78
1
53
45
43
0
44
0
45
-0.0139193969876572
46
0.0139193969876572
79
0
47
0
98
1
10
0
20
0
0
HATCH
5
1BD
100
AcDbEntity
8
2
62
256
6
ByLayer
370
13
48
1
60
0
100
AcDbHatch
10
0
20
0
30
0
210
0
220
0
230
1
2
ANSI31
70
0
71
0
91
1
92
5
93
3
72
1
10
28.95
20
62.8150000000001
11
32.4499983074468
21
63.2757837415529
72
1
10
32.4499983074468
20
63.2757837415529
11
32.4500016925532
21
62.3542162584473
72
1
10
32.4500016925532
20
62.3542162584473
11
28.95
21
62.8150000000001
97
0
75
0
76
1
52
0
41
0.0062
77
0
78
1
53
45
43
0
44
0
45
-0.0139193969876572
46
0.0139193969876572
79
0
47
0
98
1
10
0
20
0
0
HATCH
5
1C2
100
AcDbEntity
8
SK2
62
256
6
ByLayer
370
13
48
1
60
0
100
AcDbHatch
10
0
20
0
30
0
210
0
220
0
230
1
2
ANSI31
70
0
71
0
91
1
92
5
93
3
72
1
10
0
20
72.8150000000001
11
3.49999830744682
21
73.2757837415529
72
1
10
3.49999830744682
20
73.2757837415529
11
3.50000169255318
21
72.3542162584473
72
1
10
3.50000169255318
20
72.3542162584473
11
0
21
72.8150000000001
97
0
75
0
76
1
52
0
41
0.0062
77
0
78
1
53
45
43
0
44
0
45
-0.0139193969876572
46
0.0139193969876572
79
0
47
0
98
1
10
0
20
0
0
HATCH
5
1C6
100
AcDbEntity
8
SK2
62
256
6
ByLayer
370
13
48
1
60
0
100
AcDbHatch
10
0
20
0
30
0
210
0
220
0
230
1
2
ANSI31
70
0
71
0
91
1
92
5
93
3
72
1
10
100
20
72.8150000000001
11
96.5000016925532
21
72.3542162584473
72
1
10
96.5000016925532
20
72.3542162584473
11
96.4999983074468
21
73.2757837415529
72
1
10
96.4999983074468
20
73.2757837415529
11
100
21
72.8150000000001
97
0
75
0
76
1
52
0
41
0.0062
77
0
78
1
53
45
43
0
44
0
45
-0.0139193969876572
46
0.0139193969876572
79
0
47
0
98
1
10
0
20
0
0
HATCH
5
1CB
100
AcDbEntity
8
SK2
62
256
6
ByLayer
370
13
48
1
60
0
100
AcDbHatch
10
0
20
0
30
0
210
0
220
0
230
1
2
ANSI31
70
0
71
0
91
1
92
5
93
3
72
1
10
0
20
72.8150000000001
11
-3.4999983074468
21
72.3542162584473
72
1
10
-3.4999983074468
20
72.3542162584473
11
-3.5000016925532
21
73.2757837415529
72
1
10
-3.5000016925532
20
73.2757837415529
11
0
21
72.8150000000001
97
0
75
0
76
1
52
0
41
0.0062
77
0
78
1
53
45
43
0
44
0
45
-0.0139193969876572
46
0.0139193969876572
79
0
47
0
98
1
10
0
20
0
0
HATCH
5
1CF
100
AcDbEntity
8
SK2
62
256
6
ByLayer
370
13
48
1
60
0
100
AcDbHatch
10
0
20
0
30
0
210
0
220
0
230
1
2
ANSI31
70
0
71
0
91
1
92
5
93
3
72
1
10
-49.9
20
72.8150000000001
11
-46.4000016925532
21
73.2757837415529
72
1
10
-46.4000016925532
20
73.2757837415529
11
-46.3999983074468
21
72.3542162584473
72
1
10
-46.3999983074468
20
72.3542162584473
11
-49.9
21
72.8150000000001
97
0
75
0
76
1
52
0
41
0.0062
77
0
78
1
53
45
43
0
44
0
45
-0.0139193969876572
46
0.0139193969876572
79
0
47
0
98
1
10
0
20
0
0
ENDSEC
0
SECTION
2
OBJECTS
0
DICTIONARY
5
23e
330
0
100
AcDbDictionary
280
0
281
1
3
ACAD_GROUP
350
23f
3
ACAD_MLINESTYLE
350
240
0
DICTIONARY
5
23f
330
0
100
AcDbDictionary
280
0
281
1
0
DICTIONARY
5
240
330
0
100
AcDbDictionary
280
0
281
1
3
Standard
350
18
0
MLINESTYLE
5
18
330
240
100
AcDbMlineStyle
2
Standard
70
0
3

62
256
51
90
52
90
71
2
49
-0.5
62
256
6
ByLayer
49
0.5
62
256
6
ByLayer
0
RASTERVARIABLES
5
22d
330

100
AcDbRasterVariables
90
0
70
1
71
1
72
1
0
ENDSEC
0
EOF
