0
SECTION
2
HEADER
9
$ACADVER
1
AC1015
9
$DWGCODEPAGE
3
ANSI_1252
9
$HANDSEED
5
229
9
$ANGBASE
50
0
9
$ANGDIR
70
0
9
$ATTMODE
70
1
9
$AUNITS
70
0
9
$AUPREC
70
0
9
$CECOLOR
62
256
9
$CELTSCALE
40
1
9
$CELTYPE
6
ByLayer
9
$CELWEIGHT
370
18
9
$CLAYER
8
0
9
$CMLJUST
70
0
9
$CMLSCALE
40
1
9
$CMLSTYLE
2
Standard
9
$DIMSTYLE
2
Standard
9
$TEXTSIZE
40
0.2
9
$TEXTSTYLE
7
Standard
9
$LUNITS
70
2
9
$LUPREC
70
4
9
$EXTNAMES
290
1
9
$INSUNITS
70
4
9
$LTSCALE
40
1
9
$LWDISPLAY
290
1
9
$PDMODE
70
0
9
$PDSIZE
40
0
9
$PLINEGEN
70
0
0
ENDSEC
0
SECTION
2
CLASSES
0
CLASS
1
RASTERVARIABLES
2
AcDbRasterVariables
3
ISM
90
0
280
0
281
0
0
ENDSEC
0
SECTION
2
TABLES
0
TABLE
2
VPORT
5
21f
100
AcDbSymbolTable
0
VPORT
5
1
100
AcDbSymbolTableRecord
100
AcDbViewportTableRecord
2
*Active
70
0
10
0
20
0
11
1
21
1
12
-1
22
1
13
0
23
0
14
0.5
24
0.5
15
10
25
10
16
0
26
0
36
1
17
0
27
0
37
0
0
ENDTAB
0
TABLE
2
LTYPE
5
220
100
AcDbSymbolTable
0
LTYPE
5
14
100
AcDbSymbolTableRecord
100
AcDbLinetypeTableRecord
70
0
2
ByBlock
3

72
65
73
0
40
0
0
LTYPE
5
15
100
AcDbSymbolTableRecord
100
AcDbLinetypeTableRecord
70
0
2
ByLayer
3

72
65
73
0
40
0
0
LTYPE
5
16
100
AcDbSymbolTableRecord
100
AcDbLinetypeTableRecord
70
0
2
Continuous
3
Solid line
72
65
73
0
40
0
0
LTYPE
5
6E
100
AcDbSymbolTableRecord
100
AcDbLinetypeTableRecord
70
0
2
CENTER
3
____ _ ____ _ ____ _ ____
72
65
73
4
40
47.5
49
22
74
0
49
-8.5
74
0
49
8.5
74
0
49
-8.5
74
0
0
LTYPE
5
6F
100
AcDbSymbolTableRecord
100
AcDbLinetypeTableRecord
70
0
2
DASHED
3
__ __ __ __ __ __ __ __ __
72
65
73
2
40
25.72
49
12.86
74
0
49
-12.86
74
0
0
ENDTAB
0
TABLE
2
LAYER
5
221
100
AcDbSymbolTable
0
LAYER
5
10
100
AcDbSymbolTableRecord
100
AcDbLayerTableRecord
2
0
70
0
62
7
6
Continuous
290
1
370
-3
390
0
0
LAYER
5
71
100
AcDbSymbolTableRecord
100
AcDbLayerTableRecord
2
2
70
0
62
7
6
Continuous
290
1
370
-3
390
0
0
LAYER
5
81
100
AcDbSymbolTableRecord
100
AcDbLayerTableRecord
2
81
70
0
62
-3
6
Continuous
290
1
370
-3
390
0
0
LAYER
5
83
100
AcDbSymbolTableRecord
100
AcDbLayerTableRecord
2
80
70
0
62
-6
6
Continuous
290
1
370
-3
390
0
0
LAYER
5
86
100
AcDbSymbolTableRecord
100
AcDbLayerTableRecord
2
4
70
0
62
-2
6
CENTER
290
1
370
-3
390
0
0
LAYER
5
89
100
AcDbSymbolTableRecord
100
AcDbLayerTableRecord
2
1
70
0
62
4
6
Continuous
290
1
370
-3
390
0
0
LAYER
5
20c
100
AcDbSymbolTableRecord
100
AcDbLayerTableRecord
2
SK1
70
0
62
4
6
Continuous
290
1
370
-3
390
0
0
LAYER
5
20d
100
AcDbSymbolTableRecord
100
AcDbLayerTableRecord
2
SK2
70
0
62
7
6
Continuous
290
1
370
-3
390
0
0
LAYER
5
20e
100
AcDbSymbolTableRecord
100
AcDbLayerTableRecord
2
SK6
70
0
62
5
6
Continuous
290
1
370
-3
390
0
0
ENDTAB
0
TABLE
2
STYLE
5
222
100
AcDbSymbolTable
0
STYLE
5
11
100
AcDbSymbolTableRecord
100
AcDbTextStyleTableRecord
2
Standard
3
txt
70
0
71
0
40
0
41
1
42
0
50
0
0
STYLE
5
17E
100
AcDbSymbolTableRecord
100
AcDbTextStyleTableRecord
2
iso_b_vert
3
simplex.shx
70
0
71
0
40
0
41
1
42
0
50
0
0
STYLE
5
17F
100
AcDbSymbolTableRecord
100
AcDbTextStyleTableRecord
2
DWGDirectTextStyle
3
simplex
70
0
71
0
40
0
41
1
42
0
50
0
0
ENDTAB
0
TABLE
2
DIMSTYLE
5
223
100
AcDbSymbolTable
100
AcDbDimStyleTable
0
DIMSTYLE
105
27
100
AcDbSymbolTableRecord
100
AcDbDimStyleTableRecord
2
Standard
70
0
3
<>
41
0.18
42
0.0625
44
0.18
140
0.18
147
0.09
73
0
74
0
77
1
271
2
275
0
278
52
280
0
340
11
0
ENDTAB
0
TABLE
2
VIEW
5
224
100
AcDbSymbolTable
0
ENDTAB
0
TABLE
2
UCS
5
225
100
AcDbSymbolTable
0
ENDTAB
0
TABLE
2
APPID
5
226
100
AcDbSymbolTable
0
APPID
5
12
100
AcDbSymbolTableRecord
100
AcDbRegAppTableRecord
2
ACAD
70
0
0
APPID
5
208
100
AcDbSymbolTableRecord
100
AcDbRegAppTableRecord
2
ACAD_MLEADERVER
70
0
0
ENDTAB
0
TABLE
2
BLOCK_RECORD
5
227
100
AcDbSymbolTable
0
BLOCK_RECORD
5
1F
100
AcDbSymbolTableRecord
100
AcDbBlockTableRecord
2
*Model_Space
340
0
70
0
0
BLOCK_RECORD
5
1B
100
AcDbSymbolTableRecord
100
AcDbBlockTableRecord
2
*Paper_Space
340
0
70
0
0
BLOCK_RECORD
5
23
100
AcDbSymbolTableRecord
100
AcDbBlockTableRecord
2
*Paper_Space0
340
0
70
0
0
ENDTAB
0
ENDSEC
0
SECTION
2
BLOCKS
0
BLOCK
5
20
100
AcDbEntity
8
0
100
AcDbBlockBegin
2
*Model_Space
70
0
10
0
20
0
30
0
3
*Model_Space
0
ENDBLK
5
21
100
AcDbEntity
8
0
100
AcDbBlockEnd
0
BLOCK
5
1C
100
AcDbEntity
8
0
100
AcDbBlockBegin
2
*Paper_Space
70
0
10
0
20
0
30
0
3
*Paper_Space
0
ENDBLK
5
1D
100
AcDbEntity
8
0
100
AcDbBlockEnd
0
BLOCK
5
24
100
AcDbEntity
8
0
100
AcDbBlockBegin
2
*Paper_Space0
70
0
10
0
20
0
30
0
3
*Paper_Space0
0
ENDBLK
5
25
100
AcDbEntity
8
0
100
AcDbBlockEnd
0
ENDSEC
0
SECTION
2
ENTITIES
0
ARC
5
113
100
AcDbEntity
8
SK2
62
256
6
ByLayer
370
18
48
1
60
0
100
AcDbCircle
39
0
10
42.8
20
0
30
0
40
2.07
210
0
220
0
230
1
100
AcDbArc
50
74.942835
51
105.057165
0
ARC
5
114
100
AcDbEntity
8
SK2
62
256
6
ByLayer
370
18
48
1
60
0
100
AcDbCircle
39
0
10
42.8
20
0
30
0
40
2.07
210
0
220
0
230
1
100
AcDbArc
50
254.942835
51
285.057165
0
ARC
5
115
100
AcDbEntity
8
SK2
62
256
6
ByLayer
370
18
48
1
60
0
100
AcDbCircle
39
0
10
42.8
20
0
30
0
40
2.07
210
0
220
0
230
1
100
AcDbArc
50
14.942835
51
45.057165
0
ARC
5
116
100
AcDbEntity
8
SK2
62
256
6
ByLayer
370
18
48
1
60
0
100
AcDbCircle
39
0
10
42.8
20
0
30
0
40
2.07
210
0
220
0
230
1
100
AcDbArc
50
314.942835
51
345.057165
0
ARC
5
117
100
AcDbEntity
8
SK2
62
256
6
ByLayer
370
18
48
1
60
0
100
AcDbCircle
39
0
10
42.8
20
0
30
0
40
2.07
210
0
220
0
230
1
100
AcDbArc
50
134.942835
51
165.057165
0
ARC
5
118
100
AcDbEntity
8
SK2
62
256
6
ByLayer
370
18
48
1
60
0
100
AcDbCircle
39
0
10
42.8
20
0
30
0
40
2.07
210
0
220
0
230
1
100
AcDbArc
50
194.942835
51
225.057165
0
ARC
5
11B
100
AcDbEntity
8
SK2
62
256
6
ByLayer
370
18
48
1
60
0
100
AcDbCircle
39
0
10
65.2
20
0
30
0
40
2.07
210
0
220
0
230
1
100
AcDbArc
50
134.942835
51
165.057165
0
ARC
5
11C
100
AcDbEntity
8
SK2
62
256
6
ByLayer
370
18
48
1
60
0
100
AcDbCircle
39
0
10
65.2
20
0
30
0
40
2.07
210
0
220
0
230
1
100
AcDbArc
50
194.942835
51
225.057165
0
ARC
5
11D
100
AcDbEntity
8
SK2
62
256
6
ByLayer
370
18
48
1
60
0
100
AcDbCircle
39
0
10
65.2
20
0
30
0
40
2.07
210
0
220
0
230
1
100
AcDbArc
50
254.942835
51
285.057165
0
ARC
5
11E
100
AcDbEntity
8
SK2
62
256
6
ByLayer
370
18
48
1
60
0
100
AcDbCircle
39
0
10
65.2
20
0
30
0
40
2.07
210
0
220
0
230
1
100
AcDbArc
50
74.942835
51
105.057165
0
ARC
5
11F
100
AcDbEntity
8
SK2
62
256
6
ByLayer
370
18
48
1
60
0
100
AcDbCircle
39
0
10
65.2
20
0
30
0
40
2.07
210
0
220
0
230
1
100
AcDbArc
50
14.942835
51
45.057165
0
ARC
5
120
100
AcDbEntity
8
SK2
62
256
6
ByLayer
370
18
48
1
60
0
100
AcDbCircle
39
0
10
65.2
20
0
30
0
40
2.07
210
0
220
0
230
1
100
AcDbArc
50
314.942835
51
345.057165
0
ARC
5
123
100
AcDbEntity
8
1
62
256
6
ByLayer
370
18
48
1
60
0
100
AcDbCircle
39
0
10
27.624598
20
20.4
30
0
40
0.599999999999998
210
0
220
0
230
1
100
AcDbArc
50
270
51
285
0
ARC
5
124
100
AcDbEntity
8
1
62
256
6
ByLayer
370
18
48
1
60
0
100
AcDbCircle
39
0
10
27.624598
20
-20.4
30
0
40
0.599999999999998
210
0
220
0
230
1
100
AcDbArc
50
75
51
90
0
ARC
5
125
100
AcDbEntity
8
1
62
256
6
ByLayer
370
18
48
1
60
0
100
AcDbCircle
39
0
10
26.95
20
20.8
30
0
40
1
210
0
220
0
230
1
100
AcDbArc
50
180
51
270
0
ARC
5
126
100
AcDbEntity
8
1
62
256
6
ByLayer
370
18
48
1
60
0
100
AcDbCircle
39
0
10
26.95
20
-20.8
30
0
40
1
210
0
220
0
230
1
100
AcDbArc
50
90
51
180
0
ARC
5
127
100
AcDbEntity
8
SK1
62
256
6
ByLayer
370
18
48
1
60
0
100
AcDbCircle
39
0
10
-27.2
20
22.245
30
0
40
1.4
210
0
220
0
230
1
100
AcDbArc
50
270
51
304.922922
0
ARC
5
128
100
AcDbEntity
8
SK1
62
256
6
ByLayer
370
18
48
1
60
0
100
AcDbCircle
39
0
10
-23.2
20
-22.245
30
0
40
1.4
210
0
220
0
230
1
100
AcDbArc
50
39.740105
51
90
0
ARC
5
129
100
AcDbEntity
8
SK1
62
256
6
ByLayer
370
18
48
1
60
0
100
AcDbCircle
39
0
10
-0.45
20
24.570431
30
0
40
0.600000000000001
210
0
220
0
230
1
100
AcDbArc
50
270
51
318.590378
0
ARC
5
12A
100
AcDbEntity
8
SK1
62
256
6
ByLayer
370
18
48
1
60
0
100
AcDbCircle
39
0
10
-0.45
20
-24.570431
30
0
40
0.600000000000001
210
0
220
0
230
1
100
AcDbArc
50
41.409622
51
90
0
CIRCLE
5
111
100
AcDbEntity
8
1
62
256
6
ByLayer
370
18
48
1
60
0
100
AcDbCircle
10
65.2
20
0
30
0
40
4.49999999999998
39
0
210
0
220
0
230
1
0
CIRCLE
5
112
100
AcDbEntity
8
1
62
256
6
ByLayer
370
18
48
1
60
0
100
AcDbCircle
10
42.8
20
0
30
0
40
4.5
39
0
210
0
220
0
230
1
0
CIRCLE
5
119
100
AcDbEntity
8
SK2
62
256
6
ByLayer
370
18
48
1
60
0
100
AcDbCircle
10
42.8
20
0
30
0
40
4.235
39
0
210
0
220
0
230
1
0
CIRCLE
5
11A
100
AcDbEntity
8
SK2
62
256
6
ByLayer
370
18
48
1
60
0
100
AcDbCircle
10
42.8
20
0
30
0
40
2.5
39
0
210
0
220
0
230
1
0
CIRCLE
5
121
100
AcDbEntity
8
SK2
62
256
6
ByLayer
370
18
48
1
60
0
100
AcDbCircle
10
65.2
20
0
30
0
40
4.235
39
0
210
0
220
0
230
1
0
CIRCLE
5
122
100
AcDbEntity
8
SK2
62
256
6
ByLayer
370
18
48
1
60
0
100
AcDbCircle
10
65.2
20
0
30
0
40
2.5
39
0
210
0
220
0
230
1
0
ELLIPSE
5
12B
100
AcDbEntity
8
1
62
256
6
ByLayer
370
18
48
1
60
0
100
AcDbEllipse
10
18
20
8.677456
30
0
11
-1.75
21
-5.62850005318694E-16
31
0
210
0
220
0
230
1
40
0.909961
41
-1.57079643071357
42
-1.03289677078831
0
ELLIPSE
5
12C
100
AcDbEntity
8
1
62
256
6
ByLayer
370
18
48
1
60
0
100
AcDbEllipse
10
18
20
8.677456
30
0
11
-1.75
21
-5.62850005318694E-16
31
0
210
0
220
0
230
1
40
0.909961
41
-2.10525981430568
42
-1.57079643071357
0
ELLIPSE
5
12D
100
AcDbEntity
8
1
62
256
6
ByLayer
370
18
48
1
60
0
100
AcDbEllipse
10
18
20
-8.677456
30
0
11
1.75
21
0
31
0
210
0
220
0
230
1
40
0.909961
41
-2.11291715535362
42
-1.02838029489243
0
ELLIPSE
5
12E
100
AcDbEntity
8
1
62
256
6
ByLayer
370
18
48
1
60
0
100
AcDbEllipse
10
18
20
3.992678
30
0
11
-1.75
21
-5.62850005318694E-16
31
0
210
0
220
0
230
1
40
0.981627
41
-1.57079652902395
42
-0.377187843517458
0
ELLIPSE
5
12F
100
AcDbEntity
8
1
62
256
6
ByLayer
370
18
48
1
60
0
100
AcDbEllipse
10
18
20
3.992678
30
0
11
-1.75
21
-5.62850005318694E-16
31
0
210
0
220
0
230
1
40
0.981627
41
-2.78777063552699
42
-1.57079595759539
0
ELLIPSE
5
130
100
AcDbEntity
8
1
62
256
6
ByLayer
370
18
48
1
60
0
100
AcDbEllipse
10
18
20
-3.992678
30
0
11
1.75
21
0
31
0
210
0
220
0
230
1
40
0.981627
41
-2.77775696100372
42
-0.372278977560744
0
ELLIPSE
5
131
100
AcDbEntity
8
SK1
62
256
6
ByLayer
370
13
48
1
60
0
100
AcDbEllipse
10
-23.2
20
-21.778508
30
0
11
-1.4
21
-4.50280004254955E-16
31
0
210
0
220
0
230
1
40
0.891007
41
-2.07355898834548
42
-1.5707963267949
0
POINT
5
70
100
AcDbEntity
8
2
62
256
6
ByLayer
370
18
48
1
60
0
100
AcDbPoint
10
25.95
20
0
30
0
39
0
210
0
220
0
230
1
50
360
0
POINT
5
72
100
AcDbEntity
8
2
62
256
6
ByLayer
370
18
48
1
60
0
100
AcDbPoint
10
80
20
0
30
0
39
0
210
0
220
0
230
1
50
360
0
POINT
5
73
100
AcDbEntity
8
2
62
256
6
ByLayer
370
18
48
1
60
0
100
AcDbPoint
10
65.2
20
0
30
0
39
0
210
0
220
0
230
1
50
360
0
POINT
5
74
100
AcDbEntity
8
2
62
256
6
ByLayer
370
18
48
1
60
0
100
AcDbPoint
10
65.2
20
0
30
0
39
0
210
0
220
0
230
1
50
360
0
POINT
5
75
100
AcDbEntity
8
2
62
256
6
ByLayer
370
18
48
1
60
0
100
AcDbPoint
10
80
20
0
30
0
39
0
210
0
220
0
230
1
50
360
0
POINT
5
76
100
AcDbEntity
8
2
62
256
6
ByLayer
370
18
48
1
60
0
100
AcDbPoint
10
65.2
20
0
30
0
39
0
210
0
220
0
230
1
50
360
0
POINT
5
77
100
AcDbEntity
8
2
62
256
6
ByLayer
370
18
48
1
60
0
100
AcDbPoint
10
80
20
0
30
0
39
0
210
0
220
0
230
1
50
360
0
POINT
5
78
100
AcDbEntity
8
2
62
256
6
ByLayer
370
18
48
1
60
0
100
AcDbPoint
10
28.5
20
0
30
0
39
0
210
0
220
0
230
1
50
360
0
POINT
5
79
100
AcDbEntity
8
2
62
256
6
ByLayer
370
18
48
1
60
0
100
AcDbPoint
10
80
20
0
30
0
39
0
210
0
220
0
230
1
50
360
0
POINT
5
7A
100
AcDbEntity
8
2
62
256
6
ByLayer
370
18
48
1
60
0
100
AcDbPoint
10
65.2
20
0
30
0
39
0
210
0
220
0
230
1
50
360
0
POINT
5
7B
100
AcDbEntity
8
2
62
256
6
ByLayer
370
18
48
1
60
0
100
AcDbPoint
10
80
20
0
30
0
39
0
210
0
220
0
230
1
50
360
0
POINT
5
7C
100
AcDbEntity
8
2
62
256
6
ByLayer
370
18
48
1
60
0
100
AcDbPoint
10
0
20
0
30
0
39
0
210
0
220
0
230
1
50
360
0
POINT
5
7D
100
AcDbEntity
8
2
62
256
6
ByLayer
370
18
48
1
60
0
100
AcDbPoint
10
42.8
20
0
30
0
39
0
210
0
220
0
230
1
50
360
0
POINT
5
7E
100
AcDbEntity
8
2
62
256
6
ByLayer
370
18
48
1
60
0
100
AcDbPoint
10
80
20
0
30
0
39
0
210
0
220
0
230
1
50
360
0
POINT
5
7F
100
AcDbEntity
8
2
62
256
6
ByLayer
370
18
48
1
60
0
100
AcDbPoint
10
42.8
20
0
30
0
39
0
210
0
220
0
230
1
50
360
0
POINT
5
80
100
AcDbEntity
8
81
62
256
6
ByLayer
370
18
48
1
60
0
100
AcDbPoint
10
80
20
0
30
0
39
0
210
0
220
0
230
1
50
360
0
POINT
5
82
100
AcDbEntity
8
80
62
256
6
ByLayer
370
18
48
1
60
0
100
AcDbPoint
10
0
20
0
30
0
39
0
210
0
220
0
230
1
50
360
0
SPLINE
5
132
100
AcDbEntity
8
1
62
256
6
ByLayer
370
18
48
1
60
0
100
AcDbSpline
70
4
71
3
72
8
73
4
40
0
40
0
40
0
40
0
40
1
40
1
40
1
40
1
41
1
10
16.075
20
27.8272318284486
30
0
41
1
10
15.5930118860063
20
28.6960191551286
30
0
41
1
10
15.1097064852051
20
29.5640826443993
30
0
41
1
10
14.6253876765866
20
30.4315723180713
30
0
0
SPLINE
5
133
100
AcDbEntity
8
1
62
256
6
ByLayer
370
18
48
1
60
0
100
AcDbSpline
70
4
71
3
72
12
73
8
40
0
40
0
40
0
40
0
40
0.25
40
0.25
40
0.5
40
0.5
40
1
40
1
40
1
40
1
41
1
10
16.075
20
21.0858397386545
30
0
41
1
10
15.9575543463047
20
21.3652183811888
30
0
41
1
10
15.8391567902152
20
21.6442532423245
30
0
41
1
10
15.6006785184763
20
22.2014716575895
30
0
41
1
10
15.4805909149784
20
22.4796718922849
30
0
41
1
10
15.1179575685047
20
23.3131299657863
30
0
41
1
10
14.8730455409432
20
23.8672472232375
30
0
41
1
10
14.6253876765866
20
24.4200409500067
30
0
0
SPLINE
5
134
100
AcDbEntity
8
1
62
256
6
ByLayer
370
18
48
1
60
0
100
AcDbSpline
70
4
71
3
72
8
73
4
40
0
40
0
40
0
40
0
40
1
40
1
40
1
40
1
41
1
10
25.95
20
29.9142205940586
30
0
41
1
10
25.783382336586
20
30.086718788344
30
0
41
1
10
25.6167148649415
20
30.2591685807661
30
0
41
1
10
25.45
20
30.4315723180713
30
0
0
SPLINE
5
135
100
AcDbEntity
8
1
62
256
6
ByLayer
370
18
48
1
60
0
100
AcDbSpline
70
4
71
3
72
8
73
4
40
0
40
0
40
0
40
0
40
1
40
1
40
1
40
1
41
1
10
25.95
20
23.7722190802626
30
0
41
1
10
25.7839428389179
20
23.9885552271468
30
0
41
1
10
25.6172335326702
20
24.2045278276533
30
0
41
1
10
25.4499999999999
20
24.4200409500067
30
0
0
SPLINE
5
136
100
AcDbEntity
8
1
62
256
6
ByLayer
370
18
48
1
60
0
100
AcDbSpline
70
4
71
3
72
8
73
4
40
0
40
0
40
0
40
0
40
1
40
1
40
1
40
1
41
1
10
21.3746123234133
20
30.4315723180713
30
0
41
1
10
20.8902935147948
20
29.5640826443993
30
0
41
1
10
20.4069881139936
20
28.6960191551286
30
0
41
1
10
19.925
20
27.8272318284485
30
0
0
SPLINE
5
137
100
AcDbEntity
8
1
62
256
6
ByLayer
370
18
48
1
60
0
100
AcDbSpline
70
4
71
3
72
12
73
8
40
0
40
0
40
0
40
0
40
0.500000000000001
40
0.500000000000001
40
0.75
40
0.75
40
1
40
1
40
1
40
1
41
1
10
21.3746123234134
20
24.4200409500068
30
0
41
1
10
21.1269480166304
20
23.8672328431859
30
0
41
1
10
20.8820296891945
20
23.313101136971
30
0
41
1
10
20.5193871561882
20
22.47962126342
30
0
41
1
10
20.3992965345052
20
22.2014137408366
30
0
41
1
10
20.1608123241297
20
21.6441807026864
30
0
41
1
10
20.0424022933999
20
21.3651152361162
30
0
41
1
10
19.925
20
21.0858397386545
30
0
0
SPLINE
5
138
100
AcDbEntity
8
1
62
256
6
ByLayer
370
18
48
1
60
0
100
AcDbSpline
70
2053
71
3
72
196
73
192
40
0
40
0
40
0
40
0
40
0.0156249999999974
40
0.0156249999999974
40
0.0312499999999948
40
0.0312499999999948
40
0.0468749999999921
40
0.0468749999999921
40
0.0507812499999915
40
0.0507812499999915
40
0.0546874999999908
40
0.0624999999999893
40
0.0624999999999893
40
0.0781249999999865
40
0.0781249999999865
40
0.0937499999999836
40
0.0937499999999836
40
0.0976562499999829
40
0.0976562499999829
40
0.101562499999982
40
0.109374999999981
40
0.109374999999981
40
0.124999999999978
40
0.124999999999978
40
0.132812499999977
40
0.132812499999977
40
0.136718749999976
40
0.136718749999976
40
0.140624999999975
40
0.140624999999975
40
0.156249999999972
40
0.156249999999972
40
0.171874999999969
40
0.171874999999969
40
0.179687499999967
40
0.179687499999967
40
0.183593749999966
40
0.183593749999966
40
0.187499999999965
40
0.187499999999965
40
0.20312499999996
40
0.20312499999996
40
0.218749999999956
40
0.218749999999956
40
0.226562499999953
40
0.230468749999952
40
0.230468749999952
40
0.234374999999951
40
0.234374999999951
40
0.249999999999946
40
0.249999999999946
40
0.26562499999994
40
0.281249999999936
40
0.281249999999936
40
0.285156249999935
40
0.285156249999935
40
0.289062499999934
40
0.289062499999934
40
0.296874999999932
40
0.296874999999932
40
0.31249999999993
40
0.328124999999928
40
0.328124999999928
40
0.343749999999925
40
0.343749999999925
40
0.347656249999924
40
0.347656249999924
40
0.351562499999923
40
0.359374999999923
40
0.359374999999923
40
0.374999999999922
40
0.39062499999992
40
0.39062499999992
40
0.406249999999919
40
0.406249999999919
40
0.410156249999919
40
0.410156249999919
40
0.414062499999919
40
0.421874999999919
40
0.421874999999919
40
0.43749999999992
40
0.43749999999992
40
0.453124999999921
40
0.453124999999921
40
0.468749999999922
40
0.468749999999922
40
0.476562499999922
40
0.476562499999922
40
0.484374999999922
40
0.484374999999922
40
0.499999999999922
40
0.499999999999922
40
0.515624999999922
40
0.515624999999922
40
0.523437499999922
40
0.523437499999922
40
0.527343749999922
40
0.527343749999922
40
0.531249999999922
40
0.531249999999922
40
0.546874999999923
40
0.546874999999923
40
0.562499999999925
40
0.562499999999925
40
0.578124999999926
40
0.578124999999926
40
0.582031249999927
40
0.582031249999927
40
0.585937499999927
40
0.593749999999928
40
0.593749999999928
40
0.609374999999929
40
0.609374999999929
40
0.617187499999929
40
0.617187499999929
40
0.62109374999993
40
0.62109374999993
40
0.62499999999993
40
0.62499999999993
40
0.64062499999993
40
0.64062499999993
40
0.656249999999931
40
0.656249999999931
40
0.664062499999931
40
0.664062499999931
40
0.667968749999931
40
0.667968749999931
40
0.671874999999931
40
0.671874999999931
40
0.68749999999993
40
0.68749999999993
40
0.703124999999929
40
0.703124999999929
40
0.71093749999993
40
0.71093749999993
40
0.71484374999993
40
0.71484374999993
40
0.71874999999993
40
0.71874999999993
40
0.734374999999929
40
0.734374999999929
40
0.749999999999928
40
0.749999999999928
40
0.757812499999928
40
0.761718749999929
40
0.761718749999929
40
0.76562499999993
40
0.76562499999993
40
0.78124999999993
40
0.78124999999993
40
0.79687499999993
40
0.81249999999993
40
0.81249999999993
40
0.820312499999931
40
0.820312499999931
40
0.824218749999932
40
0.824218749999932
40
0.828124999999933
40
0.828124999999933
40
0.843749999999938
40
0.859374999999942
40
0.859374999999942
40
0.874999999999947
40
0.874999999999947
40
0.88281249999995
40
0.88281249999995
40
0.886718749999952
40
0.886718749999952
40
0.890624999999954
40
0.890624999999954
40
0.90624999999996
40
0.921874999999966
40
0.921874999999966
40
0.937499999999972
40
0.937499999999972
40
0.945312499999975
40
0.945312499999975
40
0.949218749999976
40
0.949218749999976
40
0.953124999999978
40
0.953124999999978
40
0.968749999999985
40
0.968749999999985
40
0.984374999999993
40
0.984374999999993
40
0.992187499999996
40
0.992187499999996
40
0.996093749999998
40
0.998046874999999
40
0.998046874999999
40
1
40
1
40
1
40
1
41
1
10
60.1739423556615
20
-2.9551815549702
30
0
41
1
10
60.0604918629959
20
-2.80615598225597
30
0
41
1
10
59.9557613512718
20
-2.65244700800318
30
0
41
1
10
59.7638101813921
20
-2.33555713139191
30
0
41
1
10
59.6765878420585
20
-2.1723772550163
30
0
41
1
10
59.5203086580017
20
-1.83613119066746
30
0
41
1
10
59.4512463915518
20
-1.66306802611214
30
0
41
1
10
59.3771102586486
20
-1.44007199677034
30
0
41
1
10
59.3628857631417
20
-1.39510017649465
30
0
41
1
10
59.3358735410257
20
-1.30512112886447
30
0
41
1
10
59.2974333455112
20
-1.16987382930677
30
0
41
1
10
59.2651781945496
20
-1.0337962102553
30
0
41
1
10
59.2088549601422
20
-0.760540300345411
30
0
41
1
10
59.1822003987717
20
-0.576904938995511
30
0
41
1
10
59.1508895943039
20
-0.206671182371025
30
0
41
1
10
59.1462304143506
20
-0.0200731775524901
30
0
41
1
10
59.1547441958784
20
0.215106123154214
30
0
41
1
10
59.1571726301455
20
0.262327283387464
30
0
41
1
10
59.1634503539648
20
0.356430310483887
30
0
41
1
10
59.1749902101109
20
0.497083868903985
30
0
41
1
10
59.1927922399633
20
0.636260183166542
30
0
41
1
10
59.2365412615165
20
0.912692959191816
30
0
41
1
10
59.2765454261584
20
1.09442659840784
30
0
41
1
10
59.352413123126
20
1.36329818826348
30
0
41
1
10
59.3803515066693
20
1.45229931168569
30
0
41
1
10
59.4262323604946
20
1.58486876165881
30
0
41
1
10
59.4421885265208
20
1.62890313043454
30
0
41
1
10
59.4754299395019
20
1.71666037311454
30
0
41
1
10
59.4927435887859
20
1.76045056265446
30
0
41
1
10
59.5822448570777
20
1.97764929564755
30
0
41
1
10
59.663104179484
20
2.14569690869499
30
0
41
1
10
59.8421139623588
20
2.47118594485647
30
0
41
1
10
59.9402692720906
20
2.62862428645519
30
0
41
1
10
60.1000488302416
20
2.85713839174554
30
0
41
1
10
60.1554044089148
20
2.93203307255658
30
0
41
1
10
60.2415676107705
20
3.0424756758311
30
0
41
1
10
60.2708395930321
20
3.07900820121978
30
0
41
1
10
60.3302928262935
20
3.15127665417322
30
0
41
1
10
60.3604255226372
20
3.18695567054794
30
0
41
1
10
60.5130796628
20
3.36312400242701
30
0
41
1
10
60.6415544981058
20
3.49695409506964
30
0
41
1
10
60.9105067046673
20
3.75130795055827
30
0
41
1
10
61.0509868831225
20
3.87182835472549
30
0
41
1
10
61.2705028342357
20
4.04294728547885
30
0
41
1
10
61.3824638835278
20
4.12608668560907
30
0
41
1
10
61.4977305656848
20
4.20561163104455
30
0
41
1
10
61.5753118312196
20
4.2578244625185
30
0
41
1
10
61.6144235050378
20
4.28349574392232
30
0
41
1
10
61.8109509403922
20
4.4093025383508
30
0
41
1
10
61.9718474043558
20
4.50220424633164
30
0
41
1
10
62.3006789049517
20
4.67330930187691
30
0
41
1
10
62.6365502933418
20
4.82971336896313
30
0
41
1
10
62.9863055152834
20
4.95736327577814
30
0
41
1
10
63.2092967907904
20
5.02810874279896
30
0
41
1
10
63.254115212953
20
5.04180507252815
30
0
41
1
10
63.3441956163301
20
5.0682870087393
30
0
41
1
10
63.3894147664669
20
5.0810588020554
30
0
41
1
10
63.5251288228111
20
5.1178444945615
30
0
41
1
10
63.6158633171308
20
5.1403840930767
30
0
41
1
10
63.888827891126
20
5.20217570959545
30
0
41
1
10
64.2548071469302
20
5.26905085962838
30
0
41
1
10
64.6247650934874
20
5.30559249585781
30
0
41
1
10
64.996722076401
20
5.32692841604094
30
0
41
1
10
65.1836999763835
20
5.32999437917238
30
0
41
1
10
65.418707156919
20
5.32405765186593
30
0
41
1
10
65.4658207206373
20
5.32237788012691
30
0
41
1
10
65.5597653050867
20
5.31805091934152
30
0
41
1
10
65.7003668016758
20
5.31010846640405
30
0
41
1
10
65.8400319169804
20
5.2978537844825
30
0
41
1
10
66.1181314316366
20
5.26767094691516
30
0
41
1
10
66.4856535383091
20
5.21232097810213
30
0
41
1
10
66.8466934038704
20
5.12698952663411
30
0
41
1
10
67.2044501931768
20
5.02639470766289
30
0
41
1
10
67.38168752891
20
4.96846804791574
30
0
41
1
10
67.6011026118719
20
4.88608326363794
30
0
41
1
10
67.6448660072034
20
4.869109384122
30
0
41
1
10
67.7317374427617
20
4.83432982855589
30
0
41
1
10
67.8612266464709
20
4.78085048637817
30
0
41
1
10
67.9882816017061
20
4.72346520684223
30
0
41
1
10
68.2391739572387
20
4.60351107356951
30
0
41
1
10
68.4021530067745
20
4.5166428382426
30
0
41
1
10
68.7195156543397
20
4.32893892039439
30
0
41
1
10
68.8739003092752
20
4.22810518322095
30
0
41
1
10
69.1737903041309
20
4.01187517488094
30
0
41
1
10
69.31929824152
20
3.89648347932911
30
0
41
1
10
69.5304582272927
20
3.71163808074007
30
0
41
1
10
69.5990882001308
20
3.6485546206153
30
0
41
1
10
69.7326847577922
20
3.51961370024722
30
0
41
1
10
69.7976803912349
20
3.45373082610664
30
0
41
1
10
69.987256043776
20
3.25182408155246
30
0
41
1
10
70.106439900426
20
3.1115539505181
30
0
41
1
10
70.3300394154249
20
2.81929710957857
30
0
41
1
10
70.434458449046
20
2.66731324675263
30
0
41
1
10
70.579345395374
20
2.42995360042681
30
0
41
1
10
70.6256797405539
20
2.34926627216564
30
0
41
1
10
70.6921099741036
20
2.22577269650449
30
0
41
1
10
70.7137411545588
20
2.18419746054056
30
0
41
1
10
70.7559529123214
20
2.10020332008691
30
0
41
1
10
70.7764700691827
20
2.05790669512979
30
0
41
1
10
70.875721054692
20
1.84574150060413
30
0
41
1
10
70.9448805739277
20
1.67303448845442
30
0
41
1
10
71.0627769726483
20
1.32166029465705
30
0
41
1
10
71.1115149326008
20
1.14299347190385
30
0
41
1
10
71.1879584999374
20
0.779501410547624
30
0
41
1
10
71.2156693222528
20
0.594677695618458
30
0
41
1
10
71.2363092752102
20
0.359541542981674
30
0
41
1
10
71.2397317298296
20
0.312303951050438
30
0
41
1
10
71.2451144513177
20
0.218158094647777
30
0
41
1
10
71.2510204421228
20
0.0771545887282628
30
0
41
1
10
71.2505076659663
20
-0.0632114509289181
30
0
41
1
10
71.2410725771679
20
-0.343108373151011
30
0
41
1
10
71.2235919655151
20
-0.528594877651358
30
0
41
1
10
71.1807626551052
20
-0.805177031267988
30
0
41
1
10
71.1637125571989
20
-0.897095951610083
30
0
41
1
10
71.1339485204726
20
-1.03455929489616
30
0
41
1
10
71.1233286733931
20
-1.08031120307061
30
0
41
1
10
71.1006829016788
20
-1.17167580674254
30
0
41
1
10
71.0886351265981
20
-1.21736432158443
30
0
41
1
10
71.0251551987042
20
-1.44439107665732
30
0
41
1
10
70.9641539964793
20
-1.62123669867802
30
0
41
1
10
70.822992512581
20
-1.96601033343299
30
0
41
1
10
70.7428273953997
20
-2.13393604105443
30
0
41
1
10
70.6086267022541
20
-2.37936613525883
30
0
41
1
10
70.5615625627907
20
-2.46009745994377
30
0
41
1
10
70.4874792840027
20
-2.5795856626589
30
0
41
1
10
70.4621677154465
20
-2.61919967534851
30
0
41
1
10
70.4106109100041
20
-2.69754471077042
30
0
41
1
10
70.3843597178806
20
-2.73628928788506
30
0
41
1
10
70.2507874621173
20
-2.92791952519889
30
0
41
1
10
70.1365396456098
20
-3.07454726212367
30
0
41
1
10
69.8941065863719
20
-3.35531237354613
30
0
41
1
10
69.7659180583449
20
-3.48944659760721
30
0
41
1
10
69.5634335192754
20
-3.6815847790439
30
0
41
1
10
69.4942347940676
20
-3.74411710855188
30
0
41
1
10
69.3878816958494
20
-3.83565596717901
30
0
41
1
10
69.351984588966
20
-3.86580679301216
30
0
41
1
10
69.2796788157472
20
-3.92508032964449
30
0
41
1
10
69.2432308490141
20
-3.95423779477153
30
0
41
1
10
69.0595391135678
20
-4.09767239956804
30
0
41
1
10
68.9079517898012
20
-4.20491165637796
30
0
41
1
10
68.5959052004633
20
-4.4051505355373
30
0
41
1
10
68.4354443580221
20
-4.49814736367441
30
0
41
1
10
68.1881842042629
20
-4.62719401374849
30
0
41
1
10
68.0629091097737
20
-4.68910057245142
30
0
41
1
10
67.935155254446
20
-4.74708075522784
30
0
41
1
10
67.8494324710584
20
-4.7848591626082
30
0
41
1
10
67.8062517469993
20
-4.8033283389199
30
0
41
1
10
67.5894753430843
20
-4.89326258352989
30
0
41
1
10
67.4140041159453
20
-4.95722578316222
30
0
41
1
10
67.0591154127435
20
-5.06989483009016
30
0
41
1
10
66.7002794032923
20
-5.16730209883818
30
0
41
1
10
66.3336436029343
20
-5.23472680210543
30
0
41
1
10
66.0557057233298
20
-5.27396002978156
30
0
41
1
10
65.9625655257452
20
-5.28514554721045
30
0
41
1
10
65.8221025509898
20
-5.29904612903377
30
0
41
1
10
65.77510069369
20
-5.30320384636784
30
0
41
1
10
65.6811542261938
20
-5.31052765855873
30
0
41
1
10
65.6342223714338
20
-5.31369423218231
30
0
41
1
10
65.3997679947921
20
-5.32707529044163
30
0
41
1
10
65.0259492674328
20
-5.33283279750552
30
0
41
1
10
64.6546828264467
20
-5.30806576366118
30
0
41
1
10
64.2846899106765
20
-5.26804392512364
30
0
41
1
10
64.1003301463573
20
-5.24040651162142
30
0
41
1
10
63.8247660517454
20
-5.1872246688371
30
0
41
1
10
63.7330741843381
20
-5.1675400012081
30
0
41
1
10
63.5957855247071
20
-5.13501091401554
30
0
41
1
10
63.5500569388195
20
-5.12366384691808
30
0
41
1
10
63.4591338187567
20
-5.10007781789025
30
0
41
1
10
63.413882670769
20
-5.08782592398907
30
0
41
1
10
63.1886704234733
20
-5.02428749253383
30
0
41
1
10
62.8349957615446
20
-4.90807127389414
30
0
41
1
10
62.4944320649525
20
-4.76303377253387
30
0
41
1
10
62.1604888598903
20
-4.60332744092719
30
0
41
1
10
61.9968264897823
20
-4.51614234583266
30
0
41
1
10
61.7564891443389
20
-4.3738391170476
30
0
41
1
10
61.6772376387213
20
-4.32448010268055
30
0
41
1
10
61.5596918829445
20
-4.24745114793254
30
0
41
1
10
61.5208166495298
20
-4.2213304727847
30
0
41
1
10
61.4438769004927
20
-4.16833356082938
30
0
41
1
10
61.4057812788835
20
-4.14143701736836
30
0
41
1
10
61.2171691545568
20
-4.00496492928622
30
0
41
1
10
61.0722361468326
20
-3.8894368481298
30
0
41
1
10
60.794378562401
20
-3.64545988908821
30
0
41
1
10
60.6614522857386
20
-3.51701306414679
30
0
41
1
10
60.4714323650473
20
-3.31417035648073
30
0
41
1
10
60.409657168344
20
-3.2448572189474
30
0
41
1
10
60.3194195180581
20
-3.13824308440732
30
0
41
1
10
60.2749073096354
20
-3.084274545629
30
0
41
1
10
60.231323323143
20
-3.02929172149146
30
0
41
1
10
60.2024758527261
20
-2.99240841607812
30
0
41
1
10
60.1881236672447
20
-2.97380975155949
30
0
41
1
10
60.1739423556615
20
-2.9551815549702
30
0
0
SPLINE
5
139
100
AcDbEntity
8
1
62
256
6
ByLayer
370
18
48
1
60
0
100
AcDbSpline
70
2053
71
3
72
196
73
192
40
0
40
0
40
0
40
0
40
0.0156249999999996
40
0.0156249999999996
40
0.0312499999999991
40
0.0312499999999991
40
0.0468749999999987
40
0.0468749999999987
40
0.0507812499999986
40
0.0507812499999986
40
0.0546874999999985
40
0.0624999999999981
40
0.0624999999999981
40
0.0781249999999973
40
0.0781249999999973
40
0.0937499999999965
40
0.0937499999999965
40
0.0976562499999963
40
0.0976562499999963
40
0.101562499999996
40
0.109374999999996
40
0.109374999999996
40
0.124999999999995
40
0.124999999999995
40
0.132812499999995
40
0.132812499999995
40
0.136718749999994
40
0.136718749999994
40
0.140624999999994
40
0.140624999999994
40
0.156249999999993
40
0.156249999999993
40
0.171874999999991
40
0.171874999999991
40
0.179687499999991
40
0.179687499999991
40
0.183593749999991
40
0.183593749999991
40
0.18749999999999
40
0.18749999999999
40
0.203124999999989
40
0.203124999999989
40
0.218749999999988
40
0.218749999999988
40
0.226562499999988
40
0.230468749999988
40
0.230468749999988
40
0.234374999999988
40
0.234374999999988
40
0.249999999999987
40
0.249999999999987
40
0.265624999999986
40
0.281249999999986
40
0.281249999999986
40
0.285156249999985
40
0.285156249999985
40
0.289062499999985
40
0.289062499999985
40
0.296874999999983
40
0.296874999999983
40
0.312499999999981
40
0.328124999999979
40
0.328124999999979
40
0.343749999999977
40
0.343749999999977
40
0.347656249999976
40
0.347656249999976
40
0.351562499999975
40
0.359374999999974
40
0.359374999999974
40
0.374999999999973
40
0.390624999999971
40
0.390624999999971
40
0.406249999999969
40
0.406249999999969
40
0.410156249999969
40
0.410156249999969
40
0.414062499999969
40
0.421874999999969
40
0.421874999999969
40
0.43749999999997
40
0.43749999999997
40
0.453124999999971
40
0.453124999999971
40
0.468749999999972
40
0.468749999999972
40
0.476562499999973
40
0.476562499999973
40
0.484374999999973
40
0.484374999999973
40
0.499999999999974
40
0.499999999999974
40
0.515624999999975
40
0.515624999999975
40
0.523437499999976
40
0.523437499999976
40
0.527343749999976
40
0.527343749999976
40
0.531249999999976
40
0.531249999999976
40
0.546874999999976
40
0.546874999999976
40
0.562499999999977
40
0.562499999999977
40
0.578124999999977
40
0.578124999999977
40
0.582031249999978
40
0.582031249999978
40
0.585937499999978
40
0.593749999999978
40
0.593749999999978
40
0.609374999999978
40
0.609374999999978
40
0.617187499999979
40
0.617187499999979
40
0.621093749999979
40
0.621093749999979
40
0.624999999999979
40
0.624999999999979
40
0.640624999999979
40
0.640624999999979
40
0.656249999999979
40
0.656249999999979
40
0.66406249999998
40
0.66406249999998
40
0.66796874999998
40
0.66796874999998
40
0.67187499999998
40
0.67187499999998
40
0.68749999999998
40
0.68749999999998
40
0.703124999999981
40
0.703124999999981
40
0.710937499999981
40
0.710937499999981
40
0.714843749999981
40
0.714843749999981
40
0.718749999999981
40
0.718749999999981
40
0.734374999999983
40
0.734374999999983
40
0.749999999999985
40
0.749999999999985
40
0.757812499999986
40
0.761718749999986
40
0.761718749999986
40
0.765624999999986
40
0.765624999999986
40
0.781249999999986
40
0.781249999999986
40
0.796874999999987
40
0.812499999999988
40
0.812499999999988
40
0.820312499999988
40
0.820312499999988
40
0.824218749999988
40
0.824218749999988
40
0.828124999999988
40
0.828124999999988
40
0.843749999999989
40
0.85937499999999
40
0.85937499999999
40
0.874999999999991
40
0.874999999999991
40
0.882812499999992
40
0.882812499999992
40
0.886718749999992
40
0.886718749999992
40
0.890624999999992
40
0.890624999999992
40
0.906249999999992
40
0.921874999999993
40
0.921874999999993
40
0.937499999999994
40
0.937499999999994
40
0.945312499999994
40
0.945312499999994
40
0.949218749999994
40
0.949218749999994
40
0.953124999999994
40
0.953124999999994
40
0.968749999999996
40
0.968749999999996
40
0.984374999999998
40
0.984374999999998
40
0.992187499999999
40
0.992187499999999
40
0.996093749999999
40
0.998046875
40
0.998046875
40
1
40
1
40
1
40
1
41
1
10
37.7739423556615
20
-2.95518155497023
30
0
41
1
10
37.6604918629959
20
-2.806155982256
30
0
41
1
10
37.5557613512718
20
-2.65244700800321
30
0
41
1
10
37.363810181392
20
-2.33555713139191
30
0
41
1
10
37.2765878420584
20
-2.17237725501633
30
0
41
1
10
37.1203086580016
20
-1.83613119066749
30
0
41
1
10
37.0512463915518
20
-1.66306802611217
30
0
41
1
10
36.9771102586486
20
-1.44007199677037
30
0
41
1
10
36.9628857631417
20
-1.39510017649468
30
0
41
1
10
36.9358735410257
20
-1.3051211288645
30
0
41
1
10
36.8974333455112
20
-1.16987382930679
30
0
41
1
10
36.8651781945496
20
-1.0337962102553
30
0
41
1
10
36.8088549601422
20
-0.76054030034544
30
0
41
1
10
36.7822003987717
20
-0.57690493899554
30
0
41
1
10
36.7508895943039
20
-0.206671182371053
30
0
41
1
10
36.7462304143506
20
-0.0200731775525185
30
0
41
1
10
36.7547441958783
20
0.215106123154186
30
0
41
1
10
36.7571726301455
20
0.262327283387435
30
0
41
1
10
36.7634503539648
20
0.356430310483887
30
0
41
1
10
36.7749902101109
20
0.497083868903985
30
0
41
1
10
36.7927922399633
20
0.636260183166542
30
0
41
1
10
36.8365412615164
20
0.912692959191787
30
0
41
1
10
36.8765454261584
20
1.09442659840781
30
0
41
1
10
36.9524131231259
20
1.36329818826346
30
0
41
1
10
36.9803515066692
20
1.45229931168566
30
0
41
1
10
37.0262323604945
20
1.58486876165878
30
0
41
1
10
37.0421885265207
20
1.62890313043451
30
0
41
1
10
37.0754299395019
20
1.71666037311454
30
0
41
1
10
37.0927435887859
20
1.76045056265446
30
0
41
1
10
37.1822448570777
20
1.97764929564752
30
0
41
1
10
37.263104179484
20
2.14569690869496
30
0
41
1
10
37.4421139623588
20
2.47118594485644
30
0
41
1
10
37.5402692720906
20
2.62862428645516
30
0
41
1
10
37.7000488302416
20
2.85713839174554
30
0
41
1
10
37.7554044089148
20
2.93203307255655
30
0
41
1
10
37.8415676107705
20
3.04247567583107
30
0
41
1
10
37.8708395930321
20
3.07900820121978
30
0
41
1
10
37.9302928262935
20
3.15127665417319
30
0
41
1
10
37.9604255226372
20
3.18695567054792
30
0
41
1
10
38.1130796628
20
3.36312400242699
30
0
41
1
10
38.2415544981058
20
3.49695409506961
30
0
41
1
10
38.5105067046674
20
3.75130795055824
30
0
41
1
10
38.6509868831226
20
3.87182835472547
30
0
41
1
10
38.8705028342357
20
4.04294728547882
30
0
41
1
10
38.9824638835278
20
4.12608668560904
30
0
41
1
10
39.0977305656848
20
4.20561163104455
30
0
41
1
10
39.1753118312196
20
4.25782446251847
30
0
41
1
10
39.2144235050378
20
4.28349574392229
30
0
41
1
10
39.4109509403921
20
4.40930253835077
30
0
41
1
10
39.5718474043558
20
4.50220424633162
30
0
41
1
10
39.9006786039648
20
4.6733100915018
30
0
41
1
10
40.2365502933418
20
4.8297133689631
30
0
41
1
10
40.5863055152835
20
4.95736327577814
30
0
41
1
10
40.8092967907904
20
5.02810874279893
30
0
41
1
10
40.854115212953
20
5.04180507252815
30
0
41
1
10
40.9441956163301
20
5.06828700873928
30
0
41
1
10
40.9894147664669
20
5.08105880205537
30
0
41
1
10
41.125128822811
20
5.1178444945615
30
0
41
1
10
41.2158633171308
20
5.14038409307668
30
0
41
1
10
41.488827891126
20
5.20217570959542
30
0
41
1
10
41.8548071469302
20
5.26905085962835
30
0
41
1
10
42.2247650934874
20
5.30559249585781
30
0
41
1
10
42.596722076401
20
5.32692841604091
30
0
41
1
10
42.7836999763835
20
5.32999437917235
30
0
41
1
10
43.018707156919
20
5.3240576518659
30
0
41
1
10
43.0658207206372
20
5.32237788012688
30
0
41
1
10
43.1597653050867
20
5.31805091934149
30
0
41
1
10
43.3003668016759
20
5.31010846640402
30
0
41
1
10
43.4400319169803
20
5.29785378448247
30
0
41
1
10
43.7181315329454
20
5.26767150349932
30
0
41
1
10
44.0856535383091
20
5.21232097810207
30
0
41
1
10
44.4466934038704
20
5.12698952663408
30
0
41
1
10
44.8044501931768
20
5.02639470766286
30
0
41
1
10
44.98168752891
20
4.96846804791571
30
0
41
1
10
45.2011026118719
20
4.88608326363791
30
0
41
1
10
45.2448660072034
20
4.86910938412197
30
0
41
1
10
45.3317374427617
20
4.83432982855587
30
0
41
1
10
45.4612266464709
20
4.78085048637814
30
0
41
1
10
45.5882816017061
20
4.72346520684221
30
0
41
1
10
45.8391739572386
20
4.60351107356948
30
0
41
1
10
46.0021530067745
20
4.51664283824258
30
0
41
1
10
46.3195156543397
20
4.32893892039436
30
0
41
1
10
46.4739003092752
20
4.22810518322092
30
0
41
1
10
46.7737903041309
20
4.01187517488091
30
0
41
1
10
46.91929824152
20
3.89648347932908
30
0
41
1
10
47.1304582272927
20
3.71163808074005
30
0
41
1
10
47.1990882001308
20
3.64855462061527
30
0
41
1
10
47.3326847577922
20
3.51961370024719
30
0
41
1
10
47.3976803912349
20
3.45373082610664
30
0
41
1
10
47.587256043776
20
3.25182408155243
30
0
41
1
10
47.7064399004259
20
3.11155395051807
30
0
41
1
10
47.9300394154249
20
2.81929710957854
30
0
41
1
10
48.034458449046
20
2.6673132467526
30
0
41
1
10
48.179345395374
20
2.42995360042681
30
0
41
1
10
48.2256797405538
20
2.34926627216564
30
0
41
1
10
48.2921099741036
20
2.22577269650449
30
0
41
1
10
48.3137411545588
20
2.18419746054053
30
0
41
1
10
48.3559529123214
20
2.10020332008688
30
0
41
1
10
48.3764700691827
20
2.05790669512976
30
0
41
1
10
48.475721054692
20
1.84574150060408
30
0
41
1
10
48.5448805739277
20
1.67303448845439
30
0
41
1
10
48.6627769726483
20
1.32166029465702
30
0
41
1
10
48.7115149326008
20
1.14299347190382
30
0
41
1
10
48.7879584999374
20
0.779501410547624
30
0
41
1
10
48.8156693222529
20
0.594677695618429
30
0
41
1
10
48.8363092752102
20
0.359541542981645
30
0
41
1
10
48.8397317298296
20
0.31230395105041
30
0
41
1
10
48.8451144513177
20
0.218158094647748
30
0
41
1
10
48.8510204421228
20
0.0771545887282343
30
0
41
1
10
48.8505076659663
20
-0.0632114509289465
30
0
41
1
10
48.8410725771679
20
-0.343108373151011
30
0
41
1
10
48.823591965515
20
-0.528594877651386
30
0
41
1
10
48.7807626551052
20
-0.805177031268016
30
0
41
1
10
48.7637125571988
20
-0.897095951610112
30
0
41
1
10
48.7339485204726
20
-1.03455929489618
30
0
41
1
10
48.7233286733931
20
-1.08031120307064
30
0
41
1
10
48.7006829016788
20
-1.17167580674257
30
0
41
1
10
48.6886351265981
20
-1.21736432158445
30
0
41
1
10
48.6251551987042
20
-1.44439107665732
30
0
41
1
10
48.5641539964792
20
-1.62123669867805
30
0
41
1
10
48.422992512581
20
-1.96601033343302
30
0
41
1
10
48.3428273953997
20
-2.13393604105445
30
0
41
1
10
48.2086267022541
20
-2.37936613525886
30
0
41
1
10
48.1615625627907
20
-2.4600974599438
30
0
41
1
10
48.0874792840027
20
-2.57958566265893
30
0
41
1
10
48.0621677154464
20
-2.61919967534854
30
0
41
1
10
48.0106109100041
20
-2.69754471077044
30
0
41
1
10
47.9843597178806
20
-2.73628928788509
30
0
41
1
10
47.8507874621173
20
-2.92791952519892
30
0
41
1
10
47.7365396456097
20
-3.0745472621237
30
0
41
1
10
47.4941065863719
20
-3.35531237354616
30
0
41
1
10
47.3659180583449
20
-3.48944659760724
30
0
41
1
10
47.1634335192754
20
-3.68158477904393
30
0
41
1
10
47.0942347940676
20
-3.7441171085519
30
0
41
1
10
46.9878816958494
20
-3.83565596717904
30
0
41
1
10
46.9519845889659
20
-3.86580679301221
30
0
41
1
10
46.8796788157472
20
-3.92508032964452
30
0
41
1
10
46.8432308490141
20
-3.95423779477159
30
0
41
1
10
46.6595391135678
20
-4.09767239956807
30
0
41
1
10
46.5079517898012
20
-4.20491165637799
30
0
41
1
10
46.1959052004633
20
-4.40515053553733
30
0
41
1
10
46.0354443580221
20
-4.49814736367443
30
0
41
1
10
45.7881842042628
20
-4.62719401374852
30
0
41
1
10
45.6629091097737
20
-4.68910057245148
30
0
41
1
10
45.5351552544461
20
-4.74708075522787
30
0
41
1
10
45.4494324710584
20
-4.78485916260823
30
0
41
1
10
45.4062517469993
20
-4.80332833891992
30
0
41
1
10
45.1894753430843
20
-4.89326258352992
30
0
41
1
10
45.0140041159453
20
-4.95722578316227
30
0
41
1
10
44.6591152913414
20
-5.06989426283863
30
0
41
1
10
44.3002794032923
20
-5.16730209883821
30
0
41
1
10
43.9336436029342
20
-5.23472680210546
30
0
41
1
10
43.6557057233298
20
-5.27396002978159
30
0
41
1
10
43.5625655257452
20
-5.28514554721048
30
0
41
1
10
43.4221025509898
20
-5.2990461290338
30
0
41
1
10
43.3751006936899
20
-5.30320384636786
30
0
41
1
10
43.2811542261938
20
-5.31052765855875
30
0
41
1
10
43.2342223714338
20
-5.31369423218234
30
0
41
1
10
42.999767994792
20
-5.32707529044166
30
0
41
1
10
42.6259492674329
20
-5.33283279750555
30
0
41
1
10
42.2546828264467
20
-5.30806576366121
30
0
41
1
10
41.8846899106764
20
-5.26804392512366
30
0
41
1
10
41.7003301463573
20
-5.24040651162144
30
0
41
1
10
41.4247660517454
20
-5.18722466883713
30
0
41
1
10
41.333074184338
20
-5.16754000120815
30
0
41
1
10
41.195785524707
20
-5.13501091401557
30
0
41
1
10
41.1500569388195
20
-5.12366384691811
30
0
41
1
10
41.0591338187566
20
-5.10007781789028
30
0
41
1
10
41.013882670769
20
-5.0878259239891
30
0
41
1
10
40.7886702615981
20
-5.02428799284607
30
0
41
1
10
40.4349957615446
20
-4.90807127389414
30
0
41
1
10
40.0944320649524
20
-4.76303377253387
30
0
41
1
10
39.7604888598902
20
-4.60332744092722
30
0
41
1
10
39.5968264897823
20
-4.51614234583269
30
0
41
1
10
39.3564891443389
20
-4.3738391170476
30
0
41
1
10
39.2772376387213
20
-4.32448010268058
30
0
41
1
10
39.1596918829445
20
-4.24745114793254
30
0
41
1
10
39.1208166495298
20
-4.22133047278473
30
0
41
1
10
39.0438769004926
20
-4.16833356082941
30
0
41
1
10
39.0057812788834
20
-4.14143701736839
30
0
41
1
10
38.8171691545568
20
-4.00496492928624
30
0
41
1
10
38.6722361468326
20
-3.88943684812983
30
0
41
1
10
38.394378562401
20
-3.64545988908824
30
0
41
1
10
38.2614522857385
20
-3.51701306414682
30
0
41
1
10
38.0714323650473
20
-3.31417035648076
30
0
41
1
10
38.009657168344
20
-3.24485721894743
30
0
41
1
10
37.9194195180581
20
-3.13824308440735
30
0
41
1
10
37.8749073096354
20
-3.08427454562903
30
0
41
1
10
37.831323323143
20
-3.02929172149149
30
0
41
1
10
37.8024758527261
20
-2.99240841607815
30
0
41
1
10
37.7881236672447
20
-2.97380975155951
30
0
41
1
10
37.7739423556615
20
-2.95518155497023
30
0
0
SPLINE
5
13A
100
AcDbEntity
8
1
62
256
6
ByLayer
370
18
48
1
60
0
100
AcDbSpline
70
4
71
3
72
52
73
48
40
0
40
0
40
0
40
0
40
0.062499999999992
40
0.062499999999992
40
0.124999999999984
40
0.124999999999984
40
0.156249999999981
40
0.156249999999981
40
0.17187499999998
40
0.17187499999998
40
0.18749999999998
40
0.18749999999998
40
0.249999999999987
40
0.312499999999994
40
0.312499999999994
40
0.328124999999996
40
0.328124999999996
40
0.343749999999998
40
0.375
40
0.375
40
0.437500000000006
40
0.437500000000006
40
0.468750000000008
40
0.468750000000008
40
0.48437500000001
40
0.48437500000001
40
0.500000000000012
40
0.500000000000012
40
0.562500000000012
40
0.625000000000013
40
0.625000000000013
40
0.656250000000013
40
0.656250000000013
40
0.687500000000013
40
0.687500000000013
40
0.750000000000013
40
0.750000000000013
40
0.781250000000011
40
0.781250000000011
40
0.812500000000008
40
0.812500000000008
40
0.875000000000005
40
0.937500000000002
40
0.937500000000002
40
0.968750000000001
40
0.968750000000001
40
1
40
1
40
1
40
1
41
1
10
16.475
20
17.5834806976042
30
0
41
1
10
16.5131913232136
20
17.6356400010526
30
0
41
1
10
16.5554551603681
20
17.6851012200768
30
0
41
1
10
16.6478009638929
20
17.7789189868855
30
0
41
1
10
16.6978839475417
20
17.8232746435516
30
0
41
1
10
16.7789435239476
20
17.8859940289633
30
0
41
1
10
16.8069557155953
20
17.9062628011664
30
0
41
1
10
16.8505015589457
20
17.935692316367
30
0
41
1
10
16.8652488722836
20
17.9453230710113
30
0
41
1
10
16.8950371680023
20
17.9641221469431
30
0
41
1
10
16.910101924586
20
17.9733067015478
30
0
41
1
10
16.9862682240961
20
18.0181710676171
30
0
41
1
10
17.1135048019649
20
18.083208317781
30
0
41
1
10
17.2513051323545
20
18.1351304202462
30
0
41
1
10
17.340852835611
20
18.1633757378613
30
0
41
1
10
17.3589510261372
20
18.1688174006424
30
0
41
1
10
17.3952241179028
20
18.1791975883318
30
0
41
1
10
17.4498427753161
20
18.1940439799827
30
0
41
1
10
17.5050795190823
20
18.2067537936931
30
0
41
1
10
17.6163637965048
20
18.2293796390629
30
0
41
1
10
17.691630903465
20
18.2407510129895
30
0
41
1
10
17.8061588831876
20
18.2522263132465
30
0
41
1
10
17.844606956195
20
18.2551180074906
30
0
41
1
10
17.9026967272745
20
18.2580243290622
30
0
41
1
10
17.9221663084687
20
18.2587548948534
30
0
41
1
10
17.9610107977542
20
18.2597262135564
30
0
41
1
10
17.9803927501871
20
18.2599684300752
30
0
41
1
10
18.0771038623368
20
18.2599793960362
30
0
41
1
10
18.2305754564871
20
18.2523491052793
30
0
41
1
10
18.3815722297398
20
18.2297489735089
30
0
41
1
10
18.4938641285014
20
18.2069930234637
30
0
41
1
10
18.53118989199
20
18.1984144688029
30
0
41
1
10
18.6044182748904
20
18.179554176381
30
0
41
1
10
18.6404572010122
20
18.1692486073201
30
0
41
1
10
18.7468816355557
20
18.1357460199801
30
0
41
1
10
18.8155819965158
20
18.1099745989849
30
0
41
1
10
18.9152578724162
20
18.0661113512754
30
0
41
1
10
18.9479189224545
20
18.0506197251854
30
0
41
1
10
19.012089924821
20
18.017850795655
30
0
41
1
10
19.0436842374209
20
18.0005169079059
30
0
41
1
10
19.1354026811123
20
17.946525242615
30
0
41
1
10
19.250303463002
20
17.8689160540892
30
0
41
1
10
19.350832367964
20
17.7802152843766
30
0
41
1
10
19.4207058979149
20
17.7093648178742
30
0
41
1
10
19.4431211599626
20
17.6849649636698
30
0
41
1
10
19.4857083394232
20
17.6350705152685
30
0
41
1
10
19.5059044140918
20
17.609560245944
30
0
41
1
10
19.525
20
17.5834806976043
30
0
0
SPLINE
5
13B
100
AcDbEntity
8
1
62
256
6
ByLayer
370
18
48
1
60
0
100
AcDbSpline
70
4
71
3
72
52
73
48
40
0
40
0
40
0
40
0
40
0.0625000000000059
40
0.0625000000000059
40
0.125000000000012
40
0.125000000000012
40
0.156250000000014
40
0.156250000000014
40
0.171875000000014
40
0.171875000000014
40
0.187500000000015
40
0.187500000000015
40
0.250000000000015
40
0.312500000000014
40
0.312500000000014
40
0.328125000000014
40
0.328125000000014
40
0.343750000000014
40
0.375000000000017
40
0.375000000000017
40
0.437500000000023
40
0.437500000000023
40
0.468750000000027
40
0.468750000000027
40
0.484375000000028
40
0.484375000000028
40
0.50000000000003
40
0.50000000000003
40
0.562500000000031
40
0.625000000000032
40
0.625000000000032
40
0.656250000000032
40
0.656250000000032
40
0.687500000000031
40
0.687500000000031
40
0.750000000000029
40
0.750000000000029
40
0.781250000000028
40
0.781250000000028
40
0.812500000000026
40
0.812500000000026
40
0.875000000000019
40
0.937500000000011
40
0.937500000000011
40
0.968750000000006
40
0.968750000000006
40
1
40
1
40
1
40
1
41
1
10
19.525
20
-17.5834806976042
30
0
41
1
10
19.4868086767865
20
-17.6356400010525
30
0
41
1
10
19.4445448396319
20
-17.6851012200768
30
0
41
1
10
19.3521990361071
20
-17.7789189868855
30
0
41
1
10
19.3021160524583
20
-17.8232746435515
30
0
41
1
10
19.2210564760525
20
-17.8859940289633
30
0
41
1
10
19.1930442844047
20
-17.9062628011664
30
0
41
1
10
19.1494984410543
20
-17.9356923163669
30
0
41
1
10
19.1347511277164
20
-17.9453230710112
30
0
41
1
10
19.1049628319977
20
-17.964122146943
30
0
41
1
10
19.089898075414
20
-17.9733067015477
30
0
41
1
10
19.0137317759039
20
-18.0181710676171
30
0
41
1
10
18.8864956367041
20
-18.0832086586474
30
0
41
1
10
18.7486948676454
20
-18.1351304202462
30
0
41
1
10
18.659147164389
20
-18.1633757378613
30
0
41
1
10
18.6410489738628
20
-18.1688174006424
30
0
41
1
10
18.6047758820972
20
-18.1791975883318
30
0
41
1
10
18.5501572246839
20
-18.1940439799827
30
0
41
1
10
18.4949204809177
20
-18.2067537936931
30
0
41
1
10
18.3836362034952
20
-18.2293796390628
30
0
41
1
10
18.308369096535
20
-18.2407510129894
30
0
41
1
10
18.1938411168124
20
-18.2522263132465
30
0
41
1
10
18.155393043805
20
-18.2551180074906
30
0
41
1
10
18.0973032727255
20
-18.2580243290621
30
0
41
1
10
18.0778336915312
20
-18.2587548948533
30
0
41
1
10
18.0389892022458
20
-18.2597262135563
30
0
41
1
10
18.0196072498129
20
-18.2599684300751
30
0
41
1
10
17.9228961376632
20
-18.2599793960361
30
0
41
1
10
17.7694245064372
20
-18.2523494020451
30
0
41
1
10
17.6184277702601
20
-18.2297489735088
30
0
41
1
10
17.5061358714986
20
-18.2069930234636
30
0
41
1
10
17.46881010801
20
-18.1984144688028
30
0
41
1
10
17.3955817251096
20
-18.1795541763809
30
0
41
1
10
17.3595427989878
20
-18.16924860732
30
0
41
1
10
17.2531183644443
20
-18.13574601998
30
0
41
1
10
17.1844180034842
20
-18.1099745989848
30
0
41
1
10
17.0847421275838
20
-18.0661113512754
30
0
41
1
10
17.0520810775455
20
-18.0506197251853
30
0
41
1
10
16.987910075179
20
-18.0178507956549
30
0
41
1
10
16.9563157625791
20
-18.0005169079059
30
0
41
1
10
16.8645973188877
20
-17.946525242615
30
0
41
1
10
16.749696536998
20
-17.8689160540891
30
0
41
1
10
16.6491676320361
20
-17.7802152843765
30
0
41
1
10
16.5792941020851
20
-17.7093648178741
30
0
41
1
10
16.5568788400374
20
-17.6849649636697
30
0
41
1
10
16.5142916605768
20
-17.6350705152684
30
0
41
1
10
16.4940955859082
20
-17.6095602459439
30
0
41
1
10
16.475
20
-17.5834806976042
30
0
0
SPLINE
5
13C
100
AcDbEntity
8
1
62
256
6
ByLayer
370
18
48
1
60
0
100
AcDbSpline
70
4
71
3
72
52
73
48
40
0
40
0
40
0
40
0
40
0.0625
40
0.0625
40
0.125
40
0.125
40
0.156250000000002
40
0.156250000000002
40
0.171875000000003
40
0.171875000000003
40
0.187500000000004
40
0.187500000000004
40
0.25
40
0.312499999999996
40
0.312499999999996
40
0.328124999999995
40
0.328124999999995
40
0.343749999999994
40
0.374999999999994
40
0.374999999999994
40
0.437499999999995
40
0.437499999999995
40
0.468749999999995
40
0.468749999999995
40
0.484374999999995
40
0.484374999999995
40
0.499999999999995
40
0.499999999999995
40
0.562499999999999
40
0.625000000000003
40
0.625000000000003
40
0.656250000000003
40
0.656250000000003
40
0.687500000000003
40
0.687500000000003
40
0.750000000000003
40
0.750000000000003
40
0.781250000000003
40
0.781250000000003
40
0.812500000000003
40
0.812500000000003
40
0.875000000000001
40
0.9375
40
0.9375
40
0.96875
40
0.96875
40
1
40
1
40
1
40
1
41
1
10
19.525
20
16.230601400091
30
0
41
1
10
19.4868086767864
20
16.175830651572
30
0
41
1
10
19.4445448396319
20
16.1235765324235
30
0
41
1
10
19.3521990361071
20
16.0239672420608
30
0
41
1
10
19.3021160524582
20
15.9766125032621
30
0
41
1
10
19.2210564760524
20
15.9093546103711
30
0
41
1
10
19.1930442844047
20
15.8875663672026
30
0
41
1
10
19.1494984410542
20
15.8558626405861
30
0
41
1
10
19.1347511277163
20
15.8454759050084
30
0
41
1
10
19.1049628319977
20
15.8251800306268
30
0
41
1
10
19.0898980754139
20
15.8152534092799
30
0
41
1
10
19.0137317759039
20
15.7667160545081
30
0
41
1
10
18.8864951980351
20
15.6960418033308
30
0
41
1
10
18.7486948676454
20
15.6392420148952
30
0
41
1
10
18.659147164389
20
15.6082748474798
30
0
41
1
10
18.6410489738628
20
15.6023047874346
30
0
41
1
10
18.6047758820971
20
15.5909101826729
30
0
41
1
10
18.5501572246839
20
15.5746027417
30
0
41
1
10
18.4949204809177
20
15.5606184533738
30
0
41
1
10
18.3836362034951
20
15.5357049532121
30
0
41
1
10
18.3083690965349
20
15.5231568310926
30
0
41
1
10
18.1938411168124
20
15.5104882763165
30
0
41
1
10
18.1553930438049
20
15.5072941418848
30
0
41
1
10
18.0973032727254
20
15.5040834803131
30
0
41
1
10
18.0778336915312
20
15.5032762999706
30
0
41
1
10
18.0389892022457
20
15.5022030884862
30
0
41
1
10
18.0196072498129
20
15.501935440669
30
0
41
1
10
17.9228961376632
20
15.5019233236847
30
0
41
1
10
17.7694245435128
20
15.5103579761503
30
0
41
1
10
17.6184277702601
20
15.5352979119201
30
0
41
1
10
17.5061358714986
20
15.5603552125928
30
0
41
1
10
17.46881010801
20
15.5697940766895
30
0
41
1
10
17.3955817251096
20
15.5905211866752
30
0
41
1
10
17.3595427989878
20
15.6018357051644
30
0
41
1
10
17.2531183644443
20
15.6385677492125
30
0
41
1
10
17.1844180034841
20
15.6667623225412
30
0
41
1
10
17.0847421275837
20
15.7145716614806
30
0
41
1
10
17.0520810775454
20
15.7314305538862
30
0
41
1
10
16.9879100751789
20
15.7670218060773
30
0
41
1
10
16.956315762579
20
15.785815182398
30
0
41
1
10
16.8645973188877
20
15.8442281361304
30
0
41
1
10
16.7496965369979
20
15.9278758442663
30
0
41
1
10
16.649167632036
20
16.0225872482432
30
0
41
1
10
16.579294102085
20
16.0978168840039
30
0
41
1
10
16.5568788400374
20
16.1236581486908
30
0
41
1
10
16.5142916605768
20
16.1763492687084
30
0
41
1
10
16.4940955859081
20
16.2032161343921
30
0
41
1
10
16.475
20
16.230601400091
30
0
0
SPLINE
5
13D
100
AcDbEntity
8
1
62
256
6
ByLayer
370
18
48
1
60
0
100
AcDbSpline
70
4
71
3
72
52
73
48
40
0
40
0
40
0
40
0
40
0.0625000000000086
40
0.0625000000000086
40
0.125000000000017
40
0.125000000000017
40
0.156250000000023
40
0.156250000000023
40
0.171875000000025
40
0.171875000000025
40
0.187500000000026
40
0.187500000000026
40
0.250000000000025
40
0.312500000000024
40
0.312500000000024
40
0.328125000000024
40
0.328125000000024
40
0.343750000000023
40
0.375000000000023
40
0.375000000000023
40
0.437500000000026
40
0.437500000000026
40
0.468750000000027
40
0.468750000000027
40
0.484375000000028
40
0.484375000000028
40
0.500000000000028
40
0.500000000000028
40
0.562500000000026
40
0.625000000000023
40
0.625000000000023
40
0.656250000000022
40
0.656250000000022
40
0.68750000000002
40
0.68750000000002
40
0.750000000000018
40
0.750000000000018
40
0.781250000000016
40
0.781250000000016
40
0.812500000000014
40
0.812500000000014
40
0.875000000000009
40
0.937500000000003
40
0.937500000000003
40
0.968750000000002
40
0.968750000000002
40
1
40
1
40
1
40
1
41
1
10
16.475
20
-16.230601400091
30
0
41
1
10
16.5131913232136
20
-16.1758306515719
30
0
41
1
10
16.5554551603681
20
-16.1235765324235
30
0
41
1
10
16.6478009638929
20
-16.0239672420608
30
0
41
1
10
16.6978839475418
20
-15.9766125032621
30
0
41
1
10
16.7789435239476
20
-15.9093546103711
30
0
41
1
10
16.8069557155954
20
-15.8875663672025
30
0
41
1
10
16.8505015589458
20
-15.8558626405861
30
0
41
1
10
16.8652488722836
20
-15.8454759050084
30
0
41
1
10
16.8950371680023
20
-15.8251800306267
30
0
41
1
10
16.9101019245861
20
-15.8152534092798
30
0
41
1
10
16.9862682240961
20
-15.7667160545081
30
0
41
1
10
17.1135048019649
20
-15.6960418033308
30
0
41
1
10
17.2513051323546
20
-15.6392420148952
30
0
41
1
10
17.340852835611
20
-15.6082748474797
30
0
41
1
10
17.3589510261372
20
-15.6023047874346
30
0
41
1
10
17.3952241179028
20
-15.5909101826728
30
0
41
1
10
17.4498427753161
20
-15.5746027417
30
0
41
1
10
17.5050795190823
20
-15.5606184533737
30
0
41
1
10
17.6163637965048
20
-15.535704953212
30
0
41
1
10
17.6916309034651
20
-15.5231568310926
30
0
41
1
10
17.8061588831876
20
-15.5104882763164
30
0
41
1
10
17.844606956195
20
-15.5072941418847
30
0
41
1
10
17.9026967272745
20
-15.504083480313
30
0
41
1
10
17.9221663084688
20
-15.5032762999705
30
0
41
1
10
17.9610107977543
20
-15.5022030884861
30
0
41
1
10
17.9803927501871
20
-15.5019354406689
30
0
41
1
10
18.0771038623368
20
-15.5019233236846
30
0
41
1
10
18.2305754564871
20
-15.5103579761503
30
0
41
1
10
18.3815722297399
20
-15.53529791192
30
0
41
1
10
18.4938641285014
20
-15.5603552125928
30
0
41
1
10
18.53118989199
20
-15.5697940766894
30
0
41
1
10
18.6044182748904
20
-15.5905211866751
30
0
41
1
10
18.6404572010122
20
-15.6018357051643
30
0
41
1
10
18.7468816355557
20
-15.6385677492124
30
0
41
1
10
18.8155819965159
20
-15.6667623225411
30
0
41
1
10
18.9152578724163
20
-15.7145716614805
30
0
41
1
10
18.9479189224546
20
-15.7314305538861
30
0
41
1
10
19.0120899248211
20
-15.7670218060772
30
0
41
1
10
19.043684237421
20
-15.7858151823979
30
0
41
1
10
19.1354026811123
20
-15.8442281361303
30
0
41
1
10
19.2503034630021
20
-15.9278758442662
30
0
41
1
10
19.350832367964
20
-16.0225872482431
30
0
41
1
10
19.420705897915
20
-16.0978168840038
30
0
41
1
10
19.4431211599626
20
-16.1236581486907
30
0
41
1
10
19.4857083394232
20
-16.1763492687083
30
0
41
1
10
19.5059044140919
20
-16.203216134392
30
0
41
1
10
19.525
20
-16.2306014000909
30
0
0
SPLINE
5
13E
100
AcDbEntity
8
1
62
256
6
ByLayer
370
18
48
1
60
0
100
AcDbSpline
70
4
71
3
72
52
73
48
40
0
40
0
40
0
40
0
40
0.0625000000000011
40
0.0625000000000011
40
0.125000000000002
40
0.125000000000002
40
0.156250000000004
40
0.156250000000004
40
0.171875000000003
40
0.171875000000003
40
0.187500000000002
40
0.187500000000002
40
0.249999999999996
40
0.312499999999989
40
0.312499999999989
40
0.328124999999988
40
0.328124999999988
40
0.343749999999986
40
0.374999999999987
40
0.374999999999987
40
0.437499999999989
40
0.437499999999989
40
0.46874999999999
40
0.46874999999999
40
0.48437499999999
40
0.48437499999999
40
0.499999999999991
40
0.499999999999991
40
0.562499999999995
40
0.625
40
0.625
40
0.656250000000001
40
0.656250000000001
40
0.687500000000002
40
0.687500000000002
40
0.750000000000004
40
0.750000000000004
40
0.781250000000004
40
0.781250000000004
40
0.812500000000003
40
0.812500000000003
40
0.875000000000002
40
0.9375
40
0.9375
40
0.96875
40
0.96875
40
1
40
1
40
1
40
1
41
1
10
16.475
20
12.1692581906231
30
0
41
1
10
16.5131913232136
20
12.2301178264302
30
0
41
1
10
16.5554551603681
20
12.2879054858374
30
0
41
1
10
16.6478009638929
20
12.3976356429975
30
0
41
1
10
16.6978839475417
20
12.4495772220851
30
0
41
1
10
16.7789435239476
20
12.5230948267255
30
0
41
1
10
16.8069557155953
20
12.546865914497
30
0
41
1
10
16.8505015589457
20
12.5813970227831
30
0
41
1
10
16.8652488722836
20
12.5927000911883
30
0
41
1
10
16.8950371680023
20
12.6147685814487
30
0
41
1
10
16.910101924586
20
12.6255530494013
30
0
41
1
10
16.9862682240961
20
12.6782442009625
30
0
41
1
10
17.1135048019649
20
12.7547026658695
30
0
41
1
10
17.2513051323546
20
12.8158336314504
30
0
41
1
10
17.340852835611
20
12.8491049769813
30
0
41
1
10
17.3589510261372
20
12.8555159056378
30
0
41
1
10
17.3952241179028
20
12.8677465650792
30
0
41
1
10
17.4498427753161
20
12.8852420628534
30
0
41
1
10
17.5050795190823
20
12.9002254430041
30
0
41
1
10
17.6163637965048
20
12.9269031973855
30
0
41
1
10
17.691630903465
20
12.9403174920613
30
0
41
1
10
17.8061588831876
20
12.9538557677287
30
0
41
1
10
17.844606956195
20
12.9572677378175
30
0
41
1
10
17.9026967272745
20
12.960697056001
30
0
41
1
10
17.9221663084688
20
12.961559115121
30
0
41
1
10
17.9610107977542
20
12.9627052671934
30
0
41
1
10
17.9803927501871
20
12.9629910870839
30
0
41
1
10
18.0771038623368
20
12.9630040270357
30
0
41
1
10
18.2305754935628
20
12.9539996850598
30
0
41
1
10
18.3815722297399
20
12.9273387610449
30
0
41
1
10
18.4938641285014
20
12.900507472215
30
0
41
1
10
18.53118989199
20
12.8903943389559
30
0
41
1
10
18.6044182748904
20
12.8681661348699
30
0
41
1
10
18.6404572010122
20
12.8560229573153
30
0
41
1
10
18.7468816355557
20
12.8165586143721
30
0
41
1
10
18.8155819965158
20
12.7862158835516
30
0
41
1
10
18.9152578724162
20
12.7346150745764
30
0
41
1
10
18.9479189224545
20
12.7163970509795
30
0
41
1
10
19.012089924821
20
12.6778778580254
30
0
41
1
10
19.0436842374209
20
12.6575102811593
30
0
41
1
10
19.1354026811123
20
12.5940992781155
30
0
41
1
10
19.2503034630021
20
12.5030266718522
30
0
41
1
10
19.350832367964
20
12.3991526888183
30
0
41
1
10
19.420705897915
20
12.3162839933899
30
0
41
1
10
19.4431211599626
20
12.2877612887184
30
0
41
1
10
19.4857083394232
20
12.2294724470794
30
0
41
1
10
19.5059044140918
20
12.1996878878974
30
0
41
1
10
19.525
20
12.1692581906231
30
0
0
SPLINE
5
13F
100
AcDbEntity
8
1
62
256
6
ByLayer
370
18
48
1
60
0
100
AcDbSpline
70
4
71
3
72
52
73
48
40
0
40
0
40
0
40
0
40
0.0624999999999959
40
0.0624999999999959
40
0.124999999999992
40
0.124999999999992
40
0.156249999999991
40
0.156249999999991
40
0.171874999999991
40
0.171874999999991
40
0.187499999999991
40
0.187499999999991
40
0.249999999999985
40
0.312499999999979
40
0.312499999999979
40
0.328124999999978
40
0.328124999999978
40
0.343749999999977
40
0.374999999999978
40
0.374999999999978
40
0.43749999999998
40
0.43749999999998
40
0.468749999999981
40
0.468749999999981
40
0.484374999999981
40
0.484374999999981
40
0.499999999999982
40
0.499999999999982
40
0.562499999999986
40
0.624999999999991
40
0.624999999999991
40
0.656249999999991
40
0.656249999999991
40
0.687499999999992
40
0.687499999999992
40
0.749999999999994
40
0.749999999999994
40
0.781249999999995
40
0.781249999999995
40
0.812499999999995
40
0.812499999999995
40
0.874999999999996
40
0.937499999999997
40
0.937499999999997
40
0.968749999999999
40
0.968749999999999
40
1
40
1
40
1
40
1
41
1
10
19.525
20
-12.169258190623
30
0
41
1
10
19.4868086767864
20
-12.2301178264301
30
0
41
1
10
19.4445448396319
20
-12.2879054858373
30
0
41
1
10
19.3521990361071
20
-12.3976356429974
30
0
41
1
10
19.3021160524583
20
-12.449577222085
30
0
41
1
10
19.2210564760524
20
-12.5230948267254
30
0
41
1
10
19.1930442844047
20
-12.5468659144969
30
0
41
1
10
19.1494984410543
20
-12.5813970227831
30
0
41
1
10
19.1347511277164
20
-12.5927000911883
30
0
41
1
10
19.1049628319977
20
-12.6147685814487
30
0
41
1
10
19.089898075414
20
-12.6255530494012
30
0
41
1
10
19.0137317759039
20
-12.6782442009625
30
0
41
1
10
18.8864951980351
20
-12.7547026658694
30
0
41
1
10
18.7486948676454
20
-12.8158336314504
30
0
41
1
10
18.659147164389
20
-12.8491049769813
30
0
41
1
10
18.6410489738628
20
-12.8555159056377
30
0
41
1
10
18.6047758820972
20
-12.8677465650791
30
0
41
1
10
18.5501572246839
20
-12.8852420628533
30
0
41
1
10
18.4949204809177
20
-12.900225443004
30
0
41
1
10
18.3836362034952
20
-12.9269031973855
30
0
41
1
10
18.308369096535
20
-12.9403174920612
30
0
41
1
10
18.1938411168124
20
-12.9538557677286
30
0
41
1
10
18.155393043805
20
-12.9572677378174
30
0
41
1
10
18.0973032727255
20
-12.9606970560009
30
0
41
1
10
18.0778336915312
20
-12.9615591151209
30
0
41
1
10
18.0389892022457
20
-12.9627052671933
30
0
41
1
10
18.0196072498129
20
-12.9629910870838
30
0
41
1
10
17.9228961376632
20
-12.9630040270356
30
0
41
1
10
17.7694245064372
20
-12.9539996850597
30
0
41
1
10
17.6184277702601
20
-12.9273387610448
30
0
41
1
10
17.5061358714986
20
-12.9005074722149
30
0
41
1
10
17.46881010801
20
-12.8903943389558
30
0
41
1
10
17.3955817251096
20
-12.8681661348698
30
0
41
1
10
17.3595427989878
20
-12.8560229573152
30
0
41
1
10
17.2531183644443
20
-12.816558614372
30
0
41
1
10
17.1844180034841
20
-12.7862158835515
30
0
41
1
10
17.0847421275838
20
-12.7346150745763
30
0
41
1
10
17.0520810775455
20
-12.7163970509794
30
0
41
1
10
16.987910075179
20
-12.6778778580253
30
0
41
1
10
16.9563157625791
20
-12.6575102811592
30
0
41
1
10
16.8645973188877
20
-12.5940992781154
30
0
41
1
10
16.7496965369979
20
-12.5030266718521
30
0
41
1
10
16.6491676320361
20
-12.3991526888182
30
0
41
1
10
16.579294102085
20
-12.3162839933898
30
0
41
1
10
16.5568788400374
20
-12.2877612887183
30
0
41
1
10
16.5142916605768
20
-12.2294724470793
30
0
41
1
10
16.4940955859081
20
-12.1996878878973
30
0
41
1
10
16.475
20
-12.169258190623
30
0
0
SPLINE
5
140
100
AcDbEntity
8
1
62
256
6
ByLayer
370
18
48
1
60
0
100
AcDbSpline
70
4
71
3
72
52
73
48
40
0
40
0
40
0
40
0
40
0.0624999999999983
40
0.0624999999999983
40
0.124999999999997
40
0.124999999999997
40
0.156249999999997
40
0.156249999999997
40
0.171874999999997
40
0.171874999999997
40
0.187499999999996
40
0.187499999999996
40
0.249999999999991
40
0.312499999999985
40
0.312499999999985
40
0.328124999999984
40
0.328124999999984
40
0.343749999999982
40
0.374999999999983
40
0.374999999999983
40
0.437499999999983
40
0.437499999999983
40
0.468749999999983
40
0.468749999999983
40
0.484374999999983
40
0.484374999999983
40
0.499999999999983
40
0.499999999999983
40
0.562499999999987
40
0.62499999999999
40
0.62499999999999
40
0.65624999999999
40
0.65624999999999
40
0.687499999999991
40
0.687499999999991
40
0.749999999999992
40
0.749999999999992
40
0.781249999999992
40
0.781249999999992
40
0.812499999999991
40
0.812499999999991
40
0.874999999999994
40
0.937499999999997
40
0.937499999999997
40
0.968749999999998
40
0.968749999999998
40
1
40
1
40
1
40
1
41
1
10
19.525
20
10.6070107729665
30
0
41
1
10
19.4868086767864
20
10.5443921370143
30
0
41
1
10
19.4445448396319
20
10.4847232541502
30
0
41
1
10
19.3521990361071
20
10.3710920803132
30
0
41
1
10
19.3021160524582
20
10.3171303990357
30
0
41
1
10
19.2210564760524
20
10.2405557761169
30
0
41
1
10
19.1930442844047
20
10.2157612129989
30
0
41
1
10
19.1494984410542
20
10.1796982562143
30
0
41
1
10
19.1347511277164
20
10.1678859791006
30
0
41
1
10
19.1049628319977
20
10.144809285099
30
0
41
1
10
19.0898980754139
20
10.1335249806683
30
0
41
1
10
19.0137317759039
20
10.0783598013234
30
0
41
1
10
18.8864951980351
20
9.99810440202509
30
0
41
1
10
18.7486948676454
20
9.93368795652896
30
0
41
1
10
18.659147164389
20
9.89858324515504
30
0
41
1
10
18.6410489738628
20
9.89181640211447
30
0
41
1
10
18.6047758820971
20
9.8789024582351
30
0
41
1
10
18.5501572246839
20
9.86042283638415
30
0
41
1
10
18.4949204809177
20
9.84458100393081
30
0
41
1
10
18.3836362034951
20
9.8163623459493
30
0
41
1
10
18.3083690965349
20
9.80215542489776
30
0
41
1
10
18.1938411168124
20
9.78781340463104
30
0
41
1
10
18.1553930438049
20
9.78419771885243
30
0
41
1
10
18.0973032727255
20
9.7805634053158
30
0
41
1
10
18.0778336915312
20
9.77964974066586
30
0
41
1
10
18.0389892022457
20
9.77843495631808
30
0
41
1
10
18.0196072498129
20
9.77813200657945
30
0
41
1
10
17.9228961376632
20
9.77811829132881
30
0
41
1
10
17.7694245064372
20
9.78766450496718
30
0
41
1
10
17.6184277702601
20
9.8159013839585
30
0
41
1
10
17.5061358714986
20
9.84428280154012
30
0
41
1
10
17.46881010801
20
9.8549754164201
30
0
41
1
10
17.3955817251096
20
9.87846105930973
30
0
41
1
10
17.3595427989878
20
9.89128383844226
30
0
41
1
10
17.2531183644443
20
9.93292345777999
30
0
41
1
10
17.1844180034841
20
9.96489835975117
30
0
41
1
10
17.0847421275837
20
10.0191571511299
30
0
41
1
10
17.0520810775454
20
10.0382961290576
30
0
41
1
10
16.9879100751789
20
10.0787163637089
30
0
41
1
10
16.956315762579
20
10.1000670133718
30
0
41
1
10
16.8645973188877
20
10.1664560790588
30
0
41
1
10
16.7496965369979
20
10.2615960719921
30
0
41
1
10
16.649167632036
20
10.3695186588664
30
0
41
1
10
16.579294102085
20
10.4553370465733
30
0
41
1
10
16.5568788400374
20
10.4848306471201
30
0
41
1
10
16.5142916605768
20
10.5450032525931
30
0
41
1
10
16.4940955859081
20
10.5757015791062
30
0
41
1
10
16.475
20
10.6070107729665
30
0
0
SPLINE
5
141
100
AcDbEntity
8
1
62
256
6
ByLayer
370
18
48
1
60
0
100
AcDbSpline
70
4
71
3
72
52
73
48
40
0
40
0
40
0
40
0
40
0.0625000000000003
40
0.0625000000000003
40
0.125000000000001
40
0.125000000000001
40
0.156250000000002
40
0.156250000000002
40
0.171875000000001
40
0.171875000000001
40
0.187500000000001
40
0.187500000000001
40
0.250000000000006
40
0.31250000000001
40
0.31250000000001
40
0.328125000000011
40
0.328125000000011
40
0.343750000000012
40
0.375000000000012
40
0.375000000000012
40
0.437500000000011
40
0.437500000000011
40
0.46875000000001
40
0.46875000000001
40
0.48437500000001
40
0.48437500000001
40
0.50000000000001
40
0.50000000000001
40
0.562500000000011
40
0.625000000000013
40
0.625000000000013
40
0.656250000000012
40
0.656250000000012
40
0.687500000000011
40
0.687500000000011
40
0.750000000000009
40
0.750000000000009
40
0.781250000000008
40
0.781250000000008
40
0.812500000000007
40
0.812500000000007
40
0.875000000000005
40
0.937500000000003
40
0.937500000000003
40
0.968750000000002
40
0.968750000000002
40
1
40
1
40
1
40
1
41
1
10
16.475
20
-10.6070107729664
30
0
41
1
10
16.5131913232136
20
-10.5443921370143
30
0
41
1
10
16.5554551603681
20
-10.4847232541501
30
0
41
1
10
16.6478009638929
20
-10.3710920803132
30
0
41
1
10
16.6978839475418
20
-10.3171303990357
30
0
41
1
10
16.7789435239476
20
-10.2405557761168
30
0
41
1
10
16.8069557155954
20
-10.2157612129988
30
0
41
1
10
16.8505015589457
20
-10.1796982562142
30
0
41
1
10
16.8652488722836
20
-10.1678859791006
30
0
41
1
10
16.8950371680023
20
-10.1448092850989
30
0
41
1
10
16.9101019245861
20
-10.1335249806682
30
0
41
1
10
16.9862682240961
20
-10.0783598013233
30
0
41
1
10
17.1135048019649
20
-9.99810440202504
30
0
41
1
10
17.2513051323546
20
-9.93368795652893
30
0
41
1
10
17.340852835611
20
-9.89858324515498
30
0
41
1
10
17.3589510261372
20
-9.89181640211442
30
0
41
1
10
17.3952241179028
20
-9.87890245823505
30
0
41
1
10
17.4498427753161
20
-9.86042283638409
30
0
41
1
10
17.5050795190823
20
-9.84458100393073
30
0
41
1
10
17.6163637965048
20
-9.81636234594922
30
0
41
1
10
17.6916309034651
20
-9.80215542489771
30
0
41
1
10
17.8061588831876
20
-9.78781340463095
30
0
41
1
10
17.844606956195
20
-9.78419771885234
30
0
41
1
10
17.9026967272745
20
-9.78056340531575
30
0
41
1
10
17.9221663084688
20
-9.77964974066578
30
0
41
1
10
17.9610107977543
20
-9.77843495631799
30
0
41
1
10
17.9803927501871
20
-9.7781320065794
30
0
41
1
10
18.0771038623368
20
-9.77811829132872
30
0
41
1
10
18.2305754935628
20
-9.7876645049671
30
0
41
1
10
18.3815722297399
20
-9.81590138395842
30
0
41
1
10
18.4938641285014
20
-9.84428280154003
30
0
41
1
10
18.53118989199
20
-9.85497541642002
30
0
41
1
10
18.6044182748904
20
-9.87846105930961
30
0
41
1
10
18.6404572010122
20
-9.89128383844218
30
0
41
1
10
18.7468816355557
20
-9.93292345777991
30
0
41
1
10
18.8155819965159
20
-9.96489835975109
30
0
41
1
10
18.9152578724163
20
-10.0191571511298
30
0
41
1
10
18.9479189224546
20
-10.0382961290575
30
0
41
1
10
19.0120899248211
20
-10.0787163637088
30
0
41
1
10
19.043684237421
20
-10.1000670133717
30
0
41
1
10
19.1354026811123
20
-10.1664560790587
30
0
41
1
10
19.2503034630021
20
-10.261596071992
30
0
41
1
10
19.350832367964
20
-10.3695186588663
30
0
41
1
10
19.420705897915
20
-10.4553370465732
30
0
41
1
10
19.4431211599626
20
-10.48483064712
30
0
41
1
10
19.4857083394232
20
-10.545003252593
30
0
41
1
10
19.5059044140919
20
-10.5757015791061
30
0
41
1
10
19.525
20
-10.6070107729664
30
0
0
SPLINE
5
142
100
AcDbEntity
8
1
62
256
6
ByLayer
370
18
48
1
60
0
100
AcDbSpline
70
4
71
3
72
52
73
48
40
0
40
0
40
0
40
0
40
0.0625000000000001
40
0.0625000000000001
40
0.125
40
0.125
40
0.156250000000001
40
0.156250000000001
40
0.171875000000002
40
0.171875000000002
40
0.187500000000003
40
0.187500000000003
40
0.250000000000005
40
0.312500000000006
40
0.312500000000006
40
0.328125000000006
40
0.328125000000006
40
0.343750000000007
40
0.37500000000001
40
0.37500000000001
40
0.437500000000015
40
0.437500000000015
40
0.468750000000018
40
0.468750000000018
40
0.48437500000002
40
0.48437500000002
40
0.500000000000021
40
0.500000000000021
40
0.562500000000021
40
0.625000000000022
40
0.625000000000022
40
0.65625000000002
40
0.65625000000002
40
0.687500000000019
40
0.687500000000019
40
0.750000000000017
40
0.750000000000017
40
0.781250000000015
40
0.781250000000015
40
0.812500000000013
40
0.812500000000013
40
0.875000000000008
40
0.937500000000004
40
0.937500000000004
40
0.968750000000002
40
0.968750000000002
40
1
40
1
40
1
40
1
41
1
10
16.475
20
6.08256053862559
30
0
41
1
10
16.5131913232136
20
6.14875739362768
30
0
41
1
10
16.5554551603681
20
6.21167813815893
30
0
41
1
10
16.6478009638929
20
6.33125697971621
30
0
41
1
10
16.6978839475418
20
6.38791418129557
30
0
41
1
10
16.7789435239476
20
6.46816741062787
30
0
41
1
10
16.8069557155953
20
6.49412721987309
30
0
41
1
10
16.8505015589457
20
6.53185172670342
30
0
41
1
10
16.8652488722836
20
6.54420249950999
30
0
41
1
10
16.8950371680023
20
6.5683208958138
30
0
41
1
10
16.910101924586
20
6.58010932569815
30
0
41
1
10
16.9862682240961
20
6.63771554132742
30
0
41
1
10
17.1135048019649
20
6.72137011403404
30
0
41
1
10
17.2513051323545
20
6.78833183584044
30
0
41
1
10
17.340852835611
20
6.82479062943611
30
0
41
1
10
17.3589510261372
20
6.83181655502966
30
0
41
1
10
17.3952241179028
20
6.84522181803516
30
0
41
1
10
17.4498427753161
20
6.86439961794036
30
0
41
1
10
17.5050795190823
20
6.88082858055878
30
0
41
1
10
17.6163637965048
20
6.91008402699762
30
0
41
1
10
17.6916309034651
20
6.92479996636314
30
0
41
1
10
17.8061588831876
20
6.93965309017213
30
0
41
1
10
17.844606956195
20
6.94339679009536
30
0
41
1
10
17.9026967272745
20
6.94715960022205
30
0
41
1
10
17.9221663084688
20
6.94810551514658
30
0
41
1
10
17.9610107977542
20
6.94936316404238
30
0
41
1
10
17.9803927501871
20
6.94967679285188
30
0
41
1
10
18.0771038623368
20
6.94969099173079
30
0
41
1
10
18.2305754564871
20
6.93980956551974
30
0
41
1
10
18.3815722297399
20
6.91056175055311
30
0
41
1
10
18.4938641285014
20
6.88113782423093
30
0
41
1
10
18.53118989199
20
6.87004896572745
30
0
41
1
10
18.6044182748904
20
6.84568118407398
30
0
41
1
10
18.6404572010122
20
6.83237143195061
30
0
41
1
10
18.7468816355557
20
6.78912613927818
30
0
41
1
10
18.8155819965158
20
6.75588884276831
30
0
41
1
10
18.9152578724162
20
6.69940194144635
30
0
41
1
10
18.9479189224546
20
6.67946425122693
30
0
41
1
10
19.012089924821
20
6.63732337158424
30
0
41
1
10
19.0436842374209
20
6.61504762114134
30
0
41
1
10
19.1354026811123
20
6.54572138246812
30
0
41
1
10
19.2503034630021
20
6.44621804518863
30
0
41
1
10
19.350832367964
20
6.33291094167319
30
0
41
1
10
19.420705897915
20
6.24260335462122
30
0
41
1
10
19.4431211599626
20
6.21153396868371
30
0
41
1
10
19.4857083394232
20
6.14807178447586
30
0
41
1
10
19.5059044140919
20
6.11565883491855
30
0
41
1
10
19.525
20
6.08256053862561
30
0
0
SPLINE
5
143
100
AcDbEntity
8
1
62
256
6
ByLayer
370
18
48
1
60
0
100
AcDbSpline
70
4
71
3
72
52
73
48
40
0
40
0
40
0
40
0
40
0.0624999999999977
40
0.0624999999999977
40
0.124999999999995
40
0.124999999999995
40
0.156249999999995
40
0.156249999999995
40
0.171874999999995
40
0.171874999999995
40
0.187499999999995
40
0.187499999999995
40
0.249999999999991
40
0.312499999999988
40
0.312499999999988
40
0.328124999999987
40
0.328124999999987
40
0.343749999999986
40
0.374999999999986
40
0.374999999999986
40
0.437499999999987
40
0.437499999999987
40
0.468749999999987
40
0.468749999999987
40
0.484374999999988
40
0.484374999999988
40
0.499999999999988
40
0.499999999999988
40
0.562499999999991
40
0.624999999999995
40
0.624999999999995
40
0.656249999999995
40
0.656249999999995
40
0.687499999999996
40
0.687499999999996
40
0.749999999999996
40
0.749999999999996
40
0.781249999999995
40
0.781249999999995
40
0.812499999999995
40
0.812499999999995
40
0.874999999999996
40
0.937499999999997
40
0.937499999999997
40
0.968749999999999
40
0.968749999999999
40
1
40
1
40
1
40
1
41
1
10
19.525
20
-6.08256053862556
30
0
41
1
10
19.4868086767864
20
-6.14875739362765
30
0
41
1
10
19.4445448396319
20
-6.21167813815887
30
0
41
1
10
19.3521990361071
20
-6.33125697971619
30
0
41
1
10
19.3021160524582
20
-6.38791418129551
30
0
41
1
10
19.2210564760524
20
-6.46816741062784
30
0
41
1
10
19.1930442844047
20
-6.49412721987304
30
0
41
1
10
19.1494984410543
20
-6.53185172670337
30
0
41
1
10
19.1347511277164
20
-6.54420249950994
30
0
41
1
10
19.1049628319977
20
-6.56832089581377
30
0
41
1
10
19.089898075414
20
-6.58010932569809
30
0
41
1
10
19.0137317759039
20
-6.63771554132737
30
0
41
1
10
18.8864951980351
20
-6.72137011403402
30
0
41
1
10
18.7486948676454
20
-6.78833183584038
30
0
41
1
10
18.659147164389
20
-6.82479062943605
30
0
41
1
10
18.6410489738628
20
-6.8318165550296
30
0
41
1
10
18.6047758820972
20
-6.8452218180351
30
0
41
1
10
18.5501572246839
20
-6.86439961794031
30
0
41
1
10
18.4949204809177
20
-6.88082858055873
30
0
41
1
10
18.3836362034952
20
-6.91008402699757
30
0
41
1
10
18.308369096535
20
-6.92479996636305
30
0
41
1
10
18.1938411168124
20
-6.93965309017207
30
0
41
1
10
18.155393043805
20
-6.94339679009531
30
0
41
1
10
18.0973032727255
20
-6.94715960022197
30
0
41
1
10
18.0778336915312
20
-6.94810551514649
30
0
41
1
10
18.0389892022457
20
-6.9493631640423
30
0
41
1
10
18.0196072498129
20
-6.94967679285179
30
0
41
1
10
17.9228961376632
20
-6.94969099173073
30
0
41
1
10
17.7694245435128
20
-6.93980956551965
30
0
41
1
10
17.6184277702601
20
-6.91056175055303
30
0
41
1
10
17.5061358714986
20
-6.88113782423085
30
0
41
1
10
17.46881010801
20
-6.87004896572736
30
0
41
1
10
17.3955817251096
20
-6.8456811840739
30
0
41
1
10
17.3595427989878
20
-6.83237143195052
30
0
41
1
10
17.2531183644443
20
-6.7891261392781
30
0
41
1
10
17.1844180034841
20
-6.75588884276823
30
0
41
1
10
17.0847421275838
20
-6.69940194144627
30
0
41
1
10
17.0520810775454
20
-6.67946425122682
30
0
41
1
10
16.9879100751789
20
-6.63732337158413
30
0
41
1
10
16.956315762579
20
-6.61504762114123
30
0
41
1
10
16.8645973188877
20
-6.545721382468
30
0
41
1
10
16.7496965369979
20
-6.44621804518854
30
0
41
1
10
16.649167632036
20
-6.33291094167311
30
0
41
1
10
16.579294102085
20
-6.24260335462111
30
0
41
1
10
16.5568788400374
20
-6.2115339686836
30
0
41
1
10
16.5142916605768
20
-6.14807178447575
30
0
41
1
10
16.4940955859081
20
-6.11565883491843
30
0
41
1
10
16.475
20
-6.08256053862553
30
0
0
SPLINE
5
144
100
AcDbEntity
8
1
62
256
6
ByLayer
370
18
48
1
60
0
100
AcDbSpline
70
4
71
3
72
52
73
48
40
0
40
0
40
0
40
0
40
0.0625000000000015
40
0.0625000000000015
40
0.125000000000003
40
0.125000000000003
40
0.156250000000005
40
0.156250000000005
40
0.171875000000006
40
0.171875000000006
40
0.187500000000006
40
0.187500000000006
40
0.250000000000006
40
0.312500000000006
40
0.312500000000006
40
0.328125000000006
40
0.328125000000006
40
0.343750000000006
40
0.375000000000008
40
0.375000000000008
40
0.437500000000013
40
0.437500000000013
40
0.468750000000016
40
0.468750000000016
40
0.484375000000017
40
0.484375000000017
40
0.500000000000018
40
0.500000000000018
40
0.562500000000017
40
0.625000000000016
40
0.625000000000016
40
0.656250000000015
40
0.656250000000015
40
0.687500000000013
40
0.687500000000013
40
0.750000000000009
40
0.750000000000009
40
0.781250000000008
40
0.781250000000008
40
0.812500000000006
40
0.812500000000006
40
0.875000000000004
40
0.937500000000003
40
0.937500000000003
40
0.968750000000001
40
0.968750000000001
40
1
40
1
40
1
40
1
41
1
10
19.525
20
4.39727504184242
30
0
41
1
10
19.4868086767864
20
4.33026883424901
30
0
41
1
10
19.4445448396319
20
4.2664824996358
30
0
41
1
10
19.3521990361071
20
4.14510871908146
30
0
41
1
10
19.3021160524582
20
4.0875220264235
30
0
41
1
10
19.2210564760524
20
4.00586219933035
30
0
41
1
10
19.1930442844047
20
3.97943146776819
30
0
41
1
10
19.1494984410543
20
3.94100212554869
30
0
41
1
10
19.1347511277164
20
3.92841705521303
30
0
41
1
10
19.1049628319977
20
3.90383476337581
30
0
41
1
10
19.089898075414
20
3.89181634832065
30
0
41
1
10
19.0137317759039
20
3.8330717809958
30
0
41
1
10
18.8864951980351
20
3.74767015971878
30
0
41
1
10
18.7486948676454
20
3.67919672019565
30
0
41
1
10
18.659147164389
20
3.64189435680265
30
0
41
1
10
18.6410489738628
20
3.63470466759034
30
0
41
1
10
18.6047758820972
20
3.62098501118811
30
0
41
1
10
18.5501572246839
20
3.60135439530453
30
0
41
1
10
18.4949204809177
20
3.58453044090757
30
0
41
1
10
18.3836362034952
20
3.55456599263886
30
0
41
1
10
18.308369096535
20
3.53948534937439
30
0
41
1
10
18.1938411168124
20
3.52426240594025
30
0
41
1
10
18.155393043805
20
3.52042497218653
30
0
41
1
10
18.0973032727255
20
3.51656783942965
30
0
41
1
10
18.0778336915312
20
3.51559817972628
30
0
41
1
10
18.0389892022457
20
3.51430895169156
30
0
41
1
10
18.0196072498129
20
3.51398744108229
30
0
41
1
10
17.9228961376632
20
3.51397288547221
30
0
41
1
10
17.7694245435128
20
3.52410360363302
30
0
41
1
10
17.6184277702601
20
3.55407658278222
30
0
41
1
10
17.5061358714986
20
3.58421375561872
30
0
41
1
10
17.46881010801
20
3.59556924568148
30
0
41
1
10
17.3955817251096
20
3.62051560110993
30
0
41
1
10
17.3595427989878
20
3.63413805206946
30
0
41
1
10
17.2531183644443
20
3.678384234703
30
0
41
1
10
17.1844180034841
20
3.71237252714314
30
0
41
1
10
17.0847421275837
20
3.77008242151149
30
0
41
1
10
17.0520810775454
20
3.79044386199391
30
0
41
1
10
16.987910075179
20
3.83345945050357
30
0
41
1
10
16.956315762579
20
3.85618753320904
30
0
41
1
10
16.8645973188877
20
3.9268840405114
30
0
41
1
10
16.7496965369979
20
4.02825886708578
30
0
41
1
10
16.649167632036
20
4.14342881752521
30
0
41
1
10
16.579294102085
20
4.23509361941078
30
0
41
1
10
16.5568788400374
20
4.26660973475578
30
0
41
1
10
16.5142916605768
20
4.33093867792599
30
0
41
1
10
16.4940955859081
20
4.36377207085809
30
0
41
1
10
16.475
20
4.39727504184245
30
0
0
SPLINE
5
145
100
AcDbEntity
8
1
62
256
6
ByLayer
370
18
48
1
60
0
100
AcDbSpline
70
4
71
3
72
52
73
48
40
0
40
0
40
0
40
0
40
0.0624999999999981
40
0.0624999999999981
40
0.124999999999996
40
0.124999999999996
40
0.156249999999996
40
0.156249999999996
40
0.171874999999998
40
0.171874999999998
40
0.187499999999999
40
0.187499999999999
40
0.249999999999999
40
0.3125
40
0.3125
40
0.328125
40
0.328125
40
0.34375
40
0.375000000000004
40
0.375000000000004
40
0.43750000000001
40
0.43750000000001
40
0.468750000000014
40
0.468750000000014
40
0.484375000000015
40
0.484375000000015
40
0.500000000000017
40
0.500000000000017
40
0.562500000000018
40
0.625000000000019
40
0.625000000000019
40
0.656250000000019
40
0.656250000000019
40
0.687500000000018
40
0.687500000000018
40
0.750000000000016
40
0.750000000000016
40
0.781250000000014
40
0.781250000000014
40
0.812500000000012
40
0.812500000000012
40
0.875000000000009
40
0.937500000000005
40
0.937500000000005
40
0.968750000000002
40
0.968750000000002
40
1
40
1
40
1
40
1
41
1
10
16.475
20
-4.39727504184236
30
0
41
1
10
16.5131913232136
20
-4.33026883424898
30
0
41
1
10
16.5554551603681
20
-4.26648249963577
30
0
41
1
10
16.6478009638929
20
-4.14510871908143
30
0
41
1
10
16.6978839475418
20
-4.08752202642344
30
0
41
1
10
16.7789435239476
20
-4.00586219933032
30
0
41
1
10
16.8069557155954
20
-3.97943146776814
30
0
41
1
10
16.8505015589457
20
-3.94100212554866
30
0
41
1
10
16.8652488722836
20
-3.928417055213
30
0
41
1
10
16.8950371680023
20
-3.90383476337575
30
0
41
1
10
16.910101924586
20
-3.89181634832059
30
0
41
1
10
16.9862682240961
20
-3.83307178099574
30
0
41
1
10
17.1135048019649
20
-3.74767015971872
30
0
41
1
10
17.2513051323546
20
-3.67919672019559
30
0
41
1
10
17.340852835611
20
-3.6418943568026
30
0
41
1
10
17.3589510261372
20
-3.63470466759029
30
0
41
1
10
17.3952241179028
20
-3.62098501118805
30
0
41
1
10
17.4498427753161
20
-3.60135439530444
30
0
41
1
10
17.5050795190823
20
-3.58453044090751
30
0
41
1
10
17.6163637965048
20
-3.55456599263877
30
0
41
1
10
17.6916309034651
20
-3.5394853493743
30
0
41
1
10
17.8061588831876
20
-3.52426240594019
30
0
41
1
10
17.844606956195
20
-3.52042497218645
30
0
41
1
10
17.9026967272745
20
-3.51656783942957
30
0
41
1
10
17.9221663084688
20
-3.5155981797262
30
0
41
1
10
17.9610107977543
20
-3.5143089516915
30
0
41
1
10
17.9803927501871
20
-3.51398744108221
30
0
41
1
10
18.0771038623368
20
-3.51397288547213
30
0
41
1
10
18.2305754935628
20
-3.52410332049624
30
0
41
1
10
18.3815722297399
20
-3.55407658278213
30
0
41
1
10
18.4938641285014
20
-3.58421375561863
30
0
41
1
10
18.53118989199
20
-3.59556924568136
30
0
41
1
10
18.6044182748904
20
-3.62051560110982
30
0
41
1
10
18.6404572010122
20
-3.63413805206938
30
0
41
1
10
18.7468816355557
20
-3.67838423470292
30
0
41
1
10
18.8155819965159
20
-3.71237252714306
30
0
41
1
10
18.9152578724162
20
-3.77008242151138
30
0
41
1
10
18.9479189224546
20
-3.79044386199379
30
0
41
1
10
19.0120899248211
20
-3.83345945050345
30
0
41
1
10
19.043684237421
20
-3.85618753320892
30
0
41
1
10
19.1354026811123
20
-3.92688404051128
30
0
41
1
10
19.2503033645008
20
-4.02825901700856
30
0
41
1
10
19.350832367964
20
-4.14342881752509
30
0
41
1
10
19.420705897915
20
-4.23509361941066
30
0
41
1
10
19.4431211599626
20
-4.26660973475566
30
0
41
1
10
19.4857083394232
20
-4.33093867792587
30
0
41
1
10
19.5059044140919
20
-4.36377207085798
30
0
41
1
10
19.525
20
-4.39727504184234
30
0
0
SPLINE
5
146
100
AcDbEntity
8
1
62
256
6
ByLayer
370
18
48
1
60
0
100
AcDbSpline
70
4
71
3
72
28
73
24
40
0
40
0
40
0
40
0
40
0.0312500000000065
40
0.0312500000000065
40
0.0625000000000131
40
0.0625000000000131
40
0.125000000000008
40
0.125000000000008
40
0.187500000000004
40
0.187500000000004
40
0.249999999999999
40
0.249999999999999
40
0.374999999999994
40
0.374999999999994
40
0.437499999999993
40
0.437499999999993
40
0.499999999999993
40
0.499999999999993
40
0.624999999999996
40
0.624999999999996
40
0.75
40
0.75
40
1
40
1
40
1
40
1
41
1
10
16.475
20
26.4
30
0
41
1
10
16.4695218117318
20
26.4
30
0
41
1
10
16.4639592722497
20
26.4
30
0
41
1
10
16.4531012812887
20
26.4
30
0
41
1
10
16.4477658912544
20
26.4
30
0
41
1
10
16.4320152361728
20
26.4
30
0
41
1
10
16.4218199762313
20
26.4
30
0
41
1
10
16.4028703180137
20
26.4
30
0
41
1
10
16.393970377898
20
26.4
30
0
41
1
10
16.3770195476014
20
26.4
30
0
41
1
10
16.3690789387686
20
26.4
30
0
41
1
10
16.3466671821828
20
26.4
30
0
41
1
10
16.333431755631
20
26.4
30
0
41
1
10
16.3151061332821
20
26.4
30
0
41
1
10
16.3092743290003
20
26.4
30
0
41
1
10
16.2981587768622
20
26.4
30
0
41
1
10
16.2928571530061
20
26.4
30
0
41
1
10
16.2775791502381
20
26.4
30
0
41
1
10
16.26822240469
20
26.4
30
0
41
1
10
16.2507042143622
20
26.4
30
0
41
1
10
16.2425476678601
20
26.4
30
0
41
1
10
16.2194851817063
20
26.4
30
0
41
1
10
16.2059660040617
20
26.4
30
0
41
1
10
16.1937397274626
20
26.4
30
0
0
SPLINE
5
147
100
AcDbEntity
8
1
62
256
6
ByLayer
370
18
48
1
60
0
100
AcDbSpline
70
4
71
3
72
20
73
16
40
0
40
0
40
0
40
0
40
0.125000000000007
40
0.125000000000007
40
0.250000000000014
40
0.250000000000014
40
0.37500000000002
40
0.37500000000002
40
0.500000000000027
40
0.500000000000027
40
0.750000000000029
40
0.750000000000029
40
0.875000000000015
40
0.875000000000015
40
1
40
1
40
1
40
1
41
1
10
16.1937397274627
20
26.3999999999999
30
0
41
1
10
16.1842797092231
20
26.4097769359917
30
0
41
1
10
16.1752865639471
20
26.4200440728326
30
0
41
1
10
16.1582472360248
20
26.4415726253043
30
0
41
1
10
16.1502374972281
20
26.4527970849149
30
0
41
1
10
16.1354195864135
20
26.4758754239811
30
0
41
1
10
16.1285798508723
20
26.4877681435603
30
0
41
1
10
16.1160373835992
20
26.5122597909401
30
0
41
1
10
16.1103918987635
20
26.5247523636766
30
0
41
1
10
16.0953550131521
20
26.5627233580421
30
0
41
1
10
16.0877979661197
20
26.5887831485574
30
0
41
1
10
16.080138445853
20
26.6289838896701
30
0
41
1
10
16.0781975852373
20
26.6426443681837
30
0
41
1
10
16.0756328445336
20
26.6699147719109
30
0
41
1
10
16.075
20
26.6835224093342
30
0
41
1
10
16.075
20
26.697103190234
30
0
0
SPLINE
5
148
100
AcDbEntity
8
1
62
256
6
ByLayer
370
18
48
1
60
0
100
AcDbSpline
70
4
71
3
72
40
73
36
40
0
40
0
40
0
40
0
40
0.0156465733877819
40
0.0156465733877819
40
0.0312931467755638
40
0.0312931467755638
40
0.0469397201633456
40
0.0469397201633456
40
0.0625862935511275
40
0.0625862935511275
40
0.0782328669389094
40
0.0782328669389094
40
0.0938794403266913
40
0.0938794403266913
40
0.125172587102249
40
0.125172587102249
40
0.156465733877807
40
0.156465733877807
40
0.187758880653364
40
0.187758880653364
40
0.250345174204477
40
0.250345174204477
40
0.312931467755586
40
0.312931467755586
40
0.375517761306695
40
0.375517761306695
40
0.438104054857804
40
0.438104054857804
40
0.500690348408913
40
0.500690348408913
40
0.625862935511131
40
0.625862935511131
40
0.751035522613348
40
0.751035522613348
40
1
40
1
40
1
40
1
41
1
10
16.475
20
-26.4
30
0
41
1
10
16.4673226919549
20
-26.4
30
0
41
1
10
16.4596313914733
20
-26.4
30
0
41
1
10
16.4443522436319
20
-26.4
30
0
41
1
10
16.4369772923286
20
-26.4
30
0
41
1
10
16.4226671530006
20
-26.4
30
0
41
1
10
16.4156891178927
20
-26.4
30
0
41
1
10
16.4024395960546
20
-26.4
30
0
41
1
10
16.3961337977332
20
-26.4
30
0
41
1
10
16.3840205954807
20
-26.4
30
0
41
1
10
16.3782140529183
20
-26.4
30
0
41
1
10
16.3670076620281
20
-26.4
30
0
41
1
10
16.36160864823
20
-26.4
30
0
41
1
10
16.3461431413254
20
-26.4
30
0
41
1
10
16.336700018815
20
-26.4
30
0
41
1
10
16.3189863257432
20
-26.4
30
0
41
1
10
16.3107230075456
20
-26.4
30
0
41
1
10
16.295078277987
20
-26.4
30
0
41
1
10
16.287689546075
20
-26.4
30
0
41
1
10
16.2667934397999
20
-26.4
30
0
41
1
10
16.2544360687867
20
-26.4
30
0
41
1
10
16.2317610364964
20
-26.4
30
0
41
1
10
16.2214615373228
20
-26.4
30
0
41
1
10
16.2023941560713
20
-26.4
30
0
41
1
10
16.1936321375888
20
-26.4
30
0
41
1
10
16.1773412140386
20
-26.4
30
0
41
1
10
16.1698146974544
20
-26.4
30
0
41
1
10
16.1558069562402
20
-26.4
30
0
41
1
10
16.149320560564
20
-26.4
30
0
41
1
10
16.1313301316802
20
-26.4
30
0
41
1
10
16.1212477874993
20
-26.4
30
0
41
1
10
16.1041941300891
20
-26.4
30
0
41
1
10
16.0972316710737
20
-26.4
30
0
41
1
10
16.0806251377289
20
-26.4
30
0
41
1
10
16.0750506598932
20
-26.4
30
0
41
1
10
16.0750049999987
20
-26.4
30
0
0
SPLINE
5
149
100
AcDbEntity
8
1
62
256
6
ByLayer
370
18
48
1
60
0
100
AcDbSpline
70
4
71
3
72
32
73
28
40
0
40
0
40
0
40
0
40
0.124999999999986
40
0.124999999999986
40
0.249999999999973
40
0.249999999999973
40
0.281249999999969
40
0.281249999999969
40
0.312499999999965
40
0.312499999999965
40
0.374999999999961
40
0.374999999999961
40
0.499999999999953
40
0.499999999999953
40
0.562499999999951
40
0.562499999999951
40
0.593749999999953
40
0.593749999999953
40
0.624999999999954
40
0.624999999999954
40
0.749999999999969
40
0.749999999999969
40
0.874999999999983
40
0.874999999999983
40
0.937499999999992
40
0.937499999999992
40
1
40
1
40
1
40
1
41
1
10
16.475
20
-17.5834806976042
30
0
41
1
10
16.4377742277508
20
-17.5326400828397
30
0
41
1
10
16.4054459522828
20
-17.48377091451
30
0
41
1
10
16.3497248646307
20
-17.3858095648159
30
0
41
1
10
16.3263406077045
20
-17.3367730980134
30
0
41
1
10
16.3026611933048
20
-17.27334761125
30
0
41
1
10
16.2982045468113
20
-17.260556318764
30
0
41
1
10
16.2898554507283
20
-17.2347100837202
30
0
41
1
10
16.2859594838726
20
-17.2216387005082
30
0
41
1
10
16.2751999690725
20
-17.182226590438
30
0
41
1
10
16.2692366123242
20
-17.1556115350387
30
0
41
1
10
16.2549058741042
20
-17.0743282741437
30
0
41
1
10
16.2500826417255
20
-17.0181632092857
30
0
41
1
10
16.24996025175
20
-16.9301110113541
30
0
41
1
10
16.2511087461828
20
-16.9001401020891
30
0
41
1
10
16.2546516605169
20
-16.8542877881334
30
0
41
1
10
16.2561362275498
20
-16.8388553929389
30
0
41
1
10
16.259721452126
20
-16.807711681923
30
0
41
1
10
16.2618259730674
20
-16.7919827488977
30
0
41
1
10
16.2738045976031
20
-16.7133571248931
30
0
41
1
10
16.2880619456723
20
-16.6500117336234
30
0
41
1
10
16.3256562265586
20
-16.5245006582798
30
0
41
1
10
16.3489914527215
20
-16.4623315712261
30
0
41
1
10
16.3911560454333
20
-16.3718879296942
30
0
41
1
10
16.4063717963254
20
-16.3423092294412
30
0
41
1
10
16.438992387945
20
-16.2850154421057
30
0
41
1
10
16.4564203261801
20
-16.2572467885351
30
0
41
1
10
16.4749999999985
20
-16.2306014000895
30
0
0
SPLINE
5
14A
100
AcDbEntity
8
1
62
256
6
ByLayer
370
18
48
1
60
0
100
AcDbSpline
70
4
71
3
72
32
73
28
40
0
40
0
40
0
40
0
40
0.125000000000016
40
0.125000000000016
40
0.250000000000032
40
0.250000000000032
40
0.281250000000032
40
0.281250000000032
40
0.312500000000032
40
0.312500000000032
40
0.375000000000031
40
0.375000000000031
40
0.500000000000027
40
0.500000000000027
40
0.562500000000024
40
0.562500000000024
40
0.593750000000024
40
0.593750000000024
40
0.625000000000023
40
0.625000000000023
40
0.750000000000015
40
0.750000000000015
40
0.875000000000006
40
0.875000000000006
40
0.937500000000003
40
0.937500000000003
40
1
40
1
40
1
40
1
41
1
10
16.475
20
-12.169258190623
30
0
41
1
10
16.4377742277507
20
-12.109937204831
30
0
41
1
10
16.4054459522829
20
-12.0514555137902
30
0
41
1
10
16.3497248646307
20
-11.9332132340506
30
0
41
1
10
16.3263406077045
20
-11.873492565413
30
0
41
1
10
16.3026611933048
20
-11.7965822670497
30
0
41
1
10
16.2982045468113
20
-11.7810872439872
30
0
41
1
10
16.2898554507283
20
-11.7498328466777
30
0
41
1
10
16.2859594838726
20
-11.7340537908138
30
0
41
1
10
16.2751999690725
20
-11.6865918658698
30
0
41
1
10
16.2692366123242
20
-11.654692795451
30
0
41
1
10
16.2549058741042
20
-11.5579345614433
30
0
41
1
10
16.2500826417255
20
-11.4919739496652
30
0
41
1
10
16.24996025175
20
-11.3902680493041
30
0
41
1
10
16.2511087461828
20
-11.3559148251435
30
0
41
1
10
16.2546516605169
20
-11.3037312093317
30
0
41
1
10
16.2561362275498
20
-11.2862284197143
30
0
41
1
10
16.259721452126
20
-11.2510184083221
30
0
41
1
10
16.2618259730674
20
-11.2332915725756
30
0
41
1
10
16.2738045976031
20
-11.1449220122847
30
0
41
1
10
16.2880619456723
20
-11.0745080404172
30
0
41
1
10
16.3256562265586
20
-10.935418858235
30
0
41
1
10
16.3489914527215
20
-10.8667414663276
30
0
41
1
10
16.3911560454333
20
-10.7661926607264
30
0
41
1
10
16.4063717963254
20
-10.733197290257
30
0
41
1
10
16.438992387945
20
-10.668867196194
30
0
41
1
10
16.4564203261801
20
-10.6374740754395
30
0
41
1
10
16.4749999999985
20
-10.6070107729652
30
0
0
SPLINE
5
14B
100
AcDbEntity
8
1
62
256
6
ByLayer
370
18
48
1
60
0
100
AcDbSpline
70
4
71
3
72
32
73
28
40
0
40
0
40
0
40
0
40
0.124999999999998
40
0.124999999999998
40
0.249999999999996
40
0.249999999999996
40
0.281249999999996
40
0.281249999999996
40
0.312499999999996
40
0.312499999999996
40
0.374999999999997
40
0.374999999999997
40
0.499999999999999
40
0.499999999999999
40
0.5625
40
0.5625
40
0.593750000000001
40
0.593750000000001
40
0.625000000000001
40
0.625000000000001
40
0.750000000000001
40
0.750000000000001
40
0.875000000000002
40
0.875000000000002
40
0.937500000000001
40
0.937500000000001
40
1
40
1
40
1
40
1
41
1
10
16.475
20
-6.08256053862553
30
0
41
1
10
16.4377742277507
20
-6.01803726892504
30
0
41
1
10
16.4054459522828
20
-5.95317476273067
30
0
41
1
10
16.3497248646307
20
-5.82118564014874
30
0
41
1
10
16.3263406077045
20
-5.75408094333275
30
0
41
1
10
16.3026611933048
20
-5.66793590870145
30
0
41
1
10
16.2982045468113
20
-5.65059341250398
30
0
41
1
10
16.2898554507283
20
-5.61565797589969
30
0
41
1
10
16.2859594838726
20
-5.59804320052305
30
0
41
1
10
16.2751999690725
20
-5.545154214234
30
0
41
1
10
16.2692366123242
20
-5.50973387650555
30
0
41
1
10
16.2549058741042
20
-5.40284754480069
30
0
41
1
10
16.2500826417254
20
-5.33073638001062
30
0
41
1
10
16.24996025175
20
-5.22099706146605
30
0
41
1
10
16.2511087461828
20
-5.18415988704606
30
0
41
1
10
16.2546516605169
20
-5.1285286442959
30
0
41
1
10
16.2561362275498
20
-5.10992266719623
30
0
41
1
10
16.259721452126
20
-5.0725920662629
30
0
41
1
10
16.2618259730674
20
-5.05384691556065
30
0
41
1
10
16.2738045976031
20
-4.96061673495402
30
0
41
1
10
16.2880619456723
20
-4.88702526978434
30
0
41
1
10
16.3256562265586
20
-4.74204407111458
30
0
41
1
10
16.3489914527215
20
-4.67065349796405
30
0
41
1
10
16.3911560454333
20
-4.56555587129901
30
0
41
1
10
16.4063717963254
20
-4.5309671600383
30
0
41
1
10
16.438992387945
20
-4.46315565048741
30
0
41
1
10
16.4564203261801
20
-4.42987285139975
30
0
41
1
10
16.4749999999985
20
-4.39727504184148
30
0
0
SPLINE
5
14C
100
AcDbEntity
8
1
62
256
6
ByLayer
370
18
48
1
60
0
100
AcDbSpline
70
4
71
3
72
32
73
28
40
0
40
0
40
0
40
0
40
0.125
40
0.125
40
0.25
40
0.25
40
0.28125
40
0.28125
40
0.312500000000001
40
0.312500000000001
40
0.375000000000001
40
0.375000000000001
40
0.500000000000001
40
0.500000000000001
40
0.562500000000001
40
0.562500000000001
40
0.593750000000002
40
0.593750000000002
40
0.625000000000002
40
0.625000000000002
40
0.750000000000003
40
0.750000000000003
40
0.875000000000004
40
0.875000000000004
40
0.937500000000002
40
0.937500000000002
40
1
40
1
40
1
40
1
41
1
10
16.475
20
4.39727504184245
30
0
41
1
10
16.4377742277507
20
4.46258720212586
30
0
41
1
10
16.4054459522828
20
4.53009002909846
30
0
41
1
10
16.3497248646307
20
4.66867550134629
30
0
41
1
10
16.3263406077045
20
4.73976768015055
30
0
41
1
10
16.3026611933048
20
4.83063935569521
30
0
41
1
10
16.2982045468113
20
4.84891472825561
30
0
41
1
10
16.2898554507283
20
4.88566426077168
30
0
41
1
10
16.2859594838726
20
4.90416115310484
30
0
41
1
10
16.2751999690725
20
4.95956272728378
30
0
41
1
10
16.2692366123242
20
4.99648396900869
30
0
41
1
10
16.2549058741042
20
5.10710058564646
30
0
41
1
10
16.2500826417254
20
5.18063336510292
30
0
41
1
10
16.24996025175
20
5.29040742678777
30
0
41
1
10
16.2511087461828
20
5.32691494893044
30
0
41
1
10
16.2546516605169
20
5.38156114251001
30
0
41
1
10
16.2561362275498
20
5.39975762939511
30
0
41
1
10
16.259721452126
20
5.43611769128918
30
0
41
1
10
16.2618259730674
20
5.45430085327993
30
0
41
1
10
16.2738045976031
20
5.54440853907875
30
0
41
1
10
16.2880619456723
20
5.61447736777075
30
0
41
1
10
16.3256562265586
20
5.75192831278741
30
0
41
1
10
16.3489914527215
20
5.81930901699792
30
0
41
1
10
16.3911560454333
20
5.91939349294731
30
0
41
1
10
16.4063717963254
20
5.95248681896445
30
0
41
1
10
16.438992387945
20
6.01794053534573
30
0
41
1
10
16.4564203261801
20
6.05035647052213
30
0
41
1
10
16.4749999999985
20
6.0825605386259
30
0
0
SPLINE
5
14D
100
AcDbEntity
8
1
62
256
6
ByLayer
370
18
48
1
60
0
100
AcDbSpline
70
4
71
3
72
32
73
28
40
0
40
0
40
0
40
0
40
0.125000000000003
40
0.125000000000003
40
0.250000000000006
40
0.250000000000006
40
0.281250000000007
40
0.281250000000007
40
0.312500000000009
40
0.312500000000009
40
0.375000000000011
40
0.375000000000011
40
0.500000000000014
40
0.500000000000014
40
0.562500000000015
40
0.562500000000015
40
0.593750000000014
40
0.593750000000014
40
0.625000000000013
40
0.625000000000013
40
0.750000000000008
40
0.750000000000008
40
0.875000000000002
40
0.875000000000002
40
0.937500000000001
40
0.937500000000001
40
1
40
1
40
1
40
1
41
1
10
16.475
20
10.6070107729665
30
0
41
1
10
16.4377742277507
20
10.6680462879572
30
0
41
1
10
16.4054459522828
20
10.7322662995787
30
0
41
1
10
16.3497248646307
20
10.8648447044431
30
0
41
1
10
16.3263406077045
20
10.9332315359757
30
0
41
1
10
16.3026611933048
20
11.0204144425217
30
0
41
1
10
16.2982045468113
20
11.0379369251552
30
0
41
1
10
16.2898554507283
20
11.073133973673
30
0
41
1
10
16.2859594838725
20
11.0908301715478
30
0
41
1
10
16.2751999690724
20
11.1437528097954
30
0
41
1
10
16.2692366123242
20
11.1789138582146
30
0
41
1
10
16.2549058741041
20
11.2837792779021
30
0
41
1
10
16.2500826417254
20
11.3528295448332
30
0
41
1
10
16.24996025175
20
11.4546109539274
30
0
41
1
10
16.2511087461827
20
11.4882477308808
30
0
41
1
10
16.2546516605169
20
11.5382904977566
30
0
41
1
10
16.2561362275498
20
11.5549033250084
30
0
41
1
10
16.2597214521259
20
11.5880040229455
30
0
41
1
10
16.2618259730674
20
11.6045094649068
30
0
41
1
10
16.2738045976031
20
11.6860927754484
30
0
41
1
10
16.2880619456723
20
11.7488508527878
30
0
41
1
10
16.3256562265586
20
11.8715742168949
30
0
41
1
10
16.3489914527215
20
11.9315367914003
30
0
41
1
10
16.3911560454333
20
12.0211903049734
30
0
41
1
10
16.4063717963254
20
12.0509356915809
30
0
41
1
10
16.438992387945
20
12.1101414942389
30
0
41
1
10
16.4564203261801
20
12.1396506230695
30
0
41
1
10
16.4749999999984
20
12.169258190623
30
0
0
SPLINE
5
14E
100
AcDbEntity
8
1
62
256
6
ByLayer
370
18
48
1
60
0
100
AcDbSpline
70
4
71
3
72
32
73
28
40
0
40
0
40
0
40
0
40
0.125000000000015
40
0.125000000000015
40
0.25000000000003
40
0.25000000000003
40
0.28125000000003
40
0.28125000000003
40
0.312500000000031
40
0.312500000000031
40
0.375000000000033
40
0.375000000000033
40
0.500000000000034
40
0.500000000000034
40
0.56250000000003
40
0.56250000000003
40
0.593750000000029
40
0.593750000000029
40
0.625000000000027
40
0.625000000000027
40
0.750000000000018
40
0.750000000000018
40
0.875000000000008
40
0.875000000000008
40
0.937500000000004
40
0.937500000000004
40
1
40
1
40
1
40
1
41
1
10
16.475
20
16.230601400091
30
0
41
1
10
16.4377742277508
20
16.2839874375134
30
0
41
1
10
16.4054459522829
20
16.3413758257175
30
0
41
1
10
16.3497248646308
20
16.4606208594385
30
0
41
1
10
16.3263406077045
20
16.5225232765013
30
0
41
1
10
16.3026611933048
20
16.6011996727532
30
0
41
1
10
16.2982045468113
20
16.6170009702799
30
0
41
1
10
16.2898554507283
20
16.6487005402947
30
0
41
1
10
16.2859594838726
20
16.6646181489993
30
0
41
1
10
16.2751999690725
20
16.7121373379005
30
0
41
1
10
16.2692366123242
20
16.7435951878805
30
0
41
1
10
16.2549058741042
20
16.8369145308305
30
0
41
1
10
16.2500826417254
20
16.8976665564926
30
0
41
1
10
16.2499602517499
20
16.9858308561256
30
0
41
1
10
16.2511087461827
20
17.0147381142403
30
0
41
1
10
16.2546516605169
20
17.0574120831477
30
0
41
1
10
16.2561362275498
20
17.0715232232876
30
0
41
1
10
16.259721452126
20
17.0995354074298
30
0
41
1
10
16.2618259730674
20
17.1134510360113
30
0
41
1
10
16.2738045976031
20
17.1820016645665
30
0
41
1
10
16.2880619456723
20
17.2339809692081
30
0
41
1
10
16.3256562265586
20
17.335195039767
30
0
41
1
10
16.3489914527214
20
17.3844259431538
30
0
41
1
10
16.3911560454333
20
17.4586942269173
30
0
41
1
10
16.4063717963254
20
17.4834479393157
30
0
41
1
10
16.438992387945
20
17.5331341061697
30
0
41
1
10
16.45642032618
20
17.5581057494973
30
0
41
1
10
16.4749999999984
20
17.5834806976038
30
0
0
SPLINE
5
14F
100
AcDbEntity
8
1
62
256
6
ByLayer
370
18
48
1
60
0
100
AcDbSpline
70
4
71
3
72
18
73
14
40
0
40
0
40
0
40
0
40
0.249999999999996
40
0.249999999999996
40
0.374999999999996
40
0.374999999999996
40
0.499999999999997
40
0.499999999999997
40
0.624999999999998
40
0.624999999999998
40
0.749999999999998
40
0.749999999999998
40
1
40
1
40
1
40
1
41
1
10
19.925
20
26.697103190234
30
0
41
1
10
19.925
20
26.6698685852525
30
0
41
1
10
19.9224731220319
20
26.6428008079355
30
0
41
1
10
19.9148171455652
20
26.6024543576674
30
0
41
1
10
19.9115996570472
20
26.589007869633
30
0
41
1
10
19.9039472157243
20
26.5626603688927
30
0
41
1
10
19.8995068479357
20
26.5497093197238
30
0
41
1
10
19.8893945845804
20
26.5242537963244
30
0
41
1
10
19.8837052336603
20
26.5117157078946
30
0
41
1
10
19.8711326634775
20
26.4872501038808
30
0
41
1
10
19.8643009268049
20
26.4754142610501
30
0
41
1
10
19.8422015430664
20
26.4410741899466
30
0
41
1
10
19.8253462606136
20
26.4197253830844
30
0
41
1
10
19.8062602725373
20
26.4
30
0
0
SPLINE
5
150
100
AcDbEntity
8
1
62
256
6
ByLayer
370
18
48
1
60
0
100
AcDbSpline
70
4
71
3
72
26
73
22
40
0
40
0
40
0
40
0
40
0.249999999999993
40
0.249999999999993
40
0.374999999999989
40
0.374999999999989
40
0.499999999999986
40
0.499999999999986
40
0.624999999999978
40
0.624999999999978
40
0.749999999999969
40
0.749999999999969
40
0.812499999999972
40
0.812499999999972
40
0.874999999999975
40
0.874999999999975
40
0.906249999999977
40
0.906249999999977
40
0.937499999999978
40
0.937499999999978
40
1
40
1
40
1
40
1
41
1
10
19.8062602725373
20
26.4
30
0
41
1
10
19.7940965948292
20
26.4
30
0
41
1
10
19.7805948871375
20
26.4
30
0
41
1
10
19.7573398153967
20
26.4
30
0
41
1
10
19.749101730686
20
26.4
30
0
41
1
10
19.7314550314071
20
26.4
30
0
41
1
10
19.7220419248778
20
26.4
30
0
41
1
10
19.7015999939951
20
26.4
30
0
41
1
10
19.6905668771769
20
26.4
30
0
41
1
10
19.6661255684364
20
26.4
30
0
41
1
10
19.6528645548572
20
26.4
30
0
41
1
10
19.6303061592547
20
26.4
30
0
41
1
10
19.6224072259904
20
26.4
30
0
41
1
10
19.6056945143669
20
26.4
30
0
41
1
10
19.5968739568959
20
26.4
30
0
41
1
10
19.5826568687739
20
26.4
30
0
41
1
10
19.577721121873
20
26.4
30
0
41
1
10
19.5676852979551
20
26.4
30
0
41
1
10
19.5625702138709
20
26.4
30
0
41
1
10
19.5468992171813
20
26.4
30
0
41
1
10
19.5358590822777
20
26.4
30
0
41
1
10
19.525
20
26.4
30
0
0
SPLINE
5
151
100
AcDbEntity
8
1
62
256
6
ByLayer
370
18
48
1
60
0
100
AcDbSpline
70
4
71
3
72
32
73
28
40
0
40
0
40
0
40
0
40
0.125000000000004
40
0.125000000000004
40
0.250000000000008
40
0.250000000000008
40
0.281250000000011
40
0.281250000000011
40
0.312500000000013
40
0.312500000000013
40
0.375000000000018
40
0.375000000000018
40
0.500000000000028
40
0.500000000000028
40
0.56250000000003
40
0.56250000000003
40
0.593750000000031
40
0.593750000000031
40
0.625000000000032
40
0.625000000000032
40
0.750000000000022
40
0.750000000000022
40
0.875000000000012
40
0.875000000000012
40
0.937500000000006
40
0.937500000000006
40
1
40
1
40
1
40
1
41
1
10
19.525
20
17.5834806976043
30
0
41
1
10
19.5622257722493
20
17.5326400828398
30
0
41
1
10
19.5945540477172
20
17.4837709145101
30
0
41
1
10
19.6502751353693
20
17.385809564816
30
0
41
1
10
19.6736593922955
20
17.3367730980135
30
0
41
1
10
19.6973388066952
20
17.2733476112501
30
0
41
1
10
19.7017954531887
20
17.260556318764
30
0
41
1
10
19.7101445492717
20
17.2347100837203
30
0
41
1
10
19.7140405161274
20
17.2216387005083
30
0
41
1
10
19.7248000309275
20
17.1822265904381
30
0
41
1
10
19.7307633876759
20
17.1556115350388
30
0
41
1
10
19.7450941258959
20
17.0743282741437
30
0
41
1
10
19.7499173582746
20
17.0181632092858
30
0
41
1
10
19.7500397482501
20
16.9301110113541
30
0
41
1
10
19.7488912538172
20
16.9001401020892
30
0
41
1
10
19.7453483394831
20
16.8542877881334
30
0
41
1
10
19.7438637724502
20
16.838855392939
30
0
41
1
10
19.740278547874
20
16.807711681923
30
0
41
1
10
19.7381740269326
20
16.7919827488977
30
0
41
1
10
19.7261954023969
20
16.7133571248931
30
0
41
1
10
19.7119380543277
20
16.6500117336235
30
0
41
1
10
19.6743437734414
20
16.5245006582798
30
0
41
1
10
19.6510085472785
20
16.4623315712261
30
0
41
1
10
19.6088439545667
20
16.3718879296943
30
0
41
1
10
19.5936282036746
20
16.3423092294413
30
0
41
1
10
19.561007612055
20
16.2850154421057
30
0
41
1
10
19.5435796738199
20
16.2572467885351
30
0
41
1
10
19.5250000000015
20
16.2306014000896
30
0
0
SPLINE
5
152
100
AcDbEntity
8
1
62
256
6
ByLayer
370
18
48
1
60
0
100
AcDbSpline
70
4
71
3
72
32
73
28
40
0
40
0
40
0
40
0
40
0.124999999999989
40
0.124999999999989
40
0.249999999999978
40
0.249999999999978
40
0.281249999999978
40
0.281249999999978
40
0.312499999999978
40
0.312499999999978
40
0.374999999999975
40
0.374999999999975
40
0.499999999999969
40
0.499999999999969
40
0.562499999999968
40
0.562499999999968
40
0.593749999999969
40
0.593749999999969
40
0.624999999999971
40
0.624999999999971
40
0.749999999999979
40
0.749999999999979
40
0.874999999999988
40
0.874999999999988
40
0.937499999999994
40
0.937499999999994
40
1
40
1
40
1
40
1
41
1
10
19.525
20
12.1692581906231
30
0
41
1
10
19.5622257722493
20
12.1099372048311
30
0
41
1
10
19.5945540477172
20
12.0514555137903
30
0
41
1
10
19.6502751353693
20
11.9332132340507
30
0
41
1
10
19.6736593922955
20
11.8734925654131
30
0
41
1
10
19.6973388066952
20
11.7965822670498
30
0
41
1
10
19.7017954531887
20
11.7810872439873
30
0
41
1
10
19.7101445492717
20
11.7498328466777
30
0
41
1
10
19.7140405161274
20
11.7340537908139
30
0
41
1
10
19.7248000309275
20
11.6865918658699
30
0
41
1
10
19.7307633876759
20
11.6546927954511
30
0
41
1
10
19.7450941258959
20
11.5579345614434
30
0
41
1
10
19.7499173582746
20
11.4919739496653
30
0
41
1
10
19.7500397482501
20
11.3902680493042
30
0
41
1
10
19.7488912538172
20
11.3559148251436
30
0
41
1
10
19.7453483394831
20
11.3037312093318
30
0
41
1
10
19.7438637724502
20
11.2862284197144
30
0
41
1
10
19.7402785478741
20
11.2510184083222
30
0
41
1
10
19.7381740269326
20
11.2332915725756
30
0
41
1
10
19.7261954023969
20
11.1449220122847
30
0
41
1
10
19.7119380543277
20
11.0745080404172
30
0
41
1
10
19.6743437734414
20
10.935418858235
30
0
41
1
10
19.6510085472785
20
10.8667414663276
30
0
41
1
10
19.6088439545667
20
10.7661926607265
30
0
41
1
10
19.5936282036746
20
10.7331972902571
30
0
41
1
10
19.561007612055
20
10.668867196194
30
0
41
1
10
19.5435796738199
20
10.6374740754395
30
0
41
1
10
19.5250000000015
20
10.6070107729653
30
0
0
SPLINE
5
153
100
AcDbEntity
8
1
62
256
6
ByLayer
370
18
48
1
60
0
100
AcDbSpline
70
4
71
3
72
32
73
28
40
0
40
0
40
0
40
0
40
0.124999999999995
40
0.124999999999995
40
0.249999999999989
40
0.249999999999989
40
0.281249999999988
40
0.281249999999988
40
0.312499999999987
40
0.312499999999987
40
0.374999999999986
40
0.374999999999986
40
0.499999999999984
40
0.499999999999984
40
0.562499999999984
40
0.562499999999984
40
0.593749999999985
40
0.593749999999985
40
0.624999999999986
40
0.624999999999986
40
0.74999999999999
40
0.74999999999999
40
0.874999999999995
40
0.874999999999995
40
0.937499999999998
40
0.937499999999998
40
1
40
1
40
1
40
1
41
1
10
19.525
20
6.08256053862564
30
0
41
1
10
19.5622257722493
20
6.01803726892516
30
0
41
1
10
19.5945540477172
20
5.95317476273078
30
0
41
1
10
19.6502751353693
20
5.82118564014885
30
0
41
1
10
19.6736593922955
20
5.75408094333287
30
0
41
1
10
19.6973388066952
20
5.66793590870156
30
0
41
1
10
19.7017954531887
20
5.65059341250409
30
0
41
1
10
19.7101445492717
20
5.61565797589981
30
0
41
1
10
19.7140405161274
20
5.59804320052314
30
0
41
1
10
19.7248000309275
20
5.54515421423409
30
0
41
1
10
19.7307633876759
20
5.50973387650564
30
0
41
1
10
19.7450941258959
20
5.40284754480078
30
0
41
1
10
19.7499173582746
20
5.3307363800107
30
0
41
1
10
19.7500397482501
20
5.22099706146614
30
0
41
1
10
19.7488912538173
20
5.18415988704615
30
0
41
1
10
19.7453483394831
20
5.12852864429595
30
0
41
1
10
19.7438637724502
20
5.10992266719632
30
0
41
1
10
19.7402785478741
20
5.07259206626298
30
0
41
1
10
19.7381740269326
20
5.05384691556074
30
0
41
1
10
19.726195402397
20
4.96061673495407
30
0
41
1
10
19.7119380543277
20
4.8870252697844
30
0
41
1
10
19.6743437734414
20
4.74204407111463
30
0
41
1
10
19.6510085472785
20
4.67065349796411
30
0
41
1
10
19.6088439545667
20
4.56555587129904
30
0
41
1
10
19.5936282036746
20
4.53096716003836
30
0
41
1
10
19.561007612055
20
4.46315565048747
30
0
41
1
10
19.5435796738199
20
4.42987285139981
30
0
41
1
10
19.5250000000015
20
4.39727504184151
30
0
0
SPLINE
5
154
100
AcDbEntity
8
1
62
256
6
ByLayer
370
18
48
1
60
0
100
AcDbSpline
70
4
71
3
72
32
73
28
40
0
40
0
40
0
40
0
40
0.124999999999997
40
0.124999999999997
40
0.249999999999995
40
0.249999999999995
40
0.281249999999994
40
0.281249999999994
40
0.312499999999994
40
0.312499999999994
40
0.374999999999995
40
0.374999999999995
40
0.499999999999996
40
0.499999999999996
40
0.562499999999996
40
0.562499999999996
40
0.593749999999997
40
0.593749999999997
40
0.624999999999997
40
0.624999999999997
40
0.749999999999998
40
0.749999999999998
40
0.874999999999999
40
0.874999999999999
40
0.9375
40
0.9375
40
1
40
1
40
1
40
1
41
1
10
19.525
20
-4.39727504184234
30
0
41
1
10
19.5622257722493
20
-4.46258720212575
30
0
41
1
10
19.5945540477172
20
-4.53009002909835
30
0
41
1
10
19.6502751353693
20
-4.66867550134617
30
0
41
1
10
19.6736593922955
20
-4.73976768015046
30
0
41
1
10
19.6973388066952
20
-4.83063935569513
30
0
41
1
10
19.7017954531887
20
-4.84891472825549
30
0
41
1
10
19.7101445492718
20
-4.88566426077159
30
0
41
1
10
19.7140405161275
20
-4.90416115310475
30
0
41
1
10
19.7248000309276
20
-4.9595627272837
30
0
41
1
10
19.7307633876759
20
-4.99648396900861
30
0
41
1
10
19.7450941258959
20
-5.10710058564638
30
0
41
1
10
19.7499173582746
20
-5.18063336510286
30
0
41
1
10
19.7500397482501
20
-5.29040742678771
30
0
41
1
10
19.7488912538173
20
-5.32691494893035
30
0
41
1
10
19.7453483394831
20
-5.38156114250992
30
0
41
1
10
19.7438637724502
20
-5.39975762939505
30
0
41
1
10
19.7402785478741
20
-5.43611769128913
30
0
41
1
10
19.7381740269327
20
-5.45430085327988
30
0
41
1
10
19.726195402397
20
-5.54440853907869
30
0
41
1
10
19.7119380543277
20
-5.61447736777069
30
0
41
1
10
19.6743437734414
20
-5.75192831278736
30
0
41
1
10
19.6510085472786
20
-5.81930901699786
30
0
41
1
10
19.6088439545667
20
-5.91939349294725
30
0
41
1
10
19.5936282036746
20
-5.95248681896439
30
0
41
1
10
19.561007612055
20
-6.0179405353457
30
0
41
1
10
19.54357967382
20
-6.05035647052208
30
0
41
1
10
19.5250000000016
20
-6.08256053862587
30
0
0
SPLINE
5
155
100
AcDbEntity
8
1
62
256
6
ByLayer
370
18
48
1
60
0
100
AcDbSpline
70
4
71
3
72
32
73
28
40
0
40
0
40
0
40
0
40
0.124999999999991
40
0.124999999999991
40
0.249999999999981
40
0.249999999999981
40
0.281249999999982
40
0.281249999999982
40
0.312499999999982
40
0.312499999999982
40
0.374999999999986
40
0.374999999999986
40
0.499999999999997
40
0.499999999999997
40
0.562500000000001
40
0.562500000000001
40
0.59375
40
0.59375
40
0.625
40
0.625
40
0.749999999999999
40
0.749999999999999
40
0.874999999999998
40
0.874999999999998
40
0.937499999999999
40
0.937499999999999
40
1
40
1
40
1
40
1
41
1
10
19.525
20
-10.6070107729664
30
0
41
1
10
19.5622257722493
20
-10.6680462879571
30
0
41
1
10
19.5945540477172
20
-10.7322662995786
30
0
41
1
10
19.6502751353693
20
-10.864844704443
30
0
41
1
10
19.6736593922956
20
-10.9332315359756
30
0
41
1
10
19.6973388066952
20
-11.0204144425216
30
0
41
1
10
19.7017954531887
20
-11.0379369251551
30
0
41
1
10
19.7101445492718
20
-11.0731339736729
30
0
41
1
10
19.7140405161275
20
-11.0908301715477
30
0
41
1
10
19.7248000309276
20
-11.1437528097954
30
0
41
1
10
19.7307633876759
20
-11.1789138582145
30
0
41
1
10
19.7450941258959
20
-11.283779277902
30
0
41
1
10
19.7499173582746
20
-11.3528295448331
30
0
41
1
10
19.7500397482501
20
-11.4546109539273
30
0
41
1
10
19.7488912538173
20
-11.4882477308808
30
0
41
1
10
19.7453483394831
20
-11.5382904977565
30
0
41
1
10
19.7438637724502
20
-11.5549033250084
30
0
41
1
10
19.7402785478741
20
-11.5880040229454
30
0
41
1
10
19.7381740269327
20
-11.6045094649068
30
0
41
1
10
19.726195402397
20
-11.6860927754484
30
0
41
1
10
19.7119380543278
20
-11.7488508527877
30
0
41
1
10
19.6743437734414
20
-11.8715742168949
30
0
41
1
10
19.6510085472786
20
-11.9315367914002
30
0
41
1
10
19.6088439545667
20
-12.0211903049733
30
0
41
1
10
19.5936282036746
20
-12.0509356915809
30
0
41
1
10
19.561007612055
20
-12.1101414942389
30
0
41
1
10
19.54357967382
20
-12.1396506230695
30
0
41
1
10
19.5250000000016
20
-12.1692581906229
30
0
0
SPLINE
5
156
100
AcDbEntity
8
1
62
256
6
ByLayer
370
18
48
1
60
0
100
AcDbSpline
70
4
71
3
72
32
73
28
40
0
40
0
40
0
40
0
40
0.125000000000011
40
0.125000000000011
40
0.250000000000021
40
0.250000000000021
40
0.281250000000019
40
0.281250000000019
40
0.312500000000017
40
0.312500000000017
40
0.375000000000013
40
0.375000000000013
40
0.500000000000004
40
0.500000000000004
40
0.562499999999998
40
0.562499999999998
40
0.593749999999997
40
0.593749999999997
40
0.624999999999996
40
0.624999999999996
40
0.749999999999999
40
0.749999999999999
40
0.875000000000001
40
0.875000000000001
40
0.937500000000001
40
0.937500000000001
40
1
40
1
40
1
40
1
41
1
10
19.525
20
-16.2306014000909
30
0
41
1
10
19.5622257722493
20
-16.2839874375134
30
0
41
1
10
19.5945540477172
20
-16.3413758257175
30
0
41
1
10
19.6502751353693
20
-16.4606208594385
30
0
41
1
10
19.6736593922955
20
-16.5225232765014
30
0
41
1
10
19.6973388066952
20
-16.6011996727531
30
0
41
1
10
19.7017954531888
20
-16.6170009702799
30
0
41
1
10
19.7101445492718
20
-16.6487005402947
30
0
41
1
10
19.7140405161275
20
-16.6646181489992
30
0
41
1
10
19.7248000309276
20
-16.7121373379005
30
0
41
1
10
19.7307633876759
20
-16.7435951878805
30
0
41
1
10
19.7450941258959
20
-16.8369145308307
30
0
41
1
10
19.7499173582746
20
-16.8976665564927
30
0
41
1
10
19.7500397482501
20
-16.9858308561256
30
0
41
1
10
19.7488912538173
20
-17.0147381142403
30
0
41
1
10
19.7453483394831
20
-17.0574120831477
30
0
41
1
10
19.7438637724502
20
-17.0715232232874
30
0
41
1
10
19.7402785478741
20
-17.0995354074297
30
0
41
1
10
19.7381740269327
20
-17.1134510360111
30
0
41
1
10
19.726195402397
20
-17.1820016645665
30
0
41
1
10
19.7119380543278
20
-17.2339809692081
30
0
41
1
10
19.6743437734414
20
-17.335195039767
30
0
41
1
10
19.6510085472786
20
-17.3844259431538
30
0
41
1
10
19.6088439545667
20
-17.4586942269172
30
0
41
1
10
19.5936282036747
20
-17.4834479393156
30
0
41
1
10
19.561007612055
20
-17.5331341061696
30
0
41
1
10
19.54357967382
20
-17.5581057494972
30
0
41
1
10
19.5250000000016
20
-17.5834806976038
30
0
0
SPLINE
5
157
100
AcDbEntity
8
1
62
256
6
ByLayer
370
18
48
1
60
0
100
AcDbSpline
70
4
71
3
72
28
73
24
40
0
40
0
40
0
40
0
40
0.0748212973668103
40
0.0748212973668103
40
0.190468635195959
40
0.190468635195959
40
0.306115973025107
40
0.306115973025107
40
0.421763310854255
40
0.421763310854255
40
0.537410648683403
40
0.537410648683403
40
0.653057986512552
40
0.653057986512552
40
0.768705324341703
40
0.768705324341703
40
0.826528993256277
40
0.826528993256277
40
0.884352662170852
40
0.884352662170852
40
0.942176331085426
40
0.942176331085426
40
1
40
1
40
1
40
1
41
1
10
19.8677200000063
20
-26.4
30
0
41
1
10
19.864233751725
20
-26.4
30
0
41
1
10
19.8605607994646
20
-26.4
30
0
41
1
10
19.8507055228471
20
-26.4
30
0
41
1
10
19.8442344836365
20
-26.4
30
0
41
1
10
19.8302256509178
20
-26.4
30
0
41
1
10
19.822703201059
20
-26.4
30
0
41
1
10
19.8064372623682
20
-26.4
30
0
41
1
10
19.7976959923051
20
-26.4
30
0
41
1
10
19.7787004633519
20
-26.4
30
0
41
1
10
19.7684515593262
20
-26.4
30
0
41
1
10
19.7459364641738
20
-26.4
30
0
41
1
10
19.7336864060722
20
-26.4
30
0
41
1
10
19.7061726787183
20
-26.4
30
0
41
1
10
19.6909725350734
20
-26.4
30
0
41
1
10
19.6640406321409
20
-26.4
30
0
41
1
10
19.6545107395918
20
-26.4
30
0
41
1
10
19.6338830913967
20
-26.4
30
0
41
1
10
19.6228019250377
20
-26.4
30
0
41
1
10
19.598147986261
20
-26.4
30
0
41
1
10
19.5849441081097
20
-26.4
30
0
41
1
10
19.5558575509739
20
-26.4
30
0
41
1
10
19.5407541033155
20
-26.4
30
0
41
1
10
19.525
20
-26.4
30
0
0
SPLINE
5
158
100
AcDbEntity
8
1
62
256
6
ByLayer
370
18
48
1
60
0
100
AcDbSpline
70
4
71
3
72
8
73
4
40
0
40
0
40
0
40
0
40
1
40
1
40
1
40
1
41
1
10
21.3746123234134
20
-30.1503829784963
30
0
41
1
10
20.8899595856872
20
-29.2741992018061
30
0
41
1
10
20.4066228497215
20
-28.3972829993793
30
0
41
1
10
19.925
20
-27.5194446025754
30
0
0
SPLINE
5
159
100
AcDbEntity
8
1
62
256
6
ByLayer
370
18
48
1
60
0
100
AcDbSpline
70
4
71
3
72
12
73
8
40
0
40
0
40
0
40
0
40
0.499999999999999
40
0.499999999999999
40
0.75
40
0.75
40
1
40
1
40
1
40
1
41
1
10
21.3746123234133
20
19.85
30
0
41
1
10
21.1269480166304
20
19.85
30
0
41
1
10
20.8820296891945
20
19.85
30
0
41
1
10
20.5193871561882
20
19.85
30
0
41
1
10
20.3992965345052
20
19.85
30
0
41
1
10
20.1608123241297
20
19.85
30
0
41
1
10
20.0424022933999
20
19.85
30
0
41
1
10
19.925
20
19.85
30
0
0
SPLINE
5
15A
100
AcDbEntity
8
1
62
256
6
ByLayer
370
18
48
1
60
0
100
AcDbSpline
70
4
71
3
72
8
73
4
40
0
40
0
40
0
40
0
40
1
40
1
40
1
40
1
41
1
10
25.95
20
-29.6281216709733
30
0
41
1
10
25.7833972320879
20
-29.8022699946348
30
0
41
1
10
25.6167293283391
20
-29.9763562682361
30
0
41
1
10
25.45
20
-30.1503829784963
30
0
0
SPLINE
5
15B
100
AcDbEntity
8
1
62
256
6
ByLayer
370
18
48
1
60
0
100
AcDbSpline
70
4
71
3
72
8
73
4
40
0
40
0
40
0
40
0
40
1
40
1
40
1
40
1
41
1
10
25.95
20
19.85
30
0
41
1
10
25.7839428389179
20
19.85
30
0
41
1
10
25.6172335326703
20
19.85
30
0
41
1
10
25.45
20
19.85
30
0
0
SPLINE
5
15C
100
AcDbEntity
8
1
62
256
6
ByLayer
370
18
48
1
60
0
100
AcDbSpline
70
4
71
3
72
8
73
4
40
0
40
0
40
0
40
0
40
1
40
1
40
1
40
1
41
1
10
16.075
20
-27.5194446025754
30
0
41
1
10
15.5933771502786
20
-28.3972829993794
30
0
41
1
10
15.1100404143129
20
-29.2741992018061
30
0
41
1
10
14.6253876765867
20
-30.1503829784963
30
0
0
SPLINE
5
15D
100
AcDbEntity
8
1
62
256
6
ByLayer
370
18
48
1
60
0
100
AcDbSpline
70
4
71
3
72
12
73
8
40
0
40
0
40
0
40
0
40
0.25
40
0.25
40
0.5
40
0.5
40
1
40
1
40
1
40
1
41
1
10
16.075
20
19.85
30
0
41
1
10
15.9575543463047
20
19.85
30
0
41
1
10
15.8391567902152
20
19.85
30
0
41
1
10
15.6006785184763
20
19.85
30
0
41
1
10
15.4805909149784
20
19.85
30
0
41
1
10
15.1179575685047
20
19.85
30
0
41
1
10
14.8730455409432
20
19.85
30
0
41
1
10
14.6253876765866
20
19.85
30
0
0
SPLINE
5
15E
100
AcDbEntity
8
1
62
256
6
ByLayer
370
18
48
1
60
0
100
AcDbSpline
70
4
71
3
72
53
73
49
40
0
40
0
40
0
40
0
40
0.0624999999999989
40
0.0624999999999989
40
0.124999999999998
40
0.124999999999998
40
0.187499999999997
40
0.187499999999997
40
0.203124999999996
40
0.203124999999996
40
0.218749999999996
40
0.218749999999996
40
0.249999999999996
40
0.249999999999996
40
0.312499999999996
40
0.312499999999996
40
0.374999999999995
40
0.374999999999995
40
0.406249999999995
40
0.406249999999995
40
0.421874999999995
40
0.421874999999995
40
0.437499999999995
40
0.437499999999995
40
0.499999999999996
40
0.499999999999996
40
0.562499999999997
40
0.562499999999997
40
0.624999999999997
40
0.624999999999997
40
0.640624999999997
40
0.640624999999997
40
0.656249999999997
40
0.687499999999998
40
0.687499999999998
40
0.749999999999998
40
0.749999999999998
40
0.812499999999998
40
0.812499999999998
40
0.843749999999998
40
0.843749999999998
40
0.859374999999998
40
0.859374999999998
40
0.874999999999999
40
0.874999999999999
40
0.937499999999999
40
0.937499999999999
40
1
40
1
40
1
40
1
41
1
10
12.95
20
-30.1503829784963
30
0
41
1
10
12.6841313593866
20
-30.1503829784963
30
0
41
1
10
12.420647498405
20
-30.1543453879131
30
0
41
1
10
11.8982638705436
20
-30.1697869707438
30
0
41
1
10
11.6393646026072
20
-30.1812667142531
30
0
41
1
10
11.1260959657866
20
-30.2113619657957
30
0
41
1
10
10.8717264718108
20
-30.2299778939183
30
0
41
1
10
10.5566391253125
20
-30.2574763990119
30
0
41
1
10
10.4937656966584
20
-30.2631875405795
30
0
41
1
10
10.3683093033381
20
-30.2750269307959
30
0
41
1
10
10.305721937442
20
-30.2811564366936
30
0
41
1
10
10.1194618268705
20
-30.3000493570683
30
0
41
1
10
9.99692951457199
20
-30.3133501209502
30
0
41
1
10
9.63413312205712
20
-30.3551895350746
30
0
41
1
10
9.39865793344255
20
-30.3856634558139
30
0
41
1
10
8.94013129968302
20
-30.4508771444522
30
0
41
1
10
8.71708027746824
20
-30.4856182415107
30
0
41
1
10
8.3918343568463
20
-30.5402922027968
30
0
41
1
10
8.28497698908886
20
-30.5589441303185
30
0
41
1
10
8.12705594765474
20
-30.5874838229592
30
0
41
1
10
8.07474052483529
20
-30.5971038147968
30
0
41
1
10
7.97132476718416
20
-30.616438827492
30
0
41
1
10
7.92022166488199
20
-30.6261537581164
30
0
41
1
10
7.66769106088232
20
-30.674925228277
30
0
41
1
10
7.47519443651628
20
-30.7145691260908
30
0
41
1
10
7.10865483934175
20
-30.7941358726583
30
0
41
1
10
6.93461315369417
20
-30.8340604486317
30
0
41
1
10
6.60496316861746
20
-30.913266496599
30
0
41
1
10
6.44935329682478
20
-30.9525496389802
30
0
41
1
10
6.2667101868977
20
-31.0006744484451
30
0
41
1
10
6.23077961689894
20
-31.0102499429787
30
0
41
1
10
6.16050409576219
20
-31.0291838688348
30
0
41
1
10
6.05731623933842
20
-31.0572994179036
30
0
41
1
10
5.96073307416354
20
-31.0845086951601
30
0
41
1
10
5.77624844381894
20
-31.1375890198019
30
0
41
1
10
5.66481288123556
20
-31.1711913504447
30
0
41
1
10
5.46492163805176
20
-31.2341535567076
30
0
41
1
10
5.37646500709751
20
-31.2635146855691
30
0
41
1
10
5.2614428726847
20
-31.3038663020077
30
0
41
1
10
5.22605148530563
20
-31.3167016610253
30
0
41
1
10
5.17749558495801
20
-31.3349653649219
30
0
41
1
10
5.16207042207303
20
-31.340887023016
30
0
41
1
10
5.13289039673249
20
-31.3523337498622
30
0
41
1
10
5.11911462028148
20
-31.3578665960225
30
0
41
1
10
5.05428379043077
20
-31.3845694043971
30
0
41
1
10
5.01534301301415
20
-31.4028553327579
30
0
41
1
10
4.96320171145767
20
-31.433046335086
30
0
41
1
10
4.95000000000003
20
-31.4449518407133
30
0
41
1
10
4.95000000000003
20
-31.4535466005028
30
0
0
SPLINE
5
15F
100
AcDbEntity
8
1
62
256
6
ByLayer
370
18
48
1
60
0
100
AcDbSpline
70
4
71
3
72
45
73
41
40
0
40
0
40
0
40
0
40
0.0624999999999973
40
0.0624999999999973
40
0.124999999999995
40
0.124999999999995
40
0.187499999999992
40
0.187499999999992
40
0.203124999999991
40
0.203124999999991
40
0.218749999999991
40
0.218749999999991
40
0.249999999999989
40
0.249999999999989
40
0.312499999999988
40
0.312499999999988
40
0.374999999999986
40
0.374999999999986
40
0.406249999999985
40
0.421874999999985
40
0.421874999999985
40
0.437499999999985
40
0.437499999999985
40
0.499999999999986
40
0.499999999999986
40
0.562499999999987
40
0.562499999999987
40
0.624999999999989
40
0.624999999999989
40
0.640624999999989
40
0.640624999999989
40
0.65624999999999
40
0.65624999999999
40
0.687499999999992
40
0.687499999999992
40
0.749999999999994
40
0.749999999999994
40
0.874999999999997
40
0.874999999999997
40
1
40
1
40
1
40
1
41
1
10
12.1956203456892
20
24.4200409500066
30
0
41
1
10
11.9759339284872
20
24.4200409500066
30
0
41
1
10
11.7583248060651
20
24.4127074179386
30
0
41
1
10
11.3270848993938
20
24.3839386530956
30
0
41
1
10
11.1134547056098
20
24.3625011198197
30
0
41
1
10
10.6901035240453
20
24.3056038437389
30
0
41
1
10
10.4803827549287
20
24.2701435456968
30
0
41
1
10
10.220690132804
20
24.2168315972934
30
0
41
1
10
10.1688747482695
20
24.2057188174181
30
0
41
1
10
10.0654915217627
20
24.1825826465595
30
0
41
1
10
10.0138582555167
20
24.1705425488761
30
0
41
1
10
9.86011701382465
20
24.1332343953866
30
0
41
1
10
9.75899909269462
20
24.1067468964487
30
0
41
1
10
9.45963651748905
20
24.0225304764548
30
0
41
1
10
9.26537564622198
20
23.9600575830852
30
0
41
1
10
8.88695628215878
20
23.8226742810017
30
0
41
1
10
8.70279973502871
20
23.7477618111635
30
0
41
1
10
8.43391201880759
20
23.6260043199279
30
0
41
1
10
8.30130718635603
20
23.5627752021059
30
0
41
1
10
8.17143577115014
20
23.49598276546
30
0
41
1
10
8.08546060652209
20
23.450656686642
30
0
41
1
10
8.0428895725908
20
23.4276543776726
30
0
41
1
10
7.83231360064805
20
23.311091922816
30
0
41
1
10
7.67087988193622
20
23.212752963373
30
0
41
1
10
7.36101732450725
20
23.006176053876
30
0
41
1
10
7.21259155009498
20
22.8979363634043
30
0
41
1
10
6.92796256802127
20
22.6716713696083
30
0
41
1
10
6.79176136423068
20
22.5536449583075
30
0
41
1
10
6.62877486055861
20
22.3999925415235
30
0
41
1
10
6.59654118645172
20
22.3689558373227
30
0
41
1
10
6.53279309131621
20
22.3062689833205
30
0
41
1
10
6.5013131816694
20
22.2746516436256
30
0
41
1
10
6.40827388836509
20
22.179234275698
30
0
41
1
10
6.34801389290463
20
22.1147708752695
30
0
41
1
10
6.17226321560695
20
21.9188742079099
30
0
41
1
10
6.06179410768455
20
21.7849365427041
30
0
41
1
10
5.74865705723415
20
21.3734069993164
30
0
41
1
10
5.56418709064177
20
21.0861176330193
30
0
41
1
10
5.23652490731588
20
20.4866364512197
30
0
41
1
10
5.09337039057023
20
20.1744346090999
30
0
41
1
10
4.96821549226028
20
19.85
30
0
0
SPLINE
5
160
100
AcDbEntity
8
1
62
256
6
ByLayer
370
18
48
1
60
0
100
AcDbSpline
70
4
71
3
72
53
73
49
40
0
40
0
40
0
40
0
40
0.062499999999999
40
0.062499999999999
40
0.124999999999998
40
0.124999999999998
40
0.187499999999997
40
0.187499999999997
40
0.203124999999997
40
0.203124999999997
40
0.218749999999996
40
0.218749999999996
40
0.249999999999996
40
0.249999999999996
40
0.312499999999995
40
0.312499999999995
40
0.374999999999995
40
0.374999999999995
40
0.406249999999995
40
0.406249999999995
40
0.421874999999994
40
0.421874999999994
40
0.437499999999994
40
0.437499999999994
40
0.499999999999995
40
0.499999999999995
40
0.562499999999995
40
0.562499999999995
40
0.624999999999996
40
0.624999999999996
40
0.640624999999996
40
0.640624999999996
40
0.656249999999996
40
0.687499999999996
40
0.687499999999996
40
0.749999999999997
40
0.749999999999997
40
0.812499999999998
40
0.812499999999998
40
0.843749999999998
40
0.843749999999998
40
0.859374999999998
40
0.859374999999998
40
0.874999999999998
40
0.874999999999998
40
0.937499999999999
40
0.937499999999999
40
1
40
1
40
1
40
1
41
1
10
4.94999999999997
20
31.4699951342545
30
0
41
1
10
4.94999999999997
20
31.469847608931
30
0
41
1
10
4.96316148456388
20
31.4663482437805
30
0
41
1
10
5.014833262539
20
31.4529824401189
30
0
41
1
10
5.0533463225985
20
31.443115398359
30
0
41
1
10
5.1555217483817
20
31.4173251944318
30
0
41
1
10
5.21918321366853
20
31.4014014637225
30
0
41
1
10
5.31481265858467
20
31.3779016832463
30
0
41
1
10
5.33474305466233
20
31.373021977824
30
0
41
1
10
5.37622898172658
20
31.3629078986405
30
0
41
1
10
5.39780590833239
20
31.3576684102907
30
0
41
1
10
5.46462463571699
20
31.3415165236844
30
0
41
1
10
5.51204881427505
20
31.3301472965835
30
0
41
1
10
5.66277602046246
20
31.2943892951813
30
0
41
1
10
5.77451273201858
20
31.2683509878206
30
0
41
1
10
6.02006473104039
20
31.2126594055855
30
0
41
1
10
6.15388041729032
20
31.1830046977939
30
0
41
1
10
6.37134836873922
20
31.1363910865799
30
0
41
1
10
6.44663359836225
20
31.1204980223429
30
0
41
1
10
6.56382727681553
20
31.0962003530904
30
0
41
1
10
6.60363097354941
20
31.0880191489026
30
0
41
1
10
6.68455656030856
20
31.071541452173
30
0
41
1
10
6.72557231063077
20
31.0632664878015
30
0
41
1
10
6.93338647885226
20
31.0217492547395
30
0
41
1
10
7.10836961999719
20
30.9880811451731
30
0
41
1
10
7.47540396108049
20
30.9207839071198
30
0
41
1
10
7.66745608423186
20
30.8871531261034
30
0
41
1
10
8.068761634648
20
30.8208678222671
30
0
41
1
10
8.27801337795113
20
30.7882116103006
30
0
41
1
10
8.55074524405741
20
30.7486137736258
30
0
41
1
10
8.60592716662772
20
30.7407450951663
30
0
41
1
10
8.71690520462975
20
30.72521871645
30
0
41
1
10
8.88436668666479
20
30.7022336947395
30
0
41
1
10
9.05478427646675
20
30.6802165246349
30
0
41
1
10
9.39951696413301
20
30.6376146650815
30
0
41
1
10
9.634526230725
20
30.6111232682603
30
0
41
1
10
10.1149153789438
20
30.5627093850563
30
0
41
1
10
10.3602948471896
20
30.5407858131469
30
0
41
1
10
10.736364153485
20
30.5119001269116
30
0
41
1
10
10.8630563144907
20
30.5029384070805
30
0
41
1
10
11.0551489977476
20
30.4905711455268
30
0
41
1
10
11.1195899808493
20
30.4866243994951
30
0
41
1
10
11.2485709831097
20
30.4791355756795
30
0
41
1
10
11.3131637273305
20
30.4755896793322
30
0
41
1
10
11.6366359254661
20
30.4588636800731
30
0
41
1
10
11.8970373100373
20
30.4486945546454
30
0
41
1
10
12.4210740916657
20
30.4350490385152
30
0
41
1
10
12.6847093748942
20
30.4315723180713
30
0
41
1
10
12.95
20
30.4315723180713
30
0
0
SPLINE
5
161
100
AcDbEntity
8
SK2
62
256
6
ByLayer
370
18
48
1
60
0
100
AcDbSpline
70
4
71
3
72
28
73
24
40
0
40
0
40
0
40
0
40
0.124999999999997
40
0.124999999999997
40
0.249999999999993
40
0.249999999999993
40
0.37499999999999
40
0.37499999999999
40
0.437499999999988
40
0.437499999999988
40
0.468749999999983
40
0.468749999999983
40
0.499999999999978
40
0.499999999999978
40
0.624999999999982
40
0.624999999999982
40
0.749999999999985
40
0.749999999999985
40
0.812499999999991
40
0.812499999999991
40
0.874999999999996
40
0.874999999999996
40
1
40
1
40
1
40
1
41
1
10
42.8
20
2.30940107675855
30
0
41
1
10
42.7218681189417
20
2.26429161419722
30
0
41
1
10
42.6428416541415
20
2.21866566347171
30
0
41
1
10
42.4825052353831
20
2.12609538894071
30
0
41
1
10
42.4011948879935
20
2.07915083798741
30
0
41
1
10
42.2356898882793
20
1.98359648185021
30
0
41
1
10
42.1514932773292
20
1.93498554585327
30
0
41
1
10
42.0225281163509
20
1.86052747544639
30
0
41
1
10
41.9790942847537
20
1.83545094108183
30
0
41
1
10
41.9132123018866
20
1.79741396053873
30
0
41
1
10
41.8912109770599
20
1.78471148972753
30
0
41
1
10
41.8473776977257
20
1.75940433410443
30
0
41
1
10
41.8255074231271
20
1.74677752517766
30
0
41
1
10
41.7163855084447
20
1.68377595836128
30
0
41
1
10
41.629825429193
20
1.63380047330426
30
0
41
1
10
41.4580646539255
20
1.53463434346733
30
0
41
1
10
41.3728626022931
20
1.48544291602187
30
0
41
1
10
41.2459458941837
20
1.4121675204303
30
0
41
1
10
41.2040484918054
20
1.38797804388884
30
0
41
1
10
41.1211927876452
20
1.34014128078803
30
0
41
1
10
41.0801952964767
20
1.31647136822579
30
0
41
1
10
40.9583330221051
20
1.24611415131329
30
0
41
1
10
40.878592464323
20
1.20007591881247
30
0
41
1
10
40.7999999999999
20
1.15470053837925
30
0
0
SPLINE
5
162
100
AcDbEntity
8
SK2
62
256
6
ByLayer
370
18
48
1
60
0
100
AcDbSpline
70
4
71
3
72
28
73
24
40
0
40
0
40
0
40
0
40
0.125
40
0.125
40
0.249999999999999
40
0.249999999999999
40
0.374999999999999
40
0.374999999999999
40
0.437499999999999
40
0.437499999999999
40
0.468749999999995
40
0.468749999999995
40
0.499999999999991
40
0.499999999999991
40
0.624999999999991
40
0.624999999999991
40
0.74999999999999
40
0.74999999999999
40
0.81249999999999
40
0.81249999999999
40
0.874999999999991
40
0.874999999999991
40
1
40
1
40
1
40
1
41
1
10
44.8
20
1.1547005383793
30
0
41
1
10
44.7218681189417
20
1.1998100009406
30
0
41
1
10
44.6428416541414
20
1.24543595166614
30
0
41
1
10
44.4825052353831
20
1.33800622619714
30
0
41
1
10
44.4011948879935
20
1.38495077715044
30
0
41
1
10
44.2356898882793
20
1.48050513328766
30
0
41
1
10
44.1514932773292
20
1.52911606928458
30
0
41
1
10
44.0225281163509
20
1.60357413969146
30
0
41
1
10
43.9790942847537
20
1.62865067405605
30
0
41
1
10
43.9132123018866
20
1.66668765459912
30
0
41
1
10
43.8912109770599
20
1.67939012541032
30
0
41
1
10
43.8473776977257
20
1.70469728103345
30
0
41
1
10
43.8255074231271
20
1.71732408996019
30
0
41
1
10
43.7163855084447
20
1.78032565677657
30
0
41
1
10
43.629825429193
20
1.83030114183362
30
0
41
1
10
43.4580646539255
20
1.92946727167052
30
0
41
1
10
43.372862602293
20
1.97865869911601
30
0
41
1
10
43.2459458941837
20
2.05193409470758
30
0
41
1
10
43.2040484918054
20
2.07612357124904
30
0
41
1
10
43.1211927876452
20
2.12396033434985
30
0
41
1
10
43.0801952964767
20
2.14763024691209
30
0
41
1
10
42.9583330221051
20
2.21798746382458
30
0
41
1
10
42.878592464323
20
2.26402569632541
30
0
41
1
10
42.7999999999999
20
2.30940107675863
30
0
0
SPLINE
5
163
100
AcDbEntity
8
SK2
62
256
6
ByLayer
370
18
48
1
60
0
100
AcDbSpline
70
4
71
3
72
29
73
25
40
0
40
0
40
0
40
0
40
0.125
40
0.125
40
0.1875
40
0.1875
40
0.25
40
0.25
40
0.375
40
0.375
40
0.5
40
0.5
40
0.53125
40
0.53125
40
0.5625
40
0.625
40
0.625
40
0.75
40
0.75
40
0.875
40
0.875
40
0.9375
40
0.9375
40
1
40
1
40
1
40
1
41
1
10
44.8
20
-1.15470053837922
30
0
41
1
10
44.8
20
-1.0653543145155
30
0
41
1
10
44.8
20
-0.974289225578701
30
0
41
1
10
44.8
20
-0.834210512999107
30
0
41
1
10
44.8
20
-0.786901486996982
30
0
41
1
10
44.8
20
-0.691057233789934
30
0
41
1
10
44.8
20
-0.642911391850816
30
0
41
1
10
44.8
20
-0.497736380081165
30
0
41
1
10
44.8
20
-0.399968273887083
30
0
41
1
10
44.8
20
-0.202122404997652
30
0
41
1
10
44.8
20
-0.102042081750284
30
0
41
1
10
44.8
20
0.0246683744168479
30
0
41
1
10
44.8
20
0.0501504434033961
30
0
41
1
10
44.8
20
0.100964746878617
30
0
41
1
10
44.8
20
0.17686164686836
30
0
41
1
10
44.8
20
0.251814644587625
30
0
41
1
10
44.8
20
0.400551475236398
30
0
41
1
10
44.8
20
0.498150266098605
30
0
41
1
10
44.8
20
0.690747280721638
30
0
41
1
10
44.8
20
0.785747806773827
30
0
41
1
10
44.8
20
0.926675207562198
30
0
41
1
10
44.8
20
0.973099050351209
30
0
41
1
10
44.8
20
1.06470850905384
30
0
41
1
10
44.8
20
1.10994693870026
30
0
41
1
10
44.8
20
1.15470053837942
30
0
0
SPLINE
5
164
100
AcDbEntity
8
SK2
62
256
6
ByLayer
370
18
48
1
60
0
100
AcDbSpline
70
4
71
3
72
28
73
24
40
0
40
0
40
0
40
0
40
0.124999999999997
40
0.124999999999997
40
0.249999999999994
40
0.249999999999994
40
0.37499999999999
40
0.37499999999999
40
0.437499999999989
40
0.437499999999989
40
0.468749999999992
40
0.468749999999992
40
0.499999999999995
40
0.499999999999995
40
0.624999999999991
40
0.624999999999991
40
0.749999999999987
40
0.749999999999987
40
0.812499999999988
40
0.812499999999988
40
0.874999999999989
40
0.874999999999989
40
1
40
1
40
1
40
1
41
1
10
42.8
20
-2.30940107675843
30
0
41
1
10
42.8781318810584
20
-2.26429161419713
30
0
41
1
10
42.9571583458586
20
-2.2186656634716
30
0
41
1
10
43.1174947646169
20
-2.1260953889406
30
0
41
1
10
43.1988051120065
20
-2.0791508379873
30
0
41
1
10
43.3643101117207
20
-1.9835964818501
30
0
41
1
10
43.4485067226708
20
-1.93498554585315
30
0
41
1
10
43.5774718836491
20
-1.86052747544628
30
0
41
1
10
43.6209057152463
20
-1.83545094108172
30
0
41
1
10
43.6867876981134
20
-1.79741396053862
30
0
41
1
10
43.7087890229401
20
-1.78471148972741
30
0
41
1
10
43.7526223022744
20
-1.75940433410432
30
0
41
1
10
43.7744925768729
20
-1.74677752517755
30
0
41
1
10
43.8836144915554
20
-1.68377595836117
30
0
41
1
10
43.9701745708071
20
-1.63380047330415
30
0
41
1
10
44.1419353460746
20
-1.53463434346722
30
0
41
1
10
44.227137397707
20
-1.48544291602175
30
0
41
1
10
44.3540541058163
20
-1.41216752043019
30
0
41
1
10
44.3959515081946
20
-1.38797804388872
30
0
41
1
10
44.4788072123548
20
-1.34014128078792
30
0
41
1
10
44.5198047035233
20
-1.31647136822568
30
0
41
1
10
44.6416669778949
20
-1.24611415131318
30
0
41
1
10
44.7214075356771
20
-1.20007591881236
30
0
41
1
10
44.8000000000001
20
-1.15470053837913
30
0
0
SPLINE
5
165
100
AcDbEntity
8
SK2
62
256
6
ByLayer
370
18
48
1
60
0
100
AcDbSpline
70
4
71
3
72
28
73
24
40
0
40
0
40
0
40
0
40
0.124999999999999
40
0.124999999999999
40
0.249999999999998
40
0.249999999999998
40
0.374999999999997
40
0.374999999999997
40
0.437499999999996
40
0.437499999999996
40
0.468749999999999
40
0.468749999999999
40
0.500000000000002
40
0.500000000000002
40
0.625
40
0.625
40
0.749999999999997
40
0.749999999999997
40
0.8125
40
0.8125
40
0.875000000000003
40
0.875000000000003
40
1
40
1
40
1
40
1
41
1
10
40.8
20
-1.15470053837919
30
0
41
1
10
40.8781318810584
20
-1.19981000094052
30
0
41
1
10
40.9571583458586
20
-1.24543595166602
30
0
41
1
10
41.1174947646169
20
-1.33800622619702
30
0
41
1
10
41.1988051120065
20
-1.38495077715032
30
0
41
1
10
41.3643101117207
20
-1.48050513328755
30
0
41
1
10
41.4485067226709
20
-1.52911606928447
30
0
41
1
10
41.5774718836491
20
-1.60357413969137
30
0
41
1
10
41.6209057152463
20
-1.62865067405593
30
0
41
1
10
41.6867876981134
20
-1.666687654599
30
0
41
1
10
41.7087890229401
20
-1.67939012541021
30
0
41
1
10
41.7526223022744
20
-1.70469728103333
30
0
41
1
10
41.774492576873
20
-1.71732408996007
30
0
41
1
10
41.8836144915554
20
-1.78032565677648
30
0
41
1
10
41.9701745708071
20
-1.8303011418335
30
0
41
1
10
42.1419353460746
20
-1.92946727167043
30
0
41
1
10
42.227137397707
20
-1.9786586991159
30
0
41
1
10
42.3540541058163
20
-2.05193409470746
30
0
41
1
10
42.3959515081946
20
-2.07612357124893
30
0
41
1
10
42.4788072123548
20
-2.12396033434973
30
0
41
1
10
42.5198047035233
20
-2.14763024691197
30
0
41
1
10
42.6416669778949
20
-2.21798746382447
30
0
41
1
10
42.7214075356771
20
-2.26402569632529
30
0
41
1
10
42.8000000000001
20
-2.30940107675852
30
0
0
SPLINE
5
166
100
AcDbEntity
8
SK2
62
256
6
ByLayer
370
18
48
1
60
0
100
AcDbSpline
70
4
71
3
72
29
73
25
40
0
40
0
40
0
40
0
40
0.0624999999999992
40
0.0624999999999992
40
0.124999999999999
40
0.124999999999999
40
0.249999999999999
40
0.249999999999999
40
0.374999999999999
40
0.374999999999999
40
0.437499999999999
40
0.468749999999999
40
0.468749999999999
40
0.499999999999999
40
0.499999999999999
40
0.624999999999999
40
0.624999999999999
40
0.75
40
0.75
40
0.8125
40
0.8125
40
0.875
40
0.875
40
1
40
1
40
1
40
1
41
1
10
40.8
20
1.15470053837944
30
0
41
1
10
40.8
20
1.10994693870029
30
0
41
1
10
40.8
20
1.06470850905387
30
0
41
1
10
40.8
20
0.973099050351237
30
0
41
1
10
40.8
20
0.926675207562226
30
0
41
1
10
40.8
20
0.785747806773855
30
0
41
1
10
40.8
20
0.690747280721666
30
0
41
1
10
40.8
20
0.498150266098634
30
0
41
1
10
40.8
20
0.400551475236426
30
0
41
1
10
40.8
20
0.251814644587654
30
0
41
1
10
40.8
20
0.176861646868389
30
0
41
1
10
40.8
20
0.100964746878645
30
0
41
1
10
40.8
20
0.050150443403453
30
0
41
1
10
40.8
20
0.0246683744168763
30
0
41
1
10
40.8
20
-0.102042081750227
30
0
41
1
10
40.8
20
-0.202122404997624
30
0
41
1
10
40.8
20
-0.399968273887055
30
0
41
1
10
40.8
20
-0.497736380081108
30
0
41
1
10
40.8
20
-0.642911391850788
30
0
41
1
10
40.8
20
-0.691057233789905
30
0
41
1
10
40.8
20
-0.786901486996953
30
0
41
1
10
40.8
20
-0.834210512999078
30
0
41
1
10
40.8
20
-0.974289225578673
30
0
41
1
10
40.8
20
-1.06535431451547
30
0
41
1
10
40.8
20
-1.15470053837919
30
0
0
SPLINE
5
167
100
AcDbEntity
8
SK2
62
256
6
ByLayer
370
18
48
1
60
0
100
AcDbSpline
70
4
71
3
72
28
73
24
40
0
40
0
40
0
40
0
40
0.124999999999991
40
0.124999999999991
40
0.249999999999982
40
0.249999999999982
40
0.374999999999973
40
0.374999999999973
40
0.437499999999968
40
0.437499999999968
40
0.468749999999973
40
0.468749999999973
40
0.499999999999978
40
0.499999999999978
40
0.624999999999983
40
0.624999999999983
40
0.749999999999988
40
0.749999999999988
40
0.812499999999991
40
0.812499999999991
40
0.874999999999994
40
0.874999999999994
40
1
40
1
40
1
40
1
41
1
10
65.2
20
2.30940107675858
30
0
41
1
10
65.1218681189417
20
2.26429161419728
30
0
41
1
10
65.0428416541415
20
2.21866566347174
30
0
41
1
10
64.8825052353832
20
2.12609538894074
30
0
41
1
10
64.8011948879936
20
2.07915083798744
30
0
41
1
10
64.6356898882793
20
1.98359648185024
30
0
41
1
10
64.5514932773292
20
1.93498554585329
30
0
41
1
10
64.4225281163509
20
1.86052747544642
30
0
41
1
10
64.3790942847538
20
1.83545094108186
30
0
41
1
10
64.3132123018867
20
1.79741396053876
30
0
41
1
10
64.29121097706
20
1.78471148972756
30
0
41
1
10
64.2473776977257
20
1.75940433410443
30
0
41
1
10
64.2255074231271
20
1.74677752517769
30
0
41
1
10
64.1163855084447
20
1.68377595836131
30
0
41
1
10
64.029825429193
20
1.63380047330429
30
0
41
1
10
63.8580646539255
20
1.53463434346736
30
0
41
1
10
63.7728626022931
20
1.4854429160219
30
0
41
1
10
63.6459458941838
20
1.41216752043033
30
0
41
1
10
63.6040484918055
20
1.38797804388886
30
0
41
1
10
63.5211927876453
20
1.34014128078806
30
0
41
1
10
63.4801952964767
20
1.31647136822582
30
0
41
1
10
63.3583330221052
20
1.24611415131332
30
0
41
1
10
63.278592464323
20
1.2000759188125
30
0
41
1
10
63.1999999999999
20
1.15470053837927
30
0
0
SPLINE
5
168
100
AcDbEntity
8
SK2
62
256
6
ByLayer
370
18
48
1
60
0
100
AcDbSpline
70
4
71
3
72
28
73
24
40
0
40
0
40
0
40
0
40
0.124999999999961
40
0.124999999999961
40
0.249999999999923
40
0.249999999999923
40
0.374999999999884
40
0.374999999999884
40
0.437499999999865
40
0.437499999999865
40
0.468749999999863
40
0.468749999999863
40
0.49999999999986
40
0.49999999999986
40
0.624999999999896
40
0.624999999999896
40
0.749999999999931
40
0.749999999999931
40
0.812499999999948
40
0.812499999999948
40
0.874999999999965
40
0.874999999999965
40
1
40
1
40
1
40
1
41
1
10
67.2
20
1.1547005383793
30
0
41
1
10
67.1218681189417
20
1.19981000094063
30
0
41
1
10
67.0428416541415
20
1.24543595166614
30
0
41
1
10
66.8825052353832
20
1.33800622619717
30
0
41
1
10
66.8011948879935
20
1.38495077715047
30
0
41
1
10
66.6356898882794
20
1.48050513328766
30
0
41
1
10
66.5514932773292
20
1.52911606928461
30
0
41
1
10
66.4225281163509
20
1.60357413969149
30
0
41
1
10
66.3790942847537
20
1.62865067405605
30
0
41
1
10
66.3132123018866
20
1.66668765459914
30
0
41
1
10
66.2912109770599
20
1.67939012541035
30
0
41
1
10
66.2473776977257
20
1.70469728103348
30
0
41
1
10
66.2255074231271
20
1.71732408996021
30
0
41
1
10
66.1163855084447
20
1.7803256567766
30
0
41
1
10
66.029825429193
20
1.83030114183362
30
0
41
1
10
65.8580646539254
20
1.92946727167055
30
0
41
1
10
65.772862602293
20
1.97865869911601
30
0
41
1
10
65.6459458941838
20
2.05193409470761
30
0
41
1
10
65.6040484918054
20
2.07612357124904
30
0
41
1
10
65.5211927876452
20
2.12396033434985
30
0
41
1
10
65.4801952964767
20
2.14763024691212
30
0
41
1
10
65.3583330221051
20
2.21798746382458
30
0
41
1
10
65.278592464323
20
2.26402569632543
30
0
41
1
10
65.1999999999999
20
2.30940107675866
30
0
0
SPLINE
5
169
100
AcDbEntity
8
SK2
62
256
6
ByLayer
370
18
48
1
60
0
100
AcDbSpline
70
4
71
3
72
29
73
25
40
0
40
0
40
0
40
0
40
0.125
40
0.125
40
0.1875
40
0.1875
40
0.25
40
0.25
40
0.375
40
0.375
40
0.5
40
0.5
40
0.53125
40
0.53125
40
0.5625
40
0.625
40
0.625
40
0.75
40
0.75
40
0.875
40
0.875
40
0.9375
40
0.9375
40
1
40
1
40
1
40
1
41
1
10
67.2
20
-1.15470053837919
30
0
41
1
10
67.2
20
-1.06535431451547
30
0
41
1
10
67.2
20
-0.974289225578701
30
0
41
1
10
67.2
20
-0.834210512999078
30
0
41
1
10
67.2
20
-0.786901486996953
30
0
41
1
10
67.2
20
-0.691057233789905
30
0
41
1
10
67.2
20
-0.642911391850788
30
0
41
1
10
67.2
20
-0.497736380081136
30
0
41
1
10
67.2
20
-0.399968273887055
30
0
41
1
10
67.2
20
-0.202122404997624
30
0
41
1
10
67.2
20
-0.102042081750255
30
0
41
1
10
67.2
20
0.0246683744168763
30
0
41
1
10
67.2
20
0.0501504434034246
30
0
41
1
10
67.2
20
0.100964746878645
30
0
41
1
10
67.2
20
0.176861646868389
30
0
41
1
10
67.2
20
0.251814644587654
30
0
41
1
10
67.2
20
0.400551475236426
30
0
41
1
10
67.2
20
0.498150266098634
30
0
41
1
10
67.2
20
0.690747280721666
30
0
41
1
10
67.2
20
0.785747806773855
30
0
41
1
10
67.2
20
0.926675207562226
30
0
41
1
10
67.2
20
0.973099050351237
30
0
41
1
10
67.2
20
1.06470850905387
30
0
41
1
10
67.2
20
1.10994693870029
30
0
41
1
10
67.2
20
1.15470053837947
30
0
0
SPLINE
5
16A
100
AcDbEntity
8
SK2
62
256
6
ByLayer
370
18
48
1
60
0
100
AcDbSpline
70
4
71
3
72
28
73
24
40
0
40
0
40
0
40
0
40
0.125000000000021
40
0.125000000000021
40
0.250000000000042
40
0.250000000000042
40
0.375000000000063
40
0.375000000000063
40
0.437500000000073
40
0.437500000000073
40
0.468750000000071
40
0.468750000000071
40
0.500000000000069
40
0.500000000000069
40
0.625000000000045
40
0.625000000000045
40
0.750000000000021
40
0.750000000000021
40
0.812500000000016
40
0.812500000000016
40
0.875000000000011
40
0.875000000000011
40
1
40
1
40
1
40
1
41
1
10
65.2
20
-2.3094010767584
30
0
41
1
10
65.2781318810583
20
-2.26429161419711
30
0
41
1
10
65.3571583458586
20
-2.2186656634716
30
0
41
1
10
65.5174947646169
20
-2.12609538894057
30
0
41
1
10
65.5988051120065
20
-2.07915083798727
30
0
41
1
10
65.7643101117207
20
-1.98359648185007
30
0
41
1
10
65.8485067226709
20
-1.93498554585312
30
0
41
1
10
65.9774718836491
20
-1.86052747544625
30
0
41
1
10
66.0209057152463
20
-1.83545094108169
30
0
41
1
10
66.0867876981134
20
-1.79741396053859
30
0
41
1
10
66.1087890229401
20
-1.78471148972739
30
0
41
1
10
66.1526223022744
20
-1.75940433410429
30
0
41
1
10
66.174492576873
20
-1.74677752517755
30
0
41
1
10
66.2836144915554
20
-1.68377595836114
30
0
41
1
10
66.3701745708071
20
-1.63380047330412
30
0
41
1
10
66.5419353460746
20
-1.53463434346722
30
0
41
1
10
66.627137397707
20
-1.48544291602173
30
0
41
1
10
66.7540541058163
20
-1.41216752043016
30
0
41
1
10
66.7959515081946
20
-1.38797804388869
30
0
41
1
10
66.8788072123548
20
-1.34014128078789
30
0
41
1
10
66.9198047035234
20
-1.31647136822565
30
0
41
1
10
67.0416669778949
20
-1.24611415131315
30
0
41
1
10
67.1214075356771
20
-1.20007591881233
30
0
41
1
10
67.2000000000001
20
-1.1547005383791
30
0
0
SPLINE
5
16B
100
AcDbEntity
8
SK2
62
256
6
ByLayer
370
18
48
1
60
0
100
AcDbSpline
70
4
71
3
72
28
73
24
40
0
40
0
40
0
40
0
40
0.124999999999991
40
0.124999999999991
40
0.249999999999982
40
0.249999999999982
40
0.374999999999972
40
0.374999999999972
40
0.437499999999968
40
0.437499999999968
40
0.468749999999973
40
0.468749999999973
40
0.499999999999978
40
0.499999999999978
40
0.624999999999984
40
0.624999999999984
40
0.749999999999989
40
0.749999999999989
40
0.812499999999992
40
0.812499999999992
40
0.874999999999996
40
0.874999999999996
40
1
40
1
40
1
40
1
41
1
10
63.2
20
-1.15470053837916
30
0
41
1
10
63.2781318810584
20
-1.19981000094049
30
0
41
1
10
63.3571583458586
20
-1.245435951666
30
0
41
1
10
63.5174947646169
20
-1.33800622619699
30
0
41
1
10
63.5988051120066
20
-1.38495077715032
30
0
41
1
10
63.7643101117207
20
-1.48050513328752
30
0
41
1
10
63.8485067226709
20
-1.52911606928447
30
0
41
1
10
63.9774718836491
20
-1.60357413969135
30
0
41
1
10
64.0209057152463
20
-1.62865067405591
30
0
41
1
10
64.0867876981135
20
-1.666687654599
30
0
41
1
10
64.1087890229401
20
-1.67939012541021
30
0
41
1
10
64.1526223022744
20
-1.7046972810333
30
0
41
1
10
64.174492576873
20
-1.71732408996004
30
0
41
1
10
64.2836144915554
20
-1.78032565677645
30
0
41
1
10
64.3701745708071
20
-1.83030114183347
30
0
41
1
10
64.5419353460746
20
-1.9294672716704
30
0
41
1
10
64.627137397707
20
-1.97865869911587
30
0
41
1
10
64.7540541058163
20
-2.05193409470743
30
0
41
1
10
64.7959515081946
20
-2.0761235712489
30
0
41
1
10
64.8788072123548
20
-2.1239603343497
30
0
41
1
10
64.9198047035234
20
-2.14763024691195
30
0
41
1
10
65.041666977895
20
-2.21798746382444
30
0
41
1
10
65.1214075356771
20
-2.26402569632529
30
0
41
1
10
65.2000000000001
20
-2.30940107675849
30
0
0
SPLINE
5
16C
100
AcDbEntity
8
SK2
62
256
6
ByLayer
370
18
48
1
60
0
100
AcDbSpline
70
4
71
3
72
29
73
25
40
0
40
0
40
0
40
0
40
0.0625000000000001
40
0.0625000000000001
40
0.125
40
0.125
40
0.25
40
0.25
40
0.375
40
0.375
40
0.4375
40
0.46875
40
0.46875
40
0.5
40
0.5
40
0.625
40
0.625
40
0.75
40
0.75
40
0.8125
40
0.8125
40
0.875
40
0.875
40
1
40
1
40
1
40
1
41
1
10
63.2
20
1.15470053837947
30
0
41
1
10
63.2000000000001
20
1.10994693870032
30
0
41
1
10
63.2
20
1.0647085090539
30
0
41
1
10
63.2
20
0.973099050351266
30
0
41
1
10
63.2
20
0.926675207562255
30
0
41
1
10
63.2
20
0.785747806773884
30
0
41
1
10
63.2
20
0.690747280721695
30
0
41
1
10
63.2
20
0.498150266098662
30
0
41
1
10
63.2
20
0.400551475236455
30
0
41
1
10
63.2
20
0.251814644587682
30
0
41
1
10
63.2
20
0.176861646868417
30
0
41
1
10
63.2
20
0.100964746878674
30
0
41
1
10
63.2
20
0.0501504434034814
30
0
41
1
10
63.2
20
0.0246683744169047
30
0
41
1
10
63.2
20
-0.102042081750199
30
0
41
1
10
63.2
20
-0.202122404997596
30
0
41
1
10
63.2
20
-0.399968273887026
30
0
41
1
10
63.2
20
-0.497736380081079
30
0
41
1
10
63.2
20
-0.64291139185076
30
0
41
1
10
63.2
20
-0.691057233789877
30
0
41
1
10
63.2
20
-0.786901486996925
30
0
41
1
10
63.2
20
-0.83421051299905
30
0
41
1
10
63.2
20
-0.974289225578644
30
0
41
1
10
63.2
20
-1.06535431451545
30
0
41
1
10
63.2
20
-1.15470053837916
30
0
0
SPLINE
5
16D
100
AcDbEntity
8
SK1
62
256
6
ByLayer
370
18
48
1
60
0
100
AcDbSpline
70
4
71
3
72
18
73
14
40
0
40
0
40
0
40
0
40
0.25
40
0.25
40
0.500000000000001
40
0.500000000000001
40
0.750000000000001
40
0.750000000000001
40
0.875000000000001
40
0.875000000000001
40
0.9375
40
0.9375
40
1
40
1
40
1
40
1
41
1
10
-30.7600449304189
20
20.8343104848551
30
0
41
1
10
-30.8005304147295
20
20.7918881716236
30
0
41
1
10
-30.8391903518078
20
20.7469260622839
30
0
41
1
10
-30.9108217629846
20
20.6529591719924
30
0
41
1
10
-30.9438142125762
20
20.6039429159931
30
0
41
1
10
-31.0007051028082
20
20.5035329800823
30
0
41
1
10
-31.0245900033696
20
20.4521521286418
30
0
41
1
10
-31.0497392687942
20
20.3751260560864
30
0
41
1
10
-31.0563287190668
20
20.3494639188072
30
0
41
1
10
-31.0630301448817
20
20.3111943798815
30
0
41
1
10
-31.0647340773199
20
20.2984745535363
30
0
41
1
10
-31.0670149098383
20
20.2731305775174
30
0
41
1
10
-31.0675855446107
20
20.2605639288717
30
0
41
1
10
-31.0675798041817
20
20.2481331121862
30
0
0
SPLINE
5
16E
100
AcDbEntity
8
SK1
62
256
6
ByLayer
370
18
48
1
60
0
100
AcDbSpline
70
4
71
3
72
86
73
82
40
0
40
0
40
0
40
0
40
0.0624999999999838
40
0.0624999999999838
40
0.0937499999999753
40
0.0937499999999753
40
0.124999999999967
40
0.124999999999967
40
0.18749999999995
40
0.18749999999995
40
0.249999999999933
40
0.249999999999933
40
0.312499999999916
40
0.312499999999916
40
0.343749999999908
40
0.343749999999908
40
0.374999999999899
40
0.374999999999899
40
0.406249999999891
40
0.406249999999891
40
0.421874999999887
40
0.421874999999887
40
0.437499999999883
40
0.437499999999883
40
0.453124999999879
40
0.453124999999879
40
0.468749999999876
40
0.468749999999876
40
0.476562499999874
40
0.476562499999874
40
0.484374999999873
40
0.484374999999873
40
0.488281249999874
40
0.488281249999874
40
0.492187499999876
40
0.492187499999876
40
0.496093749999877
40
0.496093749999877
40
0.499999999999878
40
0.499999999999878
40
0.503906249999879
40
0.503906249999879
40
0.50781249999988
40
0.50781249999988
40
0.511718749999881
40
0.511718749999881
40
0.515624999999882
40
0.515624999999882
40
0.519531249999883
40
0.519531249999883
40
0.523437499999884
40
0.523437499999884
40
0.531249999999887
40
0.531249999999887
40
0.539062499999889
40
0.539062499999889
40
0.546874999999891
40
0.546874999999891
40
0.562499999999895
40
0.562499999999895
40
0.570312499999896
40
0.570312499999896
40
0.578124999999898
40
0.578124999999898
40
0.593749999999902
40
0.593749999999902
40
0.62499999999991
40
0.62499999999991
40
0.656249999999918
40
0.656249999999918
40
0.687499999999925
40
0.687499999999925
40
0.74999999999994
40
0.74999999999994
40
0.812499999999955
40
0.812499999999955
40
0.87499999999997
40
0.87499999999997
40
0.937499999999985
40
0.937499999999985
40
1
40
1
40
1
40
1
41
1
10
-31.067579804184
20
20.2481331121841
30
0
41
1
10
-31.06755349448
20
20.1911598250594
30
0
41
1
10
-31.0690558562391
20
20.132774178548
30
0
41
1
10
-31.0736621007993
20
20.0430220169691
30
0
41
1
10
-31.0755906272497
20
20.0127414288742
30
0
41
1
10
-31.080257104053
20
19.9514324154454
30
0
41
1
10
-31.0829973921193
20
19.9203813292838
30
0
41
1
10
-31.0924641772115
20
19.8262395233602
30
0
41
1
10
-31.1004220038533
20
19.7622144791398
30
0
41
1
10
-31.1199564688366
20
19.6313868500958
30
0
41
1
10
-31.1315270169387
20
19.5645889397036
30
0
41
1
10
-31.1589044208934
20
19.4277416325859
30
0
41
1
10
-31.1746935451899
20
19.3577058453325
30
0
41
1
10
-31.2024754952608
20
19.2495066308991
30
0
41
1
10
-31.2124248807956
20
19.2129116020518
30
0
41
1
10
-31.2339922209399
20
19.1384408702742
30
0
41
1
10
-31.2456055269337
20
19.1005687352885
30
0
41
1
10
-31.2709786311793
20
19.0231769716379
30
0
41
1
10
-31.2847249717861
20
18.9836676720972
30
0
41
1
10
-31.3076341494911
20
18.9226463385899
30
0
41
1
10
-31.3156561629301
20
18.9020099191337
30
0
41
1
10
-31.3326866023335
20
18.8599799806349
30
0
41
1
10
-31.3417002622532
20
18.8385764999579
30
0
41
1
10
-31.3608223753418
20
18.7952734750922
30
0
41
1
10
-31.3709454828759
20
18.773325188451
30
0
41
1
10
-31.3927907938227
20
18.7285842604353
30
0
41
1
10
-31.4044932816838
20
18.705802029268
30
0
41
1
10
-31.4239870332908
20
18.6706043130995
30
0
41
1
10
-31.4308135055291
20
18.65869744271
30
0
41
1
10
-31.4453941233627
20
18.6343971398108
30
0
41
1
10
-31.453054242257
20
18.6221573264871
30
0
41
1
10
-31.465347631389
20
18.6036028649067
30
0
41
1
10
-31.4695806420623
20
18.5973852611454
30
0
41
1
10
-31.4783874629757
20
18.5848674254362
30
0
41
1
10
-31.4829710051464
20
18.5785556772675
30
0
41
1
10
-31.4924118347874
20
18.5660460149064
30
0
41
1
10
-31.4972842123298
20
18.5598250962616
30
0
41
1
10
-31.5074155755051
20
18.5474695357939
30
0
41
1
10
-31.5127218227734
20
18.5412827337069
30
0
41
1
10
-31.5235937264865
20
18.5293017997569
30
0
41
1
10
-31.5291328199052
20
18.5235319382216
30
0
41
1
10
-31.5404552063009
20
18.5125145240029
30
0
41
1
10
-31.5462733934334
20
18.5072488249712
30
0
41
1
10
-31.5575893391609
20
18.4978203702407
30
0
41
1
10
-31.5631560757218
20
18.4935853099657
30
0
41
1
10
-31.5741129152166
20
18.4860428576642
30
0
41
1
10
-31.5793773870242
20
18.4828250180029
30
0
41
1
10
-31.5893628312424
20
18.4774075684557
30
0
41
1
10
-31.5941206124756
20
18.4751832342692
30
0
41
1
10
-31.6032509622763
20
18.4715287801371
30
0
41
1
10
-31.6075259110806
20
18.4701363725631
30
0
41
1
10
-31.6196892919795
20
18.4669404158794
30
0
41
1
10
-31.626931817693
20
18.4661001055431
30
0
41
1
10
-31.6403099849974
20
18.4660679744844
30
0
41
1
10
-31.6463246677904
20
18.466885829453
30
0
41
1
10
-31.6574273993907
20
18.4695937346039
30
0
41
1
10
-31.6625210547536
20
18.4714922786133
30
0
41
1
10
-31.6768216409587
20
18.4783543828114
30
0
41
1
10
-31.6850662410959
20
18.4844629399588
30
0
41
1
10
-31.6962699976864
20
18.4950097031545
30
0
41
1
10
-31.6998073256464
20
18.4987693542861
30
0
41
1
10
-31.7065160959732
20
18.5066352599658
30
0
41
1
10
-31.709692338417
20
18.5107457302964
30
0
41
1
10
-31.7187819764966
20
18.5235146894651
30
0
41
1
10
-31.7242610332234
20
18.5326059928095
30
0
41
1
10
-31.7394465274052
20
18.5611271858248
30
0
41
1
10
-31.7479242105625
20
18.5817815172249
30
0
41
1
10
-31.7628979469376
20
18.6250648550227
30
0
41
1
10
-31.7693718252074
20
18.6477159585409
30
0
41
1
10
-31.780936775267
20
18.6943961188108
30
0
41
1
10
-31.786020914001
20
18.7184320842853
30
0
41
1
10
-31.7997361246821
20
18.7920717910876
30
0
41
1
10
-31.80685805216
20
18.8432011946922
30
0
41
1
10
-31.8186080449853
20
18.9475492027824
30
0
41
1
10
-31.8232228476895
20
19.000843508029
30
0
41
1
10
-31.8307411640383
20
19.1089534395515
30
0
41
1
10
-31.8336362373556
20
19.1637765692047
30
0
41
1
10
-31.8381282388223
20
19.2745768682288
30
0
41
1
10
-31.8397219150848
20
19.3305569284986
30
0
41
1
10
-31.8418206348239
20
19.4434848340781
30
0
41
1
10
-31.842324491537
20
19.50043373441
30
0
41
1
10
-31.8423156651183
20
19.5578384055689
30
0
0
SPLINE
5
16F
100
AcDbEntity
8
SK1
62
256
6
ByLayer
370
18
48
1
60
0
100
AcDbSpline
70
4
71
3
72
18
73
14
40
0
40
0
40
0
40
0
40
0.166666666666671
40
0.166666666666671
40
0.333333333333342
40
0.333333333333342
40
0.416666666666673
40
0.416666666666673
40
0.500000000000004
40
0.500000000000004
40
0.66666666666667
40
0.66666666666667
40
1
40
1
40
1
40
1
41
1
10
-31.8423156651183
20
19.5578384055689
30
0
41
1
10
-31.8423124272776
20
19.578896457404
30
0
41
1
10
-31.8431055401534
20
19.5975686520515
30
0
41
1
10
-31.8461332411618
20
19.6302929305892
30
0
41
1
10
-31.8483658328874
20
19.6443465600596
30
0
41
1
10
-31.8525269753938
20
19.6621378505254
30
0
41
1
10
-31.8540411331187
20
19.6674888528558
30
0
41
1
10
-31.857241750374
20
19.6770602932874
30
0
41
1
10
-31.8589305081703
20
19.6812910376211
30
0
41
1
10
-31.8641630823175
20
19.692444561711
30
0
41
1
10
-31.8678718524901
20
19.697833158102
30
0
41
1
10
-31.8789048656756
20
19.7086926317287
30
0
41
1
10
-31.886117982338
20
19.7089022277162
30
0
41
1
10
-31.8914145256276
20
19.7035854332563
30
0
0
SPLINE
5
170
100
AcDbEntity
8
SK1
62
256
6
ByLayer
370
18
48
1
60
0
100
AcDbSpline
70
4
71
3
72
21
73
17
40
0
40
0
40
0
40
0
40
0.249999999999988
40
0.249999999999988
40
0.312499999999986
40
0.312499999999986
40
0.374999999999984
40
0.499999999999985
40
0.499999999999985
40
0.749999999999989
40
0.749999999999989
40
0.812499999999992
40
0.812499999999992
40
0.874999999999994
40
0.874999999999994
40
1
40
1
40
1
40
1
41
1
10
-31.8692807746814
20
-19.4903757489686
30
0
41
1
10
-31.8692299147198
20
-19.5264686106131
30
0
41
1
10
-31.8707678265068
20
-19.5562094579244
30
0
41
1
10
-31.8742083558994
20
-19.585643015537
30
0
41
1
10
-31.8749676630486
20
-19.5911294589168
30
0
41
1
10
-31.87658886101
20
-19.6012578213723
30
0
41
1
10
-31.8791786747931
20
-19.6152218635192
30
0
41
1
10
-31.882101951808
20
-19.6256998513617
30
0
41
1
10
-31.8880002377309
20
-19.6424693135638
30
0
41
1
10
-31.8919994055249
20
-19.6480865530938
30
0
41
1
10
-31.8957563161762
20
-19.6493541979662
30
0
41
1
10
-31.8964456824745
20
-19.6493185096533
30
0
41
1
10
-31.8976676502273
20
-19.648693203898
30
0
41
1
10
-31.8982008064945
20
-19.6481021409978
30
0
41
1
10
-31.8995113892774
20
-19.6455440347339
30
0
41
1
10
-31.9
20
-19.642798445698
30
0
41
1
10
-31.9
20
-19.6391433762695
30
0
0
SPLINE
5
171
100
AcDbEntity
8
SK1
62
256
6
ByLayer
370
18
48
1
60
0
100
AcDbSpline
70
4
71
3
72
85
73
81
40
0
40
0
40
0
40
0
40
0.0624999999999971
40
0.0624999999999971
40
0.124999999999994
40
0.124999999999994
40
0.187499999999991
40
0.187499999999991
40
0.249999999999988
40
0.249999999999988
40
0.281249999999987
40
0.281249999999987
40
0.312499999999986
40
0.312499999999986
40
0.343749999999984
40
0.343749999999984
40
0.374999999999983
40
0.374999999999983
40
0.406249999999982
40
0.406249999999982
40
0.421874999999981
40
0.421874999999981
40
0.437499999999981
40
0.437499999999981
40
0.453124999999981
40
0.453124999999981
40
0.46874999999998
40
0.46874999999998
40
0.47656249999998
40
0.47656249999998
40
0.484374999999979
40
0.484374999999979
40
0.492187499999979
40
0.492187499999979
40
0.496093749999978
40
0.496093749999978
40
0.499999999999976
40
0.499999999999976
40
0.501953124999976
40
0.501953124999976
40
0.503906249999975
40
0.505859374999975
40
0.505859374999975
40
0.507812499999974
40
0.507812499999974
40
0.511718749999973
40
0.511718749999973
40
0.515624999999972
40
0.515624999999972
40
0.519531249999972
40
0.519531249999972
40
0.523437499999971
40
0.523437499999971
40
0.531249999999971
40
0.531249999999971
40
0.539062499999972
40
0.539062499999972
40
0.546874999999972
40
0.546874999999972
40
0.562499999999973
40
0.562499999999973
40
0.578124999999974
40
0.578124999999974
40
0.593749999999976
40
0.593749999999976
40
0.624999999999977
40
0.624999999999977
40
0.656249999999979
40
0.656249999999979
40
0.687499999999981
40
0.687499999999981
40
0.749999999999985
40
0.749999999999985
40
0.812499999999989
40
0.812499999999989
40
0.874999999999992
40
0.874999999999992
40
0.937499999999996
40
0.937499999999996
40
1
40
1
40
1
40
1
41
1
10
-30.9697797028104
20
-20.2918370725201
30
0
41
1
10
-30.9693805484013
20
-20.2242325067997
30
0
41
1
10
-30.9708959030155
20
-20.1549957596026
30
0
41
1
10
-30.9777953092695
20
-20.0132240746288
30
0
41
1
10
-30.9831782641179
20
-19.9406900719029
30
0
41
1
10
-30.9980277307872
20
-19.7921407007486
30
0
41
1
10
-31.0074909213458
20
-19.7161281638049
30
0
41
1
10
-31.0309520383002
20
-19.5602370794963
30
0
41
1
10
-31.0449413593767
20
-19.480365868447
30
0
41
1
10
-31.0699640521917
20
-19.3571159186567
30
0
41
1
10
-31.0789925010703
20
-19.3154109977505
30
0
41
1
10
-31.0985197922663
20
-19.2309564770924
30
0
41
1
10
-31.1090149799109
20
-19.1882128324105
30
0
41
1
10
-31.1316836456084
20
-19.1015408634912
30
0
41
1
10
-31.1438549479183
20
-19.0576140750777
30
0
41
1
10
-31.1702012624289
20
-18.9683461100548
30
0
41
1
10
-31.1843712421239
20
-18.9230084858144
30
0
41
1
10
-31.215251732803
20
-18.8305399151154
30
0
41
1
10
-31.2319480136138
20
-18.7834190135186
30
0
41
1
10
-31.2596496194289
20
-18.7108619951162
30
0
41
1
10
-31.2693307327141
20
-18.6863606191295
30
0
41
1
10
-31.2898206204752
20
-18.6365618683519
30
0
41
1
10
-31.3006256953054
20
-18.6112671050844
30
0
41
1
10
-31.3237443497553
20
-18.5596127480681
30
0
41
1
10
-31.3359968749229
20
-18.5333858801766
30
0
41
1
10
-31.3623030742786
20
-18.4801315162842
30
0
41
1
10
-31.3763538144416
20
-18.4530744518747
30
0
41
1
10
-31.3996123195164
20
-18.4114437004561
30
0
41
1
10
-31.4077338006011
20
-18.3973902377185
30
0
41
1
10
-31.4250044752432
20
-18.3687911379523
30
0
41
1
10
-31.4342063227093
20
-18.3541631861865
30
0
41
1
10
-31.4537358336
20
-18.3248103422872
30
0
41
1
10
-31.4640680013395
20
-18.3100544268214
30
0
41
1
10
-31.4809347945917
20
-18.2877288232207
30
0
41
1
10
-31.4867689754927
20
-18.2802849896592
30
0
41
1
10
-31.4987695265094
20
-18.2656481955593
30
0
41
1
10
-31.5049588926809
20
-18.2584231514012
30
0
41
1
10
-31.5146084609663
20
-18.2477660396496
30
0
41
1
10
-31.5179009844924
20
-18.2442292571151
30
0
41
1
10
-31.5245047171156
20
-18.2373513991958
30
0
41
1
10
-31.531145276693
20
-18.2306475415456
30
0
41
1
10
-31.5378642934664
20
-18.2243143790431
30
0
41
1
10
-31.5446253008474
20
-18.2181796140779
30
0
41
1
10
-31.5480480136682
20
-18.2151940018773
30
0
41
1
10
-31.5582177001603
20
-18.2066943669609
30
0
41
1
10
-31.5648179679007
20
-18.201670109228
30
0
41
1
10
-31.5776874553992
20
-18.1928057724282
30
0
41
1
10
-31.5839965957659
20
-18.1889523870068
30
0
41
1
10
-31.5958275050374
20
-18.1825748198686
30
0
41
1
10
-31.6014172059612
20
-18.1799973665734
30
0
41
1
10
-31.612079203009
20
-18.1758134549593
30
0
41
1
10
-31.6171684198045
20
-18.1742073900739
30
0
41
1
10
-31.6314755580394
20
-18.1706489424236
30
0
41
1
10
-31.6398873844075
20
-18.1698643796271
30
0
41
1
10
-31.6553235899368
20
-18.1702511861043
30
0
41
1
10
-31.6623480733509
20
-18.1714548241554
30
0
41
1
10
-31.6751712230683
20
-18.1751566304184
30
0
41
1
10
-31.6810118139047
20
-18.17765930731
30
0
41
1
10
-31.6973298182026
20
-18.1865414299079
30
0
41
1
10
-31.7066261909751
20
-18.1942690242498
30
0
41
1
10
-31.7233527311735
20
-18.2118544716249
30
0
41
1
10
-31.7307660688537
20
-18.2217510056789
30
0
41
1
10
-31.7442620339321
20
-18.2429792168096
30
0
41
1
10
-31.7503106880221
20
-18.2542681592901
30
0
41
1
10
-31.7669652168291
20
-18.2895741879516
30
0
41
1
10
-31.7761076686093
20
-18.3150034457972
30
0
41
1
10
-31.7920763347651
20
-18.3680970807757
30
0
41
1
10
-31.798874912481
20
-18.3957881266908
30
0
41
1
10
-31.8108834227722
20
-18.4527032269196
30
0
41
1
10
-31.8160848263625
20
-18.4819355115202
30
0
41
1
10
-31.8299579674628
20
-18.5713028103298
30
0
41
1
10
-31.8369326384217
20
-18.6330754572666
30
0
41
1
10
-31.8482528452255
20
-18.7591578099887
30
0
41
1
10
-31.8525686835723
20
-18.8234855768325
30
0
41
1
10
-31.8594677308272
20
-18.9536523894757
30
0
41
1
10
-31.8620435345824
20
-19.0195246630818
30
0
41
1
10
-31.8659662688387
20
-19.1523787397179
30
0
41
1
10
-31.8673094050545
20
-19.2193639685459
30
0
41
1
10
-31.8690154340586
20
-19.35421947185
30
0
41
1
10
-31.869376997654
20
-19.4220909464326
30
0
41
1
10
-31.8692807746814
20
-19.4903757489686
30
0
0
SPLINE
5
172
100
AcDbEntity
8
SK1
62
256
6
ByLayer
370
18
48
1
60
0
100
AcDbSpline
70
4
71
3
72
14
73
10
40
0
40
0
40
0
40
0
40
0.25
40
0.25
40
0.5
40
0.5
40
0.75
40
0.75
40
1
40
1
40
1
40
1
41
1
10
-30.7600449304182
20
-20.7759355648241
30
0
41
1
10
-30.7900404769228
20
-20.7391430873328
30
0
41
1
10
-30.8180896999408
20
-20.7008459428366
30
0
41
1
10
-30.8687458608593
20
-20.6220739429086
30
0
41
1
10
-30.8913498391749
20
-20.5816010000125
30
0
41
1
10
-30.9290751655626
20
-20.4995348632116
30
0
41
1
10
-30.9441756135538
20
-20.4579549543774
30
0
41
1
10
-30.9646688220374
20
-20.3747617985674
30
0
41
1
10
-30.9700237499845
20
-20.333171210006
30
0
41
1
10
-30.9697797028104
20
-20.2918370725201
30
0
0
SPLINE
5
173
100
AcDbEntity
8
SK1
62
256
6
ByLayer
370
18
48
1
60
0
100
AcDbSpline
70
4
71
3
72
88
73
84
40
0
40
0
40
0
40
0
40
0.0056544786453827
40
0.0056544786453827
40
0.0369018783904163
40
0.0369018783904163
40
0.0681492781354499
40
0.0681492781354499
40
0.0993966778804836
40
0.0993966778804836
40
0.130644077625517
40
0.130644077625517
40
0.146267777498034
40
0.154079627434292
40
0.154079627434292
40
0.161891477370551
40
0.161891477370551
40
0.193138877115584
40
0.193138877115584
40
0.224386276860618
40
0.255633676605651
40
0.255633676605651
40
0.286881076350685
40
0.286881076350685
40
0.318128476095718
40
0.349375875840751
40
0.349375875840751
40
0.35718772577701
40
0.35718772577701
40
0.364999575713268
40
0.364999575713268
40
0.380623275585785
40
0.380623275585785
40
0.411870675330819
40
0.443118075075852
40
0.474365474820886
40
0.474365474820886
40
0.482177324757144
40
0.482177324757144
40
0.489989174693403
40
0.505612874565919
40
0.505612874565919
40
0.536860274310952
40
0.568107674055984
40
0.568107674055984
40
0.5837313739285
40
0.591543223864758
40
0.591543223864758
40
0.599355073801016
40
0.599355073801016
40
0.630602473546047
40
0.661849873291079
40
0.661849873291079
40
0.69309727303611
40
0.69309727303611
40
0.708720972908626
40
0.708720972908626
40
0.716532822844884
40
0.716532822844884
40
0.724344672781142
40
0.755592072526173
40
0.786839472271204
40
0.786839472271204
40
0.818086872016236
40
0.818086872016236
40
0.825898721952493
40
0.825898721952493
40
0.833710571888752
40
0.833710571888752
40
0.849334271761268
40
0.849334271761268
40
0.8805816715063
40
0.8805816715063
40
0.911829071251332
40
0.911829071251332
40
0.927452771123848
40
0.927452771123848
40
0.935264621060106
40
0.935264621060106
40
0.943076470996364
40
0.943076470996364
40
0.974323870741397
40
1
40
1
40
1
40
1
41
1
10
-4.30168634380695
20
24.1051159293972
30
0
41
1
10
-4.30169084325021
20
24.105115113717
30
0
41
1
10
-4.30195541169974
20
24.1050609605473
30
0
41
1
10
-4.30536782734261
20
24.1043613496406
30
0
41
1
10
-4.31614758031967
20
24.1021487344219
30
0
41
1
10
-4.35340135419195
20
24.0945493849193
30
0
41
1
10
-4.37987586635512
20
24.0891622982116
30
0
41
1
10
-4.44891908335143
20
24.0752540951658
30
0
41
1
10
-4.49082342534541
20
24.0668680204953
30
0
41
1
10
-4.58858282604818
20
24.0475686672466
30
0
41
1
10
-4.64444078155667
20
24.0366546474642
30
0
41
1
10
-4.73844404924647
20
24.0186053787488
30
0
41
1
10
-4.78800454267861
20
24.0091607772999
30
0
41
1
10
-4.84140347098595
20
23.9991239778133
30
0
41
1
10
-4.87785826413317
20
23.9923052546659
30
0
41
1
10
-4.89653960027901
20
23.9888272932572
30
0
41
1
10
-4.99173167448069
20
23.9711959322813
30
0
41
1
10
-5.07345418982887
20
23.9563429896812
30
0
41
1
10
-5.24740534000269
20
23.9255225815658
30
0
41
1
10
-5.43186504620505
20
23.8935884692672
30
0
41
1
10
-5.63680740863747
20
23.860102163332
30
0
41
1
10
-5.8520397693638
20
23.8261603582413
30
0
41
1
10
-5.96329638868778
20
23.8092009654145
30
0
41
1
10
-6.19248673236713
20
23.7756466629153
30
0
41
1
10
-6.42843812096746
20
23.7424444263185
30
0
41
1
10
-6.67763908592315
20
23.7104975621619
30
0
41
1
10
-6.83756376255465
20
23.6910903973563
30
0
41
1
10
-6.8697578623145
20
23.6872369385211
30
0
41
1
10
-6.93456709288282
20
23.6795901478982
30
0
41
1
10
-6.96722049481698
20
23.6757924910873
30
0
41
1
10
-7.06542972331472
20
23.6645400714812
30
0
41
1
10
-7.13127877974433
20
23.6572200536679
30
0
41
1
10
-7.32993264071048
20
23.6358334985277
30
0
41
1
10
-7.59774955390751
20
23.6088486303023
30
0
41
1
10
-8.00814620129329
20
23.5734005827058
30
0
41
1
10
-8.28756103674438
20
23.5534012244308
30
0
41
1
10
-8.46407198051796
20
23.5421243095026
30
0
41
1
10
-8.49947362982947
20
23.5399299494132
30
0
41
1
10
-8.57011605624487
20
23.5356859859621
30
0
41
1
10
-8.67596912924523
20
23.5295286298487
30
0
41
1
10
-8.78149389774403
20
23.5239938959418
30
0
41
1
10
-8.99211137104626
20
23.5137463672139
30
0
41
1
10
-9.27178423802961
20
23.5022744878207
30
0
41
1
10
-9.54916793577307
20
23.4950973017089
30
0
41
1
10
-9.75632742419704
20
23.4912897893957
30
0
41
1
10
-9.85968725372067
20
23.4897798453114
30
0
41
1
10
-9.96270970268506
20
23.4888535724898
30
0
41
1
10
-10.0313153038411
20
23.4883649467269
30
0
41
1
10
-10.0656252034762
20
23.4881849823938
30
0
41
1
10
-10.2363031957403
20
23.4876073519397
30
0
41
1
10
-10.5038418468566
20
23.4887333733928
30
0
41
1
10
-10.7605101095889
20
23.4934823130593
30
0
41
1
10
-11.0117058741089
20
23.4998104833313
30
0
41
1
10
-11.1345680915786
20
23.5037645043528
30
0
41
1
10
-11.3146131107252
20
23.5107053328383
30
0
41
1
10
-11.3739188052124
20
23.5131872031446
30
0
41
1
10
-11.4617826957789
20
23.5171398196357
30
0
41
1
10
-11.4909139860094
20
23.5184969051107
30
0
41
1
10
-11.548690092314
20
23.5212781537709
30
0
41
1
10
-11.6915745504052
20
23.5283836560045
30
0
41
1
10
-11.9349352689428
20
23.5424044329511
30
0
41
1
10
-12.1317688860196
20
23.5559372766504
30
0
41
1
10
-12.3186581544296
20
23.5696743005681
30
0
41
1
10
-12.4071325015711
20
23.5766454521324
30
0
41
1
10
-12.5111847229628
20
23.5852786082452
30
0
41
1
10
-12.5316672485766
20
23.5870011677319
30
0
41
1
10
-12.5719645232395
20
23.5904327471602
30
0
41
1
10
-12.5918036439564
20
23.5921439390935
30
0
41
1
10
-12.649958032955
20
23.5972189430162
30
0
41
1
10
-12.6870041217728
20
23.6005318083987
30
0
41
1
10
-12.793029641511
20
23.610202809527
30
0
41
1
10
-12.8569093434489
20
23.6162927534537
30
0
41
1
10
-12.9710489508254
20
23.62747803454
30
0
41
1
10
-13.0213099416692
20
23.6325738325079
30
0
41
1
10
-13.0861551596527
20
23.6392727492728
30
0
41
1
10
-13.1060090734278
20
23.6413483233522
30
0
41
1
10
-13.1330725294575
20
23.6442008161261
30
0
41
1
10
-13.1416405258964
20
23.6451081679137
30
0
41
1
10
-13.1578543559826
20
23.6468317534131
30
0
41
1
10
-13.1654843884349
20
23.6476463125307
30
0
41
1
10
-13.2010817699801
20
23.6514592160886
30
0
41
1
10
-13.2384580344541
20
23.6555336714596
30
0
41
1
10
-13.250048812873
20
23.6568082679386
30
0
41
1
10
-13.2500010276768
20
23.6568035144655
30
0
0
SPLINE
5
174
100
AcDbEntity
8
SK1
62
256
6
ByLayer
370
18
48
1
60
0
100
AcDbSpline
70
4
71
3
72
99
73
95
40
0
40
0
40
0
40
0
40
0.008754902372662
40
0.008754902372662
40
0.0165641371620498
40
0.0165641371620498
40
0.0243733719514377
40
0.0243733719514377
40
0.0556103111089893
40
0.0556103111089893
40
0.0868472502665409
40
0.0868472502665409
40
0.102465719845317
40
0.102465719845317
40
0.110274954634705
40
0.110274954634705
40
0.118084189424093
40
0.118084189424093
40
0.149321128581644
40
0.149321128581644
40
0.180558067739196
40
0.180558067739196
40
0.196176537317971
40
0.196176537317971
40
0.203985772107359
40
0.203985772107359
40
0.211795006896747
40
0.211795006896747
40
0.243031946054298
40
0.243031946054298
40
0.274268885211849
40
0.274268885211849
40
0.289887354790624
40
0.297696589580012
40
0.297696589580012
40
0.3055058243694
40
0.3055058243694
40
0.336742763526951
40
0.336742763526951
40
0.367979702684503
40
0.399216641842055
40
0.399216641842055
40
0.414835111420831
40
0.414835111420831
40
0.430453580999607
40
0.430453580999607
40
0.461690520157158
40
0.492927459314709
40
0.492927459314709
40
0.508545928893485
40
0.516355163682873
40
0.516355163682873
40
0.524164398472261
40
0.524164398472261
40
0.555401337629812
40
0.586638276787363
40
0.617875215944914
40
0.617875215944914
40
0.633493685523689
40
0.633493685523689
40
0.649112155102464
40
0.649112155102464
40
0.680349094260015
40
0.711586033417565
40
0.711586033417565
40
0.742822972575116
40
0.742822972575116
40
0.758441442153891
40
0.758441442153891
40
0.766250676943279
40
0.766250676943279
40
0.774059911732666
40
0.805296850890217
40
0.836533790047767
40
0.836533790047767
40
0.867770729205317
40
0.867770729205317
40
0.875579963994705
40
0.875579963994705
40
0.883389198784092
40
0.883389198784092
40
0.899007668362868
40
0.899007668362868
40
0.930244607520418
40
0.930244607520418
40
0.961481546677968
40
0.961481546677968
40
0.977100016256743
40
0.977100016256743
40
0.984909251046131
40
0.984909251046131
40
0.992718485835518
40
0.992718485835518
40
1
40
1
40
1
40
1
41
1
10
-13.249999919014
20
-23.6568035605108
30
0
41
1
10
-13.2499829225155
20
-23.6568016868542
30
0
41
1
10
-13.2493428205276
20
-23.6567314134663
30
0
41
1
10
-13.2469365039879
20
-23.6564673089888
30
0
41
1
10
-13.2452991642845
20
-23.6562876585973
30
0
41
1
10
-13.2410429449998
20
-23.6558212498927
30
0
41
1
10
-13.238422655649
20
-23.6555343371857
30
0
41
1
10
-13.2228904369507
20
-23.6538365505641
30
0
41
1
10
-13.2027059118385
20
-23.6516353933438
30
0
41
1
10
-13.1472632100579
20
-23.6456924894018
30
0
41
1
10
-13.1120040591079
20
-23.6419504904621
30
0
41
1
10
-13.0477814830663
20
-23.6353053849914
30
0
41
1
10
-13.0244813481594
20
-23.6329185076143
30
0
41
1
10
-12.9866550651022
20
-23.6290978139931
30
0
41
1
10
-12.9735673760034
20
-23.6277843087307
30
0
41
1
10
-12.9465940156617
20
-23.6250971100961
30
0
41
1
10
-12.9326897576672
20
-23.6237215317615
30
0
41
1
10
-12.8611124023998
20
-23.6166960900214
30
0
41
1
10
-12.7972883829372
20
-23.6106036598319
30
0
41
1
10
-12.6570409007133
20
-23.5977871756569
30
0
41
1
10
-12.5806158295878
20
-23.5910625891893
30
0
41
1
10
-12.4566140370219
20
-23.5807407804376
30
0
41
1
10
-12.4137163910493
20
-23.5772611251988
30
0
41
1
10
-12.3470080832681
20
-23.5720144807512
30
0
41
1
10
-12.3243587430964
20
-23.5702596739445
30
0
41
1
10
-12.2785103065266
20
-23.5667647000925
30
0
41
1
10
-12.2552856904667
20
-23.5650224806888
30
0
41
1
10
-12.1376841190669
20
-23.5563507829001
30
0
41
1
10
-12.0388838172258
20
-23.5495398741343
30
0
41
1
10
-11.8322424541654
20
-23.5364971188834
30
0
41
1
10
-11.7244000562005
20
-23.5302647562708
30
0
41
1
10
-11.5559397289975
20
-23.5215939255662
30
0
41
1
10
-11.4700325268677
20
-23.5174279856823
30
0
41
1
10
-11.3815971444373
20
-23.5135634252246
30
0
41
1
10
-11.3220754526997
20
-23.5110593916302
30
0
41
1
10
-11.292040288245
20
-23.5098440427786
30
0
41
1
10
-11.1412090975778
20
-23.5039896941272
30
0
41
1
10
-11.0178624240849
20
-23.4999929024078
30
0
41
1
10
-10.7660399087142
20
-23.4935952418476
30
0
41
1
10
-10.5090870676334
20
-23.4887940776504
30
0
41
1
10
-10.242038690245
20
-23.4876189889922
30
0
41
1
10
-10.0379253701214
20
-23.4882641360031
30
0
41
1
10
-9.96909745915055
20
-23.4887360245954
30
0
41
1
10
-9.83135291982146
20
-23.4902017560846
30
0
41
1
10
-9.76234395534391
20
-23.4911947338096
30
0
41
1
10
-9.5549165798955
20
-23.4949624386458
30
0
41
1
10
-9.27728095010185
20
-23.5020900472767
30
0
41
1
10
-8.9975679369437
20
-23.5135091808747
30
0
41
1
10
-8.78700252968954
20
-23.5237125008811
30
0
41
1
10
-8.68152435641585
20
-23.5292238822118
30
0
41
1
10
-8.57574943133042
20
-23.5353553168573
30
0
41
1
10
-8.50516629236199
20
-23.5395813403766
30
0
41
1
10
-8.46980183964928
20
-23.5417661028801
30
0
41
1
10
-8.29331585260807
20
-23.5530052448837
30
0
41
1
10
-8.01401881209088
20
-23.5729390326172
30
0
41
1
10
-7.60401258929519
20
-23.6082658901943
30
0
41
1
10
-7.3365835574412
20
-23.6351503889625
30
0
41
1
10
-7.13826597722017
20
-23.6564527074369
30
0
41
1
10
-7.07253642101863
20
-23.6637432476213
30
0
41
1
10
-6.9418441646939
20
-23.6786844046452
30
0
41
1
10
-6.87677097778636
20
-23.6863493221285
30
0
41
1
10
-6.68462051554097
20
-23.709619843392
30
0
41
1
10
-6.43547363472476
20
-23.741501597346
30
0
41
1
10
-6.20019551432105
20
-23.7745513711411
30
0
41
1
10
-5.97193167710209
20
-23.8079061106606
30
0
41
1
10
-5.86130586018856
20
-23.824736486798
30
0
41
1
10
-5.70084746445249
20
-23.8499869407451
30
0
41
1
10
-5.64827648052714
20
-23.8584043682081
30
0
41
1
10
-5.57083822625769
20
-23.8710008366057
30
0
41
1
10
-5.54527212997708
20
-23.8751931570183
30
0
41
1
10
-5.49491518416578
20
-23.8835134163765
30
0
41
1
10
-5.37077862375376
20
-23.9041842467823
30
0
41
1
10
-5.162978688686
20
-23.9401092886478
30
0
41
1
10
-5.00050606880195
20
-23.9695954701138
30
0
41
1
10
-4.84949796142111
20
-23.9975184722948
30
0
41
1
10
-4.77972332880707
20
-24.0106992370933
30
0
41
1
10
-4.70013346056197
20
-24.0259579533634
30
0
41
1
10
-4.68459802487293
20
-24.0289486829332
30
0
41
1
10
-4.65430866683162
20
-24.0348014035447
30
0
41
1
10
-4.63961951812659
20
-24.0376508796205
30
0
41
1
10
-4.59697075937376
20
-24.0459525421521
30
0
41
1
10
-4.57040176631843
20
-24.0511632490484
30
0
41
1
10
-4.49623484469878
20
-24.0657907722911
30
0
41
1
10
-4.45416284893422
20
-24.074203866331
30
0
41
1
10
-4.38483973098327
20
-24.0881571163304
30
0
41
1
10
-4.35758717148458
20
-24.0936977199571
30
0
41
1
10
-4.32823260598512
20
-24.0996826801603
30
0
41
1
10
-4.32037224999968
20
-24.101289709509
30
0
41
1
10
-4.31155750899617
20
-24.1030935224463
30
0
41
1
10
-4.30911679194929
20
-24.1035933832659
30
0
41
1
10
-4.30526526658649
20
-24.1043824412738
30
0
41
1
10
-4.30384855157047
20
-24.104672847056
30
0
41
1
10
-4.30208359006565
20
-24.1050346610768
30
0
41
1
10
-4.30166830554867
20
-24.105119665164
30
0
41
1
10
-4.3016867607178
20
-24.1051157474973
30
0
0
SPLINE
5
175
100
AcDbEntity
8
SK1
62
256
6
ByLayer
370
18
48
1
60
0
100
AcDbSpline
70
4
71
3
72
48
73
44
40
0
40
0
40
0
40
0
40
0.124999999999992
40
0.124999999999992
40
0.18749999999999
40
0.18749999999999
40
0.249999999999987
40
0.249999999999987
40
0.374999999999983
40
0.374999999999983
40
0.49999999999998
40
0.49999999999998
40
0.562499999999978
40
0.562499999999978
40
0.593749999999978
40
0.624999999999978
40
0.624999999999978
40
0.687499999999978
40
0.687499999999978
40
0.749999999999979
40
0.749999999999979
40
0.81249999999998
40
0.81249999999998
40
0.84374999999998
40
0.84374999999998
40
0.87499999999998
40
0.87499999999998
40
0.906249999999979
40
0.906249999999979
40
0.921874999999981
40
0.921874999999981
40
0.937499999999983
40
0.937499999999983
40
0.945312499999985
40
0.945312499999985
40
0.953124999999988
40
0.953124999999988
40
0.968749999999992
40
0.984374999999996
40
0.984374999999996
40
0.992187499999998
40
0.992187499999998
40
1
40
1
40
1
40
1
41
1
10
-25.8
20
21.8338164768251
30
0
41
1
10
-25.8
20
21.7915616932458
30
0
41
1
10
-25.8090351025927
20
21.7478886231866
30
0
41
1
10
-25.8346249276201
20
21.6803274915862
30
0
41
1
10
-25.8451736895935
20
21.6574593703769
30
0
41
1
10
-25.8701328331009
20
21.6110688835369
30
0
41
1
10
-25.8844279552089
20
21.5877568927844
30
0
41
1
10
-25.9323193271322
20
21.5174811379225
30
0
41
1
10
-25.9708950458691
20
21.4701766351094
30
0
41
1
10
-26.0597609446709
20
21.3747376968519
30
0
41
1
10
-26.110046951095
20
21.3266019341388
30
0
41
1
10
-26.1937594442119
20
21.2538676785148
30
0
41
1
10
-26.2230510956807
20
21.2295349064355
30
0
41
1
10
-26.2691019693368
20
21.1929233351457
30
0
41
1
10
-26.3005086591081
20
21.1684783027551
30
0
41
1
10
-26.333365133678
20
21.143967917257
30
0
41
1
10
-26.3836133703914
20
21.1072837145488
30
0
41
1
10
-26.4184363723703
20
21.0828939039856
30
0
41
1
10
-26.4910775441697
20
21.0343527408063
30
0
41
1
10
-26.5289288892006
20
21.0101707773758
30
0
41
1
10
-26.6081703997843
20
20.9624296091495
30
0
41
1
10
-26.64952079047
20
20.9388574261358
30
0
41
1
10
-26.7155571452228
20
20.9043825860995
30
0
41
1
10
-26.7381850495635
20
20.8930763850153
30
0
41
1
10
-26.7849643407706
20
20.8710565078676
30
0
41
1
10
-26.8091240203117
20
20.8603320584472
30
0
41
1
10
-26.8596629929598
20
20.8397526331818
30
0
41
1
10
-26.8860248460639
20
20.8298902068594
30
0
41
1
10
-26.9281901973078
20
20.8161652083245
30
0
41
1
10
-26.9425890117265
20
20.8118063042743
30
0
41
1
10
-26.9720526096038
20
20.8036833762741
30
0
41
1
10
-26.9871413088019
20
20.7999110001801
30
0
41
1
10
-27.0104414007835
20
20.7947971843858
30
0
41
1
10
-27.0183196500098
20
20.793183683286
30
0
41
1
10
-27.034326472393
20
20.7901617507431
30
0
41
1
10
-27.0424360016077
20
20.7887581757635
30
0
41
1
10
-27.0667844525407
20
20.7849461963152
30
0
41
1
10
-27.0995297022306
20
20.7808835265937
30
0
41
1
10
-27.1328814273506
20
20.7790296636822
30
0
41
1
10
-27.1581348648263
20
20.778512286374
30
0
41
1
10
-27.1666027794188
20
20.7784864100351
30
0
41
1
10
-27.1833765602225
20
20.7787216300466
30
0
41
1
10
-27.1917124319091
20
20.7789815897089
30
0
41
1
10
-27.2000000000002
20
20.7793761248439
30
0
0
SPLINE
5
176
100
AcDbEntity
8
SK1
62
256
6
ByLayer
370
18
48
1
60
0
100
AcDbSpline
70
4
71
3
72
16
73
12
40
0
40
0
40
0
40
0
40
0.125
40
0.125
40
0.25
40
0.25
40
0.5
40
0.5
40
0.75
40
0.75
40
1
40
1
40
1
40
1
41
1
10
-27.2
20
20.7793761248443
30
0
41
1
10
-27.3465084698194
20
20.7863507570031
30
0
41
1
10
-27.4933392699914
20
20.7923486729087
30
0
41
1
10
-27.7874608578071
20
20.802953191561
30
0
41
1
10
-27.9347534171159
20
20.8075544018737
30
0
41
1
10
-28.3771606131416
20
20.8197595020288
30
0
41
1
10
-28.6727964488951
20
20.8257901832184
30
0
41
1
10
-29.264977484348
20
20.8351189775666
30
0
41
1
10
-29.5615294983986
20
20.8383963493072
30
0
41
1
10
-30.1552999785087
20
20.8429579941978
30
0
41
1
10
-30.4525208480587
20
20.8442349515107
30
0
41
1
10
-30.75
20
20.8447435124634
30
0
0
SPLINE
5
177
100
AcDbEntity
8
SK1
62
256
6
ByLayer
370
18
48
1
60
0
100
AcDbSpline
70
4
71
3
72
8
73
4
40
0
40
0
40
0
40
0
40
1
40
1
40
1
40
1
41
1
10
-30.7600449304189
20
20.8343104848551
30
0
41
1
10
-30.7567195771121
20
20.8377949233395
30
0
41
1
10
-30.7533711052715
20
20.8412726012232
30
0
41
1
10
-30.7500000000001
20
20.8447435124634
30
0
0
SPLINE
5
178
100
AcDbEntity
8
SK1
62
256
6
ByLayer
370
18
48
1
60
0
100
AcDbSpline
70
4
71
3
72
8
73
4
40
0
40
0
40
0
40
0
40
1
40
1
40
1
40
1
41
1
10
-30.7600449304182
20
-20.7759355648241
30
0
41
1
10
-30.7414872158135
20
-20.7986984205294
30
0
41
1
10
-30.7218522549563
20
-20.8211767365991
30
0
41
1
10
-30.70125
20
-20.8433892377956
30
0
0
SPLINE
5
179
100
AcDbEntity
8
SK1
62
256
6
ByLayer
370
18
48
1
60
0
100
AcDbSpline
70
4
71
3
72
44
73
40
40
0
40
0
40
0
40
0
40
0.0078125000000005
40
0.0078125000000005
40
0.015625000000001
40
0.015625000000001
40
0.0234375000000015
40
0.0234375000000015
40
0.0312500000000019
40
0.0312500000000019
40
0.0468750000000036
40
0.0468750000000036
40
0.0546875000000046
40
0.0546875000000046
40
0.0625000000000057
40
0.0625000000000057
40
0.0781250000000061
40
0.0781250000000061
40
0.0937500000000064
40
0.0937500000000064
40
0.125000000000007
40
0.125000000000007
40
0.156250000000008
40
0.156250000000008
40
0.187500000000008
40
0.187500000000008
40
0.250000000000007
40
0.250000000000007
40
0.312500000000007
40
0.312500000000007
40
0.375000000000006
40
0.375000000000006
40
0.500000000000004
40
0.500000000000004
40
0.625000000000003
40
0.625000000000003
40
0.750000000000001
40
0.750000000000001
40
1
40
1
40
1
40
1
41
1
10
-25.9833434997483
20
-20.5310987896625
30
0
41
1
10
-25.9828031618321
20
-20.5371610287379
30
0
41
1
10
-25.9838914660092
20
-20.5430390572782
30
0
41
1
10
-25.9890236323278
20
-20.5544608237057
30
0
41
1
10
-25.9931333824194
20
-20.5600445157079
30
0
41
1
10
-26.0035108983182
20
-20.570466360711
30
0
41
1
10
-26.0097833008974
20
-20.5753670073322
30
0
41
1
10
-26.0240019197852
20
-20.5846890574359
30
0
41
1
10
-26.0319777000088
20
-20.5891158507172
30
0
41
1
10
-26.0572642628517
20
-20.6015324498899
30
0
41
1
10
-26.0760833795908
20
-20.608812761582
30
0
41
1
10
-26.1060653331201
20
-20.6188417181555
30
0
41
1
10
-26.1163855034072
20
-20.6220371989385
30
0
41
1
10
-26.1374112205772
20
-20.6281446385723
30
0
41
1
10
-26.1480862607682
20
-20.6310487657607
30
0
41
1
10
-26.1805020443379
20
-20.63940082494
30
0
41
1
10
-26.2026285707413
20
-20.644492936512
30
0
41
1
10
-26.2475993651114
20
-20.6540152319346
30
0
41
1
10
-26.2704469285868
20
-20.658442375573
30
0
41
1
10
-26.3398016510718
20
-20.670975007827
30
0
41
1
10
-26.3871071994477
20
-20.6783442839643
30
0
41
1
10
-26.4830721960951
20
-20.691834730802
30
0
41
1
10
-26.5318115234253
20
-20.6979517553182
30
0
41
1
10
-26.6296273769645
20
-20.7092210665845
30
0
41
1
10
-26.6787817533781
20
-20.7143814426966
30
0
41
1
10
-26.8267903169711
20
-20.7288132962961
30
0
41
1
10
-26.9261804508359
20
-20.7370537763177
30
0
41
1
10
-27.1258560688841
20
-20.7518138357002
30
0
41
1
10
-27.2261500148117
20
-20.7583171143809
30
0
41
1
10
-27.4273774831828
20
-20.7700955230179
30
0
41
1
10
-27.5283138087647
20
-20.7753652529667
30
0
41
1
10
-27.8318508313424
20
-20.7897778683561
30
0
41
1
10
-28.0351676379406
20
-20.7975471747097
30
0
41
1
10
-28.4430293749968
20
-20.8107359004727
30
0
41
1
10
-28.6476200301024
20
-20.8161361676979
30
0
41
1
10
-29.0571977039526
20
-20.8252283040693
30
0
41
1
10
-29.2622565030358
20
-20.8289159475481
30
0
41
1
10
-29.8780477589523
20
-20.838029987814
30
0
41
1
10
-30.2893853411833
20
-20.841538754625
30
0
41
1
10
-30.7012499999991
20
-20.8433892377983
30
0
0
SPLINE
5
17A
100
AcDbEntity
8
SK1
62
256
6
ByLayer
370
18
48
1
60
0
100
AcDbSpline
70
4
71
3
72
40
73
36
40
0
40
0
40
0
40
0
40
0.124999999999998
40
0.124999999999998
40
0.249999999999996
40
0.249999999999996
40
0.312499999999996
40
0.312499999999996
40
0.374999999999996
40
0.374999999999996
40
0.499999999999996
40
0.499999999999996
40
0.562499999999995
40
0.562499999999995
40
0.624999999999994
40
0.624999999999994
40
0.656249999999993
40
0.656249999999993
40
0.687499999999993
40
0.687499999999993
40
0.749999999999995
40
0.749999999999995
40
0.781249999999996
40
0.781249999999996
40
0.812499999999997
40
0.812499999999997
40
0.875
40
0.875
40
0.906250000000001
40
0.906250000000001
40
0.921875
40
0.921875
40
0.9375
40
0.9375
40
1
40
1
40
1
40
1
41
1
10
-23.2
20
-19.3576886388616
30
0
41
1
10
-23.3511498698863
20
-19.3890583558383
30
0
41
1
10
-23.5011417738728
20
-19.4214450221737
30
0
41
1
10
-23.7982575980832
20
-19.4887370768967
30
0
41
1
10
-23.9453860922001
20
-19.523638448398
30
0
41
1
10
-24.163327784184
20
-19.578406533368
30
0
41
1
10
-24.2355141475595
20
-19.5970673047765
30
0
41
1
10
-24.3788251046805
20
-19.6353213154184
30
0
41
1
10
-24.4498886068505
20
-19.6548990190741
30
0
41
1
10
-24.6605180310532
20
-19.7150509364067
30
0
41
1
10
-24.7977509432142
20
-19.7570664709182
30
0
41
1
10
-24.9969552111742
20
-19.824081491123
30
0
41
1
10
-25.0622401051567
20
-19.8470905310894
30
0
41
1
10
-25.190096010075
20
-19.8947388433041
30
0
41
1
10
-25.2526702413815
20
-19.9193761810724
30
0
41
1
10
-25.3439908091236
20
-19.9578584363622
30
0
41
1
10
-25.374005721696
20
-19.9709413189196
30
0
41
1
10
-25.4330711781515
20
-19.9976863812779
30
0
41
1
10
-25.4621594165358
20
-20.0113684764033
30
0
41
1
10
-25.5471770614401
20
-20.0531112354523
30
0
41
1
10
-25.601039812909
20
-20.0819298668878
30
0
41
1
10
-25.6764945943256
20
-20.1270353799491
30
0
41
1
10
-25.7007521766218
20
-20.1423849275989
30
0
41
1
10
-25.7472269417681
20
-20.1738015236171
30
0
41
1
10
-25.7694641654582
20
-20.1898835451224
30
0
41
1
10
-25.8325202493384
20
-20.2392776407827
30
0
41
1
10
-25.8690266895948
20
-20.2731985289795
30
0
41
1
10
-25.9137039563342
20
-20.3258872551724
30
0
41
1
10
-25.9269103792574
20
-20.3437524001575
30
0
41
1
10
-25.9439039253819
20
-20.3710549363236
30
0
41
1
10
-25.9490985759967
20
-20.3802400107883
30
0
41
1
10
-25.9584932970339
20
-20.3987884505316
30
0
41
1
10
-25.9626968383487
20
-20.4081671310454
30
0
41
1
10
-25.9809200317922
20
-20.4550640119658
30
0
41
1
10
-25.9867474411681
20
-20.4929087866349
30
0
41
1
10
-25.9833434997533
20
-20.5310987896624
30
0
0
SPLINE
5
17B
100
AcDbEntity
8
SK1
62
256
6
ByLayer
370
18
48
1
60
0
100
AcDbSpline
70
4
71
3
72
49
73
45
40
0
40
0
40
0
40
0
40
0.0156250000000019
40
0.0156250000000019
40
0.0234375000000026
40
0.0234375000000026
40
0.0312500000000034
40
0.0390625000000042
40
0.0390625000000042
40
0.046875000000005
40
0.046875000000005
40
0.0625000000000069
40
0.0625000000000069
40
0.0703125000000074
40
0.0703125000000074
40
0.0781250000000079
40
0.0781250000000079
40
0.0937500000000062
40
0.0937500000000062
40
0.125000000000005
40
0.125000000000005
40
0.156250000000004
40
0.156250000000004
40
0.187500000000003
40
0.187500000000003
40
0.218750000000002
40
0.218750000000002
40
0.250000000000001
40
0.250000000000001
40
0.312500000000002
40
0.312500000000002
40
0.375000000000002
40
0.375000000000002
40
0.500000000000003
40
0.500000000000003
40
0.625000000000003
40
0.625000000000003
40
0.687500000000003
40
0.687500000000003
40
0.750000000000002
40
0.750000000000002
40
0.875000000000001
40
0.875000000000001
40
1
40
1
40
1
40
1
41
1
10
-23.2
20
-19.3576886388616
30
0
41
1
10
-23.1861263738957
20
-19.3548092998013
30
0
41
1
10
-23.1718181484693
20
-19.3528767085846
30
0
41
1
10
-23.1495705820266
20
-19.3516938538781
30
0
41
1
10
-23.1419558829897
20
-19.3515894557491
30
0
41
1
10
-23.1267710245218
20
-19.3520086897378
30
0
41
1
10
-23.1117483110011
20
-19.3530404980297
30
0
41
1
10
-23.0970313418169
20
-19.3552271920327
30
0
41
1
10
-23.0824594197307
20
-19.3579614028982
30
0
41
1
10
-23.0751972475898
20
-19.3596174805655
30
0
41
1
10
-23.0541683727242
20
-19.3652090302266
30
0
41
1
10
-23.0410262338589
20
-19.3697655727581
30
0
41
1
10
-23.0222759824085
20
-19.3775054232738
30
0
41
1
10
-23.0161653761048
20
-19.3802498027787
30
0
41
1
10
-23.0043574985133
20
-19.3859430363917
30
0
41
1
10
-22.9986643953669
20
-19.3888875401978
30
0
41
1
10
-22.9821128438073
20
-19.3979646717983
30
0
41
1
10
-22.9717769671596
20
-19.4043384554672
30
0
41
1
10
-22.9423174354007
20
-19.4241644263844
30
0
41
1
10
-22.9246416181742
20
-19.4383911219556
30
0
41
1
10
-22.892600097543
20
-19.4672649986399
30
0
41
1
10
-22.8781266650963
20
-19.4820005787685
30
0
41
1
10
-22.851228655901
20
-19.5118342507332
30
0
41
1
10
-22.8388186769919
20
-19.5269355647498
30
0
41
1
10
-22.8155229034175
20
-19.5573815302704
30
0
41
1
10
-22.8046422524309
20
-19.5727273210934
30
0
41
1
10
-22.7840801449199
20
-19.6035876399791
30
0
41
1
10
-22.7743855330712
20
-19.6191299705533
30
0
41
1
10
-22.7469250060528
20
-19.665672829262
30
0
41
1
10
-22.7307289881771
20
-19.6966163680467
30
0
41
1
10
-22.7012516700928
20
-19.7582643050007
30
0
41
1
10
-22.6879871624015
20
-19.7889695419303
30
0
41
1
10
-22.6515479659094
20
-19.8806706152634
30
0
41
1
10
-22.6316754243823
20
-19.9412491153106
30
0
41
1
10
-22.5979028786882
20
-20.0611279854318
30
0
41
1
10
-22.5840501695142
20
-20.1204308083457
30
0
41
1
10
-22.5668031549043
20
-20.2083628349196
30
0
41
1
10
-22.5616502875565
20
-20.2375035213653
30
0
41
1
10
-22.5524349659652
20
-20.2954370752345
30
0
41
1
10
-22.548371267677
20
-20.3242435514416
30
0
41
1
10
-22.5377232568456
20
-20.4100032899887
30
0
41
1
10
-22.5326683781548
20
-20.466306627596
30
0
41
1
10
-22.5262727782788
20
-20.5771821268187
30
0
41
1
10
-22.5249342246094
20
-20.6317542356374
30
0
41
1
10
-22.5254125626117
20
-20.6854597771061
30
0
0
SPLINE
5
17C
100
AcDbEntity
8
SK1
62
256
6
ByLayer
370
18
48
1
60
0
100
AcDbSpline
70
4
71
3
72
34
73
30
40
0
40
0
40
0
40
0
40
0.0156249999999988
40
0.0156249999999988
40
0.0312499999999976
40
0.0312499999999976
40
0.0624999999999982
40
0.0624999999999982
40
0.124999999999998
40
0.124999999999998
40
0.187499999999998
40
0.187499999999998
40
0.249999999999997
40
0.249999999999997
40
0.312499999999997
40
0.312499999999997
40
0.374999999999997
40
0.374999999999997
40
0.499999999999998
40
0.499999999999998
40
0.624999999999998
40
0.624999999999998
40
0.749999999999999
40
0.749999999999999
40
0.875
40
0.875
40
0.9375
40
0.9375
40
1
40
1
40
1
40
1
41
1
10
-22.5254125626117
20
-20.6854597771061
30
0
41
1
10
-22.5254818561565
20
-20.693239730462
30
0
41
1
10
-22.5252982329914
20
-20.701030296257
30
0
41
1
10
-22.524420671904
20
-20.7166327083332
30
0
41
1
10
-22.5237250932907
20
-20.7244502363172
30
0
41
1
10
-22.5209000969644
20
-20.747767805989
30
0
41
1
10
-22.5180297482888
20
-20.7631868009728
30
0
41
1
10
-22.5067325290341
20
-20.8090891347931
30
0
41
1
10
-22.4956150185209
20
-20.8392180280166
30
0
41
1
10
-22.4680447309115
20
-20.898667067811
30
0
41
1
10
-22.4516075368503
20
-20.9279880443385
30
0
41
1
10
-22.4152303797028
20
-20.9859439034447
30
0
41
1
10
-22.3952943205214
20
-21.0145788913852
30
0
41
1
10
-22.3534119707754
20
-21.0712552493652
30
0
41
1
10
-22.3314622748996
20
-21.0992988730573
30
0
41
1
10
-22.2867010042882
20
-21.1548464157621
30
0
41
1
10
-22.26389101687
20
-21.1823452339534
30
0
41
1
10
-22.1954619614247
20
-21.2640966679273
30
0
41
1
10
-22.1499039898424
20
-21.3176097368587
30
0
41
1
10
-22.06361977863
20
-21.4228949886009
30
0
41
1
10
-22.0228509469915
20
-21.474663985663
30
0
41
1
10
-21.949292032711
20
-21.5765464925676
30
0
41
1
10
-21.9164767448842
20
-21.6266585089867
30
0
41
1
10
-21.8615121435874
20
-21.7252402036645
30
0
41
1
10
-21.8393398492877
20
-21.773709088945
30
0
41
1
10
-21.8162516997397
20
-21.8451596337885
30
0
41
1
10
-21.8102527530668
20
-21.8687756249295
30
0
41
1
10
-21.8021075898157
20
-21.9155505663053
30
0
41
1
10
-21.7999999999999
20
-21.9384913426184
30
0
41
1
10
-21.7999999999999
20
-21.9609792783774
30
0
0
LINE
5
84
100
AcDbEntity
8
80
62
256
6
ByLayer
370
18
48
1
60
0
100
AcDbLine
10
0
20
0
30
0
11
-5
21
0
31
0
39
0
210
0
220
0
230
1
0
LINE
5
85
100
AcDbEntity
8
4
62
256
6
ByLayer
370
18
48
0.05
60
0
100
AcDbLine
10
0
20
0
30
0
11
80
21
0
31
0
39
0
210
0
220
0
230
1
0
LINE
5
87
100
AcDbEntity
8
81
62
256
6
ByLayer
370
18
48
1
60
0
100
AcDbLine
10
80
20
0
30
0
11
85
21
0
31
0
39
0
210
0
220
0
230
1
0
LINE
5
88
100
AcDbEntity
8
1
62
256
6
ByLayer
370
13
48
1
60
0
100
AcDbLine
10
27.624598
20
-19.8
30
0
11
27.624598
21
19.8
31
0
39
0
210
0
220
0
230
1
0
LINE
5
8A
100
AcDbEntity
8
1
62
256
6
ByLayer
370
18
48
1
60
0
100
AcDbLine
10
25.45
20
30.431572
30
0
11
21.374612
21
30.431572
31
0
39
0
210
0
220
0
230
1
0
LINE
5
8B
100
AcDbEntity
8
1
62
256
6
ByLayer
370
18
48
1
60
0
100
AcDbLine
10
16.075
20
19.85
30
0
11
16.075
21
21.08584
31
0
39
0
210
0
220
0
230
1
0
LINE
5
8C
100
AcDbEntity
8
1
62
256
6
ByLayer
370
18
48
1
60
0
100
AcDbLine
10
25.95
20
19.85
30
0
11
25.95
21
23.772219
31
0
39
0
210
0
220
0
230
1
0
LINE
5
8D
100
AcDbEntity
8
1
62
256
6
ByLayer
370
18
48
1
60
0
100
AcDbLine
10
19.925
20
21.08584
30
0
11
19.925
21
19.85
31
0
39
0
210
0
220
0
230
1
0
LINE
5
8E
100
AcDbEntity
8
1
62
256
6
ByLayer
370
18
48
1
60
0
100
AcDbLine
10
25.45
20
24.420041
30
0
11
21.374612
21
24.420041
31
0
39
0
210
0
220
0
230
1
0
LINE
5
8F
100
AcDbEntity
8
1
62
256
6
ByLayer
370
18
48
1
60
0
100
AcDbLine
10
16.075
20
27.827232
30
0
11
16.075
21
21.08584
31
0
39
0
210
0
220
0
230
1
0
LINE
5
90
100
AcDbEntity
8
1
62
256
6
ByLayer
370
18
48
1
60
0
100
AcDbLine
10
25.95
20
29.914221
30
0
11
25.95
21
23.772219
31
0
39
0
210
0
220
0
230
1
0
LINE
5
91
100
AcDbEntity
8
1
62
256
6
ByLayer
370
18
48
1
60
0
100
AcDbLine
10
25.45
20
24.420041
30
0
11
25.45
21
30.431572
31
0
39
0
210
0
220
0
230
1
0
LINE
5
92
100
AcDbEntity
8
1
62
256
6
ByLayer
370
18
48
1
60
0
100
AcDbLine
10
19.925
20
27.827232
30
0
11
19.925
21
21.08584
31
0
39
0
210
0
220
0
230
1
0
LINE
5
93
100
AcDbEntity
8
1
62
256
6
ByLayer
370
18
48
1
60
0
100
AcDbLine
10
21.374612
20
30.431572
30
0
11
21.374612
21
24.420041
31
0
39
0
210
0
220
0
230
1
0
LINE
5
94
100
AcDbEntity
8
1
62
256
6
ByLayer
370
13
48
1
60
0
100
AcDbLine
10
27.77989
20
-19.820445
30
0
11
27.77989
21
19.820445
31
0
39
0
210
0
220
0
230
1
0
LINE
5
95
100
AcDbEntity
8
1
62
256
6
ByLayer
370
18
48
1
60
0
100
AcDbLine
10
28.45
20
20
30
0
11
28.45
21
-20
31
0
39
0
210
0
220
0
230
1
0
LINE
5
96
100
AcDbEntity
8
1
62
256
6
ByLayer
370
18
48
1
60
0
100
AcDbLine
10
78
20
-20
30
0
11
78
21
20
31
0
39
0
210
0
220
0
230
1
0
LINE
5
97
100
AcDbEntity
8
1
62
256
6
ByLayer
370
18
48
1
60
0
100
AcDbLine
10
80
20
18
30
0
11
80
21
-18
31
0
39
0
210
0
220
0
230
1
0
LINE
5
98
100
AcDbEntity
8
1
62
256
6
ByLayer
370
13
48
1
60
0
100
AcDbLine
10
26.95
20
-19.8
30
0
11
26.95
21
19.8
31
0
39
0
210
0
220
0
230
1
0
LINE
5
99
100
AcDbEntity
8
1
62
256
6
ByLayer
370
18
48
1
60
0
100
AcDbLine
10
19.525
20
26.4
30
0
11
16.475
21
26.4
31
0
39
0
210
0
220
0
230
1
0
LINE
5
9A
100
AcDbEntity
8
1
62
256
6
ByLayer
370
18
48
1
60
0
100
AcDbLine
10
19.525
20
-26.4
30
0
11
16.475
21
-26.4
31
0
39
0
210
0
220
0
230
1
0
LINE
5
9B
100
AcDbEntity
8
1
62
256
6
ByLayer
370
13
48
1
60
0
100
AcDbLine
10
12.19562
20
24.420041
30
0
11
12.19562
21
19.85
31
0
39
0
210
0
220
0
230
1
0
LINE
5
9C
100
AcDbEntity
8
1
62
256
6
ByLayer
370
13
48
1
60
0
100
AcDbLine
10
16.475
20
-17.583481
30
0
11
16.475
21
-26.4
31
0
39
0
210
0
220
0
230
1
0
LINE
5
9D
100
AcDbEntity
8
1
62
256
6
ByLayer
370
13
48
1
60
0
100
AcDbLine
10
16.475
20
-12.169258
30
0
11
16.475
21
-16.230601
31
0
39
0
210
0
220
0
230
1
0
LINE
5
9E
100
AcDbEntity
8
1
62
256
6
ByLayer
370
13
48
1
60
0
100
AcDbLine
10
16.475
20
-6.082561
30
0
11
16.475
21
-10.607011
31
0
39
0
210
0
220
0
230
1
0
LINE
5
9F
100
AcDbEntity
8
1
62
256
6
ByLayer
370
13
48
1
60
0
100
AcDbLine
10
16.475
20
4.397275
30
0
11
16.475
21
-4.397275
31
0
39
0
210
0
220
0
230
1
0
LINE
5
A0
100
AcDbEntity
8
1
62
256
6
ByLayer
370
13
48
1
60
0
100
AcDbLine
10
16.475
20
10.607011
30
0
11
16.475
21
6.082561
31
0
39
0
210
0
220
0
230
1
0
LINE
5
A1
100
AcDbEntity
8
1
62
256
6
ByLayer
370
13
48
1
60
0
100
AcDbLine
10
16.475
20
16.230601
30
0
11
16.475
21
12.169258
31
0
39
0
210
0
220
0
230
1
0
LINE
5
A2
100
AcDbEntity
8
1
62
256
6
ByLayer
370
13
48
1
60
0
100
AcDbLine
10
16.475
20
26.4
30
0
11
16.475
21
17.583481
31
0
39
0
210
0
220
0
230
1
0
LINE
5
A3
100
AcDbEntity
8
1
62
256
6
ByLayer
370
13
48
1
60
0
100
AcDbLine
10
19.525
20
26.4
30
0
11
19.525
21
17.583481
31
0
39
0
210
0
220
0
230
1
0
LINE
5
A4
100
AcDbEntity
8
1
62
256
6
ByLayer
370
13
48
1
60
0
100
AcDbLine
10
19.525
20
16.230601
30
0
11
19.525
21
12.169258
31
0
39
0
210
0
220
0
230
1
0
LINE
5
A5
100
AcDbEntity
8
1
62
256
6
ByLayer
370
13
48
1
60
0
100
AcDbLine
10
19.525
20
10.607011
30
0
11
19.525
21
6.082561
31
0
39
0
210
0
220
0
230
1
0
LINE
5
A6
100
AcDbEntity
8
1
62
256
6
ByLayer
370
13
48
1
60
0
100
AcDbLine
10
19.525
20
4.397275
30
0
11
19.525
21
-4.397275
31
0
39
0
210
0
220
0
230
1
0
LINE
5
A7
100
AcDbEntity
8
1
62
256
6
ByLayer
370
13
48
1
60
0
100
AcDbLine
10
19.525
20
-6.082561
30
0
11
19.525
21
-10.607011
31
0
39
0
210
0
220
0
230
1
0
LINE
5
A8
100
AcDbEntity
8
1
62
256
6
ByLayer
370
13
48
1
60
0
100
AcDbLine
10
19.525
20
-12.169258
30
0
11
19.525
21
-16.230601
31
0
39
0
210
0
220
0
230
1
0
LINE
5
A9
100
AcDbEntity
8
1
62
256
6
ByLayer
370
13
48
1
60
0
100
AcDbLine
10
19.525
20
-17.583481
30
0
11
19.525
21
-26.4
31
0
39
0
210
0
220
0
230
1
0
LINE
5
AA
100
AcDbEntity
8
1
62
256
6
ByLayer
370
18
48
1
60
0
100
AcDbLine
10
25.45
20
-30.150383
30
0
11
21.374612
21
-30.150383
31
0
39
0
210
0
220
0
230
1
0
LINE
5
AB
100
AcDbEntity
8
1
62
256
6
ByLayer
370
18
48
1
60
0
100
AcDbLine
10
25.45
20
19.85
30
0
11
21.374612
21
19.85
31
0
39
0
210
0
220
0
230
1
0
LINE
5
AC
100
AcDbEntity
8
1
62
256
6
ByLayer
370
18
48
1
60
0
100
AcDbLine
10
21.374612
20
19.85
30
0
11
21.374612
21
-30.150383
31
0
39
0
210
0
220
0
230
1
0
LINE
5
AD
100
AcDbEntity
8
1
62
256
6
ByLayer
370
18
48
1
60
0
100
AcDbLine
10
19.925
20
19.85
30
0
11
19.925
21
-27.519445
31
0
39
0
210
0
220
0
230
1
0
LINE
5
AE
100
AcDbEntity
8
1
62
256
6
ByLayer
370
18
48
1
60
0
100
AcDbLine
10
25.95
20
19.85
30
0
11
25.95
21
-29.628122
31
0
39
0
210
0
220
0
230
1
0
LINE
5
AF
100
AcDbEntity
8
1
62
256
6
ByLayer
370
18
48
1
60
0
100
AcDbLine
10
25.45
20
-30.150383
30
0
11
25.45
21
19.85
31
0
39
0
210
0
220
0
230
1
0
LINE
5
B0
100
AcDbEntity
8
1
62
256
6
ByLayer
370
18
48
1
60
0
100
AcDbLine
10
0
20
-30.97
30
0
11
0
21
30.97
31
0
39
0
210
0
220
0
230
1
0
LINE
5
B1
100
AcDbEntity
8
1
62
256
6
ByLayer
370
18
48
1
60
0
100
AcDbLine
10
16.075
20
19.85
30
0
11
16.075
21
-27.519445
31
0
39
0
210
0
220
0
230
1
0
LINE
5
B2
100
AcDbEntity
8
1
62
256
6
ByLayer
370
18
48
1
60
0
100
AcDbLine
10
0.5
20
-31.47
30
0
11
0.5
21
31.47
31
0
39
0
210
0
220
0
230
1
0
LINE
5
B3
100
AcDbEntity
8
1
62
256
6
ByLayer
370
18
48
1
60
0
100
AcDbLine
10
4.95
20
-31.453547
30
0
11
4.95
21
-31.47
31
0
39
0
210
0
220
0
230
1
0
LINE
5
B4
100
AcDbEntity
8
1
62
256
6
ByLayer
370
18
48
1
60
0
100
AcDbLine
10
14.625388
20
-30.150383
30
0
11
12.95
21
-30.150383
31
0
39
0
210
0
220
0
230
1
0
LINE
5
B5
100
AcDbEntity
8
1
62
256
6
ByLayer
370
18
48
1
60
0
100
AcDbLine
10
14.625388
20
-30.150383
30
0
11
14.625388
21
19.85
31
0
39
0
210
0
220
0
230
1
0
LINE
5
B6
100
AcDbEntity
8
1
62
256
6
ByLayer
370
18
48
1
60
0
100
AcDbLine
10
14.625388
20
19.85
30
0
11
4.968215
21
19.85
31
0
39
0
210
0
220
0
230
1
0
LINE
5
B7
100
AcDbEntity
8
1
62
256
6
ByLayer
370
18
48
1
60
0
100
AcDbLine
10
14.625388
20
24.420041
30
0
11
12.19562
21
24.420041
31
0
39
0
210
0
220
0
230
1
0
LINE
5
B8
100
AcDbEntity
8
1
62
256
6
ByLayer
370
18
48
1
60
0
100
AcDbLine
10
14.625388
20
24.420041
30
0
11
14.625388
21
30.431572
31
0
39
0
210
0
220
0
230
1
0
LINE
5
B9
100
AcDbEntity
8
1
62
256
6
ByLayer
370
18
48
1
60
0
100
AcDbLine
10
14.625388
20
30.431572
30
0
11
12.95
21
30.431572
31
0
39
0
210
0
220
0
230
1
0
LINE
5
BA
100
AcDbEntity
8
SK1
62
256
6
ByLayer
370
13
48
1
60
0
100
AcDbLine
10
-27.2
20
20.845
30
0
11
-27.2
21
20.779376
31
0
39
0
210
0
220
0
230
1
0
LINE
5
BC
100
AcDbEntity
8
SK1
62
256
6
ByLayer
370
18
48
1
60
0
100
AcDbLine
10
-30.75
20
20.845
30
0
11
-30.75
21
20.844744
31
0
39
0
210
0
220
0
230
1
0
LINE
5
BD
100
AcDbEntity
8
SK1
62
256
6
ByLayer
370
18
48
1
60
0
100
AcDbLine
10
-30.70125
20
-20.845
30
0
11
-30.70125
21
-20.843389
31
0
39
0
210
0
220
0
230
1
0
LINE
5
BE
100
AcDbEntity
8
SK1
62
256
6
ByLayer
370
13
48
1
60
0
100
AcDbLine
10
-23.2
20
-20.531099
30
0
11
-23.2
21
-20.845
31
0
39
0
210
0
220
0
230
1
0
LINE
5
BF
100
AcDbEntity
8
SK1
62
256
6
ByLayer
370
13
48
1
60
0
100
AcDbLine
10
-23.2
20
-20.531099
30
0
11
-25.983343
21
-20.531099
31
0
39
0
210
0
220
0
230
1
0
LINE
5
C0
100
AcDbEntity
8
SK1
62
256
6
ByLayer
370
13
48
1
60
0
100
AcDbLine
10
-23.2
20
-20.531099
30
0
11
-23.2
21
-19.357689
31
0
39
0
210
0
220
0
230
1
0
LINE
5
C1
100
AcDbEntity
8
SK1
62
256
6
ByLayer
370
13
48
1
60
0
100
AcDbLine
10
-31.842316
20
19.557838
30
0
11
-31.06758
21
20.248133
31
0
39
0
210
0
220
0
230
1
0
LINE
5
C2
100
AcDbEntity
8
SK1
62
256
6
ByLayer
370
13
48
1
60
0
100
AcDbLine
10
-31.869281
20
-19.490376
30
0
11
-30.96978
21
-20.291837
31
0
39
0
210
0
220
0
230
1
0
LINE
5
C3
100
AcDbEntity
8
SK1
62
256
6
ByLayer
370
18
48
1
60
0
100
AcDbLine
10
-31.9
20
-19.639143
30
0
11
-31.9
21
19.672662
31
0
39
0
210
0
220
0
230
1
0
LINE
5
C4
100
AcDbEntity
8
SK1
62
256
6
ByLayer
370
13
48
1
60
0
100
AcDbLine
10
-0.45
20
-23.970431
30
0
11
-0.45
21
23.970431
31
0
39
0
210
0
220
0
230
1
0
LINE
5
C5
100
AcDbEntity
8
SK1
62
256
6
ByLayer
370
18
48
1
60
0
100
AcDbLine
10
-1.566987
20
-23.970431
30
0
11
-1.566987
21
23.970431
31
0
39
0
210
0
220
0
230
1
0
LINE
5
C6
100
AcDbEntity
8
SK1
62
256
6
ByLayer
370
18
48
1
60
0
100
AcDbLine
10
-2
20
-24.220431
30
0
11
-2
21
24.220431
31
0
39
0
210
0
220
0
230
1
0
LINE
5
C7
100
AcDbEntity
8
SK1
62
256
6
ByLayer
370
18
48
1
60
0
100
AcDbLine
10
-25.8
20
21.833816
30
0
11
-25.8
21
23.028046
31
0
39
0
210
0
220
0
230
1
0
LINE
5
C8
100
AcDbEntity
8
SK1
62
256
6
ByLayer
370
13
48
1
60
0
100
AcDbLine
10
-30.760045
20
20.83431
30
0
11
-30.760045
21
-20.775936
31
0
39
0
210
0
220
0
230
1
0
LINE
5
C9
100
AcDbEntity
8
SK1
62
256
6
ByLayer
370
18
48
1
60
0
100
AcDbLine
10
-21.8
20
-23.228447
30
0
11
-21.8
21
-21.960979
31
0
39
0
210
0
220
0
230
1
0
LINE
5
CA
100
AcDbEntity
8
1
62
256
6
ByLayer
370
18
48
1
60
0
100
AcDbLine
10
27.624598
20
19.8
30
0
11
26.95
21
19.8
31
0
39
0
210
0
220
0
230
1
0
LINE
5
CB
100
AcDbEntity
8
1
62
256
6
ByLayer
370
18
48
1
60
0
100
AcDbLine
10
26.95
20
-19.8
30
0
11
27.624598
21
-19.8
31
0
39
0
210
0
220
0
230
1
0
LINE
5
CC
100
AcDbEntity
8
1
62
256
6
ByLayer
370
18
48
1
60
0
100
AcDbLine
10
27.77989
20
-19.820445
30
0
11
28.45
21
-20
31
0
39
0
210
0
220
0
230
1
0
LINE
5
CD
100
AcDbEntity
8
1
62
256
6
ByLayer
370
18
48
1
60
0
100
AcDbLine
10
28.45
20
20
30
0
11
27.77989
21
19.820445
31
0
39
0
210
0
220
0
230
1
0
LINE
5
CE
100
AcDbEntity
8
1
62
256
6
ByLayer
370
18
48
1
60
0
100
AcDbLine
10
28.45
20
-20
30
0
11
78
21
-20
31
0
39
0
210
0
220
0
230
1
0
LINE
5
CF
100
AcDbEntity
8
1
62
256
6
ByLayer
370
18
48
1
60
0
100
AcDbLine
10
78
20
20
30
0
11
28.45
21
20
31
0
39
0
210
0
220
0
230
1
0
LINE
5
D0
100
AcDbEntity
8
1
62
256
6
ByLayer
370
18
48
1
60
0
100
AcDbLine
10
80
20
18
30
0
11
78
21
20
31
0
39
0
210
0
220
0
230
1
0
LINE
5
D1
100
AcDbEntity
8
1
62
256
6
ByLayer
370
18
48
1
60
0
100
AcDbLine
10
78
20
-20
30
0
11
80
21
-18
31
0
39
0
210
0
220
0
230
1
0
LINE
5
D2
100
AcDbEntity
8
1
62
256
6
ByLayer
370
18
48
1
60
0
100
AcDbLine
10
0
20
-30.97
30
0
11
0.5
21
-31.47
31
0
39
0
210
0
220
0
230
1
0
LINE
5
D3
100
AcDbEntity
8
1
62
256
6
ByLayer
370
18
48
1
60
0
100
AcDbLine
10
0.5
20
31.47
30
0
11
0
21
30.97
31
0
39
0
210
0
220
0
230
1
0
LINE
5
D4
100
AcDbEntity
8
1
62
256
6
ByLayer
370
18
48
1
60
0
100
AcDbLine
10
4.948964
20
31.47
30
0
11
4.948569
21
31.47
31
0
39
0
210
0
220
0
230
1
0
LINE
5
D5
100
AcDbEntity
8
1
62
256
6
ByLayer
370
18
48
1
60
0
100
AcDbLine
10
4.948569
20
31.47
30
0
11
0.5
21
31.47
31
0
39
0
210
0
220
0
230
1
0
LINE
5
D6
100
AcDbEntity
8
1
62
256
6
ByLayer
370
18
48
1
60
0
100
AcDbLine
10
0.5
20
-31.47
30
0
11
4.95
21
-31.47
31
0
39
0
210
0
220
0
230
1
0
LINE
5
D7
100
AcDbEntity
8
SK1
62
256
6
ByLayer
370
18
48
1
60
0
100
AcDbLine
10
-27.2
20
20.845
30
0
11
-30.75
21
20.845
31
0
39
0
210
0
220
0
230
1
0
LINE
5
D8
100
AcDbEntity
8
SK1
62
256
6
ByLayer
370
18
48
1
60
0
100
AcDbLine
10
-31.898858
20
-19.647392
30
0
11
-30.70125
21
-20.845
31
0
39
0
210
0
220
0
230
1
0
LINE
5
D9
100
AcDbEntity
8
SK1
62
256
6
ByLayer
370
18
48
1
60
0
100
AcDbLine
10
-30.75
20
20.845
30
0
11
-31.892671
21
19.702329
31
0
39
0
210
0
220
0
230
1
0
LINE
5
DA
100
AcDbEntity
8
SK1
62
256
6
ByLayer
370
18
48
1
60
0
100
AcDbLine
10
-30.70125
20
-20.845
30
0
11
-23.2
21
-20.845
31
0
39
0
210
0
220
0
230
1
0
LINE
5
DB
100
AcDbEntity
8
SK1
62
256
6
ByLayer
370
18
48
1
60
0
100
AcDbLine
10
-0.45
20
23.970431
30
0
11
-1.566987
21
23.970431
31
0
39
0
210
0
220
0
230
1
0
LINE
5
DC
100
AcDbEntity
8
SK1
62
256
6
ByLayer
370
18
48
1
60
0
100
AcDbLine
10
-1.566987
20
-23.970431
30
0
11
-0.45
21
-23.970431
31
0
39
0
210
0
220
0
230
1
0
LINE
5
DD
100
AcDbEntity
8
SK1
62
256
6
ByLayer
370
18
48
1
60
0
100
AcDbLine
10
-1.566987
20
23.970431
30
0
11
-2
21
24.220431
31
0
39
0
210
0
220
0
230
1
0
LINE
5
DE
100
AcDbEntity
8
SK1
62
256
6
ByLayer
370
18
48
1
60
0
100
AcDbLine
10
-2
20
-24.220431
30
0
11
-1.566987
21
-23.970431
31
0
39
0
210
0
220
0
230
1
0
LINE
5
DF
100
AcDbEntity
8
SK1
62
256
6
ByLayer
370
18
48
1
60
0
100
AcDbLine
10
-21.8
20
-23.228447
30
0
11
-13.239771
21
-23.657316
31
0
39
0
210
0
220
0
230
1
0
LINE
5
E0
100
AcDbEntity
8
SK1
62
256
6
ByLayer
370
18
48
1
60
0
100
AcDbLine
10
-4.314641
20
-24.104467
30
0
11
-2
21
-24.220431
31
0
39
0
210
0
220
0
230
1
0
LINE
5
E1
100
AcDbEntity
8
SK1
62
256
6
ByLayer
370
18
48
1
60
0
100
AcDbLine
10
-2
20
24.220431
30
0
11
-4.314784
21
24.10446
31
0
39
0
210
0
220
0
230
1
0
LINE
5
E2
100
AcDbEntity
8
SK1
62
256
6
ByLayer
370
18
48
1
60
0
100
AcDbLine
10
-13.237585
20
23.657426
30
0
11
-25.8
21
23.028046
31
0
39
0
210
0
220
0
230
1
0
LINE
5
E3
100
AcDbEntity
8
SK2
62
256
6
ByLayer
370
18
48
1
60
0
100
AcDbLine
10
106.725
20
20
30
0
11
106.725
21
-20
31
0
39
0
210
0
220
0
230
1
0
LINE
5
E5
100
AcDbEntity
8
SK2
62
256
6
ByLayer
370
18
48
1
60
0
100
AcDbLine
10
79.5875
20
-20
30
0
11
108.725
21
-20
31
0
39
0
210
0
220
0
230
1
0
LINE
5
E6
100
AcDbEntity
8
SK2
62
256
6
ByLayer
370
18
48
1
60
0
100
AcDbLine
10
79.5875
20
20
30
0
11
108.725
21
20
31
0
39
0
210
0
220
0
230
1
0
LINE
5
E7
100
AcDbEntity
8
1
62
256
6
ByLayer
370
18
48
1
60
1
100
AcDbLine
10
106.725
20
-20
30
0
11
106.264216
21
-16.500002
31
0
39
0
210
0
220
0
230
1
0
LINE
5
E8
100
AcDbEntity
8
1
62
256
6
ByLayer
370
18
48
1
60
1
100
AcDbLine
10
106.264216
20
-16.500002
30
0
11
107.185784
21
-16.499998
31
0
39
0
210
0
220
0
230
1
0
LINE
5
E9
100
AcDbEntity
8
1
62
256
6
ByLayer
370
18
48
1
60
1
100
AcDbLine
10
107.185784
20
-16.499998
30
0
11
106.725
21
-20
31
0
39
0
210
0
220
0
230
1
0
LINE
5
EA
100
AcDbEntity
8
1
62
256
6
ByLayer
370
18
48
1
60
1
100
AcDbLine
10
106.725
20
20
30
0
11
107.185784
21
16.500002
31
0
39
0
210
0
220
0
230
1
0
LINE
5
EB
100
AcDbEntity
8
1
62
256
6
ByLayer
370
18
48
1
60
1
100
AcDbLine
10
107.185784
20
16.500002
30
0
11
106.264216
21
16.499998
31
0
39
0
210
0
220
0
230
1
0
LINE
5
EC
100
AcDbEntity
8
1
62
256
6
ByLayer
370
18
48
1
60
1
100
AcDbLine
10
106.264216
20
16.499998
30
0
11
106.725
21
20
31
0
39
0
210
0
220
0
230
1
0
LINE
5
ED
100
AcDbEntity
8
SK2
62
256
6
ByLayer
370
18
48
1
60
0
100
AcDbLine
10
-48.875
20
-31.47
30
0
11
-48.875
21
31.47
31
0
39
0
210
0
220
0
230
1
0
LINE
5
EE
100
AcDbEntity
8
SK2
62
256
6
ByLayer
370
18
48
1
60
0
100
AcDbLine
10
-1.0875
20
31.47
30
0
11
-50.875
21
31.47
31
0
39
0
210
0
220
0
230
1
0
LINE
5
EF
100
AcDbEntity
8
SK2
62
256
6
ByLayer
370
18
48
1
60
0
100
AcDbLine
10
-1.0875
20
-31.47
30
0
11
-50.875
21
-31.47
31
0
39
0
210
0
220
0
230
1
0
LINE
5
F0
100
AcDbEntity
8
1
62
256
6
ByLayer
370
18
48
1
60
1
100
AcDbLine
10
-48.875
20
31.47
30
0
11
-48.414216
21
27.970002
31
0
39
0
210
0
220
0
230
1
0
LINE
5
F1
100
AcDbEntity
8
1
62
256
6
ByLayer
370
18
48
1
60
1
100
AcDbLine
10
-48.414216
20
27.970002
30
0
11
-49.335784
21
27.969998
31
0
39
0
210
0
220
0
230
1
0
LINE
5
F2
100
AcDbEntity
8
1
62
256
6
ByLayer
370
18
48
1
60
1
100
AcDbLine
10
-49.335784
20
27.969998
30
0
11
-48.875
21
31.47
31
0
39
0
210
0
220
0
230
1
0
LINE
5
F3
100
AcDbEntity
8
1
62
256
6
ByLayer
370
18
48
1
60
1
100
AcDbLine
10
-48.875
20
-31.47
30
0
11
-49.335784
21
-27.970002
31
0
39
0
210
0
220
0
230
1
0
LINE
5
F4
100
AcDbEntity
8
1
62
256
6
ByLayer
370
18
48
1
60
1
100
AcDbLine
10
-49.335784
20
-27.970002
30
0
11
-48.414216
21
-27.969998
31
0
39
0
210
0
220
0
230
1
0
LINE
5
F5
100
AcDbEntity
8
1
62
256
6
ByLayer
370
18
48
1
60
1
100
AcDbLine
10
-48.414216
20
-27.969998
30
0
11
-48.875
21
-31.47
31
0
39
0
210
0
220
0
230
1
0
LINE
5
F6
100
AcDbEntity
8
2
62
256
6
ByLayer
370
18
48
1
60
0
100
AcDbLine
10
25.95
20
44.32
30
0
11
80
21
44.32
31
0
39
0
210
0
220
0
230
1
0
LINE
5
F7
100
AcDbEntity
8
2
62
256
6
ByLayer
370
18
48
1
60
0
100
AcDbLine
10
80
20
19.5875
30
0
11
80
21
46.32
31
0
39
0
210
0
220
0
230
1
0
LINE
5
F8
100
AcDbEntity
8
2
62
256
6
ByLayer
370
18
48
1
60
0
100
AcDbLine
10
25.95
20
31.501721
30
0
11
25.95
21
46.32
31
0
39
0
210
0
220
0
230
1
0
LINE
5
F9
100
AcDbEntity
8
1
62
256
6
ByLayer
370
18
48
1
60
1
100
AcDbLine
10
80
20
44.32
30
0
11
76.500002
21
43.859216
31
0
39
0
210
0
220
0
230
1
0
LINE
5
FA
100
AcDbEntity
8
1
62
256
6
ByLayer
370
18
48
1
60
1
100
AcDbLine
10
76.500002
20
43.859216
30
0
11
76.499998
21
44.780784
31
0
39
0
210
0
220
0
230
1
0
LINE
5
FB
100
AcDbEntity
8
1
62
256
6
ByLayer
370
18
48
1
60
1
100
AcDbLine
10
76.499998
20
44.780784
30
0
11
80
21
44.32
31
0
39
0
210
0
220
0
230
1
0
LINE
5
FC
100
AcDbEntity
8
1
62
256
6
ByLayer
370
18
48
1
60
1
100
AcDbLine
10
25.95
20
44.32
30
0
11
29.449998
21
44.780784
31
0
39
0
210
0
220
0
230
1
0
LINE
5
FD
100
AcDbEntity
8
1
62
256
6
ByLayer
370
18
48
1
60
1
100
AcDbLine
10
29.449998
20
44.780784
30
0
11
29.450002
21
43.859216
31
0
39
0
210
0
220
0
230
1
0
LINE
5
FE
100
AcDbEntity
8
1
62
256
6
ByLayer
370
18
48
1
60
1
100
AcDbLine
10
29.450002
20
43.859216
30
0
11
25.95
21
44.32
31
0
39
0
210
0
220
0
230
1
0
LINE
5
FF
100
AcDbEntity
8
SK2
62
256
6
ByLayer
370
18
48
1
60
0
100
AcDbLine
10
80
20
54.32
30
0
11
0
21
54.32
31
0
39
0
210
0
220
0
230
1
0
LINE
5
100
100
AcDbEntity
8
SK2
62
256
6
ByLayer
370
18
48
1
60
0
100
AcDbLine
10
0
20
32.5575
30
0
11
0
21
56.32
31
0
39
0
210
0
220
0
230
1
0
LINE
5
101
100
AcDbEntity
8
SK2
62
256
6
ByLayer
370
18
48
1
60
0
100
AcDbLine
10
80
20
19.5875
30
0
11
80
21
56.32
31
0
39
0
210
0
220
0
230
1
0
LINE
5
102
100
AcDbEntity
8
1
62
256
6
ByLayer
370
18
48
1
60
1
100
AcDbLine
10
0
20
54.32
30
0
11
3.499998
21
54.780784
31
0
39
0
210
0
220
0
230
1
0
LINE
5
103
100
AcDbEntity
8
1
62
256
6
ByLayer
370
18
48
1
60
1
100
AcDbLine
10
3.499998
20
54.780784
30
0
11
3.500002
21
53.859216
31
0
39
0
210
0
220
0
230
1
0
LINE
5
104
100
AcDbEntity
8
1
62
256
6
ByLayer
370
18
48
1
60
1
100
AcDbLine
10
3.500002
20
53.859216
30
0
11
0
21
54.32
31
0
39
0
210
0
220
0
230
1
0
LINE
5
105
100
AcDbEntity
8
1
62
256
6
ByLayer
370
18
48
1
60
1
100
AcDbLine
10
80
20
54.32
30
0
11
76.500002
21
53.859216
31
0
39
0
210
0
220
0
230
1
0
LINE
5
106
100
AcDbEntity
8
1
62
256
6
ByLayer
370
18
48
1
60
1
100
AcDbLine
10
76.500002
20
53.859216
30
0
11
76.499998
21
54.780784
31
0
39
0
210
0
220
0
230
1
0
LINE
5
107
100
AcDbEntity
8
1
62
256
6
ByLayer
370
18
48
1
60
1
100
AcDbLine
10
76.499998
20
54.780784
30
0
11
80
21
54.32
31
0
39
0
210
0
220
0
230
1
0
LINE
5
108
100
AcDbEntity
8
SK2
62
256
6
ByLayer
370
18
48
1
60
0
100
AcDbLine
10
-31.9
20
54.32
30
0
11
0
21
54.32
31
0
39
0
210
0
220
0
230
1
0
LINE
5
109
100
AcDbEntity
8
SK2
62
256
6
ByLayer
370
18
48
1
60
0
100
AcDbLine
10
0
20
32.5575
30
0
11
0
21
56.32
31
0
39
0
210
0
220
0
230
1
0
LINE
5
10A
100
AcDbEntity
8
SK2
62
256
6
ByLayer
370
18
48
1
60
0
100
AcDbLine
10
-31.9
20
21.260162
30
0
11
-31.9
21
56.32
31
0
39
0
210
0
220
0
230
1
0
LINE
5
10B
100
AcDbEntity
8
1
62
256
6
ByLayer
370
18
48
1
60
1
100
AcDbLine
10
0
20
54.32
30
0
11
-3.499998
21
53.859216
31
0
39
0
210
0
220
0
230
1
0
LINE
5
10C
100
AcDbEntity
8
1
62
256
6
ByLayer
370
18
48
1
60
1
100
AcDbLine
10
-3.499998
20
53.859216
30
0
11
-3.500002
21
54.780784
31
0
39
0
210
0
220
0
230
1
0
LINE
5
10D
100
AcDbEntity
8
1
62
256
6
ByLayer
370
18
48
1
60
1
100
AcDbLine
10
-3.500002
20
54.780784
30
0
11
0
21
54.32
31
0
39
0
210
0
220
0
230
1
0
LINE
5
10E
100
AcDbEntity
8
1
62
256
6
ByLayer
370
18
48
1
60
1
100
AcDbLine
10
-31.9
20
54.32
30
0
11
-28.400002
21
54.780784
31
0
39
0
210
0
220
0
230
1
0
LINE
5
10F
100
AcDbEntity
8
1
62
256
6
ByLayer
370
18
48
1
60
1
100
AcDbLine
10
-28.400002
20
54.780784
30
0
11
-28.399998
21
53.859216
31
0
39
0
210
0
220
0
230
1
0
LINE
5
110
100
AcDbEntity
8
1
62
256
6
ByLayer
370
18
48
1
60
1
100
AcDbLine
10
-28.399998
20
53.859216
30
0
11
-31.9
21
54.32
31
0
39
0
210
0
220
0
230
1
0
LINE
5
181
100
AcDbEntity
8
1
62
256
6
ByLayer
370
18
48
1
60
1
100
AcDbLine
10
106.725
20
-20
30
0
11
106.264216
21
-16.500002
31
0
39
0
210
0
220
0
230
1
0
LINE
5
182
100
AcDbEntity
8
1
62
256
6
ByLayer
370
18
48
1
60
1
100
AcDbLine
10
106.264216
20
-16.500002
30
0
11
107.185784
21
-16.499998
31
0
39
0
210
0
220
0
230
1
0
LINE
5
183
100
AcDbEntity
8
1
62
256
6
ByLayer
370
18
48
1
60
1
100
AcDbLine
10
107.185784
20
-16.499998
30
0
11
106.725
21
-20
31
0
39
0
210
0
220
0
230
1
0
LINE
5
185
100
AcDbEntity
8
1
62
256
6
ByLayer
370
18
48
1
60
1
100
AcDbLine
10
106.725
20
20
30
0
11
107.185784
21
16.500002
31
0
39
0
210
0
220
0
230
1
0
LINE
5
186
100
AcDbEntity
8
1
62
256
6
ByLayer
370
18
48
1
60
1
100
AcDbLine
10
107.185784
20
16.500002
30
0
11
106.264216
21
16.499998
31
0
39
0
210
0
220
0
230
1
0
LINE
5
187
100
AcDbEntity
8
1
62
256
6
ByLayer
370
18
48
1
60
1
100
AcDbLine
10
106.264216
20
16.499998
30
0
11
106.725
21
20
31
0
39
0
210
0
220
0
230
1
0
LINE
5
18B
100
AcDbEntity
8
1
62
256
6
ByLayer
370
18
48
1
60
1
100
AcDbLine
10
-48.875
20
31.47
30
0
11
-48.414216
21
27.970002
31
0
39
0
210
0
220
0
230
1
0
LINE
5
18C
100
AcDbEntity
8
1
62
256
6
ByLayer
370
18
48
1
60
1
100
AcDbLine
10
-48.414216
20
27.970002
30
0
11
-49.335784
21
27.969998
31
0
39
0
210
0
220
0
230
1
0
LINE
5
18D
100
AcDbEntity
8
1
62
256
6
ByLayer
370
18
48
1
60
1
100
AcDbLine
10
-49.335784
20
27.969998
30
0
11
-48.875
21
31.47
31
0
39
0
210
0
220
0
230
1
0
LINE
5
18F
100
AcDbEntity
8
1
62
256
6
ByLayer
370
18
48
1
60
1
100
AcDbLine
10
-48.875
20
-31.47
30
0
11
-49.335784
21
-27.970002
31
0
39
0
210
0
220
0
230
1
0
LINE
5
190
100
AcDbEntity
8
1
62
256
6
ByLayer
370
18
48
1
60
1
100
AcDbLine
10
-49.335784
20
-27.970002
30
0
11
-48.414216
21
-27.969998
31
0
39
0
210
0
220
0
230
1
0
LINE
5
191
100
AcDbEntity
8
1
62
256
6
ByLayer
370
18
48
1
60
1
100
AcDbLine
10
-48.414216
20
-27.969998
30
0
11
-48.875
21
-31.47
31
0
39
0
210
0
220
0
230
1
0
LINE
5
194
100
AcDbEntity
8
1
62
256
6
ByLayer
370
18
48
1
60
1
100
AcDbLine
10
80
20
44.32
30
0
11
76.500002
21
43.859216
31
0
39
0
210
0
220
0
230
1
0
LINE
5
195
100
AcDbEntity
8
1
62
256
6
ByLayer
370
18
48
1
60
1
100
AcDbLine
10
76.500002
20
43.859216
30
0
11
76.499998
21
44.780784
31
0
39
0
210
0
220
0
230
1
0
LINE
5
196
100
AcDbEntity
8
1
62
256
6
ByLayer
370
18
48
1
60
1
100
AcDbLine
10
76.499998
20
44.780784
30
0
11
80
21
44.32
31
0
39
0
210
0
220
0
230
1
0
LINE
5
198
100
AcDbEntity
8
1
62
256
6
ByLayer
370
18
48
1
60
1
100
AcDbLine
10
25.95
20
44.32
30
0
11
29.449998
21
44.780784
31
0
39
0
210
0
220
0
230
1
0
LINE
5
199
100
AcDbEntity
8
1
62
256
6
ByLayer
370
18
48
1
60
1
100
AcDbLine
10
29.449998
20
44.780784
30
0
11
29.450002
21
43.859216
31
0
39
0
210
0
220
0
230
1
0
LINE
5
19A
100
AcDbEntity
8
1
62
256
6
ByLayer
370
18
48
1
60
1
100
AcDbLine
10
29.450002
20
43.859216
30
0
11
25.95
21
44.32
31
0
39
0
210
0
220
0
230
1
0
LINE
5
19D
100
AcDbEntity
8
1
62
256
6
ByLayer
370
18
48
1
60
1
100
AcDbLine
10
0
20
54.32
30
0
11
3.499998
21
54.780784
31
0
39
0
210
0
220
0
230
1
0
LINE
5
19E
100
AcDbEntity
8
1
62
256
6
ByLayer
370
18
48
1
60
1
100
AcDbLine
10
3.499998
20
54.780784
30
0
11
3.500002
21
53.859216
31
0
39
0
210
0
220
0
230
1
0
LINE
5
19F
100
AcDbEntity
8
1
62
256
6
ByLayer
370
18
48
1
60
1
100
AcDbLine
10
3.500002
20
53.859216
30
0
11
0
21
54.32
31
0
39
0
210
0
220
0
230
1
0
LINE
5
1A1
100
AcDbEntity
8
1
62
256
6
ByLayer
370
18
48
1
60
1
100
AcDbLine
10
80
20
54.32
30
0
11
76.500002
21
53.859216
31
0
39
0
210
0
220
0
230
1
0
LINE
5
1A2
100
AcDbEntity
8
1
62
256
6
ByLayer
370
18
48
1
60
1
100
AcDbLine
10
76.500002
20
53.859216
30
0
11
76.499998
21
54.780784
31
0
39
0
210
0
220
0
230
1
0
LINE
5
1A3
100
AcDbEntity
8
1
62
256
6
ByLayer
370
18
48
1
60
1
100
AcDbLine
10
76.499998
20
54.780784
30
0
11
80
21
54.32
31
0
39
0
210
0
220
0
230
1
0
LINE
5
1A6
100
AcDbEntity
8
1
62
256
6
ByLayer
370
18
48
1
60
1
100
AcDbLine
10
0
20
54.32
30
0
11
-3.499998
21
53.859216
31
0
39
0
210
0
220
0
230
1
0
LINE
5
1A7
100
AcDbEntity
8
1
62
256
6
ByLayer
370
18
48
1
60
1
100
AcDbLine
10
-3.499998
20
53.859216
30
0
11
-3.500002
21
54.780784
31
0
39
0
210
0
220
0
230
1
0
LINE
5
1A8
100
AcDbEntity
8
1
62
256
6
ByLayer
370
18
48
1
60
1
100
AcDbLine
10
-3.500002
20
54.780784
30
0
11
0
21
54.32
31
0
39
0
210
0
220
0
230
1
0
LINE
5
1AA
100
AcDbEntity
8
1
62
256
6
ByLayer
370
18
48
1
60
1
100
AcDbLine
10
-31.9
20
54.32
30
0
11
-28.400002
21
54.780784
31
0
39
0
210
0
220
0
230
1
0
LINE
5
1AB
100
AcDbEntity
8
1
62
256
6
ByLayer
370
18
48
1
60
1
100
AcDbLine
10
-28.400002
20
54.780784
30
0
11
-28.399998
21
53.859216
31
0
39
0
210
0
220
0
230
1
0
LINE
5
1AC
100
AcDbEntity
8
1
62
256
6
ByLayer
370
18
48
1
60
1
100
AcDbLine
10
-28.399998
20
53.859216
30
0
11
-31.9
21
54.32
31
0
39
0
210
0
220
0
230
1
0
MTEXT
5
17D
100
AcDbEntity
8
SK2
62
256
6
ByLayer
370
18
48
1
60
0
100
AcDbMText
10
105.160366
20
-4.714889
30
0
210
0
220
0
230
1
1
%%c
40
3.5
41
0
44
1.084337
50
90
71
7
72
5
7
iso_b_vert
0
MTEXT
5
180
100
AcDbEntity
8
SK2
62
256
6
ByLayer
370
18
48
1
60
0
100
AcDbMText
10
105.160366
20
2.257767
30
0
210
0
220
0
230
1
1
\W0.7361;40
40
3.5
41
0
44
1.084337
50
90
71
7
72
5
7
iso_b_vert
0
MTEXT
5
189
100
AcDbEntity
8
SK2
62
256
6
ByLayer
370
18
48
1
60
0
100
AcDbMText
10
-50.439634
20
-4.530622
30
0
210
0
220
0
230
1
1
%%c
40
3.5
41
0
44
1.084337
50
90
71
7
72
5
7
iso_b_vert
0
MTEXT
5
18A
100
AcDbEntity
8
SK2
62
256
6
ByLayer
370
18
48
1
60
0
100
AcDbMText
10
-50.439634
20
2.442034
30
0
210
0
220
0
230
1
1
\W0.6740;63
40
3.5
41
0
44
1.084337
50
90
71
7
72
5
7
iso_b_vert
0
MTEXT
5
193
100
AcDbEntity
8
2
62
256
6
ByLayer
370
18
48
1
60
0
100
AcDbMText
10
50.885767
20
45.352634
30
0
210
0
220
0
230
1
1
\W0.7167;54
40
3.5
41
0
44
1.084337
50
0
71
7
72
5
7
iso_b_vert
0
MTEXT
5
19C
100
AcDbEntity
8
SK2
62
256
6
ByLayer
370
18
48
1
60
0
100
AcDbMText
10
38.095034
20
55.352634
30
0
210
0
220
0
230
1
1
\W0.6740;80
40
3.5
41
0
44
1.084337
50
0
71
7
72
5
7
iso_b_vert
0
MTEXT
5
1A5
100
AcDbEntity
8
SK2
62
256
6
ByLayer
370
18
48
1
60
0
100
AcDbMText
10
-19.434266
20
55.352634
30
0
210
0
220
0
230
1
1
\W0.6662;31.9
40
3.5
41
0
44
1.084337
50
0
71
7
72
5
7
iso_b_vert
0
MTEXT
5
1AE
100
AcDbEntity
8
SK6
62
256
6
ByLayer
370
18
48
1
60
0
100
AcDbMText
10
53.35726
20
-92.114886
30
0
210
0
220
0
230
1
1
\W0.7820;HT06-DR20-A040-080
40
3
41
0
44
1.084337
50
0
71
7
72
5
7
iso_b_vert
0
HATCH
5
184
100
AcDbEntity
8
SK2
62
256
6
ByLayer
370
13
48
1
60
0
100
AcDbHatch
10
0
20
0
30
0
210
0
220
0
230
1
2
ANSI31
70
0
71
0
91
1
92
5
93
3
72
1
10
106.725
20
-19.9999999999999
11
106.264216258447
21
-16.5000016925531
72
1
10
106.264216258447
20
-16.5000016925531
11
107.185783741553
21
-16.4999983074467
72
1
10
107.185783741553
20
-16.4999983074467
11
106.725
21
-19.9999999999999
97
0
75
0
76
1
52
0
41
0.0062
77
0
78
1
53
45
43
0
44
0
45
-0.0139193969876572
46
0.0139193969876572
79
0
47
0
98
1
10
0
20
0
0
HATCH
5
188
100
AcDbEntity
8
SK2
62
256
6
ByLayer
370
13
48
1
60
0
100
AcDbHatch
10
0
20
0
30
0
210
0
220
0
230
1
2
ANSI31
70
0
71
0
91
1
92
5
93
3
72
1
10
106.725
20
20.0000000000001
11
107.185783741553
21
16.5000016925533
72
1
10
107.185783741553
20
16.5000016925533
11
106.264216258447
21
16.4999983074469
72
1
10
106.264216258447
20
16.4999983074469
11
106.725
21
20.0000000000001
97
0
75
0
76
1
52
0
41
0.0062
77
0
78
1
53
45
43
0
44
0
45
-0.0139193969876572
46
0.0139193969876572
79
0
47
0
98
1
10
0
20
0
0
HATCH
5
18E
100
AcDbEntity
8
SK2
62
256
6
ByLayer
370
13
48
1
60
0
100
AcDbHatch
10
0
20
0
30
0
210
0
220
0
230
1
2
ANSI31
70
0
71
0
91
1
92
5
93
3
72
1
10
-48.875
20
31.47
11
-48.4142162584473
21
27.9700016925532
72
1
10
-48.4142162584473
20
27.9700016925532
11
-49.3357837415528
21
27.9699983074468
72
1
10
-49.3357837415528
20
27.9699983074468
11
-48.875
21
31.47
97
0
75
0
76
1
52
0
41
0.0062
77
0
78
1
53
45
43
0
44
0
45
-0.0139193969876572
46
0.0139193969876572
79
0
47
0
98
1
10
0
20
0
0
HATCH
5
192
100
AcDbEntity
8
SK2
62
256
6
ByLayer
370
13
48
1
60
0
100
AcDbHatch
10
0
20
0
30
0
210
0
220
0
230
1
2
ANSI31
70
0
71
0
91
1
92
5
93
3
72
1
10
-48.875
20
-31.47
11
-49.3357837415528
21
-27.9700016925532
72
1
10
-49.3357837415528
20
-27.9700016925532
11
-48.4142162584473
21
-27.9699983074468
72
1
10
-48.4142162584473
20
-27.9699983074468
11
-48.875
21
-31.47
97
0
75
0
76
1
52
0
41
0.0062
77
0
78
1
53
45
43
0
44
0
45
-0.0139193969876572
46
0.0139193969876572
79
0
47
0
98
1
10
0
20
0
0
HATCH
5
197
100
AcDbEntity
8
2
62
256
6
ByLayer
370
13
48
1
60
0
100
AcDbHatch
10
0
20
0
30
0
210
0
220
0
230
1
2
ANSI31
70
0
71
0
91
1
92
5
93
3
72
1
10
80
20
44.3200000000001
11
76.5000016925532
21
43.8592162584473
72
1
10
76.5000016925532
20
43.8592162584473
11
76.4999983074468
21
44.7807837415529
72
1
10
76.4999983074468
20
44.7807837415529
11
80
21
44.3200000000001
97
0
75
0
76
1
52
0
41
0.0062
77
0
78
1
53
45
43
0
44
0
45
-0.0139193969876572
46
0.0139193969876572
79
0
47
0
98
1
10
0
20
0
0
HATCH
5
19B
100
AcDbEntity
8
2
62
256
6
ByLayer
370
13
48
1
60
0
100
AcDbHatch
10
0
20
0
30
0
210
0
220
0
230
1
2
ANSI31
70
0
71
0
91
1
92
5
93
3
72
1
10
25.95
20
44.3200000000001
11
29.4499983074468
21
44.7807837415529
72
1
10
29.4499983074468
20
44.7807837415529
11
29.4500016925532
21
43.8592162584473
72
1
10
29.4500016925532
20
43.8592162584473
11
25.95
21
44.3200000000001
97
0
75
0
76
1
52
0
41
0.0062
77
0
78
1
53
45
43
0
44
0
45
-0.0139193969876572
46
0.0139193969876572
79
0
47
0
98
1
10
0
20
0
0
HATCH
5
1A0
100
AcDbEntity
8
SK2
62
256
6
ByLayer
370
13
48
1
60
0
100
AcDbHatch
10
0
20
0
30
0
210
0
220
0
230
1
2
ANSI31
70
0
71
0
91
1
92
5
93
3
72
1
10
0
20
54.3200000000001
11
3.4999983074468
21
54.7807837415529
72
1
10
3.4999983074468
20
54.7807837415529
11
3.50000169255317
21
53.8592162584473
72
1
10
3.50000169255317
20
53.8592162584473
11
0
21
54.3200000000001
97
0
75
0
76
1
52
0
41
0.0062
77
0
78
1
53
45
43
0
44
0
45
-0.0139193969876572
46
0.0139193969876572
79
0
47
0
98
1
10
0
20
0
0
HATCH
5
1A4
100
AcDbEntity
8
SK2
62
256
6
ByLayer
370
13
48
1
60
0
100
AcDbHatch
10
0
20
0
30
0
210
0
220
0
230
1
2
ANSI31
70
0
71
0
91
1
92
5
93
3
72
1
10
80
20
54.3200000000001
11
76.5000016925532
21
53.8592162584473
72
1
10
76.5000016925532
20
53.8592162584473
11
76.4999983074468
21
54.7807837415529
72
1
10
76.4999983074468
20
54.7807837415529
11
80
21
54.3200000000001
97
0
75
0
76
1
52
0
41
0.0062
77
0
78
1
53
45
43
0
44
0
45
-0.0139193969876572
46
0.0139193969876572
79
0
47
0
98
1
10
0
20
0
0
HATCH
5
1A9
100
AcDbEntity
8
SK2
62
256
6
ByLayer
370
13
48
1
60
0
100
AcDbHatch
10
0
20
0
30
0
210
0
220
0
230
1
2
ANSI31
70
0
71
0
91
1
92
5
93
3
72
1
10
0
20
54.3200000000001
11
-3.4999983074468
21
53.8592162584473
72
1
10
-3.4999983074468
20
53.8592162584473
11
-3.5000016925532
21
54.7807837415529
72
1
10
-3.5000016925532
20
54.7807837415529
11
0
21
54.3200000000001
97
0
75
0
76
1
52
0
41
0.0062
77
0
78
1
53
45
43
0
44
0
45
-0.0139193969876572
46
0.0139193969876572
79
0
47
0
98
1
10
0
20
0
0
HATCH
5
1AD
100
AcDbEntity
8
SK2
62
256
6
ByLayer
370
13
48
1
60
0
100
AcDbHatch
10
0
20
0
30
0
210
0
220
0
230
1
2
ANSI31
70
0
71
0
91
1
92
5
93
3
72
1
10
-31.9
20
54.3200000000001
11
-28.4000016925532
21
54.7807837415529
72
1
10
-28.4000016925532
20
54.7807837415529
11
-28.3999983074468
21
53.8592162584473
72
1
10
-28.3999983074468
20
53.8592162584473
11
-31.9
21
54.3200000000001
97
0
75
0
76
1
52
0
41
0.0062
77
0
78
1
53
45
43
0
44
0
45
-0.0139193969876572
46
0.0139193969876572
79
0
47
0
98
1
10
0
20
0
0
ENDSEC
0
SECTION
2
OBJECTS
0
DICTIONARY
5
21c
330
0
100
AcDbDictionary
280
0
281
1
3
ACAD_GROUP
350
21d
3
ACAD_MLINESTYLE
350
21e
0
DICTIONARY
5
21d
330
0
100
AcDbDictionary
280
0
281
1
0
DICTIONARY
5
21e
330
0
100
AcDbDictionary
280
0
281
1
3
Standard
350
18
0
MLINESTYLE
5
18
330
21e
100
AcDbMlineStyle
2
Standard
70
0
3

62
256
51
90
52
90
71
2
49
-0.5
62
256
6
ByLayer
49
0.5
62
256
6
ByLayer
0
RASTERVARIABLES
5
20b
330

100
AcDbRasterVariables
90
0
70
1
71
1
72
1
0
ENDSEC
0
EOF
