0
SECTION
2
HEADER
9
$ACADVER
1
AC1015
9
$DWGCODEPAGE
3
ANSI_1252
9
$HANDSEED
5
213
9
$ANGBASE
50
0
9
$ANGDIR
70
0
9
$ATTMODE
70
1
9
$AUNITS
70
0
9
$AUPREC
70
0
9
$CECOLOR
62
256
9
$CELTSCALE
40
1
9
$CELTYPE
6
ByLayer
9
$CELWEIGHT
370
18
9
$CLAYER
8
0
9
$CMLJUST
70
0
9
$CMLSCALE
40
1
9
$CMLSTYLE
2
Standard
9
$DIMSTYLE
2
Standard
9
$TEXTSIZE
40
0.2
9
$TEXTSTYLE
7
Standard
9
$LUNITS
70
2
9
$LUPREC
70
4
9
$EXTNAMES
290
1
9
$INSUNITS
70
4
9
$LTSCALE
40
1
9
$LWDISPLAY
290
1
9
$PDMODE
70
0
9
$PDSIZE
40
0
9
$PLINEGEN
70
0
0
ENDSEC
0
SECTION
2
CLASSES
0
CLASS
1
RASTERVARIABLES
2
AcDbRasterVariables
3
ISM
90
0
280
0
281
0
0
ENDSEC
0
SECTION
2
TABLES
0
TABLE
2
VPORT
5
209
100
AcDbSymbolTable
0
VPORT
5
1
100
AcDbSymbolTableRecord
100
AcDbViewportTableRecord
2
*Active
70
0
10
0
20
0
11
1
21
1
12
-1
22
1
13
0
23
0
14
0.5
24
0.5
15
10
25
10
16
0
26
0
36
1
17
0
27
0
37
0
0
ENDTAB
0
TABLE
2
LTYPE
5
20a
100
AcDbSymbolTable
0
LTYPE
5
14
100
AcDbSymbolTableRecord
100
AcDbLinetypeTableRecord
70
0
2
ByBlock
3

72
65
73
0
40
0
0
LTYPE
5
15
100
AcDbSymbolTableRecord
100
AcDbLinetypeTableRecord
70
0
2
ByLayer
3

72
65
73
0
40
0
0
LTYPE
5
16
100
AcDbSymbolTableRecord
100
AcDbLinetypeTableRecord
70
0
2
Continuous
3
Solid line
72
65
73
0
40
0
0
LTYPE
5
6E
100
AcDbSymbolTableRecord
100
AcDbLinetypeTableRecord
70
0
2
CENTER
3
____ _ ____ _ ____ _ ____
72
65
73
4
40
47.5
49
22
74
0
49
-8.5
74
0
49
8.5
74
0
49
-8.5
74
0
0
LTYPE
5
6F
100
AcDbSymbolTableRecord
100
AcDbLinetypeTableRecord
70
0
2
DASHED
3
__ __ __ __ __ __ __ __ __
72
65
73
2
40
25.72
49
12.86
74
0
49
-12.86
74
0
0
ENDTAB
0
TABLE
2
LAYER
5
20b
100
AcDbSymbolTable
0
LAYER
5
10
100
AcDbSymbolTableRecord
100
AcDbLayerTableRecord
2
0
70
0
62
7
6
Continuous
290
1
370
-3
390
0
0
LAYER
5
71
100
AcDbSymbolTableRecord
100
AcDbLayerTableRecord
2
2
70
0
62
7
6
Continuous
290
1
370
-3
390
0
0
LAYER
5
81
100
AcDbSymbolTableRecord
100
AcDbLayerTableRecord
2
80
70
0
62
-6
6
Continuous
290
1
370
-3
390
0
0
LAYER
5
83
100
AcDbSymbolTableRecord
100
AcDbLayerTableRecord
2
81
70
0
62
-3
6
Continuous
290
1
370
-3
390
0
0
LAYER
5
86
100
AcDbSymbolTableRecord
100
AcDbLayerTableRecord
2
4
70
0
62
-2
6
CENTER
290
1
370
-3
390
0
0
LAYER
5
89
100
AcDbSymbolTableRecord
100
AcDbLayerTableRecord
2
1
70
0
62
4
6
Continuous
290
1
370
-3
390
0
0
LAYER
5
1f6
100
AcDbSymbolTableRecord
100
AcDbLayerTableRecord
2
SK1
70
0
62
4
6
Continuous
290
1
370
-3
390
0
0
LAYER
5
1f7
100
AcDbSymbolTableRecord
100
AcDbLayerTableRecord
2
SK2
70
0
62
7
6
Continuous
290
1
370
-3
390
0
0
LAYER
5
1f8
100
AcDbSymbolTableRecord
100
AcDbLayerTableRecord
2
SK6
70
0
62
5
6
Continuous
290
1
370
-3
390
0
0
ENDTAB
0
TABLE
2
STYLE
5
20c
100
AcDbSymbolTable
0
STYLE
5
11
100
AcDbSymbolTableRecord
100
AcDbTextStyleTableRecord
2
Standard
3
txt
70
0
71
0
40
0
41
1
42
0
50
0
0
STYLE
5
168
100
AcDbSymbolTableRecord
100
AcDbTextStyleTableRecord
2
iso_b_vert
3
simplex.shx
70
0
71
0
40
0
41
1
42
0
50
0
0
STYLE
5
169
100
AcDbSymbolTableRecord
100
AcDbTextStyleTableRecord
2
DWGDirectTextStyle
3
simplex
70
0
71
0
40
0
41
1
42
0
50
0
0
ENDTAB
0
TABLE
2
DIMSTYLE
5
20d
100
AcDbSymbolTable
100
AcDbDimStyleTable
0
DIMSTYLE
105
27
100
AcDbSymbolTableRecord
100
AcDbDimStyleTableRecord
2
Standard
70
0
3
<>
41
0.18
42
0.0625
44
0.18
140
0.18
147
0.09
73
0
74
0
77
1
271
2
275
0
278
52
280
0
340
11
0
ENDTAB
0
TABLE
2
VIEW
5
20e
100
AcDbSymbolTable
0
ENDTAB
0
TABLE
2
UCS
5
20f
100
AcDbSymbolTable
0
ENDTAB
0
TABLE
2
APPID
5
210
100
AcDbSymbolTable
0
APPID
5
12
100
AcDbSymbolTableRecord
100
AcDbRegAppTableRecord
2
ACAD
70
0
0
APPID
5
1F2
100
AcDbSymbolTableRecord
100
AcDbRegAppTableRecord
2
ACAD_MLEADERVER
70
0
0
ENDTAB
0
TABLE
2
BLOCK_RECORD
5
211
100
AcDbSymbolTable
0
BLOCK_RECORD
5
1F
100
AcDbSymbolTableRecord
100
AcDbBlockTableRecord
2
*Model_Space
340
0
70
0
0
BLOCK_RECORD
5
1B
100
AcDbSymbolTableRecord
100
AcDbBlockTableRecord
2
*Paper_Space
340
0
70
0
0
BLOCK_RECORD
5
23
100
AcDbSymbolTableRecord
100
AcDbBlockTableRecord
2
*Paper_Space0
340
0
70
0
0
ENDTAB
0
ENDSEC
0
SECTION
2
BLOCKS
0
BLOCK
5
20
100
AcDbEntity
8
0
100
AcDbBlockBegin
2
*Model_Space
70
0
10
0
20
0
30
0
3
*Model_Space
0
ENDBLK
5
21
100
AcDbEntity
8
0
100
AcDbBlockEnd
0
BLOCK
5
1C
100
AcDbEntity
8
0
100
AcDbBlockBegin
2
*Paper_Space
70
0
10
0
20
0
30
0
3
*Paper_Space
0
ENDBLK
5
1D
100
AcDbEntity
8
0
100
AcDbBlockEnd
0
BLOCK
5
24
100
AcDbEntity
8
0
100
AcDbBlockBegin
2
*Paper_Space0
70
0
10
0
20
0
30
0
3
*Paper_Space0
0
ENDBLK
5
25
100
AcDbEntity
8
0
100
AcDbBlockEnd
0
ENDSEC
0
SECTION
2
ENTITIES
0
ARC
5
10E
100
AcDbEntity
8
SK2
62
256
6
ByLayer
370
18
48
1
60
0
100
AcDbCircle
39
0
10
58.8
20
0
30
0
40
3.085
210
0
220
0
230
1
100
AcDbArc
50
300
51
0
0
ARC
5
10F
100
AcDbEntity
8
SK2
62
256
6
ByLayer
370
18
48
1
60
0
100
AcDbCircle
39
0
10
58.8
20
0
30
0
40
3.085
210
0
220
0
230
1
100
AcDbArc
50
240
51
300
0
ARC
5
110
100
AcDbEntity
8
SK2
62
256
6
ByLayer
370
18
48
1
60
0
100
AcDbCircle
39
0
10
58.8
20
0
30
0
40
3.085
210
0
220
0
230
1
100
AcDbArc
50
180
51
240
0
ARC
5
111
100
AcDbEntity
8
SK2
62
256
6
ByLayer
370
18
48
1
60
0
100
AcDbCircle
39
0
10
58.8
20
0
30
0
40
3.085
210
0
220
0
230
1
100
AcDbArc
50
120
51
180
0
ARC
5
112
100
AcDbEntity
8
SK2
62
256
6
ByLayer
370
18
48
1
60
0
100
AcDbCircle
39
0
10
58.8
20
0
30
0
40
3.085
210
0
220
0
230
1
100
AcDbArc
50
0
51
60
0
ARC
5
113
100
AcDbEntity
8
SK2
62
256
6
ByLayer
370
18
48
1
60
0
100
AcDbCircle
39
0
10
58.8
20
0
30
0
40
3.085
210
0
220
0
230
1
100
AcDbArc
50
60
51
120
0
ARC
5
116
100
AcDbEntity
8
SK2
62
256
6
ByLayer
370
18
48
1
60
0
100
AcDbCircle
39
0
10
83.2
20
0
30
0
40
3.085
210
0
220
0
230
1
100
AcDbArc
50
0
51
60
0
ARC
5
117
100
AcDbEntity
8
SK2
62
256
6
ByLayer
370
18
48
1
60
0
100
AcDbCircle
39
0
10
83.2
20
0
30
0
40
3.085
210
0
220
0
230
1
100
AcDbArc
50
180
51
240
0
ARC
5
118
100
AcDbEntity
8
SK2
62
256
6
ByLayer
370
18
48
1
60
0
100
AcDbCircle
39
0
10
83.2
20
0
30
0
40
3.085
210
0
220
0
230
1
100
AcDbArc
50
300
51
0
0
ARC
5
119
100
AcDbEntity
8
SK2
62
256
6
ByLayer
370
18
48
1
60
0
100
AcDbCircle
39
0
10
83.2
20
0
30
0
40
3.085
210
0
220
0
230
1
100
AcDbArc
50
60
51
120
0
ARC
5
11A
100
AcDbEntity
8
SK2
62
256
6
ByLayer
370
18
48
1
60
0
100
AcDbCircle
39
0
10
83.2
20
0
30
0
40
3.085
210
0
220
0
230
1
100
AcDbArc
50
120
51
180
0
ARC
5
11B
100
AcDbEntity
8
SK2
62
256
6
ByLayer
370
18
48
1
60
0
100
AcDbCircle
39
0
10
83.2
20
0
30
0
40
3.085
210
0
220
0
230
1
100
AcDbArc
50
240
51
300
0
ARC
5
11E
100
AcDbEntity
8
1
62
256
6
ByLayer
370
18
48
1
60
0
100
AcDbCircle
39
0
10
33.124598
20
22.9
30
0
40
0.600000000000001
210
0
220
0
230
1
100
AcDbArc
50
270
51
285
0
ARC
5
11F
100
AcDbEntity
8
1
62
256
6
ByLayer
370
18
48
1
60
0
100
AcDbCircle
39
0
10
33.124598
20
-22.9
30
0
40
0.600000000000001
210
0
220
0
230
1
100
AcDbArc
50
75
51
90
0
ARC
5
120
100
AcDbEntity
8
1
62
256
6
ByLayer
370
18
48
1
60
0
100
AcDbCircle
39
0
10
31.95
20
25.3
30
0
40
3
210
0
220
0
230
1
100
AcDbArc
50
180
51
270
0
ARC
5
121
100
AcDbEntity
8
1
62
256
6
ByLayer
370
18
48
1
60
0
100
AcDbCircle
39
0
10
31.95
20
-25.3
30
0
40
3
210
0
220
0
230
1
100
AcDbArc
50
90
51
180
0
ARC
5
122
100
AcDbEntity
8
SK1
62
256
6
ByLayer
370
18
48
1
60
0
100
AcDbCircle
39
0
10
-41.7
20
34.125
30
0
40
1.9
210
0
220
0
230
1
100
AcDbArc
50
270
51
313.91428
0
ARC
5
123
100
AcDbEntity
8
SK1
62
256
6
ByLayer
370
18
48
1
60
0
100
AcDbCircle
39
0
10
-36.7
20
-34.125
30
0
40
1.9
210
0
220
0
230
1
100
AcDbArc
50
34.113313
51
90
0
ARC
5
124
100
AcDbEntity
8
SK1
62
256
6
ByLayer
370
18
48
1
60
0
100
AcDbCircle
39
0
10
-0.8
20
38.632252
30
0
40
1
210
0
220
0
230
1
100
AcDbArc
50
270
51
323.130102
0
ARC
5
125
100
AcDbEntity
8
SK1
62
256
6
ByLayer
370
18
48
1
60
0
100
AcDbCircle
39
0
10
-0.8
20
-38.632252
30
0
40
1
210
0
220
0
230
1
100
AcDbArc
50
36.869898
51
90
0
CIRCLE
5
114
100
AcDbEntity
8
SK2
62
256
6
ByLayer
370
18
48
1
60
0
100
AcDbCircle
10
58.8
20
0
30
0
40
6.235
39
0
210
0
220
0
230
1
0
CIRCLE
5
115
100
AcDbEntity
8
SK2
62
256
6
ByLayer
370
18
48
1
60
0
100
AcDbCircle
10
58.8
20
0
30
0
40
3.585
39
0
210
0
220
0
230
1
0
CIRCLE
5
11C
100
AcDbEntity
8
SK2
62
256
6
ByLayer
370
18
48
1
60
0
100
AcDbCircle
10
83.2
20
0
30
0
40
6.235
39
0
210
0
220
0
230
1
0
CIRCLE
5
11D
100
AcDbEntity
8
SK2
62
256
6
ByLayer
370
18
48
1
60
0
100
AcDbCircle
10
83.2
20
0
30
0
40
3.585
39
0
210
0
220
0
230
1
0
ELLIPSE
5
126
100
AcDbEntity
8
1
62
256
6
ByLayer
370
18
48
1
60
0
100
AcDbEllipse
10
20
20
7.629233
30
0
11
-1.75000000000001
21
-5.62850005318697E-16
31
0
210
0
220
0
230
1
40
0.984808
41
-1.57079655876472
42
-0.125860244287692
0
ELLIPSE
5
127
100
AcDbEntity
8
1
62
256
6
ByLayer
370
18
48
1
60
0
100
AcDbEllipse
10
20
20
7.629233
30
0
11
-1.75000000000001
21
-5.62850005318697E-16
31
0
210
0
220
0
230
1
40
0.984808
41
-3.06570356230511
42
-1.57079655876473
0
ELLIPSE
5
128
100
AcDbEntity
8
1
62
256
6
ByLayer
370
18
48
1
60
0
100
AcDbEllipse
10
20
20
-7.629233
30
0
11
1.75000000000001
21
0
31
0
210
0
220
0
230
1
40
0.984808
41
-3.08180417172496
42
-0.0617518050808945
0
ELLIPSE
5
129
100
AcDbEntity
8
SK1
62
256
6
ByLayer
370
13
48
1
60
0
100
AcDbEllipse
10
-36.7
20
-33.386024
30
0
11
-1.9
21
-6.11094291488867E-16
31
0
210
0
220
0
230
1
40
0.891007
41
-2.05766015255057
42
-1.5707963267949
0
POINT
5
70
100
AcDbEntity
8
2
62
256
6
ByLayer
370
18
48
1
60
0
100
AcDbPoint
10
100
20
0
30
0
39
0
210
0
220
0
230
1
50
360
0
POINT
5
72
100
AcDbEntity
8
2
62
256
6
ByLayer
370
18
48
1
60
0
100
AcDbPoint
10
0
20
0
30
0
39
0
210
0
220
0
230
1
50
360
0
POINT
5
73
100
AcDbEntity
8
2
62
256
6
ByLayer
370
18
48
1
60
0
100
AcDbPoint
10
83.2
20
0
30
0
39
0
210
0
220
0
230
1
50
360
0
POINT
5
74
100
AcDbEntity
8
2
62
256
6
ByLayer
370
18
48
1
60
0
100
AcDbPoint
10
83.2
20
0
30
0
39
0
210
0
220
0
230
1
50
360
0
POINT
5
75
100
AcDbEntity
8
2
62
256
6
ByLayer
370
18
48
1
60
0
100
AcDbPoint
10
83.2
20
0
30
0
39
0
210
0
220
0
230
1
50
360
0
POINT
5
76
100
AcDbEntity
8
2
62
256
6
ByLayer
370
18
48
1
60
0
100
AcDbPoint
10
58.8
20
0
30
0
39
0
210
0
220
0
230
1
50
360
0
POINT
5
77
100
AcDbEntity
8
2
62
256
6
ByLayer
370
18
48
1
60
0
100
AcDbPoint
10
100
20
0
30
0
39
0
210
0
220
0
230
1
50
360
0
POINT
5
78
100
AcDbEntity
8
2
62
256
6
ByLayer
370
18
48
1
60
0
100
AcDbPoint
10
100
20
0
30
0
39
0
210
0
220
0
230
1
50
360
0
POINT
5
79
100
AcDbEntity
8
2
62
256
6
ByLayer
370
18
48
1
60
0
100
AcDbPoint
10
42.5
20
0
30
0
39
0
210
0
220
0
230
1
50
360
0
POINT
5
7A
100
AcDbEntity
8
2
62
256
6
ByLayer
370
18
48
1
60
0
100
AcDbPoint
10
83.2
20
0
30
0
39
0
210
0
220
0
230
1
50
360
0
POINT
5
7B
100
AcDbEntity
8
2
62
256
6
ByLayer
370
18
48
1
60
0
100
AcDbPoint
10
100
20
0
30
0
39
0
210
0
220
0
230
1
50
360
0
POINT
5
7C
100
AcDbEntity
8
2
62
256
6
ByLayer
370
18
48
1
60
0
100
AcDbPoint
10
100
20
0
30
0
39
0
210
0
220
0
230
1
50
360
0
POINT
5
7D
100
AcDbEntity
8
2
62
256
6
ByLayer
370
18
48
1
60
0
100
AcDbPoint
10
100
20
0
30
0
39
0
210
0
220
0
230
1
50
360
0
POINT
5
7E
100
AcDbEntity
8
2
62
256
6
ByLayer
370
18
48
1
60
0
100
AcDbPoint
10
58.8
20
0
30
0
39
0
210
0
220
0
230
1
50
360
0
POINT
5
7F
100
AcDbEntity
8
2
62
256
6
ByLayer
370
18
48
1
60
0
100
AcDbPoint
10
28.95
20
0
30
0
39
0
210
0
220
0
230
1
50
360
0
POINT
5
80
100
AcDbEntity
8
80
62
256
6
ByLayer
370
18
48
1
60
0
100
AcDbPoint
10
0
20
0
30
0
39
0
210
0
220
0
230
1
50
360
0
POINT
5
82
100
AcDbEntity
8
81
62
256
6
ByLayer
370
18
48
1
60
0
100
AcDbPoint
10
100
20
0
30
0
39
0
210
0
220
0
230
1
50
360
0
SPLINE
5
12A
100
AcDbEntity
8
1
62
256
6
ByLayer
370
18
48
1
60
0
100
AcDbSpline
70
2053
71
3
72
207
73
203
40
0
40
0
40
0
40
0
40
0.0156250000000004
40
0.0156250000000004
40
0.0312500000000008
40
0.0312500000000008
40
0.0468750000000012
40
0.0468750000000012
40
0.0546875000000014
40
0.0546875000000014
40
0.0585937500000014
40
0.0585937500000014
40
0.0625000000000014
40
0.0625000000000014
40
0.0781250000000017
40
0.0781250000000017
40
0.0937500000000019
40
0.0937500000000019
40
0.101562500000002
40
0.101562500000002
40
0.105468750000002
40
0.107421875000002
40
0.109375000000002
40
0.109375000000002
40
0.125000000000002
40
0.125000000000002
40
0.140625000000002
40
0.140625000000002
40
0.156250000000001
40
0.156250000000001
40
0.158203125000001
40
0.158203125000001
40
0.160156250000001
40
0.164062500000001
40
0.171875000000001
40
0.171875000000001
40
0.187500000000001
40
0.187500000000001
40
0.195312500000001
40
0.195312500000001
40
0.199218750000001
40
0.199218750000001
40
0.203125000000001
40
0.203125000000001
40
0.218750000000001
40
0.218750000000001
40
0.234375000000001
40
0.234375000000001
40
0.238281250000001
40
0.238281250000001
40
0.242187500000001
40
0.242187500000001
40
0.25
40
0.25
40
0.265625
40
0.265625
40
0.28125
40
0.28125
40
0.28515625
40
0.28515625
40
0.2890625
40
0.296875000000001
40
0.296875000000001
40
0.312500000000001
40
0.312500000000001
40
0.328125000000002
40
0.328125000000002
40
0.335937500000002
40
0.335937500000002
40
0.343750000000003
40
0.343750000000003
40
0.359375000000004
40
0.359375000000004
40
0.375000000000006
40
0.390625000000007
40
0.390625000000007
40
0.394531250000007
40
0.394531250000007
40
0.398437500000008
40
0.398437500000008
40
0.406250000000008
40
0.406250000000008
40
0.421875000000009
40
0.43750000000001
40
0.43750000000001
40
0.453125000000011
40
0.453125000000011
40
0.457031250000011
40
0.457031250000011
40
0.460937500000011
40
0.460937500000011
40
0.468750000000012
40
0.468750000000012
40
0.484375000000012
40
0.484375000000012
40
0.500000000000012
40
0.500000000000012
40
0.515625000000012
40
0.515625000000012
40
0.519531250000013
40
0.519531250000013
40
0.523437500000013
40
0.523437500000013
40
0.531250000000013
40
0.531250000000013
40
0.546875000000014
40
0.546875000000014
40
0.562500000000015
40
0.562500000000015
40
0.578125000000016
40
0.578125000000016
40
0.582031250000016
40
0.582031250000016
40
0.585937500000016
40
0.585937500000016
40
0.593750000000017
40
0.593750000000017
40
0.609375000000017
40
0.609375000000017
40
0.625000000000017
40
0.625000000000017
40
0.628906250000017
40
0.628906250000017
40
0.632812500000017
40
0.640625000000017
40
0.640625000000017
40
0.656250000000018
40
0.656250000000018
40
0.671875000000018
40
0.671875000000018
40
0.673828125000018
40
0.673828125000018
40
0.675781250000018
40
0.679687500000018
40
0.687500000000018
40
0.687500000000018
40
0.703125000000019
40
0.703125000000019
40
0.710937500000019
40
0.710937500000019
40
0.714843750000019
40
0.714843750000019
40
0.71875000000002
40
0.71875000000002
40
0.734375000000021
40
0.734375000000021
40
0.750000000000022
40
0.750000000000022
40
0.753906250000022
40
0.753906250000022
40
0.757812500000022
40
0.757812500000022
40
0.765625000000023
40
0.765625000000023
40
0.781250000000023
40
0.781250000000023
40
0.796875000000023
40
0.796875000000023
40
0.800781250000023
40
0.800781250000023
40
0.804687500000023
40
0.804687500000023
40
0.812500000000023
40
0.812500000000023
40
0.828125000000021
40
0.828125000000021
40
0.843750000000019
40
0.843750000000019
40
0.851562500000018
40
0.851562500000018
40
0.855468750000018
40
0.855468750000018
40
0.859375000000017
40
0.859375000000017
40
0.875000000000015
40
0.875000000000015
40
0.890625000000013
40
0.90625000000001
40
0.90625000000001
40
0.914062500000009
40
0.914062500000009
40
0.917968750000008
40
0.917968750000008
40
0.921875000000008
40
0.921875000000008
40
0.937500000000006
40
0.953125000000005
40
0.953125000000005
40
0.968750000000004
40
0.968750000000004
40
0.976562500000003
40
0.976562500000003
40
0.980468750000002
40
0.980468750000002
40
0.984375000000002
40
0.992187500000001
40
0.992187500000001
40
0.99609375
40
0.998046875
40
0.9990234375
40
0.9990234375
40
1
40
1
40
1
40
1
41
1
10
54.7119136636658
20
-6.46682767076661
30
0
41
1
10
54.4740374651887
20
-6.35584937896471
30
0
41
1
10
54.2428873012037
20
-6.2356192365107
30
0
41
1
10
53.7938326895095
20
-5.97669933892172
30
0
41
1
10
53.5759275416565
20
-5.8380108665186
30
0
41
1
10
53.1535495456317
20
-5.54165417269346
30
0
41
1
10
52.9490740508343
20
-5.38399022452114
30
0
41
1
10
52.6529036561847
20
-5.13238814535606
30
0
41
1
10
52.5559409938449
20
-5.04599769471574
30
0
41
1
10
52.4132350528775
20
-4.91246154925159
30
0
41
1
10
52.3661230367777
20
-4.86729065819014
30
0
41
1
10
52.2728321728677
20
-4.77559791736653
30
0
41
1
10
52.2267135248264
20
-4.72913207263306
30
0
41
1
10
51.9997052933663
20
-4.4946286497717
30
0
41
1
10
51.8286578889332
20
-4.29922616722641
30
0
41
1
10
51.5081007083069
20
-3.8923234503547
30
0
41
1
10
51.3585865422936
20
-3.6808268567321
30
0
41
1
10
51.1513654291586
20
-3.35070487657248
30
0
41
1
10
51.0851398849197
20
-3.2385132150724
30
0
41
1
10
50.9902535171195
20
-3.06684794004775
30
0
41
1
10
50.9439240123366
20
-2.98017033512679
30
0
41
1
10
50.8844333982857
20
-2.86286461240024
30
0
41
1
10
50.8554606873678
20
-2.80362480348984
30
0
41
1
10
50.7272944464008
20
-2.53667085122049
30
0
41
1
10
50.6282017454462
20
-2.29504060206074
30
0
41
1
10
50.45973394741
20
-1.80303360150498
30
0
41
1
10
50.3903565339991
20
-1.55265762251028
30
0
41
1
10
50.2823809067894
20
-1.04280653871243
30
0
41
1
10
50.2437737372997
20
-0.783334070473472
30
0
41
1
10
50.2189069378669
20
-0.485925573096523
30
0
41
1
10
50.216401443894
20
-0.452778383715241
30
0
41
1
10
50.2119299703916
20
-0.386593146146595
30
0
41
1
10
50.2060233994719
20
-0.28739755463539
30
0
41
1
10
50.1978150432663
20
-0.0565138826675025
30
0
41
1
10
50.2002064551374
20
0.140417528511875
30
0
41
1
10
50.2173353459519
20
0.533011602565523
30
0
41
1
10
50.245182673674
20
0.793052537035578
30
0
41
1
10
50.311330773605
20
1.18061286780289
30
0
41
1
10
50.3374514099806
20
1.30938198700983
30
0
41
1
10
50.3827823613238
20
1.5019057910678
30
0
41
1
10
50.3989182108299
20
1.56597536208102
30
0
41
1
10
50.4332547175854
20
1.69390324908298
30
0
41
1
10
50.4513902456088
20
1.75751357380497
30
0
41
1
10
50.5466159512255
20
2.073168476908
30
0
41
1
10
50.6374898170991
20
2.31874331910771
30
0
41
1
10
50.8467107739401
20
2.7969776472039
30
0
41
1
10
50.9650652277351
20
3.02963353836637
30
0
41
1
10
51.1296541258584
20
3.31268962917508
30
0
41
1
10
51.16340652777
20
3.36891160687893
30
0
41
1
10
51.2325763738955
20
3.48058078776529
30
0
41
1
10
51.2680140118007
20
3.53605378612406
30
0
41
1
10
51.376219122783
20
3.70042496442542
30
0
41
1
10
51.4510574859448
20
3.8075778833151
30
0
41
1
10
51.6833433314617
20
4.12209041087897
30
0
41
1
10
51.8485378146122
20
4.32252494852136
30
0
41
1
10
52.1984772015651
20
4.70612175557335
30
0
41
1
10
52.383226475387
20
4.88927972527284
30
0
41
1
10
52.6261331392574
20
5.10778585721437
30
0
41
1
10
52.6753696105025
20
5.15101028399303
30
0
41
1
10
52.7747513302638
20
5.23616859948024
30
0
41
1
10
52.9251034977599
20
5.36190351269616
30
0
41
1
10
53.0792206183699
20
5.48176735989557
30
0
41
1
10
53.3923300937021
20
5.71394650723849
30
0
41
1
10
53.6075573328024
20
5.85868825540462
30
0
41
1
10
54.0505580463583
20
6.12902050191659
30
0
41
1
10
54.278333287269
20
6.25460780703923
30
0
41
1
10
54.6293792179244
20
6.42885832319945
30
0
41
1
10
54.7479907139454
20
6.48459530246595
30
0
41
1
10
54.9882566795272
20
6.59128332526544
30
0
41
1
10
55.1091734154452
20
6.64190854092485
30
0
41
1
10
55.4742226037328
20
6.78585843494588
30
0
41
1
10
55.7206491858177
20
6.87127566208284
30
0
41
1
10
56.2194740427686
20
7.02175108745215
30
0
41
1
10
56.7242718657529
20
7.15186296067179
30
0
41
1
10
57.2410151214694
20
7.2416046175841
30
0
41
1
10
57.5677997727849
20
7.28486291878878
30
0
41
1
10
57.6333480547208
20
7.29287177968556
30
0
41
1
10
57.7648309128427
20
7.3075932916218
30
0
41
1
10
57.8306067038142
20
7.31428745679057
30
0
41
1
10
58.0277244666369
20
7.33235714648964
30
0
41
1
10
58.158990079085
20
7.34173597938459
30
0
41
1
10
58.552355243738
20
7.36200808304102
30
0
41
1
10
59.0756925892313
20
7.36809864286892
30
0
41
1
10
59.5967676486133
20
7.33299982561613
30
0
41
1
10
60.116706153926
20
7.27715558105004
30
0
41
1
10
60.3761072220202
20
7.23886263976388
30
0
41
1
10
60.6996293025341
20
7.17761365405201
30
0
41
1
10
60.7642971900516
20
7.1646933493804
30
0
41
1
10
60.8935591574017
20
7.13749553979827
30
0
41
1
10
60.9579781316711
20
7.12325425864711
30
0
41
1
10
61.1503460017117
20
7.07867286941266
30
0
41
1
10
61.2775181262765
20
7.04645282279643
30
0
41
1
10
61.6558631132975
20
6.94237541407699
30
0
41
1
10
61.9038711118395
20
6.86311734042295
30
0
41
1
10
62.3915399800332
20
6.68488045888191
30
0
41
1
10
62.6312013740613
20
6.58590320413964
30
0
41
1
10
63.1020588336102
20
6.36770540313128
30
0
41
1
10
63.333256534438
20
6.24848929919747
30
0
41
1
10
63.6167354592305
20
6.08609457914824
30
0
41
1
10
63.6731546506245
20
6.05294513274976
30
0
41
1
10
63.7854312057205
20
5.9852794831352
30
0
41
1
10
63.8411696829941
20
5.95083334171358
30
0
41
1
10
64.0067338164712
20
5.845935455263
30
0
41
1
10
64.1150984250225
20
5.77381171071613
30
0
41
1
10
64.434192158927
20
5.55085803374052
30
0
41
1
10
64.6389371603129
20
5.39346354297768
30
0
41
1
10
65.0322653414428
20
5.06070213381747
30
0
41
1
10
65.2208513796283
20
4.8853388748642
30
0
41
1
10
65.5811260188298
20
4.51557317740995
30
0
41
1
10
65.7528212535859
20
4.32117878465175
30
0
41
1
10
65.9559952088985
20
4.06513108760899
30
0
41
1
10
65.9960557545197
20
4.01326650333965
30
0
41
1
10
66.0749973978289
20
3.90818806053088
30
0
41
1
10
66.1137096527874
20
3.8551980457882
30
0
41
1
10
66.2274783372646
20
3.69499128979285
30
0
41
1
10
66.3002079424408
20
3.58648609653369
30
0
41
1
10
66.5089714491649
20
3.25580121878468
30
0
41
1
10
66.6356098209588
20
3.02846824640514
30
0
41
1
10
66.8627272169836
20
2.55933081583066
30
0
41
1
10
66.9632153208904
20
2.31753155042799
30
0
41
1
10
67.0711425805899
20
2.00543436580511
30
0
41
1
10
67.0918735147506
20
1.94240935167875
30
0
41
1
10
67.1312656890899
20
1.81616945708862
30
0
41
1
10
67.1873122852911
20
1.62636826375413
30
0
41
1
10
67.2342950884073
20
1.43525025247666
30
0
41
1
10
67.316230824446
20
1.05126304187661
30
0
41
1
10
67.354848351644
20
0.792941255642546
30
0
41
1
10
67.3995633107553
20
0.271551674779715
30
0
41
1
10
67.4056664316686
20
0.0084846936267411
30
0
41
1
10
67.3933151061617
20
-0.290271291815202
30
0
41
1
10
67.3916735630358
20
-0.323521493746199
30
0
41
1
10
67.3878674838739
20
-0.389839465952662
30
0
41
1
10
67.3813715736202
20
-0.489135182353124
30
0
41
1
10
67.3607467878792
20
-0.719565946137067
30
0
41
1
10
67.3338541269999
20
-0.914956560276579
30
0
41
1
10
67.2680845966919
20
-1.30298169746149
30
0
41
1
10
67.2082923750705
20
-1.55799751431286
30
0
41
1
10
67.0952516069481
20
-1.93517050524127
30
0
41
1
10
67.0536708309659
20
-2.06000120880452
30
0
41
1
10
66.9854450896201
20
-2.24590951043444
30
0
41
1
10
66.9616860947543
20
-2.30775413181664
30
0
41
1
10
66.9124665308444
20
-2.43036766367447
30
0
41
1
10
66.8870032172112
20
-2.49115552597766
30
0
41
1
10
66.7555162138958
20
-2.79256378168716
30
0
41
1
10
66.6370244043042
20
-3.02561671078917
30
0
41
1
10
66.3751854507927
20
-3.47675832286163
30
0
41
1
10
66.2318314128549
20
-3.69484261068277
30
0
41
1
10
66.0375840283154
20
-3.95847240025614
30
0
41
1
10
65.9979796863613
20
-4.01074834029714
30
0
41
1
10
65.9172651582091
20
-4.11440491136457
30
0
41
1
10
65.8762215942198
20
-4.16569714154554
30
0
41
1
10
65.7514509178938
20
-4.31752744866321
30
0
41
1
10
65.6659334777025
20
-4.41621708640514
30
0
41
1
10
65.4026352066324
20
-4.70502613929247
30
0
41
1
10
65.2181283101777
20
-4.8879072595079
30
0
41
1
10
64.8320318142333
20
-5.23552493753911
30
0
41
1
10
64.6304387871458
20
-5.40025735274014
30
0
41
1
10
64.3679316418646
20
-5.59515443469141
30
0
41
1
10
64.3149030652432
20
-5.6335814895935
30
0
41
1
10
64.2077903957883
20
-5.70933339561199
30
0
41
1
10
64.1538417966584
20
-5.74656171171776
30
0
41
1
10
63.9910327002178
20
-5.85620473609919
30
0
41
1
10
63.8811253050859
20
-5.92663879700211
30
0
41
1
10
63.5474057585464
20
-6.13022000781277
30
0
41
1
10
63.319606034635
20
-6.2556660916778
30
0
41
1
10
62.8536724544405
20
-6.48687301321303
30
0
41
1
10
62.6155372780803
20
-6.59263087427016
30
0
41
1
10
62.2505861328435
20
-6.73669187896863
30
0
41
1
10
62.1276421424008
20
-6.78227847110801
30
0
41
1
10
61.9412665554022
20
-6.84699247692774
30
0
41
1
10
61.878806827856
20
-6.86795508620983
30
0
41
1
10
61.7532606867436
20
-6.90864174017864
30
0
41
1
10
61.6903701051171
20
-6.92830251174735
30
0
41
1
10
61.375335997066
20
-7.02323917515722
30
0
41
1
10
61.1214525076288
20
-7.0884369722767
30
0
41
1
10
60.6100747778166
20
-7.19810212022037
30
0
41
1
10
60.0950855420609
20
-7.28703195395204
30
0
41
1
10
59.5729061574103
20
-7.33493594739639
30
0
41
1
10
59.1785283606558
20
-7.35526450609928
30
0
41
1
10
59.0466112734865
20
-7.35943685192859
30
0
41
1
10
58.8480372792528
20
-7.36172581048436
30
0
41
1
10
58.7816659891132
20
-7.3618253044371
30
0
41
1
10
58.6492682231254
20
-7.36069594935674
30
0
41
1
10
58.5831877755407
20
-7.35946900290537
30
0
41
1
10
58.2533722217137
20
-7.35005308110556
30
0
41
1
10
57.729414764039
20
-7.31403362836903
30
0
41
1
10
57.212774166939
20
-7.23699699779422
30
0
41
1
10
56.6997830128833
20
-7.13939085058715
30
0
41
1
10
56.4451118868371
20
-7.0803047736315
30
0
41
1
10
56.0658975427557
20
-6.9758095540802
30
0
41
1
10
55.9399588224186
20
-6.93832920830604
30
0
41
1
10
55.7517634148048
20
-6.87803851513141
30
0
41
1
10
55.6891068105682
20
-6.85724720754783
30
0
41
1
10
55.5644011435348
20
-6.81441641460341
30
0
41
1
10
55.378160475384
20
-6.74826914312078
30
0
41
1
10
55.1943687717844
20
-6.67641348360075
30
0
41
1
10
55.0122152529049
20
-6.60071617398018
30
0
41
1
10
54.9215481954366
20
-6.56190671386801
30
0
41
1
10
54.8164900654293
20
-6.51493487431756
30
0
41
1
10
54.7716199003671
20
-6.4944394266648
30
0
41
1
10
54.7417408996097
20
-6.48069456478629
30
0
41
1
10
54.7267809260707
20
-6.47376381400423
30
0
41
1
10
54.7119136636658
20
-6.46682767076661
30
0
0
SPLINE
5
12B
100
AcDbEntity
8
1
62
256
6
ByLayer
370
18
48
1
60
0
100
AcDbSpline
70
2053
71
3
72
207
73
203
40
0
40
0
40
0
40
0
40
0.0156250000000023
40
0.0156250000000023
40
0.0312500000000046
40
0.0312500000000046
40
0.0468750000000068
40
0.0468750000000068
40
0.054687500000008
40
0.054687500000008
40
0.0585937500000083
40
0.0585937500000083
40
0.0625000000000086
40
0.0625000000000086
40
0.0781250000000081
40
0.0781250000000081
40
0.0937500000000076
40
0.0937500000000076
40
0.101562500000007
40
0.101562500000007
40
0.105468750000007
40
0.107421875000007
40
0.109375000000007
40
0.109375000000007
40
0.125000000000006
40
0.125000000000006
40
0.140625000000006
40
0.140625000000006
40
0.156250000000006
40
0.156250000000006
40
0.158203125000006
40
0.158203125000006
40
0.160156250000006
40
0.164062500000006
40
0.171875000000005
40
0.171875000000005
40
0.187500000000005
40
0.187500000000005
40
0.195312500000005
40
0.195312500000005
40
0.199218750000005
40
0.199218750000005
40
0.203125000000005
40
0.203125000000005
40
0.218750000000003
40
0.218750000000003
40
0.234375000000002
40
0.234375000000002
40
0.238281250000002
40
0.238281250000002
40
0.242187500000002
40
0.242187500000002
40
0.250000000000002
40
0.250000000000002
40
0.265625000000001
40
0.265625000000001
40
0.28125
40
0.28125
40
0.285156249999999
40
0.285156249999999
40
0.289062499999999
40
0.296874999999999
40
0.296874999999999
40
0.312499999999998
40
0.312499999999998
40
0.328124999999998
40
0.328124999999998
40
0.335937499999998
40
0.335937499999998
40
0.343749999999997
40
0.343749999999997
40
0.359374999999997
40
0.359374999999997
40
0.374999999999996
40
0.390624999999996
40
0.390624999999996
40
0.394531249999996
40
0.394531249999996
40
0.398437499999996
40
0.398437499999996
40
0.406249999999996
40
0.406249999999996
40
0.421874999999998
40
0.4375
40
0.4375
40
0.453125000000002
40
0.453125000000002
40
0.457031250000002
40
0.457031250000002
40
0.460937500000003
40
0.460937500000003
40
0.468750000000002
40
0.468750000000002
40
0.484375000000002
40
0.484375000000002
40
0.500000000000002
40
0.500000000000002
40
0.515625000000001
40
0.515625000000001
40
0.519531250000001
40
0.519531250000001
40
0.523437500000001
40
0.523437500000001
40
0.531250000000001
40
0.531250000000001
40
0.546875000000001
40
0.546875000000001
40
0.562500000000002
40
0.562500000000002
40
0.578125000000002
40
0.578125000000002
40
0.582031250000002
40
0.582031250000002
40
0.585937500000002
40
0.585937500000002
40
0.593750000000002
40
0.593750000000002
40
0.609375000000002
40
0.609375000000002
40
0.625000000000001
40
0.625000000000001
40
0.628906250000001
40
0.628906250000001
40
0.632812500000001
40
0.640625
40
0.640625
40
0.65625
40
0.65625
40
0.671874999999999
40
0.671874999999999
40
0.673828124999999
40
0.673828124999999
40
0.675781249999999
40
0.679687499999999
40
0.687499999999998
40
0.687499999999998
40
0.703124999999998
40
0.703124999999998
40
0.710937499999997
40
0.710937499999997
40
0.714843749999997
40
0.714843749999997
40
0.718749999999997
40
0.718749999999997
40
0.734374999999997
40
0.734374999999997
40
0.749999999999997
40
0.749999999999997
40
0.753906249999997
40
0.753906249999997
40
0.757812499999997
40
0.757812499999997
40
0.765624999999998
40
0.765624999999998
40
0.781249999999999
40
0.781249999999999
40
0.796875
40
0.796875
40
0.80078125
40
0.80078125
40
0.8046875
40
0.8046875
40
0.8125
40
0.8125
40
0.828124999999999
40
0.828124999999999
40
0.843749999999998
40
0.843749999999998
40
0.851562499999998
40
0.851562499999998
40
0.855468749999998
40
0.855468749999998
40
0.859374999999997
40
0.859374999999997
40
0.874999999999997
40
0.874999999999997
40
0.890624999999997
40
0.906249999999997
40
0.906249999999997
40
0.914062499999997
40
0.914062499999997
40
0.917968749999997
40
0.917968749999997
40
0.921874999999997
40
0.921874999999997
40
0.937499999999998
40
0.953124999999999
40
0.953124999999999
40
0.968749999999999
40
0.968749999999999
40
0.9765625
40
0.9765625
40
0.98046875
40
0.98046875
40
0.984375
40
0.9921875
40
0.9921875
40
0.99609375
40
0.998046875
40
0.9990234375
40
0.9990234375
40
1
40
1
40
1
40
1
41
1
10
79.1119136636659
20
-6.46682767076661
30
0
41
1
10
78.8740374651887
20
-6.35584937896468
30
0
41
1
10
78.6428873012037
20
-6.23561923651067
30
0
41
1
10
78.1938326895095
20
-5.97669933892169
30
0
41
1
10
77.9759275416566
20
-5.83801086651857
30
0
41
1
10
77.5535495456317
20
-5.54165417269343
30
0
41
1
10
77.3490740508343
20
-5.38399022452111
30
0
41
1
10
77.0529036561847
20
-5.13238814535603
30
0
41
1
10
76.955940993845
20
-5.04599769471574
30
0
41
1
10
76.8132350528775
20
-4.91246154925156
30
0
41
1
10
76.7661230367777
20
-4.86729065819012
30
0
41
1
10
76.6728321728677
20
-4.7755979173665
30
0
41
1
10
76.6267135248264
20
-4.72913207263306
30
0
41
1
10
76.3997052933663
20
-4.49462864977167
30
0
41
1
10
76.2286578889331
20
-4.29922616722638
30
0
41
1
10
75.9081007083068
20
-3.89232345035467
30
0
41
1
10
75.7585865422937
20
-3.6808268567321
30
0
41
1
10
75.5513654291587
20
-3.35070487657245
30
0
41
1
10
75.4851398849197
20
-3.23851321507237
30
0
41
1
10
75.3902535171195
20
-3.06684794004772
30
0
41
1
10
75.3439258771996
20
-2.98017022734524
30
0
41
1
10
75.2844333982858
20
-2.86286461240022
30
0
41
1
10
75.2554606873678
20
-2.80362480348981
30
0
41
1
10
75.1272944464007
20
-2.53667085122046
30
0
41
1
10
75.0282017454463
20
-2.29504060206071
30
0
41
1
10
74.85973394741
20
-1.80303360150495
30
0
41
1
10
74.7903565339991
20
-1.55265762251025
30
0
41
1
10
74.6823809067894
20
-1.04280653871237
30
0
41
1
10
74.6437737372998
20
-0.783334070473416
30
0
41
1
10
74.6189069378669
20
-0.485925573096495
30
0
41
1
10
74.616401443894
20
-0.452778383715213
30
0
41
1
10
74.6119299703916
20
-0.386593146146538
30
0
41
1
10
74.6060233994719
20
-0.287397554635334
30
0
41
1
10
74.5978150432663
20
-0.056513882667474
30
0
41
1
10
74.6002064551374
20
0.140417528511904
30
0
41
1
10
74.6173353459519
20
0.53301160256558
30
0
41
1
10
74.6451826736741
20
0.793052537035607
30
0
41
1
10
74.711330773605
20
1.18061286780292
30
0
41
1
10
74.7374514099806
20
1.30938198700986
30
0
41
1
10
74.7827823613238
20
1.50190579106786
30
0
41
1
10
74.7989182108299
20
1.56597536208105
30
0
41
1
10
74.8332547175853
20
1.69390324908304
30
0
41
1
10
74.8513902456088
20
1.757513573805
30
0
41
1
10
74.9466159512255
20
2.07316847690805
30
0
41
1
10
75.0374898170991
20
2.31874331910774
30
0
41
1
10
75.2467107739401
20
2.79697764720393
30
0
41
1
10
75.3650652277351
20
3.02963353836643
30
0
41
1
10
75.5296541258584
20
3.31268962917514
30
0
41
1
10
75.5634065277701
20
3.36891160687895
30
0
41
1
10
75.6325763738956
20
3.48058078776532
30
0
41
1
10
75.6680140118008
20
3.53605378612409
30
0
41
1
10
75.7762191227831
20
3.70042496442548
30
0
41
1
10
75.8510574859448
20
3.80757788331513
30
0
41
1
10
76.0833433314617
20
4.122090410879
30
0
41
1
10
76.2485378146122
20
4.32252494852139
30
0
41
1
10
76.5984772015651
20
4.70612175557338
30
0
41
1
10
76.783226475387
20
4.88927972527287
30
0
41
1
10
77.0261331392574
20
5.10778585721442
30
0
41
1
10
77.0753696105026
20
5.15101028399306
30
0
41
1
10
77.1747513302638
20
5.23616859948027
30
0
41
1
10
77.3251034977599
20
5.36190351269619
30
0
41
1
10
77.47922061837
20
5.4817673598956
30
0
41
1
10
77.7923300937021
20
5.71394650723852
30
0
41
1
10
78.0075573328024
20
5.85868825540467
30
0
41
1
10
78.4505580463584
20
6.12902050191664
30
0
41
1
10
78.678333287269
20
6.25460780703923
30
0
41
1
10
79.0293792179244
20
6.42885832319948
30
0
41
1
10
79.1479907139454
20
6.48459530246598
30
0
41
1
10
79.3882566795272
20
6.59128332526547
30
0
41
1
10
79.5091734154452
20
6.6419085409249
30
0
41
1
10
79.8742226037328
20
6.78585843494591
30
0
41
1
10
80.1206491858177
20
6.87127566208287
30
0
41
1
10
80.6194740427686
20
7.02175108745217
30
0
41
1
10
81.1242718657528
20
7.15186296067179
30
0
41
1
10
81.6410151214694
20
7.24160461758413
30
0
41
1
10
81.9677997727849
20
7.2848629187888
30
0
41
1
10
82.0333480547209
20
7.29287177968558
30
0
41
1
10
82.1648309128428
20
7.30759329162183
30
0
41
1
10
82.2306067038142
20
7.31428745679059
30
0
41
1
10
82.4277244666369
20
7.33235714648967
30
0
41
1
10
82.5589900790851
20
7.34173597938462
30
0
41
1
10
82.9523552437381
20
7.36200808304105
30
0
41
1
10
83.4756925892313
20
7.36809864286894
30
0
41
1
10
83.9967676486134
20
7.33299982561616
30
0
41
1
10
84.5167061539259
20
7.27715558105007
30
0
41
1
10
84.7761072220203
20
7.23886263976391
30
0
41
1
10
85.0996293025342
20
7.17761365405204
30
0
41
1
10
85.1642971900516
20
7.1646933493804
30
0
41
1
10
85.2935591574017
20
7.13749553979829
30
0
41
1
10
85.3579781316712
20
7.12325425864714
30
0
41
1
10
85.5503460017117
20
7.07867286941269
30
0
41
1
10
85.6775181262765
20
7.04645282279643
30
0
41
1
10
86.0558631132975
20
6.94237541407699
30
0
41
1
10
86.3038711118394
20
6.86311734042297
30
0
41
1
10
86.7915399800332
20
6.68488045888193
30
0
41
1
10
87.0312013740613
20
6.58590320413967
30
0
41
1
10
87.5020588336102
20
6.36770540313128
30
0
41
1
10
87.733256534438
20
6.2484892991975
30
0
41
1
10
88.0167354592305
20
6.08609457914827
30
0
41
1
10
88.0731546506246
20
6.05294513274976
30
0
41
1
10
88.1854312057206
20
5.9852794831352
30
0
41
1
10
88.2411696829941
20
5.95083334171358
30
0
41
1
10
88.4067338164712
20
5.84593545526303
30
0
41
1
10
88.5150984250225
20
5.77381171071616
30
0
41
1
10
88.8341921589271
20
5.55085803374055
30
0
41
1
10
89.0389371603129
20
5.39346354297768
30
0
41
1
10
89.4322653414429
20
5.0607021338175
30
0
41
1
10
89.6208513796282
20
4.88533887486423
30
0
41
1
10
89.9811260188297
20
4.51557317740998
30
0
41
1
10
90.1528212535859
20
4.32117878465178
30
0
41
1
10
90.3559952088986
20
4.06513108760902
30
0
41
1
10
90.3960557545197
20
4.01326650333968
30
0
41
1
10
90.474997397829
20
3.90818806053088
30
0
41
1
10
90.5137096527874
20
3.8551980457882
30
0
41
1
10
90.6274783372647
20
3.69499128979285
30
0
41
1
10
90.7002079424408
20
3.58648609653372
30
0
41
1
10
90.908971449165
20
3.25580121878468
30
0
41
1
10
91.0356098209588
20
3.02846824640514
30
0
41
1
10
91.2627272169835
20
2.55933081583066
30
0
41
1
10
91.3632153208903
20
2.31753155042802
30
0
41
1
10
91.4711425805899
20
2.00543436580514
30
0
41
1
10
91.4918735147507
20
1.94240935167878
30
0
41
1
10
91.53126568909
20
1.81616945708859
30
0
41
1
10
91.5873122852911
20
1.62636826375413
30
0
41
1
10
91.6342950884074
20
1.43525025247666
30
0
41
1
10
91.716230824446
20
1.05126304187661
30
0
41
1
10
91.7548483516439
20
0.792941255642546
30
0
41
1
10
91.7995633107552
20
0.271551674779715
30
0
41
1
10
91.8056664316688
20
0.0084846936267411
30
0
41
1
10
91.7933151061618
20
-0.290271291815202
30
0
41
1
10
91.7916735630358
20
-0.323521493746171
30
0
41
1
10
91.7878674838739
20
-0.389839465952662
30
0
41
1
10
91.7813715736202
20
-0.489135182353124
30
0
41
1
10
91.7607467878792
20
-0.719565946137038
30
0
41
1
10
91.7338541269999
20
-0.914956560276579
30
0
41
1
10
91.6680845966919
20
-1.30298169746149
30
0
41
1
10
91.6082923750704
20
-1.55799751431286
30
0
41
1
10
91.495251606948
20
-1.93517050524127
30
0
41
1
10
91.453670830966
20
-2.06000120880452
30
0
41
1
10
91.3854450896201
20
-2.24590951043442
30
0
41
1
10
91.3616860947543
20
-2.30775413181661
30
0
41
1
10
91.3124665308444
20
-2.43036766367445
30
0
41
1
10
91.2870032172112
20
-2.49115552597766
30
0
41
1
10
91.1555162138958
20
-2.79256378168716
30
0
41
1
10
91.0370244043042
20
-3.02561671078917
30
0
41
1
10
90.7751854507926
20
-3.4767583228616
30
0
41
1
10
90.6318314128549
20
-3.69484261068274
30
0
41
1
10
90.4375840283154
20
-3.95847240025614
30
0
41
1
10
90.3979796863613
20
-4.01074834029711
30
0
41
1
10
90.3172651582091
20
-4.11440491136457
30
0
41
1
10
90.2762215942198
20
-4.16569714154554
30
0
41
1
10
90.1514509178939
20
-4.31752744866321
30
0
41
1
10
90.0659334777024
20
-4.41621708640514
30
0
41
1
10
89.8026352066324
20
-4.70502613929247
30
0
41
1
10
89.6181283101778
20
-4.8879072595079
30
0
41
1
10
89.2320318142333
20
-5.23552493753911
30
0
41
1
10
89.0304387871457
20
-5.40025735274011
30
0
41
1
10
88.7679316418646
20
-5.59515443469138
30
0
41
1
10
88.7149030652431
20
-5.63358148959347
30
0
41
1
10
88.6077903957883
20
-5.70933339561196
30
0
41
1
10
88.5538417966584
20
-5.74656171171773
30
0
41
1
10
88.3910327002178
20
-5.85620473609916
30
0
41
1
10
88.2811253050858
20
-5.92663879700208
30
0
41
1
10
87.9474057585465
20
-6.13022000781274
30
0
41
1
10
87.7196060346349
20
-6.25566609167777
30
0
41
1
10
87.2536724544405
20
-6.486873013213
30
0
41
1
10
87.0155372780803
20
-6.59263087427013
30
0
41
1
10
86.6505861328435
20
-6.7366918789686
30
0
41
1
10
86.5276421424008
20
-6.78227847110801
30
0
41
1
10
86.3412665554022
20
-6.84699247692771
30
0
41
1
10
86.278806827856
20
-6.8679550862098
30
0
41
1
10
86.1532606867436
20
-6.90864174017864
30
0
41
1
10
86.0903701051171
20
-6.92830251174732
30
0
41
1
10
85.775335997066
20
-7.02323917515722
30
0
41
1
10
85.5214525076288
20
-7.08843697227667
30
0
41
1
10
85.010074754068
20
-7.19810190664074
30
0
41
1
10
84.4950855420609
20
-7.28703195395201
30
0
41
1
10
83.9729061574103
20
-7.33493594739636
30
0
41
1
10
83.5785283606559
20
-7.35526450609925
30
0
41
1
10
83.4466112734865
20
-7.35943685192856
30
0
41
1
10
83.2480372792528
20
-7.36172581048433
30
0
41
1
10
83.1816659891132
20
-7.36182530443708
30
0
41
1
10
83.0492682231254
20
-7.36069594935671
30
0
41
1
10
82.9831877755408
20
-7.35946900290534
30
0
41
1
10
82.6533722217137
20
-7.35005308110553
30
0
41
1
10
82.1294147640391
20
-7.314033628369
30
0
41
1
10
81.612774166939
20
-7.23699699779419
30
0
41
1
10
81.0997830128833
20
-7.13939085058712
30
0
41
1
10
80.8451118868371
20
-7.08030477363144
30
0
41
1
10
80.4658975427557
20
-6.97580955408017
30
0
41
1
10
80.3399588224186
20
-6.93832920830602
30
0
41
1
10
80.1517634148048
20
-6.87803851513138
30
0
41
1
10
80.0891068105682
20
-6.8572472075478
30
0
41
1
10
79.9644011435349
20
-6.81441641460339
30
0
41
1
10
79.778160475384
20
-6.74826914312075
30
0
41
1
10
79.5943687717844
20
-6.67641348360073
30
0
41
1
10
79.4122152529049
20
-6.60071617398015
30
0
41
1
10
79.3215481954366
20
-6.56190671386798
30
0
41
1
10
79.2164900654293
20
-6.51493487431753
30
0
41
1
10
79.1716199003671
20
-6.49443942666477
30
0
41
1
10
79.1417408996097
20
-6.48069456478623
30
0
41
1
10
79.1267809260707
20
-6.47376381400423
30
0
41
1
10
79.1119136636659
20
-6.46682767076661
30
0
0
SPLINE
5
12C
100
AcDbEntity
8
1
62
256
6
ByLayer
370
18
48
1
60
0
100
AcDbSpline
70
4
71
3
72
8
73
4
40
0
40
0
40
0
40
0
40
1
40
1
40
1
40
1
41
1
10
18.075
20
46.6193337496941
30
0
41
1
10
17.6364094022924
20
47.3963468891299
30
0
41
1
10
17.1974526722297
20
48.1731525519585
30
0
41
1
10
16.7581782385002
20
48.9497781813156
30
0
0
SPLINE
5
12D
100
AcDbEntity
8
1
62
256
6
ByLayer
370
18
48
1
60
0
100
AcDbSpline
70
4
71
3
72
30
73
26
40
0
40
0
40
0
40
0
40
0.124999999999973
40
0.124999999999973
40
0.18749999999996
40
0.18749999999996
40
0.249999999999946
40
0.249999999999946
40
0.374999999999956
40
0.374999999999956
40
0.437499999999961
40
0.437499999999961
40
0.499999999999965
40
0.499999999999965
40
0.624999999999986
40
0.624999999999986
40
0.687499999999988
40
0.687499999999988
40
0.749999999999989
40
0.749999999999989
40
0.81249999999999
40
0.81249999999999
40
0.874999999999991
40
0.874999999999991
40
1
40
1
40
1
40
1
41
1
10
21.9249999999999
20
45.2793571509137
30
0
41
1
10
21.9249999999999
20
45.2527048202185
30
0
41
1
10
21.9224846031061
20
45.226432155618
30
0
41
1
10
21.9150466602853
20
45.1875763192678
30
0
41
1
10
21.9119522207698
20
45.1747172188868
30
0
41
1
10
21.9044982985507
20
45.1491899597642
30
0
41
1
10
21.9001266041237
20
45.1365142444844
30
0
41
1
10
21.8853809521211
20
45.0995963312515
30
0
41
1
10
21.8733201135722
20
45.0761712747754
30
0
41
1
10
21.8518711917841
20
45.0428204351927
30
0
41
1
10
21.8441375196835
20
45.0319774486245
30
0
41
1
10
21.8275795212023
20
45.0110296098541
30
0
41
1
10
21.8188549614588
20
45.0010456895742
30
0
41
1
10
21.7913800967138
20
44.9725248898128
30
0
41
1
10
21.771341168959
20
44.9554051556841
30
0
41
1
10
21.7386122424179
20
44.9326624389483
30
0
41
1
10
21.727222851312
20
44.9255641170947
30
0
41
1
10
21.7039498748226
20
44.9126416193994
30
0
41
1
10
21.6920200304632
20
44.9067810719006
30
0
41
1
10
21.6675706386128
20
44.896267504031
30
0
41
1
10
21.6549908845314
20
44.8915984770109
30
0
41
1
10
21.6296249686597
20
44.8836257320693
30
0
41
1
10
21.6168235836362
20
44.88030766312
30
0
41
1
10
21.5780713145759
20
44.8723179207341
30
0
41
1
10
21.5517186073278
20
44.8695908606264
30
0
41
1
10
21.5249999999999
20
44.8695908606264
30
0
0
SPLINE
5
12E
100
AcDbEntity
8
1
62
256
6
ByLayer
370
18
48
1
60
0
100
AcDbSpline
70
4
71
3
72
32
73
28
40
0
40
0
40
0
40
0
40
0.125000000000038
40
0.125000000000038
40
0.187500000000056
40
0.187500000000056
40
0.250000000000074
40
0.250000000000074
40
0.375000000000083
40
0.375000000000083
40
0.43750000000009
40
0.43750000000009
40
0.500000000000098
40
0.500000000000098
40
0.625000000000081
40
0.625000000000081
40
0.687500000000068
40
0.687500000000068
40
0.750000000000054
40
0.750000000000054
40
0.812500000000041
40
0.812500000000041
40
0.875000000000027
40
0.875000000000027
40
0.937500000000014
40
0.937500000000014
40
1
40
1
40
1
40
1
41
1
10
21.925
20
34.1733540203475
30
0
41
1
10
21.925
20
34.1424203306449
30
0
41
1
10
21.9230661598506
20
34.1115135138973
30
0
41
1
10
21.9171602813935
20
34.0651950483842
30
0
41
1
10
21.9146757682035
20
34.0497096796465
30
0
41
1
10
21.9087306091939
20
34.0191486062634
30
0
41
1
10
21.9052702967262
20
34.004045888015
30
0
41
1
10
21.8934129045759
20
33.9592760214405
30
0
41
1
10
21.8835534280298
20
33.9301420360401
30
0
41
1
10
21.8655550470622
20
33.8876110607311
30
0
41
1
10
21.859017568447
20
33.8736302205084
30
0
41
1
10
21.8447699230001
20
33.8460960805589
30
0
41
1
10
21.8370394764306
20
33.8325095143895
30
0
41
1
10
21.8120044724296
20
33.7926857556845
30
0
41
1
10
21.793226533146
20
33.76790066185
30
0
41
1
10
21.7614114501919
20
33.7338053301166
30
0
41
1
10
21.7501937180374
20
33.7229578879946
30
0
41
1
10
21.7263593614781
20
33.7024449150752
30
0
41
1
10
21.7139258402081
20
33.6929425562823
30
0
41
1
10
21.688073980832
20
33.6756384765151
30
0
41
1
10
21.674638558618
20
33.6678205944247
30
0
41
1
10
21.6466409124853
20
33.6540296667728
30
0
41
1
10
21.6320003129868
20
33.6480372361003
30
0
41
1
10
21.6020255724106
20
33.6383527701043
30
0
41
1
10
21.5867449844975
20
33.6346733088305
30
0
41
1
10
21.556067010672
20
33.629774674799
30
0
41
1
10
21.5405996647557
20
33.6285314130725
30
0
41
1
10
21.525
20
33.6285314130725
30
0
0
SPLINE
5
12F
100
AcDbEntity
8
1
62
256
6
ByLayer
370
18
48
1
60
0
100
AcDbSpline
70
4
71
3
72
8
73
4
40
0
40
0
40
0
40
0
40
1
40
1
40
1
40
1
41
1
10
18.075
20
35.9299348769987
30
0
41
1
10
17.6421549277525
20
36.9249075564604
30
0
41
1
10
17.2029025605752
20
37.9167868306777
30
0
41
1
10
16.7581782385002
20
38.9060242764537
30
0
0
SPLINE
5
130
100
AcDbEntity
8
1
62
256
6
ByLayer
370
18
48
1
60
0
100
AcDbSpline
70
4
71
3
72
30
73
26
40
0
40
0
40
0
40
0
40
0.0624999999999984
40
0.0624999999999984
40
0.124999999999997
40
0.124999999999997
40
0.187499999999995
40
0.187499999999995
40
0.249999999999994
40
0.249999999999994
40
0.374999999999975
40
0.374999999999975
40
0.437499999999973
40
0.437499999999973
40
0.49999999999997
40
0.49999999999997
40
0.624999999999978
40
0.624999999999978
40
0.749999999999985
40
0.749999999999985
40
0.812499999999989
40
0.812499999999989
40
0.874999999999993
40
0.874999999999993
40
1
40
1
40
1
40
1
41
1
10
18.475
20
44.8695908606263
30
0
41
1
10
18.4618093595738
20
44.8695908606263
30
0
41
1
10
18.4485886846155
20
44.8702576854818
30
0
41
1
10
18.4220855200817
20
44.8729637395628
30
0
41
1
10
18.4088465110679
20
44.8750053678631
30
0
41
1
10
18.3827839009757
20
44.8803985689214
30
0
41
1
10
18.3699040115914
20
44.8837549149648
30
0
41
1
10
18.3444487081401
20
44.8917942612597
30
0
41
1
10
18.3319382570216
20
44.8964625944705
30
0
41
1
10
18.2955008289096
20
44.9121802857078
30
0
41
1
10
18.2724668314571
20
44.9249841060693
30
0
41
1
10
18.2397920090741
20
44.9476589084756
30
0
41
1
10
18.2291637911831
20
44.9558484894339
30
0
41
1
10
18.2089483809423
20
44.9730931376429
30
0
41
1
10
18.1993293389751
20
44.9821611683337
30
0
41
1
10
18.1718955021461
20
45.0106634334105
30
0
41
1
10
18.1554780526559
20
45.0314027938814
30
0
41
1
10
18.1265671857289
20
45.076336873242
30
0
41
1
10
18.114510811826
20
45.0998433624449
30
0
41
1
10
18.0998494468446
20
45.1365862771484
30
0
41
1
10
18.0955371249715
20
45.14908296104
30
0
41
1
10
18.0880827238373
20
45.1745833642234
30
0
41
1
10
18.0849411830151
20
45.1876202913674
30
0
41
1
10
18.0774740646744
20
45.2266874028822
30
0
41
1
10
18.0749999999999
20
45.2529263401313
30
0
41
1
10
18.075
20
45.2793571509138
30
0
0
SPLINE
5
131
100
AcDbEntity
8
1
62
256
6
ByLayer
370
18
48
1
60
0
100
AcDbSpline
70
4
71
3
72
34
73
30
40
0
40
0
40
0
40
0
40
0.0624999999999882
40
0.0624999999999882
40
0.124999999999976
40
0.124999999999976
40
0.187499999999965
40
0.187499999999965
40
0.218749999999959
40
0.218749999999959
40
0.249999999999953
40
0.249999999999953
40
0.374999999999952
40
0.374999999999952
40
0.437499999999952
40
0.437499999999952
40
0.499999999999952
40
0.499999999999952
40
0.624999999999944
40
0.624999999999944
40
0.68749999999995
40
0.68749999999995
40
0.749999999999956
40
0.749999999999956
40
0.874999999999992
40
0.874999999999992
40
0.937499999999996
40
0.937499999999996
40
1
40
1
40
1
40
1
41
1
10
18.475
20
33.6285314130725
30
0
41
1
10
18.459488240567
20
33.6285314130725
30
0
41
1
10
18.4439344663119
20
33.6297621349265
30
0
41
1
10
18.4127970175117
20
33.6347589273291
30
0
41
1
10
18.3976373727532
20
33.6384542021108
30
0
41
1
10
18.3680630304846
20
33.648024306251
30
0
41
1
10
18.3536487207877
20
33.6539002702671
30
0
41
1
10
18.3325586496574
20
33.6642689585262
30
0
41
1
10
18.3255960417933
20
33.667999095924
30
0
41
1
10
18.3120442414648
20
33.6758520526728
30
0
41
1
10
18.3054342697433
20
33.6799831186369
30
0
41
1
10
18.2731571422788
20
33.7015912158019
30
0
41
1
10
18.2497744825614
20
33.721885000583
30
0
41
1
10
18.21775829871
20
33.7560959120318
30
0
41
1
10
18.2076153875602
20
33.768138493339
30
0
41
1
10
18.1887200690627
20
33.7928550225247
30
0
41
1
10
18.1799020425184
20
33.8055962314182
30
0
41
1
10
18.1551541452063
20
33.8448575627649
30
0
41
1
10
18.1409155590863
20
33.87240632908
30
0
41
1
10
18.1225932403435
20
33.9155757145572
30
0
41
1
10
18.1170363742524
20
33.9301883855126
30
0
41
1
10
18.1070380634342
20
33.9595750563925
30
0
41
1
10
18.1025796600349
20
33.9743892279974
30
0
41
1
10
18.0907326299962
20
34.0191732291611
30
0
41
1
10
18.0848612186958
20
34.0494820948762
30
0
41
1
10
18.0789548996022
20
34.0955936042399
30
0
41
1
10
18.0774724964125
20
34.1110727913147
30
0
41
1
10
18.0754907636628
20
34.1422508425901
30
0
41
1
10
18.075
20
34.1578391207073
30
0
41
1
10
18.075
20
34.1733540203475
30
0
0
SPLINE
5
132
100
AcDbEntity
8
1
62
256
6
ByLayer
370
18
48
1
60
0
100
AcDbSpline
70
4
71
3
72
8
73
4
40
0
40
0
40
0
40
0
40
1
40
1
40
1
40
1
41
1
10
23.2418217614997
20
48.9497781813156
30
0
41
1
10
22.8025473277702
20
48.1731525519585
30
0
41
1
10
22.3635905977074
20
47.3963468891299
30
0
41
1
10
21.9249999999999
20
46.6193337496941
30
0
0
SPLINE
5
133
100
AcDbEntity
8
1
62
256
6
ByLayer
370
18
48
1
60
0
100
AcDbSpline
70
4
71
3
72
8
73
4
40
0
40
0
40
0
40
0
40
1
40
1
40
1
40
1
41
1
10
23.2418217614997
20
38.9060242764537
30
0
41
1
10
22.7970974394247
20
37.9167868306777
30
0
41
1
10
22.3578450722475
20
36.9249075564604
30
0
41
1
10
21.925
20
35.9299348769987
30
0
0
SPLINE
5
134
100
AcDbEntity
8
1
62
256
6
ByLayer
370
18
48
1
60
0
100
AcDbSpline
70
4
71
3
72
8
73
4
40
0
40
0
40
0
40
0
40
1
40
1
40
1
40
1
41
1
10
28.95
20
48.2350472581919
30
0
41
1
10
28.7167026129473
20
48.4733261949083
30
0
41
1
10
28.4833687655885
20
48.7115693312277
30
0
41
1
10
28.2499999999999
20
48.9497781813156
30
0
0
SPLINE
5
135
100
AcDbEntity
8
1
62
256
6
ByLayer
370
18
48
1
60
0
100
AcDbSpline
70
4
71
3
72
8
73
4
40
0
40
0
40
0
40
0
40
1
40
1
40
1
40
1
41
1
10
28.95
20
38.0028646946517
30
0
41
1
10
28.717385155116
20
38.3044148652845
30
0
41
1
10
28.4840015193126
20
38.6055081962349
30
0
41
1
10
28.2499999999999
20
38.9060242764537
30
0
0
SPLINE
5
136
100
AcDbEntity
8
1
62
256
6
ByLayer
370
18
48
1
60
0
100
AcDbSpline
70
4
71
3
72
52
73
48
40
0
40
0
40
0
40
0
40
0.0625000000000007
40
0.0625000000000007
40
0.125000000000001
40
0.125000000000001
40
0.156250000000002
40
0.156250000000002
40
0.171875000000002
40
0.171875000000002
40
0.187500000000002
40
0.187500000000002
40
0.250000000000007
40
0.312500000000012
40
0.312500000000012
40
0.328125000000015
40
0.328125000000015
40
0.343750000000018
40
0.375000000000023
40
0.375000000000023
40
0.437500000000035
40
0.437500000000035
40
0.468750000000039
40
0.468750000000039
40
0.48437500000004
40
0.48437500000004
40
0.500000000000041
40
0.500000000000041
40
0.562500000000035
40
0.62500000000003
40
0.62500000000003
40
0.656250000000026
40
0.656250000000026
40
0.687500000000022
40
0.687500000000022
40
0.750000000000018
40
0.750000000000018
40
0.781250000000015
40
0.781250000000015
40
0.812500000000013
40
0.812500000000013
40
0.875000000000009
40
0.937500000000004
40
0.937500000000004
40
0.968750000000002
40
0.968750000000002
40
1
40
1
40
1
40
1
41
1
10
18.475
20
8.82745624824838
30
0
41
1
10
18.5131930808128
20
8.89405662171501
30
0
41
1
10
18.5554606478646
20
8.95738557328826
30
0
41
1
10
18.6478179474983
20
9.07777667488122
30
0
41
1
10
18.6979086926173
20
9.13483797258405
30
0
41
1
10
18.7789823714228
20
9.21568410815613
30
0
41
1
10
18.8069996678942
20
9.24183934221426
30
0
41
1
10
18.8505536464379
20
9.27985231561823
30
0
41
1
10
18.8653029438398
20
9.29229762208828
30
0
41
1
10
18.8950955856762
20
9.31660228793902
30
0
41
1
10
18.9101625115515
20
9.3284824333754
30
0
41
1
10
18.9863395554145
20
9.38653975566424
30
0
41
1
10
19.1135926887496
20
9.47086828252662
30
0
41
1
10
19.2514036903976
20
9.53838905803218
30
0
41
1
10
19.3409544661046
20
9.57515479974677
30
0
41
1
10
19.3590520089523
20
9.5822395988682
30
0
41
1
10
19.3953229586329
20
9.5957573232204
30
0
41
1
10
19.4499381667587
20
9.61509657435272
30
0
41
1
10
19.5051707053838
20
9.63166507308728
30
0
41
1
10
19.6164454423366
20
9.66116977299063
30
0
41
1
10
19.6917046822207
20
9.6760121610406
30
0
41
1
10
19.8062181220335
20
9.69099236742508
30
0
41
1
10
19.8446608919079
20
9.69476798755383
30
0
41
1
10
19.9027419621887
20
9.69856254593421
30
0
41
1
10
19.9222082263656
20
9.69951633011658
30
0
41
1
10
19.9610432866323
20
9.70078420155346
30
0
41
1
10
19.9804206757315
20
9.70110026133054
30
0
41
1
10
20.077109708401
20
9.70111331440546
30
0
41
1
10
20.2305507204106
20
9.69114534330495
30
0
41
1
10
20.3815254793056
20
9.66164390750947
30
0
41
1
10
20.493803921715
20
9.63196802955147
30
0
41
1
10
20.531126742299
20
9.62078432294817
30
0
41
1
10
20.6043513378543
20
9.59620893091787
30
0
41
1
10
20.6403890093397
20
9.58278629233357
30
0
41
1
10
20.7468111863411
20
9.5391768424038
30
0
41
1
10
20.8155120434473
20
9.50566279471815
30
0
41
1
10
20.9151902047722
20
9.44871626293661
30
0
41
1
10
20.9478522755725
20
9.42861793964076
30
0
41
1
10
21.0120256139634
20
9.38614199014498
30
0
41
1
10
21.0436243918519
20
9.36368915668103
30
0
41
1
10
21.1353630867129
20
9.2938133811403
30
0
41
1
10
21.2502848660041
20
9.19354381991008
30
0
41
1
10
21.3508223253872
20
9.07943318378557
30
0
41
1
10
21.4206978904473
20
8.98851999372263
30
0
41
1
10
21.4431137195572
20
8.95724713254154
30
0
41
1
10
21.4857057869268
20
8.8933735452155
30
0
41
1
10
21.5059034870284
20
8.86075638714141
30
0
41
1
10
21.525
20
8.82745624824841
30
0
0
SPLINE
5
137
100
AcDbEntity
8
1
62
256
6
ByLayer
370
18
48
1
60
0
100
AcDbSpline
70
4
71
3
72
52
73
48
40
0
40
0
40
0
40
0
40
0.0625000000000061
40
0.0625000000000061
40
0.125000000000012
40
0.125000000000012
40
0.156250000000015
40
0.156250000000015
40
0.171875000000017
40
0.171875000000017
40
0.187500000000018
40
0.187500000000018
40
0.250000000000022
40
0.312500000000026
40
0.312500000000026
40
0.328125000000026
40
0.328125000000026
40
0.343750000000026
40
0.375000000000026
40
0.375000000000026
40
0.437500000000023
40
0.437500000000023
40
0.468750000000023
40
0.468750000000023
40
0.484375000000025
40
0.484375000000025
40
0.500000000000026
40
0.500000000000026
40
0.562500000000023
40
0.625000000000021
40
0.625000000000021
40
0.65625000000002
40
0.65625000000002
40
0.68750000000002
40
0.68750000000002
40
0.750000000000017
40
0.750000000000017
40
0.781250000000015
40
0.781250000000015
40
0.812500000000014
40
0.812500000000014
40
0.875000000000009
40
0.937500000000005
40
0.937500000000005
40
0.968750000000002
40
0.968750000000002
40
1
40
1
40
1
40
1
41
1
10
21.525
20
-8.82745624824835
30
0
41
1
10
21.4868069191872
20
-8.89405662171498
30
0
41
1
10
21.4445393521354
20
-8.95738557328824
30
0
41
1
10
21.3521820525017
20
-9.07777667488119
30
0
41
1
10
21.3020913073827
20
-9.13483797258402
30
0
41
1
10
21.2210176285772
20
-9.21568410815607
30
0
41
1
10
21.1930003321058
20
-9.24183934221423
30
0
41
1
10
21.1494463535621
20
-9.2798523156182
30
0
41
1
10
21.1346970561602
20
-9.29229762208823
30
0
41
1
10
21.1049044143238
20
-9.31660228793899
30
0
41
1
10
21.0898374884485
20
-9.32848243337534
30
0
41
1
10
21.0136604445855
20
-9.38653975566419
30
0
41
1
10
20.8864073112504
20
-9.47086828252657
30
0
41
1
10
20.7485963096024
20
-9.53838905803212
30
0
41
1
10
20.6590455338954
20
-9.57515479974674
30
0
41
1
10
20.6409479910477
20
-9.58223959886814
30
0
41
1
10
20.6046770413671
20
-9.59575732322034
30
0
41
1
10
20.5500618332412
20
-9.61509657435266
30
0
41
1
10
20.4948292946162
20
-9.63166507308722
30
0
41
1
10
20.3835545576634
20
-9.66116977299058
30
0
41
1
10
20.3082953177793
20
-9.67601216104055
30
0
41
1
10
20.1937818779665
20
-9.69099236742503
30
0
41
1
10
20.1553391080921
20
-9.69476798755377
30
0
41
1
10
20.0972580378113
20
-9.69856254593415
30
0
41
1
10
20.0777917736344
20
-9.69951633011652
30
0
41
1
10
20.0389567133677
20
-9.7007842015534
30
0
41
1
10
20.0195793242685
20
-9.70110026133048
30
0
41
1
10
19.922890291599
20
-9.7011133144054
30
0
41
1
10
19.7694493182328
20
-9.69114502340113
30
0
41
1
10
19.6184745206943
20
-9.66164390750941
30
0
41
1
10
19.506196078285
20
-9.63196802955142
30
0
41
1
10
19.468873257701
20
-9.62078432294811
30
0
41
1
10
19.3956486621457
20
-9.59620893091778
30
0
41
1
10
19.3596109906603
20
-9.58278629233351
30
0
41
1
10
19.2531888136589
20
-9.53917684240375
30
0
41
1
10
19.1844879565527
20
-9.50566279471809
30
0
41
1
10
19.0848097952278
20
-9.44871626293656
30
0
41
1
10
19.0521477244275
20
-9.4286179396407
30
0
41
1
10
18.9879743860366
20
-9.38614199014492
30
0
41
1
10
18.9563756081481
20
-9.36368915668098
30
0
41
1
10
18.8646369132871
20
-9.29381338114021
30
0
41
1
10
18.7497151339958
20
-9.19354381991002
30
0
41
1
10
18.6491776746128
20
-9.07943318378551
30
0
41
1
10
18.5793021095527
20
-8.98851999372258
30
0
41
1
10
18.5568862804428
20
-8.95724713254148
30
0
41
1
10
18.5142942130732
20
-8.89337354521544
30
0
41
1
10
18.4940965129716
20
-8.86075638714135
30
0
41
1
10
18.475
20
-8.82745624824832
30
0
0
SPLINE
5
138
100
AcDbEntity
8
1
62
256
6
ByLayer
370
18
48
1
60
0
100
AcDbSpline
70
4
71
3
72
52
73
48
40
0
40
0
40
0
40
0
40
0.0624999999999931
40
0.0624999999999931
40
0.124999999999986
40
0.124999999999986
40
0.156249999999983
40
0.156249999999983
40
0.171874999999981
40
0.171874999999981
40
0.18749999999998
40
0.18749999999998
40
0.24999999999997
40
0.312499999999961
40
0.312499999999961
40
0.32812499999996
40
0.32812499999996
40
0.343749999999958
40
0.374999999999956
40
0.374999999999956
40
0.437499999999948
40
0.437499999999948
40
0.468749999999945
40
0.468749999999945
40
0.484374999999945
40
0.484374999999945
40
0.499999999999945
40
0.499999999999945
40
0.562499999999948
40
0.624999999999951
40
0.624999999999951
40
0.656249999999954
40
0.656249999999954
40
0.687499999999957
40
0.687499999999957
40
0.749999999999966
40
0.749999999999966
40
0.78124999999997
40
0.78124999999997
40
0.812499999999974
40
0.812499999999974
40
0.874999999999983
40
0.937499999999991
40
0.937499999999991
40
0.968749999999996
40
0.968749999999996
40
1
40
1
40
1
40
1
41
1
10
21.525
20
7.13671025908167
30
0
41
1
10
21.4868069191872
20
7.0696698288134
30
0
41
1
10
21.4445393521353
20
7.00587025666866
30
0
41
1
10
21.3521820525017
20
6.88450330592332
30
0
41
1
10
21.3020913073827
20
6.82693670265505
30
0
41
1
10
21.2210176285772
20
6.74532595300249
30
0
41
1
10
21.1930003321058
20
6.71891474029709
30
0
41
1
10
21.1494463535621
20
6.68051865864237
30
0
41
1
10
21.1346970561602
20
6.66794601142828
30
0
41
1
10
21.1049044143238
20
6.64338922161218
30
0
41
1
10
21.0898374884485
20
6.63138408428506
30
0
41
1
10
21.0136604445855
20
6.57270811008976
30
0
41
1
10
20.8864073112504
20
6.4874302405405
30
0
41
1
10
20.7485963096024
20
6.4190882097121
30
0
41
1
10
20.6590455338954
20
6.38186424615404
30
0
41
1
10
20.6409479910477
20
6.37469050014118
30
0
41
1
10
20.6046770413671
20
6.36100202225884
30
0
41
1
10
20.5500618332412
20
6.34141684334611
30
0
41
1
10
20.4948292946162
20
6.32463383686246
30
0
41
1
10
20.3835545576634
20
6.29474411539377
30
0
41
1
10
20.3082953177792
20
6.27970369831232
30
0
41
1
10
20.1937818779665
20
6.26452270090064
30
0
41
1
10
20.155339108092
20
6.26069619257271
30
0
41
1
10
20.0972580378113
20
6.25685043140464
30
0
41
1
10
20.0777917736344
20
6.25588375910309
30
0
41
1
10
20.0389567133677
20
6.25459875053053
30
0
41
1
10
20.0195793242685
20
6.25427841514934
30
0
41
1
10
19.922890291599
20
6.254265185544
30
0
41
1
10
19.7694493182328
20
6.26436884348033
30
0
41
1
10
19.6184745206943
20
6.2942637364566
30
0
41
1
10
19.506196078285
20
6.32432695479451
30
0
41
1
10
19.468873257701
20
6.33565546844014
30
0
41
1
10
19.3956486621457
20
6.36054510369158
30
0
41
1
10
19.3596109906603
20
6.37413758752493
30
0
41
1
10
19.2531888136589
20
6.41829070974688
30
0
41
1
10
19.1844879565527
20
6.45221272773577
30
0
41
1
10
19.0848097952277
20
6.50982371252888
30
0
41
1
10
19.0521477244275
20
6.530152271101
30
0
41
1
10
18.9879743860366
20
6.57310349914553
30
0
41
1
10
18.9563756081481
20
6.59580214597713
30
0
41
1
10
18.8646369132871
20
6.66642267742492
30
0
41
1
10
18.7497151339958
20
6.76770948571948
30
0
41
1
10
18.6491776746128
20
6.88283276927342
30
0
41
1
10
18.5793021095527
20
6.97448376243369
30
0
41
1
10
18.5568862804428
20
7.00599948201591
30
0
41
1
10
18.5142942130732
20
7.07034433321832
30
0
41
1
10
18.4940965129716
20
7.10319009210394
30
0
41
1
10
18.475
20
7.1367102590817
30
0
0
SPLINE
5
139
100
AcDbEntity
8
1
62
256
6
ByLayer
370
18
48
1
60
0
100
AcDbSpline
70
4
71
3
72
52
73
48
40
0
40
0
40
0
40
0
40
0.0625000000000004
40
0.0625000000000004
40
0.125000000000001
40
0.125000000000001
40
0.156250000000001
40
0.156250000000001
40
0.171875000000002
40
0.171875000000002
40
0.187500000000002
40
0.187500000000002
40
0.250000000000009
40
0.312500000000016
40
0.312500000000016
40
0.328125000000016
40
0.328125000000016
40
0.343750000000016
40
0.375000000000017
40
0.375000000000017
40
0.437500000000015
40
0.437500000000015
40
0.468750000000015
40
0.468750000000015
40
0.484375000000014
40
0.484375000000014
40
0.500000000000013
40
0.500000000000013
40
0.562500000000011
40
0.625000000000009
40
0.625000000000009
40
0.656250000000009
40
0.656250000000009
40
0.68750000000001
40
0.68750000000001
40
0.750000000000008
40
0.750000000000008
40
0.781250000000007
40
0.781250000000007
40
0.812500000000006
40
0.812500000000006
40
0.875000000000004
40
0.937500000000002
40
0.937500000000002
40
0.968750000000001
40
0.968750000000001
40
1
40
1
40
1
40
1
41
1
10
18.475
20
-7.13671025908164
30
0
41
1
10
18.5131930808128
20
-7.06966982881337
30
0
41
1
10
18.5554606478646
20
-7.00587025666863
30
0
41
1
10
18.6478179474983
20
-6.88450330592329
30
0
41
1
10
18.6979086926173
20
-6.82693670265502
30
0
41
1
10
18.7789823714228
20
-6.74532595300244
30
0
41
1
10
18.8069996678942
20
-6.71891474029707
30
0
41
1
10
18.8505536464379
20
-6.68051865864231
30
0
41
1
10
18.8653029438398
20
-6.66794601142823
30
0
41
1
10
18.8950955856762
20
-6.64338922161215
30
0
41
1
10
18.9101625115515
20
-6.63138408428503
30
0
41
1
10
18.9863395554145
20
-6.57270811008971
30
0
41
1
10
19.1135926887496
20
-6.48743024054048
30
0
41
1
10
19.2514036903976
20
-6.41908820971207
30
0
41
1
10
19.3409544661046
20
-6.38186424615398
30
0
41
1
10
19.3590520089523
20
-6.37469050014113
30
0
41
1
10
19.3953229586329
20
-6.36100202225879
30
0
41
1
10
19.4499381667588
20
-6.34141684334605
30
0
41
1
10
19.5051707053838
20
-6.32463383686243
30
0
41
1
10
19.6164454423366
20
-6.29474411539371
30
0
41
1
10
19.6917046822207
20
-6.27970369831226
30
0
41
1
10
19.8062181220335
20
-6.26452270090059
30
0
41
1
10
19.8446608919079
20
-6.26069619257265
30
0
41
1
10
19.9027419621887
20
-6.25685043140462
30
0
41
1
10
19.9222082263656
20
-6.25588375910303
30
0
41
1
10
19.9610432866323
20
-6.25459875053048
30
0
41
1
10
19.9804206757315
20
-6.25427841514932
30
0
41
1
10
20.077109708401
20
-6.25426518554397
30
0
41
1
10
20.2305506817672
20
-6.2643688434803
30
0
41
1
10
20.3815254793057
20
-6.29426373645654
30
0
41
1
10
20.493803921715
20
-6.32432695479446
30
0
41
1
10
20.531126742299
20
-6.33565546844008
30
0
41
1
10
20.6043513378543
20
-6.36054510369152
30
0
41
1
10
20.6403890093397
20
-6.37413758752487
30
0
41
1
10
20.7468111863411
20
-6.41829070974683
30
0
41
1
10
20.8155120434473
20
-6.45221272773571
30
0
41
1
10
20.9151902047722
20
-6.50982371252883
30
0
41
1
10
20.9478522755725
20
-6.53015227110095
30
0
41
1
10
21.0120256139634
20
-6.57310349914547
30
0
41
1
10
21.0436243918519
20
-6.59580214597707
30
0
41
1
10
21.1353630867129
20
-6.66642267742486
30
0
41
1
10
21.2502848660042
20
-6.76770948571942
30
0
41
1
10
21.3508223253872
20
-6.88283276927334
30
0
41
1
10
21.4206978904473
20
-6.97448376243364
30
0
41
1
10
21.4431137195572
20
-7.00599948201585
30
0
41
1
10
21.4857057869268
20
-7.07034433321826
30
0
41
1
10
21.5059034870284
20
-7.10319009210389
30
0
41
1
10
21.525
20
-7.13671025908164
30
0
0
SPLINE
5
13A
100
AcDbEntity
8
1
62
256
6
ByLayer
370
18
48
1
60
0
100
AcDbSpline
70
4
71
3
72
30
73
26
40
0
40
0
40
0
40
0
40
0.125000000000038
40
0.125000000000038
40
0.187500000000046
40
0.187500000000046
40
0.250000000000054
40
0.312500000000061
40
0.312500000000061
40
0.375000000000069
40
0.375000000000069
40
0.500000000000079
40
0.500000000000079
40
0.562500000000078
40
0.562500000000078
40
0.625000000000077
40
0.625000000000077
40
0.750000000000048
40
0.750000000000048
40
0.812500000000036
40
0.812500000000036
40
0.875000000000024
40
0.937500000000012
40
0.937500000000012
40
1
40
1
40
1
40
1
41
1
10
18.4750000000001
20
-44.6344954491478
30
0
41
1
10
18.4485341742596
20
-44.6344954491478
30
0
41
1
10
18.4221876623
20
-44.6371739420283
30
0
41
1
10
18.3828527014004
20
-44.6453404421854
30
0
41
1
10
18.3699223084826
20
-44.6487321702134
30
0
41
1
10
18.3446383622327
20
-44.6567516674785
30
0
41
1
10
18.3198566595847
20
-44.6660226491209
30
0
41
1
10
18.2960663965616
20
-44.6777640877221
30
0
41
1
10
18.2727800295458
20
-44.6907611281439
30
0
41
1
10
18.2613761041526
20
-44.6979067061606
30
0
41
1
10
18.2286697661727
20
-44.7207536660762
30
0
41
1
10
18.208594589125
20
-44.7379847650583
30
0
41
1
10
18.1810246238523
20
-44.7667723797967
30
0
41
1
10
18.172218645988
20
-44.776919395775
30
0
41
1
10
18.1557299046675
20
-44.7979172518189
30
0
41
1
10
18.1480519207857
20
-44.8087477773346
30
0
41
1
10
18.1266609702834
20
-44.8422012673345
30
0
41
1
10
18.1145757667847
20
-44.8657772240004
30
0
41
1
10
18.0997731338374
20
-44.9030879184287
30
0
41
1
10
18.0954457087347
20
-44.915740152683
30
0
41
1
10
18.0880509279735
20
-44.9412179208894
30
0
41
1
10
18.0818855124323
20
-44.9669457529298
30
0
41
1
10
18.0781457804928
20
-44.9931669906171
30
0
41
1
10
18.0756366060289
20
-45.0196385346539
30
0
41
1
10
18.0750000000001
20
-45.0330697628053
30
0
41
1
10
18.0750000000001
20
-45.0464003445336
30
0
0
SPLINE
5
13B
100
AcDbEntity
8
1
62
256
6
ByLayer
370
18
48
1
60
0
100
AcDbSpline
70
4
71
3
72
32
73
28
40
0
40
0
40
0
40
0
40
0.124999999999997
40
0.124999999999997
40
0.249999999999993
40
0.249999999999993
40
0.281249999999992
40
0.281249999999992
40
0.312499999999991
40
0.312499999999991
40
0.374999999999991
40
0.374999999999991
40
0.499999999999993
40
0.499999999999993
40
0.562499999999995
40
0.562499999999995
40
0.593749999999997
40
0.593749999999997
40
0.624999999999997
40
0.624999999999997
40
0.749999999999997
40
0.749999999999997
40
0.874999999999997
40
0.874999999999997
40
0.937499999999999
40
0.937499999999999
40
1
40
1
40
1
40
1
41
1
10
18.475
20
-8.82745624824832
30
0
41
1
10
18.4377864466611
20
-8.76256395630315
30
0
41
1
10
18.4054492427888
20
-8.6972254738636
30
0
41
1
10
18.349710814951
20
-8.56422661798976
30
0
41
1
10
18.3263174295068
20
-8.49658590374042
30
0
41
1
10
18.3026347247877
20
-8.40980695132882
30
0
41
1
10
18.2981777768654
20
-8.39233946392315
30
0
41
1
10
18.2898288157941
20
-8.35715950288485
30
0
41
1
10
18.2859353635673
20
-8.33943418600853
30
0
41
1
10
18.2751840579966
20
-8.28623216802924
30
0
41
1
10
18.2692244159246
20
-8.25061249335548
30
0
41
1
10
18.2549017237894
20
-8.14316707428327
30
0
41
1
10
18.250079691989
20
-8.07073664892101
30
0
41
1
10
18.249961617153
20
-7.96061919661554
30
0
41
1
10
18.251111974268
20
-7.92367239491395
30
0
41
1
10
18.2546595041354
20
-7.86790025401407
30
0
41
1
10
18.2561459141043
20
-7.84925120805957
30
0
41
1
10
18.2597356429362
20
-7.81184177844321
30
0
41
1
10
18.261839368491
20
-7.79309330691436
30
0
41
1
10
18.2738091220134
20
-7.69986645461566
30
0
41
1
10
18.2880551680473
20
-7.6263014392558
30
0
41
1
10
18.3256409102619
20
-7.48138135487181
30
0
41
1
10
18.3489787734403
20
-7.41002551449392
30
0
41
1
10
18.3911622507963
20
-7.3049481733994
30
0
41
1
10
18.4063797715672
20
-7.27037709534616
30
0
41
1
10
18.4390017274134
20
-7.20258607374524
30
0
41
1
10
18.4564279174875
20
-7.16930989168461
30
0
41
1
10
18.4749999999984
20
-7.1367102590807
30
0
0
SPLINE
5
13C
100
AcDbEntity
8
1
62
256
6
ByLayer
370
18
48
1
60
0
100
AcDbSpline
70
4
71
3
72
32
73
28
40
0
40
0
40
0
40
0
40
0.125000000000003
40
0.125000000000003
40
0.250000000000006
40
0.250000000000006
40
0.281250000000007
40
0.281250000000007
40
0.312500000000008
40
0.312500000000008
40
0.375000000000009
40
0.375000000000009
40
0.500000000000009
40
0.500000000000009
40
0.562500000000009
40
0.562500000000009
40
0.593750000000009
40
0.593750000000009
40
0.625000000000009
40
0.625000000000009
40
0.750000000000004
40
0.750000000000004
40
0.875
40
0.875
40
0.9375
40
0.9375
40
1
40
1
40
1
40
1
41
1
10
18.475
20
7.1367102590817
30
0
41
1
10
18.4377864466611
20
7.20203132181237
30
0
41
1
10
18.4054492427887
20
7.26951057032849
30
0
41
1
10
18.349710814951
20
7.40805388100134
30
0
41
1
10
18.3263174295068
20
7.4791264256161
30
0
41
1
10
18.3026347247877
20
7.57000440345772
30
0
41
1
10
18.2981777768653
20
7.58828255509036
30
0
41
1
10
18.289828815794
20
7.6250413317525
30
0
41
1
10
18.2859353635673
20
7.64353518078505
30
0
41
1
10
18.2751840579966
20
7.69892859380752
30
0
41
1
10
18.2692244159246
20
7.73586111078592
30
0
41
1
10
18.2549017237893
20
7.84657353992495
30
0
41
1
10
18.250079691989
20
7.92025447498548
30
0
41
1
10
18.2499616171529
20
8.03040138417367
30
0
41
1
10
18.2511119742679
20
8.06705790291502
30
0
41
1
10
18.2546595041354
20
8.12196385028315
30
0
41
1
10
18.2561459141042
20
8.14025293669155
30
0
41
1
10
18.2597356429362
20
8.1768097689862
30
0
41
1
10
18.261839368491
20
8.19506559950983
30
0
41
1
10
18.2738091220133
20
8.28555846016005
30
0
41
1
10
18.2880551680473
20
8.3560450087131
30
0
41
1
10
18.3256409102618
20
8.4944367374664
30
0
41
1
10
18.3489787734402
20
8.56234083732673
30
0
41
1
10
18.3911622507963
20
8.66320268493732
30
0
41
1
10
18.4063797715671
20
8.69653726119421
30
0
41
1
10
18.4390017274133
20
8.76244493810523
30
0
41
1
10
18.4564279174875
20
8.79507060129501
30
0
41
1
10
18.4749999999984
20
8.82745624824875
30
0
0
SPLINE
5
13D
100
AcDbEntity
8
1
62
256
6
ByLayer
370
18
48
1
60
0
100
AcDbSpline
70
4
71
3
72
34
73
30
40
0
40
0
40
0
40
0
40
0.0624999999999882
40
0.0624999999999882
40
0.124999999999976
40
0.124999999999976
40
0.187499999999965
40
0.187499999999965
40
0.218749999999959
40
0.218749999999959
40
0.249999999999953
40
0.249999999999953
40
0.374999999999952
40
0.374999999999952
40
0.437499999999952
40
0.437499999999952
40
0.499999999999952
40
0.499999999999952
40
0.624999999999944
40
0.624999999999944
40
0.68749999999995
40
0.68749999999995
40
0.749999999999956
40
0.749999999999956
40
0.874999999999992
40
0.874999999999992
40
0.937499999999996
40
0.937499999999996
40
1
40
1
40
1
40
1
41
1
10
18.475
20
31.35
30
0
41
1
10
18.459488240567
20
31.3500000000001
30
0
41
1
10
18.4439344663119
20
31.35
30
0
41
1
10
18.4127970175118
20
31.35
30
0
41
1
10
18.3976373727532
20
31.35
30
0
41
1
10
18.3680630304846
20
31.35
30
0
41
1
10
18.3536487207877
20
31.35
30
0
41
1
10
18.3325586496574
20
31.35
30
0
41
1
10
18.3255960417934
20
31.35
30
0
41
1
10
18.3120442414648
20
31.35
30
0
41
1
10
18.3054342697433
20
31.35
30
0
41
1
10
18.2731571422788
20
31.3500000000001
30
0
41
1
10
18.2497744825614
20
31.35
30
0
41
1
10
18.2177582987101
20
31.3500000000001
30
0
41
1
10
18.2076153875602
20
31.35
30
0
41
1
10
18.1887200690627
20
31.35
30
0
41
1
10
18.1799020425184
20
31.35
30
0
41
1
10
18.1551541452063
20
31.35
30
0
41
1
10
18.1409155590863
20
31.35
30
0
41
1
10
18.1225932403435
20
31.35
30
0
41
1
10
18.1170363742524
20
31.35
30
0
41
1
10
18.1070380634342
20
31.35
30
0
41
1
10
18.1025796600349
20
31.35
30
0
41
1
10
18.0907326299962
20
31.35
30
0
41
1
10
18.0848612186958
20
31.35
30
0
41
1
10
18.0789548996022
20
31.35
30
0
41
1
10
18.0774724964125
20
31.35
30
0
41
1
10
18.0754907636628
20
31.35
30
0
41
1
10
18.0749889989
20
31.35
30
0
41
1
10
18.075004750475
20
31.35
30
0
0
SPLINE
5
13E
100
AcDbEntity
8
1
62
256
6
ByLayer
370
18
48
1
60
0
100
AcDbSpline
70
4
71
3
72
29
73
25
40
0
40
0
40
0
40
0
40
0.124999999999993
40
0.124999999999993
40
0.187500000000004
40
0.187500000000004
40
0.250000000000015
40
0.250000000000015
40
0.375000000000043
40
0.375000000000043
40
0.437500000000043
40
0.437500000000043
40
0.500000000000044
40
0.500000000000044
40
0.62500000000002
40
0.62500000000002
40
0.687500000000015
40
0.687500000000015
40
0.75000000000001
40
0.812500000000005
40
0.812500000000005
40
0.875
40
0.875
40
1
40
1
40
1
40
1
41
1
10
21.9250000000001
20
-45.0464003445336
30
0
41
1
10
21.9250000000001
20
-45.0197803674928
30
0
41
1
10
21.9225160641809
20
-44.9934370502629
30
0
41
1
10
21.9150895344575
20
-44.9543342487104
30
0
41
1
10
21.9119889672768
20
-44.9413551030314
30
0
41
1
10
21.9045130692499
20
-44.9155983993897
30
0
41
1
10
21.9001916660419
20
-44.9030017511972
30
0
41
1
10
21.8855275571798
20
-44.8660325527688
30
0
41
1
10
21.8735008942869
20
-44.8424730515583
30
0
41
1
10
21.8519926988136
20
-44.808808318244
30
0
41
1
10
21.8441962554045
20
-44.7978176640194
30
0
41
1
10
21.8277243136571
20
-44.7768523562699
30
0
41
1
10
21.8190301647672
20
-44.766836375099
30
0
41
1
10
21.791593528968
20
-44.7381677275808
30
0
41
1
10
21.7715107491529
20
-44.7208802033666
30
0
41
1
10
21.7385402276289
20
-44.6978480406268
30
0
41
1
10
21.7272056877088
20
-44.6907551180026
30
0
41
1
10
21.7040371037054
20
-44.677819901222
30
0
41
1
10
21.68031426238
20
-44.6660970594451
30
0
41
1
10
21.6554854271492
20
-44.6567934538467
30
0
41
1
10
21.6300882589594
20
-44.6487330121107
30
0
41
1
10
21.6170413808792
20
-44.6453168221797
30
0
41
1
10
21.5778868645473
20
-44.637192683402
30
0
41
1
10
21.5515563028056
20
-44.6344954491478
30
0
41
1
10
21.525
20
-44.6344954491478
30
0
0
SPLINE
5
13F
100
AcDbEntity
8
1
62
256
6
ByLayer
370
18
48
1
60
0
100
AcDbSpline
70
4
71
3
72
32
73
28
40
0
40
0
40
0
40
0
40
0.125000000000038
40
0.125000000000038
40
0.187500000000056
40
0.187500000000056
40
0.250000000000074
40
0.250000000000074
40
0.375000000000083
40
0.375000000000083
40
0.43750000000009
40
0.43750000000009
40
0.500000000000098
40
0.500000000000098
40
0.625000000000081
40
0.625000000000081
40
0.687500000000068
40
0.687500000000068
40
0.750000000000054
40
0.750000000000054
40
0.812500000000041
40
0.812500000000041
40
0.875000000000027
40
0.875000000000027
40
0.937500000000014
40
0.937500000000014
40
1
40
1
40
1
40
1
41
1
10
21.9250050005
20
31.35
30
0
41
1
10
21.9249949995
20
31.35
30
0
41
1
10
21.9230661598506
20
31.35
30
0
41
1
10
21.9171602813935
20
31.35
30
0
41
1
10
21.9146757682035
20
31.35
30
0
41
1
10
21.9087306091939
20
31.35
30
0
41
1
10
21.9052702967262
20
31.35
30
0
41
1
10
21.8934129045759
20
31.35
30
0
41
1
10
21.8835534280298
20
31.35
30
0
41
1
10
21.8655550470622
20
31.35
30
0
41
1
10
21.859017568447
20
31.35
30
0
41
1
10
21.8447699230001
20
31.35
30
0
41
1
10
21.8370394764306
20
31.35
30
0
41
1
10
21.8120044724296
20
31.35
30
0
41
1
10
21.793226533146
20
31.35
30
0
41
1
10
21.761411450192
20
31.3500000000001
30
0
41
1
10
21.7501937180374
20
31.35
30
0
41
1
10
21.7263593614781
20
31.35
30
0
41
1
10
21.7139258402081
20
31.35
30
0
41
1
10
21.688073980832
20
31.35
30
0
41
1
10
21.674638558618
20
31.35
30
0
41
1
10
21.6466409124853
20
31.35
30
0
41
1
10
21.6320003129868
20
31.35
30
0
41
1
10
21.6020255724106
20
31.35
30
0
41
1
10
21.5867449844975
20
31.35
30
0
41
1
10
21.556067010672
20
31.3500000000001
30
0
41
1
10
21.5405996647558
20
31.35
30
0
41
1
10
21.525
20
31.35
30
0
0
SPLINE
5
140
100
AcDbEntity
8
1
62
256
6
ByLayer
370
18
48
1
60
0
100
AcDbSpline
70
4
71
3
72
32
73
28
40
0
40
0
40
0
40
0
40
0.12499999999999
40
0.12499999999999
40
0.249999999999979
40
0.249999999999979
40
0.281249999999979
40
0.281249999999979
40
0.312499999999979
40
0.312499999999979
40
0.374999999999981
40
0.374999999999981
40
0.499999999999982
40
0.499999999999982
40
0.562499999999984
40
0.562499999999984
40
0.593749999999985
40
0.593749999999985
40
0.624999999999987
40
0.624999999999987
40
0.749999999999992
40
0.749999999999992
40
0.874999999999997
40
0.874999999999997
40
0.937499999999999
40
0.937499999999999
40
1
40
1
40
1
40
1
41
1
10
21.525
20
8.82745624824841
30
0
41
1
10
21.5622135533389
20
8.76256395630321
30
0
41
1
10
21.5945507572112
20
8.69722547386365
30
0
41
1
10
21.6502891850489
20
8.56422661798982
30
0
41
1
10
21.6736825704932
20
8.49658590374051
30
0
41
1
10
21.6973652752123
20
8.40980695132887
30
0
41
1
10
21.7018222231347
20
8.39233946392321
30
0
41
1
10
21.7101711842059
20
8.35715950288491
30
0
41
1
10
21.7140646364327
20
8.33943418600859
30
0
41
1
10
21.7248159420034
20
8.2862321680293
30
0
41
1
10
21.7307755840754
20
8.25061249335553
30
0
41
1
10
21.7450982762106
20
8.14316707428333
30
0
41
1
10
21.749920308011
20
8.07073664892107
30
0
41
1
10
21.750038382847
20
7.9606191966156
30
0
41
1
10
21.748888025732
20
7.92367239491401
30
0
41
1
10
21.7453404958646
20
7.8679002540141
30
0
41
1
10
21.7438540858957
20
7.8492512080596
30
0
41
1
10
21.7402643570638
20
7.81184177844327
30
0
41
1
10
21.738160631509
20
7.79309330691441
30
0
41
1
10
21.7261908779866
20
7.69986645461572
30
0
41
1
10
21.7119448319527
20
7.62630143925583
30
0
41
1
10
21.6743590897382
20
7.48138135487184
30
0
41
1
10
21.6510212265597
20
7.41002551449395
30
0
41
1
10
21.6088377492037
20
7.30494817339945
30
0
41
1
10
21.5936202284328
20
7.27037709534622
30
0
41
1
10
21.5609982725866
20
7.20258607374529
30
0
41
1
10
21.5435720825125
20
7.16930989168466
30
0
41
1
10
21.5250000000016
20
7.13671025908073
30
0
0
SPLINE
5
141
100
AcDbEntity
8
1
62
256
6
ByLayer
370
18
48
1
60
0
100
AcDbSpline
70
4
71
3
72
32
73
28
40
0
40
0
40
0
40
0
40
0.125000000000004
40
0.125000000000004
40
0.250000000000009
40
0.250000000000009
40
0.281250000000009
40
0.281250000000009
40
0.31250000000001
40
0.31250000000001
40
0.375000000000009
40
0.375000000000009
40
0.500000000000006
40
0.500000000000006
40
0.562500000000006
40
0.562500000000006
40
0.593750000000007
40
0.593750000000007
40
0.625000000000007
40
0.625000000000007
40
0.750000000000005
40
0.750000000000005
40
0.875000000000004
40
0.875000000000004
40
0.937500000000002
40
0.937500000000002
40
1
40
1
40
1
40
1
41
1
10
21.525
20
-7.13671025908161
30
0
41
1
10
21.5622135533389
20
-7.20203132181229
30
0
41
1
10
21.5945507572112
20
-7.26951057032844
30
0
41
1
10
21.650289185049
20
-7.40805388100125
30
0
41
1
10
21.6736825704932
20
-7.47912642561604
30
0
41
1
10
21.6973652752123
20
-7.57000440345766
30
0
41
1
10
21.7018222231347
20
-7.5882825550903
30
0
41
1
10
21.7101711842059
20
-7.62504133175244
30
0
41
1
10
21.7140646364327
20
-7.64353518078497
30
0
41
1
10
21.7248159420035
20
-7.69892859380747
30
0
41
1
10
21.7307755840754
20
-7.73586111078586
30
0
41
1
10
21.7450982762107
20
-7.84657353992489
30
0
41
1
10
21.749920308011
20
-7.92025447498543
30
0
41
1
10
21.7500383828471
20
-8.03040138417364
30
0
41
1
10
21.7488880257321
20
-8.06705790291497
30
0
41
1
10
21.7453404958646
20
-8.12196385028309
30
0
41
1
10
21.7438540858958
20
-8.14025293669152
30
0
41
1
10
21.7402643570638
20
-8.17680976898615
30
0
41
1
10
21.7381606315091
20
-8.1950655995098
30
0
41
1
10
21.7261908779867
20
-8.28555846016002
30
0
41
1
10
21.7119448319527
20
-8.35604500871304
30
0
41
1
10
21.6743590897382
20
-8.49443673746637
30
0
41
1
10
21.6510212265598
20
-8.56234083732667
30
0
41
1
10
21.6088377492037
20
-8.66320268493726
30
0
41
1
10
21.5936202284329
20
-8.69653726119415
30
0
41
1
10
21.5609982725867
20
-8.76244493810518
30
0
41
1
10
21.5435720825125
20
-8.79507060129498
30
0
41
1
10
21.5250000000016
20
-8.82745624824869
30
0
0
SPLINE
5
142
100
AcDbEntity
8
1
62
256
6
ByLayer
370
18
48
1
60
0
100
AcDbSpline
70
4
71
3
72
55
73
51
40
0
40
0
40
0
40
0
40
0.0624999999999992
40
0.0624999999999992
40
0.124999999999998
40
0.124999999999998
40
0.187499999999998
40
0.187499999999998
40
0.203124999999997
40
0.203124999999997
40
0.218749999999997
40
0.218749999999997
40
0.249999999999997
40
0.249999999999997
40
0.312499999999995
40
0.312499999999995
40
0.374999999999994
40
0.374999999999994
40
0.406249999999994
40
0.406249999999994
40
0.421874999999993
40
0.421874999999993
40
0.437499999999993
40
0.437499999999993
40
0.499999999999992
40
0.499999999999992
40
0.562499999999991
40
0.562499999999991
40
0.62499999999999
40
0.62499999999999
40
0.632812499999991
40
0.632812499999991
40
0.640624999999991
40
0.640624999999991
40
0.656249999999991
40
0.687499999999992
40
0.687499999999992
40
0.749999999999993
40
0.749999999999993
40
0.812499999999995
40
0.812499999999995
40
0.843749999999996
40
0.843749999999996
40
0.859374999999996
40
0.859374999999996
40
0.874999999999997
40
0.874999999999997
40
0.937499999999998
40
0.937499999999998
40
1
40
1
40
1
40
1
41
1
10
14.9500000000001
20
-48.7343696378644
30
0
41
1
10
14.6186180770483
20
-48.7343696378644
30
0
41
1
10
14.2901293667462
20
-48.7380932241918
30
0
41
1
10
13.6387232911421
20
-48.7526151918802
30
0
41
1
10
13.3158065177085
20
-48.7634141371864
30
0
41
1
10
12.6754919299054
20
-48.7917402554333
30
0
41
1
10
12.3580939389171
20
-48.809267872866
30
0
41
1
10
11.9648592282068
20
-48.8351718883636
30
0
41
1
10
11.8863883176173
20
-48.8405524220114
30
0
41
1
10
11.7298017686216
20
-48.8517076682971
30
0
41
1
10
11.6515991381983
20
-48.8574894582082
30
0
41
1
10
11.4187515333457
20
-48.8753220985444
30
0
41
1
10
11.2655498884333
20
-48.8878806568078
30
0
41
1
10
10.8118951505551
20
-48.9273980953649
30
0
41
1
10
10.517377974707
20
-48.9561972782341
30
0
41
1
10
9.94380215106828
20
-49.0178549347292
30
0
41
1
10
9.66474394687698
20
-49.0507146985876
30
0
41
1
10
9.25780740131539
20
-49.1024378176854
30
0
41
1
10
9.12410716979447
20
-49.1200845666749
30
0
41
1
10
8.92651453327993
20
-49.1470866090043
30
0
41
1
10
8.86114350809258
20
-49.1561759362458
30
0
41
1
10
8.7313973991774
20
-49.1745189755888
30
0
41
1
10
8.6672713838701
20
-49.1837374881247
30
0
41
1
10
8.35046385487287
20
-49.2300062218261
30
0
41
1
10
8.10907647024372
20
-49.267602508421
30
0
41
1
10
7.64966054039313
20
-49.3429973753042
30
0
41
1
10
7.43163375382831
20
-49.380797599762
30
0
41
1
10
7.01889930623044
20
-49.4556861023258
30
0
41
1
10
6.82418992981574
20
-49.4927759662818
30
0
41
1
10
6.6186345713043
20
-49.5335844296443
30
0
41
1
10
6.59598297197475
20
-49.5381059367661
30
0
41
1
10
6.55105770947232
20
-49.547121570508
30
0
41
1
10
6.5287752132392
20
-49.5516175187617
30
0
41
1
10
6.46267533310358
20
-49.5650253864375
30
0
41
1
10
6.33330054912732
20
-49.5915542938287
30
0
41
1
10
6.2123023026105
20
-49.617172972123
30
0
41
1
10
5.98129593649496
20
-49.6670683357459
30
0
41
1
10
5.8419186123749
20
-49.6985422181599
30
0
41
1
10
5.59213609509969
20
-49.7572475370043
30
0
41
1
10
5.48173027698677
20
-49.7844801347868
30
0
41
1
10
5.33828630346621
20
-49.8216503380533
30
0
41
1
10
5.29417252865382
20
-49.8334271708375
30
0
41
1
10
5.2336726738644
20
-49.8501079866212
30
0
41
1
10
5.21443098384974
20
-49.8555101959131
30
0
41
1
10
5.17800678971319
20
-49.8659342277255
30
0
41
1
10
5.16081455682296
20
-49.8709584653659
30
0
41
1
10
5.0799200132633
20
-49.8951321864374
30
0
41
1
10
5.0313803485398
20
-49.9114393168579
30
0
41
1
10
4.96642087804362
20
-49.93777114671
30
0
41
1
10
4.95000000000006
20
-49.9477962365168
30
0
41
1
10
4.95000000000006
20
-49.9545671986056
30
0
0
SPLINE
5
143
100
AcDbEntity
8
1
62
256
6
ByLayer
370
18
48
1
60
0
100
AcDbSpline
70
4
71
3
72
54
73
50
40
0
40
0
40
0
40
0
40
0.0625000000000046
40
0.0625000000000046
40
0.125000000000009
40
0.125000000000009
40
0.156250000000011
40
0.156250000000011
40
0.171875000000013
40
0.171875000000013
40
0.179687500000013
40
0.179687500000013
40
0.187500000000014
40
0.250000000000017
40
0.250000000000017
40
0.31250000000002
40
0.31250000000002
40
0.343750000000022
40
0.343750000000022
40
0.359375000000023
40
0.359375000000023
40
0.375000000000023
40
0.375000000000023
40
0.437500000000022
40
0.437500000000022
40
0.50000000000002
40
0.50000000000002
40
0.531250000000019
40
0.531250000000019
40
0.546875000000018
40
0.546875000000018
40
0.562500000000017
40
0.562500000000017
40
0.625000000000014
40
0.625000000000014
40
0.687500000000012
40
0.687500000000012
40
0.75000000000001
40
0.75000000000001
40
0.812500000000008
40
0.812500000000008
40
0.828125000000007
40
0.828125000000007
40
0.843750000000006
40
0.875000000000005
40
0.875000000000005
40
0.937500000000002
40
0.937500000000002
40
1
40
1
40
1
40
1
41
1
10
14.6579668481793
20
38.9060242764537
30
0
41
1
10
14.3262055454705
20
38.9060242764537
30
0
41
1
10
13.9982314324204
20
38.8927740584742
30
0
41
1
10
13.3494884639966
20
38.8409468046657
30
0
41
1
10
13.0287211904853
20
38.8023638648199
30
0
41
1
10
12.552897130635
20
38.7255085306534
30
0
41
1
10
12.3951788176721
20
38.6967182657897
30
0
41
1
10
12.1599425935178
20
38.6487040358918
30
0
41
1
10
12.0817541728103
20
38.631893977704
30
0
41
1
10
11.9648088811361
20
38.6054573881724
30
0
41
1
10
11.9258505361288
20
38.5964336327105
30
0
41
1
10
11.8482629583255
20
38.578028176335
30
0
41
1
10
11.5005289804831
20
38.4935751366774
30
0
41
1
10
11.1652705504387
20
38.3946725236202
30
0
41
1
10
10.5875999459265
20
38.1969250689817
30
0
41
1
10
10.3079435270821
20
38.0870837881047
30
0
41
1
10
9.90165447329342
20
37.9059676052274
30
0
41
1
10
9.76842814056981
20
37.8428644174422
30
0
41
1
10
9.57185509555843
20
37.744080036068
30
0
41
1
10
9.50679720570038
20
37.7104203128559
30
0
41
1
10
9.37835931584304
20
37.6420360731437
30
0
41
1
10
9.31493505489011
20
37.6072918684044
30
0
41
1
10
9.001686078291
20
37.4308471022575
30
0
41
1
10
8.76344828742164
20
37.2809936596243
30
0
41
1
10
8.30963504081858
20
36.9645103482153
30
0
41
1
10
8.09406753443052
20
36.7978760141893
30
0
41
1
10
7.78664486798199
20
36.5355105945935
30
0
41
1
10
7.6868294979386
20
36.4459838849724
30
0
41
1
10
7.54099157328152
20
36.3085877719226
30
0
41
1
10
7.49300338429047
20
36.2622457279512
30
0
41
1
10
7.39871073722377
20
36.168933948457
30
0
41
1
10
7.35235508974078
20
36.1219173484746
30
0
41
1
10
7.12441385726514
20
35.8850538034044
30
0
41
1
10
6.95431142198198
20
35.6898731010346
30
0
41
1
10
6.63611579279176
20
35.2885830304332
30
0
41
1
10
6.48802988911693
20
35.0824716093137
30
0
41
1
10
6.21196751048582
20
34.6596037717813
30
0
41
1
10
6.08399561077694
20
34.4428460931387
30
0
41
1
10
5.84665848574907
20
33.9988565429648
30
0
41
1
10
5.73729627096539
20
33.7716238615614
30
0
41
1
10
5.61146291574023
20
33.4810915639198
30
0
41
1
10
5.58682966850488
20
33.4226330338351
30
0
41
1
10
5.53873784212767
20
33.3053249230112
30
0
41
1
10
5.46832869888438
20
33.1287026457599
30
0
41
1
10
5.40297339132361
20
32.9501121322119
30
0
41
1
10
5.27868145349736
20
32.5903347296151
30
0
41
1
10
5.20437002393042
20
32.3470224395354
30
0
41
1
10
5.07137549330965
20
31.8535937630817
30
0
41
1
10
5.01269470093901
20
31.6034770871432
30
0
41
1
10
4.96121570861114
20
31.35
30
0
0
SPLINE
5
144
100
AcDbEntity
8
1
62
256
6
ByLayer
370
18
48
1
60
0
100
AcDbSpline
70
4
71
3
72
58
73
54
40
0
40
0
40
0
40
0
40
0.0624999999999995
40
0.0624999999999995
40
0.124999999999999
40
0.124999999999999
40
0.187499999999998
40
0.187499999999998
40
0.203124999999998
40
0.203124999999998
40
0.218749999999998
40
0.218749999999998
40
0.249999999999998
40
0.249999999999998
40
0.312499999999998
40
0.312499999999998
40
0.374999999999997
40
0.374999999999997
40
0.406249999999997
40
0.406249999999997
40
0.421874999999997
40
0.421874999999997
40
0.429687499999997
40
0.429687499999997
40
0.437499999999997
40
0.499999999999997
40
0.499999999999997
40
0.562499999999997
40
0.562499999999997
40
0.624999999999998
40
0.624999999999998
40
0.632812499999998
40
0.632812499999998
40
0.640624999999998
40
0.640624999999998
40
0.656249999999998
40
0.687499999999998
40
0.687499999999998
40
0.749999999999998
40
0.749999999999998
40
0.812499999999998
40
0.812499999999998
40
0.843749999999998
40
0.843749999999998
40
0.851562499999999
40
0.851562499999999
40
0.859374999999999
40
0.859374999999999
40
0.874999999999999
40
0.874999999999999
40
0.937499999999999
40
0.937499999999999
40
1
40
1
40
1
40
1
41
1
10
4.94999999999995
20
49.9649955869107
30
0
41
1
10
4.94999999999995
20
49.9648564514862
30
0
41
1
10
4.96639535724596
20
49.9614297711209
30
0
41
1
10
5.03079012918495
20
49.9483282305161
30
0
41
1
10
5.07879290577502
20
49.9386528049884
30
0
41
1
10
5.20617528592702
20
49.913360558211
30
0
41
1
10
5.28555372504358
20
49.8977432003455
30
0
41
1
10
5.40481488311904
20
49.8746982349491
30
0
41
1
10
5.42967135058139
20
49.8699130944682
30
0
41
1
10
5.481413091889
20
49.8599953876833
30
0
41
1
10
5.5083360591466
20
49.8548556940175
30
0
41
1
10
5.59176278263864
20
49.8390028750116
30
0
41
1
10
5.65098412594431
20
49.8278440931124
30
0
41
1
10
5.83923536919086
20
49.7927497543001
30
0
41
1
10
5.97882664441998
20
49.7671969271402
30
0
41
1
10
6.28566007065071
20
49.7125601134017
30
0
41
1
10
6.45290276134621
20
49.6834747686273
30
0
41
1
10
6.72472807627177
20
49.6377773603114
30
0
41
1
10
6.81883642419392
20
49.6222000592038
30
0
41
1
10
6.96533658581002
20
49.5983914265066
30
0
41
1
10
7.01506001162424
20
49.5903814561262
30
0
41
1
10
7.09099523328787
20
49.5782654147636
30
0
41
1
10
7.11652407635161
20
49.574211187792
30
0
41
1
10
7.16789264653998
20
49.5660929330668
30
0
41
1
10
7.4006031914078
20
49.5294925582587
30
0
41
1
10
7.64713918623043
20
49.4923590230609
30
0
41
1
10
8.10670693309034
20
49.4264420405032
30
0
41
1
10
8.34713297584112
20
49.3935310568328
30
0
41
1
10
8.8493493038864
20
49.3287304702773
30
0
41
1
10
9.11113785088072
20
49.2968392696675
30
0
41
1
10
9.41807611856306
20
49.2620739608192
30
0
41
1
10
9.45235340070907
20
49.2582266370262
30
0
41
1
10
9.5212562339723
20
49.2505649163322
30
0
41
1
10
9.55590568536481
20
49.2467479240446
30
0
41
1
10
9.66018379123646
20
49.2353706337422
30
0
41
1
10
9.86996162264388
20
49.2129207084335
30
0
41
1
10
10.0833656513847
20
49.1914366408169
30
0
41
1
10
10.5149408311131
20
49.1498915200009
30
0
41
1
10
10.809002564692
20
49.1240922202927
30
0
41
1
10
11.4097370601155
20
49.076996069962
30
0
41
1
10
11.7164095384446
20
49.0556981620596
30
0
41
1
10
12.186090484687
20
49.027664215513
30
0
41
1
10
12.3442656931892
20
49.0189718879699
30
0
41
1
10
12.5440485131774
20
49.008980071156
30
0
41
1
10
12.5841083314372
20
49.0070253954911
30
0
41
1
10
12.6644358672603
20
49.003204909123
30
0
41
1
10
12.7047159750549
20
49.001338598664
30
0
41
1
10
12.8255808796394
20
48.9958879253751
30
0
41
1
10
12.9062796748493
20
48.9924474346058
30
0
41
1
10
13.3103808608993
20
48.9762212253996
30
0
41
1
10
13.6356006031869
20
48.9663646229261
30
0
41
1
10
14.289891263086
20
48.9531432682525
30
0
41
1
10
14.6189620704916
20
48.9497781813156
30
0
41
1
10
14.9499999999999
20
48.9497781813156
30
0
0
SPLINE
5
145
100
AcDbEntity
8
1
62
256
6
ByLayer
370
18
48
1
60
0
100
AcDbSpline
70
4
71
3
72
8
73
4
40
0
40
0
40
0
40
0
40
1
40
1
40
1
40
1
41
1
10
28.95
20
-48.0164324372396
30
0
41
1
10
28.716710876918
20
-48.2557877592673
30
0
41
1
10
28.4833769086862
20
-48.4950995430802
30
0
41
1
10
28.25
20
-48.7343696378644
30
0
0
SPLINE
5
146
100
AcDbEntity
8
1
62
256
6
ByLayer
370
18
48
1
60
0
100
AcDbSpline
70
4
71
3
72
8
73
4
40
0
40
0
40
0
40
0
40
1
40
1
40
1
40
1
41
1
10
28.95
20
31.3500000000001
30
0
41
1
10
28.717385155116
20
31.35
30
0
41
1
10
28.4840015193126
20
31.35
30
0
41
1
10
28.25
20
31.35
30
0
0
SPLINE
5
147
100
AcDbEntity
8
1
62
256
6
ByLayer
370
18
48
1
60
0
100
AcDbSpline
70
4
71
3
72
8
73
4
40
0
40
0
40
0
40
0
40
1
40
1
40
1
40
1
41
1
10
23.2418217614998
20
-48.7343696378644
30
0
41
1
10
22.8024719501864
20
-47.9541774266955
30
0
41
1
10
22.363511531413
20
-47.1737672945194
30
0
41
1
10
21.9250000000001
20
-46.3931059454459
30
0
0
SPLINE
5
148
100
AcDbEntity
8
1
62
256
6
ByLayer
370
18
48
1
60
0
100
AcDbSpline
70
4
71
3
72
8
73
4
40
0
40
0
40
0
40
0
40
1
40
1
40
1
40
1
41
1
10
23.2418217614997
20
31.35
30
0
41
1
10
22.7970974394247
20
31.35
30
0
41
1
10
22.3578450722475
20
31.35
30
0
41
1
10
21.925
20
31.35
30
0
0
SPLINE
5
149
100
AcDbEntity
8
1
62
256
6
ByLayer
370
18
48
1
60
0
100
AcDbSpline
70
4
71
3
72
8
73
4
40
0
40
0
40
0
40
0
40
1
40
1
40
1
40
1
41
1
10
18.0750000000001
20
-46.3931059454459
30
0
41
1
10
17.6364884685871
20
-47.1737672945194
30
0
41
1
10
17.1975280498137
20
-47.9541774266955
30
0
41
1
10
16.7581782385003
20
-48.7343696378644
30
0
0
SPLINE
5
14A
100
AcDbEntity
8
1
62
256
6
ByLayer
370
18
48
1
60
0
100
AcDbSpline
70
4
71
3
72
8
73
4
40
0
40
0
40
0
40
0
40
1
40
1
40
1
40
1
41
1
10
18.075
20
31.35
30
0
41
1
10
17.6421549277525
20
31.35
30
0
41
1
10
17.2029025605752
20
31.35
30
0
41
1
10
16.7581782385002
20
31.35
30
0
0
SPLINE
5
14B
100
AcDbEntity
8
SK2
62
256
6
ByLayer
370
18
48
1
60
0
100
AcDbSpline
70
4
71
3
72
29
73
25
40
0
40
0
40
0
40
0
40
0.124999999999991
40
0.124999999999991
40
0.249999999999982
40
0.249999999999982
40
0.374999999999973
40
0.374999999999973
40
0.437499999999968
40
0.437499999999968
40
0.468749999999968
40
0.468749999999968
40
0.499999999999968
40
0.499999999999968
40
0.624999999999972
40
0.624999999999972
40
0.749999999999976
40
0.749999999999976
40
0.781249999999979
40
0.781249999999979
40
0.812499999999983
40
0.874999999999989
40
0.874999999999989
40
1
40
1
40
1
40
1
41
1
10
58.8
20
3.56225116090007
30
0
41
1
10
58.9205189024037
20
3.49266954015485
30
0
41
1
10
59.042417634673
20
3.42229127426535
30
0
41
1
10
59.2897372011367
20
3.27950125599162
30
0
41
1
10
59.4151586424211
20
3.20708915310394
30
0
41
1
10
59.6704503149932
20
3.05969643722256
30
0
41
1
10
59.8003235675691
20
2.98471407988737
30
0
41
1
10
59.9992520377114
20
2.8698626741012
30
0
41
1
10
60.0662485823419
20
2.83118220102401
30
0
41
1
10
60.1678712533929
20
2.77251032453697
30
0
41
1
10
60.2018083391358
20
2.75291673894773
30
0
41
1
10
60.2694211471171
20
2.71388046605907
30
0
41
1
10
60.3031560290103
20
2.69440362291695
30
0
41
1
10
60.4714764796081
20
2.59722376545423
30
0
41
1
10
60.6049952572675
20
2.52013666323066
30
0
41
1
10
60.8699358549136
20
2.36717313786045
30
0
41
1
10
61.001359766072
20
2.29129550737517
30
0
41
1
10
61.1645002444467
20
2.19710630826987
30
0
41
1
10
61.1969994909006
20
2.17834285958122
30
0
41
1
10
61.2615889801759
20
2.14105210056132
30
0
41
1
10
61.357940644617
20
2.08542344115932
30
0
41
1
10
61.4527985703359
20
2.03065719221078
30
0
41
1
10
61.6407711363933
20
1.92213118059726
30
0
41
1
10
61.7637710138775
20
1.85111716822146
30
0
41
1
10
61.8850000000001
20
1.78112558045004
30
0
0
SPLINE
5
14C
100
AcDbEntity
8
SK2
62
256
6
ByLayer
370
18
48
1
60
0
100
AcDbSpline
70
4
71
3
72
29
73
25
40
0
40
0
40
0
40
0
40
0.125000000000006
40
0.125000000000006
40
0.250000000000011
40
0.250000000000011
40
0.375000000000017
40
0.375000000000017
40
0.43750000000002
40
0.43750000000002
40
0.468750000000019
40
0.468750000000019
40
0.500000000000018
40
0.500000000000018
40
0.625000000000019
40
0.625000000000019
40
0.75000000000002
40
0.75000000000002
40
0.781250000000018
40
0.781250000000018
40
0.812500000000015
40
0.875000000000011
40
0.875000000000011
40
1
40
1
40
1
40
1
41
1
10
55.715
20
1.78112558045007
30
0
41
1
10
55.8355189024037
20
1.85070720119529
30
0
41
1
10
55.957417634673
20
1.92108546708482
30
0
41
1
10
56.2047372011368
20
2.06387548535855
30
0
41
1
10
56.3301586424211
20
2.13628758824623
30
0
41
1
10
56.5854503149932
20
2.28368030412759
30
0
41
1
10
56.7153235675691
20
2.3586626614628
30
0
41
1
10
56.9142520377114
20
2.47351406724897
30
0
41
1
10
56.9812485823419
20
2.51219454032616
30
0
41
1
10
57.0828712533929
20
2.5708664168132
30
0
41
1
10
57.1168083391358
20
2.59046000240241
30
0
41
1
10
57.1844211471171
20
2.62949627529107
30
0
41
1
10
57.2181560290103
20
2.64897311843319
30
0
41
1
10
57.3864764796081
20
2.74615297589594
30
0
41
1
10
57.5199952572676
20
2.82324007811951
30
0
41
1
10
57.7849358549136
20
2.97620360348969
30
0
41
1
10
57.916359766072
20
3.05208123397497
30
0
41
1
10
58.0795002444466
20
3.1462704330803
30
0
41
1
10
58.1119994909006
20
3.16503388176892
30
0
41
1
10
58.1765889801759
20
3.20232464078882
30
0
41
1
10
58.272940644617
20
3.25795330019082
30
0
41
1
10
58.3677985703359
20
3.31271954913936
30
0
41
1
10
58.5557711363933
20
3.42124556075288
30
0
41
1
10
58.6787710138775
20
3.49225957312868
30
0
41
1
10
58.8
20
3.56225116090013
30
0
0
SPLINE
5
14D
100
AcDbEntity
8
SK2
62
256
6
ByLayer
370
18
48
1
60
0
100
AcDbSpline
70
4
71
3
72
33
73
29
40
0
40
0
40
0
40
0
40
0.125000000000001
40
0.125000000000001
40
0.156250000000001
40
0.156250000000001
40
0.187500000000001
40
0.187500000000001
40
0.250000000000001
40
0.250000000000001
40
0.375
40
0.375
40
0.5
40
0.5
40
0.53125
40
0.53125
40
0.5625
40
0.5625
40
0.625
40
0.625
40
0.75
40
0.75
40
0.8125
40
0.84375
40
0.84375
40
0.875
40
0.875
40
1
40
1
40
1
40
1
41
1
10
61.885
20
1.78112558045007
30
0
41
1
10
61.885
20
1.64334091363236
30
0
41
1
10
61.885
20
1.50290090562262
30
0
41
1
10
61.885
20
1.32286855036631
30
0
41
1
10
61.885
20
1.28663634458516
30
0
41
1
10
61.885
20
1.21368441802875
30
0
41
1
10
61.885
20
1.17693102735504
30
0
41
1
10
61.885
20
1.06610422060052
30
0
41
1
10
61.885
20
0.991866504810645
30
0
41
1
10
61.885
20
0.767988285228967
30
0
41
1
10
61.885
20
0.61718051208365
30
0
41
1
10
61.885
20
0.311910299735132
30
0
41
1
10
61.885
20
0.157443780879845
30
0
41
1
10
61.885
20
-0.0381920450771247
30
0
41
1
10
61.885
20
-0.0775303303943531
30
0
41
1
10
61.885
20
-0.15577556274053
30
0
41
1
10
61.885
20
-0.194739232190926
30
0
41
1
10
61.885
20
-0.311167741962464
30
0
41
1
10
61.885
20
-0.388169799839915
30
0
41
1
10
61.885
20
-0.617452837645402
30
0
41
1
10
61.885
20
-0.768010066241004
30
0
41
1
10
61.885
20
-0.990959970332113
30
0
41
1
10
61.885
20
-1.10171397987261
30
0
41
1
10
61.885
20
-1.21149118238367
30
0
41
1
10
61.885
20
-1.28447010679298
30
0
41
1
10
61.885
20
-1.3209038876256
30
0
41
1
10
61.885
20
-1.50194077366257
30
0
41
1
10
61.885
20
-1.64293923556866
30
0
41
1
10
61.885
20
-1.7811255804499
30
0
0
SPLINE
5
14E
100
AcDbEntity
8
SK2
62
256
6
ByLayer
370
18
48
1
60
0
100
AcDbSpline
70
4
71
3
72
29
73
25
40
0
40
0
40
0
40
0
40
0.125000000000015
40
0.125000000000015
40
0.250000000000029
40
0.250000000000029
40
0.375000000000044
40
0.375000000000044
40
0.437500000000051
40
0.437500000000051
40
0.468750000000053
40
0.468750000000053
40
0.500000000000054
40
0.500000000000054
40
0.625000000000045
40
0.625000000000045
40
0.750000000000036
40
0.750000000000036
40
0.781250000000031
40
0.781250000000031
40
0.812500000000027
40
0.875000000000017
40
0.875000000000017
40
1
40
1
40
1
40
1
41
1
10
61.885
20
-1.7811255804499
30
0
41
1
10
61.7644810975963
20
-1.85070720119512
30
0
41
1
10
61.642582365327
20
-1.92108546708465
30
0
41
1
10
61.3952627988632
20
-2.06387548535838
30
0
41
1
10
61.2698413575789
20
-2.13628758824606
30
0
41
1
10
61.0145496850068
20
-2.28368030412742
30
0
41
1
10
60.8846764324309
20
-2.35866266146263
30
0
41
1
10
60.6857479622886
20
-2.4735140672488
30
0
41
1
10
60.6187514176581
20
-2.51219454032599
30
0
41
1
10
60.5171287466072
20
-2.57086641681303
30
0
41
1
10
60.4831916608642
20
-2.59046000240224
30
0
41
1
10
60.4155788528829
20
-2.6294962752909
30
0
41
1
10
60.3818439709897
20
-2.64897311843302
30
0
41
1
10
60.2135235203919
20
-2.74615297589577
30
0
41
1
10
60.0800047427324
20
-2.82324007811934
30
0
41
1
10
59.8150641450864
20
-2.97620360348952
30
0
41
1
10
59.683640233928
20
-3.0520812339748
30
0
41
1
10
59.5204997555534
20
-3.14627043308013
30
0
41
1
10
59.4880005090994
20
-3.16503388176875
30
0
41
1
10
59.4234110198241
20
-3.20232464078865
30
0
41
1
10
59.327059355383
20
-3.25795330019065
30
0
41
1
10
59.2322014296641
20
-3.31271954913919
30
0
41
1
10
59.0442288636067
20
-3.42124556075271
30
0
41
1
10
58.9212289861225
20
-3.49225957312851
30
0
41
1
10
58.7999999999999
20
-3.56225116089996
30
0
0
SPLINE
5
14F
100
AcDbEntity
8
SK2
62
256
6
ByLayer
370
18
48
1
60
0
100
AcDbSpline
70
4
71
3
72
29
73
25
40
0
40
0
40
0
40
0
40
0.125000000000016
40
0.125000000000016
40
0.250000000000033
40
0.250000000000033
40
0.37500000000005
40
0.37500000000005
40
0.437500000000058
40
0.437500000000058
40
0.46875000000006
40
0.46875000000006
40
0.500000000000062
40
0.500000000000062
40
0.625000000000055
40
0.625000000000055
40
0.750000000000048
40
0.750000000000048
40
0.781250000000044
40
0.781250000000044
40
0.81250000000004
40
0.875000000000027
40
0.875000000000027
40
1
40
1
40
1
40
1
41
1
10
58.8
20
-3.5622511608999
30
0
41
1
10
58.6794810975963
20
-3.49266954015468
30
0
41
1
10
58.557582365327
20
-3.42229127426515
30
0
41
1
10
58.3102627988633
20
-3.27950125599142
30
0
41
1
10
58.1848413575789
20
-3.20708915310377
30
0
41
1
10
57.9295496850068
20
-3.05969643722239
30
0
41
1
10
57.7996764324309
20
-2.98471407988717
30
0
41
1
10
57.6007479622886
20
-2.86986267410103
30
0
41
1
10
57.5337514176581
20
-2.83118220102384
30
0
41
1
10
57.4321287466071
20
-2.7725103245368
30
0
41
1
10
57.3981916608642
20
-2.75291673894756
30
0
41
1
10
57.3305788528829
20
-2.7138804660589
30
0
41
1
10
57.2968439709897
20
-2.69440362291678
30
0
41
1
10
57.1285235203919
20
-2.59722376545403
30
0
41
1
10
56.9950047427324
20
-2.52013666323049
30
0
41
1
10
56.7300641450864
20
-2.36717313786028
30
0
41
1
10
56.598640233928
20
-2.291295507375
30
0
41
1
10
56.4354997555534
20
-2.1971063082697
30
0
41
1
10
56.4030005090994
20
-2.17834285958105
30
0
41
1
10
56.3384110198241
20
-2.14105210056115
30
0
41
1
10
56.2420593553829
20
-2.08542344115918
30
0
41
1
10
56.1472014296641
20
-2.03065719221061
30
0
41
1
10
55.9592288636067
20
-1.92213118059709
30
0
41
1
10
55.8362289861225
20
-1.85111716822129
30
0
41
1
10
55.7149999999999
20
-1.78112558044987
30
0
0
SPLINE
5
150
100
AcDbEntity
8
SK2
62
256
6
ByLayer
370
18
48
1
60
0
100
AcDbSpline
70
4
71
3
72
33
73
29
40
0
40
0
40
0
40
0
40
0.124999999999999
40
0.124999999999999
40
0.15625
40
0.15625
40
0.1875
40
0.25
40
0.25
40
0.375
40
0.375
40
0.437499999999999
40
0.437499999999999
40
0.468749999999999
40
0.468749999999999
40
0.499999999999999
40
0.499999999999999
40
0.624999999999999
40
0.624999999999999
40
0.749999999999998
40
0.749999999999998
40
0.812499999999998
40
0.812499999999998
40
0.843749999999998
40
0.843749999999998
40
0.874999999999998
40
0.874999999999998
40
1
40
1
40
1
40
1
41
1
10
55.715
20
-1.78112558044992
30
0
41
1
10
55.715
20
-1.64293923556866
30
0
41
1
10
55.715
20
-1.50194077366257
30
0
41
1
10
55.715
20
-1.32090388762563
30
0
41
1
10
55.715
20
-1.28447010679301
30
0
41
1
10
55.715
20
-1.2114911823837
30
0
41
1
10
55.715
20
-1.10171397987264
30
0
41
1
10
55.715
20
-0.990959970332142
30
0
41
1
10
55.715
20
-0.768010066241004
30
0
41
1
10
55.715
20
-0.617452837645402
30
0
41
1
10
55.715
20
-0.388169799839915
30
0
41
1
10
55.715
20
-0.311167741962464
30
0
41
1
10
55.715
20
-0.194739232190926
30
0
41
1
10
55.715
20
-0.155775562740558
30
0
41
1
10
55.715
20
-0.0775303303943531
30
0
41
1
10
55.715
20
-0.0381920450771247
30
0
41
1
10
55.715
20
0.157443780879845
30
0
41
1
10
55.715
20
0.311910299735132
30
0
41
1
10
55.715
20
0.617180512083621
30
0
41
1
10
55.715
20
0.767988285228938
30
0
41
1
10
55.715
20
0.991866504810645
30
0
41
1
10
55.715
20
1.06610422060052
30
0
41
1
10
55.715
20
1.17693102735504
30
0
41
1
10
55.715
20
1.21368441802872
30
0
41
1
10
55.715
20
1.28663634458516
30
0
41
1
10
55.715
20
1.32286855036631
30
0
41
1
10
55.715
20
1.50290090562262
30
0
41
1
10
55.715
20
1.64334091363233
30
0
41
1
10
55.715
20
1.78112558045007
30
0
0
SPLINE
5
151
100
AcDbEntity
8
SK2
62
256
6
ByLayer
370
18
48
1
60
0
100
AcDbSpline
70
4
71
3
72
29
73
25
40
0
40
0
40
0
40
0
40
0.125000000000008
40
0.125000000000008
40
0.250000000000016
40
0.250000000000016
40
0.375000000000025
40
0.375000000000025
40
0.437500000000029
40
0.437500000000029
40
0.468750000000027
40
0.468750000000027
40
0.500000000000024
40
0.500000000000024
40
0.625000000000024
40
0.625000000000024
40
0.750000000000023
40
0.750000000000023
40
0.781250000000021
40
0.781250000000021
40
0.812500000000018
40
0.875000000000011
40
0.875000000000011
40
1
40
1
40
1
40
1
41
1
10
80.115
20
1.78112558045009
30
0
41
1
10
80.2355189024038
20
1.85070720119532
30
0
41
1
10
80.357417634673
20
1.92108546708485
30
0
41
1
10
80.6047372011367
20
2.06387548535858
30
0
41
1
10
80.7301586424211
20
2.13628758824623
30
0
41
1
10
80.9854503149932
20
2.28368030412761
30
0
41
1
10
81.1153235675691
20
2.35866266146283
30
0
41
1
10
81.3142520377114
20
2.47351406724897
30
0
41
1
10
81.3812485823419
20
2.51219454032619
30
0
41
1
10
81.4828712533929
20
2.57086641681323
30
0
41
1
10
81.5168083391359
20
2.59046000240244
30
0
41
1
10
81.5844211471172
20
2.6294962752911
30
0
41
1
10
81.6181560290104
20
2.64897311843322
30
0
41
1
10
81.7864764796082
20
2.74615297589597
30
0
41
1
10
81.9199952572676
20
2.82324007811951
30
0
41
1
10
82.1849358549136
20
2.97620360348972
30
0
41
1
10
82.3163597660721
20
3.052081233975
30
0
41
1
10
82.4795002444467
20
3.1462704330803
30
0
41
1
10
82.5119994909006
20
3.16503388176895
30
0
41
1
10
82.5765889801759
20
3.20232464078885
30
0
41
1
10
82.6729406446171
20
3.25795330019085
30
0
41
1
10
82.7677985703359
20
3.31271954913939
30
0
41
1
10
82.9557711363934
20
3.42124556075291
30
0
41
1
10
83.0787710138776
20
3.49225957312871
30
0
41
1
10
83.2000000000001
20
3.56225116090016
30
0
0
SPLINE
5
152
100
AcDbEntity
8
SK2
62
256
6
ByLayer
370
18
48
1
60
0
100
AcDbSpline
70
4
71
3
72
29
73
25
40
0
40
0
40
0
40
0
40
0.125000000000013
40
0.125000000000013
40
0.250000000000025
40
0.250000000000025
40
0.375000000000038
40
0.375000000000038
40
0.437500000000044
40
0.437500000000044
40
0.468750000000043
40
0.468750000000043
40
0.500000000000041
40
0.500000000000041
40
0.625000000000035
40
0.625000000000035
40
0.750000000000028
40
0.750000000000028
40
0.781250000000024
40
0.781250000000024
40
0.812500000000021
40
0.875000000000014
40
0.875000000000014
40
1
40
1
40
1
40
1
41
1
10
83.2
20
3.5622511609001
30
0
41
1
10
83.3205189024037
20
3.49266954015488
30
0
41
1
10
83.442417634673
20
3.42229127426538
30
0
41
1
10
83.6897372011368
20
3.27950125599165
30
0
41
1
10
83.8151586424211
20
3.20708915310396
30
0
41
1
10
84.0704503149932
20
3.05969643722258
30
0
41
1
10
84.2003235675691
20
2.9847140798874
30
0
41
1
10
84.3992520377114
20
2.86986267410123
30
0
41
1
10
84.4662485823419
20
2.83118220102403
30
0
41
1
10
84.5678712533929
20
2.772510324537
30
0
41
1
10
84.6018083391359
20
2.75291673894776
30
0
41
1
10
84.6694211471172
20
2.71388046605909
30
0
41
1
10
84.7031560290103
20
2.69440362291698
30
0
41
1
10
84.8714764796081
20
2.59722376545426
30
0
41
1
10
85.0049952572676
20
2.52013666323069
30
0
41
1
10
85.2699358549136
20
2.36717313786051
30
0
41
1
10
85.4013597660721
20
2.2912955073752
30
0
41
1
10
85.5645002444467
20
2.1971063082699
30
0
41
1
10
85.5969994909006
20
2.17834285958125
30
0
41
1
10
85.6615889801758
20
2.14105210056135
30
0
41
1
10
85.7579406446171
20
2.08542344115938
30
0
41
1
10
85.8527985703359
20
2.03065719221081
30
0
41
1
10
86.0407711363933
20
1.92213118059729
30
0
41
1
10
86.1637710138775
20
1.85111716822149
30
0
41
1
10
86.2850000000001
20
1.78112558045007
30
0
0
SPLINE
5
153
100
AcDbEntity
8
SK2
62
256
6
ByLayer
370
18
48
1
60
0
100
AcDbSpline
70
4
71
3
72
33
73
29
40
0
40
0
40
0
40
0
40
0.125000000000001
40
0.125000000000001
40
0.156250000000001
40
0.156250000000001
40
0.187500000000001
40
0.187500000000001
40
0.250000000000001
40
0.250000000000001
40
0.375000000000001
40
0.375000000000001
40
0.500000000000001
40
0.500000000000001
40
0.531250000000001
40
0.531250000000001
40
0.562500000000001
40
0.562500000000001
40
0.625
40
0.625
40
0.75
40
0.75
40
0.812500000000001
40
0.843750000000001
40
0.843750000000001
40
0.875000000000001
40
0.875000000000001
40
1
40
1
40
1
40
1
41
1
10
86.285
20
1.78112558045012
30
0
41
1
10
86.285
20
1.64334091363239
30
0
41
1
10
86.285
20
1.50290090562265
30
0
41
1
10
86.285
20
1.32286855036637
30
0
41
1
10
86.285
20
1.28663634458519
30
0
41
1
10
86.285
20
1.21368441802878
30
0
41
1
10
86.285
20
1.1769310273551
30
0
41
1
10
86.285
20
1.06610422060055
30
0
41
1
10
86.285
20
0.991866504810673
30
0
41
1
10
86.285
20
0.767988285228995
30
0
41
1
10
86.285
20
0.617180512083678
30
0
41
1
10
86.285
20
0.31191029973516
30
0
41
1
10
86.285
20
0.157443780879873
30
0
41
1
10
86.285
20
-0.0381920450770963
30
0
41
1
10
86.285
20
-0.0775303303943247
30
0
41
1
10
86.285
20
-0.155775562740502
30
0
41
1
10
86.285
20
-0.194739232190898
30
0
41
1
10
86.285
20
-0.311167741962436
30
0
41
1
10
86.285
20
-0.388169799839886
30
0
41
1
10
86.285
20
-0.617452837645374
30
0
41
1
10
86.285
20
-0.768010066240976
30
0
41
1
10
86.285
20
-0.990959970332113
30
0
41
1
10
86.2850000000001
20
-1.10171397987259
30
0
41
1
10
86.285
20
-1.21149118238364
30
0
41
1
10
86.285
20
-1.28447010679295
30
0
41
1
10
86.285
20
-1.32090388762558
30
0
41
1
10
86.285
20
-1.50194077366254
30
0
41
1
10
86.285
20
-1.64293923556863
30
0
41
1
10
86.285
20
-1.78112558044987
30
0
0
SPLINE
5
154
100
AcDbEntity
8
SK2
62
256
6
ByLayer
370
18
48
1
60
0
100
AcDbSpline
70
4
71
3
72
29
73
25
40
0
40
0
40
0
40
0
40
0.125000000000008
40
0.125000000000008
40
0.250000000000015
40
0.250000000000015
40
0.375000000000023
40
0.375000000000023
40
0.437500000000027
40
0.437500000000027
40
0.468750000000024
40
0.468750000000024
40
0.500000000000022
40
0.500000000000022
40
0.62500000000002
40
0.62500000000002
40
0.750000000000018
40
0.750000000000018
40
0.781250000000015
40
0.781250000000015
40
0.812500000000013
40
0.875000000000008
40
0.875000000000008
40
1
40
1
40
1
40
1
41
1
10
86.285
20
-1.78112558044987
30
0
41
1
10
86.1644810975963
20
-1.85070720119509
30
0
41
1
10
86.0425823653271
20
-1.92108546708462
30
0
41
1
10
85.7952627988633
20
-2.06387548535835
30
0
41
1
10
85.6698413575789
20
-2.13628758824601
30
0
41
1
10
85.4145496850068
20
-2.28368030412739
30
0
41
1
10
85.284676432431
20
-2.3586626614626
30
0
41
1
10
85.0857479622886
20
-2.47351406724874
30
0
41
1
10
85.0187514176581
20
-2.51219454032596
30
0
41
1
10
84.9171287466072
20
-2.570866416813
30
0
41
1
10
84.8831916608642
20
-2.59046000240221
30
0
41
1
10
84.8155788528829
20
-2.62949627529088
30
0
41
1
10
84.7818439709897
20
-2.64897311843299
30
0
41
1
10
84.6135235203919
20
-2.74615297589574
30
0
41
1
10
84.4800047427325
20
-2.82324007811928
30
0
41
1
10
84.2150641450864
20
-2.9762036034895
30
0
41
1
10
84.083640233928
20
-3.05208123397477
30
0
41
1
10
83.9204997555534
20
-3.14627043308008
30
0
41
1
10
83.8880005090994
20
-3.16503388176872
30
0
41
1
10
83.8234110198242
20
-3.20232464078862
30
0
41
1
10
83.727059355383
20
-3.25795330019062
30
0
41
1
10
83.6322014296641
20
-3.31271954913916
30
0
41
1
10
83.4442288636067
20
-3.42124556075268
30
0
41
1
10
83.3212289861225
20
-3.49225957312848
30
0
41
1
10
83.1999999999999
20
-3.5622511608999
30
0
0
SPLINE
5
155
100
AcDbEntity
8
SK2
62
256
6
ByLayer
370
18
48
1
60
0
100
AcDbSpline
70
4
71
3
72
29
73
25
40
0
40
0
40
0
40
0
40
0.125000000000008
40
0.125000000000008
40
0.250000000000016
40
0.250000000000016
40
0.375000000000025
40
0.375000000000025
40
0.437500000000029
40
0.437500000000029
40
0.468750000000026
40
0.468750000000026
40
0.500000000000023
40
0.500000000000023
40
0.625000000000022
40
0.625000000000022
40
0.75000000000002
40
0.75000000000002
40
0.781250000000018
40
0.781250000000018
40
0.812500000000016
40
0.875000000000011
40
0.875000000000011
40
1
40
1
40
1
40
1
41
1
10
83.2
20
-3.56225116089988
30
0
41
1
10
83.0794810975963
20
-3.49266954015465
30
0
41
1
10
82.9575823653271
20
-3.42229127426515
30
0
41
1
10
82.7102627988633
20
-3.27950125599142
30
0
41
1
10
82.5848413575789
20
-3.20708915310374
30
0
41
1
10
82.3295496850068
20
-3.05969643722236
30
0
41
1
10
82.199676432431
20
-2.98471407988717
30
0
41
1
10
82.0007479622886
20
-2.869862674101
30
0
41
1
10
81.9337514176581
20
-2.83118220102381
30
0
41
1
10
81.8321287466072
20
-2.77251032453677
30
0
41
1
10
81.7981916608642
20
-2.75291673894753
30
0
41
1
10
81.7305788528828
20
-2.71388046605887
30
0
41
1
10
81.6968439709897
20
-2.69440362291675
30
0
41
1
10
81.5285235203919
20
-2.59722376545403
30
0
41
1
10
81.3950047427325
20
-2.52013666323046
30
0
41
1
10
81.1300641450865
20
-2.36717313786028
30
0
41
1
10
80.998640233928
20
-2.29129550737497
30
0
41
1
10
80.8354997555534
20
-2.19710630826967
30
0
41
1
10
80.8030005090994
20
-2.17834285958102
30
0
41
1
10
80.7384110198242
20
-2.14105210056113
30
0
41
1
10
80.642059355383
20
-2.08542344115915
30
0
41
1
10
80.5472014296641
20
-2.03065719221058
30
0
41
1
10
80.3592288636067
20
-1.92213118059706
30
0
41
1
10
80.2362289861225
20
-1.85111716822129
30
0
41
1
10
80.1149999999999
20
-1.78112558044984
30
0
0
SPLINE
5
156
100
AcDbEntity
8
SK2
62
256
6
ByLayer
370
18
48
1
60
0
100
AcDbSpline
70
4
71
3
72
33
73
29
40
0
40
0
40
0
40
0
40
0.124999999999999
40
0.124999999999999
40
0.156249999999999
40
0.156249999999999
40
0.187499999999999
40
0.25
40
0.25
40
0.374999999999999
40
0.374999999999999
40
0.437499999999999
40
0.437499999999999
40
0.468749999999999
40
0.468749999999999
40
0.499999999999999
40
0.499999999999999
40
0.624999999999998
40
0.624999999999998
40
0.749999999999998
40
0.749999999999998
40
0.812499999999998
40
0.812499999999998
40
0.843749999999998
40
0.843749999999998
40
0.874999999999998
40
0.874999999999998
40
1
40
1
40
1
40
1
41
1
10
80.115
20
-1.7811255804499
30
0
41
1
10
80.115
20
-1.64293923556863
30
0
41
1
10
80.115
20
-1.50194077366254
30
0
41
1
10
80.115
20
-1.3209038876256
30
0
41
1
10
80.115
20
-1.28447010679298
30
0
41
1
10
80.1150000000001
20
-1.21149118238367
30
0
41
1
10
80.1150000000001
20
-1.10171397987261
30
0
41
1
10
80.115
20
-0.990959970332113
30
0
41
1
10
80.1150000000001
20
-0.768010066240976
30
0
41
1
10
80.115
20
-0.617452837645374
30
0
41
1
10
80.1150000000001
20
-0.388169799839886
30
0
41
1
10
80.1150000000001
20
-0.311167741962436
30
0
41
1
10
80.115
20
-0.194739232190898
30
0
41
1
10
80.1150000000001
20
-0.15577556274053
30
0
41
1
10
80.115
20
-0.0775303303943247
30
0
41
1
10
80.115
20
-0.0381920450770963
30
0
41
1
10
80.1150000000001
20
0.157443780879873
30
0
41
1
10
80.1150000000001
20
0.31191029973516
30
0
41
1
10
80.1150000000001
20
0.61718051208365
30
0
41
1
10
80.115
20
0.767988285228967
30
0
41
1
10
80.115
20
0.991866504810673
30
0
41
1
10
80.115
20
1.06610422060055
30
0
41
1
10
80.1150000000001
20
1.17693102735507
30
0
41
1
10
80.115
20
1.21368441802878
30
0
41
1
10
80.115
20
1.28663634458519
30
0
41
1
10
80.115
20
1.32286855036634
30
0
41
1
10
80.115
20
1.50290090562265
30
0
41
1
10
80.1150000000001
20
1.64334091363239
30
0
41
1
10
80.115
20
1.78112558045009
30
0
0
SPLINE
5
157
100
AcDbEntity
8
SK1
62
256
6
ByLayer
370
18
48
1
60
0
100
AcDbSpline
70
4
71
3
72
8
73
4
40
0
40
0
40
0
40
0
40
1
40
1
40
1
40
1
41
1
10
-48.2500000000026
20
32.2214193285101
30
0
41
1
10
-48.1701858378083
20
32.2200218675635
30
0
41
1
10
-48.0872671766728
20
32.2186394162914
30
0
41
1
10
-48.0000748840349
20
32.218019138109
30
0
0
SPLINE
5
158
100
AcDbEntity
8
SK1
62
256
6
ByLayer
370
18
48
1
60
0
100
AcDbSpline
70
4
71
3
72
24
73
20
40
0
40
0
40
0
40
0
40
0.249999999999995
40
0.249999999999995
40
0.374999999999996
40
0.374999999999996
40
0.499999999999998
40
0.499999999999998
40
0.625
40
0.625
40
0.750000000000001
40
0.750000000000001
40
0.875000000000003
40
0.875000000000003
40
0.906250000000003
40
0.906250000000003
40
0.937500000000003
40
0.937500000000003
40
1
40
1
40
1
40
1
41
1
10
-48.25
20
32.2214193285101
30
0
41
1
10
-48.3271926111222
20
32.1386292038046
30
0
41
1
10
-48.4027254550249
20
32.0509309488242
30
0
41
1
10
-48.5122536734004
20
31.9125479314376
30
0
41
1
10
-48.5481266401183
20
31.8652831022075
30
0
41
1
10
-48.6182017881531
20
31.7686438086851
30
0
41
1
10
-48.6524093294458
20
31.7192662685851
30
0
41
1
10
-48.7185086625098
20
31.6186890095603
30
0
41
1
10
-48.7504115090575
20
31.5674830406984
30
0
41
1
10
-48.8107717948453
20
31.4637946573967
30
0
41
1
10
-48.8392507208949
20
31.4113006072306
30
0
41
1
10
-48.8906789766633
20
31.3061007614428
30
0
41
1
10
-48.9136547790547
20
31.2533832647301
30
0
41
1
10
-48.9365349150509
20
31.1885898499223
30
0
41
1
10
-48.9408137478883
20
31.1756889350704
30
0
41
1
10
-48.9486963493386
20
31.1500434137229
30
0
41
1
10
-48.9523012357625
20
31.1372877467466
30
0
41
1
10
-48.9618991158551
20
31.0996482574301
30
0
41
1
10
-48.9667024377094
20
31.0752954805268
30
0
41
1
10
-48.9697166806893
20
31.0518395799779
30
0
0
SPLINE
5
159
100
AcDbEntity
8
SK1
62
256
6
ByLayer
370
18
48
1
60
0
100
AcDbSpline
70
4
71
3
72
70
73
66
40
0
40
0
40
0
40
0
40
0.125000000000032
40
0.125000000000032
40
0.187500000000048
40
0.187500000000048
40
0.250000000000064
40
0.250000000000064
40
0.31250000000008
40
0.31250000000008
40
0.343750000000087
40
0.343750000000087
40
0.375000000000093
40
0.375000000000093
40
0.4062500000001
40
0.4062500000001
40
0.421875000000104
40
0.421875000000104
40
0.437500000000107
40
0.437500000000107
40
0.45312500000011
40
0.45312500000011
40
0.468750000000114
40
0.468750000000114
40
0.484375000000117
40
0.484375000000117
40
0.492187500000119
40
0.492187500000119
40
0.496093750000119
40
0.496093750000119
40
0.50000000000012
40
0.50000000000012
40
0.507812500000118
40
0.507812500000118
40
0.511718750000116
40
0.511718750000116
40
0.515625000000114
40
0.515625000000114
40
0.523437500000113
40
0.523437500000113
40
0.531250000000112
40
0.531250000000112
40
0.539062500000112
40
0.539062500000112
40
0.546875000000111
40
0.546875000000111
40
0.562500000000107
40
0.562500000000107
40
0.578125000000103
40
0.578125000000103
40
0.593750000000099
40
0.593750000000099
40
0.625000000000091
40
0.625000000000091
40
0.656250000000083
40
0.656250000000083
40
0.687500000000076
40
0.687500000000076
40
0.75000000000006
40
0.75000000000006
40
0.812500000000045
40
0.812500000000045
40
0.87500000000003
40
0.87500000000003
40
1
40
1
40
1
40
1
41
1
10
-48.9697166806893
20
31.0518395799779
30
0
41
1
10
-48.9785920072055
20
30.9827745518778
30
0
41
1
10
-48.9897988429114
20
30.9117001184866
30
0
41
1
10
-49.0109647633668
20
30.80175846695
30
0
41
1
10
-49.0187527653911
20
30.7645416601615
30
0
41
1
10
-49.0360874261683
20
30.6887408851898
30
0
41
1
10
-49.0456289023845
20
30.6501609458565
30
0
41
1
10
-49.0669675034832
20
30.5712475494476
30
0
41
1
10
-49.0787629361651
20
30.5308934418219
30
0
41
1
10
-49.0987562930164
20
30.4688294272683
30
0
41
1
10
-49.1058105146936
20
30.4478732539896
30
0
41
1
10
-49.1209098209546
20
30.405279175742
30
0
41
1
10
-49.1289512012182
20
30.3836438194125
30
0
41
1
10
-49.1463779452354
20
30.3394484216833
30
0
41
1
10
-49.1557499117383
20
30.3169102508109
30
0
41
1
10
-49.1712062282388
20
30.2823125423269
30
0
41
1
10
-49.176596709892
20
30.2706398289828
30
0
41
1
10
-49.1879974293986
20
30.2469300411011
30
0
41
1
10
-49.194001658857
20
30.2349054963993
30
0
41
1
10
-49.2067373070764
20
30.210583268015
30
0
41
1
10
-49.2134742645563
20
30.1982668746697
30
0
41
1
10
-49.228026499318
20
30.1731804834032
30
0
41
1
10
-49.2358273164288
20
30.1604165682785
30
0
41
1
10
-49.253219744464
20
30.1341354250818
30
0
41
1
10
-49.2626054593638
20
30.1209142770384
30
0
41
1
10
-49.278375252734
20
30.1011170203347
30
0
41
1
10
-49.2839152326924
20
30.0945400212571
30
0
41
1
10
-49.2924720071763
20
30.0850799204059
30
0
41
1
10
-49.29537663566
20
30.0819802199028
30
0
41
1
10
-49.3013049674422
20
30.0759028407211
30
0
41
1
10
-49.3043370960405
20
30.0729194623566
30
0
41
1
10
-49.3133471331065
20
30.0644412999462
30
0
41
1
10
-49.3193261585439
20
30.0593250574951
30
0
41
1
10
-49.3282527570273
20
30.0524630297561
30
0
41
1
10
-49.3312153507702
20
30.0503179942733
30
0
41
1
10
-49.3369592386163
20
30.0464039042845
30
0
41
1
10
-49.3397632723993
20
30.0446168883963
30
0
41
1
10
-49.3479935042774
20
30.0397111939906
30
0
41
1
10
-49.3532502018272
20
30.0370484824606
30
0
41
1
10
-49.3630298315463
20
30.0328279696568
30
0
41
1
10
-49.3676116126613
20
30.0312334148456
30
0
41
1
10
-49.3763182059836
20
30.0288093499524
30
0
41
1
10
-49.3804580471831
20
30.0279815778647
30
0
41
1
10
-49.3882378147303
20
30.0269399205925
30
0
41
1
10
-49.3918959362051
20
30.0267193374018
30
0
41
1
10
-49.4023455028556
20
30.0267374574298
30
0
41
1
10
-49.4086206278603
20
30.0276450476096
30
0
41
1
10
-49.42027994993
20
30.0306144150717
30
0
41
1
10
-49.4256604855122
20
30.0326871954355
30
0
41
1
10
-49.4357579429466
20
30.0376666472003
30
0
41
1
10
-49.4404341462278
20
30.0405548764115
30
0
41
1
10
-49.453646562731
20
30.0500926742595
30
0
41
1
10
-49.4613809145854
20
30.0576000217036
30
0
41
1
10
-49.4755165521723
20
30.0740407434772
30
0
41
1
10
-49.4819043194362
20
30.0829885789794
30
0
41
1
10
-49.4937222729305
20
30.101908607498
30
0
41
1
10
-49.4991481547123
20
30.1118854051316
30
0
41
1
10
-49.5143265433229
20
30.1429917109388
30
0
41
1
10
-49.523006039586
20
30.1653087850468
30
0
41
1
10
-49.5384114740619
20
30.2117943224834
30
0
41
1
10
-49.5451285655853
20
30.2359789659312
30
0
41
1
10
-49.5571407002954
20
30.285707177795
30
0
41
1
10
-49.5624299764209
20
30.3112562572776
30
0
41
1
10
-49.5766217121049
20
30.3895051882629
30
0
41
1
10
-49.5838739667783
20
30.4437819936303
30
0
41
1
10
-49.5895655549791
20
30.4995501889749
30
0
0
SPLINE
5
15A
100
AcDbEntity
8
SK1
62
256
6
ByLayer
370
18
48
1
60
0
100
AcDbSpline
70
4
71
3
72
34
73
30
40
0
40
0
40
0
40
0
40
0.0312499999999974
40
0.0312499999999974
40
0.0624999999999948
40
0.0624999999999948
40
0.124999999999992
40
0.124999999999992
40
0.187499999999989
40
0.187499999999989
40
0.249999999999986
40
0.249999999999986
40
0.312499999999983
40
0.312499999999983
40
0.343749999999983
40
0.343749999999983
40
0.374999999999982
40
0.374999999999982
40
0.499999999999986
40
0.499999999999986
40
0.624999999999989
40
0.624999999999989
40
0.749999999999992
40
0.749999999999992
40
0.874999999999995
40
0.874999999999995
40
0.937499999999998
40
0.937499999999998
40
1
40
1
40
1
40
1
41
1
10
-49.5895655549782
20
30.4995501889756
30
0
41
1
10
-49.5906351288661
20
30.5100302524321
30
0
41
1
10
-49.5921127463332
20
30.5199077725871
30
0
41
1
10
-49.5958301509184
20
30.5385031752346
30
0
41
1
10
-49.598073228167
20
30.5472322605516
30
0
41
1
10
-49.6058113389978
20
30.5717013681045
30
0
41
1
10
-49.6122375259955
20
30.585532131644
30
0
41
1
10
-49.6267759592584
20
30.609289058397
30
0
41
1
10
-49.6348867534572
20
30.6192155991344
30
0
41
1
10
-49.6521095088274
20
30.6359601993528
30
0
41
1
10
-49.6612224168294
20
30.6427764210178
30
0
41
1
10
-49.6799383965105
20
30.6538558693999
30
0
41
1
10
-49.6895428780526
20
30.6581170880886
30
0
41
1
10
-49.7040332900464
20
30.6628782929078
30
0
41
1
10
-49.7088807488956
20
30.6641925125832
30
0
41
1
10
-49.7185317643563
20
30.6663048922732
30
0
41
1
10
-49.723339540392
20
30.6671046840936
30
0
41
1
10
-49.7472116456447
20
30.669914592121
30
0
41
1
10
-49.7657471332943
20
30.6684012417398
30
0
41
1
10
-49.8002578924658
20
30.6593732794861
30
0
41
1
10
-49.8162473661745
20
30.6518382094736
30
0
41
1
10
-49.8447043216352
20
30.6315402109466
30
0
41
1
10
-49.8571779360089
20
30.6187684321093
30
0
41
1
10
-49.8777806482731
20
30.5885036001345
30
0
41
1
10
-49.8859126744472
20
30.5710058767977
30
0
41
1
10
-49.8942491563155
20
30.5415331247566
30
0
41
1
10
-49.896384303019
20
30.5311708738665
30
0
41
1
10
-49.8992628761556
20
30.5094245379122
30
0
41
1
10
-49.9
20
30.4980717145812
30
0
41
1
10
-49.9000000000001
20
30.486325550098
30
0
0
SPLINE
5
15B
100
AcDbEntity
8
SK1
62
256
6
ByLayer
370
18
48
1
60
0
100
AcDbSpline
70
4
71
3
72
26
73
22
40
0
40
0
40
0
40
0
40
0.124999999999996
40
0.124999999999996
40
0.156249999999995
40
0.156249999999995
40
0.187499999999994
40
0.187499999999994
40
0.249999999999998
40
0.249999999999998
40
0.375000000000001
40
0.375000000000001
40
0.500000000000004
40
0.500000000000004
40
0.562500000000005
40
0.562500000000005
40
0.625000000000006
40
0.625000000000006
40
0.750000000000004
40
0.750000000000004
40
1
40
1
40
1
40
1
41
1
10
-49.6803455045438
20
-30.3774556099035
30
0
41
1
10
-49.6826466725057
20
-30.4177976277118
30
0
41
1
10
-49.6885779490542
20
-30.451199709692
30
0
41
1
10
-49.6993728100178
20
-30.4853880561095
30
0
41
1
10
-49.7016978917135
20
-30.4918492490829
30
0
41
1
10
-49.7066424416953
20
-30.5040509634645
30
0
41
1
10
-49.7092669763271
20
-30.5098010237183
30
0
41
1
10
-49.7174822299178
20
-30.5259403501964
30
0
41
1
10
-49.7234030801493
20
-30.5352153562698
30
0
41
1
10
-49.7420007665261
20
-30.5592247592351
30
0
41
1
10
-49.7554901907108
20
-30.5701798932251
30
0
41
1
10
-49.7826003725112
20
-30.5843374606963
30
0
41
1
10
-49.7962305385268
20
-30.5875234193368
30
0
41
1
10
-49.8156911072293
20
-30.5875089686903
30
0
41
1
10
-49.8220175105964
20
-30.5866993977801
30
0
41
1
10
-49.8342006020736
20
-30.5835895825154
30
0
41
1
10
-49.8400654924927
20
-30.581283680967
30
0
41
1
10
-49.8566753045913
20
-30.5723195195696
30
0
41
1
10
-49.8664422955215
20
-30.563631467543
30
0
41
1
10
-49.8906557219727
20
-30.5306432537628
30
0
41
1
10
-49.9
20
-30.4994350136778
30
0
41
1
10
-49.9
20
-30.461345205321
30
0
0
SPLINE
5
15C
100
AcDbEntity
8
SK1
62
256
6
ByLayer
370
18
48
1
60
0
100
AcDbSpline
70
4
71
3
72
79
73
75
40
0
40
0
40
0
40
0
40
0.124999999999982
40
0.124999999999982
40
0.187499999999973
40
0.187499999999973
40
0.249999999999964
40
0.249999999999964
40
0.312499999999955
40
0.312499999999955
40
0.343749999999952
40
0.343749999999952
40
0.374999999999949
40
0.374999999999949
40
0.406249999999947
40
0.406249999999947
40
0.421874999999945
40
0.421874999999945
40
0.437499999999944
40
0.437499999999944
40
0.453124999999942
40
0.453124999999942
40
0.460937499999942
40
0.460937499999942
40
0.468749999999942
40
0.468749999999942
40
0.476562499999942
40
0.476562499999942
40
0.484374999999942
40
0.484374999999942
40
0.492187499999942
40
0.492187499999942
40
0.496093749999942
40
0.496093749999942
40
0.499999999999942
40
0.499999999999942
40
0.503906249999942
40
0.503906249999942
40
0.507812499999942
40
0.507812499999942
40
0.511718749999942
40
0.511718749999942
40
0.515624999999942
40
0.519531249999942
40
0.519531249999942
40
0.523437499999942
40
0.523437499999942
40
0.531249999999941
40
0.531249999999941
40
0.539062499999941
40
0.539062499999941
40
0.546874999999941
40
0.546874999999941
40
0.562499999999942
40
0.562499999999942
40
0.578124999999944
40
0.578124999999944
40
0.593749999999945
40
0.593749999999945
40
0.609374999999946
40
0.609374999999946
40
0.624999999999948
40
0.624999999999948
40
0.656249999999952
40
0.656249999999952
40
0.687499999999956
40
0.687499999999956
40
0.749999999999965
40
0.749999999999965
40
0.812499999999974
40
0.812499999999974
40
0.874999999999983
40
0.874999999999983
40
1
40
1
40
1
40
1
41
1
10
-48.8107662132843
20
-31.1522564317148
30
0
41
1
10
-48.8207523906185
20
-31.0468389955468
30
0
41
1
10
-48.8347977886099
20
-30.9380353110939
30
0
41
1
10
-48.863237913532
20
-30.76867995442
30
0
41
1
10
-48.8739567807322
20
-30.7111947264157
30
0
41
1
10
-48.8983160849201
20
-30.5937870634854
30
0
41
1
10
-48.9119361518274
20
-30.5339456016289
30
0
41
1
10
-48.942707331959
20
-30.4117048270231
30
0
41
1
10
-48.959845367525
20
-30.3492846666251
30
0
41
1
10
-48.9892122906686
20
-30.2529399334579
30
0
41
1
10
-48.9996172942046
20
-30.2203681191084
30
0
41
1
10
-49.0219813405053
20
-30.1540718734649
30
0
41
1
10
-49.0339246793493
20
-30.1203879291753
30
0
41
1
10
-49.059754669623
20
-30.0518315003509
30
0
41
1
10
-49.0736370870419
20
-30.0169394084226
30
0
41
1
10
-49.0966115318847
20
-29.9632364691663
30
0
41
1
10
-49.1046321805198
20
-29.9451054649242
30
0
41
1
10
-49.1216148192032
20
-29.9082461285314
30
0
41
1
10
-49.1305700741602
20
-29.8895321072081
30
0
41
1
10
-49.1495989668137
20
-29.8516211944068
30
0
41
1
10
-49.1596796879744
20
-29.8323965422854
30
0
41
1
10
-49.1760547886479
20
-29.8029634286046
30
0
41
1
10
-49.1817244171713
20
-29.7930519611599
30
0
41
1
10
-49.1936049787253
20
-29.7729717009433
30
0
41
1
10
-49.1998257683409
20
-29.7627880777069
30
0
41
1
10
-49.2128308013284
20
-29.7423256977794
30
0
41
1
10
-49.2196268301043
20
-29.7320233676748
30
0
41
1
10
-49.2340213128809
20
-29.7112242193741
30
0
41
1
10
-49.2416110529624
20
-29.7007458702754
30
0
41
1
10
-49.2575031351017
20
-29.6800713775648
30
0
41
1
10
-49.2658380493683
20
-29.6698202438741
30
0
41
1
10
-49.2791862436769
20
-29.6546308436327
30
0
41
1
10
-49.2837741648607
20
-29.6496083756154
30
0
41
1
10
-49.2930003400936
20
-29.63994524176
30
0
41
1
10
-49.2976697254006
20
-29.6352683475385
30
0
41
1
10
-49.3071329803951
20
-29.626256568436
30
0
41
1
10
-49.311968457865
20
-29.6218884774033
30
0
41
1
10
-49.3214736463001
20
-29.6137847629653
30
0
41
1
10
-49.3261621837208
20
-29.6100268099359
30
0
41
1
10
-49.3354171762959
20
-29.6030710394337
30
0
41
1
10
-49.3400042746415
20
-29.5998599713776
30
0
41
1
10
-49.3489704146129
20
-29.5940326966685
30
0
41
1
10
-49.3576063578984
20
-29.5888732254697
30
0
41
1
10
-49.3656869050428
20
-29.5848370105252
30
0
41
1
10
-49.3735293784242
20
-29.5812822858604
30
0
41
1
10
-49.3773481206099
20
-29.5797403598064
30
0
41
1
10
-49.3883502011648
20
-29.5757928427389
30
0
41
1
10
-49.3950862147044
20
-29.5740450582449
30
0
41
1
10
-49.4077343741282
20
-29.5717657962548
30
0
41
1
10
-49.4136422709845
20
-29.5712405917597
30
0
41
1
10
-49.4248380081821
20
-29.5711055956674
30
0
41
1
10
-49.4301027025762
20
-29.5715007547434
30
0
41
1
10
-49.4449678719848
20
-29.5737061548779
30
0
41
1
10
-49.4537487107807
20
-29.5765145535871
30
0
41
1
10
-49.4699151336036
20
-29.5837846563608
30
0
41
1
10
-49.4772864900778
20
-29.5882632193459
30
0
41
1
10
-49.491033168712
20
-29.5984005949038
30
0
41
1
10
-49.497403937701
20
-29.6040648027508
30
0
41
1
10
-49.5093887593111
20
-29.6162898885378
30
0
41
1
10
-49.514990087856
20
-29.6228436423372
30
0
41
1
10
-49.5255324102159
20
-29.6365663832435
30
0
41
1
10
-49.5304827245515
20
-29.6437470340771
30
0
41
1
10
-49.5445644756583
20
-29.6660544230691
30
0
41
1
10
-49.5529365392994
20
-29.6819368268862
30
0
41
1
10
-49.5682708760771
20
-29.7151045420348
30
0
41
1
10
-49.5752262670633
20
-29.7323967019159
30
0
41
1
10
-49.5944919615918
20
-29.785865846008
30
0
41
1
10
-49.6052282011199
20
-29.8236092092139
30
0
41
1
10
-49.6239958360567
20
-29.9017875739422
30
0
41
1
10
-49.6320044071804
20
-29.9422452883152
30
0
41
1
10
-49.6460382027979
20
-30.0251343804399
30
0
41
1
10
-49.6520570014111
20
-30.0675875187201
30
0
41
1
10
-49.6677597109614
20
-30.1970770407967
30
0
41
1
10
-49.6751434128412
20
-30.2862571925864
30
0
41
1
10
-49.6803455045438
20
-30.3774556099035
30
0
0
SPLINE
5
15D
100
AcDbEntity
8
SK1
62
256
6
ByLayer
370
18
48
1
60
0
100
AcDbSpline
70
4
71
3
72
22
73
18
40
0
40
0
40
0
40
0
40
0.249999999999997
40
0.249999999999997
40
0.374999999999997
40
0.374999999999997
40
0.499999999999996
40
0.499999999999996
40
0.624999999999996
40
0.624999999999996
40
0.749999999999995
40
0.749999999999995
40
0.874999999999995
40
0.874999999999995
40
0.937499999999997
40
0.937499999999997
40
1
40
1
40
1
40
1
41
1
10
-48.20375
20
-32.2181660739544
30
0
41
1
10
-48.2737896568833
20
-32.1406054524218
30
0
41
1
10
-48.3417739186829
20
-32.0588532344577
30
0
41
1
10
-48.4388914764233
20
-31.9307826623015
30
0
41
1
10
-48.4704434350604
20
-31.8871899076968
30
0
41
1
10
-48.531401090616
20
-31.7984410192158
30
0
41
1
10
-48.5608102877274
20
-31.753282888709
30
0
41
1
10
-48.6167419021676
20
-31.6617679387246
30
0
41
1
10
-48.6432690328275
20
-31.6154085875363
30
0
41
1
10
-48.6923318001704
20
-31.5220506594835
30
0
41
1
10
-48.7148712626934
20
-31.4750505517753
30
0
41
1
10
-48.7543493944711
20
-31.381234920904
30
0
41
1
10
-48.7712829155222
20
-31.3344240415513
30
0
41
1
10
-48.7908820151232
20
-31.2651460007095
30
0
41
1
10
-48.7964443706483
20
-31.2422112565102
30
0
41
1
10
-48.8053459563061
20
-31.1967884432227
30
0
41
1
10
-48.8086824422017
20
-31.1742534179193
30
0
41
1
10
-48.810766213284
20
-31.1522564317151
30
0
0
SPLINE
5
15E
100
AcDbEntity
8
SK1
62
256
6
ByLayer
370
18
48
1
60
0
100
AcDbSpline
70
4
71
3
72
8
73
4
40
0
40
0
40
0
40
0
40
1
40
1
40
1
40
1
41
1
10
-48.2037500000014
20
-32.2181660739542
30
0
41
1
10
-48.1381154484482
20
-32.2167467927087
30
0
41
1
10
-48.0704205135131
20
-32.2155176815098
30
0
41
1
10
-48.0000748840325
20
-32.214899599982
30
0
0
SPLINE
5
15F
100
AcDbEntity
8
SK1
62
256
6
ByLayer
370
18
48
1
60
0
100
AcDbSpline
70
4
71
3
72
100
73
96
40
0
40
0
40
0
40
0
40
0.02390070918303
40
0.02390070918303
40
0.0551456724700435
40
0.0551456724700435
40
0.0707681541135502
40
0.0707681541135502
40
0.0785793949353036
40
0.0785793949353036
40
0.086390635757057
40
0.086390635757057
40
0.117635599044071
40
0.117635599044071
40
0.148880562331084
40
0.148880562331084
40
0.164503043974591
40
0.164503043974591
40
0.172314284796344
40
0.172314284796344
40
0.180125525618098
40
0.180125525618098
40
0.211370488905111
40
0.211370488905111
40
0.242615452192125
40
0.242615452192125
40
0.258237933835632
40
0.258237933835632
40
0.266049174657385
40
0.266049174657385
40
0.273860415479138
40
0.273860415479138
40
0.305105378766152
40
0.305105378766152
40
0.336350342053165
40
0.367595305340178
40
0.367595305340178
40
0.375406546161931
40
0.375406546161931
40
0.383217786983685
40
0.398840268627192
40
0.398840268627192
40
0.430085231914205
40
0.461330195201218
40
0.461330195201218
40
0.476952676844725
40
0.476952676844725
40
0.484763917666479
40
0.484763917666479
40
0.492575158488232
40
0.492575158488232
40
0.523820121775245
40
0.523820121775245
40
0.555065085062259
40
0.555065085062259
40
0.586310048349272
40
0.586310048349272
40
0.601932529992779
40
0.601932529992779
40
0.609743770814532
40
0.609743770814532
40
0.617555011636285
40
0.617555011636285
40
0.648799974923298
40
0.680044938210311
40
0.680044938210311
40
0.711289901497323
40
0.711289901497323
40
0.719101142319077
40
0.719101142319077
40
0.72691238314083
40
0.72691238314083
40
0.742534864784336
40
0.742534864784336
40
0.773779828071348
40
0.773779828071348
40
0.80502479135836
40
0.80502479135836
40
0.836269754645373
40
0.836269754645373
40
0.844080995467126
40
0.844080995467126
40
0.851892236288879
40
0.867514717932385
40
0.867514717932385
40
0.898759681219397
40
0.898759681219397
40
0.93000464450641
40
0.93000464450641
40
0.945627126149916
40
0.945627126149916
40
0.961249607793423
40
0.961249607793423
40
0.992494571080435
40
1
40
1
40
1
40
1
41
1
10
-7.81434282290007
20
37.6160019088957
30
0
41
1
10
-7.81432189145775
20
37.616005492751
30
0
41
1
10
-7.8214429328175
20
37.6145633805289
30
0
41
1
10
-7.85398639016557
20
37.6079890454921
30
0
41
1
10
-7.88436169025053
20
37.6018587592899
30
0
41
1
10
-7.9478626297211
20
37.5891496233603
30
0
41
1
10
-7.97202496076235
20
37.584327300096
30
0
41
1
10
-8.01281842288567
20
37.5762238920478
30
0
41
1
10
-8.02719804135737
20
37.5733731876624
30
0
41
1
10
-8.05736797740434
20
37.5674069302577
30
0
41
1
10
-8.07314358608417
20
37.5642942690055
30
0
41
1
10
-8.15541671604804
20
37.5481048669995
30
0
41
1
10
-8.23207017172504
20
37.5331528904395
30
0
41
1
10
-8.40605338627101
20
37.4997459648323
30
0
41
1
10
-8.50338630322294
20
37.4812899916831
30
0
41
1
10
-8.66466593997006
20
37.4513060997541
30
0
41
1
10
-8.72097755367533
20
37.4409277790794
30
0
41
1
10
-8.80928859004133
20
37.424823312953
30
0
41
1
10
-8.83940017626216
20
37.4193596305242
30
0
41
1
10
-8.90059668695476
20
37.4083161368078
30
0
41
1
10
-8.93170940381957
20
37.4027311980643
30
0
41
1
10
-9.08980160651234
20
37.3745138275953
30
0
41
1
10
-9.22434516049199
20
37.3510060707369
30
0
41
1
10
-9.50882133136049
20
37.3026700550151
30
0
41
1
10
-9.65875653237987
20
37.2778407127451
30
0
41
1
10
-9.89502074972738
20
37.2399778514852
30
0
41
1
10
-9.97567274087328
20
37.2272534703191
30
0
41
1
10
-10.0995062223642
20
37.2080566596274
30
0
41
1
10
-10.141267832343
20
37.2016381782455
30
0
41
1
10
-10.2257164832329
20
37.1887766252454
30
0
41
1
10
-10.2682633801021
20
37.1823548873661
30
0
41
1
10
-10.4825863455032
20
37.1503091954741
30
0
41
1
10
-10.6591151028225
20
37.1248758638604
30
0
41
1
10
-11.0219044291422
20
37.0748411046524
30
0
41
1
10
-11.3944280795168
20
37.0256391598448
30
0
41
1
10
-11.7861963197059
20
36.9788917937937
30
0
41
1
10
-12.0371658958116
20
36.9506844708766
30
0
41
1
10
-12.0877271193422
20
36.9450869320612
30
0
41
1
10
-12.1890952403971
20
36.9340392369721
30
0
41
1
10
-12.3415246943459
20
36.9176869799981
30
0
41
1
10
-12.495072902259
20
36.9020073941175
30
0
41
1
10
-12.8036375704129
20
36.8715827717145
30
0
41
1
10
-13.2189658117113
20
36.833510598003
30
0
41
1
10
-13.642018801178
20
36.8008098290912
30
0
41
1
10
-13.9622438041629
20
36.7784385960326
30
0
41
1
10
-14.0694754356938
20
36.7713405480661
30
0
41
1
10
-14.2310696927793
20
36.761249480338
30
0
41
1
10
-14.2850589639675
20
36.7579784591991
30
0
41
1
10
-14.3932891502435
20
36.7516246805944
30
0
41
1
10
-14.4475729623615
20
36.7485397853308
30
0
41
1
10
-14.7183259174543
20
36.7336627263858
30
0
41
1
10
-14.9337134652921
20
36.7234563940047
30
0
41
1
10
-15.3621199571432
20
36.7063373984835
30
0
41
1
10
-15.5751387632466
20
36.6994248914492
30
0
41
1
10
-15.9988028791435
20
36.6887973896278
30
0
41
1
10
-16.209448343188
20
36.6850825376171
30
0
41
1
10
-16.523583770087
20
36.6818333037753
30
0
41
1
10
-16.6279895922839
20
36.6811373560974
30
0
41
1
10
-16.7841276018174
20
36.6806641778682
30
0
41
1
10
-16.8361578298839
20
36.6806016501545
30
0
41
1
10
-16.939740627904
20
36.6806647564302
30
0
41
1
10
-16.9912457215227
20
36.6807900862659
30
0
41
1
10
-17.2473507859701
20
36.6818707085173
30
0
41
1
10
-17.6480469082921
20
36.6864983624037
30
0
41
1
10
-18.0308478261489
20
36.6961681828052
30
0
41
1
10
-18.4045781572909
20
36.7079892290944
30
0
41
1
10
-18.586909326751
20
36.7149758964625
30
0
41
1
10
-18.808911931243
20
36.7248201453047
30
0
41
1
10
-18.8530161673033
20
36.7268445060812
30
0
41
1
10
-18.9406229554333
20
36.7309982170252
30
0
41
1
10
-18.9841526281097
20
36.7331289394499
30
0
41
1
10
-19.1136492728623
20
36.7396605784225
30
0
41
1
10
-19.1980051024613
20
36.7441742643364
30
0
41
1
10
-19.4452185588362
20
36.7580919956344
30
0
41
1
10
-19.6022364149496
20
36.7678719858305
30
0
41
1
10
-19.9007220590616
20
36.7879222101687
30
0
41
1
10
-20.0421909145451
20
36.7981932526885
30
0
41
1
10
-20.309140922944
20
36.8187283621882
30
0
41
1
10
-20.4346258242081
20
36.8289932916957
30
0
41
1
10
-20.5808803797061
20
36.8415026446233
30
0
41
1
10
-20.609629024321
20
36.8439909982552
30
0
41
1
10
-20.6657008478369
20
36.8488969874556
30
0
41
1
10
-20.747787777285
20
36.8561600354919
30
0
41
1
10
-20.8238605098264
20
36.8631042785771
30
0
41
1
10
-20.9680482129712
20
36.8764897079226
30
0
41
1
10
-21.0535834604935
20
36.8847417938078
30
0
41
1
10
-21.2033054236258
20
36.8995133540456
30
0
41
1
10
-21.2674946623102
20
36.9060334534641
30
0
41
1
10
-21.3471276490649
20
36.9142365164306
30
0
41
1
10
-21.3708912689804
20
36.9167081068455
30
0
41
1
10
-21.4126754407559
20
36.9210795741509
30
0
41
1
10
-21.4304990313832
20
36.9229587401183
30
0
41
1
10
-21.4748672652174
20
36.927654231585
30
0
41
1
10
-21.4965750619812
20
36.9299820253435
30
0
41
1
10
-21.5000223392516
20
36.9303498237524
30
0
41
1
10
-21.5000026419327
20
36.9303474935585
30
0
0
SPLINE
5
160
100
AcDbEntity
8
SK1
62
256
6
ByLayer
370
18
48
1
60
0
100
AcDbSpline
70
4
71
3
72
104
73
100
40
0
40
0
40
0
40
0
40
0.0214339533385985
40
0.0214339533385985
40
0.0292417024942016
40
0.0292417024942016
40
0.0370494516498046
40
0.0370494516498046
40
0.0526649499610107
40
0.0526649499610107
40
0.0838959465834228
40
0.0838959465834228
40
0.115126943205835
40
0.115126943205835
40
0.122934692361438
40
0.122934692361438
40
0.130742441517041
40
0.130742441517041
40
0.146357939828247
40
0.146357939828247
40
0.177588936450659
40
0.177588936450659
40
0.208819933073071
40
0.208819933073071
40
0.224435431384277
40
0.224435431384277
40
0.232243180539879
40
0.232243180539879
40
0.240050929695482
40
0.240050929695482
40
0.271281926317895
40
0.271281926317895
40
0.302512922940307
40
0.302512922940307
40
0.318128421251513
40
0.318128421251513
40
0.325936170407116
40
0.325936170407116
40
0.333743919562719
40
0.333743919562719
40
0.36497491618513
40
0.36497491618513
40
0.396205912807542
40
0.427436909429953
40
0.427436909429953
40
0.435244658585556
40
0.435244658585556
40
0.443052407741159
40
0.443052407741159
40
0.458667906052365
40
0.458667906052365
40
0.489898902674776
40
0.521129899297188
40
0.521129899297188
40
0.552360895919599
40
0.552360895919599
40
0.567976394230805
40
0.567976394230805
40
0.583591892542011
40
0.583591892542011
40
0.614822889164422
40
0.614822889164422
40
0.646053885786834
40
0.646053885786834
40
0.661669384098039
40
0.661669384098039
40
0.669477133253642
40
0.669477133253642
40
0.677284882409244
40
0.677284882409244
40
0.708515879031655
40
0.739746875654065
40
0.739746875654065
40
0.770977872276475
40
0.770977872276475
40
0.78659337058768
40
0.78659337058768
40
0.794401119743282
40
0.794401119743282
40
0.802208868898884
40
0.802208868898884
40
0.833439865521295
40
0.833439865521295
40
0.864670862143705
40
0.864670862143705
40
0.895901858766116
40
0.895901858766116
40
0.903709607921719
40
0.903709607921719
40
0.911517357077321
40
0.927132855388527
40
0.927132855388527
40
0.958363852010938
40
0.958363852010938
40
0.989594848633349
40
0.989594848633349
40
0.997402597788952
40
0.997402597788952
40
1
40
1
40
1
40
1
41
1
10
-21.5000041363425
20
-36.9303474626421
30
0
41
1
10
-21.4999609633683
20
-36.9303423030713
30
0
41
1
10
-21.4943059360525
20
-36.9297369832566
30
0
41
1
10
-21.4788146901815
20
-36.9280844022563
30
0
41
1
10
-21.4739201863398
20
-36.9275628229828
30
0
41
1
10
-21.4625984188041
20
-36.9263587882752
30
0
41
1
10
-21.456159678233
20
-36.9256751175436
30
0
41
1
10
-21.4346038918093
20
-36.9233921087882
30
0
41
1
10
-21.4172853236873
20
-36.9215646027249
30
0
41
1
10
-21.3567175465797
20
-36.9152207223246
30
0
41
1
10
-21.3048787016907
20
-36.9098423275229
30
0
41
1
10
-21.1789309579673
20
-36.8970925582696
30
0
41
1
10
-21.1048206678252
20
-36.8897206477529
30
0
41
1
10
-20.9982266626119
20
-36.8794674924612
30
0
41
1
10
-20.9762083560189
20
-36.877365038639
30
0
41
1
10
-20.9307649649809
20
-36.8730620891702
30
0
41
1
10
-20.9073116441753
20
-36.8708589697204
30
0
41
1
10
-20.8350267778472
20
-36.8641299500312
30
0
41
1
10
-20.7844346280646
20
-36.8594994391821
30
0
41
1
10
-20.6256720613504
20
-36.8452686128388
30
0
41
1
10
-20.5105338999628
20
-36.8353289800472
30
0
41
1
10
-20.2623510498034
20
-36.8150389241277
30
0
41
1
10
-20.129304333472
20
-36.8046876711257
30
0
41
1
10
-19.91638920189
20
-36.7892298094071
30
0
41
1
10
-19.8431890827454
20
-36.7840888488859
30
0
41
1
10
-19.730018892489
20
-36.7764444530324
30
0
41
1
10
-19.6918185387116
20
-36.7739133512502
30
0
41
1
10
-19.6146633567857
20
-36.7689052849555
30
0
41
1
10
-19.5756796286263
20
-36.7664263623772
30
0
41
1
10
-19.3787599051635
20
-36.7541757720302
30
0
41
1
10
-19.2148365238776
20
-36.744836639178
30
0
41
1
10
-18.8747060959729
20
-36.7275433503458
30
0
41
1
10
-18.6984974556378
20
-36.7195884919542
30
0
41
1
10
-18.4250584232746
20
-36.7090407437918
30
0
41
1
10
-18.3323883185654
20
-36.7057556503408
30
0
41
1
10
-18.191084045122
20
-36.7012188650766
30
0
41
1
10
-18.1435992640363
20
-36.6997717581898
30
0
41
1
10
-18.0478586633436
20
-36.6970154697969
30
0
41
1
10
-17.9996536198189
20
-36.6957079602148
30
0
41
1
10
-17.7578685588756
20
-36.6895608632595
30
0
41
1
10
-17.5611877471659
20
-36.6858688417225
30
0
41
1
10
-17.1615918134346
20
-36.6812078751488
30
0
41
1
10
-16.7557600995883
20
-36.6792706883382
30
0
41
1
10
-16.337639291229
20
-36.6833084047731
30
0
41
1
10
-16.0724270604448
20
-36.6878676419242
30
0
41
1
10
-16.0191898703303
20
-36.6888812978831
30
0
41
1
10
-15.9123231813235
20
-36.6911165651665
30
0
41
1
10
-15.8587245631855
20
-36.6923378179717
30
0
41
1
10
-15.6981171897024
20
-36.6962984120905
30
0
41
1
10
-15.5910468347989
20
-36.6993396267423
30
0
41
1
10
-15.2698405249356
20
-36.7096640573479
30
0
41
1
10
-14.8415784063018
20
-36.7266323994577
30
0
41
1
10
-14.4133472399135
20
-36.7499812987965
30
0
41
1
10
-13.9851301278561
20
-36.77650436602
30
0
41
1
10
-13.7710286107101
20
-36.7913529689849
30
0
41
1
10
-13.4498827823393
20
-36.8159916819972
30
0
41
1
10
-13.3435218403948
20
-36.8245465128171
30
0
41
1
10
-13.1324691999273
20
-36.8422802842674
30
0
41
1
10
-13.0277242446182
20
-36.8514633165786
30
0
41
1
10
-12.7158020909691
20
-36.8799092160374
30
0
41
1
10
-12.5109326313958
20
-36.9000690563235
30
0
41
1
10
-12.1073058848507
20
-36.9425045735183
30
0
41
1
10
-11.9085482732514
20
-36.9647806292254
30
0
41
1
10
-11.6150846181188
20
-36.9995676956445
30
0
41
1
10
-11.5180434948078
20
-37.0113921032897
30
0
41
1
10
-11.3736757629307
20
-37.0294435408716
30
0
41
1
10
-11.3257522711256
20
-37.0355131453339
30
0
41
1
10
-11.2303086104432
20
-37.047752391391
30
0
41
1
10
-11.1827930088945
20
-37.0539217032554
30
0
41
1
10
-10.947483899805
20
-37.0848401707009
30
0
41
1
10
-10.5834454180355
20
-37.1350219327149
30
0
41
1
10
-10.2439178705042
20
-37.1857536590411
30
0
41
1
10
-9.91680582136412
20
-37.2363058560044
30
0
41
1
10
-9.75945564033582
20
-37.261493092313
30
0
41
1
10
-9.53315123438242
20
-37.2987717627024
30
0
41
1
10
-9.45933976558801
20
-37.3111139183836
30
0
41
1
10
-9.35114147531012
20
-37.3294504599706
30
0
41
1
10
-9.31544598229635
20
-37.3355417155964
30
0
41
1
10
-9.24528651889085
20
-37.3475917734859
30
0
41
1
10
-9.21079474785212
20
-37.3535551599553
30
0
41
1
10
-9.04126021025348
20
-37.3830467128493
30
0
41
1
10
-8.91496798581709
20
-37.4055997258587
30
0
41
1
10
-8.68102049697195
20
-37.4481731269532
30
0
41
1
10
-8.57336408604833
20
-37.4681944204207
30
0
41
1
10
-8.37723597964056
20
-37.5052140736219
30
0
41
1
10
-8.28875977321565
20
-37.5222136809379
30
0
41
1
10
-8.19090987217122
20
-37.5412230011621
30
0
41
1
10
-8.17197900693107
20
-37.5449126248416
30
0
41
1
10
-8.13542173547235
20
-37.5520576280708
30
0
41
1
10
-8.0828343665674
20
-37.5623670168447
30
0
41
1
10
-8.03692789472021
20
-37.5714414484335
30
0
41
1
10
-7.95392293194833
20
-37.5879127414501
30
0
41
1
10
-7.91030798153004
20
-37.5966581461133
30
0
41
1
10
-7.84653768425606
20
-37.6094845934289
30
0
41
1
10
-7.82638053715208
20
-37.6135660976588
30
0
41
1
10
-7.81631631923312
20
-37.6156028036189
30
0
41
1
10
-7.81506199719574
20
-37.6158567492838
30
0
41
1
10
-7.81441442185532
20
-37.6159878497007
30
0
41
1
10
-7.81433787107959
20
-37.6160033460269
30
0
41
1
10
-7.8143467842597
20
-37.6160015406116
30
0
0
SPLINE
5
161
100
AcDbEntity
8
SK1
62
256
6
ByLayer
370
18
48
1
60
0
100
AcDbSpline
70
4
71
3
72
54
73
50
40
0
40
0
40
0
40
0
40
0.0312500000000041
40
0.0312500000000041
40
0.0625000000000082
40
0.0625000000000082
40
0.125000000000015
40
0.125000000000015
40
0.250000000000031
40
0.250000000000031
40
0.375000000000046
40
0.375000000000046
40
0.406250000000048
40
0.406250000000048
40
0.43750000000005
40
0.500000000000052
40
0.500000000000052
40
0.62500000000006
40
0.62500000000006
40
0.687500000000063
40
0.687500000000063
40
0.750000000000066
40
0.750000000000066
40
0.781250000000067
40
0.781250000000067
40
0.812500000000069
40
0.812500000000069
40
0.843750000000071
40
0.843750000000071
40
0.875000000000073
40
0.875000000000073
40
0.906250000000075
40
0.906250000000075
40
0.914062500000072
40
0.914062500000072
40
0.92187500000007
40
0.92187500000007
40
0.937500000000061
40
0.937500000000061
40
0.945312500000054
40
0.945312500000054
40
0.953125000000048
40
0.953125000000048
40
0.968750000000034
40
0.976562500000026
40
0.976562500000026
40
0.984375000000017
40
0.984375000000017
40
1
40
1
40
1
40
1
41
1
10
-39.8
20
33.7318671810039
30
0
41
1
10
-39.7999999999999
20
33.7145710701311
30
0
41
1
10
-39.8008000946281
20
33.6971565007765
30
0
41
1
10
-39.8039168623024
20
33.6621962213471
30
0
41
1
10
-39.8062335132834
20
33.6446342134735
30
0
41
1
10
-39.8153484367684
20
33.5917053852178
30
0
41
1
10
-39.8243080567448
20
33.5560957915866
30
0
41
1
10
-39.8591124485095
20
33.4483170327042
30
0
41
1
10
-39.8928472522366
20
33.3751982231632
30
0
41
1
10
-39.9786760357966
20
33.2265304775473
30
0
41
1
10
-40.0307804205494
20
33.1509812446763
30
0
41
1
10
-40.1063660693582
20
33.0550850028677
30
0
41
1
10
-40.1219937947637
20
33.035852199307
30
0
41
1
10
-40.1541498540921
20
32.9973928162119
30
0
41
1
10
-40.2037751165396
20
32.9396636457769
30
0
41
1
10
-40.2574425199022
20
32.8818159360059
30
0
41
1
10
-40.3699446706122
20
32.7659816807454
30
0
41
1
10
-40.4517476783099
20
32.688560134193
30
0
41
1
10
-40.5849329745245
20
32.572369990688
30
0
41
1
10
-40.6310900751579
20
32.5336324584858
30
0
41
1
10
-40.7273802545145
20
32.456248481954
30
0
41
1
10
-40.7774939797117
20
32.4175986160054
30
0
41
1
10
-40.8564695396308
20
32.3598547383015
30
0
41
1
10
-40.88345848061
20
32.3406304247495
30
0
41
1
10
-40.9388920650189
20
32.3023874881928
30
0
41
1
10
-40.9672925131055
20
32.2833959934678
30
0
41
1
10
-41.0258361258168
20
32.245788614309
30
0
41
1
10
-41.0559730128129
20
32.2271708721062
30
0
41
1
10
-41.1186305548424
20
32.1905053329399
30
0
41
1
10
-41.1510308179743
20
32.1725200428503
30
0
41
1
10
-41.2188385127876
20
32.1377315395356
30
0
41
1
10
-41.2542332468957
20
32.1209048401273
30
0
41
1
10
-41.3015842990544
20
32.1011135781885
30
0
41
1
10
-41.3112139355684
20
32.097219144498
30
0
41
1
10
-41.3308439340923
20
32.0895800189203
30
0
41
1
10
-41.3408651858731
20
32.0858280947414
30
0
41
1
10
-41.3713588597964
20
32.0749170218883
30
0
41
1
10
-41.3922831904341
20
32.0680860715368
30
0
41
1
10
-41.4248486397641
20
32.0587260689411
30
0
41
1
10
-41.4359013558928
20
32.0557546283677
30
0
41
1
10
-41.4584661089438
20
32.0501584370334
30
0
41
1
10
-41.4700314002366
20
32.0475237786973
30
0
41
1
10
-41.5049753605481
20
32.0403392906634
30
0
41
1
10
-41.5405101097732
20
32.0345573260281
30
0
41
1
10
-41.5770691708598
20
32.031213916461
30
0
41
1
10
-41.6016844245104
20
32.0295626507329
30
0
41
1
10
-41.6141876951168
20
32.0290255903479
30
0
41
1
10
-41.6514384574835
20
32.0283362059759
30
0
41
1
10
-41.6758884507612
20
32.0290885535356
30
0
41
1
10
-41.7000000000014
20
32.0309069691634
30
0
0
SPLINE
5
162
100
AcDbEntity
8
SK1
62
256
6
ByLayer
370
18
48
1
60
0
100
AcDbSpline
70
4
71
3
72
20
73
16
40
0
40
0
40
0
40
0
40
0.0625000000000004
40
0.0625000000000004
40
0.125000000000001
40
0.125000000000001
40
0.250000000000002
40
0.250000000000002
40
0.375000000000002
40
0.375000000000002
40
0.500000000000003
40
0.500000000000003
40
0.750000000000001
40
0.750000000000001
40
1
40
1
40
1
40
1
41
1
10
-41.7
20
32.0309069691676
30
0
41
1
10
-41.829230390991
20
32.0406531103302
30
0
41
1
10
-41.9587402233825
20
32.0495880294297
30
0
41
1
10
-42.2181916956603
20
32.0662053286714
30
0
41
1
10
-42.3481341175978
20
32.0738854324166
30
0
41
1
10
-42.7384837114113
20
32.0954119198531
30
0
41
1
10
-42.9994067134446
20
32.1077633942848
30
0
41
1
10
-43.5222155127956
20
32.1296814408185
30
0
41
1
10
-43.7841057327499
20
32.1392351393123
30
0
41
1
10
-44.308615647094
20
32.1562368514662
30
0
41
1
10
-44.5712371455354
20
32.1636796137577
30
0
41
1
10
-45.3599684635693
20
32.1835113396153
30
0
41
1
10
-45.8869332483517
20
32.1934382600973
30
0
41
1
10
-46.9424227182698
20
32.2088227894139
30
0
41
1
10
-47.4709561166098
20
32.2142550344561
30
0
41
1
10
-48.0000748840305
20
32.2180191381098
30
0
0
SPLINE
5
163
100
AcDbEntity
8
SK1
62
256
6
ByLayer
370
18
48
1
60
0
100
AcDbSpline
70
4
71
3
72
48
73
44
40
0
40
0
40
0
40
0
40
0.0078124999999981
40
0.0078124999999981
40
0.0156249999999961
40
0.0156249999999961
40
0.0234374999999942
40
0.0234374999999942
40
0.0273437499999936
40
0.0273437499999936
40
0.031249999999993
40
0.031249999999993
40
0.046874999999993
40
0.046874999999993
40
0.062499999999993
40
0.062499999999993
40
0.078124999999993
40
0.078124999999993
40
0.0937499999999929
40
0.0937499999999929
40
0.124999999999993
40
0.124999999999993
40
0.156249999999994
40
0.156249999999994
40
0.187499999999994
40
0.187499999999994
40
0.249999999999995
40
0.249999999999995
40
0.312499999999995
40
0.312499999999995
40
0.374999999999995
40
0.374999999999995
40
0.437499999999996
40
0.437499999999996
40
0.499999999999996
40
0.499999999999996
40
0.624999999999997
40
0.624999999999997
40
0.749999999999998
40
0.749999999999998
40
0.874999999999999
40
0.874999999999999
40
1
40
1
40
1
40
1
41
1
10
-40.2165582668443
20
-31.6931118380393
30
0
41
1
10
-40.2255137164716
20
-31.7021461407527
30
0
41
1
10
-40.2360232406997
20
-31.7105499948239
30
0
41
1
10
-40.2593029922575
20
-31.7264406150996
30
0
41
1
10
-40.2720804381839
20
-31.7339244528563
30
0
41
1
10
-40.2993863508487
20
-31.748181823338
30
0
41
1
10
-40.3139180690734
20
-31.7549540369857
30
0
41
1
10
-40.3367709283965
20
-31.7646842970226
30
0
41
1
10
-40.3445719684938
20
-31.7678578826858
30
0
41
1
10
-40.3603555141487
20
-31.774023302001
30
0
41
1
10
-40.3683549864994
20
-31.7770226126563
30
0
41
1
10
-40.4088261315399
20
-31.7916522904097
30
0
41
1
10
-40.442688829472
20
-31.8022055162375
30
0
41
1
10
-40.5123481174605
20
-31.8218145906865
30
0
41
1
10
-40.5481587326135
20
-31.8308595774498
30
0
41
1
10
-40.6211874460023
20
-31.847859873842
30
0
41
1
10
-40.6584106043897
20
-31.8558112645676
30
0
41
1
10
-40.733938097346
20
-31.8708770948827
30
0
41
1
10
-40.7722695231473
20
-31.8779926045775
30
0
41
1
10
-40.887745247722
20
-31.8982034744093
30
0
41
1
10
-40.9656558508792
20
-31.9102431097733
30
0
41
1
10
-41.122693352439
20
-31.9324406198842
30
0
41
1
10
-41.201828649781
20
-31.9425854896039
30
0
41
1
10
-41.3609886301099
20
-31.9614996804061
30
0
41
1
10
-41.441016384621
20
-31.970264245473
30
0
41
1
10
-41.6821282190401
20
-31.9949676954699
30
0
41
1
10
-41.8442249466184
20
-32.0093409919152
30
0
41
1
10
-42.1701904312221
20
-32.0353502797714
30
0
41
1
10
-42.3340718337277
20
-32.0469666903167
30
0
41
1
10
-42.6631293631879
20
-32.0682013501317
30
0
41
1
10
-42.8283060210513
20
-32.077811197184
30
0
41
1
10
-43.1589860239046
20
-32.0954601755707
30
0
41
1
10
-43.3245900355161
20
-32.1035027081377
30
0
41
1
10
-43.6562168288385
20
-32.1183489323679
30
0
41
1
10
-43.8222401780399
20
-32.125150935563
30
0
41
1
10
-44.3208262630885
20
-32.1440322938556
30
0
41
1
10
-44.6538993113538
20
-32.1546040321594
30
0
41
1
10
-45.3210244711679
20
-32.1728631929403
30
0
41
1
10
-45.6550802301058
20
-32.1805397630586
30
0
41
1
10
-46.3239463383712
20
-32.1936765541861
30
0
41
1
10
-46.65875825511
20
-32.1991321114947
30
0
41
1
10
-47.3289877270329
20
-32.2082701299962
30
0
41
1
10
-47.6644060538691
20
-32.2119502951727
30
0
41
1
10
-48.0000748840304
20
-32.2148995999825
30
0
0
SPLINE
5
164
100
AcDbEntity
8
SK1
62
256
6
ByLayer
370
18
48
1
60
0
100
AcDbSpline
70
4
71
3
72
34
73
30
40
0
40
0
40
0
40
0
40
0.124999999999998
40
0.124999999999998
40
0.187499999999998
40
0.187499999999998
40
0.249999999999999
40
0.249999999999999
40
0.375000000000002
40
0.375000000000002
40
0.500000000000004
40
0.500000000000004
40
0.625000000000007
40
0.625000000000007
40
0.687500000000006
40
0.687500000000006
40
0.718750000000004
40
0.718750000000004
40
0.750000000000002
40
0.750000000000002
40
0.8125
40
0.8125
40
0.874999999999999
40
0.874999999999999
40
0.906249999999998
40
0.906249999999998
40
0.937499999999997
40
0.937499999999997
40
1
40
1
40
1
40
1
41
1
10
-36.7
20
-30.4013895190029
30
0
41
1
10
-36.8711858974658
20
-30.4399010578022
30
0
41
1
10
-37.0413761276148
20
-30.4795084073964
30
0
41
1
10
-37.2948644625377
20
-30.5408971840479
30
0
41
1
10
-37.3790601632171
20
-30.5616907356709
30
0
41
1
10
-37.5467865215208
20
-30.6040097715081
30
0
41
1
10
-37.6303668864447
20
-30.6255487370905
30
0
41
1
10
-37.8793229252196
20
-30.6912089022521
30
0
41
1
10
-38.0430828929571
20
-30.7364033503291
30
0
41
1
10
-38.3651311639745
20
-30.8303093104943
30
0
41
1
10
-38.5234281179984
20
-30.8790152620771
30
0
41
1
10
-38.8330297808163
20
-30.9809216246979
30
0
41
1
10
-38.9843528118258
20
-31.0341102586239
30
0
41
1
10
-39.204310734814
20
-31.1184097665709
30
0
41
1
10
-39.2764508160517
20
-31.1472675830275
30
0
41
1
10
-39.3825571315545
20
-31.1919065875664
30
0
41
1
10
-39.4175205711072
20
-31.2069903261859
30
0
41
1
10
-39.4864156420776
20
-31.2375322579715
30
0
41
1
10
-39.5203702139022
20
-31.2530000112534
30
0
41
1
10
-39.6206319685333
20
-31.30004276183
30
0
41
1
10
-39.6853447054721
20
-31.332254249934
30
0
41
1
10
-39.8097036218329
20
-31.3986997578315
30
0
41
1
10
-39.8693539749137
20
-31.4329321115316
30
0
41
1
10
-39.9542099503249
20
-31.4861247334101
30
0
41
1
10
-39.9817772423316
20
-31.5042039425694
30
0
41
1
10
-40.0347710714735
20
-31.5407523486529
30
0
41
1
10
-40.0602303319982
20
-31.5592384905159
30
0
41
1
10
-40.1332638811575
20
-31.6153799690724
30
0
41
1
10
-40.1775061488118
20
-31.653715864572
30
0
41
1
10
-40.2165582668442
20
-31.6931118380393
30
0
0
SPLINE
5
165
100
AcDbEntity
8
SK1
62
256
6
ByLayer
370
18
48
1
60
0
100
AcDbSpline
70
4
71
3
72
48
73
44
40
0
40
0
40
0
40
0
40
0.015625000000002
40
0.015625000000002
40
0.0234375000000026
40
0.0234375000000026
40
0.0312500000000032
40
0.0312500000000032
40
0.0468750000000044
40
0.0468750000000044
40
0.0625000000000056
40
0.0625000000000056
40
0.0781250000000068
40
0.0781250000000068
40
0.093750000000008
40
0.093750000000008
40
0.109375000000009
40
0.109375000000009
40
0.12500000000001
40
0.12500000000001
40
0.15625000000001
40
0.15625000000001
40
0.187500000000011
40
0.187500000000011
40
0.218750000000011
40
0.218750000000011
40
0.250000000000011
40
0.250000000000011
40
0.312500000000008
40
0.312500000000008
40
0.375000000000006
40
0.375000000000006
40
0.5
40
0.5
40
0.624999999999993
40
0.624999999999993
40
0.687499999999994
40
0.687499999999994
40
0.749999999999995
40
0.749999999999995
40
0.874999999999998
40
0.874999999999998
40
1
40
1
40
1
40
1
41
1
10
-36.7
20
-30.4013895190029
30
0
41
1
10
-36.68470649278
20
-30.3979489523126
30
0
41
1
10
-36.6689495589212
20
-30.3953985331097
30
0
41
1
10
-36.6444816853446
20
-30.3931762498145
30
0
41
1
10
-36.636186502305
20
-30.3927036248452
30
0
41
1
10
-36.6192872519424
20
-30.3923536543504
30
0
41
1
10
-36.6107241786976
20
-30.3924830339094
30
0
41
1
10
-36.585378583222
20
-30.3937744270978
30
0
41
1
10
-36.56862444355
20
-30.3958409902068
30
0
41
1
10
-36.5357346965959
20
-30.4021766831074
30
0
41
1
10
-36.5201531284728
20
-30.4063205536969
30
0
41
1
10
-36.4903068788372
20
-30.4160929712472
30
0
41
1
10
-36.4759522241272
20
-30.4217745812059
30
0
41
1
10
-36.4490415344061
20
-30.4339651580951
30
0
41
1
10
-36.4363973306272
20
-30.4404925556564
30
0
41
1
10
-36.4123113260057
20
-30.4541828550024
30
0
41
1
10
-36.4008730260034
20
-30.461347645864
30
0
41
1
10
-36.378944237093
20
-30.4761734546111
30
0
41
1
10
-36.3684967164128
20
-30.4838101332512
30
0
41
1
10
-36.3387029639329
20
-30.5069793914759
30
0
41
1
10
-36.3207126617917
20
-30.5228777778244
30
0
41
1
10
-36.2871772481909
20
-30.5552382648566
30
0
41
1
10
-36.2716508048235
20
-30.5717052045591
30
0
41
1
10
-36.2424002313828
20
-30.6050328163631
30
0
41
1
10
-36.2286825801915
20
-30.621895172107
30
0
41
1
10
-36.2026538935219
20
-30.6559082326689
30
0
41
1
10
-36.1903507192282
20
-30.6730572918206
30
0
41
1
10
-36.1554101577732
20
-30.724427813558
30
0
41
1
10
-36.1345924600216
20
-30.7587242803602
30
0
41
1
10
-36.0963204719529
20
-30.8272836097354
30
0
41
1
10
-36.0788871273222
20
-30.8615481629805
30
0
41
1
10
-36.0304065848838
20
-30.9641868709349
30
0
41
1
10
-36.003117577636
20
-31.0324009669379
30
0
41
1
10
-35.9551394416824
20
-31.1681013508454
30
0
41
1
10
-35.9345079681282
20
-31.235592382841
30
0
41
1
10
-35.9073321932439
20
-31.3361724400529
30
0
41
1
10
-35.898907403912
20
-31.3696055863708
30
0
41
1
10
-35.8832202583695
20
-31.436142866252
30
0
41
1
10
-35.8759565129337
20
-31.4692509818902
30
0
41
1
10
-35.8557366578801
20
-31.5680927177334
30
0
41
1
10
-35.8443429695231
20
-31.6333437376051
30
0
41
1
10
-35.8251190973012
20
-31.7625531739675
30
0
41
1
10
-35.8172926438243
20
-31.8265116018428
30
0
41
1
10
-35.8110727855048
20
-31.8898206710672
30
0
0
SPLINE
5
166
100
AcDbEntity
8
SK1
62
256
6
ByLayer
370
18
48
1
60
0
100
AcDbSpline
70
4
71
3
72
35
73
31
40
0
40
0
40
0
40
0
40
0.0312499999999978
40
0.0312499999999978
40
0.0624999999999955
40
0.0624999999999955
40
0.124999999999996
40
0.124999999999996
40
0.187499999999996
40
0.249999999999996
40
0.249999999999996
40
0.312499999999996
40
0.312499999999996
40
0.374999999999996
40
0.374999999999996
40
0.437499999999997
40
0.437499999999997
40
0.499999999999998
40
0.499999999999998
40
0.624999999999997
40
0.624999999999997
40
0.749999999999997
40
0.749999999999997
40
0.874999999999996
40
0.874999999999996
40
0.937499999999997
40
0.937499999999997
40
0.968749999999998
40
0.968749999999998
40
1
40
1
40
1
40
1
41
1
10
-35.8110727855047
20
-31.8898206710672
30
0
41
1
10
-35.8087298228675
20
-31.9136686071737
30
0
41
1
10
-35.8050508230863
20
-31.9375984974946
30
0
41
1
10
-35.7952802677077
20
-31.9850072120095
30
0
41
1
10
-35.7891941023361
20
-32.0085225445775
30
0
41
1
10
-35.7677724345513
20
-32.0785467640677
30
0
41
1
10
-35.7492796314844
20
-32.1245349687553
30
0
41
1
10
-35.7063448295786
20
-32.2153592220187
30
0
41
1
10
-35.6574837452937
20
-32.3050330287367
30
0
41
1
10
-35.6011189614964
20
-32.3927956192941
30
0
41
1
10
-35.5427113205104
20
-32.4797474075563
30
0
41
1
10
-35.5124828131835
20
-32.5228175260632
30
0
41
1
10
-35.4512734171609
20
-32.6082491449361
30
0
41
1
10
-35.4202890471678
20
-32.6506102973464
30
0
41
1
10
-35.3585507750323
20
-32.7346953797196
30
0
41
1
10
-35.3277941195328
20
-32.7764190505571
30
0
41
1
10
-35.2672824740688
20
-32.8592790261411
30
0
41
1
10
-35.2375212676654
20
-32.90042148311
30
0
41
1
10
-35.1507682862351
20
-33.0229016813633
30
0
41
1
10
-35.0963122006996
20
-33.1033237950097
30
0
41
1
10
-34.9982266523962
20
-33.2617797655023
30
0
41
1
10
-34.9545684127149
20
-33.3398124179374
30
0
41
1
10
-34.8815423282892
20
-33.4934950949019
30
0
41
1
10
-34.8521479202447
20
-33.5691444802325
30
0
41
1
10
-34.8215668767947
20
-33.6808068697312
30
0
41
1
10
-34.8136291543811
20
-33.7177254672804
30
0
41
1
10
-34.8055331814596
20
-33.7726452713273
30
0
41
1
10
-34.8034705654413
20
-33.7908897335453
30
0
41
1
10
-34.8007057879732
20
-33.827059649251
30
0
41
1
10
-34.7999999999999
20
-33.8450028234008
30
0
41
1
10
-34.7999999999999
20
-33.8628027232345
30
0
0
LINE
5
84
100
AcDbEntity
8
80
62
256
6
ByLayer
370
18
48
1
60
0
100
AcDbLine
10
0
20
0
30
0
11
-5
21
0
31
0
39
0
210
0
220
0
230
1
0
LINE
5
85
100
AcDbEntity
8
4
62
256
6
ByLayer
370
18
48
0.05
60
0
100
AcDbLine
10
0
20
0
30
0
11
100
21
0
31
0
39
0
210
0
220
0
230
1
0
LINE
5
87
100
AcDbEntity
8
81
62
256
6
ByLayer
370
18
48
1
60
0
100
AcDbLine
10
100
20
0
30
0
11
105
21
0
31
0
39
0
210
0
220
0
230
1
0
LINE
5
88
100
AcDbEntity
8
1
62
256
6
ByLayer
370
13
48
1
60
0
100
AcDbLine
10
33.124598
20
-22.3
30
0
11
33.124598
21
22.3
31
0
39
0
210
0
220
0
230
1
0
LINE
5
8A
100
AcDbEntity
8
1
62
256
6
ByLayer
370
18
48
1
60
0
100
AcDbLine
10
98
20
-22.5
30
0
11
98
21
22.5
31
0
39
0
210
0
220
0
230
1
0
LINE
5
8B
100
AcDbEntity
8
1
62
256
6
ByLayer
370
18
48
1
60
0
100
AcDbLine
10
100
20
20.5
30
0
11
100
21
-20.5
31
0
39
0
210
0
220
0
230
1
0
LINE
5
8C
100
AcDbEntity
8
1
62
256
6
ByLayer
370
18
48
1
60
0
100
AcDbLine
10
33.95
20
22.5
30
0
11
33.95
21
-22.5
31
0
39
0
210
0
220
0
230
1
0
LINE
5
8D
100
AcDbEntity
8
1
62
256
6
ByLayer
370
13
48
1
60
0
100
AcDbLine
10
33.27989
20
-22.320445
30
0
11
33.27989
21
22.320445
31
0
39
0
210
0
220
0
230
1
0
LINE
5
8E
100
AcDbEntity
8
1
62
256
6
ByLayer
370
13
48
1
60
0
100
AcDbLine
10
31.95
20
-22.3
30
0
11
31.95
21
22.3
31
0
39
0
210
0
220
0
230
1
0
LINE
5
8F
100
AcDbEntity
8
1
62
256
6
ByLayer
370
18
48
1
60
0
100
AcDbLine
10
28.25
20
48.949778
30
0
11
23.241822
21
48.949778
31
0
39
0
210
0
220
0
230
1
0
LINE
5
90
100
AcDbEntity
8
1
62
256
6
ByLayer
370
18
48
1
60
0
100
AcDbLine
10
18.075
20
46.619334
30
0
11
18.075
21
35.929935
31
0
39
0
210
0
220
0
230
1
0
LINE
5
91
100
AcDbEntity
8
1
62
256
6
ByLayer
370
18
48
1
60
0
100
AcDbLine
10
21.525
20
44.869591
30
0
11
18.475
21
44.869591
31
0
39
0
210
0
220
0
230
1
0
LINE
5
92
100
AcDbEntity
8
1
62
256
6
ByLayer
370
13
48
1
60
0
100
AcDbLine
10
21.525
20
44.869591
30
0
11
21.525
21
33.628531
31
0
39
0
210
0
220
0
230
1
0
LINE
5
93
100
AcDbEntity
8
1
62
256
6
ByLayer
370
18
48
1
60
0
100
AcDbLine
10
28.95
20
31.35
30
0
11
28.95
21
38.002865
31
0
39
0
210
0
220
0
230
1
0
LINE
5
94
100
AcDbEntity
8
1
62
256
6
ByLayer
370
18
48
1
60
0
100
AcDbLine
10
18.075
20
34.173354
30
0
11
18.075
21
35.929935
31
0
39
0
210
0
220
0
230
1
0
LINE
5
95
100
AcDbEntity
8
1
62
256
6
ByLayer
370
18
48
1
60
0
100
AcDbLine
10
28.25
20
38.906024
30
0
11
23.241822
21
38.906024
31
0
39
0
210
0
220
0
230
1
0
LINE
5
96
100
AcDbEntity
8
1
62
256
6
ByLayer
370
18
48
1
60
0
100
AcDbLine
10
21.925
20
35.929935
30
0
11
21.925
21
34.173354
31
0
39
0
210
0
220
0
230
1
0
LINE
5
97
100
AcDbEntity
8
1
62
256
6
ByLayer
370
18
48
1
60
0
100
AcDbLine
10
21.525
20
33.628531
30
0
11
18.475
21
33.628531
31
0
39
0
210
0
220
0
230
1
0
LINE
5
98
100
AcDbEntity
8
1
62
256
6
ByLayer
370
13
48
1
60
0
100
AcDbLine
10
18.475
20
44.869591
30
0
11
18.475
21
33.628531
31
0
39
0
210
0
220
0
230
1
0
LINE
5
99
100
AcDbEntity
8
1
62
256
6
ByLayer
370
18
48
1
60
0
100
AcDbLine
10
23.241822
20
48.949778
30
0
11
23.241822
21
38.906024
31
0
39
0
210
0
220
0
230
1
0
LINE
5
9A
100
AcDbEntity
8
1
62
256
6
ByLayer
370
18
48
1
60
0
100
AcDbLine
10
21.925
20
46.619334
30
0
11
21.925
21
35.929935
31
0
39
0
210
0
220
0
230
1
0
LINE
5
9B
100
AcDbEntity
8
1
62
256
6
ByLayer
370
18
48
1
60
0
100
AcDbLine
10
28.95
20
48.235047
30
0
11
28.95
21
38.002865
31
0
39
0
210
0
220
0
230
1
0
LINE
5
9C
100
AcDbEntity
8
1
62
256
6
ByLayer
370
18
48
1
60
0
100
AcDbLine
10
28.25
20
38.906024
30
0
11
28.25
21
48.949778
31
0
39
0
210
0
220
0
230
1
0
LINE
5
9D
100
AcDbEntity
8
1
62
256
6
ByLayer
370
13
48
1
60
0
100
AcDbLine
10
14.657967
20
38.906024
30
0
11
14.657967
21
31.35
31
0
39
0
210
0
220
0
230
1
0
LINE
5
9E
100
AcDbEntity
8
1
62
256
6
ByLayer
370
18
48
1
60
0
100
AcDbLine
10
21.525
20
-44.634495
30
0
11
18.475
21
-44.634495
31
0
39
0
210
0
220
0
230
1
0
LINE
5
9F
100
AcDbEntity
8
1
62
256
6
ByLayer
370
18
48
1
60
0
100
AcDbLine
10
21.525
20
31.35
30
0
11
18.475
21
31.35
31
0
39
0
210
0
220
0
230
1
0
LINE
5
A0
100
AcDbEntity
8
1
62
256
6
ByLayer
370
13
48
1
60
0
100
AcDbLine
10
18.475
20
-8.827456
30
0
11
18.475
21
-44.634495
31
0
39
0
210
0
220
0
230
1
0
LINE
5
A1
100
AcDbEntity
8
1
62
256
6
ByLayer
370
13
48
1
60
0
100
AcDbLine
10
18.475
20
7.13671
30
0
11
18.475
21
-7.13671
31
0
39
0
210
0
220
0
230
1
0
LINE
5
A2
100
AcDbEntity
8
1
62
256
6
ByLayer
370
13
48
1
60
0
100
AcDbLine
10
18.475
20
31.35
30
0
11
18.475
21
8.827456
31
0
39
0
210
0
220
0
230
1
0
LINE
5
A3
100
AcDbEntity
8
1
62
256
6
ByLayer
370
13
48
1
60
0
100
AcDbLine
10
21.525
20
31.35
30
0
11
21.525
21
8.827456
31
0
39
0
210
0
220
0
230
1
0
LINE
5
A4
100
AcDbEntity
8
1
62
256
6
ByLayer
370
13
48
1
60
0
100
AcDbLine
10
21.525
20
7.13671
30
0
11
21.525
21
-7.13671
31
0
39
0
210
0
220
0
230
1
0
LINE
5
A5
100
AcDbEntity
8
1
62
256
6
ByLayer
370
13
48
1
60
0
100
AcDbLine
10
21.525
20
-8.827456
30
0
11
21.525
21
-44.634495
31
0
39
0
210
0
220
0
230
1
0
LINE
5
A6
100
AcDbEntity
8
1
62
256
6
ByLayer
370
18
48
1
60
0
100
AcDbLine
10
0
20
-49.265
30
0
11
0
21
49.265
31
0
39
0
210
0
220
0
230
1
0
LINE
5
A7
100
AcDbEntity
8
1
62
256
6
ByLayer
370
18
48
1
60
0
100
AcDbLine
10
28.25
20
-48.73437
30
0
11
23.241822
21
-48.73437
31
0
39
0
210
0
220
0
230
1
0
LINE
5
A8
100
AcDbEntity
8
1
62
256
6
ByLayer
370
18
48
1
60
0
100
AcDbLine
10
28.25
20
31.35
30
0
11
23.241822
21
31.35
31
0
39
0
210
0
220
0
230
1
0
LINE
5
A9
100
AcDbEntity
8
1
62
256
6
ByLayer
370
18
48
1
60
0
100
AcDbLine
10
0.7
20
-49.965
30
0
11
0.7
21
49.965
31
0
39
0
210
0
220
0
230
1
0
LINE
5
AA
100
AcDbEntity
8
1
62
256
6
ByLayer
370
18
48
1
60
0
100
AcDbLine
10
4.95
20
-49.954567
30
0
11
4.95
21
-49.965
31
0
39
0
210
0
220
0
230
1
0
LINE
5
AB
100
AcDbEntity
8
1
62
256
6
ByLayer
370
18
48
1
60
0
100
AcDbLine
10
16.758178
20
-48.73437
30
0
11
14.95
21
-48.73437
31
0
39
0
210
0
220
0
230
1
0
LINE
5
AC
100
AcDbEntity
8
1
62
256
6
ByLayer
370
18
48
1
60
0
100
AcDbLine
10
16.758178
20
31.35
30
0
11
4.961216
21
31.35
31
0
39
0
210
0
220
0
230
1
0
LINE
5
AD
100
AcDbEntity
8
1
62
256
6
ByLayer
370
18
48
1
60
0
100
AcDbLine
10
16.758178
20
38.906024
30
0
11
14.657967
21
38.906024
31
0
39
0
210
0
220
0
230
1
0
LINE
5
AE
100
AcDbEntity
8
1
62
256
6
ByLayer
370
18
48
1
60
0
100
AcDbLine
10
16.758178
20
38.906024
30
0
11
16.758178
21
48.949778
31
0
39
0
210
0
220
0
230
1
0
LINE
5
AF
100
AcDbEntity
8
1
62
256
6
ByLayer
370
18
48
1
60
0
100
AcDbLine
10
16.758178
20
48.949778
30
0
11
14.95
21
48.949778
31
0
39
0
210
0
220
0
230
1
0
LINE
5
B0
100
AcDbEntity
8
1
62
256
6
ByLayer
370
18
48
1
60
0
100
AcDbLine
10
28.95
20
31.35
30
0
11
28.95
21
-48.016432
31
0
39
0
210
0
220
0
230
1
0
LINE
5
B1
100
AcDbEntity
8
1
62
256
6
ByLayer
370
18
48
1
60
0
100
AcDbLine
10
28.25
20
-48.73437
30
0
11
28.25
21
31.35
31
0
39
0
210
0
220
0
230
1
0
LINE
5
B2
100
AcDbEntity
8
1
62
256
6
ByLayer
370
18
48
1
60
0
100
AcDbLine
10
23.241822
20
31.35
30
0
11
23.241822
21
-48.73437
31
0
39
0
210
0
220
0
230
1
0
LINE
5
B3
100
AcDbEntity
8
1
62
256
6
ByLayer
370
18
48
1
60
0
100
AcDbLine
10
21.925
20
31.35
30
0
11
21.925
21
-46.393106
31
0
39
0
210
0
220
0
230
1
0
LINE
5
B4
100
AcDbEntity
8
1
62
256
6
ByLayer
370
18
48
1
60
0
100
AcDbLine
10
18.075
20
31.35
30
0
11
18.075
21
-46.393106
31
0
39
0
210
0
220
0
230
1
0
LINE
5
B5
100
AcDbEntity
8
1
62
256
6
ByLayer
370
18
48
1
60
0
100
AcDbLine
10
16.758178
20
-48.73437
30
0
11
16.758178
21
31.35
31
0
39
0
210
0
220
0
230
1
0
LINE
5
B6
100
AcDbEntity
8
SK1
62
256
6
ByLayer
370
13
48
1
60
0
100
AcDbLine
10
-41.7
20
32.225
30
0
11
-41.7
21
32.030907
31
0
39
0
210
0
220
0
230
1
0
LINE
5
B8
100
AcDbEntity
8
SK1
62
256
6
ByLayer
370
18
48
1
60
0
100
AcDbLine
10
-48.25
20
32.225
30
0
11
-48.25
21
32.221419
31
0
39
0
210
0
220
0
230
1
0
LINE
5
B9
100
AcDbEntity
8
SK1
62
256
6
ByLayer
370
18
48
1
60
0
100
AcDbLine
10
-48.20375
20
-32.225
30
0
11
-48.20375
21
-32.218166
31
0
39
0
210
0
220
0
230
1
0
LINE
5
BA
100
AcDbEntity
8
SK1
62
256
6
ByLayer
370
13
48
1
60
0
100
AcDbLine
10
-36.7
20
-31.693112
30
0
11
-36.7
21
-32.225
31
0
39
0
210
0
220
0
230
1
0
LINE
5
BB
100
AcDbEntity
8
SK1
62
256
6
ByLayer
370
13
48
1
60
0
100
AcDbLine
10
-49.589566
20
30.49955
30
0
11
-48.969717
21
31.05184
31
0
39
0
210
0
220
0
230
1
0
LINE
5
BC
100
AcDbEntity
8
SK1
62
256
6
ByLayer
370
13
48
1
60
0
100
AcDbLine
10
-49.680346
20
-30.377456
30
0
11
-48.810766
21
-31.152256
31
0
39
0
210
0
220
0
230
1
0
LINE
5
BD
100
AcDbEntity
8
SK1
62
256
6
ByLayer
370
13
48
1
60
0
100
AcDbLine
10
-36.7
20
-31.693112
30
0
11
-40.216558
21
-31.693112
31
0
39
0
210
0
220
0
230
1
0
LINE
5
BE
100
AcDbEntity
8
SK1
62
256
6
ByLayer
370
13
48
1
60
0
100
AcDbLine
10
-36.7
20
-31.693112
30
0
11
-36.7
21
-30.40139
31
0
39
0
210
0
220
0
230
1
0
LINE
5
BF
100
AcDbEntity
8
SK1
62
256
6
ByLayer
370
18
48
1
60
0
100
AcDbLine
10
-49.9
20
-30.461345
30
0
11
-49.9
21
30.486326
31
0
39
0
210
0
220
0
230
1
0
LINE
5
C0
100
AcDbEntity
8
SK1
62
256
6
ByLayer
370
18
48
1
60
0
100
AcDbLine
10
-2.066987
20
-37.632252
30
0
11
-2.066987
21
37.632252
31
0
39
0
210
0
220
0
230
1
0
LINE
5
C1
100
AcDbEntity
8
SK1
62
256
6
ByLayer
370
18
48
1
60
0
100
AcDbLine
10
-2.5
20
-37.882252
30
0
11
-2.5
21
37.882252
31
0
39
0
210
0
220
0
230
1
0
LINE
5
C2
100
AcDbEntity
8
SK1
62
256
6
ByLayer
370
13
48
1
60
0
100
AcDbLine
10
-48.000075
20
32.218019
30
0
11
-48.000075
21
-32.2149
31
0
39
0
210
0
220
0
230
1
0
LINE
5
C3
100
AcDbEntity
8
SK1
62
256
6
ByLayer
370
18
48
1
60
0
100
AcDbLine
10
-34.8
20
-33.862803
30
0
11
-34.8
21
-36.264015
31
0
39
0
210
0
220
0
230
1
0
LINE
5
C4
100
AcDbEntity
8
SK1
62
256
6
ByLayer
370
18
48
1
60
0
100
AcDbLine
10
-39.8
20
36.013514
30
0
11
-39.8
21
33.731867
31
0
39
0
210
0
220
0
230
1
0
LINE
5
C5
100
AcDbEntity
8
SK1
62
256
6
ByLayer
370
13
48
1
60
0
100
AcDbLine
10
-0.8
20
-37.632252
30
0
11
-0.8
21
37.632252
31
0
39
0
210
0
220
0
230
1
0
LINE
5
C6
100
AcDbEntity
8
1
62
256
6
ByLayer
370
18
48
1
60
0
100
AcDbLine
10
4.95
20
49.965
30
0
11
4.949139
21
49.965
31
0
39
0
210
0
220
0
230
1
0
LINE
5
C7
100
AcDbEntity
8
1
62
256
6
ByLayer
370
18
48
1
60
0
100
AcDbLine
10
4.949139
20
49.965
30
0
11
4.948785
21
49.965
31
0
39
0
210
0
220
0
230
1
0
LINE
5
C8
100
AcDbEntity
8
1
62
256
6
ByLayer
370
18
48
1
60
0
100
AcDbLine
10
33.124598
20
22.3
30
0
11
31.95
21
22.3
31
0
39
0
210
0
220
0
230
1
0
LINE
5
C9
100
AcDbEntity
8
1
62
256
6
ByLayer
370
18
48
1
60
0
100
AcDbLine
10
31.95
20
-22.3
30
0
11
33.124598
21
-22.3
31
0
39
0
210
0
220
0
230
1
0
LINE
5
CA
100
AcDbEntity
8
1
62
256
6
ByLayer
370
18
48
1
60
0
100
AcDbLine
10
33.95
20
-22.5
30
0
11
98
21
-22.5
31
0
39
0
210
0
220
0
230
1
0
LINE
5
CB
100
AcDbEntity
8
1
62
256
6
ByLayer
370
18
48
1
60
0
100
AcDbLine
10
98
20
22.5
30
0
11
33.95
21
22.5
31
0
39
0
210
0
220
0
230
1
0
LINE
5
CC
100
AcDbEntity
8
1
62
256
6
ByLayer
370
18
48
1
60
0
100
AcDbLine
10
100
20
20.5
30
0
11
98
21
22.5
31
0
39
0
210
0
220
0
230
1
0
LINE
5
CD
100
AcDbEntity
8
1
62
256
6
ByLayer
370
18
48
1
60
0
100
AcDbLine
10
98
20
-22.5
30
0
11
100
21
-20.5
31
0
39
0
210
0
220
0
230
1
0
LINE
5
CE
100
AcDbEntity
8
1
62
256
6
ByLayer
370
18
48
1
60
0
100
AcDbLine
10
33.27989
20
-22.320445
30
0
11
33.95
21
-22.5
31
0
39
0
210
0
220
0
230
1
0
LINE
5
CF
100
AcDbEntity
8
1
62
256
6
ByLayer
370
18
48
1
60
0
100
AcDbLine
10
33.95
20
22.5
30
0
11
33.27989
21
22.320445
31
0
39
0
210
0
220
0
230
1
0
LINE
5
D0
100
AcDbEntity
8
1
62
256
6
ByLayer
370
18
48
1
60
0
100
AcDbLine
10
0
20
-49.265
30
0
11
0.7
21
-49.965
31
0
39
0
210
0
220
0
230
1
0
LINE
5
D1
100
AcDbEntity
8
1
62
256
6
ByLayer
370
18
48
1
60
0
100
AcDbLine
10
0.7
20
49.965
30
0
11
0
21
49.265
31
0
39
0
210
0
220
0
230
1
0
LINE
5
D2
100
AcDbEntity
8
1
62
256
6
ByLayer
370
18
48
1
60
0
100
AcDbLine
10
4.948785
20
49.965
30
0
11
0.7
21
49.965
31
0
39
0
210
0
220
0
230
1
0
LINE
5
D3
100
AcDbEntity
8
1
62
256
6
ByLayer
370
18
48
1
60
0
100
AcDbLine
10
0.7
20
-49.965
30
0
11
4.95
21
-49.965
31
0
39
0
210
0
220
0
230
1
0
LINE
5
D4
100
AcDbEntity
8
SK1
62
256
6
ByLayer
370
18
48
1
60
0
100
AcDbLine
10
-41.7
20
32.225
30
0
11
-48.25
21
32.225
31
0
39
0
210
0
220
0
230
1
0
LINE
5
D5
100
AcDbEntity
8
SK1
62
256
6
ByLayer
370
18
48
1
60
0
100
AcDbLine
10
-48.25
20
32.225
30
0
11
-49.849203
21
30.625797
31
0
39
0
210
0
220
0
230
1
0
LINE
5
D6
100
AcDbEntity
8
SK1
62
256
6
ByLayer
370
18
48
1
60
0
100
AcDbLine
10
-49.866779
20
-30.561971
30
0
11
-48.20375
21
-32.225
31
0
39
0
210
0
220
0
230
1
0
LINE
5
D7
100
AcDbEntity
8
SK1
62
256
6
ByLayer
370
18
48
1
60
0
100
AcDbLine
10
-48.20375
20
-32.225
30
0
11
-36.7
21
-32.225
31
0
39
0
210
0
220
0
230
1
0
LINE
5
D8
100
AcDbEntity
8
SK1
62
256
6
ByLayer
370
18
48
1
60
0
100
AcDbLine
10
-0.8
20
37.632252
30
0
11
-2.066987
21
37.632252
31
0
39
0
210
0
220
0
230
1
0
LINE
5
D9
100
AcDbEntity
8
SK1
62
256
6
ByLayer
370
18
48
1
60
0
100
AcDbLine
10
-2.066987
20
-37.632252
30
0
11
-0.8
21
-37.632252
31
0
39
0
210
0
220
0
230
1
0
LINE
5
DA
100
AcDbEntity
8
SK1
62
256
6
ByLayer
370
18
48
1
60
0
100
AcDbLine
10
-2.066987
20
37.632252
30
0
11
-2.5
21
37.882252
31
0
39
0
210
0
220
0
230
1
0
LINE
5
DB
100
AcDbEntity
8
SK1
62
256
6
ByLayer
370
18
48
1
60
0
100
AcDbLine
10
-2.5
20
-37.882252
30
0
11
-2.066987
21
-37.632252
31
0
39
0
210
0
220
0
230
1
0
LINE
5
DC
100
AcDbEntity
8
SK1
62
256
6
ByLayer
370
18
48
1
60
0
100
AcDbLine
10
-34.8
20
-36.264015
30
0
11
-21.480951
21
-36.931302
31
0
39
0
210
0
220
0
230
1
0
LINE
5
DD
100
AcDbEntity
8
SK1
62
256
6
ByLayer
370
18
48
1
60
0
100
AcDbLine
10
-7.82303
20
-37.615567
30
0
11
-2.5
21
-37.882252
31
0
39
0
210
0
220
0
230
1
0
LINE
5
DE
100
AcDbEntity
8
SK1
62
256
6
ByLayer
370
18
48
1
60
0
100
AcDbLine
10
-2.5
20
37.882252
30
0
11
-7.833372
21
37.615048
31
0
39
0
210
0
220
0
230
1
0
LINE
5
DF
100
AcDbEntity
8
SK1
62
256
6
ByLayer
370
18
48
1
60
0
100
AcDbLine
10
-21.490774
20
36.93081
30
0
11
-39.8
21
36.013514
31
0
39
0
210
0
220
0
230
1
0
LINE
5
E0
100
AcDbEntity
8
SK2
62
256
6
ByLayer
370
18
48
1
60
0
100
AcDbLine
10
126.725
20
22.5
30
0
11
126.725
21
-22.5
31
0
39
0
210
0
220
0
230
1
0
LINE
5
E2
100
AcDbEntity
8
SK2
62
256
6
ByLayer
370
18
48
1
60
0
100
AcDbLine
10
99.5875
20
-22.5
30
0
11
128.725
21
-22.5
31
0
39
0
210
0
220
0
230
1
0
LINE
5
E3
100
AcDbEntity
8
SK2
62
256
6
ByLayer
370
18
48
1
60
0
100
AcDbLine
10
99.5875
20
22.5
30
0
11
128.725
21
22.5
31
0
39
0
210
0
220
0
230
1
0
LINE
5
E4
100
AcDbEntity
8
1
62
256
6
ByLayer
370
18
48
1
60
1
100
AcDbLine
10
126.725
20
-22.5
30
0
11
126.264216
21
-19.000002
31
0
39
0
210
0
220
0
230
1
0
LINE
5
E5
100
AcDbEntity
8
1
62
256
6
ByLayer
370
18
48
1
60
1
100
AcDbLine
10
126.264216
20
-19.000002
30
0
11
127.185784
21
-18.999998
31
0
39
0
210
0
220
0
230
1
0
LINE
5
E6
100
AcDbEntity
8
1
62
256
6
ByLayer
370
18
48
1
60
1
100
AcDbLine
10
127.185784
20
-18.999998
30
0
11
126.725
21
-22.5
31
0
39
0
210
0
220
0
230
1
0
LINE
5
E7
100
AcDbEntity
8
1
62
256
6
ByLayer
370
18
48
1
60
1
100
AcDbLine
10
126.725
20
22.5
30
0
11
127.185784
21
19.000002
31
0
39
0
210
0
220
0
230
1
0
LINE
5
E8
100
AcDbEntity
8
1
62
256
6
ByLayer
370
18
48
1
60
1
100
AcDbLine
10
127.185784
20
19.000002
30
0
11
126.264216
21
18.999998
31
0
39
0
210
0
220
0
230
1
0
LINE
5
E9
100
AcDbEntity
8
1
62
256
6
ByLayer
370
18
48
1
60
1
100
AcDbLine
10
126.264216
20
18.999998
30
0
11
126.725
21
22.5
31
0
39
0
210
0
220
0
230
1
0
LINE
5
EA
100
AcDbEntity
8
SK2
62
256
6
ByLayer
370
18
48
1
60
0
100
AcDbLine
10
-66.875
20
-49.965
30
0
11
-66.875
21
49.965
31
0
39
0
210
0
220
0
230
1
0
LINE
5
EB
100
AcDbEntity
8
SK2
62
256
6
ByLayer
370
18
48
1
60
0
100
AcDbLine
10
-0.8875
20
49.965
30
0
11
-68.875
21
49.965
31
0
39
0
210
0
220
0
230
1
0
LINE
5
EC
100
AcDbEntity
8
SK2
62
256
6
ByLayer
370
18
48
1
60
0
100
AcDbLine
10
-0.8875
20
-49.965
30
0
11
-68.875
21
-49.965
31
0
39
0
210
0
220
0
230
1
0
LINE
5
ED
100
AcDbEntity
8
1
62
256
6
ByLayer
370
18
48
1
60
1
100
AcDbLine
10
-66.875
20
49.965
30
0
11
-66.414216
21
46.465002
31
0
39
0
210
0
220
0
230
1
0
LINE
5
EE
100
AcDbEntity
8
1
62
256
6
ByLayer
370
18
48
1
60
1
100
AcDbLine
10
-66.414216
20
46.465002
30
0
11
-67.335784
21
46.464998
31
0
39
0
210
0
220
0
230
1
0
LINE
5
EF
100
AcDbEntity
8
1
62
256
6
ByLayer
370
18
48
1
60
1
100
AcDbLine
10
-67.335784
20
46.464998
30
0
11
-66.875
21
49.965
31
0
39
0
210
0
220
0
230
1
0
LINE
5
F0
100
AcDbEntity
8
1
62
256
6
ByLayer
370
18
48
1
60
1
100
AcDbLine
10
-66.875
20
-49.965
30
0
11
-67.335784
21
-46.465002
31
0
39
0
210
0
220
0
230
1
0
LINE
5
F1
100
AcDbEntity
8
1
62
256
6
ByLayer
370
18
48
1
60
1
100
AcDbLine
10
-67.335784
20
-46.465002
30
0
11
-66.414216
21
-46.464998
31
0
39
0
210
0
220
0
230
1
0
LINE
5
F2
100
AcDbEntity
8
1
62
256
6
ByLayer
370
18
48
1
60
1
100
AcDbLine
10
-66.414216
20
-46.464998
30
0
11
-66.875
21
-49.965
31
0
39
0
210
0
220
0
230
1
0
LINE
5
F3
100
AcDbEntity
8
2
62
256
6
ByLayer
370
18
48
1
60
0
100
AcDbLine
10
28.95
20
62.815
30
0
11
100
21
62.815
31
0
39
0
210
0
220
0
230
1
0
LINE
5
F4
100
AcDbEntity
8
2
62
256
6
ByLayer
370
18
48
1
60
0
100
AcDbLine
10
100
20
22.0875
30
0
11
100
21
64.815
31
0
39
0
210
0
220
0
230
1
0
LINE
5
F5
100
AcDbEntity
8
2
62
256
6
ByLayer
370
18
48
1
60
0
100
AcDbLine
10
28.95
20
49.822547
30
0
11
28.95
21
64.815
31
0
39
0
210
0
220
0
230
1
0
LINE
5
F6
100
AcDbEntity
8
1
62
256
6
ByLayer
370
18
48
1
60
1
100
AcDbLine
10
100
20
62.815
30
0
11
96.500002
21
62.354216
31
0
39
0
210
0
220
0
230
1
0
LINE
5
F7
100
AcDbEntity
8
1
62
256
6
ByLayer
370
18
48
1
60
1
100
AcDbLine
10
96.500002
20
62.354216
30
0
11
96.499998
21
63.275784
31
0
39
0
210
0
220
0
230
1
0
LINE
5
F8
100
AcDbEntity
8
1
62
256
6
ByLayer
370
18
48
1
60
1
100
AcDbLine
10
96.499998
20
63.275784
30
0
11
100
21
62.815
31
0
39
0
210
0
220
0
230
1
0
LINE
5
F9
100
AcDbEntity
8
1
62
256
6
ByLayer
370
18
48
1
60
1
100
AcDbLine
10
28.95
20
62.815
30
0
11
32.449998
21
63.275784
31
0
39
0
210
0
220
0
230
1
0
LINE
5
FA
100
AcDbEntity
8
1
62
256
6
ByLayer
370
18
48
1
60
1
100
AcDbLine
10
32.449998
20
63.275784
30
0
11
32.450002
21
62.354216
31
0
39
0
210
0
220
0
230
1
0
LINE
5
FB
100
AcDbEntity
8
1
62
256
6
ByLayer
370
18
48
1
60
1
100
AcDbLine
10
32.450002
20
62.354216
30
0
11
28.95
21
62.815
31
0
39
0
210
0
220
0
230
1
0
LINE
5
FC
100
AcDbEntity
8
SK2
62
256
6
ByLayer
370
18
48
1
60
0
100
AcDbLine
10
100
20
72.815
30
0
11
0
21
72.815
31
0
39
0
210
0
220
0
230
1
0
LINE
5
FD
100
AcDbEntity
8
SK2
62
256
6
ByLayer
370
18
48
1
60
0
100
AcDbLine
10
0
20
50.8525
30
0
11
0
21
74.815
31
0
39
0
210
0
220
0
230
1
0
LINE
5
FE
100
AcDbEntity
8
SK2
62
256
6
ByLayer
370
18
48
1
60
0
100
AcDbLine
10
100
20
22.0875
30
0
11
100
21
74.815
31
0
39
0
210
0
220
0
230
1
0
LINE
5
FF
100
AcDbEntity
8
1
62
256
6
ByLayer
370
18
48
1
60
1
100
AcDbLine
10
0
20
72.815
30
0
11
3.499998
21
73.275784
31
0
39
0
210
0
220
0
230
1
0
LINE
5
100
100
AcDbEntity
8
1
62
256
6
ByLayer
370
18
48
1
60
1
100
AcDbLine
10
3.499998
20
73.275784
30
0
11
3.500002
21
72.354216
31
0
39
0
210
0
220
0
230
1
0
LINE
5
101
100
AcDbEntity
8
1
62
256
6
ByLayer
370
18
48
1
60
1
100
AcDbLine
10
3.500002
20
72.354216
30
0
11
0
21
72.815
31
0
39
0
210
0
220
0
230
1
0
LINE
5
102
100
AcDbEntity
8
1
62
256
6
ByLayer
370
18
48
1
60
1
100
AcDbLine
10
100
20
72.815
30
0
11
96.500002
21
72.354216
31
0
39
0
210
0
220
0
230
1
0
LINE
5
103
100
AcDbEntity
8
1
62
256
6
ByLayer
370
18
48
1
60
1
100
AcDbLine
10
96.500002
20
72.354216
30
0
11
96.499998
21
73.275784
31
0
39
0
210
0
220
0
230
1
0
LINE
5
104
100
AcDbEntity
8
1
62
256
6
ByLayer
370
18
48
1
60
1
100
AcDbLine
10
96.499998
20
73.275784
30
0
11
100
21
72.815
31
0
39
0
210
0
220
0
230
1
0
LINE
5
105
100
AcDbEntity
8
SK2
62
256
6
ByLayer
370
18
48
1
60
0
100
AcDbLine
10
-49.9
20
72.815
30
0
11
0
21
72.815
31
0
39
0
210
0
220
0
230
1
0
LINE
5
106
100
AcDbEntity
8
SK2
62
256
6
ByLayer
370
18
48
1
60
0
100
AcDbLine
10
0
20
50.8525
30
0
11
0
21
74.815
31
0
39
0
210
0
220
0
230
1
0
LINE
5
107
100
AcDbEntity
8
SK2
62
256
6
ByLayer
370
18
48
1
60
0
100
AcDbLine
10
-49.9
20
32.073826
30
0
11
-49.9
21
74.815
31
0
39
0
210
0
220
0
230
1
0
LINE
5
108
100
AcDbEntity
8
1
62
256
6
ByLayer
370
18
48
1
60
1
100
AcDbLine
10
0
20
72.815
30
0
11
-3.499998
21
72.354216
31
0
39
0
210
0
220
0
230
1
0
LINE
5
109
100
AcDbEntity
8
1
62
256
6
ByLayer
370
18
48
1
60
1
100
AcDbLine
10
-3.499998
20
72.354216
30
0
11
-3.500002
21
73.275784
31
0
39
0
210
0
220
0
230
1
0
LINE
5
10A
100
AcDbEntity
8
1
62
256
6
ByLayer
370
18
48
1
60
1
100
AcDbLine
10
-3.500002
20
73.275784
30
0
11
0
21
72.815
31
0
39
0
210
0
220
0
230
1
0
LINE
5
10B
100
AcDbEntity
8
1
62
256
6
ByLayer
370
18
48
1
60
1
100
AcDbLine
10
-49.9
20
72.815
30
0
11
-46.400002
21
73.275784
31
0
39
0
210
0
220
0
230
1
0
LINE
5
10C
100
AcDbEntity
8
1
62
256
6
ByLayer
370
18
48
1
60
1
100
AcDbLine
10
-46.400002
20
73.275784
30
0
11
-46.399998
21
72.354216
31
0
39
0
210
0
220
0
230
1
0
LINE
5
10D
100
AcDbEntity
8
1
62
256
6
ByLayer
370
18
48
1
60
1
100
AcDbLine
10
-46.399998
20
72.354216
30
0
11
-49.9
21
72.815
31
0
39
0
210
0
220
0
230
1
0
LINE
5
16B
100
AcDbEntity
8
1
62
256
6
ByLayer
370
18
48
1
60
1
100
AcDbLine
10
126.725
20
-22.5
30
0
11
126.264216
21
-19.000002
31
0
39
0
210
0
220
0
230
1
0
LINE
5
16C
100
AcDbEntity
8
1
62
256
6
ByLayer
370
18
48
1
60
1
100
AcDbLine
10
126.264216
20
-19.000002
30
0
11
127.185784
21
-18.999998
31
0
39
0
210
0
220
0
230
1
0
LINE
5
16D
100
AcDbEntity
8
1
62
256
6
ByLayer
370
18
48
1
60
1
100
AcDbLine
10
127.185784
20
-18.999998
30
0
11
126.725
21
-22.5
31
0
39
0
210
0
220
0
230
1
0
LINE
5
16F
100
AcDbEntity
8
1
62
256
6
ByLayer
370
18
48
1
60
1
100
AcDbLine
10
126.725
20
22.5
30
0
11
127.185784
21
19.000002
31
0
39
0
210
0
220
0
230
1
0
LINE
5
170
100
AcDbEntity
8
1
62
256
6
ByLayer
370
18
48
1
60
1
100
AcDbLine
10
127.185784
20
19.000002
30
0
11
126.264216
21
18.999998
31
0
39
0
210
0
220
0
230
1
0
LINE
5
171
100
AcDbEntity
8
1
62
256
6
ByLayer
370
18
48
1
60
1
100
AcDbLine
10
126.264216
20
18.999998
30
0
11
126.725
21
22.5
31
0
39
0
210
0
220
0
230
1
0
LINE
5
175
100
AcDbEntity
8
1
62
256
6
ByLayer
370
18
48
1
60
1
100
AcDbLine
10
-66.875
20
49.965
30
0
11
-66.414216
21
46.465002
31
0
39
0
210
0
220
0
230
1
0
LINE
5
176
100
AcDbEntity
8
1
62
256
6
ByLayer
370
18
48
1
60
1
100
AcDbLine
10
-66.414216
20
46.465002
30
0
11
-67.335784
21
46.464998
31
0
39
0
210
0
220
0
230
1
0
LINE
5
177
100
AcDbEntity
8
1
62
256
6
ByLayer
370
18
48
1
60
1
100
AcDbLine
10
-67.335784
20
46.464998
30
0
11
-66.875
21
49.965
31
0
39
0
210
0
220
0
230
1
0
LINE
5
179
100
AcDbEntity
8
1
62
256
6
ByLayer
370
18
48
1
60
1
100
AcDbLine
10
-66.875
20
-49.965
30
0
11
-67.335784
21
-46.465002
31
0
39
0
210
0
220
0
230
1
0
LINE
5
17A
100
AcDbEntity
8
1
62
256
6
ByLayer
370
18
48
1
60
1
100
AcDbLine
10
-67.335784
20
-46.465002
30
0
11
-66.414216
21
-46.464998
31
0
39
0
210
0
220
0
230
1
0
LINE
5
17B
100
AcDbEntity
8
1
62
256
6
ByLayer
370
18
48
1
60
1
100
AcDbLine
10
-66.414216
20
-46.464998
30
0
11
-66.875
21
-49.965
31
0
39
0
210
0
220
0
230
1
0
LINE
5
17E
100
AcDbEntity
8
1
62
256
6
ByLayer
370
18
48
1
60
1
100
AcDbLine
10
100
20
62.815
30
0
11
96.500002
21
62.354216
31
0
39
0
210
0
220
0
230
1
0
LINE
5
17F
100
AcDbEntity
8
1
62
256
6
ByLayer
370
18
48
1
60
1
100
AcDbLine
10
96.500002
20
62.354216
30
0
11
96.499998
21
63.275784
31
0
39
0
210
0
220
0
230
1
0
LINE
5
180
100
AcDbEntity
8
1
62
256
6
ByLayer
370
18
48
1
60
1
100
AcDbLine
10
96.499998
20
63.275784
30
0
11
100
21
62.815
31
0
39
0
210
0
220
0
230
1
0
LINE
5
182
100
AcDbEntity
8
1
62
256
6
ByLayer
370
18
48
1
60
1
100
AcDbLine
10
28.95
20
62.815
30
0
11
32.449998
21
63.275784
31
0
39
0
210
0
220
0
230
1
0
LINE
5
183
100
AcDbEntity
8
1
62
256
6
ByLayer
370
18
48
1
60
1
100
AcDbLine
10
32.449998
20
63.275784
30
0
11
32.450002
21
62.354216
31
0
39
0
210
0
220
0
230
1
0
LINE
5
184
100
AcDbEntity
8
1
62
256
6
ByLayer
370
18
48
1
60
1
100
AcDbLine
10
32.450002
20
62.354216
30
0
11
28.95
21
62.815
31
0
39
0
210
0
220
0
230
1
0
LINE
5
187
100
AcDbEntity
8
1
62
256
6
ByLayer
370
18
48
1
60
1
100
AcDbLine
10
0
20
72.815
30
0
11
3.499998
21
73.275784
31
0
39
0
210
0
220
0
230
1
0
LINE
5
188
100
AcDbEntity
8
1
62
256
6
ByLayer
370
18
48
1
60
1
100
AcDbLine
10
3.499998
20
73.275784
30
0
11
3.500002
21
72.354216
31
0
39
0
210
0
220
0
230
1
0
LINE
5
189
100
AcDbEntity
8
1
62
256
6
ByLayer
370
18
48
1
60
1
100
AcDbLine
10
3.500002
20
72.354216
30
0
11
0
21
72.815
31
0
39
0
210
0
220
0
230
1
0
LINE
5
18B
100
AcDbEntity
8
1
62
256
6
ByLayer
370
18
48
1
60
1
100
AcDbLine
10
100
20
72.815
30
0
11
96.500002
21
72.354216
31
0
39
0
210
0
220
0
230
1
0
LINE
5
18C
100
AcDbEntity
8
1
62
256
6
ByLayer
370
18
48
1
60
1
100
AcDbLine
10
96.500002
20
72.354216
30
0
11
96.499998
21
73.275784
31
0
39
0
210
0
220
0
230
1
0
LINE
5
18D
100
AcDbEntity
8
1
62
256
6
ByLayer
370
18
48
1
60
1
100
AcDbLine
10
96.499998
20
73.275784
30
0
11
100
21
72.815
31
0
39
0
210
0
220
0
230
1
0
LINE
5
190
100
AcDbEntity
8
1
62
256
6
ByLayer
370
18
48
1
60
1
100
AcDbLine
10
0
20
72.815
30
0
11
-3.499998
21
72.354216
31
0
39
0
210
0
220
0
230
1
0
LINE
5
191
100
AcDbEntity
8
1
62
256
6
ByLayer
370
18
48
1
60
1
100
AcDbLine
10
-3.499998
20
72.354216
30
0
11
-3.500002
21
73.275784
31
0
39
0
210
0
220
0
230
1
0
LINE
5
192
100
AcDbEntity
8
1
62
256
6
ByLayer
370
18
48
1
60
1
100
AcDbLine
10
-3.500002
20
73.275784
30
0
11
0
21
72.815
31
0
39
0
210
0
220
0
230
1
0
LINE
5
194
100
AcDbEntity
8
1
62
256
6
ByLayer
370
18
48
1
60
1
100
AcDbLine
10
-49.9
20
72.815
30
0
11
-46.400002
21
73.275784
31
0
39
0
210
0
220
0
230
1
0
LINE
5
195
100
AcDbEntity
8
1
62
256
6
ByLayer
370
18
48
1
60
1
100
AcDbLine
10
-46.400002
20
73.275784
30
0
11
-46.399998
21
72.354216
31
0
39
0
210
0
220
0
230
1
0
LINE
5
196
100
AcDbEntity
8
1
62
256
6
ByLayer
370
18
48
1
60
1
100
AcDbLine
10
-46.399998
20
72.354216
30
0
11
-49.9
21
72.815
31
0
39
0
210
0
220
0
230
1
0
MTEXT
5
167
100
AcDbEntity
8
SK2
62
256
6
ByLayer
370
18
48
1
60
0
100
AcDbMText
10
125.160366
20
-4.714889
30
0
210
0
220
0
230
1
1
%%c
40
3.5
41
0
44
1.084337
50
90
71
7
72
5
7
iso_b_vert
0
MTEXT
5
16A
100
AcDbEntity
8
SK2
62
256
6
ByLayer
370
18
48
1
60
0
100
AcDbMText
10
125.160366
20
2.257767
30
0
210
0
220
0
230
1
1
\W0.7361;45
40
3.5
41
0
44
1.084337
50
90
71
7
72
5
7
iso_b_vert
0
MTEXT
5
173
100
AcDbEntity
8
SK2
62
256
6
ByLayer
370
18
48
1
60
0
100
AcDbMText
10
-68.439634
20
-5.400922
30
0
210
0
220
0
230
1
1
%%c
40
3.5
41
0
44
1.084337
50
90
71
7
72
5
7
iso_b_vert
0
MTEXT
5
174
100
AcDbEntity
8
SK2
62
256
6
ByLayer
370
18
48
1
60
0
100
AcDbMText
10
-68.439634
20
1.571734
30
0
210
0
220
0
230
1
1
\W0.6217;100
40
3.5
41
0
44
1.084337
50
90
71
7
72
5
7
iso_b_vert
0
MTEXT
5
17D
100
AcDbEntity
8
2
62
256
6
ByLayer
370
18
48
1
60
0
100
AcDbMText
10
63.007467
20
63.847634
30
0
210
0
220
0
230
1
1
\W0.6351;71
40
3.5
41
0
44
1.084337
50
0
71
7
72
5
7
iso_b_vert
0
MTEXT
5
186
100
AcDbEntity
8
SK2
62
256
6
ByLayer
370
18
48
1
60
0
100
AcDbMText
10
47.224734
20
73.847634
30
0
210
0
220
0
230
1
1
\W0.6217;100
40
3.5
41
0
44
1.084337
50
0
71
7
72
5
7
iso_b_vert
0
MTEXT
5
18F
100
AcDbEntity
8
SK2
62
256
6
ByLayer
370
18
48
1
60
0
100
AcDbMText
10
-29.055966
20
73.847634
30
0
210
0
220
0
230
1
1
\W0.7756;49.9
40
3.5
41
0
44
1.084337
50
0
71
7
72
5
7
iso_b_vert
0
MTEXT
5
198
100
AcDbEntity
8
SK6
62
256
6
ByLayer
370
18
48
1
60
0
100
AcDbMText
10
55.107146
20
-92.114886
30
0
210
0
220
0
230
1
1
\W0.7539;HT10-DR25-A045-100
40
3
41
0
44
1.084337
50
0
71
7
72
5
7
iso_b_vert
0
HATCH
5
16E
100
AcDbEntity
8
SK2
62
256
6
ByLayer
370
13
48
1
60
0
100
AcDbHatch
10
0
20
0
30
0
210
0
220
0
230
1
2
ANSI31
70
0
71
0
91
1
92
5
93
3
72
1
10
126.725
20
-22.4999999999999
11
126.264216258447
21
-19.0000016925531
72
1
10
126.264216258447
20
-19.0000016925531
11
127.185783741553
21
-18.9999983074467
72
1
10
127.185783741553
20
-18.9999983074467
11
126.725
21
-22.4999999999999
97
0
75
0
76
1
52
0
41
0.0062
77
0
78
1
53
45
43
0
44
0
45
-0.0139193969876572
46
0.0139193969876572
79
0
47
0
98
1
10
0
20
0
0
HATCH
5
172
100
AcDbEntity
8
SK2
62
256
6
ByLayer
370
13
48
1
60
0
100
AcDbHatch
10
0
20
0
30
0
210
0
220
0
230
1
2
ANSI31
70
0
71
0
91
1
92
5
93
3
72
1
10
126.725
20
22.5000000000001
11
127.185783741553
21
19.0000016925533
72
1
10
127.185783741553
20
19.0000016925533
11
126.264216258447
21
18.9999983074469
72
1
10
126.264216258447
20
18.9999983074469
11
126.725
21
22.5000000000001
97
0
75
0
76
1
52
0
41
0.0062
77
0
78
1
53
45
43
0
44
0
45
-0.0139193969876572
46
0.0139193969876572
79
0
47
0
98
1
10
0
20
0
0
HATCH
5
178
100
AcDbEntity
8
SK2
62
256
6
ByLayer
370
13
48
1
60
0
100
AcDbHatch
10
0
20
0
30
0
210
0
220
0
230
1
2
ANSI31
70
0
71
0
91
1
92
5
93
3
72
1
10
-66.8750000000001
20
49.965
11
-66.4142162584473
21
46.4650016925532
72
1
10
-66.4142162584473
20
46.4650016925532
11
-67.3357837415528
21
46.4649983074468
72
1
10
-67.3357837415528
20
46.4649983074468
11
-66.8750000000001
21
49.965
97
0
75
0
76
1
52
0
41
0.0062
77
0
78
1
53
45
43
0
44
0
45
-0.0139193969876572
46
0.0139193969876572
79
0
47
0
98
1
10
0
20
0
0
HATCH
5
17C
100
AcDbEntity
8
SK2
62
256
6
ByLayer
370
13
48
1
60
0
100
AcDbHatch
10
0
20
0
30
0
210
0
220
0
230
1
2
ANSI31
70
0
71
0
91
1
92
5
93
3
72
1
10
-66.8750000000001
20
-49.965
11
-67.3357837415528
21
-46.4650016925532
72
1
10
-67.3357837415528
20
-46.4650016925532
11
-66.4142162584473
21
-46.4649983074468
72
1
10
-66.4142162584473
20
-46.4649983074468
11
-66.8750000000001
21
-49.965
97
0
75
0
76
1
52
0
41
0.0062
77
0
78
1
53
45
43
0
44
0
45
-0.0139193969876572
46
0.0139193969876572
79
0
47
0
98
1
10
0
20
0
0
HATCH
5
181
100
AcDbEntity
8
2
62
256
6
ByLayer
370
13
48
1
60
0
100
AcDbHatch
10
0
20
0
30
0
210
0
220
0
230
1
2
ANSI31
70
0
71
0
91
1
92
5
93
3
72
1
10
100
20
62.8150000000001
11
96.5000016925532
21
62.3542162584473
72
1
10
96.5000016925532
20
62.3542162584473
11
96.4999983074468
21
63.2757837415529
72
1
10
96.4999983074468
20
63.2757837415529
11
100
21
62.8150000000001
97
0
75
0
76
1
52
0
41
0.0062
77
0
78
1
53
45
43
0
44
0
45
-0.0139193969876572
46
0.0139193969876572
79
0
47
0
98
1
10
0
20
0
0
HATCH
5
185
100
AcDbEntity
8
2
62
256
6
ByLayer
370
13
48
1
60
0
100
AcDbHatch
10
0
20
0
30
0
210
0
220
0
230
1
2
ANSI31
70
0
71
0
91
1
92
5
93
3
72
1
10
28.95
20
62.8150000000001
11
32.4499983074468
21
63.2757837415529
72
1
10
32.4499983074468
20
63.2757837415529
11
32.4500016925532
21
62.3542162584473
72
1
10
32.4500016925532
20
62.3542162584473
11
28.95
21
62.8150000000001
97
0
75
0
76
1
52
0
41
0.0062
77
0
78
1
53
45
43
0
44
0
45
-0.0139193969876572
46
0.0139193969876572
79
0
47
0
98
1
10
0
20
0
0
HATCH
5
18A
100
AcDbEntity
8
SK2
62
256
6
ByLayer
370
13
48
1
60
0
100
AcDbHatch
10
0
20
0
30
0
210
0
220
0
230
1
2
ANSI31
70
0
71
0
91
1
92
5
93
3
72
1
10
0
20
72.8150000000001
11
3.4999983074468
21
73.2757837415529
72
1
10
3.4999983074468
20
73.2757837415529
11
3.50000169255317
21
72.3542162584473
72
1
10
3.50000169255317
20
72.3542162584473
11
0
21
72.8150000000001
97
0
75
0
76
1
52
0
41
0.0062
77
0
78
1
53
45
43
0
44
0
45
-0.0139193969876572
46
0.0139193969876572
79
0
47
0
98
1
10
0
20
0
0
HATCH
5
18E
100
AcDbEntity
8
SK2
62
256
6
ByLayer
370
13
48
1
60
0
100
AcDbHatch
10
0
20
0
30
0
210
0
220
0
230
1
2
ANSI31
70
0
71
0
91
1
92
5
93
3
72
1
10
100
20
72.8150000000001
11
96.5000016925532
21
72.3542162584473
72
1
10
96.5000016925532
20
72.3542162584473
11
96.4999983074468
21
73.2757837415529
72
1
10
96.4999983074468
20
73.2757837415529
11
100
21
72.8150000000001
97
0
75
0
76
1
52
0
41
0.0062
77
0
78
1
53
45
43
0
44
0
45
-0.0139193969876572
46
0.0139193969876572
79
0
47
0
98
1
10
0
20
0
0
HATCH
5
193
100
AcDbEntity
8
SK2
62
256
6
ByLayer
370
13
48
1
60
0
100
AcDbHatch
10
0
20
0
30
0
210
0
220
0
230
1
2
ANSI31
70
0
71
0
91
1
92
5
93
3
72
1
10
0
20
72.8150000000001
11
-3.4999983074468
21
72.3542162584473
72
1
10
-3.4999983074468
20
72.3542162584473
11
-3.5000016925532
21
73.2757837415529
72
1
10
-3.5000016925532
20
73.2757837415529
11
0
21
72.8150000000001
97
0
75
0
76
1
52
0
41
0.0062
77
0
78
1
53
45
43
0
44
0
45
-0.0139193969876572
46
0.0139193969876572
79
0
47
0
98
1
10
0
20
0
0
HATCH
5
197
100
AcDbEntity
8
SK2
62
256
6
ByLayer
370
13
48
1
60
0
100
AcDbHatch
10
0
20
0
30
0
210
0
220
0
230
1
2
ANSI31
70
0
71
0
91
1
92
5
93
3
72
1
10
-49.9
20
72.8150000000001
11
-46.4000016925532
21
73.2757837415529
72
1
10
-46.4000016925532
20
73.2757837415529
11
-46.3999983074468
21
72.3542162584473
72
1
10
-46.3999983074468
20
72.3542162584473
11
-49.9
21
72.8150000000001
97
0
75
0
76
1
52
0
41
0.0062
77
0
78
1
53
45
43
0
44
0
45
-0.0139193969876572
46
0.0139193969876572
79
0
47
0
98
1
10
0
20
0
0
ENDSEC
0
SECTION
2
OBJECTS
0
DICTIONARY
5
206
330
0
100
AcDbDictionary
280
0
281
1
3
ACAD_GROUP
350
207
3
ACAD_MLINESTYLE
350
208
0
DICTIONARY
5
207
330
0
100
AcDbDictionary
280
0
281
1
0
DICTIONARY
5
208
330
0
100
AcDbDictionary
280
0
281
1
3
Standard
350
18
0
MLINESTYLE
5
18
330
208
100
AcDbMlineStyle
2
Standard
70
0
3

62
256
51
90
52
90
71
2
49
-0.5
62
256
6
ByLayer
49
0.5
62
256
6
ByLayer
0
RASTERVARIABLES
5
1f5
330

100
AcDbRasterVariables
90
0
70
1
71
1
72
1
0
ENDSEC
0
EOF
