0
SECTION
2
HEADER
9
$ACADVER
1
AC1015
9
$DWGCODEPAGE
3
ANSI_1252
9
$HANDSEED
5
291
9
$ANGBASE
50
0
9
$ANGDIR
70
0
9
$ATTMODE
70
1
9
$AUNITS
70
0
9
$AUPREC
70
0
9
$CECOLOR
62
256
9
$CELTSCALE
40
1
9
$CELTYPE
6
ByLayer
9
$CELWEIGHT
370
18
9
$CLAYER
8
0
9
$CMLJUST
70
0
9
$CMLSCALE
40
1
9
$CMLSTYLE
2
Standard
9
$DIMSTYLE
2
Standard
9
$TEXTSIZE
40
0.2
9
$TEXTSTYLE
7
Standard
9
$LUNITS
70
2
9
$LUPREC
70
4
9
$EXTNAMES
290
1
9
$INSUNITS
70
4
9
$LTSCALE
40
1
9
$LWDISPLAY
290
1
9
$PDMODE
70
0
9
$PDSIZE
40
0
9
$PLINEGEN
70
0
0
ENDSEC
0
SECTION
2
CLASSES
0
CLASS
1
RASTERVARIABLES
2
AcDbRasterVariables
3
ISM
90
0
280
0
281
0
0
ENDSEC
0
SECTION
2
TABLES
0
TABLE
2
VPORT
5
287
100
AcDbSymbolTable
0
VPORT
5
1
100
AcDbSymbolTableRecord
100
AcDbViewportTableRecord
2
*Active
70
0
10
0
20
0
11
1
21
1
12
-1
22
1
13
0
23
0
14
0.5
24
0.5
15
10
25
10
16
0
26
0
36
1
17
0
27
0
37
0
0
ENDTAB
0
TABLE
2
LTYPE
5
288
100
AcDbSymbolTable
0
LTYPE
5
14
100
AcDbSymbolTableRecord
100
AcDbLinetypeTableRecord
70
0
2
ByBlock
3

72
65
73
0
40
0
0
LTYPE
5
15
100
AcDbSymbolTableRecord
100
AcDbLinetypeTableRecord
70
0
2
ByLayer
3

72
65
73
0
40
0
0
LTYPE
5
16
100
AcDbSymbolTableRecord
100
AcDbLinetypeTableRecord
70
0
2
Continuous
3
Solid line
72
65
73
0
40
0
0
LTYPE
5
6E
100
AcDbSymbolTableRecord
100
AcDbLinetypeTableRecord
70
0
2
CENTER
3
____ _ ____ _ ____ _ ____
72
65
73
4
40
47.5
49
22
74
0
49
-8.5
74
0
49
8.5
74
0
49
-8.5
74
0
0
LTYPE
5
6F
100
AcDbSymbolTableRecord
100
AcDbLinetypeTableRecord
70
0
2
DASHED
3
__ __ __ __ __ __ __ __ __
72
65
73
2
40
25.72
49
12.86
74
0
49
-12.86
74
0
0
ENDTAB
0
TABLE
2
LAYER
5
289
100
AcDbSymbolTable
0
LAYER
5
10
100
AcDbSymbolTableRecord
100
AcDbLayerTableRecord
2
0
70
0
62
7
6
Continuous
290
1
370
-3
390
0
0
LAYER
5
71
100
AcDbSymbolTableRecord
100
AcDbLayerTableRecord
2
2
70
0
62
7
6
Continuous
290
1
370
-3
390
0
0
LAYER
5
85
100
AcDbSymbolTableRecord
100
AcDbLayerTableRecord
2
81
70
0
62
-3
6
Continuous
290
1
370
-3
390
0
0
LAYER
5
87
100
AcDbSymbolTableRecord
100
AcDbLayerTableRecord
2
80
70
0
62
-6
6
Continuous
290
1
370
-3
390
0
0
LAYER
5
89
100
AcDbSymbolTableRecord
100
AcDbLayerTableRecord
2
1
70
0
62
4
6
Continuous
290
1
370
-3
390
0
0
LAYER
5
97
100
AcDbSymbolTableRecord
100
AcDbLayerTableRecord
2
4
70
0
62
-2
6
CENTER
290
1
370
-3
390
0
0
LAYER
5
273
100
AcDbSymbolTableRecord
100
AcDbLayerTableRecord
2
SK4
70
0
62
2
6
CENTER
290
1
370
-3
390
0
0
LAYER
5
274
100
AcDbSymbolTableRecord
100
AcDbLayerTableRecord
2
SK2
70
0
62
7
6
Continuous
290
1
370
-3
390
0
0
LAYER
5
275
100
AcDbSymbolTableRecord
100
AcDbLayerTableRecord
2
SK1
70
0
62
4
6
Continuous
290
1
370
-3
390
0
0
LAYER
5
276
100
AcDbSymbolTableRecord
100
AcDbLayerTableRecord
2
SK6
70
0
62
5
6
Continuous
290
1
370
-3
390
0
0
ENDTAB
0
TABLE
2
STYLE
5
28a
100
AcDbSymbolTable
0
STYLE
5
11
100
AcDbSymbolTableRecord
100
AcDbTextStyleTableRecord
2
Standard
3
txt
70
0
71
0
40
0
41
1
42
0
50
0
0
STYLE
5
1C7
100
AcDbSymbolTableRecord
100
AcDbTextStyleTableRecord
2
iso_b_vert
3
simplex.shx
70
0
71
0
40
0
41
1
42
0
50
0
0
STYLE
5
1C8
100
AcDbSymbolTableRecord
100
AcDbTextStyleTableRecord
2
DWGDirectTextStyle
3
simplex
70
0
71
0
40
0
41
1
42
0
50
0
0
ENDTAB
0
TABLE
2
DIMSTYLE
5
28b
100
AcDbSymbolTable
100
AcDbDimStyleTable
0
DIMSTYLE
105
27
100
AcDbSymbolTableRecord
100
AcDbDimStyleTableRecord
2
Standard
70
0
3
<>
41
0.18
42
0.0625
44
0.18
140
0.18
147
0.09
73
0
74
0
77
1
271
2
275
0
278
52
280
0
340
11
0
ENDTAB
0
TABLE
2
VIEW
5
28c
100
AcDbSymbolTable
0
ENDTAB
0
TABLE
2
UCS
5
28d
100
AcDbSymbolTable
0
ENDTAB
0
TABLE
2
APPID
5
28e
100
AcDbSymbolTable
0
APPID
5
12
100
AcDbSymbolTableRecord
100
AcDbRegAppTableRecord
2
ACAD
70
0
0
APPID
5
26F
100
AcDbSymbolTableRecord
100
AcDbRegAppTableRecord
2
ACAD_MLEADERVER
70
0
0
ENDTAB
0
TABLE
2
BLOCK_RECORD
5
28f
100
AcDbSymbolTable
0
BLOCK_RECORD
5
1F
100
AcDbSymbolTableRecord
100
AcDbBlockTableRecord
2
*Model_Space
340
0
70
0
0
BLOCK_RECORD
5
1B
100
AcDbSymbolTableRecord
100
AcDbBlockTableRecord
2
*Paper_Space
340
0
70
0
0
BLOCK_RECORD
5
23
100
AcDbSymbolTableRecord
100
AcDbBlockTableRecord
2
*Paper_Space0
340
0
70
0
0
ENDTAB
0
ENDSEC
0
SECTION
2
BLOCKS
0
BLOCK
5
20
100
AcDbEntity
8
0
100
AcDbBlockBegin
2
*Model_Space
70
0
10
0
20
0
30
0
3
*Model_Space
0
ENDBLK
5
21
100
AcDbEntity
8
0
100
AcDbBlockEnd
0
BLOCK
5
1C
100
AcDbEntity
8
0
100
AcDbBlockBegin
2
*Paper_Space
70
0
10
0
20
0
30
0
3
*Paper_Space
0
ENDBLK
5
1D
100
AcDbEntity
8
0
100
AcDbBlockEnd
0
BLOCK
5
24
100
AcDbEntity
8
0
100
AcDbBlockBegin
2
*Paper_Space0
70
0
10
0
20
0
30
0
3
*Paper_Space0
0
ENDBLK
5
25
100
AcDbEntity
8
0
100
AcDbBlockEnd
0
ENDSEC
0
SECTION
2
ENTITIES
0
ARC
5
17A
100
AcDbEntity
8
1
62
256
6
ByLayer
370
18
48
1
60
0
100
AcDbCircle
39
0
10
61.214791
20
16.246
30
0
40
0.6
210
0
220
0
230
1
100
AcDbArc
50
270
51
285
0
ARC
5
17B
100
AcDbEntity
8
1
62
256
6
ByLayer
370
18
48
1
60
0
100
AcDbCircle
39
0
10
61.214791
20
-16.246
30
0
40
0.6
210
0
220
0
230
1
100
AcDbArc
50
75
51
90
0
ARC
5
17C
100
AcDbEntity
8
1
62
256
6
ByLayer
370
18
48
1
60
0
100
AcDbCircle
39
0
10
60.375
20
-16.246
30
0
40
0.599999999999992
210
0
220
0
230
1
100
AcDbArc
50
90
51
128.68315
0
ARC
5
17D
100
AcDbEntity
8
1
62
256
6
ByLayer
370
18
48
1
60
0
100
AcDbCircle
39
0
10
60.375
20
16.246
30
0
40
0.599999999999992
210
0
220
0
230
1
100
AcDbArc
50
231.31685
51
270
0
ARC
5
17E
100
AcDbEntity
8
1
62
256
6
ByLayer
370
18
48
1
60
0
100
AcDbCircle
39
0
10
16.475
20
27.875
30
0
40
0.399999999999999
210
0
220
0
230
1
100
AcDbArc
50
180
51
270
0
ARC
5
17F
100
AcDbEntity
8
1
62
256
6
ByLayer
370
18
48
1
60
0
100
AcDbCircle
39
0
10
19.525
20
-27.875
30
0
40
0.399999999999988
210
0
220
0
230
1
100
AcDbArc
50
0
51
90
0
ARC
5
180
100
AcDbEntity
8
1
62
256
6
ByLayer
370
18
48
1
60
0
100
AcDbCircle
39
0
10
16.475
20
-27.875
30
0
40
0.399999999999999
210
0
220
0
230
1
100
AcDbArc
50
90
51
180
0
ARC
5
181
100
AcDbEntity
8
1
62
256
6
ByLayer
370
18
48
1
60
0
100
AcDbCircle
39
0
10
26.95
20
-27.25
30
0
40
1
210
0
220
0
230
1
100
AcDbArc
50
90
51
180
0
ARC
5
182
100
AcDbEntity
8
1
62
256
6
ByLayer
370
18
48
1
60
0
100
AcDbCircle
39
0
10
26.95
20
27.25
30
0
40
1
210
0
220
0
230
1
100
AcDbArc
50
180
51
270
0
ARC
5
183
100
AcDbEntity
8
1
62
256
6
ByLayer
370
18
48
1
60
0
100
AcDbCircle
39
0
10
19.525
20
27.875
30
0
40
0.399999999999988
210
0
220
0
230
1
100
AcDbArc
50
270
51
0
0
ARC
5
184
100
AcDbEntity
8
1
62
256
6
ByLayer
370
18
48
1
60
0
100
AcDbCircle
39
0
10
41.25
20
-27.25
30
0
40
1
210
0
220
0
230
1
100
AcDbArc
50
0
51
90
0
ARC
5
185
100
AcDbEntity
8
1
62
256
6
ByLayer
370
18
48
1
60
0
100
AcDbCircle
39
0
10
41.25
20
27.25
30
0
40
1
210
0
220
0
230
1
100
AcDbArc
50
270
51
0
0
ARC
5
186
100
AcDbEntity
8
1
62
256
6
ByLayer
370
18
48
1
60
0
100
AcDbCircle
39
0
10
43.25
20
-38
30
0
40
1
210
0
220
0
230
1
100
AcDbArc
50
180
51
270
0
ARC
5
187
100
AcDbEntity
8
1
62
256
6
ByLayer
370
18
48
1
60
0
100
AcDbCircle
39
0
10
43.25
20
38
30
0
40
1
210
0
220
0
230
1
100
AcDbArc
50
90
51
180
0
ARC
5
188
100
AcDbEntity
8
SK2
62
256
6
ByLayer
370
18
48
1
60
0
100
AcDbCircle
39
0
10
98
20
-11
30
0
40
1
210
0
220
0
230
1
100
AcDbArc
50
270
51
0
0
ARC
5
189
100
AcDbEntity
8
SK2
62
256
6
ByLayer
370
18
48
1
60
0
100
AcDbCircle
39
0
10
98
20
11
30
0
40
1
210
0
220
0
230
1
100
AcDbArc
50
0
51
90
0
ARC
5
18A
100
AcDbEntity
8
SK1
62
256
6
ByLayer
370
18
48
1
60
0
100
AcDbCircle
39
0
10
-30.7
20
21.58105
30
0
40
1.2
210
0
220
0
230
1
100
AcDbArc
50
92.868132
51
180
0
ARC
5
18B
100
AcDbEntity
8
SK1
62
256
6
ByLayer
370
18
48
1
60
0
100
AcDbCircle
39
0
10
-30.7
20
-21.58105
30
0
40
1.2
210
0
220
0
230
1
100
AcDbArc
50
180
51
267.131868
0
ARC
5
18C
100
AcDbEntity
8
SK1
62
256
6
ByLayer
370
18
48
1
60
0
100
AcDbCircle
39
0
10
-0.45
20
24.570431
30
0
40
0.600000000000001
210
0
220
0
230
1
100
AcDbArc
50
270
51
318.590378
0
ARC
5
18D
100
AcDbEntity
8
SK1
62
256
6
ByLayer
370
18
48
1
60
0
100
AcDbCircle
39
0
10
-0.45
20
-24.570431
30
0
40
0.600000000000001
210
0
220
0
230
1
100
AcDbArc
50
41.409622
51
90
0
ARC
5
18E
100
AcDbEntity
8
SK1
62
256
6
ByLayer
370
18
48
1
60
0
100
AcDbCircle
39
0
10
-23.2
20
4.87
30
0
40
1.4
210
0
220
0
230
1
100
AcDbArc
50
0
51
90
0
ARC
5
18F
100
AcDbEntity
8
SK1
62
256
6
ByLayer
370
18
48
1
60
0
100
AcDbCircle
39
0
10
-23.2
20
-4.87
30
0
40
1.4
210
0
220
0
230
1
100
AcDbArc
50
270
51
0
0
CIRCLE
5
190
100
AcDbEntity
8
SK1
62
256
6
ByLayer
370
18
48
1
60
0
100
AcDbCircle
10
-9
20
0
30
0
40
3.75
39
0
210
0
220
0
230
1
0
ELLIPSE
5
191
100
AcDbEntity
8
SK1
62
256
6
ByLayer
370
13
48
1
60
0
100
AcDbEllipse
10
-23.2
20
11.093079
30
0
11
1.4
21
0
31
0
210
0
220
0
230
1
40
0.45399
41
-1.5707963267949
42
-1.10550655851978
0
ELLIPSE
5
192
100
AcDbEntity
8
SK1
62
256
6
ByLayer
370
13
48
1
60
0
100
AcDbEllipse
10
-23.2
20
-11.093079
30
0
11
1.4
21
0
31
0
210
0
220
0
230
1
40
0.45399
41
1.10550655851979
42
1.5707963267949
0
POINT
5
70
100
AcDbEntity
8
2
62
256
6
ByLayer
370
18
48
1
60
0
100
AcDbPoint
10
60
20
0
30
0
39
0
210
0
220
0
230
1
50
360
0
POINT
5
72
100
AcDbEntity
8
2
62
256
6
ByLayer
370
18
48
1
60
0
100
AcDbPoint
10
55
20
0
30
0
39
0
210
0
220
0
230
1
50
360
0
POINT
5
73
100
AcDbEntity
8
2
62
256
6
ByLayer
370
18
48
1
60
0
100
AcDbPoint
10
60
20
0
30
0
39
0
210
0
220
0
230
1
50
360
0
POINT
5
74
100
AcDbEntity
8
2
62
256
6
ByLayer
370
18
48
1
60
0
100
AcDbPoint
10
60
20
-5.5175
30
0
39
0
210
0
220
0
230
1
50
360
0
POINT
5
75
100
AcDbEntity
8
2
62
256
6
ByLayer
370
18
48
1
60
0
100
AcDbPoint
10
80
20
0
30
0
39
0
210
0
220
0
230
1
50
360
0
POINT
5
76
100
AcDbEntity
8
2
62
256
6
ByLayer
370
18
48
1
60
0
100
AcDbPoint
10
60
20
0
30
0
39
0
210
0
220
0
230
1
50
360
0
POINT
5
77
100
AcDbEntity
8
2
62
256
6
ByLayer
370
18
48
1
60
0
100
AcDbPoint
10
60
20
5.5175
30
0
39
0
210
0
220
0
230
1
50
360
0
POINT
5
78
100
AcDbEntity
8
2
62
256
6
ByLayer
370
18
48
1
60
0
100
AcDbPoint
10
60
20
0
30
0
39
0
210
0
220
0
230
1
50
360
0
POINT
5
79
100
AcDbEntity
8
2
62
256
6
ByLayer
370
18
48
1
60
0
100
AcDbPoint
10
60
20
0
30
0
39
0
210
0
220
0
230
1
50
360
0
POINT
5
7A
100
AcDbEntity
8
2
62
256
6
ByLayer
370
18
48
1
60
0
100
AcDbPoint
10
60
20
0
30
0
39
0
210
0
220
0
230
1
50
360
0
POINT
5
7B
100
AcDbEntity
8
2
62
256
6
ByLayer
370
18
48
1
60
0
100
AcDbPoint
10
55
20
0
30
0
39
0
210
0
220
0
230
1
50
360
0
POINT
5
7C
100
AcDbEntity
8
2
62
256
6
ByLayer
370
18
48
1
60
0
100
AcDbPoint
10
60
20
-5.5175
30
0
39
0
210
0
220
0
230
1
50
360
0
POINT
5
7D
100
AcDbEntity
8
2
62
256
6
ByLayer
370
18
48
1
60
0
100
AcDbPoint
10
60
20
0
30
0
39
0
210
0
220
0
230
1
50
360
0
POINT
5
7E
100
AcDbEntity
8
2
62
256
6
ByLayer
370
18
48
1
60
0
100
AcDbPoint
10
80
20
0
30
0
39
0
210
0
220
0
230
1
50
360
0
POINT
5
7F
100
AcDbEntity
8
2
62
256
6
ByLayer
370
18
48
1
60
0
100
AcDbPoint
10
80
20
0
30
0
39
0
210
0
220
0
230
1
50
360
0
POINT
5
80
100
AcDbEntity
8
2
62
256
6
ByLayer
370
18
48
1
60
0
100
AcDbPoint
10
60
20
5.5175
30
0
39
0
210
0
220
0
230
1
50
360
0
POINT
5
81
100
AcDbEntity
8
2
62
256
6
ByLayer
370
18
48
1
60
0
100
AcDbPoint
10
60
20
0
30
0
39
0
210
0
220
0
230
1
50
360
0
POINT
5
82
100
AcDbEntity
8
2
62
256
6
ByLayer
370
18
48
1
60
0
100
AcDbPoint
10
55
20
0
30
0
39
0
210
0
220
0
230
1
50
360
0
POINT
5
83
100
AcDbEntity
8
2
62
256
6
ByLayer
370
18
48
1
60
0
100
AcDbPoint
10
0
20
0
30
0
39
0
210
0
220
0
230
1
50
360
0
POINT
5
84
100
AcDbEntity
8
81
62
256
6
ByLayer
370
18
48
1
60
0
100
AcDbPoint
10
60
20
0
30
0
39
0
210
0
220
0
230
1
50
360
0
POINT
5
86
100
AcDbEntity
8
80
62
256
6
ByLayer
370
18
48
1
60
0
100
AcDbPoint
10
0
20
0
30
0
39
0
210
0
220
0
230
1
50
360
0
POINT
5
88
100
AcDbEntity
8
1
62
256
6
ByLayer
370
13
48
1
60
1
100
AcDbPoint
10
18
20
24.234794
30
0
39
0
210
0
220
0
230
1
50
360
0
POINT
5
8A
100
AcDbEntity
8
1
62
256
6
ByLayer
370
13
48
1
60
1
100
AcDbPoint
10
18
20
13.969053
30
0
39
0
210
0
220
0
230
1
50
360
0
POINT
5
8B
100
AcDbEntity
8
1
62
256
6
ByLayer
370
13
48
1
60
1
100
AcDbPoint
10
18
20
27.635248
30
0
39
0
210
0
220
0
230
1
50
360
0
POINT
5
8C
100
AcDbEntity
8
1
62
256
6
ByLayer
370
13
48
1
60
1
100
AcDbPoint
10
18
20
16.474174
30
0
39
0
210
0
220
0
230
1
50
360
0
POINT
5
8D
100
AcDbEntity
8
1
62
256
6
ByLayer
370
13
48
1
60
1
100
AcDbPoint
10
18
20
29.144664
30
0
39
0
210
0
220
0
230
1
50
360
0
POINT
5
8E
100
AcDbEntity
8
1
62
256
6
ByLayer
370
13
48
1
60
1
100
AcDbPoint
10
18
20
18.424591
30
0
39
0
210
0
220
0
230
1
50
360
0
POINT
5
8F
100
AcDbEntity
8
1
62
256
6
ByLayer
370
13
48
1
60
1
100
AcDbPoint
10
-32.260045
20
0
30
0
39
0
210
0
220
0
230
1
50
360
0
POINT
5
90
100
AcDbEntity
8
1
62
256
6
ByLayer
370
13
48
1
60
1
100
AcDbPoint
10
81.5
20
0
30
0
39
0
210
0
220
0
230
1
50
360
0
POINT
5
91
100
AcDbEntity
8
1
62
256
6
ByLayer
370
13
48
1
60
1
100
AcDbPoint
10
99.5
20
0
30
0
39
0
210
0
220
0
230
1
50
360
0
POINT
5
92
100
AcDbEntity
8
1
62
256
6
ByLayer
370
13
48
1
60
1
100
AcDbPoint
10
49
20
0
30
0
39
0
210
0
220
0
230
1
50
360
0
POINT
5
93
100
AcDbEntity
8
1
62
256
6
ByLayer
370
13
48
1
60
1
100
AcDbPoint
10
90.5
20
0
30
0
39
0
210
0
220
0
230
1
50
360
0
POINT
5
94
100
AcDbEntity
8
1
62
256
6
ByLayer
370
13
48
1
60
1
100
AcDbPoint
10
81.5
20
0
30
0
39
0
210
0
220
0
230
1
50
360
0
SPLINE
5
193
100
AcDbEntity
8
1
62
256
6
ByLayer
370
18
48
1
60
0
100
AcDbSpline
70
4
71
3
72
52
73
48
40
0
40
0
40
0
40
0
40
0.0625000000000132
40
0.0625000000000132
40
0.125000000000026
40
0.125000000000026
40
0.156250000000033
40
0.156250000000033
40
0.171875000000035
40
0.171875000000035
40
0.187500000000038
40
0.187500000000038
40
0.250000000000042
40
0.312500000000047
40
0.312500000000047
40
0.328125000000048
40
0.328125000000048
40
0.343750000000049
40
0.375000000000049
40
0.375000000000049
40
0.437500000000048
40
0.437500000000048
40
0.468750000000048
40
0.468750000000048
40
0.484375000000048
40
0.484375000000048
40
0.500000000000048
40
0.500000000000048
40
0.562500000000042
40
0.625000000000036
40
0.625000000000036
40
0.656250000000033
40
0.656250000000033
40
0.68750000000003
40
0.68750000000003
40
0.750000000000024
40
0.750000000000024
40
0.781250000000021
40
0.781250000000021
40
0.812500000000018
40
0.812500000000018
40
0.875000000000012
40
0.937500000000006
40
0.937500000000006
40
0.968750000000003
40
0.968750000000003
40
1
40
1
40
1
40
1
41
1
10
16.475
20
27.1208332690275
30
0
41
1
10
16.5131913232136
20
27.1316974162083
30
0
41
1
10
16.5554551603681
20
27.1417855593491
30
0
41
1
10
16.6478009638929
20
27.1605867016231
30
0
41
1
10
16.6978839475418
20
27.1692991748318
30
0
41
1
10
16.7789435239476
20
27.1814173707329
30
0
41
1
10
16.8069557155953
20
27.1852978728434
30
0
41
1
10
16.8505015589457
20
27.1908862453377
30
0
41
1
10
16.8652488722836
20
27.1927070856399
30
0
41
1
10
16.8950371680023
20
27.1962470452332
30
0
41
1
10
16.9101019245861
20
27.1979692506055
30
0
41
1
10
16.9862682240961
20
27.2063492452915
30
0
41
1
10
17.1135048019649
20
27.2182859500462
30
0
41
1
10
17.2513051323546
20
27.2275603575845
30
0
41
1
10
17.340852835611
20
27.2325593206391
30
0
41
1
10
17.3589510261372
20
27.2335196930482
30
0
41
1
10
17.3952241179028
20
27.2353472612522
30
0
41
1
10
17.4498427753161
20
27.2379542890512
30
0
41
1
10
17.5050795190823
20
27.2401701169256
30
0
41
1
10
17.6163637965048
20
27.2441019585401
30
0
41
1
10
17.691630903465
20
27.2460597735575
30
0
41
1
10
17.8061588831876
20
27.2480315926628
30
0
41
1
10
17.844606956195
20
27.2485272948397
30
0
41
1
10
17.9026967272745
20
27.2490252543333
30
0
41
1
10
17.9221663084688
20
27.2491503511788
30
0
41
1
10
17.9610107977543
20
27.2493166522484
30
0
41
1
10
17.9803927501871
20
27.2493581073743
30
0
41
1
10
18.0771038623368
20
27.2493599844162
30
0
41
1
10
18.2305754564871
20
27.2480562489621
30
0
41
1
10
18.3815722297399
20
27.2441658939821
30
0
41
1
10
18.4938641285014
20
27.2402118091583
30
0
41
1
10
18.53118989199
20
27.2387162896815
30
0
41
1
10
18.6044182748904
20
27.2354116930949
30
0
41
1
10
18.6404572010122
20
27.2335984961412
30
0
41
1
10
18.7468816355557
20
27.2276697523671
30
0
41
1
10
18.8155819965158
20
27.2230678565507
30
0
41
1
10
18.9152578724162
20
27.2151149292204
30
0
41
1
10
18.9479189224545
20
27.2122882535371
30
0
41
1
10
19.012089924821
20
27.206261876742
30
0
41
1
10
19.0436842374209
20
27.2030514711211
30
0
41
1
10
19.1354026811123
20
27.1929673492861
30
0
41
1
10
19.2503033645007
20
27.1782583110887
30
0
41
1
10
19.350832367964
20
27.1608439964982
30
0
41
1
10
19.420705897915
20
27.1466492044015
30
0
41
1
10
19.4431211599626
20
27.1417156216417
30
0
41
1
10
19.4857083394232
20
27.1315251263696
30
0
41
1
10
19.5059044140919
20
27.1262653210842
30
0
41
1
10
19.525
20
27.1208332690275
30
0
0
SPLINE
5
194
100
AcDbEntity
8
1
62
256
6
ByLayer
370
18
48
1
60
0
100
AcDbSpline
70
4
71
3
72
52
73
48
40
0
40
0
40
0
40
0
40
0.0625000000000001
40
0.0625000000000001
40
0.125
40
0.125
40
0.156249999999999
40
0.156249999999999
40
0.171874999999998
40
0.171874999999998
40
0.187499999999998
40
0.187499999999998
40
0.25
40
0.312500000000003
40
0.312500000000003
40
0.328125000000003
40
0.328125000000003
40
0.343750000000004
40
0.375000000000003
40
0.375000000000003
40
0.4375
40
0.4375
40
0.468749999999999
40
0.468749999999999
40
0.484374999999999
40
0.484374999999999
40
0.499999999999998
40
0.499999999999998
40
0.562499999999998
40
0.624999999999999
40
0.624999999999999
40
0.656249999999999
40
0.656249999999999
40
0.687499999999999
40
0.687499999999999
40
0.750000000000002
40
0.750000000000002
40
0.781250000000002
40
0.781250000000002
40
0.812500000000002
40
0.812500000000002
40
0.875000000000001
40
0.937499999999999
40
0.937499999999999
40
0.96875
40
0.96875
40
1
40
1
40
1
40
1
41
1
10
19.525
20
26.7932469531775
30
0
41
1
10
19.4868086767864
20
26.7782190478728
30
0
41
1
10
19.4445448396319
20
26.7636778297996
30
0
41
1
10
19.3521990361071
20
26.7356425269
30
0
41
1
10
19.3021160524582
20
26.7221482366298
30
0
41
1
10
19.2210564760524
20
26.7027937225695
30
0
41
1
10
19.1930442844047
20
26.696490535162
30
0
41
1
10
19.1494984410542
20
26.6872760989359
30
0
41
1
10
19.1347511277164
20
26.6842499023395
30
0
41
1
10
19.1049628319977
20
26.6783234071167
30
0
41
1
10
19.0898980754139
20
26.6754180306102
30
0
41
1
10
19.0137317759039
20
26.6611817241371
30
0
41
1
10
18.8864951980351
20
26.6402572336436
30
0
41
1
10
18.7486948676454
20
26.6232057126545
30
0
41
1
10
18.659147164389
20
26.6138669592113
30
0
41
1
10
18.6410489738628
20
26.6120640960198
30
0
41
1
10
18.6047758820972
20
26.608619114004
30
0
41
1
10
18.5501572246839
20
26.6036825499448
30
0
41
1
10
18.4949204809177
20
26.5994346655301
30
0
41
1
10
18.3836362034951
20
26.5918553257042
30
0
41
1
10
18.3083690965349
20
26.5880212717788
30
0
41
1
10
18.1938411168124
20
26.5841468956358
30
0
41
1
10
18.155393043805
20
26.5831689747049
30
0
41
1
10
18.0973032727254
20
26.5821857673452
30
0
41
1
10
18.0778336915312
20
26.5819385142023
30
0
41
1
10
18.0389892022457
20
26.5816097525469
30
0
41
1
10
18.0196072498129
20
26.5815277490761
30
0
41
1
10
17.9228961376632
20
26.5815240368116
30
0
41
1
10
17.7694245435129
20
26.584110268167
30
0
41
1
10
17.6184277702601
20
26.5917312694547
30
0
41
1
10
17.5061358714986
20
26.5993546894979
30
0
41
1
10
17.46881010801
20
26.6022219094338
30
0
41
1
10
17.3955817251096
20
26.6085030100581
30
0
41
1
10
17.3595427989878
20
26.6119249030653
30
0
41
1
10
17.2531183644443
20
26.6230027793082
30
0
41
1
10
17.1844180034841
20
26.6314682142538
30
0
41
1
10
17.0847421275837
20
26.6457128953723
30
0
41
1
10
17.0520810775454
20
26.6507195771728
30
0
41
1
10
16.9879100751789
20
26.6612459409822
30
0
41
1
10
16.9563157625791
20
26.6667833943611
30
0
41
1
10
16.8645973188877
20
26.6839169371751
30
0
41
1
10
16.7496965369979
20
26.7082543058536
30
0
41
1
10
16.649167632036
20
26.7352517843549
30
0
41
1
10
16.579294102085
20
26.7564288414743
30
0
41
1
10
16.5568788400374
20
26.7636606478014
30
0
41
1
10
16.5142916605768
20
26.7783102313741
30
0
41
1
10
16.4940955859081
20
26.7857330303118
30
0
41
1
10
16.475
20
26.7932469531775
30
0
0
SPLINE
5
195
100
AcDbEntity
8
1
62
256
6
ByLayer
370
18
48
1
60
0
100
AcDbSpline
70
4
71
3
72
52
73
48
40
0
40
0
40
0
40
0
40
0.0625000000000119
40
0.0625000000000119
40
0.125000000000024
40
0.125000000000024
40
0.156250000000032
40
0.156250000000032
40
0.171875000000034
40
0.171875000000034
40
0.187500000000036
40
0.187500000000036
40
0.250000000000038
40
0.31250000000004
40
0.31250000000004
40
0.32812500000004
40
0.32812500000004
40
0.343750000000041
40
0.375000000000038
40
0.375000000000038
40
0.437500000000034
40
0.437500000000034
40
0.468750000000031
40
0.468750000000031
40
0.48437500000003
40
0.48437500000003
40
0.500000000000029
40
0.500000000000029
40
0.562500000000027
40
0.625000000000025
40
0.625000000000025
40
0.656250000000024
40
0.656250000000024
40
0.687500000000023
40
0.687500000000023
40
0.75000000000002
40
0.75000000000002
40
0.781250000000018
40
0.781250000000018
40
0.812500000000015
40
0.812500000000015
40
0.87500000000001
40
0.937500000000005
40
0.937500000000005
40
0.968750000000003
40
0.968750000000003
40
1
40
1
40
1
40
1
41
1
10
16.475
20
25.3449590148056
30
0
41
1
10
16.5131913232136
20
25.3711652732471
30
0
41
1
10
16.5554551603681
20
25.3958653042828
30
0
41
1
10
16.6478009638929
20
25.4424811158632
30
0
41
1
10
16.6978839475418
20
25.4643962091644
30
0
41
1
10
16.7789435239476
20
25.4952426863963
30
0
41
1
10
16.8069557155953
20
25.5051861016711
30
0
41
1
10
16.8505015589457
20
25.5195912187657
30
0
41
1
10
16.8652488722836
20
25.524299675429
30
0
41
1
10
16.8950371680023
20
25.5334804477194
30
0
41
1
10
16.9101019245861
20
25.5379607116957
30
0
41
1
10
16.9862682240961
20
25.5598228133552
30
0
41
1
10
17.1135048019649
20
25.5913663185602
30
0
41
1
10
17.2513051323546
20
25.6163692804839
30
0
41
1
10
17.340852835611
20
25.6299381855863
30
0
41
1
10
17.3589510261372
20
25.6325504224434
30
0
41
1
10
17.3952241179028
20
25.6375302849733
30
0
41
1
10
17.4498427753161
20
25.6446479566543
30
0
41
1
10
17.5050795190823
20
25.6507300351839
30
0
41
1
10
17.6163637965048
20
25.6615483012304
30
0
41
1
10
17.691630903465
20
25.6669725279171
30
0
41
1
10
17.8061588831876
20
25.6724435910726
30
0
41
1
10
17.844606956195
20
25.6738214280777
30
0
41
1
10
17.9026967272745
20
25.6752060586707
30
0
41
1
10
17.9221663084688
20
25.6755540616427
30
0
41
1
10
17.9610107977543
20
25.6760167321082
30
0
41
1
10
17.9803927501871
20
25.6761320969868
30
0
41
1
10
18.0771038623368
20
25.6761373201056
30
0
41
1
10
18.2305754935628
20
25.6725048469032
30
0
41
1
10
18.3815722297399
20
25.6617247205932
30
0
41
1
10
18.4938641285014
20
25.6508445041694
30
0
41
1
10
18.53118989199
20
25.6467394195053
30
0
41
1
10
18.6044182748904
20
25.6377025181656
30
0
41
1
10
18.6404572010122
20
25.6327593219671
30
0
41
1
10
18.7468816355557
20
25.6166653236514
30
0
41
1
10
18.8155819965158
20
25.6042561692872
30
0
41
1
10
18.9152578724162
20
25.5830508746831
30
0
41
1
10
18.9479189224545
20
25.575549016392
30
0
41
1
10
19.012089924821
20
25.5596473591563
30
0
41
1
10
19.0436842374209
20
25.5512198917614
30
0
41
1
10
19.1354026811123
20
25.5249106231448
30
0
41
1
10
19.250303463002
20
25.4869421706006
30
0
41
1
10
19.350832367964
20
25.4431234668905
30
0
41
1
10
19.420705897915
20
25.4079221550004
30
0
41
1
10
19.4431211599626
20
25.3957675965109
30
0
41
1
10
19.4857083394232
20
25.3708413718896
30
0
41
1
10
19.5059044140919
20
25.3580620920832
30
0
41
1
10
19.525
20
25.3449590148056
30
0
0
SPLINE
5
196
100
AcDbEntity
8
1
62
256
6
ByLayer
370
18
48
1
60
0
100
AcDbSpline
70
4
71
3
72
52
73
48
40
0
40
0
40
0
40
0
40
0.0625000000000042
40
0.0625000000000042
40
0.125000000000008
40
0.125000000000008
40
0.15625000000001
40
0.15625000000001
40
0.171875000000012
40
0.171875000000012
40
0.187500000000013
40
0.187500000000013
40
0.250000000000023
40
0.312500000000032
40
0.312500000000032
40
0.328125000000034
40
0.328125000000034
40
0.343750000000036
40
0.375000000000037
40
0.375000000000037
40
0.437500000000038
40
0.437500000000038
40
0.468750000000039
40
0.468750000000039
40
0.484375000000039
40
0.484375000000039
40
0.50000000000004
40
0.50000000000004
40
0.562500000000035
40
0.625000000000031
40
0.625000000000031
40
0.656250000000029
40
0.656250000000029
40
0.687500000000027
40
0.687500000000027
40
0.75000000000002
40
0.75000000000002
40
0.781250000000017
40
0.781250000000017
40
0.812500000000014
40
0.812500000000014
40
0.875000000000009
40
0.937500000000003
40
0.937500000000003
40
0.968750000000002
40
0.968750000000002
40
1
40
1
40
1
40
1
41
1
10
19.525
20
24.6330018489415
30
0
41
1
10
19.4868086767864
20
24.6029358169546
30
0
41
1
10
19.4445448396319
20
24.574107817793
30
0
41
1
10
19.3521990361071
20
24.5189320063674
30
0
41
1
10
19.3021160524582
20
24.4925842033738
30
0
41
1
10
19.2210564760524
20
24.4550297117555
30
0
41
1
10
19.1930442844047
20
24.442840484803
30
0
41
1
10
19.1494984410542
20
24.42507403296
30
0
41
1
10
19.1347511277164
20
24.4192482197647
30
0
41
1
10
19.1049628319977
20
24.407855146276
30
0
41
1
10
19.0898980754139
20
24.4022780912499
30
0
41
1
10
19.0137317759039
20
24.37498723109
30
0
41
1
10
18.8864951980351
20
24.3351121137708
30
0
41
1
10
18.7486948676454
20
24.3028998241525
30
0
41
1
10
18.659147164389
20
24.2853079648736
30
0
41
1
10
18.6410489738628
20
24.281914745179
30
0
41
1
10
18.6047758820972
20
24.2754355517906
30
0
41
1
10
18.5501572246839
20
24.2661584169125
30
0
41
1
10
18.4949204809177
20
24.2581926367261
30
0
41
1
10
18.3836362034951
20
24.2439931663242
30
0
41
1
10
18.3083690965349
20
24.2368296797943
30
0
41
1
10
18.1938411168124
20
24.2295949600805
30
0
41
1
10
18.155393043805
20
24.227770109792
30
0
41
1
10
18.0973032727254
20
24.2259356579508
30
0
41
1
10
18.0778336915312
20
24.2254744169782
30
0
41
1
10
18.0389892022457
20
24.2248611467294
30
0
41
1
10
18.0196072498129
20
24.2247081938296
30
0
41
1
10
17.9228961376632
20
24.2247012694728
30
0
41
1
10
17.7694245064372
20
24.2295227715185
30
0
41
1
10
17.6184277702601
20
24.2437610154095
30
0
41
1
10
17.5061358714986
20
24.2580426789365
30
0
41
1
10
17.46881010801
20
24.2634193199654
30
0
41
1
10
17.3955817251096
20
24.2752154189338
30
0
41
1
10
17.3595427989878
20
24.2816498646922
30
0
41
1
10
17.2531183644443
20
24.3025170714156
30
0
41
1
10
17.1844180034841
20
24.3185076984971
30
0
41
1
10
17.0847421275837
20
24.3455454031746
30
0
41
1
10
17.0520810775454
20
24.3550681113061
30
0
41
1
10
16.9879100751789
20
24.375141223827
30
0
41
1
10
16.9563157625791
20
24.3857258475955
30
0
41
1
10
16.8645973188877
20
24.4185698782696
30
0
41
1
10
16.7496965369979
20
24.4654633962902
30
0
41
1
10
16.649167632036
20
24.518165950319
30
0
41
1
10
16.579294102085
20
24.5598397711828
30
0
41
1
10
16.5568788400374
20
24.5741247662304
30
0
41
1
10
16.5142916605768
20
24.6031845333263
30
0
41
1
10
16.4940955859082
20
24.6179688925416
30
0
41
1
10
16.475
20
24.6330018489415
30
0
0
SPLINE
5
197
100
AcDbEntity
8
1
62
256
6
ByLayer
370
18
48
1
60
0
100
AcDbSpline
70
4
71
3
72
52
73
48
40
0
40
0
40
0
40
0
40
0.0625000000000151
40
0.0625000000000151
40
0.12500000000003
40
0.12500000000003
40
0.156250000000037
40
0.156250000000037
40
0.171875000000041
40
0.171875000000041
40
0.187500000000045
40
0.187500000000045
40
0.250000000000052
40
0.312500000000059
40
0.312500000000059
40
0.32812500000006
40
0.32812500000006
40
0.343750000000062
40
0.375000000000061
40
0.375000000000061
40
0.437500000000059
40
0.437500000000059
40
0.468750000000058
40
0.468750000000058
40
0.484375000000058
40
0.484375000000058
40
0.500000000000057
40
0.500000000000057
40
0.56250000000005
40
0.625000000000043
40
0.625000000000043
40
0.65625000000004
40
0.65625000000004
40
0.687500000000036
40
0.687500000000036
40
0.750000000000029
40
0.750000000000029
40
0.781250000000026
40
0.781250000000026
40
0.812500000000022
40
0.812500000000022
40
0.875000000000015
40
0.937500000000007
40
0.937500000000007
40
0.968750000000004
40
0.968750000000004
40
1
40
1
40
1
40
1
41
1
10
16.475
20
22.1685182903902
30
0
41
1
10
16.5131913232136
20
22.208618498079
30
0
41
1
10
16.5554551603681
20
22.246565489362
30
0
41
1
10
16.6478009638929
20
22.3184199730794
30
0
41
1
10
16.6978839475418
20
22.3523266549284
30
0
41
1
10
16.7789435239476
20
22.4001968322483
30
0
41
1
10
16.8069557155953
20
22.4156536859763
30
0
41
1
10
16.8505015589457
20
22.4380795186072
30
0
41
1
10
16.8652488722836
20
22.4454154015669
30
0
41
1
10
16.8950371680023
20
22.4597296556158
30
0
41
1
10
16.9101019245861
20
22.4667203980956
30
0
41
1
10
16.9862682240961
20
22.5008565035102
30
0
41
1
10
17.1135048019649
20
22.5502637100461
30
0
41
1
10
17.2513051323546
20
22.5896135586987
30
0
41
1
10
17.340852835611
20
22.6110025859927
30
0
41
1
10
17.3589510261372
20
22.6151223346733
30
0
41
1
10
17.3952241179028
20
22.6229793035328
30
0
41
1
10
17.4498427753161
20
22.6342142954256
30
0
41
1
10
17.5050795190823
20
22.6438265279825
30
0
41
1
10
17.6163637965048
20
22.660933399357
30
0
41
1
10
17.691630903465
20
22.6695242940827
30
0
41
1
10
17.8061588831876
20
22.6781922694673
30
0
41
1
10
17.844606956195
20
22.6803761018085
30
0
41
1
10
17.9026967272745
20
22.6825708885939
30
0
41
1
10
17.9221663084688
20
22.6831225669927
30
0
41
1
10
17.9610107977543
20
22.6838560396105
30
0
41
1
10
17.9803927501871
20
22.6840389391603
30
0
41
1
10
18.0771038623368
20
22.6840472197256
30
0
41
1
10
18.2305754564871
20
22.6782863331296
30
0
41
1
10
18.3815722297399
20
22.6612125536784
30
0
41
1
10
18.4938641285014
20
22.6440074481465
30
0
41
1
10
18.53118989199
20
22.6375196459272
30
0
41
1
10
18.6044182748904
20
22.6232498204411
30
0
41
1
10
18.6404572010122
20
22.6154497868068
30
0
41
1
10
18.7468816355557
20
22.5900798908586
30
0
41
1
10
18.8155819965158
20
22.5705492097923
30
0
41
1
10
18.9152578724162
20
22.5372633558704
30
0
41
1
10
18.9479189224545
20
22.5255008688547
30
0
41
1
10
19.012089924821
20
22.500602659289
30
0
41
1
10
19.0436842374209
20
22.48742383331
30
0
41
1
10
19.1354026811123
20
22.4463432722842
30
0
41
1
10
19.2503034630021
20
22.3872139008386
30
0
41
1
10
19.350832367964
20
22.3194118838389
30
0
41
1
10
19.420705897915
20
22.2651492822547
30
0
41
1
10
19.4431211599626
20
22.2464454108727
30
0
41
1
10
19.4857083394232
20
22.2081608840431
30
0
41
1
10
19.5059044140919
20
22.1885683147524
30
0
41
1
10
19.525
20
22.1685182903902
30
0
0
SPLINE
5
198
100
AcDbEntity
8
1
62
256
6
ByLayer
370
18
48
1
60
0
100
AcDbSpline
70
4
71
3
72
32
73
28
40
0
40
0
40
0
40
0
40
0.125000000000002
40
0.125000000000002
40
0.250000000000004
40
0.250000000000004
40
0.281250000000004
40
0.281250000000004
40
0.312500000000004
40
0.312500000000004
40
0.375
40
0.375
40
0.499999999999992
40
0.499999999999992
40
0.56249999999999
40
0.56249999999999
40
0.593749999999991
40
0.593749999999991
40
0.624999999999992
40
0.624999999999992
40
0.749999999999994
40
0.749999999999994
40
0.874999999999996
40
0.874999999999996
40
0.937499999999998
40
0.937499999999998
40
1
40
1
40
1
40
1
41
1
10
16.475
20
21.1115331408446
30
0
41
1
10
16.4377742277507
20
21.1538775296866
30
0
41
1
10
16.4054459522828
20
21.200838332596
30
0
41
1
10
16.3497248646307
20
21.2993093819061
30
0
41
1
10
16.3263406077045
20
21.3508806922864
30
0
41
1
10
16.3026611933048
20
21.4161519086275
30
0
41
1
10
16.2982045468113
20
21.4292477138106
30
0
41
1
10
16.2898554507283
20
21.455473532548
30
0
41
1
10
16.2859594838726
20
21.4686193751549
30
0
41
1
10
16.2751999690725
20
21.5077667562005
30
0
41
1
10
16.2692366123242
20
21.5335517665318
30
0
41
1
10
16.2549058741041
20
21.6094617601546
30
0
41
1
10
16.2500826417254
20
21.6580701023619
30
0
41
1
10
16.24996025175
20
21.7269795525294
30
0
41
1
10
16.2511087461828
20
21.7492991797791
30
0
41
1
10
16.2546516605169
20
21.7818472878892
30
0
41
1
10
16.2561362275498
20
21.79254269297
30
0
41
1
10
16.2597214521259
20
21.8136474324661
30
0
41
1
10
16.2618259730673
20
21.824067405485
30
0
41
1
10
16.2738045976031
20
21.8751130477694
30
0
41
1
10
16.2880619456723
20
21.9128898476825
30
0
41
1
10
16.3256562265586
20
21.9859090225324
30
0
41
1
10
16.3489914527215
20
22.0211465682343
30
0
41
1
10
16.3911560454333
20
22.0751383411964
30
0
41
1
10
16.4063717963254
20
22.0932750563104
30
0
41
1
10
16.438992387945
20
22.1301973514886
30
0
41
1
10
16.4564203261801
20
22.1490099645129
30
0
41
1
10
16.4749999999985
20
22.1685182903894
30
0
0
SPLINE
5
199
100
AcDbEntity
8
1
62
256
6
ByLayer
370
18
48
1
60
0
100
AcDbSpline
70
4
71
3
72
32
73
28
40
0
40
0
40
0
40
0
40
0.125000000000016
40
0.125000000000016
40
0.250000000000031
40
0.250000000000031
40
0.281250000000033
40
0.281250000000033
40
0.312500000000034
40
0.312500000000034
40
0.375000000000035
40
0.375000000000035
40
0.500000000000036
40
0.500000000000036
40
0.562500000000037
40
0.562500000000037
40
0.593750000000036
40
0.593750000000036
40
0.625000000000035
40
0.625000000000035
40
0.750000000000026
40
0.750000000000026
40
0.875000000000016
40
0.875000000000016
40
0.937500000000008
40
0.937500000000008
40
1
40
1
40
1
40
1
41
1
10
16.475
20
24.6330018489415
30
0
41
1
10
16.4377742277507
20
24.6623077531367
30
0
41
1
10
16.4054459522828
20
24.6965627445414
30
0
41
1
10
16.3497248646307
20
24.7694444079974
30
0
41
1
10
16.3263406077045
20
24.8081434631318
30
0
41
1
10
16.3026611933048
20
24.8568048447345
30
0
41
1
10
16.2982045468113
20
24.8665527438494
30
0
41
1
10
16.2898554507283
20
24.8860202573833
30
0
41
1
10
16.2859594838726
20
24.8957514255025
30
0
41
1
10
16.2751999690725
20
24.9246165869179
30
0
41
1
10
16.2692366123242
20
24.9434759940694
30
0
41
1
10
16.2549058741041
20
24.9983133881108
30
0
41
1
10
16.2500826417254
20
25.0324672039518
30
0
41
1
10
16.24996025175
20
25.0789173031414
30
0
41
1
10
16.2511087461828
20
25.093623667495
30
0
41
1
10
16.2546516605169
20
25.1145684586721
30
0
41
1
10
16.2561362275498
20
25.1213657277478
30
0
41
1
10
16.2597214521259
20
25.1346169866617
30
0
41
1
10
16.2618259730674
20
25.1410772085035
30
0
41
1
10
16.2738045976031
20
25.172357668224
30
0
41
1
10
16.2880619456723
20
25.1943030042349
30
0
41
1
10
16.3256562265586
20
25.2360046748196
30
0
41
1
10
16.3489914527215
20
25.255755519181
30
0
41
1
10
16.3911560454333
20
25.2871418463524
30
0
41
1
10
16.4063717963254
20
25.2978724321412
30
0
41
1
10
16.438992387945
20
25.3203995923332
30
0
41
1
10
16.4564203261801
20
25.3322099479255
30
0
41
1
10
16.4749999999985
20
25.3449590148044
30
0
0
SPLINE
5
19A
100
AcDbEntity
8
1
62
256
6
ByLayer
370
18
48
1
60
0
100
AcDbSpline
70
4
71
3
72
32
73
28
40
0
40
0
40
0
40
0
40
0.125000000000007
40
0.125000000000007
40
0.250000000000013
40
0.250000000000013
40
0.281250000000014
40
0.281250000000014
40
0.312500000000015
40
0.312500000000015
40
0.375000000000015
40
0.375000000000015
40
0.500000000000013
40
0.500000000000013
40
0.562500000000011
40
0.562500000000011
40
0.593750000000011
40
0.593750000000011
40
0.62500000000001
40
0.62500000000001
40
0.750000000000008
40
0.750000000000008
40
0.875000000000005
40
0.875000000000005
40
0.937500000000002
40
0.937500000000002
40
1
40
1
40
1
40
1
41
1
10
16.475
20
26.7932469531775
30
0
41
1
10
16.4377742277507
20
26.8078949237945
30
0
41
1
10
16.4054459522828
20
26.827551167416
30
0
41
1
10
16.3497248646307
20
26.8708159926922
30
0
41
1
10
16.3263406077045
20
26.8945042766329
30
0
41
1
10
16.3026611933048
20
26.9238667878026
30
0
41
1
10
16.2982045468113
20
26.9297281103922
30
0
41
1
10
16.2898554507283
20
26.9413615408255
30
0
41
1
10
16.2859594838726
20
26.9471402885575
30
0
41
1
10
16.2751999690725
20
26.9641281369275
30
0
41
1
10
16.2692366123242
20
26.9750197670575
30
0
41
1
10
16.2549058741041
20
27.0057542383923
30
0
41
1
10
16.2500826417254
20
27.0235661825663
30
0
41
1
10
16.24996025175
20
27.0449900909016
30
0
41
1
10
16.2511087461828
20
27.0512705163237
30
0
41
1
10
16.2546516605169
20
27.0594545780728
30
0
41
1
10
16.2561362275498
20
27.0619780929721
30
0
41
1
10
16.2597214521259
20
27.0666436046266
30
0
41
1
10
16.2618259730673
20
27.0687870824038
30
0
41
1
10
16.2738045976031
20
27.0785737963763
30
0
41
1
10
16.2880619456723
20
27.0834749657232
30
0
41
1
10
16.3256562265586
20
27.0915546910871
30
0
41
1
10
16.3489914527215
20
27.0947273993041
30
0
41
1
10
16.3911560454333
20
27.1017738672485
30
0
41
1
10
16.4063717963254
20
27.104505349833
30
0
41
1
10
16.438992387945
20
27.1113925205802
30
0
41
1
10
16.4564203261801
20
27.1155479766103
30
0
41
1
10
16.4749999999985
20
27.1208332690261
30
0
0
SPLINE
5
19B
100
AcDbEntity
8
1
62
256
6
ByLayer
370
18
48
1
60
0
100
AcDbSpline
70
4
71
3
72
40
73
36
40
0
40
0
40
0
40
0
40
0.015624999999998
40
0.015624999999998
40
0.0312499999999959
40
0.0312499999999959
40
0.0468749999999939
40
0.0468749999999939
40
0.0624999999999919
40
0.0624999999999919
40
0.0781249999999898
40
0.0781249999999898
40
0.0937499999999878
40
0.0937499999999878
40
0.124999999999987
40
0.124999999999987
40
0.156249999999986
40
0.156249999999986
40
0.187499999999986
40
0.187499999999986
40
0.249999999999986
40
0.249999999999986
40
0.312499999999986
40
0.312499999999986
40
0.374999999999987
40
0.374999999999987
40
0.437499999999987
40
0.437499999999987
40
0.499999999999987
40
0.499999999999987
40
0.624999999999991
40
0.624999999999991
40
0.749999999999995
40
0.749999999999995
40
1
40
1
40
1
40
1
41
1
10
16.475
20
7.6102315996298
30
0
41
1
10
16.4673226919548
20
7.6102315996298
30
0
41
1
10
16.4596313914733
20
7.61103358484917
30
0
41
1
10
16.4443522436319
20
7.61421086120183
30
0
41
1
10
16.4369772923286
20
7.6165337819015
30
0
41
1
10
16.4226671530005
20
7.62239989121719
30
0
41
1
10
16.4156891178927
20
7.6259750903518
30
0
41
1
10
16.4024395960546
20
7.63395033809329
30
0
41
1
10
16.3961337977332
20
7.63835570952762
30
0
41
1
10
16.3840205954806
20
7.64781920304404
30
0
41
1
10
16.3782140529183
20
7.65287845326694
30
0
41
1
10
16.367007662028
20
7.66352960401963
30
0
41
1
10
16.36160864823
20
7.66912552665158
30
0
41
1
10
16.3461431413253
20
7.68631676763448
30
0
41
1
10
16.3367000188149
20
7.69839665021541
30
0
41
1
10
16.3189863257432
20
7.72339343283414
30
0
41
1
10
16.3107230075455
20
7.73631550991769
30
0
41
1
10
16.2950782779869
20
7.76278920669768
30
0
41
1
10
16.2876895460749
20
7.77636712554127
30
0
41
1
10
16.2667934397999
20
7.81739135615541
30
0
41
1
10
16.2544360687866
20
7.84527283073453
30
0
41
1
10
16.2317610364963
20
7.90172544761296
30
0
41
1
10
16.2214615373228
20
7.93030273089218
30
0
41
1
10
16.2023941560713
20
7.98797516862211
30
0
41
1
10
16.1936321375887
20
8.01707230567476
30
0
41
1
10
16.1773412140386
20
8.07568352073122
30
0
41
1
10
16.1698146974544
20
8.10519840633035
30
0
41
1
10
16.1558069562401
20
8.16458161218947
30
0
41
1
10
16.1493205605639
20
8.19448609819014
30
0
41
1
10
16.1313301316801
20
8.28421326012096
30
0
41
1
10
16.1212477874993
20
8.3441620344671
30
0
41
1
10
16.104194130089
20
8.46427227216267
30
0
41
1
10
16.0972316710736
20
8.52443434084006
30
0
41
1
10
16.080563853804
20
8.70520902165015
30
0
41
1
10
16.075
20
8.82610477222394
30
0
41
1
10
16.075
20
8.94738090169409
30
0
0
SPLINE
5
19C
100
AcDbEntity
8
1
62
256
6
ByLayer
370
18
48
1
60
0
100
AcDbSpline
70
4
71
3
72
52
73
48
40
0
40
0
40
0
40
0
40
0.0625000000000044
40
0.0625000000000044
40
0.125000000000009
40
0.125000000000009
40
0.156250000000012
40
0.156250000000012
40
0.171875000000013
40
0.171875000000013
40
0.187500000000014
40
0.187500000000014
40
0.25000000000002
40
0.312500000000027
40
0.312500000000027
40
0.328125000000028
40
0.328125000000028
40
0.343750000000029
40
0.375000000000027
40
0.375000000000027
40
0.437500000000024
40
0.437500000000024
40
0.468750000000023
40
0.468750000000023
40
0.484375000000022
40
0.484375000000022
40
0.500000000000022
40
0.500000000000022
40
0.562500000000022
40
0.625000000000022
40
0.625000000000022
40
0.656250000000022
40
0.656250000000022
40
0.687500000000022
40
0.687500000000022
40
0.75000000000002
40
0.75000000000002
40
0.781250000000018
40
0.781250000000018
40
0.812500000000016
40
0.812500000000016
40
0.875000000000012
40
0.937500000000008
40
0.937500000000008
40
0.968750000000004
40
0.968750000000004
40
1
40
1
40
1
40
1
41
1
10
19.525
20
21.1115331408446
30
0
41
1
10
19.4868086767864
20
21.0680904358897
30
0
41
1
10
19.4445448396319
20
21.0265686954631
30
0
41
1
10
19.3521990361071
20
20.947301399635
30
0
41
1
10
19.3021160524582
20
20.9095560677061
30
0
41
1
10
19.2210564760524
20
20.8558768657156
30
0
41
1
10
19.1930442844046
20
20.83847517784
30
0
41
1
10
19.1494984410542
20
20.8131384873375
30
0
41
1
10
19.1347511277164
20
20.804834992908
30
0
41
1
10
19.1049628319977
20
20.7886049242081
30
0
41
1
10
19.0898980754139
20
20.7806643796111
30
0
41
1
10
19.0137317759039
20
20.7418270630417
30
0
41
1
10
18.8864951980351
20
20.685204824228
30
0
41
1
10
18.7486948676454
20
20.6396118222332
30
0
41
1
10
18.6591471643889
20
20.6147389860631
30
0
41
1
10
18.6410489738628
20
20.6099429197259
30
0
41
1
10
18.6047758820972
20
20.6007875562231
30
0
41
1
10
18.5501572246839
20
20.5876825064764
30
0
41
1
10
18.4949204809177
20
20.5764390207995
30
0
41
1
10
18.3836362034951
20
20.5564040848168
30
0
41
1
10
18.3083690965349
20
20.5463070210884
30
0
41
1
10
18.1938411168124
20
20.5361117495671
30
0
41
1
10
18.155393043805
20
20.5335408114385
30
0
41
1
10
18.0973032727254
20
20.5309564872165
30
0
41
1
10
18.0778336915312
20
20.5303067466639
30
0
41
1
10
18.0389892022457
20
20.5294428572332
30
0
41
1
10
18.0196072498129
20
20.5292274071059
30
0
41
1
10
17.9228961376632
20
20.5292176532978
30
0
41
1
10
17.7694245064372
20
20.5360079587471
30
0
41
1
10
17.6184277702601
20
20.5560766679334
30
0
41
1
10
17.5061358714986
20
20.5762273679438
30
0
41
1
10
17.46881010801
20
20.5838163160265
30
0
41
1
10
17.3955817251096
20
20.6004755590322
30
0
41
1
10
17.3595427989878
20
20.6095669890447
30
0
41
1
10
17.2531183644443
20
20.639070401083
30
0
41
1
10
17.1844180034841
20
20.6617025757021
30
0
41
1
10
17.0847421275837
20
20.7000391960735
30
0
41
1
10
17.0520810775455
20
20.7135517041687
30
0
41
1
10
16.9879100751789
20
20.7420623220073
30
0
41
1
10
16.9563157625791
20
20.757109208171
30
0
41
1
10
16.8645973188877
20
20.803848760341
30
0
41
1
10
16.7496965369979
20
20.8707070844324
30
0
41
1
10
16.649167632036
20
20.9462023624627
30
0
41
1
10
16.579294102085
20
21.0060700450952
30
0
41
1
10
16.5568788400374
20
21.0266188377626
30
0
41
1
10
16.5142916605768
20
21.0684829410257
30
0
41
1
10
16.4940955859081
20
21.0898118744745
30
0
41
1
10
16.475
20
21.1115331408446
30
0
0
SPLINE
5
19D
100
AcDbEntity
8
1
62
256
6
ByLayer
370
18
48
1
60
0
100
AcDbSpline
70
4
71
3
72
41
73
37
40
0
40
0
40
0
40
0
40
0.0156249999999916
40
0.0156249999999916
40
0.0234374999999874
40
0.0234374999999874
40
0.0312499999999832
40
0.0468749999999807
40
0.0468749999999807
40
0.0624999999999782
40
0.0624999999999782
40
0.0937499999999742
40
0.0937499999999742
40
0.109374999999972
40
0.109374999999972
40
0.12499999999997
40
0.12499999999997
40
0.187499999999969
40
0.187499999999969
40
0.24999999999997
40
0.24999999999997
40
0.31249999999997
40
0.31249999999997
40
0.374999999999971
40
0.374999999999971
40
0.499999999999978
40
0.499999999999978
40
0.624999999999984
40
0.624999999999984
40
0.749999999999991
40
0.749999999999991
40
0.874999999999997
40
0.874999999999997
40
0.937499999999999
40
0.937499999999999
40
1
40
1
40
1
40
1
41
1
10
19.5249999999999
20
-7.6102315996296
30
0
41
1
10
19.5327024693616
20
-7.6102315996296
30
0
41
1
10
19.5403499375636
20
-7.61103410581501
30
0
41
1
10
19.5517417352149
20
-7.61339643564898
30
0
41
1
10
19.5555389622455
20
-7.61438303764569
30
0
41
1
10
19.5629467216247
20
-7.61667947511052
30
0
41
1
10
19.5738357169481
20
-7.62061761781715
30
0
41
1
10
19.5841291181374
20
-7.62587588595315
30
0
41
1
10
19.5974172425026
20
-7.63385420755566
30
0
41
1
10
19.6038132044863
20
-7.63831659750602
30
0
41
1
10
19.6220238572668
20
-7.65253689560296
30
0
41
1
10
19.6330616978773
20
-7.66321812538726
30
0
41
1
10
19.6485474404334
20
-7.6804066058661
30
0
41
1
10
19.6535386937919
20
-7.68635312220979
30
0
41
1
10
19.6631054971761
20
-7.69844289168753
30
0
41
1
10
19.6676931737667
20
-7.70459789849571
30
0
41
1
10
19.6898281317934
20
-7.73582496865617
30
0
41
1
10
19.7050613891478
20
-7.76219898622028
30
0
41
1
10
19.7327804518613
20
-7.81649283788752
30
0
41
1
10
19.7452338963722
20
-7.84449196198281
30
0
41
1
10
19.7681114975808
20
-7.90136811316489
30
0
41
1
10
19.778450296592
20
-7.93005011121824
30
0
41
1
10
19.7975412774733
20
-7.98776593550619
30
0
41
1
10
19.8062863087924
20
-8.01680134735662
30
0
41
1
10
19.8306324142891
20
-8.10432646113463
30
0
41
1
10
19.8443712784708
20
-8.16322910323458
30
0
41
1
10
19.8682330833853
20
-8.28183620895624
30
0
41
1
10
19.8783333135742
20
-8.34154570858132
30
0
41
1
10
19.8954778619715
20
-8.4616423482818
30
0
41
1
10
19.9025205311075
20
-8.52209474896756
30
0
41
1
10
19.9137604894845
20
-8.64331563626851
30
0
41
1
10
19.9179523889072
20
-8.70401289008936
30
0
41
1
10
19.9221674874787
20
-8.79518476926532
30
0
41
1
10
19.9232255222331
20
-8.82559648899195
30
0
41
1
10
19.9246418186499
20
-8.88646246628014
30
0
41
1
10
19.925
20
-8.91695840044605
30
0
41
1
10
19.925
20
-8.94738090169406
30
0
0
SPLINE
5
19E
100
AcDbEntity
8
1
62
256
6
ByLayer
370
18
48
1
60
0
100
AcDbSpline
70
4
71
3
72
43
73
39
40
0
40
0
40
0
40
0
40
0.0312499999999988
40
0.0468749999999964
40
0.0468749999999964
40
0.062499999999994
40
0.062499999999994
40
0.124999999999992
40
0.124999999999992
40
0.249999999999991
40
0.249999999999991
40
0.37499999999999
40
0.37499999999999
40
0.499999999999989
40
0.499999999999989
40
0.56249999999999
40
0.56249999999999
40
0.624999999999991
40
0.624999999999991
40
0.687499999999992
40
0.687499999999992
40
0.749999999999993
40
0.749999999999993
40
0.812499999999994
40
0.812499999999994
40
0.874999999999995
40
0.874999999999995
40
0.906249999999996
40
0.906249999999996
40
0.937499999999997
40
0.937499999999997
40
0.953124999999997
40
0.953124999999997
40
0.968749999999998
40
0.968749999999998
40
0.984374999999999
40
0.984374999999999
40
1
40
1
40
1
40
1
41
1
10
16.075
20
-8.94738090169409
30
0
41
1
10
16.075
20
-8.93202653026455
30
0
41
1
10
16.0751365849994
20
-8.9089905780553
30
0
41
1
10
16.0754758626392
20
-8.88594810355355
30
0
41
1
10
16.075746932848
20
-8.87058500956167
30
0
41
1
10
16.0759038171723
20
-8.86296042153916
30
0
41
1
10
16.0767949927214
20
-8.82493954363983
30
0
41
1
10
16.0778568492287
20
-8.79456790066482
30
0
41
1
10
16.0820758084386
20
-8.70358642464188
30
0
41
1
10
16.0862603584563
20
-8.64310927709255
30
0
41
1
10
16.0974385364549
20
-8.52251774892571
30
0
41
1
10
16.1044294596705
20
-8.4624030190123
30
0
41
1
10
16.1215043578533
20
-8.34257299875557
30
0
41
1
10
16.1315802635743
20
-8.2828566663423
30
0
41
1
10
16.149500500301
20
-8.19364458599722
30
0
41
1
10
16.1559450263736
20
-8.16396806595893
30
0
41
1
10
16.1699258291671
20
-8.10475601557295
30
0
41
1
10
16.177476711478
20
-8.07516461587494
30
0
41
1
10
16.1938123009322
20
-8.01645614452735
30
0
41
1
10
16.2025867216863
20
-7.9873593183479
30
0
41
1
10
16.2216379573908
20
-7.92980317660204
30
0
41
1
10
16.2319096812842
20
-7.90134170074845
30
0
41
1
10
16.2544451397652
20
-7.84526401851991
30
0
41
1
10
16.266693779869
20
-7.81764140710573
30
0
41
1
10
16.2941410840467
20
-7.76364796732767
30
0
41
1
10
16.3092748695163
20
-7.73724960903922
30
0
41
1
10
16.3359747367858
20
-7.6993490466607
30
0
41
1
10
16.3455942657686
20
-7.6869879140435
30
0
41
1
10
16.3661741450819
20
-7.6639928447172
30
0
41
1
10
16.3771818775179
20
-7.6532545283018
30
0
41
1
10
16.3953646244701
20
-7.63891464778013
30
0
41
1
10
16.4017075287816
20
-7.63443295047963
30
0
41
1
10
16.4151449121745
20
-7.6262645057534
30
0
41
1
10
16.4221338200381
20
-7.62265111554476
30
0
41
1
10
16.4365565353214
20
-7.61667575179197
30
0
41
1
10
16.4440715350419
20
-7.61428448761549
30
0
41
1
10
16.4594812495918
20
-7.611049973755
30
0
41
1
10
16.4672221589506
20
-7.61023159962963
30
0
41
1
10
16.475
20
-7.61023159962963
30
0
0
SPLINE
5
19F
100
AcDbEntity
8
1
62
256
6
ByLayer
370
18
48
1
60
0
100
AcDbSpline
70
4
71
3
72
47
73
43
40
0
40
0
40
0
40
0
40
0.0625
40
0.0625
40
0.125
40
0.125
40
0.1875
40
0.1875
40
0.25
40
0.25
40
0.3125
40
0.3125
40
0.375
40
0.375
40
0.4375
40
0.4375
40
0.46875
40
0.46875
40
0.5
40
0.5
40
0.50390625
40
0.50390625
40
0.5078125
40
0.5078125
40
0.515625
40
0.53125
40
0.53125
40
0.5625
40
0.5625
40
0.625
40
0.625
40
0.6875
40
0.6875
40
0.75
40
0.75
40
0.875
40
0.875
40
0.9375
40
0.9375
40
0.96875
40
0.96875
40
1
40
1
40
1
40
1
41
1
10
25.95
20
6.75296231294089
30
0
41
1
10
25.95
20
6.47409294377451
30
0
41
1
10
25.9570952739397
20
6.19534420859108
30
0
41
1
10
25.9813416951387
20
5.63801770837429
30
0
41
1
10
25.9985231008528
20
5.35944045779581
30
0
41
1
10
26.0398624962686
20
4.8024045726529
30
0
41
1
10
26.0640379551167
20
4.52394623509926
30
0
41
1
10
26.1165706114058
20
3.96710065799135
30
0
41
1
10
26.1449434197019
20
3.68870778530078
30
0
41
1
10
26.2028914229431
20
3.13208108909723
30
0
41
1
10
26.232484501965
20
2.85381508958326
30
0
41
1
10
26.2893289033437
20
2.29710398714943
30
0
41
1
10
26.3165838654074
20
2.01865916260343
30
0
41
1
10
26.3642555441594
20
1.46124650740427
30
0
41
1
10
26.3846245440938
20
1.18227502725443
30
0
41
1
10
26.406326258514
20
0.763140800339841
30
0
41
1
10
26.4120859800701
20
0.623316642146705
30
0
41
1
10
26.4202019522252
20
0.343408019790331
30
0
41
1
10
26.42255503291
20
0.203323313184143
30
0
41
1
10
26.4231632316226
20
0.0455720691285251
30
0
41
1
10
26.4232026749922
20
0.0280420013433798
30
0
41
1
10
26.423225198714
20
-0.0070224450114154
30
0
41
1
10
26.4232079815569
20
-0.0249503520947485
30
0
41
1
10
26.4230683350661
20
-0.0783876834605621
30
0
41
1
10
26.4224403223967
20
-0.185243868610144
30
0
41
1
10
26.4207703498181
20
-0.292044843513878
30
0
41
1
10
26.4160800393637
20
-0.505575241623944
30
0
41
1
10
26.4111454969339
20
-0.647833057563076
30
0
41
1
10
26.3915389191457
20
-1.07435201182881
30
0
41
1
10
26.3720457181202
20
-1.3583576914381
30
0
41
1
10
26.3252281903494
20
-1.92595410342827
30
0
41
1
10
26.2979663033977
20
-2.20955144435737
30
0
41
1
10
26.2406146591159
20
-2.77641756867757
30
0
41
1
10
26.2105210193592
20
-3.05972578019765
30
0
41
1
10
26.1217660932896
20
-3.90978479115844
30
0
41
1
10
26.0646695949435
20
-4.47667338320156
30
0
41
1
10
26.0005023557216
20
-5.32889754460504
30
0
41
1
10
25.9826552119117
20
-5.61328416200715
30
0
41
1
10
25.9637218967097
20
-6.04055423644735
30
0
41
1
10
25.9587240515654
20
-6.1830589610189
30
0
41
1
10
25.9518646186138
20
-6.4680073140326
30
0
41
1
10
25.95
20
-6.61048357299433
30
0
41
1
10
25.95
20
-6.75296231294089
30
0
0
SPLINE
5
1A0
100
AcDbEntity
8
1
62
256
6
ByLayer
370
18
48
1
60
0
100
AcDbSpline
70
4
71
3
72
32
73
28
40
0
40
0
40
0
40
0
40
0.124999999999992
40
0.124999999999992
40
0.249999999999985
40
0.249999999999985
40
0.281249999999984
40
0.281249999999984
40
0.312499999999983
40
0.312499999999983
40
0.374999999999983
40
0.374999999999983
40
0.499999999999982
40
0.499999999999982
40
0.562499999999982
40
0.562499999999982
40
0.593749999999982
40
0.593749999999982
40
0.624999999999982
40
0.624999999999982
40
0.749999999999988
40
0.749999999999988
40
0.874999999999995
40
0.874999999999995
40
0.937499999999997
40
0.937499999999997
40
1
40
1
40
1
40
1
41
1
10
19.525
20
27.1208332690275
30
0
41
1
10
19.5622257722493
20
27.1102437886272
30
0
41
1
10
19.5945540477172
20
27.1041708178686
30
0
41
1
10
19.6502751353693
20
27.094841269757
30
0
41
1
10
19.6736593922955
20
27.0916668022928
30
0
41
1
10
19.6973388066952
20
27.0866207506159
30
0
41
1
10
19.7017954531887
20
27.0855586608656
30
0
41
1
10
19.7101445492718
20
27.0832579448407
30
0
41
1
10
19.7140405161275
20
27.0820172954398
30
0
41
1
10
19.7248000309276
20
27.0779555911893
30
0
41
1
10
19.7307633876759
20
27.0747854427417
30
0
41
1
10
19.7450941258959
20
27.0632416237393
30
0
41
1
10
19.7499173582746
20
27.0527432530066
30
0
41
1
10
19.7500397482501
20
27.0314980826331
30
0
41
1
10
19.7488912538173
20
27.0235217432637
30
0
41
1
10
19.7453483394831
20
27.010270042848
30
0
41
1
10
19.7438637724502
20
27.0056398834211
30
0
41
1
10
19.7402785478741
20
26.9959813812545
30
0
41
1
10
19.7381740269327
20
26.9909467221946
30
0
41
1
10
19.7261954023969
20
26.9650961650185
30
0
41
1
10
19.7119380543277
20
26.9420726020337
30
0
41
1
10
19.6743437734414
20
26.8952530799975
30
0
41
1
10
19.6510085472785
20
26.8714513844216
30
0
41
1
10
19.6088439545667
20
26.8386144918302
30
0
41
1
10
19.5936282036746
20
26.8281899190856
30
0
41
1
10
19.561007612055
20
26.8091729540188
30
0
41
1
10
19.5435796738199
20
26.8005578697727
30
0
41
1
10
19.5250000000015
20
26.7932469531759
30
0
0
SPLINE
5
1A1
100
AcDbEntity
8
1
62
256
6
ByLayer
370
18
48
1
60
0
100
AcDbSpline
70
4
71
3
72
32
73
28
40
0
40
0
40
0
40
0
40
0.124999999999999
40
0.124999999999999
40
0.249999999999999
40
0.249999999999999
40
0.281249999999998
40
0.281249999999998
40
0.312499999999997
40
0.312499999999997
40
0.374999999999999
40
0.374999999999999
40
0.499999999999998
40
0.499999999999998
40
0.562499999999997
40
0.562499999999997
40
0.593749999999997
40
0.593749999999997
40
0.624999999999998
40
0.624999999999998
40
0.749999999999997
40
0.749999999999997
40
0.874999999999996
40
0.874999999999996
40
0.937499999999998
40
0.937499999999998
40
1
40
1
40
1
40
1
41
1
10
19.525
20
25.3449590148056
30
0
41
1
10
19.5622257722493
20
25.3194153015701
30
0
41
1
10
19.5945540477172
20
25.2977519054731
30
0
41
1
10
19.6502751353693
20
25.2563279975244
30
0
41
1
10
19.6736593922955
20
25.2366451013006
30
0
41
1
10
19.6973388066952
20
25.2105249010716
30
0
41
1
10
19.7017954531887
20
25.2052258559486
30
0
41
1
10
19.7101445492718
20
25.1944097009008
30
0
41
1
10
19.7140405161275
20
25.1888853169808
30
0
41
1
10
19.7248000309276
20
25.1720025972996
30
0
41
1
10
19.7307633876759
20
25.1603009475975
30
0
41
1
10
19.7450941258959
20
25.1232531489136
30
0
41
1
10
19.7499173582746
20
25.0958789625443
30
0
41
1
10
19.7500397482501
20
25.0495945521474
30
0
41
1
10
19.7488912538173
20
25.0333160878797
30
0
41
1
10
19.7453483394831
20
25.0076736324579
30
0
41
1
10
19.7438637724502
20
24.9989235192026
30
0
41
1
10
19.7402785478741
20
24.9810437943411
30
0
41
1
10
19.7381740269327
20
24.9719034684447
30
0
41
1
10
19.7261954023969
20
24.9257319427237
30
0
41
1
10
19.7119380543278
20
24.886987279408
30
0
41
1
10
19.6743437734414
20
24.8093740986208
30
0
41
1
10
19.6510085472785
20
24.770500332777
30
0
41
1
10
19.6088439545667
20
24.7152064692375
30
0
41
1
10
19.5936282036746
20
24.6973444447343
30
0
41
1
10
19.561007612055
20
24.6635730532899
30
0
41
1
10
19.5435796738199
20
24.6476286547252
30
0
41
1
10
19.5250000000015
20
24.6330018489398
30
0
0
SPLINE
5
1A2
100
AcDbEntity
8
1
62
256
6
ByLayer
370
18
48
1
60
0
100
AcDbSpline
70
4
71
3
72
32
73
28
40
0
40
0
40
0
40
0
40
0.125000000000017
40
0.125000000000017
40
0.250000000000034
40
0.250000000000034
40
0.281250000000034
40
0.281250000000034
40
0.312500000000034
40
0.312500000000034
40
0.375000000000033
40
0.375000000000033
40
0.500000000000026
40
0.500000000000026
40
0.562500000000024
40
0.562500000000024
40
0.593750000000021
40
0.593750000000021
40
0.625000000000018
40
0.625000000000018
40
0.750000000000012
40
0.750000000000012
40
0.875000000000006
40
0.875000000000006
40
0.937500000000003
40
0.937500000000003
40
1
40
1
40
1
40
1
41
1
10
19.525
20
22.1685182903902
30
0
41
1
10
19.5622257722493
20
22.1294318939796
30
0
41
1
10
19.5945540477172
20
22.0933751952614
30
0
41
1
10
19.6502751353693
20
22.0221460192238
30
0
41
1
10
19.6736593922955
20
21.9870423742194
30
0
41
1
10
19.6973388066952
20
21.9412914318613
30
0
41
1
10
19.7017954531887
20
21.9320482574428
30
0
41
1
10
19.7101445492718
20
21.9133143658221
30
0
41
1
10
19.7140405161275
20
21.9038115257178
30
0
41
1
10
19.7248000309276
20
21.8750407323834
30
0
41
1
10
19.7307633876759
20
21.8554542164522
30
0
41
1
10
19.7450941258959
20
21.7949497053402
30
0
41
1
10
19.7499173582746
20
21.7522124052313
30
0
41
1
10
19.7500397482501
20
21.6834464386982
30
0
41
1
10
19.7488912538172
20
21.6597654000592
30
0
41
1
10
19.7453483394831
20
21.6231491958002
30
0
41
1
10
19.7438637724502
20
21.6107626613683
30
0
41
1
10
19.7402785478741
20
21.5856497502541
30
0
41
1
10
19.7381740269327
20
21.5729088533856
30
0
41
1
10
19.7261954023969
20
21.5089678049817
30
0
41
1
10
19.7119380543278
20
21.4566430775981
30
0
41
1
10
19.6743437734414
20
21.3525251547867
30
0
41
1
10
19.6510085472785
20
21.3007274891644
30
0
41
1
10
19.6088439545667
20
21.226032202379
30
0
41
1
10
19.5936282036746
20
21.2017197844351
30
0
41
1
10
19.561007612055
20
21.1550601790806
30
0
41
1
10
19.5435796738199
20
21.1326675562007
30
0
41
1
10
19.5250000000015
20
21.111533140843
30
0
0
SPLINE
5
1A3
100
AcDbEntity
8
1
62
256
6
ByLayer
370
18
48
1
60
0
100
AcDbSpline
70
4
71
3
72
32
73
28
40
0
40
0
40
0
40
0
40
0.250000000000005
40
0.250000000000005
40
0.375000000000005
40
0.375000000000005
40
0.500000000000006
40
0.500000000000006
40
0.562500000000006
40
0.562500000000006
40
0.625000000000005
40
0.625000000000005
40
0.687500000000005
40
0.687500000000005
40
0.750000000000005
40
0.750000000000005
40
0.812500000000004
40
0.812500000000004
40
0.875000000000004
40
0.875000000000004
40
0.906250000000003
40
0.906250000000003
40
0.937500000000002
40
0.937500000000002
40
0.968750000000001
40
0.968750000000001
40
1
40
1
40
1
40
1
41
1
10
19.925
20
8.94738090169406
30
0
41
1
10
19.925
20
8.82590112311169
30
0
41
1
10
19.9194176880974
20
8.70490826221706
30
0
41
1
10
19.9027368669201
20
8.52414358056052
30
0
41
1
10
19.8957723681701
20
8.46401117033656
30
0
41
1
10
19.8787281897428
20
8.34401807184199
30
0
41
1
10
19.8686570848438
20
8.2841566356355
30
0
41
1
10
19.8507055228471
20
8.1946126284048
30
0
41
1
10
19.8442344836365
20
8.1647666924946
30
0
41
1
10
19.8302256509177
20
8.10536010678601
30
0
41
1
10
19.8227032010589
20
8.07585475839369
30
0
41
1
10
19.8064372623681
20
8.0173106297033
30
0
41
1
10
19.7976959923051
20
7.98827100159707
30
0
41
1
10
19.7787004633519
20
7.9307698696945
30
0
41
1
10
19.7684515593262
20
7.90230631976453
30
0
41
1
10
19.7459364641737
20
7.84615004034433
30
0
41
1
10
19.7336864060722
20
7.81845114630494
30
0
41
1
10
19.7061726787183
20
7.76420488151271
30
0
41
1
10
19.6909725350733
20
7.7376189539678
30
0
41
1
10
19.6640406321409
20
7.69936185644173
30
0
41
1
10
19.6545107395917
20
7.68711376313928
30
0
41
1
10
19.6338830913966
20
7.66404834447607
30
0
41
1
10
19.6228019250377
20
7.65321588040834
30
0
41
1
10
19.598147986261
20
7.63382469038132
30
0
41
1
10
19.5849441081096
20
7.62554992982004
30
0
41
1
10
19.5558575509739
20
7.61356706972242
30
0
41
1
10
19.5407541033155
20
7.61023159962957
30
0
41
1
10
19.5249999999999
20
7.61023159962957
30
0
0
SPLINE
5
1A4
100
AcDbEntity
8
1
62
256
6
ByLayer
370
18
48
1
60
0
100
AcDbSpline
70
4
71
3
72
8
73
4
40
0
40
0
40
0
40
0
40
1
40
1
40
1
40
1
41
1
10
25.95
20
9.01749999999998
30
0
41
1
10
25.7833972320879
20
9.01749999999998
30
0
41
1
10
25.6167293283391
20
9.01749999999998
30
0
41
1
10
25.45
20
9.01749999999998
30
0
0
SPLINE
5
1A5
100
AcDbEntity
8
1
62
256
6
ByLayer
370
18
48
1
60
0
100
AcDbSpline
70
4
71
3
72
8
73
4
40
0
40
0
40
0
40
0
40
1
40
1
40
1
40
1
41
1
10
21.3746123234133
20
9.01749999999998
30
0
41
1
10
20.8899595856872
20
9.01749999999998
30
0
41
1
10
20.4066228497214
20
9.01749999999998
30
0
41
1
10
19.925
20
9.01749999999998
30
0
0
SPLINE
5
1A6
100
AcDbEntity
8
1
62
256
6
ByLayer
370
18
48
1
60
0
100
AcDbSpline
70
4
71
3
72
8
73
4
40
0
40
0
40
0
40
0
40
1
40
1
40
1
40
1
41
1
10
16.075
20
9.01749999999998
30
0
41
1
10
15.5933771502786
20
9.01749999999998
30
0
41
1
10
15.1100404143128
20
9.01749999999998
30
0
41
1
10
14.6253876765867
20
9.01749999999998
30
0
0
SPLINE
5
1A7
100
AcDbEntity
8
1
62
256
6
ByLayer
370
18
48
1
60
0
100
AcDbSpline
70
4
71
3
72
8
73
4
40
0
40
0
40
0
40
0
40
1
40
1
40
1
40
1
41
1
10
14.6253876765866
20
-9.01749999999998
30
0
41
1
10
15.1100404143128
20
-9.01749999999998
30
0
41
1
10
15.5933771502786
20
-9.01749999999998
30
0
41
1
10
16.075
20
-9.01749999999998
30
0
0
SPLINE
5
1A8
100
AcDbEntity
8
1
62
256
6
ByLayer
370
18
48
1
60
0
100
AcDbSpline
70
4
71
3
72
8
73
4
40
0
40
0
40
0
40
0
40
1
40
1
40
1
40
1
41
1
10
25.45
20
-9.01749999999998
30
0
41
1
10
25.6167293283391
20
-9.01749999999998
30
0
41
1
10
25.7833972320879
20
-9.01749999999998
30
0
41
1
10
25.95
20
-9.01749999999998
30
0
0
SPLINE
5
1A9
100
AcDbEntity
8
1
62
256
6
ByLayer
370
18
48
1
60
0
100
AcDbSpline
70
4
71
3
72
8
73
4
40
0
40
0
40
0
40
0
40
1
40
1
40
1
40
1
41
1
10
19.925
20
-9.01749999999998
30
0
41
1
10
20.4066228497214
20
-9.01749999999998
30
0
41
1
10
20.8899595856872
20
-9.01749999999998
30
0
41
1
10
21.3746123234134
20
-9.01749999999998
30
0
0
SPLINE
5
1AA
100
AcDbEntity
8
1
62
256
6
ByLayer
370
18
48
1
60
0
100
AcDbSpline
70
4
71
3
72
92
73
88
40
0
40
0
40
0
40
0
40
0.0310097353988034
40
0.0310097353988034
40
0.0622674858698101
40
0.0622674858698101
40
0.0700819234875618
40
0.0700819234875618
40
0.0778963611053137
40
0.093525236340817
40
0.093525236340817
40
0.124782986811824
40
0.156040737282831
40
0.156040737282831
40
0.171669612518334
40
0.171669612518334
40
0.179484050136086
40
0.179484050136086
40
0.187298487753838
40
0.187298487753838
40
0.218556238224844
40
0.24981398869585
40
0.24981398869585
40
0.281071739166857
40
0.281071739166857
40
0.288886176784608
40
0.288886176784608
40
0.29670061440236
40
0.312329489637863
40
0.312329489637863
40
0.34358724010887
40
0.374844990579877
40
0.374844990579877
40
0.390473865815381
40
0.390473865815381
40
0.406102741050884
40
0.406102741050884
40
0.437360491521891
40
0.468618241992898
40
0.468618241992898
40
0.484247117228401
40
0.484247117228401
40
0.492061554846153
40
0.492061554846153
40
0.499875992463905
40
0.499875992463905
40
0.531133742934913
40
0.531133742934913
40
0.56239149340592
40
0.593649243876927
40
0.593649243876927
40
0.601463681494679
40
0.601463681494679
40
0.60927811911243
40
0.60927811911243
40
0.624906994347933
40
0.624906994347933
40
0.656164744818939
40
0.687422495289945
40
0.687422495289945
40
0.703051370525447
40
0.703051370525447
40
0.710865808143199
40
0.710865808143199
40
0.71868024576095
40
0.71868024576095
40
0.749937996231955
40
0.781195746702961
40
0.781195746702961
40
0.812453497173966
40
0.812453497173966
40
0.820267934791717
40
0.820267934791717
40
0.828082372409468
40
0.843711247644971
40
0.843711247644971
40
0.874968998115977
40
0.906226748586982
40
0.906226748586982
40
0.921855623822485
40
0.921855623822485
40
0.929670061440237
40
0.929670061440237
40
0.937484499057988
40
0.937484499057988
40
0.968742249528994
40
1
40
1
40
1
40
1
41
1
10
1.97750037662224
20
-31.4699999393381
30
0
41
1
10
1.97756339062384
20
-31.4699898366915
30
0
41
1
10
1.98551484736687
20
-31.4687179705369
30
0
41
1
10
2.01730937280206
20
-31.4636671626933
30
0
41
1
10
2.04127795135661
20
-31.4598681862222
30
0
41
1
10
2.08153601650163
20
-31.453562889898
30
0
41
1
10
2.09011165266982
20
-31.4522227654335
30
0
41
1
10
2.10827168240196
20
-31.4493929592187
30
0
41
1
10
2.13696000586685
20
-31.4449341796747
30
0
41
1
10
2.16993698319737
20
-31.4398528407364
30
0
41
1
10
2.24150765554458
20
-31.4289101170974
30
0
41
1
10
2.35188687819708
20
-31.4122426878448
30
0
41
1
10
2.49176593374277
20
-31.3919367374494
30
0
41
1
10
2.60791227551185
20
-31.3755375942001
30
0
41
1
10
2.64850394072768
20
-31.3698763022901
30
0
41
1
10
2.71225980213762
20
-31.3611171139302
30
0
41
1
10
2.73400711866773
20
-31.3581506018445
30
0
41
1
10
2.77822476648203
20
-31.3521657948335
30
0
41
1
10
2.80072129528504
20
-31.3491438667888
30
0
41
1
10
2.91512268842071
20
-31.3339010395864
30
0
41
1
10
3.110410493823
20
-31.3086675680832
30
0
41
1
10
3.32963542839082
20
-31.2824834550234
30
0
41
1
10
3.5609060914995
20
-31.2561923774597
30
0
41
1
10
3.68256306876467
20
-31.2429927112997
30
0
41
1
10
3.84243907564686
20
-31.2266644551091
30
0
41
1
10
3.87472487556389
20
-31.2234157545487
30
0
41
1
10
3.93975854023157
20
-31.2169733353643
30
0
41
1
10
4.0380749178203
20
-31.2073847672348
30
0
41
1
10
4.13866541037291
20
-31.1980453648337
30
0
41
1
10
4.34284019785648
20
-31.1797607166675
30
0
41
1
10
4.62304460804577
20
-31.1564353752979
30
0
41
1
10
4.91913592973619
20
-31.1358689791426
30
0
41
1
10
5.14731741056485
20
-31.1217297646122
30
0
41
1
10
5.22445333435137
20
-31.1172280774846
30
0
41
1
10
5.38058952085885
20
-31.1087095130006
30
0
41
1
10
5.45903364297614
20
-31.1047226852131
30
0
41
1
10
5.69547230984652
20
-31.0936067835141
30
0
41
1
10
6.01366846567373
20
-31.0810392971748
30
0
41
1
10
6.3376537235001
20
-31.0732583643421
30
0
41
1
10
6.5828376647241
20
-31.0693215314281
30
0
41
1
10
6.66493211259383
20
-31.0683257337552
30
0
41
1
10
6.78863246663742
20
-31.0673199664703
30
0
41
1
10
6.82995907463111
20
-31.0670660348637
30
0
41
1
10
6.91280063734555
20
-31.0667230622595
30
0
41
1
10
6.95437534381252
20
-31.0666340943484
30
0
41
1
10
7.16182456343196
20
-31.066606483899
30
0
41
1
10
7.32644490609971
20
-31.0679141759137
30
0
41
1
10
7.65309721813617
20
-31.0730634495985
30
0
41
1
10
7.9771601916089
20
-31.0807462591924
30
0
41
1
10
8.29607400826683
20
-31.0932508442756
30
0
41
1
10
8.49374875802542
20
-31.1024937827678
30
0
41
1
10
8.53320120061892
20
-31.1044137335573
30
0
41
1
10
8.61193936183878
20
-31.1083943059261
30
0
41
1
10
8.65119518825313
20
-31.1104536486322
30
0
41
1
10
8.76806259088481
20
-31.1168023223985
30
0
41
1
10
8.84498475347803
20
-31.1212727187844
30
0
41
1
10
9.07284302572178
20
-31.1353354903533
30
0
41
1
10
9.36891313137436
20
-31.155819863118
30
0
41
1
10
9.64979023957287
20
-31.179131978018
30
0
41
1
10
9.85469305689945
20
-31.1974364076416
30
0
41
1
10
9.92203311435604
20
-31.2036745837146
30
0
41
1
10
10.0215784679152
20
-31.2132061674463
30
0
41
1
10
10.0545503640593
20
-31.2164158165903
30
0
41
1
10
10.1198393490693
20
-31.222872002295
30
0
41
1
10
10.1521018977693
20
-31.2261130150734
30
0
41
1
10
10.3115268280287
20
-31.2423678749674
30
0
41
1
10
10.5545609571191
20
-31.2686864633103
30
0
41
1
10
10.7741766920927
20
-31.2948744051435
30
0
41
1
10
10.9820729655368
20
-31.3206267407507
30
0
41
1
10
11.0801623345576
20
-31.3332857459614
30
0
41
1
10
11.1952227769773
20
-31.3486007299242
30
0
41
1
10
11.2178835339078
20
-31.3516419476272
30
0
41
1
10
11.2622202024703
20
-31.3576375074302
30
0
41
1
10
11.3273032083542
20
-31.366507914615
30
0
41
1
10
11.3881706482481
20
-31.3749894809689
30
0
41
1
10
11.5043727225891
20
-31.3913827547872
30
0
41
1
10
11.6445789767551
20
-31.4117179426263
30
0
41
1
10
11.7556008881709
20
-31.4284723936981
30
0
41
1
10
11.827702498995
20
-31.4394901521919
30
0
41
1
10
11.8498721974364
20
-31.4429046565356
30
0
41
1
10
11.8802705099091
20
-31.4476125292449
30
0
41
1
10
11.8899278316337
20
-31.44911296944
30
0
41
1
10
11.9081934090391
20
-31.451958204642
30
0
41
1
10
11.9168144080131
20
-31.453304968996
30
0
41
1
10
11.9573777187122
20
-31.4596561495609
30
0
41
1
10
12.0060441892134
20
-31.4673675972862
30
0
41
1
10
12.0225079003573
20
-31.4700012637862
30
0
41
1
10
12.022501543038
20
-31.4700002468367
30
0
0
SPLINE
5
1AB
100
AcDbEntity
8
1
62
256
6
ByLayer
370
18
48
1
60
0
100
AcDbSpline
70
4
71
3
72
54
73
50
40
0
40
0
40
0
40
0
40
0.0624999999999994
40
0.0624999999999994
40
0.124999999999999
40
0.187499999999998
40
0.187499999999998
40
0.203124999999998
40
0.203124999999998
40
0.218749999999998
40
0.218749999999998
40
0.249999999999998
40
0.249999999999998
40
0.312499999999997
40
0.312499999999997
40
0.374999999999996
40
0.374999999999996
40
0.406249999999996
40
0.406249999999996
40
0.421874999999995
40
0.421874999999995
40
0.437499999999995
40
0.437499999999995
40
0.499999999999994
40
0.499999999999994
40
0.562499999999993
40
0.562499999999993
40
0.624999999999993
40
0.624999999999993
40
0.632812499999993
40
0.632812499999993
40
0.640624999999993
40
0.640624999999993
40
0.656249999999993
40
0.687499999999994
40
0.687499999999994
40
0.749999999999995
40
0.749999999999995
40
0.812499999999996
40
0.812499999999996
40
0.843749999999997
40
0.843749999999997
40
0.859374999999997
40
0.859374999999997
40
0.874999999999998
40
0.874999999999998
40
0.937499999999999
40
0.937499999999999
40
1
40
1
40
1
40
1
41
1
10
4.95
20
-1.01749999999998
30
0
41
1
10
4.95
20
-1.28321855847429
30
0
41
1
10
4.96320332389666
20
-1.54647828246479
30
0
41
1
10
5.01497623476821
20
-2.06827924129732
30
0
41
1
10
5.09212212659659
20
-2.58536053825858
30
0
41
1
10
5.21948587240465
20
-3.09313699258192
30
0
41
1
10
5.31508247467498
20
-3.40755318593651
30
0
41
1
10
5.33500338384486
20
-3.47028890645566
30
0
41
1
10
5.37646363542585
20
-3.59546311419675
30
0
41
1
10
5.39802901009426
20
-3.65796920082073
30
0
41
1
10
5.46481932095351
20
-3.844060442211
30
0
41
1
10
5.5122151193039
20
-3.96647828372355
30
0
41
1
10
5.66282464693496
20
-4.32892609327459
30
0
41
1
10
5.77443936590146
20
-4.56416189269126
30
0
41
1
10
6.0196425271485
20
-5.02220052478143
30
0
41
1
10
6.15323143214722
20
-5.2450028861164
30
0
41
1
10
6.37027058357381
20
-5.56987539213148
30
0
41
1
10
6.44539813617321
20
-5.67660825317353
30
0
41
1
10
6.56233213376078
20
-5.83434367724729
30
0
41
1
10
6.60201833431029
20
-5.88652893035422
30
0
41
1
10
6.68281895626872
20
-5.99010049849716
30
0
41
1
10
6.7237706850573
20
-6.04127832596558
30
0
41
1
10
6.93125749590902
20
-6.29416761133785
30
0
41
1
10
7.10595541319907
20
-6.4869033638542
30
0
41
1
10
7.47238623578693
20
-6.85384969301535
30
0
41
1
10
7.66412003569916
20
-7.02805892704066
30
0
41
1
10
8.06477337455669
20
-7.35799733305558
30
0
41
1
10
8.27369116965085
20
-7.51372802161063
30
0
41
1
10
8.51877817503413
20
-7.67823185216687
30
0
41
1
10
8.54615008531211
20
-7.69636114193926
30
0
41
1
10
8.60117596137887
20
-7.73232015436852
30
0
41
1
10
8.62884835323042
20
-7.75016141959912
30
0
41
1
10
8.71208932669376
20
-7.80310524245471
30
0
41
1
10
8.87956706987471
20
-7.90674236584749
30
0
41
1
10
9.05000565221562
20
-8.00370512017483
30
0
41
1
10
9.39478841653238
20
-8.1888696162174
30
0
41
1
10
9.62984181097742
20
-8.30065288803254
30
0
41
1
10
10.1103513205057
20
-8.50109283817849
30
0
41
1
10
10.3558070141257
20
-8.58975020852355
30
0
41
1
10
10.7320238627841
20
-8.70500833962814
30
0
41
1
10
10.8587707514647
20
-8.74046753265898
30
0
41
1
10
11.0509551214302
20
-8.78911472084704
30
0
41
1
10
11.1154358596219
20
-8.80458980929043
30
0
41
1
10
11.2447145247582
20
-8.83391828020004
30
0
41
1
10
11.3094560341208
20
-8.84776115965207
30
0
41
1
10
11.6336717540774
20
-8.91289544712026
30
0
41
1
10
11.8946670010514
20
-8.95197672780171
30
0
41
1
10
12.4198900458876
20
-9.00427858208477
30
0
41
1
10
12.6841177347867
20
-9.01749999999998
30
0
41
1
10
12.95
20
-9.01749999999998
30
0
0
SPLINE
5
1AC
100
AcDbEntity
8
1
62
256
6
ByLayer
370
18
48
1
60
0
100
AcDbSpline
70
4
71
3
72
53
73
49
40
0
40
0
40
0
40
0
40
0.0624999999999989
40
0.0624999999999989
40
0.124999999999998
40
0.124999999999998
40
0.187499999999997
40
0.187499999999997
40
0.203124999999996
40
0.203124999999996
40
0.218749999999996
40
0.218749999999996
40
0.249999999999996
40
0.249999999999996
40
0.312499999999996
40
0.312499999999996
40
0.374999999999995
40
0.374999999999995
40
0.406249999999995
40
0.406249999999995
40
0.421874999999995
40
0.421874999999995
40
0.437499999999995
40
0.437499999999995
40
0.499999999999996
40
0.499999999999996
40
0.562499999999997
40
0.562499999999997
40
0.624999999999997
40
0.624999999999997
40
0.640624999999997
40
0.640624999999997
40
0.656249999999997
40
0.687499999999998
40
0.687499999999998
40
0.749999999999998
40
0.749999999999998
40
0.812499999999998
40
0.812499999999998
40
0.843749999999998
40
0.843749999999998
40
0.859374999999998
40
0.859374999999998
40
0.874999999999999
40
0.874999999999999
40
0.937499999999999
40
0.937499999999999
40
1
40
1
40
1
40
1
41
1
10
12.95
20
9.01749999999998
30
0
41
1
10
12.6841313593866
20
9.01749999999998
30
0
41
1
10
12.420647498405
20
9.00428156970125
30
0
41
1
10
11.8982638705435
20
8.95240674343816
30
0
41
1
10
11.6393646026072
20
8.91374750647225
30
0
41
1
10
11.1260959657865
20
8.81120668567581
30
0
41
1
10
10.8717264718107
20
8.74732597816791
30
0
41
1
10
10.5566391253124
20
8.65138257248142
30
0
41
1
10
10.4937656966583
20
8.63138737236397
30
0
41
1
10
10.3683093033381
20
8.58976789137341
30
0
41
1
10
10.3057219374419
20
8.56813881087706
30
0
41
1
10
10.1194618268704
20
8.5011799335789
30
0
41
1
10
9.99692951457195
20
8.45366383802914
30
0
41
1
10
9.63413312205709
20
8.30266702069591
30
0
41
1
10
9.39865793344252
20
8.19075902287267
30
0
41
1
10
8.94013129968297
20
7.94488251355753
30
0
41
1
10
8.7170802774682
20
7.81091356129224
30
0
41
1
10
8.39183435684626
20
7.59322393486906
30
0
41
1
10
8.28497698908882
20
7.51786612484557
30
0
41
1
10
8.12705594765471
20
7.40056435266712
30
0
41
1
10
8.07474052483525
20
7.36069734775228
30
0
41
1
10
7.97132476718412
20
7.27985582419754
30
0
41
1
10
7.92022166488195
20
7.23888285633782
30
0
41
1
10
7.66769106088228
20
7.0312848482161
30
0
41
1
10
7.47519443651623
20
6.85648182027413
30
0
41
1
10
7.10865483934171
20
6.4897839262504
30
0
41
1
10
6.93461315369413
20
6.29788822220127
30
0
41
1
10
6.60496316861743
20
5.89683256668064
30
0
41
1
10
6.44935329682475
20
5.68767442292131
30
0
41
1
10
6.26671018689765
20
5.41499312879887
30
0
41
1
10
6.23077961689891
20
5.35989299353488
30
0
41
1
10
6.16050409576215
20
5.24917163581006
30
0
41
1
10
6.05731623933839
20
5.08208211556715
30
0
41
1
10
5.96073307416351
20
4.91199460890078
30
0
41
1
10
5.77624844381891
20
4.56785917726438
30
0
41
1
10
5.66481288123553
20
4.33316429088495
30
0
41
1
10
5.46492163805172
20
3.85319796712466
30
0
41
1
10
5.37646500709747
20
3.60792711119188
30
0
41
1
10
5.26144287268465
20
3.23183410459839
30
0
41
1
10
5.2260514853056
20
3.10510288766176
30
0
41
1
10
5.17749558495797
20
2.91290015213357
30
0
41
1
10
5.16207042207299
20
2.84848838315375
30
0
41
1
10
5.13289039673245
20
2.71960546691344
30
0
41
1
10
5.11911462028144
20
2.65505406706944
30
0
41
1
10
5.05428379043074
20
2.33174958961254
30
0
41
1
10
5.0153430130141
20
2.07135768861204
30
0
41
1
10
4.96320171145764
20
1.54707589362408
30
0
41
1
10
4.95
20
1.28318616959129
30
0
41
1
10
4.95
20
1.01750000000001
30
0
0
SPLINE
5
1AD
100
AcDbEntity
8
SK1
62
256
6
ByLayer
370
18
48
1
60
0
100
AcDbSpline
70
4
71
3
72
38
73
34
40
0
40
0
40
0
40
0
40
0.124999999999995
40
0.124999999999995
40
0.187499999999993
40
0.187499999999993
40
0.218749999999994
40
0.218749999999994
40
0.249999999999994
40
0.249999999999994
40
0.374999999999995
40
0.374999999999995
40
0.437499999999995
40
0.437499999999995
40
0.468749999999995
40
0.468749999999995
40
0.499999999999995
40
0.499999999999995
40
0.624999999999984
40
0.624999999999984
40
0.656249999999983
40
0.656249999999983
40
0.687499999999982
40
0.687499999999982
40
0.749999999999985
40
0.749999999999985
40
0.87499999999999
40
0.87499999999999
40
0.906249999999993
40
0.906249999999993
40
0.937499999999995
40
0.937499999999995
40
1
40
1
40
1
40
1
41
1
10
-25.8
20
4.87000000000001
30
0
41
1
10
-25.8
20
4.96109765262787
30
0
41
1
10
-25.808805133659
20
5.05052271863863
30
0
41
1
10
-25.8345421175813
20
5.18229420961694
30
0
41
1
10
-25.8452248710048
20
5.22582112057597
30
0
41
1
10
-25.8644566393578
20
5.29051160726263
30
0
41
1
10
-25.8714027751051
20
5.31197497069167
30
0
41
1
10
-25.8863868212075
20
5.35469874893482
30
0
41
1
10
-25.8944258684405
20
5.37595107760106
30
0
41
1
10
-25.9369337216554
20
5.48059681564635
30
0
41
1
10
-25.9785739382998
20
5.56008586410093
30
0
41
1
10
-26.0523851123406
20
5.6731220957183
30
0
41
1
10
-26.0788940750744
20
5.7097607983649
30
0
41
1
10
-26.1216325695387
20
5.7631085366649
30
0
41
1
10
-26.1364189020971
20
5.78066926556747
30
0
41
1
10
-26.1667379961542
20
5.81493010031119
30
0
41
1
10
-26.182276268388
20
5.83164305169831
30
0
41
1
10
-26.2618408925655
20
5.91314943003459
30
0
41
1
10
-26.3314306915815
20
5.97182929293479
30
0
41
1
10
-26.4260798692421
20
6.03686552710718
30
0
41
1
10
-26.4453963830412
20
6.04945319032993
30
0
41
1
10
-26.4848239392125
20
6.07376893504662
30
0
41
1
10
-26.504971424652
20
6.08551694290551
30
0
41
1
10
-26.5664067913667
20
6.11929751546066
30
0
41
1
10
-26.6082346736958
20
6.13963255719543
30
0
41
1
10
-26.7362840039803
20
6.19422792670341
30
0
41
1
10
-26.8250448085857
20
6.22214554698277
30
0
41
1
10
-26.9404702775426
20
6.24593600292613
30
0
41
1
10
-26.9638345042621
20
6.25014105763324
30
0
41
1
10
-27.0107588484138
20
6.25735405246405
30
0
41
1
10
-27.0342782968168
20
6.26035893115954
30
0
41
1
10
-27.1050077437634
20
6.26757755874203
30
0
41
1
10
-27.1523884112314
20
6.27000000000001
30
0
41
1
10
-27.2
20
6.27000000000001
30
0
0
SPLINE
5
1AE
100
AcDbEntity
8
SK1
62
256
6
ByLayer
370
18
48
1
60
0
100
AcDbSpline
70
4
71
3
72
36
73
32
40
0
40
0
40
0
40
0
40
0.124999999999994
40
0.124999999999994
40
0.187499999999992
40
0.187499999999992
40
0.21874999999999
40
0.21874999999999
40
0.249999999999988
40
0.249999999999988
40
0.374999999999987
40
0.374999999999987
40
0.406249999999989
40
0.406249999999989
40
0.437499999999991
40
0.499999999999992
40
0.562499999999994
40
0.562499999999994
40
0.593749999999994
40
0.593749999999994
40
0.624999999999994
40
0.624999999999994
40
0.749999999999995
40
0.749999999999995
40
0.812499999999996
40
0.812499999999996
40
0.843749999999996
40
0.843749999999996
40
0.874999999999996
40
0.874999999999996
40
1
40
1
40
1
40
1
41
1
10
-27.2
20
-6.27000000000001
30
0
41
1
10
-27.104886922689
20
-6.27000000000001
30
0
41
1
10
-27.0115646780203
20
-6.26040892989724
30
0
41
1
10
-26.8741289785767
20
-6.23234881477669
30
0
41
1
10
-26.8287449822436
20
-6.22069831322662
30
0
41
1
10
-26.761322502954
20
-6.19970527147035
30
0
41
1
10
-26.738947688458
20
-6.19211204993348
30
0
41
1
10
-26.6949437415086
20
-6.17593555825553
30
0
41
1
10
-26.6732468453112
20
-6.16733263475393
30
0
41
1
10
-26.5662494419288
20
-6.12180423744758
30
0
41
1
10
-26.4853661913642
20
-6.0774132385242
30
0
41
1
10
-26.3900055054556
20
-6.01212222720284
30
0
41
1
10
-26.3711749208065
20
-5.99853151564082
30
0
41
1
10
-26.3343680365871
20
-5.97055245109567
30
0
41
1
10
-26.28047676743
20
-5.92742786007696
30
0
41
1
10
-26.1970518628438
20
-5.84993064475213
30
0
41
1
10
-26.1369121823778
20
-5.7820880332628
30
0
41
1
10
-26.0942760389608
20
-5.72900500236227
30
0
41
1
10
-26.080476186897
20
-5.71094314490745
30
0
41
1
10
-26.0537090705115
20
-5.67407465203428
30
0
41
1
10
-26.0407575610831
20
-5.65528401183443
30
0
41
1
10
-25.9787088304242
20
-5.56041441321568
30
0
41
1
10
-25.9371254458849
20
-5.48089463840466
30
0
41
1
10
-25.886403252699
20
-5.35628662859068
30
0
41
1
10
-25.8714524612521
20
-5.31385636180505
30
0
41
1
10
-25.8520377264494
20
-5.24882643419036
30
0
41
1
10
-25.8460784474988
20
-5.22694001875655
30
0
41
1
10
-25.8352728670703
20
-5.18309679008678
30
0
41
1
10
-25.8304118763048
20
-5.16109256669171
30
0
41
1
10
-25.8087897410636
20
-5.05066042906955
30
0
41
1
10
-25.8
20
-4.96100935186118
30
0
41
1
10
-25.8
20
-4.87000000000001
30
0
0
SPLINE
5
1AF
100
AcDbEntity
8
SK1
62
256
6
ByLayer
370
18
48
1
60
0
100
AcDbSpline
70
4
71
3
72
86
73
82
40
0
40
0
40
0
40
0
40
0.0625000000000013
40
0.0625000000000013
40
0.0937500000000023
40
0.0937500000000023
40
0.125000000000003
40
0.125000000000003
40
0.187500000000006
40
0.187500000000006
40
0.250000000000009
40
0.250000000000009
40
0.312500000000012
40
0.312500000000012
40
0.343750000000013
40
0.343750000000013
40
0.375000000000014
40
0.375000000000014
40
0.406250000000015
40
0.406250000000015
40
0.421875000000015
40
0.421875000000015
40
0.437500000000015
40
0.437500000000015
40
0.453125000000015
40
0.453125000000015
40
0.468750000000015
40
0.468750000000015
40
0.476562500000016
40
0.476562500000016
40
0.484375000000017
40
0.484375000000017
40
0.488281250000016
40
0.488281250000016
40
0.492187500000014
40
0.492187500000014
40
0.496093750000013
40
0.496093750000013
40
0.500000000000012
40
0.500000000000012
40
0.503906250000011
40
0.503906250000011
40
0.50781250000001
40
0.50781250000001
40
0.511718750000009
40
0.511718750000009
40
0.515625000000008
40
0.515625000000008
40
0.519531250000007
40
0.519531250000007
40
0.523437500000005
40
0.523437500000005
40
0.531250000000005
40
0.531250000000005
40
0.539062500000004
40
0.539062500000004
40
0.546875000000003
40
0.546875000000003
40
0.562500000000002
40
0.562500000000002
40
0.570312500000002
40
0.570312500000002
40
0.578125000000002
40
0.578125000000002
40
0.593750000000001
40
0.593750000000001
40
0.625000000000001
40
0.625000000000001
40
0.656250000000001
40
0.656250000000001
40
0.687500000000001
40
0.687500000000001
40
0.750000000000001
40
0.750000000000001
40
0.812500000000001
40
0.812500000000001
40
0.875
40
0.875
40
0.9375
40
0.9375
40
1
40
1
40
1
40
1
41
1
10
-31.067579804184
20
10.3133144252412
30
0
41
1
10
-31.0675534944799
20
10.4251887491879
30
0
41
1
10
-31.0690558562391
20
10.5364677962834
30
0
41
1
10
-31.0736621007992
20
10.7024702060475
30
0
41
1
10
-31.0755906272496
20
10.7576512618465
30
0
41
1
10
-31.080257104053
20
10.8676981773259
30
0
41
1
10
-31.0829973921192
20
10.9226033621287
30
0
41
1
10
-31.0924641772115
20
11.0865146735488
30
0
41
1
10
-31.1004220038533
20
11.1946422786379
30
0
41
1
10
-31.1199564688366
20
11.4083776015019
30
0
41
1
10
-31.1315270169387
20
11.5139895600935
30
0
41
1
10
-31.1589044208934
20
11.7222636089097
30
0
41
1
10
-31.1746935451899
20
11.8249380461494
30
0
41
1
10
-31.2024754952608
20
11.9760959579133
30
0
41
1
10
-31.2124248807956
20
12.0260023412717
30
0
41
1
10
-31.2339922209399
20
12.1246532332094
30
0
41
1
10
-31.2456055269337
20
12.1734009787594
30
0
41
1
10
-31.2709786311793
20
12.2694018028087
30
0
41
1
10
-31.2847249717862
20
12.3166642522704
30
0
41
1
10
-31.3076341494912
20
12.3859635626805
30
0
41
1
10
-31.3156561629302
20
12.4087948134189
30
0
41
1
10
-31.3326866023336
20
12.4537704462173
30
0
41
1
10
-31.3417002622533
20
12.4759228503088
30
0
41
1
10
-31.3608223753419
20
12.5187897486138
30
0
41
1
10
-31.370945482876
20
12.5395676262641
30
0
41
1
10
-31.3927907938228
20
12.5792582097096
30
0
41
1
10
-31.4044932816839
20
12.5981939115569
30
0
41
1
10
-31.4239870332909
20
12.6243346416876
30
0
41
1
10
-31.4308135055292
20
12.6326665934876
30
0
41
1
10
-31.4453941233629
20
12.6482420528713
30
0
41
1
10
-31.4530542422572
20
12.6553911774319
30
0
41
1
10
-31.4653476313892
20
12.6647278423872
30
0
41
1
10
-31.4695806420625
20
12.6676065696811
30
0
41
1
10
-31.4783874629759
20
12.6727755156692
30
0
41
1
10
-31.4829710051466
20
12.6750668998
30
0
41
1
10
-31.4924118347877
20
12.678823280471
30
0
41
1
10
-31.4972842123301
20
12.6803001870515
30
0
41
1
10
-31.5074155755053
20
12.682233094925
30
0
41
1
10
-31.5127218227737
20
12.6826873638033
30
0
41
1
10
-31.5235937264868
20
12.6822538450447
30
0
41
1
10
-31.5291328199055
20
12.6813769343003
30
0
41
1
10
-31.5404552063013
20
12.678060128226
30
0
41
1
10
-31.5462733934337
20
12.6755789861284
30
0
41
1
10
-31.5575893391612
20
12.6691578582607
30
0
41
1
10
-31.5631560757221
20
12.6652078411862
30
0
41
1
10
-31.5741129152169
20
12.6558762245814
30
0
41
1
10
-31.5793773870245
20
12.6505955949713
30
0
41
1
10
-31.5893628312426
20
12.6392331075842
30
0
41
1
10
-31.5941206124759
20
12.6331186955806
30
0
41
1
10
-31.6032509622766
20
12.6201796421642
30
0
41
1
10
-31.6075259110808
20
12.613496012059
30
0
41
1
10
-31.6196892919797
20
12.5929762816946
30
0
41
1
10
-31.6269318176932
20
12.5786724499508
30
0
41
1
10
-31.6403099849976
20
12.549267565203
30
0
41
1
10
-31.6463246677906
20
12.5344139572316
30
0
41
1
10
-31.6574273993908
20
12.5046435264312
30
0
41
1
10
-31.6625210547537
20
12.4896976840276
30
0
41
1
10
-31.6768216409588
20
12.4447302985274
30
0
41
1
10
-31.685066241096
20
12.4145812878834
30
0
41
1
10
-31.6962699976865
20
12.3692037052714
30
0
41
1
10
-31.6998073256464
20
12.3540333401408
30
0
41
1
10
-31.7065160959733
20
12.3238182946411
30
0
41
1
10
-31.7096923384171
20
12.308754767255
30
0
41
1
10
-31.7187819764967
20
12.2636726256293
30
0
41
1
10
-31.7242610332235
20
12.2337612787445
30
0
41
1
10
-31.7394465274052
20
12.1443363606916
30
0
41
1
10
-31.7479242105625
20
12.0851262512226
30
0
41
1
10
-31.7628979469377
20
11.9671954293831
30
0
41
1
10
-31.7693718252074
20
11.9084801934918
30
0
41
1
10
-31.780936775267
20
11.7913912292058
30
0
41
1
10
-31.7860209140009
20
11.7330192130465
30
0
41
1
10
-31.7997361246821
20
11.5582828035251
30
0
41
1
10
-31.80685805216
20
11.4422483056717
30
0
41
1
10
-31.8186080449852
20
11.2115722257105
30
0
41
1
10
-31.8232228476894
20
11.0968112859752
30
0
41
1
10
-31.8307411640382
20
10.8680730839104
30
0
41
1
10
-31.8336362373556
20
10.7540996867921
30
0
41
1
10
-31.8381282388223
20
10.5267473725072
30
0
41
1
10
-31.8397219150848
20
10.4133699445281
30
0
41
1
10
-31.8418206348239
20
10.1871136232345
30
0
41
1
10
-31.842324491537
20
10.0742352733932
30
0
41
1
10
-31.8423156651183
20
9.96159170456949
30
0
0
SPLINE
5
1B0
100
AcDbEntity
8
SK1
62
256
6
ByLayer
370
18
48
1
60
0
100
AcDbSpline
70
4
71
3
72
86
73
82
40
0
40
0
40
0
40
0
40
0.0624999999999909
40
0.0624999999999909
40
0.0937499999999863
40
0.0937499999999863
40
0.124999999999982
40
0.124999999999982
40
0.187499999999973
40
0.187499999999973
40
0.249999999999964
40
0.249999999999964
40
0.312499999999954
40
0.312499999999954
40
0.343749999999951
40
0.343749999999951
40
0.374999999999947
40
0.374999999999947
40
0.406249999999943
40
0.406249999999943
40
0.421874999999941
40
0.421874999999941
40
0.437499999999939
40
0.437499999999939
40
0.453124999999937
40
0.453124999999937
40
0.468749999999936
40
0.468749999999936
40
0.476562499999935
40
0.476562499999935
40
0.484374999999935
40
0.484374999999935
40
0.488281249999936
40
0.488281249999936
40
0.492187499999937
40
0.492187499999937
40
0.496093749999938
40
0.496093749999938
40
0.499999999999938
40
0.499999999999938
40
0.503906249999939
40
0.503906249999939
40
0.50781249999994
40
0.50781249999994
40
0.511718749999941
40
0.511718749999941
40
0.515624999999941
40
0.515624999999941
40
0.519531249999942
40
0.519531249999942
40
0.523437499999943
40
0.523437499999943
40
0.531249999999944
40
0.531249999999944
40
0.539062499999945
40
0.539062499999945
40
0.546874999999946
40
0.546874999999946
40
0.562499999999948
40
0.562499999999948
40
0.570312499999949
40
0.570312499999949
40
0.57812499999995
40
0.57812499999995
40
0.593749999999951
40
0.593749999999951
40
0.624999999999954
40
0.624999999999954
40
0.656249999999957
40
0.656249999999957
40
0.68749999999996
40
0.68749999999996
40
0.749999999999968
40
0.749999999999968
40
0.812499999999976
40
0.812499999999976
40
0.874999999999984
40
0.874999999999984
40
0.937499999999992
40
0.937499999999992
40
1
40
1
40
1
40
1
41
1
10
-31.067579804184
20
-10.3133144252412
30
0
41
1
10
-31.0675534944799
20
-10.4251887491879
30
0
41
1
10
-31.0690558562391
20
-10.5364677962834
30
0
41
1
10
-31.0736621007992
20
-10.7024702060474
30
0
41
1
10
-31.0755906272497
20
-10.7576512618465
30
0
41
1
10
-31.080257104053
20
-10.8676981773258
30
0
41
1
10
-31.0829973921192
20
-10.9226033621286
30
0
41
1
10
-31.0924641772115
20
-11.0865146735486
30
0
41
1
10
-31.1004220038533
20
-11.1946422786377
30
0
41
1
10
-31.1199564688366
20
-11.4083776015017
30
0
41
1
10
-31.1315270169387
20
-11.5139895600933
30
0
41
1
10
-31.1589044208934
20
-11.7222636089094
30
0
41
1
10
-31.1746935451899
20
-11.8249380461492
30
0
41
1
10
-31.2024754952608
20
-11.976095957913
30
0
41
1
10
-31.2124248807956
20
-12.0260023412714
30
0
41
1
10
-31.2339922209399
20
-12.1246532332091
30
0
41
1
10
-31.2456055269337
20
-12.1734009787592
30
0
41
1
10
-31.2709786311793
20
-12.2694018028084
30
0
41
1
10
-31.2847249717861
20
-12.3166642522702
30
0
41
1
10
-31.3076341494911
20
-12.3859635626802
30
0
41
1
10
-31.31565616293
20
-12.4087948134186
30
0
41
1
10
-31.3326866023335
20
-12.453770446217
30
0
41
1
10
-31.3417002622531
20
-12.4759228503085
30
0
41
1
10
-31.3608223753417
20
-12.5187897486135
30
0
41
1
10
-31.3709454828759
20
-12.5395676262638
30
0
41
1
10
-31.3927907938226
20
-12.5792582097094
30
0
41
1
10
-31.4044932816837
20
-12.5981939115567
30
0
41
1
10
-31.4239870332907
20
-12.6243346416873
30
0
41
1
10
-31.430813505529
20
-12.6326665934873
30
0
41
1
10
-31.4453941233627
20
-12.648242052871
30
0
41
1
10
-31.4530542422569
20
-12.6553911774317
30
0
41
1
10
-31.4653476313889
20
-12.664727842387
30
0
41
1
10
-31.4695806420623
20
-12.6676065696809
30
0
41
1
10
-31.4783874629756
20
-12.6727755156691
30
0
41
1
10
-31.4829710051463
20
-12.6750668997998
30
0
41
1
10
-31.4924118347874
20
-12.6788232804708
30
0
41
1
10
-31.4972842123298
20
-12.6803001870514
30
0
41
1
10
-31.507415575505
20
-12.682233094925
30
0
41
1
10
-31.5127218227734
20
-12.6826873638033
30
0
41
1
10
-31.5235937264865
20
-12.6822538450447
30
0
41
1
10
-31.5291328199052
20
-12.6813769343004
30
0
41
1
10
-31.5404552063009
20
-12.6780601282262
30
0
41
1
10
-31.5462733934333
20
-12.6755789861286
30
0
41
1
10
-31.5575893391608
20
-12.669157858261
30
0
41
1
10
-31.5631560757218
20
-12.6652078411864
30
0
41
1
10
-31.5741129152166
20
-12.6558762245817
30
0
41
1
10
-31.5793773870241
20
-12.6505955949717
30
0
41
1
10
-31.5893628312423
20
-12.6392331075846
30
0
41
1
10
-31.5941206124756
20
-12.633118695581
30
0
41
1
10
-31.6032509622763
20
-12.6201796421646
30
0
41
1
10
-31.6075259110805
20
-12.6134960120595
30
0
41
1
10
-31.6196892919794
20
-12.5929762816951
30
0
41
1
10
-31.626931817693
20
-12.5786724499513
30
0
41
1
10
-31.6403099849974
20
-12.5492675652035
30
0
41
1
10
-31.6463246677904
20
-12.534413957232
30
0
41
1
10
-31.6574273993906
20
-12.5046435264316
30
0
41
1
10
-31.6625210547536
20
-12.4896976840281
30
0
41
1
10
-31.6768216409587
20
-12.4447302985279
30
0
41
1
10
-31.6850662410959
20
-12.4145812878839
30
0
41
1
10
-31.6962699976864
20
-12.3692037052719
30
0
41
1
10
-31.6998073256463
20
-12.3540333401413
30
0
41
1
10
-31.7065160959732
20
-12.3238182946415
30
0
41
1
10
-31.709692338417
20
-12.3087547672554
30
0
41
1
10
-31.7187819764966
20
-12.2636726256297
30
0
41
1
10
-31.7242610332234
20
-12.2337612787449
30
0
41
1
10
-31.7394465274052
20
-12.144336360692
30
0
41
1
10
-31.7479242105624
20
-12.085126251223
30
0
41
1
10
-31.7628979469376
20
-11.9671954293834
30
0
41
1
10
-31.7693718252074
20
-11.9084801934922
30
0
41
1
10
-31.780936775267
20
-11.7913912292061
30
0
41
1
10
-31.7860209140009
20
-11.7330192130469
30
0
41
1
10
-31.7997361246821
20
-11.5582828035253
30
0
41
1
10
-31.80685805216
20
-11.442248305672
30
0
41
1
10
-31.8186080449852
20
-11.2115722257107
30
0
41
1
10
-31.8232228476894
20
-11.0968112859754
30
0
41
1
10
-31.8307411640382
20
-10.8680730839106
30
0
41
1
10
-31.8336362373555
20
-10.7540996867923
30
0
41
1
10
-31.8381282388222
20
-10.5267473725073
30
0
41
1
10
-31.8397219150848
20
-10.4133699445282
30
0
41
1
10
-31.8418206348239
20
-10.1871136232346
30
0
41
1
10
-31.842324491537
20
-10.0742352733933
30
0
41
1
10
-31.8423156651183
20
-9.96159170456951
30
0
0
SPLINE
5
1B1
100
AcDbEntity
8
SK1
62
256
6
ByLayer
370
18
48
1
60
0
100
AcDbSpline
70
4
71
3
72
18
73
14
40
0
40
0
40
0
40
0
40
0.250000000000001
40
0.250000000000001
40
0.500000000000002
40
0.500000000000002
40
0.750000000000003
40
0.750000000000003
40
0.875000000000003
40
0.875000000000003
40
0.937500000000001
40
0.937500000000001
40
1
40
1
40
1
40
1
41
1
10
-30.7600449304182
20
-9.21082304591698
30
0
41
1
10
-30.8005304147289
20
-9.3017633650324
30
0
41
1
10
-30.8391903518073
20
-9.39189102923612
30
0
41
1
10
-30.9108217629842
20
-9.5716766153773
30
0
41
1
10
-30.9438142125759
20
-9.66132221433691
30
0
41
1
10
-31.000705102808
20
-9.84203901741199
30
0
41
1
10
-31.0245900033694
20
-9.93312106436875
30
0
41
1
10
-31.0497392687942
20
-10.0729293582158
30
0
41
1
10
-31.0563287190667
20
-10.1200701546397
30
0
41
1
10
-31.0630301448817
20
-10.1918427302512
30
0
41
1
10
-31.0647340773198
20
-10.2159433316604
30
0
41
1
10
-31.0670149098383
20
-10.2645291533959
30
0
41
1
10
-31.0675855446107
20
-10.2889049294418
30
0
41
1
10
-31.0675798041817
20
-10.3133144252422
30
0
0
SPLINE
5
1B2
100
AcDbEntity
8
SK1
62
256
6
ByLayer
370
18
48
1
60
0
100
AcDbSpline
70
4
71
3
72
23
73
19
40
0
40
0
40
0
40
0
40
0.125000000000005
40
0.125000000000005
40
0.250000000000009
40
0.250000000000009
40
0.312500000000008
40
0.312500000000008
40
0.375000000000007
40
0.375000000000007
40
0.500000000000008
40
0.500000000000008
40
0.750000000000006
40
0.750000000000006
40
0.812500000000003
40
0.812500000000003
40
0.875000000000001
40
1
40
1
40
1
40
1
41
1
10
-31.8423156651183
20
-9.96159170456951
30
0
41
1
10
-31.8423124272776
20
-9.92027008276952
30
0
41
1
10
-31.8431055401534
20
-9.87791277576684
30
0
41
1
10
-31.8461332411618
20
-9.79119082243366
30
0
41
1
10
-31.8483658328874
20
-9.74682682085333
30
0
41
1
10
-31.8525269753938
20
-9.67884796858775
30
0
41
1
10
-31.8540411331186
20
-9.65606418268399
30
0
41
1
10
-31.8572417503739
20
-9.61050050814876
30
0
41
1
10
-31.8589305081703
20
-9.58768177723223
30
0
41
1
10
-31.8641630823175
20
-9.51911757241459
30
0
41
1
10
-31.8678718524901
20
-9.47326434193738
30
0
41
1
10
-31.8789048656756
20
-9.33528382785917
30
0
41
1
10
-31.886117982338
20
-9.24273794323116
30
0
41
1
10
-31.89273866145
20
-9.12634287587477
30
0
41
1
10
-31.8939431970269
20
-9.10303773252951
30
0
41
1
10
-31.8960538289319
20
-9.05664254937298
30
0
41
1
10
-31.8987791787385
20
-8.98726333939288
30
0
41
1
10
-31.9
20
-8.91849066894937
30
0
41
1
10
-31.9
20
-8.87288615836172
30
0
0
SPLINE
5
1B3
100
AcDbEntity
8
SK1
62
256
6
ByLayer
370
18
48
1
60
0
100
AcDbSpline
70
4
71
3
72
23
73
19
40
0
40
0
40
0
40
0
40
0.125000000000004
40
0.125000000000004
40
0.250000000000008
40
0.250000000000008
40
0.312500000000008
40
0.312500000000008
40
0.375000000000007
40
0.375000000000007
40
0.500000000000007
40
0.500000000000007
40
0.750000000000011
40
0.750000000000011
40
0.812500000000009
40
0.812500000000009
40
0.875000000000008
40
1
40
1
40
1
40
1
41
1
10
-31.8423156651183
20
9.96159170456949
30
0
41
1
10
-31.8423124272776
20
9.92027008276952
30
0
41
1
10
-31.8431055401534
20
9.87791277576684
30
0
41
1
10
-31.8461332411618
20
9.79119082243366
30
0
41
1
10
-31.8483658328874
20
9.74682682085333
30
0
41
1
10
-31.8525269753938
20
9.67884796858775
30
0
41
1
10
-31.8540411331187
20
9.65606418268399
30
0
41
1
10
-31.8572417503739
20
9.61050050814876
30
0
41
1
10
-31.8589305081703
20
9.58768177723223
30
0
41
1
10
-31.8641630823175
20
9.51911757241459
30
0
41
1
10
-31.86787185249
20
9.47326434193735
30
0
41
1
10
-31.8789048656756
20
9.33528382785917
30
0
41
1
10
-31.886117982338
20
9.24273794323116
30
0
41
1
10
-31.89273866145
20
9.12634287587477
30
0
41
1
10
-31.8939431970269
20
9.10303773252951
30
0
41
1
10
-31.8960538289318
20
9.05664254937298
30
0
41
1
10
-31.8987791787385
20
8.98726333939288
30
0
41
1
10
-31.9
20
8.91849066894937
30
0
41
1
10
-31.9
20
8.87288615836172
30
0
0
SPLINE
5
1B4
100
AcDbEntity
8
SK1
62
256
6
ByLayer
370
18
48
1
60
0
100
AcDbSpline
70
4
71
3
72
18
73
14
40
0
40
0
40
0
40
0
40
0.250000000000001
40
0.250000000000001
40
0.500000000000002
40
0.500000000000002
40
0.750000000000003
40
0.750000000000003
40
0.875000000000004
40
0.875000000000004
40
0.937500000000002
40
0.937500000000002
40
1
40
1
40
1
40
1
41
1
10
-30.7600449304182
20
9.21082304591698
30
0
41
1
10
-30.8005304147289
20
9.3017633650324
30
0
41
1
10
-30.8391903518073
20
9.39189102923612
30
0
41
1
10
-30.9108217629842
20
9.5716766153773
30
0
41
1
10
-30.9438142125759
20
9.66132221433691
30
0
41
1
10
-31.000705102808
20
9.84203901741199
30
0
41
1
10
-31.0245900033694
20
9.93312106436875
30
0
41
1
10
-31.0497392687942
20
10.0729293582158
30
0
41
1
10
-31.0563287190667
20
10.1200701546397
30
0
41
1
10
-31.0630301448817
20
10.1918427302512
30
0
41
1
10
-31.0647340773199
20
10.2159433316604
30
0
41
1
10
-31.0670149098383
20
10.2645291533959
30
0
41
1
10
-31.0675855446107
20
10.2889049294418
30
0
41
1
10
-31.0675798041817
20
10.3133144252422
30
0
0
SPLINE
5
1B5
100
AcDbEntity
8
SK1
62
256
6
ByLayer
370
18
48
1
60
0
100
AcDbSpline
70
4
71
3
72
8
73
4
40
0
40
0
40
0
40
0
40
1
40
1
40
1
40
1
41
1
10
-30.7600449304182
20
9.21082304591698
30
0
41
1
10
-30.7567195771116
20
9.20335348748074
30
0
41
1
10
-30.7533711052713
20
9.19589102665455
30
0
41
1
10
-30.75
20
9.18843569206715
30
0
0
SPLINE
5
1B6
100
AcDbEntity
8
SK1
62
256
6
ByLayer
370
18
48
1
60
0
100
AcDbSpline
70
4
71
3
72
48
73
44
40
0
40
0
40
0
40
0
40
0.0078125000000016
40
0.0078125000000016
40
0.011718750000002
40
0.011718750000002
40
0.0156250000000023
40
0.0156250000000023
40
0.0234375000000031
40
0.0234375000000031
40
0.0273437500000029
40
0.0273437500000029
40
0.0312500000000027
40
0.0312500000000027
40
0.0468750000000026
40
0.0468750000000026
40
0.0546875000000023
40
0.0546875000000023
40
0.062500000000002
40
0.062500000000002
40
0.0781250000000013
40
0.0781250000000013
40
0.0937500000000006
40
0.0937500000000006
40
0.125000000000001
40
0.125000000000001
40
0.156250000000001
40
0.156250000000001
40
0.187500000000001
40
0.187500000000001
40
0.250000000000002
40
0.250000000000002
40
0.312500000000003
40
0.312500000000003
40
0.375000000000003
40
0.375000000000003
40
0.500000000000003
40
0.500000000000003
40
0.625000000000002
40
0.625000000000002
40
0.750000000000001
40
0.750000000000001
40
1
40
1
40
1
40
1
41
1
10
-25.5425277000733
20
10.4574926392499
30
0
41
1
10
-25.5424866524493
20
10.4444202282056
30
0
41
1
10
-25.5443996177116
20
10.4316080633087
30
0
41
1
10
-25.5498260363247
20
10.4127303697349
30
0
41
1
10
-25.5520760790828
20
10.4064629000704
30
0
41
1
10
-25.5573101036937
20
10.3941878118792
30
0
41
1
10
-25.560272109471
20
10.3882172335834
30
0
41
1
10
-25.5700357633369
20
10.3707302482436
30
0
41
1
10
-25.5777075299036
20
10.3596349522796
30
0
41
1
10
-25.5905272785955
20
10.34362703106
30
0
41
1
10
-25.5950327425298
20
10.338387120155
30
0
41
1
10
-25.6043172552082
20
10.3282179224717
30
0
41
1
10
-25.6091076136298
20
10.3232730260947
30
0
41
1
10
-25.6336877859025
20
10.2991412883976
30
0
41
1
10
-25.65530483524
20
10.2816780598828
30
0
41
1
10
-25.6894552907457
20
10.2571103187641
30
0
41
1
10
-25.7011675499744
20
10.2491842411167
30
0
41
1
10
-25.7248910903239
20
10.2339091520939
30
0
41
1
10
-25.736907523363
20
10.2265542452113
30
0
41
1
10
-25.7733299679822
20
10.2051714341143
30
0
41
1
10
-25.7981045047198
20
10.191816996389
30
0
41
1
10
-25.8483407330244
20
10.1663639024042
30
0
41
1
10
-25.8738055279617
20
10.1542709171488
30
0
41
1
10
-25.9509783769489
20
10.1194146501163
30
0
41
1
10
-26.0034518762886
20
10.0980502668974
30
0
41
1
10
-26.1096994215092
20
10.0576984865645
30
0
41
1
10
-26.1635670288404
20
10.0387050116203
30
0
41
1
10
-26.2717116976341
20
10.0025986437011
30
0
41
1
10
-26.3260167846636
20
9.98547898956261
30
0
41
1
10
-26.4894487871299
20
9.93619268932218
30
0
41
1
10
-26.5990835328444
20
9.90606296959643
30
0
41
1
10
-26.8192048384955
20
9.8492205867374
30
0
41
1
10
-26.9296992744
20
9.8225395083077
30
0
41
1
10
-27.1512979175437
20
9.77162375940406
30
0
41
1
10
-27.2624047508888
20
9.74739962029375
30
0
41
1
10
-27.5964205203508
20
9.67751702155346
30
0
41
1
10
-27.8200133978856
20
9.63460295255587
30
0
41
1
10
-28.2683752278496
20
9.553495500624
30
0
41
1
10
-28.4932076423442
20
9.51533181083767
30
0
41
1
10
-28.9434480721481
20
9.4424791137175
30
0
41
1
10
-29.1688306799268
20
9.40780651910231
30
0
41
1
10
-29.8455774169519
20
9.30779221002996
30
0
41
1
10
-30.2975310572493
20
9.24639115181006
30
0
41
1
10
-30.7499999999995
20
9.18843569206368
30
0
0
SPLINE
5
1B7
100
AcDbEntity
8
SK1
62
256
6
ByLayer
370
18
48
1
60
0
100
AcDbSpline
70
4
71
3
72
39
73
35
40
0
40
0
40
0
40
0
40
0.125000000000001
40
0.125000000000001
40
0.250000000000003
40
0.250000000000003
40
0.312500000000003
40
0.312500000000003
40
0.375000000000004
40
0.375000000000004
40
0.500000000000006
40
0.500000000000006
40
0.562500000000007
40
0.562500000000007
40
0.625000000000007
40
0.625000000000007
40
0.687500000000008
40
0.687500000000008
40
0.750000000000009
40
0.750000000000009
40
0.765625000000008
40
0.765625000000008
40
0.781250000000007
40
0.812500000000005
40
0.812500000000005
40
0.875000000000004
40
0.875000000000004
40
0.890625000000003
40
0.890625000000003
40
0.906250000000002
40
0.906250000000002
40
0.9375
40
0.9375
40
1
40
1
40
1
40
1
41
1
10
-23.2
20
12.5350968543277
30
0
41
1
10
-23.3288822760823
20
12.4778778423291
30
0
41
1
10
-23.4566085328625
20
12.4188437084554
30
0
41
1
10
-23.709213430336
20
12.2963042608216
30
0
41
1
10
-23.8340962494108
20
12.2328055077405
30
0
41
1
10
-24.01870828378
20
12.1332988306261
30
0
41
1
10
-24.0797913868925
20
12.099416711405
30
0
41
1
10
-24.200915979195
20
12.030016984513
30
0
41
1
10
-24.2609773696519
20
11.9944843686049
30
0
41
1
10
-24.4384878085561
20
11.8855863145352
30
0
41
1
10
-24.5535683637337
20
11.8098059605543
30
0
41
1
10
-24.7196027575472
20
11.6897067670528
30
0
41
1
10
-24.7738422026611
20
11.6485948281661
30
0
41
1
10
-24.879691738714
20
11.5638045817095
30
0
41
1
10
-24.9313039673144
20
11.5201283605939
30
0
41
1
10
-25.0313347407063
20
11.429658738414
30
0
41
1
10
-25.0797571435845
20
11.3828691030172
30
0
41
1
10
-25.1726098615666
20
11.2853933738675
30
0
41
1
10
-25.2170477986618
20
11.2347147195234
30
0
41
1
10
-25.2693535347922
20
11.1682023700767
30
0
41
1
10
-25.2796684139004
20
11.1547169020355
30
0
41
1
10
-25.2998506982645
20
11.1275324863716
30
0
41
1
10
-25.3294396013906
20
11.0864574925409
30
0
41
1
10
-25.3568842676044
20
11.0444478678899
30
0
41
1
10
-25.4086340830928
20
10.9590601647215
30
0
41
1
10
-25.4389691743767
20
10.9003196808595
30
0
41
1
10
-25.4704822938726
20
10.8241019375771
30
0
41
1
10
-25.4764629720971
20
10.8087180591146
30
0
41
1
10
-25.4877430528608
20
10.7776533474785
30
0
41
1
10
-25.4930447669561
20
10.7619591078267
30
0
41
1
10
-25.5077499298599
20
10.7148137171586
30
0
41
1
10
-25.5160024518014
20
10.6831745701402
30
0
41
1
10
-25.5359144945262
20
10.5876045069526
30
0
41
1
10
-25.5427334623993
20
10.5230216380634
30
0
41
1
10
-25.5425277000733
20
10.4574926392499
30
0
0
SPLINE
5
1B8
100
AcDbEntity
8
SK1
62
256
6
ByLayer
370
18
48
1
60
0
100
AcDbSpline
70
4
71
3
72
47
73
43
40
0
40
0
40
0
40
0
40
0.0156249999999988
40
0.0156249999999988
40
0.0234374999999986
40
0.0234374999999986
40
0.0312499999999983
40
0.0390624999999981
40
0.0390624999999981
40
0.0468749999999979
40
0.0468749999999979
40
0.0546874999999976
40
0.0546874999999976
40
0.0624999999999974
40
0.0624999999999974
40
0.0781249999999969
40
0.0781249999999969
40
0.0937499999999964
40
0.0937499999999964
40
0.124999999999997
40
0.124999999999997
40
0.156249999999998
40
0.156249999999998
40
0.187499999999999
40
0.187499999999999
40
0.249999999999998
40
0.249999999999998
40
0.312499999999998
40
0.312499999999998
40
0.374999999999997
40
0.374999999999997
40
0.437499999999997
40
0.437499999999997
40
0.499999999999996
40
0.499999999999996
40
0.624999999999997
40
0.624999999999997
40
0.749999999999998
40
0.749999999999998
40
0.874999999999999
40
0.874999999999999
40
1
40
1
40
1
40
1
41
1
10
-23.2
20
12.5350968543277
30
0
41
1
10
-23.1876502058549
20
12.5405797107828
30
0
41
1
10
-23.1748847628705
20
12.5448689804881
30
0
41
1
10
-23.1549749737367
20
12.5491178374954
30
0
41
1
10
-23.1481913924222
20
12.5501701311524
30
0
41
1
10
-23.1344191007228
20
12.5514448076602
30
0
41
1
10
-23.1207360257474
20
12.5518658858544
30
0
41
1
10
-23.1072250219997
20
12.5506406599401
30
0
41
1
10
-23.0937973918534
20
12.5486173936866
30
0
41
1
10
-23.087121379511
20
12.5471990184038
30
0
41
1
10
-23.0742011186608
20
12.5437061589496
30
0
41
1
10
-23.0679075323669
20
12.54162621736
30
0
41
1
10
-23.0556114096661
20
12.5368829660186
30
0
41
1
10
-23.0495832603172
20
12.5342061146406
30
0
41
1
10
-23.0320849540334
20
12.5255005914871
30
0
41
1
10
-23.0212468954272
20
12.5188507600049
30
0
41
1
10
-23.0007372116293
20
12.504354201819
30
0
41
1
10
-22.9910708411293
20
12.4965021222949
30
0
41
1
10
-22.9634130695384
20
12.471563542867
30
0
41
1
10
-22.9472402693794
20
12.4536082349656
30
0
41
1
10
-22.9175875502966
20
12.4162834491001
30
0
41
1
10
-22.9041214995746
20
12.3968640679554
30
0
41
1
10
-22.8790263084779
20
12.3569843398827
30
0
41
1
10
-22.8673842425326
20
12.3364700136931
30
0
41
1
10
-22.8347029279809
20
12.2740650129639
30
0
41
1
10
-22.8159778532693
20
12.2316168971795
30
0
41
1
10
-22.7821753639825
20
12.1456334089751
30
0
41
1
10
-22.7671474854474
20
12.1020859015769
30
0
41
1
10
-22.7397133648155
20
12.0141511322794
30
0
41
1
10
-22.7273210218034
20
11.9697604723155
30
0
41
1
10
-22.7045649261451
20
11.8802814141932
30
0
41
1
10
-22.6942063909283
20
11.8351917432208
30
0
41
1
10
-22.6751447135572
20
11.7444032034311
30
0
41
1
10
-22.6664374888591
20
11.698665664926
30
0
41
1
10
-22.642472352795
20
11.5609108595923
30
0
41
1
10
-22.6293619628607
20
11.4684887284762
30
0
41
1
10
-22.6075152914704
20
11.2825775289851
30
0
41
1
10
-22.5987947413251
20
11.1890872293841
30
0
41
1
10
-22.5850628252629
20
11.0010888959194
30
0
41
1
10
-22.5800572202371
20
10.906580417456
30
0
41
1
10
-22.5734309866201
20
10.7165674169109
30
0
41
1
10
-22.5718123036207
20
10.6210627536355
30
0
41
1
10
-22.571845502751
20
10.5250608510983
30
0
0
SPLINE
5
1B9
100
AcDbEntity
8
SK1
62
256
6
ByLayer
370
18
48
1
60
0
100
AcDbSpline
70
4
71
3
72
32
73
28
40
0
40
0
40
0
40
0
40
0.0312499999999991
40
0.0312499999999991
40
0.0624999999999982
40
0.124999999999998
40
0.124999999999998
40
0.187499999999997
40
0.187499999999997
40
0.249999999999997
40
0.249999999999997
40
0.312499999999996
40
0.312499999999996
40
0.374999999999996
40
0.374999999999996
40
0.499999999999997
40
0.499999999999997
40
0.624999999999999
40
0.624999999999999
40
0.687499999999999
40
0.718749999999999
40
0.718749999999999
40
0.749999999999999
40
0.749999999999999
40
0.875
40
0.875
40
1
40
1
40
1
40
1
41
1
10
-22.5718455027507
20
10.5250608510982
30
0
41
1
10
-22.5718561699141
20
10.4942146220546
30
0
41
1
10
-22.5707069976314
20
10.4630804707092
30
0
41
1
10
-22.5661848882145
20
10.4013471770759
30
0
41
1
10
-22.5560980856072
20
10.3093490275219
30
0
41
1
10
-22.5371368339948
20
10.2189474778282
30
0
41
1
10
-22.5062120999328
20
10.0993666423744
30
0
41
1
10
-22.4879468028426
20
10.0400494752708
30
0
41
1
10
-22.4478950273712
20
9.9219239216597
30
0
41
1
10
-22.4260976476506
20
9.86308110871047
30
0
41
1
10
-22.3806910139219
20
9.74574880679737
30
0
41
1
10
-22.3570803767931
20
9.68725834688553
30
0
41
1
10
-22.309202230497
20
9.57026506064776
30
0
41
1
10
-22.284930410253
20
9.51176354692061
30
0
41
1
10
-22.2123773774188
20
9.33584360641791
30
0
41
1
10
-22.1644141108179
20
9.2179931332478
30
0
41
1
10
-22.0738164746223
20
8.97968178844948
30
0
41
1
10
-22.0311367098062
20
8.85923506895574
30
0
41
1
10
-21.9734283630935
20
8.67582337332811
30
0
41
1
10
-21.9461426455466
20
8.58343478650943
30
0
41
1
10
-21.9216111145439
20
8.48988262458417
30
0
41
1
10
-21.9059132654255
20
8.42724027953386
30
0
41
1
10
-21.8983866812795
20
8.39575511338757
30
0
41
1
10
-21.8625911451137
20
8.23797133328469
30
0
41
1
10
-21.8398505722068
20
8.11075138156198
30
0
41
1
10
-21.8085681732411
20
7.85406725877863
30
0
41
1
10
-21.8
20
7.72460576910791
30
0
41
1
10
-21.8
20
7.59386313676208
30
0
0
SPLINE
5
1BA
100
AcDbEntity
8
SK1
62
256
6
ByLayer
370
18
48
1
60
0
100
AcDbSpline
70
4
71
3
72
33
73
29
40
0
40
0
40
0
40
0
40
0.125000000000002
40
0.125000000000002
40
0.250000000000005
40
0.250000000000005
40
0.281250000000005
40
0.281250000000005
40
0.312500000000004
40
0.375000000000004
40
0.375000000000004
40
0.500000000000004
40
0.500000000000004
40
0.625000000000005
40
0.625000000000005
40
0.687500000000004
40
0.687500000000004
40
0.750000000000004
40
0.750000000000004
40
0.812500000000003
40
0.812500000000003
40
0.875000000000003
40
0.875000000000003
40
0.937500000000003
40
0.937500000000003
40
0.968750000000001
40
0.968750000000001
40
1
40
1
40
1
40
1
41
1
10
-21.8
20
-7.59386313676208
30
0
41
1
10
-21.8
20
-7.7239733402576
30
0
41
1
10
-21.8084876790843
20
-7.85292413221336
30
0
41
1
10
-21.8395521487868
20
-8.10877950355001
30
0
41
1
10
-21.8621543131237
20
-8.23568182831681
30
0
41
1
10
-21.8977795116174
20
-8.39316523396511
30
0
41
1
10
-21.9052754950983
20
-8.42460964246212
30
0
41
1
10
-21.9209139870026
20
-8.48717934657174
30
0
41
1
10
-21.9453589524612
20
-8.58063638028352
30
0
41
1
10
-21.9725680763389
20
-8.67296767674662
30
0
41
1
10
-22.0301413852955
20
-8.85630626483905
30
0
41
1
10
-22.072755853419
20
-8.97675962513912
30
0
41
1
10
-22.1632838559716
20
-9.21514917738304
30
0
41
1
10
-22.2112426685117
20
-9.33307179040489
30
0
41
1
10
-22.2838311927677
20
-9.50910815816422
30
0
41
1
10
-22.3081196741103
20
-9.56764500770902
30
0
41
1
10
-22.3560231728616
20
-9.68465086727156
30
0
41
1
10
-22.3796425147665
20
-9.74311981365403
30
0
41
1
10
-22.4250467627446
20
-9.86028886245407
30
0
41
1
10
-22.4468355417107
20
-9.91898803800805
30
0
41
1
10
-22.4869811451446
20
-10.0370218812925
30
0
41
1
10
-22.5053369614956
20
-10.0963568971928
30
0
41
1
10
-22.5365156715203
20
-10.2161888838918
30
0
41
1
10
-22.5493216882914
20
-10.2766902385551
30
0
41
1
10
-22.5625932954803
20
-10.3687558417796
30
0
41
1
10
-22.5660269885863
20
-10.3996633782854
30
0
41
1
10
-22.5706592966159
20
-10.4619781590374
30
0
41
1
10
-22.5718564414183
20
-10.4934295143269
30
0
41
1
10
-22.571845502751
20
-10.5250608510983
30
0
0
SPLINE
5
1BB
100
AcDbEntity
8
SK1
62
256
6
ByLayer
370
18
48
1
60
0
100
AcDbSpline
70
4
71
3
72
46
73
42
40
0
40
0
40
0
40
0
40
0.125000000000005
40
0.125000000000005
40
0.250000000000009
40
0.250000000000009
40
0.375000000000014
40
0.375000000000014
40
0.500000000000018
40
0.500000000000018
40
0.562500000000019
40
0.562500000000019
40
0.625000000000019
40
0.625000000000019
40
0.68750000000002
40
0.68750000000002
40
0.75000000000002
40
0.75000000000002
40
0.78125000000002
40
0.78125000000002
40
0.81250000000002
40
0.81250000000002
40
0.84375000000002
40
0.84375000000002
40
0.87500000000002
40
0.87500000000002
40
0.90625000000002
40
0.90625000000002
40
0.921875000000019
40
0.921875000000019
40
0.937500000000018
40
0.937500000000018
40
0.953125000000016
40
0.953125000000016
40
0.960937500000015
40
0.960937500000015
40
0.968750000000014
40
0.968750000000014
40
0.984375000000007
40
0.984375000000007
40
1
40
1
40
1
40
1
41
1
10
-22.571845502751
20
-10.5250608510983
30
0
41
1
10
-22.5718122746329
20
-10.6211465775285
30
0
41
1
10
-22.5734337301988
20
-10.7167868022455
30
0
41
1
10
-22.5800828331022
20
-10.9071735759538
30
0
41
1
10
-22.5851083675889
20
-11.0019202323258
30
0
41
1
10
-22.5989135112461
20
-11.1905029371689
30
0
41
1
10
-22.6076949439853
20
-11.284389362388
30
0
41
1
10
-22.6296634135232
20
-11.4707647210432
30
0
41
1
10
-22.6428364145097
20
-11.5632938686886
30
0
41
1
10
-22.6668664769247
20
-11.7009807645463
30
0
41
1
10
-22.6755982838719
20
-11.7467084657921
30
0
41
1
10
-22.6947455474786
20
-11.8376069991653
30
0
41
1
10
-22.7051600611204
20
-11.8827907040451
30
0
41
1
10
-22.728075869127
20
-11.9725491579117
30
0
41
1
10
-22.7405813464117
20
-12.0171558551251
30
0
41
1
10
-22.7682805651851
20
-12.1054784917057
30
0
41
1
10
-22.7834511544958
20
-12.1491726444003
30
0
41
1
10
-22.809032332824
20
-12.2137832503577
30
0
41
1
10
-22.8180426665564
20
-12.2351788058678
30
0
41
1
10
-22.8371861631084
20
-12.2774425977912
30
0
41
1
10
-22.8473215325084
20
-12.2983249645306
30
0
41
1
10
-22.8690511400801
20
-12.3394603223477
30
0
41
1
10
-22.8806397705149
20
-12.359715539962
30
0
41
1
10
-22.9058248619033
20
-12.399380167952
30
0
41
1
10
-22.9194261752778
20
-12.418799823108
30
0
41
1
10
-22.9492043307473
20
-12.4558508347097
30
0
41
1
10
-22.9654122001815
20
-12.4735926745432
30
0
41
1
10
-22.9929259469253
20
-12.4980429637306
30
0
41
1
10
-23.0025461302592
20
-12.5057403625895
30
0
41
1
10
-23.0229736205102
20
-12.5199432504986
30
0
41
1
10
-23.0338310243653
20
-12.52648068137
30
0
41
1
10
-23.0569833281249
20
-12.5377591108196
30
0
41
1
10
-23.0690756047132
20
-12.5424075635425
30
0
41
1
10
-23.0882231486838
20
-12.547447029188
30
0
41
1
10
-23.0948261219828
20
-12.5488074969846
30
0
41
1
10
-23.1080965109778
20
-12.5507314671046
30
0
41
1
10
-23.1147712886351
20
-12.5513034818996
30
0
41
1
10
-23.1349180122658
20
-12.5518142594545
30
0
41
1
10
-23.148675433563
20
-12.5504793411176
30
0
41
1
10
-23.1749886426142
20
-12.544829374635
30
0
41
1
10
-23.1877881639945
20
-12.5405184624196
30
0
41
1
10
-23.2
20
-12.5350968543276
30
0
0
SPLINE
5
1BC
100
AcDbEntity
8
SK1
62
256
6
ByLayer
370
18
48
1
60
0
100
AcDbSpline
70
4
71
3
72
32
73
28
40
0
40
0
40
0
40
0
40
0.124999999999999
40
0.124999999999999
40
0.187499999999999
40
0.187499999999999
40
0.249999999999998
40
0.249999999999998
40
0.281249999999999
40
0.281249999999999
40
0.3125
40
0.3125
40
0.375
40
0.375
40
0.437500000000001
40
0.437500000000001
40
0.500000000000001
40
0.500000000000001
40
0.562500000000001
40
0.562500000000001
40
0.625000000000001
40
0.625000000000001
40
0.750000000000001
40
0.750000000000001
40
0.875
40
0.875
40
1
40
1
40
1
40
1
41
1
10
-25.5425277000732
20
-10.4574926392499
30
0
41
1
10
-25.5429367681198
20
-10.5877682832881
30
0
41
1
10
-25.5156884348783
20
-10.7135788946285
30
0
41
1
10
-25.4406666509161
20
-10.8967817242554
30
0
41
1
10
-25.4106468269078
20
-10.9552948965882
30
0
41
1
10
-25.3427127235951
20
-11.0682433048673
30
0
41
1
10
-25.3047839159117
20
-11.1226817161081
30
0
41
1
10
-25.2430465647959
20
-11.2018501173509
30
0
41
1
10
-25.2216560979963
20
-11.2278226632305
30
0
41
1
10
-25.1773958004099
20
-11.2790075671641
30
0
41
1
10
-25.1545602730619
20
-11.3041750252466
30
0
41
1
10
-25.084657827656
20
-11.3780086671726
30
0
41
1
10
-25.0360125204083
20
-11.4252403603068
30
0
41
1
10
-24.9354680686899
20
-11.5165342011336
30
0
41
1
10
-24.883564859381
20
-11.5605923892889
30
0
41
1
10
-24.7770822898377
20
-11.6461019412916
30
0
41
1
10
-24.7225006903127
20
-11.6875511238579
30
0
41
1
10
-24.6110869919234
20
-11.7682572896168
30
0
41
1
10
-24.5542535695794
20
-11.807512983615
30
0
41
1
10
-24.4386603356833
20
-11.8841478861834
30
0
41
1
10
-24.3798467061556
20
-11.9215562313815
30
0
41
1
10
-24.2017327655123
20
-12.0308391171797
30
0
41
1
10
-24.0805341069162
20
-12.0999678045846
30
0
41
1
10
-23.8344452811575
20
-12.2326240035484
30
0
41
1
10
-23.7095464602324
20
-12.2961383846366
30
0
41
1
10
-23.4568310999843
20
-12.4187400532492
30
0
41
1
10
-23.3290103654586
20
-12.4778209753356
30
0
41
1
10
-23.2
20
-12.5350968543277
30
0
0
SPLINE
5
1BD
100
AcDbEntity
8
SK1
62
256
6
ByLayer
370
18
48
1
60
0
100
AcDbSpline
70
4
71
3
72
42
73
38
40
0
40
0
40
0
40
0
40
0.250000000000001
40
0.250000000000001
40
0.375000000000001
40
0.375000000000001
40
0.500000000000001
40
0.500000000000001
40
0.625
40
0.625
40
0.687499999999999
40
0.687499999999999
40
0.749999999999998
40
0.749999999999998
40
0.812499999999997
40
0.812499999999997
40
0.843749999999996
40
0.843749999999996
40
0.874999999999996
40
0.874999999999996
40
0.906249999999996
40
0.906249999999996
40
0.921874999999996
40
0.921874999999996
40
0.937499999999997
40
0.937499999999997
40
0.953124999999998
40
0.953124999999998
40
0.968749999999999
40
0.968749999999999
40
0.976562499999999
40
0.976562499999999
40
0.984374999999999
40
0.984374999999999
40
0.9921875
40
0.9921875
40
1
40
1
40
1
40
1
41
1
10
-30.7499999999997
20
-9.18843569206516
30
0
41
1
10
-30.2971691275868
20
-9.24643751035251
30
0
41
1
10
-29.8448372764213
20
-9.3078922755285
30
0
41
1
10
-29.1674866044691
20
-9.40800983235846
30
0
41
1
10
-28.9418763839812
20
-9.44272412199476
30
0
41
1
10
-28.4913061911082
20
-9.5156488577818
30
0
41
1
10
-28.2663378466554
20
-9.55384611165488
30
0
41
1
10
-27.8172910526113
20
-9.63511355445846
30
0
41
1
10
-27.5931952319321
20
-9.67814751721323
30
0
41
1
10
-27.2583889539055
20
-9.74826251485251
30
0
41
1
10
-27.1470027328493
20
-9.77257478048662
30
0
41
1
10
-26.92480463055
20
-9.82370150732334
30
0
41
1
10
-26.8140529405854
20
-9.85049130355065
30
0
41
1
10
-26.5935596270581
20
-9.90755204505348
30
0
41
1
10
-26.4837478352694
20
-9.93781132380371
30
0
41
1
10
-26.3204964526976
20
-9.9871980265676
30
0
41
1
10
-26.2663249969128
20
-10.0043350843839
30
0
41
1
10
-26.1586406431399
20
-10.0404180375766
30
0
41
1
10
-26.1051099929273
20
-10.0593630103424
30
0
41
1
10
-25.9992597879569
20
-10.0997276564125
30
0
41
1
10
-25.946852047865
20
-10.1211563350966
30
0
41
1
10
-25.8697745674357
20
-10.1561600889288
30
0
41
1
10
-25.8443796514478
20
-10.1682933814037
30
0
41
1
10
-25.7943793902293
20
-10.1937947209455
30
0
41
1
10
-25.7697707912945
20
-10.2071576801879
30
0
41
1
10
-25.7216648844494
20
-10.2356214246271
30
0
41
1
10
-25.6980909907311
20
-10.2507656448759
30
0
41
1
10
-25.6532685391454
20
-10.2832899742977
30
0
41
1
10
-25.6319433135579
20
-10.3006601003814
30
0
41
1
10
-25.6027785209754
20
-10.3295953591615
30
0
41
1
10
-25.5936532895928
20
-10.3396204754947
30
0
41
1
10
-25.5770108671758
20
-10.3606200276505
30
0
41
1
10
-25.5694817805476
20
-10.3715973423212
30
0
41
1
10
-25.5566270117347
20
-10.3948803003125
30
0
41
1
10
-25.5514746838075
20
-10.4069047839992
30
0
41
1
10
-25.5443976462048
20
-10.431707193433
30
0
41
1
10
-25.5424872693388
20
-10.4446166886209
30
0
41
1
10
-25.5425277000732
20
-10.4574926392499
30
0
0
SPLINE
5
1BE
100
AcDbEntity
8
SK1
62
256
6
ByLayer
370
18
48
1
60
0
100
AcDbSpline
70
4
71
3
72
8
73
4
40
0
40
0
40
0
40
0
40
1
40
1
40
1
40
1
41
1
10
-30.7600449304182
20
-9.21082304591695
30
0
41
1
10
-30.7567195771116
20
-9.20335348748071
30
0
41
1
10
-30.7533711052713
20
-9.19589102665455
30
0
41
1
10
-30.75
20
-9.18843569206715
30
0
0
SPLINE
5
1BF
100
AcDbEntity
8
SK1
62
256
6
ByLayer
370
18
48
1
60
0
100
AcDbSpline
70
2053
71
3
72
183
73
179
40
0
40
0
40
0
40
0
40
0.0156249999999989
40
0.0312499999999979
40
0.0312499999999979
40
0.0390624999999973
40
0.0429687499999971
40
0.0429687499999971
40
0.0468749999999969
40
0.0468749999999969
40
0.062499999999996
40
0.0781249999999952
40
0.0781249999999952
40
0.0937499999999943
40
0.0937499999999943
40
0.0976562499999941
40
0.0976562499999941
40
0.101562499999994
40
0.101562499999994
40
0.109374999999993
40
0.109374999999993
40
0.124999999999992
40
0.140624999999991
40
0.140624999999991
40
0.148437499999991
40
0.148437499999991
40
0.152343749999991
40
0.152343749999991
40
0.15624999999999
40
0.15624999999999
40
0.17187499999999
40
0.17187499999999
40
0.187499999999989
40
0.187499999999989
40
0.195312499999988
40
0.195312499999988
40
0.199218749999988
40
0.199218749999988
40
0.203124999999988
40
0.203124999999988
40
0.218749999999987
40
0.218749999999987
40
0.234374999999986
40
0.234374999999986
40
0.242187499999985
40
0.242187499999985
40
0.246093749999985
40
0.246093749999985
40
0.249999999999985
40
0.249999999999985
40
0.265624999999985
40
0.265624999999985
40
0.281249999999984
40
0.281249999999984
40
0.289062499999984
40
0.292968749999984
40
0.292968749999984
40
0.296874999999983
40
0.296874999999983
40
0.312499999999983
40
0.312499999999983
40
0.328124999999983
40
0.343749999999983
40
0.343749999999983
40
0.351562499999983
40
0.351562499999983
40
0.359374999999983
40
0.359374999999983
40
0.374999999999983
40
0.390624999999983
40
0.390624999999983
40
0.398437499999983
40
0.402343749999983
40
0.402343749999983
40
0.406249999999983
40
0.406249999999983
40
0.421874999999984
40
0.437499999999984
40
0.453124999999985
40
0.453124999999985
40
0.460937499999985
40
0.460937499999985
40
0.468749999999986
40
0.468749999999986
40
0.484374999999986
40
0.499999999999987
40
0.499999999999987
40
0.515624999999987
40
0.515624999999987
40
0.523437499999987
40
0.523437499999987
40
0.527343749999987
40
0.527343749999987
40
0.531249999999988
40
0.546874999999988
40
0.562499999999988
40
0.562499999999988
40
0.578124999999988
40
0.578124999999988
40
0.582031249999988
40
0.582031249999988
40
0.585937499999988
40
0.585937499999988
40
0.593749999999988
40
0.593749999999988
40
0.609374999999988
40
0.609374999999988
40
0.624999999999989
40
0.624999999999989
40
0.632812499999989
40
0.632812499999989
40
0.636718749999989
40
0.636718749999989
40
0.640624999999989
40
0.640624999999989
40
0.656249999999989
40
0.671874999999989
40
0.671874999999989
40
0.67968749999999
40
0.67968749999999
40
0.68359374999999
40
0.68359374999999
40
0.68749999999999
40
0.68749999999999
40
0.70312499999999
40
0.70312499999999
40
0.71874999999999
40
0.71874999999999
40
0.72656249999999
40
0.72656249999999
40
0.730468749999991
40
0.730468749999991
40
0.734374999999991
40
0.734374999999991
40
0.749999999999991
40
0.749999999999991
40
0.765624999999992
40
0.765624999999992
40
0.773437499999992
40
0.773437499999992
40
0.777343749999993
40
0.777343749999993
40
0.781249999999993
40
0.781249999999993
40
0.796874999999994
40
0.796874999999994
40
0.812499999999994
40
0.828124999999995
40
0.828124999999995
40
0.832031249999995
40
0.832031249999995
40
0.835937499999996
40
0.843749999999996
40
0.843749999999996
40
0.859374999999997
40
0.874999999999997
40
0.874999999999997
40
0.882812499999997
40
0.882812499999997
40
0.890624999999998
40
0.890624999999998
40
0.906249999999998
40
0.921874999999999
40
0.921874999999999
40
0.9375
40
0.9375
40
0.9453125
40
0.9453125
40
0.94921875
40
0.94921875
40
0.953125
40
0.96875
40
0.984375
40
0.984375
40
0.9921875
40
0.99609375
40
0.99609375
40
1
40
1
40
1
40
1
41
1
10
-11.4681204191151
20
-3.28721445789113
30
0
41
1
10
-11.5847957657171
20
-3.20636378886243
30
0
41
1
10
-11.8088242734413
20
-3.03464223444419
30
0
41
1
10
-12.0143326430346
20
-2.84296924999623
30
0
41
1
10
-12.1613551672144
20
-2.69153884007201
30
0
41
1
10
-12.2330862614079
20
-2.6139014956477
30
0
41
1
10
-12.3020831061896
20
-2.53330851338322
30
0
41
1
10
-12.3474642847756
20
-2.47891283669298
30
0
41
1
10
-12.3698708944452
20
-2.45134933313901
30
0
41
1
10
-12.479782568463
20
-2.31254823861389
30
0
41
1
10
-12.6427933961222
20
-2.08340154785208
30
0
41
1
10
-12.7804409846279
20
-1.84027568412353
30
0
41
1
10
-12.905179237126
20
-1.5900200564096
30
0
41
1
10
-12.9610959363317
20
-1.46132861640237
30
0
41
1
10
-13.022516565245
20
-1.29577545026493
30
0
41
1
10
-13.0343757721356
20
-1.26242973795351
30
0
41
1
10
-13.0572292156026
20
-1.19525960752847
30
0
41
1
10
-13.0682245613352
20
-1.16142481082432
30
0
41
1
10
-13.0996857195727
20
-1.0598787010135
30
0
41
1
10
-13.1187066177624
20
-0.99190174683298
30
0
41
1
10
-13.1699966571392
20
-0.787144176920094
30
0
41
1
10
-13.2230148165891
20
-0.51193306298083
30
0
41
1
10
-13.2454889136976
20
-0.232343719943259
30
0
41
1
10
-13.2505982867545
20
-0.0209673670418624
30
0
41
1
10
-13.2503399093062
20
0.0497726781011636
30
0
41
1
10
-13.2469365039879
20
0.156315184739981
30
0
41
1
10
-13.2452991642846
20
0.191848461785952
30
0
41
1
10
-13.2410429449998
20
0.26260576929343
30
0
41
1
10
-13.238422655649
20
0.29788055730657
30
0
41
1
10
-13.2228904369507
20
0.473741570914569
30
0
41
1
10
-13.2027059118385
20
0.612793118018203
30
0
41
1
10
-13.1472632100579
20
0.887717475546907
30
0
41
1
10
-13.1120040591079
20
1.02359007716612
30
0
41
1
10
-13.0477814830663
20
1.22501166377558
30
0
41
1
10
-13.0244813481594
20
1.29175355220838
30
0
41
1
10
-12.9866550651022
20
1.39126105134059
30
0
41
1
10
-12.9735673760034
20
1.42432226200259
30
0
41
1
10
-12.9465940156617
20
1.48984873967109
30
0
41
1
10
-12.9326897576672
20
1.52236409955998
30
0
41
1
10
-12.8611124023998
20
1.6837209157087
30
0
41
1
10
-12.7972883829372
20
1.80891261083696
30
0
41
1
10
-12.6570409007133
20
2.05183433442196
30
0
41
1
10
-12.5806158295878
20
2.16956338663476
30
0
41
1
10
-12.456614037022
20
2.34062360706454
30
0
41
1
10
-12.4137163910493
20
2.39671968054481
30
0
41
1
10
-12.3470080832681
20
2.47946985072323
30
0
41
1
10
-12.3243587430964
20
2.50684198941997
30
0
41
1
10
-12.2785103065266
20
2.56083928769198
30
0
41
1
10
-12.2552856904668
20
2.58749731720516
30
0
41
1
10
-12.1376841190669
20
2.7191119186831
30
0
41
1
10
-12.0388838172259
20
2.81905564230189
30
0
41
1
10
-11.8322424541654
20
3.00872015529552
30
0
41
1
10
-11.7244000562005
20
3.09843939257857
30
0
41
1
10
-11.5559397289975
20
3.22546261607789
30
0
41
1
10
-11.4700325268677
20
3.28708208116035
30
0
41
1
10
-11.3815971444373
20
3.34585217732871
30
0
41
1
10
-11.3220754526997
20
3.38439605897176
30
0
41
1
10
-11.292040288245
20
3.40334311576908
30
0
41
1
10
-11.1412090975778
20
3.49602533210225
30
0
41
1
10
-11.0178624240849
20
3.56400450490753
30
0
41
1
10
-10.7660399087142
20
3.68817940401553
30
0
41
1
10
-10.5090870676334
20
3.80056820619214
30
0
41
1
10
-10.2420386902451
20
3.88978307614644
30
0
41
1
10
-10.0379253701214
20
3.94791534242634
30
0
41
1
10
-9.96909745915056
20
3.96585824226258
30
0
41
1
10
-9.83135291982147
20
3.99849996722389
30
0
41
1
10
-9.76234395534392
20
4.01323252928683
30
0
41
1
10
-9.55491657989552
20
4.05276667806274
30
0
41
1
10
-9.27728095010187
20
4.09306602794717
30
0
41
1
10
-8.99756793694371
20
4.10909818487875
30
0
41
1
10
-8.78700252968957
20
4.11199303272582
30
0
41
1
10
-8.68152435641588
20
4.11115479473293
30
0
41
1
10
-8.57574943133044
20
4.10684733502725
30
0
41
1
10
-8.50516629236201
20
4.10319823461512
30
0
41
1
10
-8.46980183964929
20
4.10098187757546
30
0
41
1
10
-8.29331585260809
20
4.08797492768474
30
0
41
1
10
-8.01401881209091
20
4.05498113360133
30
0
41
1
10
-7.60401258929521
20
3.9700484893315
30
0
41
1
10
-7.33658355744123
20
3.88990547023428
30
0
41
1
10
-7.1382659772202
20
3.82077406868677
30
0
41
1
10
-7.07253642101864
20
3.79622368633017
30
0
41
1
10
-6.94184416469393
20
3.74404261833917
30
0
41
1
10
-6.87677097778639
20
3.71635464186531
30
0
41
1
10
-6.684620515541
20
3.62943113113022
30
0
41
1
10
-6.43547363472479
20
3.50286058308376
30
0
41
1
10
-6.20019551432108
20
3.35519532315169
30
0
41
1
10
-5.97193167710212
20
3.19679929975951
30
0
41
1
10
-5.86130586018859
20
3.11223762034933
30
0
41
1
10
-5.70084746445252
20
2.976960518319
30
0
41
1
10
-5.64827648052717
20
2.93045963401406
30
0
41
1
10
-5.57083822625772
20
2.85851887399454
30
0
41
1
10
-5.54527212997711
20
2.83418073743806
30
0
41
1
10
-5.49491518416581
20
2.78505654772476
30
0
41
1
10
-5.37077862375379
20
2.66094718161043
30
0
41
1
10
-5.16297868868602
20
2.42595959782511
30
0
41
1
10
-5.00050606880198
20
2.20052579380771
30
0
41
1
10
-4.84949796142115
20
1.96651765590468
30
0
41
1
10
-4.77972332880709
20
1.84522860126069
30
0
41
1
10
-4.70013346056201
20
1.68788889345916
30
0
41
1
10
-4.68459802487297
20
1.65613369721737
30
0
41
1
10
-4.65430866683165
20
1.59203591940047
30
0
41
1
10
-4.63961951812662
20
1.55982931719768
30
0
41
1
10
-4.59697075937379
20
1.46287124767929
30
0
41
1
10
-4.57040176631845
20
1.39772438763279
30
0
41
1
10
-4.49623484469881
20
1.20077091984024
30
0
41
1
10
-4.45416284893426
20
1.06745519319733
30
0
41
1
10
-4.38483973098332
20
0.796766705688356
30
0
41
1
10
-4.3575871714846
20
0.659394347137265
30
0
41
1
10
-4.32823260598516
20
0.450176351386972
30
0
41
1
10
-4.32037224999971
20
0.379909429312818
30
0
41
1
10
-4.3115575089962
20
0.273692890960888
30
0
41
1
10
-4.30911679194932
20
0.238135875832171
30
0
41
1
10
-4.30526526658653
20
0.16724966843708
30
0
41
1
10
-4.3038485515705
20
0.131858516368595
30
0
41
1
10
-4.29928184688688
20
-0.0448403601204177
30
0
41
1
10
-4.30803508602501
20
-0.325919299754872
30
0
41
1
10
-4.34808834866415
20
-0.603804167887773
30
0
41
1
10
-4.38992362484706
20
-0.811015490754897
30
0
41
1
10
-4.40583834464758
20
-0.879885172994932
30
0
41
1
10
-4.43270705638066
20
-0.982884526717726
30
0
41
1
10
-4.44217032644492
20
-1.01718590861154
30
0
41
1
10
-4.46197488601173
20
-1.08525827353964
30
0
41
1
10
-4.47232916662631
20
-1.11908206240852
30
0
41
1
10
-4.5263240712415
20
-1.28715681124945
30
0
41
1
10
-4.57661619545104
20
-1.41828396944325
30
0
41
1
10
-4.69077786428737
20
-1.67418013668302
30
0
41
1
10
-4.75464928409981
20
-1.79894823810969
30
0
41
1
10
-4.86051605570705
20
-1.9814064307725
30
0
41
1
10
-4.8974848813037
20
-2.04144198784033
30
0
41
1
10
-4.95547186109606
20
-2.1303154752336
30
0
41
1
10
-4.97518021274969
20
-2.1596756517269
30
0
41
1
10
-5.01523978740315
20
-2.217721162483
30
0
41
1
10
-5.03560698791506
20
-2.24643108036469
30
0
41
1
10
-5.13910252836227
20
-2.38844383924379
30
0
41
1
10
-5.22719533278762
20
-2.49714930138435
30
0
41
1
10
-5.41350735624911
20
-2.70522982093635
30
0
41
1
10
-5.51172813427725
20
-2.80460335382807
30
0
41
1
10
-5.66655415949984
20
-2.94679456592945
30
0
41
1
10
-5.71941439629155
20
-2.99304456512115
30
0
41
1
10
-5.80059087070437
20
-3.06069559037783
30
0
41
1
10
-5.82799317936011
20
-3.08298061083815
30
0
41
1
10
-5.88318202724081
20
-3.12678008067562
30
0
41
1
10
-5.91098923808762
20
-3.14831291582721
30
0
41
1
10
-6.0510739235954
20
-3.25417181988109
30
0
41
1
10
-6.16648897178851
20
-3.33309671162854
30
0
41
1
10
-6.40376177839866
20
-3.4799237142162
30
0
41
1
10
-6.64747909777059
20
-3.61572496141656
30
0
41
1
10
-6.90397104300807
20
-3.72979522464124
30
0
41
1
10
-7.0683485182994
20
-3.79420120928529
30
0
41
1
10
-7.10138315716434
20
-3.80671878486652
30
0
41
1
10
-7.16756150586419
20
-3.83095549389327
30
0
41
1
10
-7.26708520507506
20
-3.86614831884387
30
0
41
1
10
-7.36736914889526
20
-3.89789807262144
30
0
41
1
10
-7.56893622146872
20
-3.95688640216025
30
0
41
1
10
-7.84035247995467
20
-4.02352885778007
30
0
41
1
10
-8.11704065087486
20
-4.06649285805167
30
0
41
1
10
-8.32656566210038
20
-4.08972391593824
30
0
41
1
10
-8.39674266334193
20
-4.09596647403572
30
0
41
1
10
-8.5377791390604
20
-4.10539963226083
30
0
41
1
10
-8.60876511922162
20
-4.10858710179377
30
0
41
1
10
-8.82076408550671
20
-4.11345352733886
30
0
41
1
10
-9.10197722702191
20
-4.10756122538092
30
0
41
1
10
-9.38034954873871
20
-4.07745248182755
30
0
41
1
10
-9.6572941955375
20
-4.03519051548733
30
0
41
1
10
-9.79505279470982
20
-4.00798382236931
30
0
41
1
10
-10.0005846008154
20
-3.95778205961514
30
0
41
1
10
-10.0689105328774
20
-3.93948024155713
30
0
41
1
10
-10.1711148277304
20
-3.90961523742931
30
0
41
1
10
-10.2051251598403
20
-3.89925968500816
30
0
41
1
10
-10.2727097036818
20
-3.87784645157393
30
0
41
1
10
-10.4407902593359
20
-3.8224901810967
30
0
41
1
10
-10.7354909469787
20
-3.7066087702992
30
0
41
1
10
-10.9863587203157
20
-3.58062525866876
30
0
41
1
10
-11.1702603297196
20
-3.4773225114707
30
0
41
1
10
-11.261147174977
20
-3.42346390779153
30
0
41
1
10
-11.3504025722982
20
-3.36621876428424
30
0
41
1
10
-11.4095385806372
20
-3.32729206098463
30
0
41
1
10
-11.4389515824646
20
-3.30742712514831
30
0
41
1
10
-11.4681204191151
20
-3.28721445789113
30
0
0
LINE
5
95
100
AcDbEntity
8
80
62
256
6
ByLayer
370
18
48
1
60
0
100
AcDbLine
10
0
20
0
30
0
11
-5
21
0
31
0
39
0
210
0
220
0
230
1
0
LINE
5
96
100
AcDbEntity
8
4
62
256
6
ByLayer
370
18
48
0.05
60
0
100
AcDbLine
10
0
20
0
30
0
11
60
21
0
31
0
39
0
210
0
220
0
230
1
0
LINE
5
98
100
AcDbEntity
8
81
62
256
6
ByLayer
370
18
48
1
60
0
100
AcDbLine
10
60
20
0
30
0
11
65
21
0
31
0
39
0
210
0
220
0
230
1
0
LINE
5
99
100
AcDbEntity
8
SK4
62
256
6
ByLayer
370
18
48
0.05
60
0
100
AcDbLine
10
0
20
0
30
0
11
60
21
0
31
0
39
0
210
0
220
0
230
1
0
LINE
5
9B
100
AcDbEntity
8
1
62
256
6
ByLayer
370
18
48
1
60
0
100
AcDbLine
10
19.525
20
27.475
30
0
11
16.475
21
27.475
31
0
39
0
210
0
220
0
230
1
0
LINE
5
9C
100
AcDbEntity
8
1
62
256
6
ByLayer
370
18
48
1
60
0
100
AcDbLine
10
61.214791
20
15.646
30
0
11
60.375
21
15.646
31
0
39
0
210
0
220
0
230
1
0
LINE
5
9D
100
AcDbEntity
8
1
62
256
6
ByLayer
370
18
48
1
60
0
100
AcDbLine
10
60.375
20
-15.646
30
0
11
61.214791
21
-15.646
31
0
39
0
210
0
220
0
230
1
0
LINE
5
9E
100
AcDbEntity
8
1
62
256
6
ByLayer
370
18
48
1
60
0
100
AcDbLine
10
80
20
15.41865
30
0
11
79
21
15.996
31
0
39
0
210
0
220
0
230
1
0
LINE
5
9F
100
AcDbEntity
8
1
62
256
6
ByLayer
370
18
48
1
60
0
100
AcDbLine
10
79
20
-15.996
30
0
11
80
21
-15.41865
31
0
39
0
210
0
220
0
230
1
0
LINE
5
A0
100
AcDbEntity
8
1
62
256
6
ByLayer
370
18
48
1
60
0
100
AcDbLine
10
79
20
15.996
30
0
11
62.6
21
15.996
31
0
39
0
210
0
220
0
230
1
0
LINE
5
A1
100
AcDbEntity
8
1
62
256
6
ByLayer
370
18
48
1
60
0
100
AcDbLine
10
62.6
20
-15.996
30
0
11
79
21
-15.996
31
0
39
0
210
0
220
0
230
1
0
LINE
5
A2
100
AcDbEntity
8
1
62
256
6
ByLayer
370
18
48
1
60
0
100
AcDbLine
10
61.370082
20
-15.666445
30
0
11
62.6
21
-15.996
31
0
39
0
210
0
220
0
230
1
0
LINE
5
A3
100
AcDbEntity
8
1
62
256
6
ByLayer
370
18
48
1
60
0
100
AcDbLine
10
62.6
20
15.996
30
0
11
61.370082
21
15.666445
31
0
39
0
210
0
220
0
230
1
0
LINE
5
A4
100
AcDbEntity
8
1
62
256
6
ByLayer
370
18
48
1
60
0
100
AcDbLine
10
26.95
20
-26.25
30
0
11
41.25
21
-26.25
31
0
39
0
210
0
220
0
230
1
0
LINE
5
A5
100
AcDbEntity
8
1
62
256
6
ByLayer
370
18
48
1
60
0
100
AcDbLine
10
41.25
20
26.25
30
0
11
26.95
21
26.25
31
0
39
0
210
0
220
0
230
1
0
LINE
5
A6
100
AcDbEntity
8
1
62
256
6
ByLayer
370
18
48
1
60
0
100
AcDbLine
10
16.475
20
-27.475
30
0
11
19.525
21
-27.475
31
0
39
0
210
0
220
0
230
1
0
LINE
5
A7
100
AcDbEntity
8
1
62
256
6
ByLayer
370
18
48
1
60
0
100
AcDbLine
10
25.95
20
30.97
30
0
11
25.45
21
31.47
31
0
39
0
210
0
220
0
230
1
0
LINE
5
A8
100
AcDbEntity
8
1
62
256
6
ByLayer
370
18
48
1
60
0
100
AcDbLine
10
25.45
20
31.47
30
0
11
21.374612
21
31.47
31
0
39
0
210
0
220
0
230
1
0
LINE
5
A9
100
AcDbEntity
8
1
62
256
6
ByLayer
370
18
48
1
60
0
100
AcDbLine
10
21.374612
20
31.47
30
0
11
19.925
21
28.959198
31
0
39
0
210
0
220
0
230
1
0
LINE
5
AA
100
AcDbEntity
8
1
62
256
6
ByLayer
370
18
48
1
60
0
100
AcDbLine
10
16.075
20
28.959198
30
0
11
14.625388
21
31.47
31
0
39
0
210
0
220
0
230
1
0
LINE
5
AB
100
AcDbEntity
8
1
62
256
6
ByLayer
370
18
48
1
60
0
100
AcDbLine
10
14.625388
20
-31.47
30
0
11
16.075
21
-28.959198
31
0
39
0
210
0
220
0
230
1
0
LINE
5
AC
100
AcDbEntity
8
1
62
256
6
ByLayer
370
18
48
1
60
0
100
AcDbLine
10
21.374612
20
-31.47
30
0
11
25.45
21
-31.47
31
0
39
0
210
0
220
0
230
1
0
LINE
5
AD
100
AcDbEntity
8
1
62
256
6
ByLayer
370
18
48
1
60
0
100
AcDbLine
10
25.45
20
-31.47
30
0
11
25.95
21
-30.97
31
0
39
0
210
0
220
0
230
1
0
LINE
5
AE
100
AcDbEntity
8
1
62
256
6
ByLayer
370
18
48
1
60
0
100
AcDbLine
10
19.925
20
-28.959198
30
0
11
21.374612
21
-31.47
31
0
39
0
210
0
220
0
230
1
0
LINE
5
AF
100
AcDbEntity
8
1
62
256
6
ByLayer
370
18
48
1
60
0
100
AcDbLine
10
0
20
-30.97
30
0
11
0.5
21
-31.47
31
0
39
0
210
0
220
0
230
1
0
LINE
5
B0
100
AcDbEntity
8
1
62
256
6
ByLayer
370
18
48
1
60
0
100
AcDbLine
10
0.5
20
31.47
30
0
11
0
21
30.97
31
0
39
0
210
0
220
0
230
1
0
LINE
5
B1
100
AcDbEntity
8
1
62
256
6
ByLayer
370
18
48
1
60
0
100
AcDbLine
10
14.625388
20
31.47
30
0
11
0.5
21
31.47
31
0
39
0
210
0
220
0
230
1
0
LINE
5
B2
100
AcDbEntity
8
1
62
256
6
ByLayer
370
18
48
1
60
0
100
AcDbLine
10
0.5
20
-31.47
30
0
11
1.991532
21
-31.47
31
0
39
0
210
0
220
0
230
1
0
LINE
5
B3
100
AcDbEntity
8
1
62
256
6
ByLayer
370
18
48
1
60
0
100
AcDbLine
10
12.0225
20
-31.47
30
0
11
14.625388
21
-31.47
31
0
39
0
210
0
220
0
230
1
0
LINE
5
B4
100
AcDbEntity
8
1
62
256
6
ByLayer
370
18
48
1
60
0
100
AcDbLine
10
60
20
38.5
30
0
11
59.5
21
39
31
0
39
0
210
0
220
0
230
1
0
LINE
5
B5
100
AcDbEntity
8
1
62
256
6
ByLayer
370
18
48
1
60
0
100
AcDbLine
10
59.5
20
-39
30
0
11
60
21
-38.5
31
0
39
0
210
0
220
0
230
1
0
LINE
5
B6
100
AcDbEntity
8
1
62
256
6
ByLayer
370
18
48
1
60
0
100
AcDbLine
10
43.25
20
-39
30
0
11
59.5
21
-39
31
0
39
0
210
0
220
0
230
1
0
LINE
5
B7
100
AcDbEntity
8
1
62
256
6
ByLayer
370
18
48
1
60
0
100
AcDbLine
10
59.5
20
39
30
0
11
43.25
21
39
31
0
39
0
210
0
220
0
230
1
0
LINE
5
B8
100
AcDbEntity
8
SK2
62
256
6
ByLayer
370
18
48
1
60
0
100
AcDbLine
10
88
20
20
30
0
11
83
21
20
31
0
39
0
210
0
220
0
230
1
0
LINE
5
BA
100
AcDbEntity
8
SK2
62
256
6
ByLayer
370
18
48
1
60
0
100
AcDbLine
10
83
20
-20
30
0
11
88
21
-20
31
0
39
0
210
0
220
0
230
1
0
LINE
5
BB
100
AcDbEntity
8
SK2
62
256
6
ByLayer
370
18
48
1
60
0
100
AcDbLine
10
89
20
19
30
0
11
88
21
20
31
0
39
0
210
0
220
0
230
1
0
LINE
5
BC
100
AcDbEntity
8
SK2
62
256
6
ByLayer
370
18
48
1
60
0
100
AcDbLine
10
88
20
-20
30
0
11
89
21
-19
31
0
39
0
210
0
220
0
230
1
0
LINE
5
BD
100
AcDbEntity
8
SK2
62
256
6
ByLayer
370
18
48
1
60
0
100
AcDbLine
10
82.999414
20
8
30
0
11
79.999422
21
8
31
0
39
0
210
0
220
0
230
1
0
LINE
5
BE
100
AcDbEntity
8
SK2
62
256
6
ByLayer
370
18
48
1
60
0
100
AcDbLine
10
79.999422
20
-8
30
0
11
82.999414
21
-8
31
0
39
0
210
0
220
0
230
1
0
LINE
5
BF
100
AcDbEntity
8
SK2
62
256
6
ByLayer
370
18
48
1
60
0
100
AcDbLine
10
98
20
12
30
0
11
89
21
12
31
0
39
0
210
0
220
0
230
1
0
LINE
5
C0
100
AcDbEntity
8
SK2
62
256
6
ByLayer
370
18
48
1
60
0
100
AcDbLine
10
89
20
-12
30
0
11
98
21
-12
31
0
39
0
210
0
220
0
230
1
0
LINE
5
C1
100
AcDbEntity
8
SK1
62
256
6
ByLayer
370
18
48
1
60
0
100
AcDbLine
10
-0.45
20
23.970431
30
0
11
-1.566987
21
23.970431
31
0
39
0
210
0
220
0
230
1
0
LINE
5
C3
100
AcDbEntity
8
SK1
62
256
6
ByLayer
370
18
48
1
60
0
100
AcDbLine
10
-1.566987
20
-23.970431
30
0
11
-0.45
21
-23.970431
31
0
39
0
210
0
220
0
230
1
0
LINE
5
C4
100
AcDbEntity
8
SK1
62
256
6
ByLayer
370
18
48
1
60
0
100
AcDbLine
10
-1.566987
20
23.970431
30
0
11
-2
21
24.220431
31
0
39
0
210
0
220
0
230
1
0
LINE
5
C5
100
AcDbEntity
8
SK1
62
256
6
ByLayer
370
18
48
1
60
0
100
AcDbLine
10
-2
20
-24.220431
30
0
11
-1.566987
21
-23.970431
31
0
39
0
210
0
220
0
230
1
0
LINE
5
C6
100
AcDbEntity
8
SK1
62
256
6
ByLayer
370
18
48
1
60
0
100
AcDbLine
10
-30.760045
20
-22.779547
30
0
11
-2
21
-24.220431
31
0
39
0
210
0
220
0
230
1
0
LINE
5
C7
100
AcDbEntity
8
SK1
62
256
6
ByLayer
370
18
48
1
60
0
100
AcDbLine
10
-2
20
24.220431
30
0
11
-30.760045
21
22.779547
31
0
39
0
210
0
220
0
230
1
0
LINE
5
C8
100
AcDbEntity
8
1
62
256
6
ByLayer
370
13
48
1
60
0
100
AcDbLine
10
61.214791
20
15.646
30
0
11
61.214791
21
6.989305
31
0
39
0
210
0
220
0
230
1
0
LINE
5
C9
100
AcDbEntity
8
1
62
256
6
ByLayer
370
13
48
1
60
0
100
AcDbLine
10
61.214791
20
-6.989305
30
0
11
61.214791
21
-15.646
31
0
39
0
210
0
220
0
230
1
0
LINE
5
CA
100
AcDbEntity
8
1
62
256
6
ByLayer
370
18
48
1
60
0
100
AcDbLine
10
80
20
15.41865
30
0
11
80
21
0
31
0
39
0
210
0
220
0
230
1
0
LINE
5
CB
100
AcDbEntity
8
1
62
256
6
ByLayer
370
18
48
1
60
0
100
AcDbLine
10
80
20
0
30
0
11
80
21
-15.41865
31
0
39
0
210
0
220
0
230
1
0
LINE
5
CC
100
AcDbEntity
8
1
62
256
6
ByLayer
370
18
48
1
60
0
100
AcDbLine
10
79
20
15.996
30
0
11
79
21
0
31
0
39
0
210
0
220
0
230
1
0
LINE
5
CD
100
AcDbEntity
8
1
62
256
6
ByLayer
370
18
48
1
60
0
100
AcDbLine
10
79
20
0
30
0
11
79
21
-15.996
31
0
39
0
210
0
220
0
230
1
0
LINE
5
CE
100
AcDbEntity
8
1
62
256
6
ByLayer
370
13
48
1
60
0
100
AcDbLine
10
61.370082
20
-15.666445
30
0
11
61.370082
21
-6.99018
31
0
39
0
210
0
220
0
230
1
0
LINE
5
CF
100
AcDbEntity
8
1
62
256
6
ByLayer
370
13
48
1
60
0
100
AcDbLine
10
61.370082
20
6.99018
30
0
11
61.370082
21
15.666445
31
0
39
0
210
0
220
0
230
1
0
LINE
5
D0
100
AcDbEntity
8
1
62
256
6
ByLayer
370
18
48
1
60
0
100
AcDbLine
10
62.6
20
-15.996
30
0
11
62.6
21
-6.987866
31
0
39
0
210
0
220
0
230
1
0
LINE
5
D1
100
AcDbEntity
8
1
62
256
6
ByLayer
370
18
48
1
60
0
100
AcDbLine
10
62.6
20
6.987866
30
0
11
62.6
21
15.996
31
0
39
0
210
0
220
0
230
1
0
LINE
5
D2
100
AcDbEntity
8
1
62
256
6
ByLayer
370
13
48
1
60
0
100
AcDbLine
10
60.375
20
15.646
30
0
11
60.375
21
6.987931
31
0
39
0
210
0
220
0
230
1
0
LINE
5
D3
100
AcDbEntity
8
1
62
256
6
ByLayer
370
13
48
1
60
0
100
AcDbLine
10
60.375
20
-6.987931
30
0
11
60.375
21
-15.646
31
0
39
0
210
0
220
0
230
1
0
LINE
5
D4
100
AcDbEntity
8
1
62
256
6
ByLayer
370
13
48
1
60
0
100
AcDbLine
10
16.475
20
24.633002
30
0
11
16.475
21
22.168518
31
0
39
0
210
0
220
0
230
1
0
LINE
5
D5
100
AcDbEntity
8
1
62
256
6
ByLayer
370
13
48
1
60
0
100
AcDbLine
10
16.475
20
26.793247
30
0
11
16.475
21
25.344959
31
0
39
0
210
0
220
0
230
1
0
LINE
5
D6
100
AcDbEntity
8
1
62
256
6
ByLayer
370
13
48
1
60
0
100
AcDbLine
10
16.475
20
27.120833
30
0
11
16.475
21
27.475
31
0
39
0
210
0
220
0
230
1
0
LINE
5
D7
100
AcDbEntity
8
1
62
256
6
ByLayer
370
18
48
1
60
0
100
AcDbLine
10
25.95
20
6.752962
30
0
11
25.95
21
9.0175
31
0
39
0
210
0
220
0
230
1
0
LINE
5
D8
100
AcDbEntity
8
1
62
256
6
ByLayer
370
18
48
1
60
0
100
AcDbLine
10
25.95
20
-9.0175
30
0
11
25.95
21
-6.752962
31
0
39
0
210
0
220
0
230
1
0
LINE
5
D9
100
AcDbEntity
8
1
62
256
6
ByLayer
370
18
48
1
60
0
100
AcDbLine
10
16.075
20
-9.0175
30
0
11
16.075
21
-8.947381
31
0
39
0
210
0
220
0
230
1
0
LINE
5
DA
100
AcDbEntity
8
1
62
256
6
ByLayer
370
18
48
1
60
0
100
AcDbLine
10
16.075
20
8.947381
30
0
11
16.075
21
9.0175
31
0
39
0
210
0
220
0
230
1
0
LINE
5
DB
100
AcDbEntity
8
1
62
256
6
ByLayer
370
18
48
1
60
0
100
AcDbLine
10
19.925
20
-8.947381
30
0
11
19.925
21
-9.0175
31
0
39
0
210
0
220
0
230
1
0
LINE
5
DC
100
AcDbEntity
8
1
62
256
6
ByLayer
370
18
48
1
60
0
100
AcDbLine
10
19.925
20
9.0175
30
0
11
19.925
21
8.947381
31
0
39
0
210
0
220
0
230
1
0
LINE
5
DD
100
AcDbEntity
8
1
62
256
6
ByLayer
370
18
48
1
60
0
100
AcDbLine
10
19.525
20
7.610232
30
0
11
16.475
21
7.610232
31
0
39
0
210
0
220
0
230
1
0
LINE
5
DE
100
AcDbEntity
8
1
62
256
6
ByLayer
370
13
48
1
60
0
100
AcDbLine
10
16.475
20
21.111533
30
0
11
16.475
21
7.610232
31
0
39
0
210
0
220
0
230
1
0
LINE
5
DF
100
AcDbEntity
8
1
62
256
6
ByLayer
370
13
48
1
60
0
100
AcDbLine
10
26.95
20
26.25
30
0
11
26.95
21
-26.25
31
0
39
0
210
0
220
0
230
1
0
LINE
5
E0
100
AcDbEntity
8
1
62
256
6
ByLayer
370
13
48
1
60
0
100
AcDbLine
10
16.475
20
-27.475
30
0
11
16.475
21
-7.610232
31
0
39
0
210
0
220
0
230
1
0
LINE
5
E1
100
AcDbEntity
8
1
62
256
6
ByLayer
370
13
48
1
60
0
100
AcDbLine
10
19.525
20
-7.610232
30
0
11
19.525
21
-27.475
31
0
39
0
210
0
220
0
230
1
0
LINE
5
E2
100
AcDbEntity
8
1
62
256
6
ByLayer
370
18
48
1
60
0
100
AcDbLine
10
16.475
20
-7.610232
30
0
11
19.525
21
-7.610232
31
0
39
0
210
0
220
0
230
1
0
LINE
5
E3
100
AcDbEntity
8
1
62
256
6
ByLayer
370
13
48
1
60
0
100
AcDbLine
10
19.525
20
27.120833
30
0
11
19.525
21
27.475
31
0
39
0
210
0
220
0
230
1
0
LINE
5
E4
100
AcDbEntity
8
1
62
256
6
ByLayer
370
13
48
1
60
0
100
AcDbLine
10
19.525
20
26.793247
30
0
11
19.525
21
25.344959
31
0
39
0
210
0
220
0
230
1
0
LINE
5
E5
100
AcDbEntity
8
1
62
256
6
ByLayer
370
13
48
1
60
0
100
AcDbLine
10
19.525
20
24.633002
30
0
11
19.525
21
22.168518
31
0
39
0
210
0
220
0
230
1
0
LINE
5
E6
100
AcDbEntity
8
1
62
256
6
ByLayer
370
13
48
1
60
0
100
AcDbLine
10
19.525
20
21.111533
30
0
11
19.525
21
7.610232
31
0
39
0
210
0
220
0
230
1
0
LINE
5
E7
100
AcDbEntity
8
1
62
256
6
ByLayer
370
13
48
1
60
0
100
AcDbLine
10
41.25
20
26.25
30
0
11
41.25
21
-26.25
31
0
39
0
210
0
220
0
230
1
0
LINE
5
E8
100
AcDbEntity
8
1
62
256
6
ByLayer
370
18
48
1
60
0
100
AcDbLine
10
25.95
20
30.97
30
0
11
25.95
21
9.0175
31
0
39
0
210
0
220
0
230
1
0
LINE
5
E9
100
AcDbEntity
8
1
62
256
6
ByLayer
370
18
48
1
60
0
100
AcDbLine
10
25.45
20
9.0175
30
0
11
21.374612
21
9.0175
31
0
39
0
210
0
220
0
230
1
0
LINE
5
EA
100
AcDbEntity
8
1
62
256
6
ByLayer
370
18
48
1
60
0
100
AcDbLine
10
25.45
20
9.0175
30
0
11
25.45
21
31.47
31
0
39
0
210
0
220
0
230
1
0
LINE
5
EB
100
AcDbEntity
8
1
62
256
6
ByLayer
370
18
48
1
60
0
100
AcDbLine
10
21.374612
20
31.47
30
0
11
21.374612
21
9.0175
31
0
39
0
210
0
220
0
230
1
0
LINE
5
EC
100
AcDbEntity
8
1
62
256
6
ByLayer
370
18
48
1
60
0
100
AcDbLine
10
19.925
20
28.959198
30
0
11
19.925
21
9.0175
31
0
39
0
210
0
220
0
230
1
0
LINE
5
ED
100
AcDbEntity
8
1
62
256
6
ByLayer
370
18
48
1
60
0
100
AcDbLine
10
16.075
20
28.959198
30
0
11
16.075
21
9.0175
31
0
39
0
210
0
220
0
230
1
0
LINE
5
EE
100
AcDbEntity
8
1
62
256
6
ByLayer
370
18
48
1
60
0
100
AcDbLine
10
16.075
20
-28.959198
30
0
11
16.075
21
-9.0175
31
0
39
0
210
0
220
0
230
1
0
LINE
5
EF
100
AcDbEntity
8
1
62
256
6
ByLayer
370
18
48
1
60
0
100
AcDbLine
10
21.374612
20
-9.0175
30
0
11
25.45
21
-9.0175
31
0
39
0
210
0
220
0
230
1
0
LINE
5
F0
100
AcDbEntity
8
1
62
256
6
ByLayer
370
18
48
1
60
0
100
AcDbLine
10
25.45
20
-9.0175
30
0
11
25.45
21
-31.47
31
0
39
0
210
0
220
0
230
1
0
LINE
5
F1
100
AcDbEntity
8
1
62
256
6
ByLayer
370
18
48
1
60
0
100
AcDbLine
10
25.95
20
-30.97
30
0
11
25.95
21
-9.0175
31
0
39
0
210
0
220
0
230
1
0
LINE
5
F2
100
AcDbEntity
8
1
62
256
6
ByLayer
370
18
48
1
60
0
100
AcDbLine
10
19.925
20
-28.959198
30
0
11
19.925
21
-9.0175
31
0
39
0
210
0
220
0
230
1
0
LINE
5
F3
100
AcDbEntity
8
1
62
256
6
ByLayer
370
18
48
1
60
0
100
AcDbLine
10
21.374612
20
-31.47
30
0
11
21.374612
21
-9.0175
31
0
39
0
210
0
220
0
230
1
0
LINE
5
F4
100
AcDbEntity
8
1
62
256
6
ByLayer
370
18
48
1
60
0
100
AcDbLine
10
0
20
30.97
30
0
11
0
21
0
31
0
39
0
210
0
220
0
230
1
0
LINE
5
F5
100
AcDbEntity
8
1
62
256
6
ByLayer
370
18
48
1
60
0
100
AcDbLine
10
0
20
0
30
0
11
0
21
-30.97
31
0
39
0
210
0
220
0
230
1
0
LINE
5
F6
100
AcDbEntity
8
1
62
256
6
ByLayer
370
18
48
1
60
0
100
AcDbLine
10
0.5
20
-31.47
30
0
11
0.5
21
0
31
0
39
0
210
0
220
0
230
1
0
LINE
5
F7
100
AcDbEntity
8
1
62
256
6
ByLayer
370
18
48
1
60
0
100
AcDbLine
10
0.5
20
0
30
0
11
0.5
21
31.47
31
0
39
0
210
0
220
0
230
1
0
LINE
5
F8
100
AcDbEntity
8
1
62
256
6
ByLayer
370
18
48
1
60
0
100
AcDbLine
10
14.625388
20
-9.0175
30
0
11
14.625388
21
-31.47
31
0
39
0
210
0
220
0
230
1
0
LINE
5
F9
100
AcDbEntity
8
1
62
256
6
ByLayer
370
18
48
1
60
0
100
AcDbLine
10
12.95
20
-9.0175
30
0
11
14.625388
21
-9.0175
31
0
39
0
210
0
220
0
230
1
0
LINE
5
FA
100
AcDbEntity
8
1
62
256
6
ByLayer
370
18
48
1
60
0
100
AcDbLine
10
4.95
20
1.0175
30
0
11
4.95
21
-1.0175
31
0
39
0
210
0
220
0
230
1
0
LINE
5
FB
100
AcDbEntity
8
1
62
256
6
ByLayer
370
18
48
1
60
0
100
AcDbLine
10
14.625388
20
9.0175
30
0
11
12.95
21
9.0175
31
0
39
0
210
0
220
0
230
1
0
LINE
5
FC
100
AcDbEntity
8
1
62
256
6
ByLayer
370
18
48
1
60
0
100
AcDbLine
10
14.625388
20
9.0175
30
0
11
14.625388
21
31.47
31
0
39
0
210
0
220
0
230
1
0
LINE
5
FD
100
AcDbEntity
8
1
62
256
6
ByLayer
370
18
48
1
60
0
100
AcDbLine
10
60
20
38.5
30
0
11
60
21
0
31
0
39
0
210
0
220
0
230
1
0
LINE
5
FE
100
AcDbEntity
8
1
62
256
6
ByLayer
370
18
48
1
60
0
100
AcDbLine
10
60
20
0
30
0
11
60
21
-38.5
31
0
39
0
210
0
220
0
230
1
0
LINE
5
FF
100
AcDbEntity
8
1
62
256
6
ByLayer
370
18
48
1
60
0
100
AcDbLine
10
59.5
20
39
30
0
11
59.5
21
0
31
0
39
0
210
0
220
0
230
1
0
LINE
5
100
100
AcDbEntity
8
1
62
256
6
ByLayer
370
18
48
1
60
0
100
AcDbLine
10
59.5
20
0
30
0
11
59.5
21
-39
31
0
39
0
210
0
220
0
230
1
0
LINE
5
101
100
AcDbEntity
8
1
62
256
6
ByLayer
370
18
48
1
60
0
100
AcDbLine
10
42.25
20
38
30
0
11
42.25
21
-38
31
0
39
0
210
0
220
0
230
1
0
LINE
5
102
100
AcDbEntity
8
1
62
256
6
ByLayer
370
13
48
1
60
0
100
AcDbLine
10
43.25
20
39
30
0
11
43.25
21
-39
31
0
39
0
210
0
220
0
230
1
0
LINE
5
103
100
AcDbEntity
8
SK2
62
256
6
ByLayer
370
18
48
1
60
0
100
AcDbLine
10
83
20
20
30
0
11
83
21
-20
31
0
39
0
210
0
220
0
230
1
0
LINE
5
104
100
AcDbEntity
8
SK2
62
256
6
ByLayer
370
18
48
1
60
0
100
AcDbLine
10
88
20
-20
30
0
11
88
21
20
31
0
39
0
210
0
220
0
230
1
0
LINE
5
105
100
AcDbEntity
8
SK2
62
256
6
ByLayer
370
18
48
1
60
0
100
AcDbLine
10
89
20
19
30
0
11
89
21
-19
31
0
39
0
210
0
220
0
230
1
0
LINE
5
106
100
AcDbEntity
8
SK2
62
256
6
ByLayer
370
18
48
1
60
0
100
AcDbLine
10
99
20
11
30
0
11
99
21
-11
31
0
39
0
210
0
220
0
230
1
0
LINE
5
107
100
AcDbEntity
8
SK2
62
256
6
ByLayer
370
13
48
1
60
0
100
AcDbLine
10
98
20
-12
30
0
11
98
21
12
31
0
39
0
210
0
220
0
230
1
0
LINE
5
108
100
AcDbEntity
8
1
62
256
6
ByLayer
370
18
48
1
60
0
100
AcDbLine
10
66.4
20
-6.98925
30
0
11
60.000156
21
-6.98925
31
0
39
0
210
0
220
0
230
1
0
LINE
5
109
100
AcDbEntity
8
1
62
256
6
ByLayer
370
18
48
1
60
0
100
AcDbLine
10
67
20
-6.38925
30
0
11
66.4
21
-6.98925
31
0
39
0
210
0
220
0
230
1
0
LINE
5
10A
100
AcDbEntity
8
1
62
256
6
ByLayer
370
18
48
1
60
0
100
AcDbLine
10
67
20
-5.49643
30
0
11
67
21
-6.38925
31
0
39
0
210
0
220
0
230
1
0
LINE
5
10B
100
AcDbEntity
8
1
62
256
6
ByLayer
370
18
48
1
60
0
100
AcDbLine
10
60.000156
20
-3.257199
30
0
11
66.4
21
-3.257199
31
0
39
0
210
0
220
0
230
1
0
LINE
5
10C
100
AcDbEntity
8
1
62
256
6
ByLayer
370
18
48
1
60
0
100
AcDbLine
10
66.4
20
6.98925
30
0
11
67
21
6.38925
31
0
39
0
210
0
220
0
230
1
0
LINE
5
10D
100
AcDbEntity
8
1
62
256
6
ByLayer
370
18
48
1
60
0
100
AcDbLine
10
60.000156
20
6.98925
30
0
11
66.4
21
6.98925
31
0
39
0
210
0
220
0
230
1
0
LINE
5
10E
100
AcDbEntity
8
1
62
256
6
ByLayer
370
18
48
1
60
0
100
AcDbLine
10
66.4
20
3.257199
30
0
11
60.000156
21
3.257199
31
0
39
0
210
0
220
0
230
1
0
LINE
5
10F
100
AcDbEntity
8
1
62
256
6
ByLayer
370
18
48
1
60
0
100
AcDbLine
10
67
20
6.38925
30
0
11
67
21
5.49643
31
0
39
0
210
0
220
0
230
1
0
LINE
5
110
100
AcDbEntity
8
1
62
256
6
ByLayer
370
18
48
1
60
0
100
AcDbLine
10
66.4
20
-3.257199
30
0
11
66.4
21
3.257199
31
0
39
0
210
0
220
0
230
1
0
LINE
5
111
100
AcDbEntity
8
1
62
256
6
ByLayer
370
18
48
1
60
0
100
AcDbLine
10
66.4
20
-3.257199
30
0
11
67
21
-5.49643
31
0
39
0
210
0
220
0
230
1
0
LINE
5
112
100
AcDbEntity
8
1
62
256
6
ByLayer
370
18
48
1
60
0
100
AcDbLine
10
67
20
5.49643
30
0
11
67
21
-5.49643
31
0
39
0
210
0
220
0
230
1
0
LINE
5
113
100
AcDbEntity
8
1
62
256
6
ByLayer
370
18
48
1
60
0
100
AcDbLine
10
67
20
5.49643
30
0
11
66.4
21
3.257199
31
0
39
0
210
0
220
0
230
1
0
LINE
5
114
100
AcDbEntity
8
SK1
62
256
6
ByLayer
370
18
48
1
60
0
100
AcDbLine
10
-25.8
20
4.87
30
0
11
-25.8
21
-4.87
31
0
39
0
210
0
220
0
230
1
0
LINE
5
115
100
AcDbEntity
8
SK1
62
256
6
ByLayer
370
13
48
1
60
0
100
AcDbLine
10
-23.2
20
-12.535097
30
0
11
-23.2
21
-10.457493
31
0
39
0
210
0
220
0
230
1
0
LINE
5
116
100
AcDbEntity
8
SK1
62
256
6
ByLayer
370
18
48
1
60
0
100
AcDbLine
10
-31.9
20
8.872886
30
0
11
-31.9
21
21.58105
31
0
39
0
210
0
220
0
230
1
0
LINE
5
117
100
AcDbEntity
8
SK1
62
256
6
ByLayer
370
18
48
1
60
0
100
AcDbLine
10
-31.9
20
-21.58105
30
0
11
-31.9
21
-8.872886
31
0
39
0
210
0
220
0
230
1
0
LINE
5
118
100
AcDbEntity
8
SK1
62
256
6
ByLayer
370
13
48
1
60
0
100
AcDbLine
10
-31.842316
20
-9.961592
30
0
11
-31.06758
21
-10.313314
31
0
39
0
210
0
220
0
230
1
0
LINE
5
119
100
AcDbEntity
8
SK1
62
256
6
ByLayer
370
18
48
1
60
0
100
AcDbLine
10
-31.9
20
-7.42
30
0
11
-30.75
21
-6.27
31
0
39
0
210
0
220
0
230
1
0
LINE
5
11A
100
AcDbEntity
8
SK1
62
256
6
ByLayer
370
18
48
1
60
0
100
AcDbLine
10
-31.9
20
-7.42
30
0
11
-31.9
21
-8.872886
31
0
39
0
210
0
220
0
230
1
0
LINE
5
11B
100
AcDbEntity
8
SK1
62
256
6
ByLayer
370
18
48
1
60
0
100
AcDbLine
10
-23.2
20
6.27
30
0
11
-30.75
21
6.27
31
0
39
0
210
0
220
0
230
1
0
LINE
5
11C
100
AcDbEntity
8
SK1
62
256
6
ByLayer
370
18
48
1
60
0
100
AcDbLine
10
-31.9
20
7.42
30
0
11
-31.9
21
8.872886
31
0
39
0
210
0
220
0
230
1
0
LINE
5
11D
100
AcDbEntity
8
SK1
62
256
6
ByLayer
370
18
48
1
60
0
100
AcDbLine
10
-31.9
20
7.42
30
0
11
-30.75
21
6.27
31
0
39
0
210
0
220
0
230
1
0
LINE
5
11E
100
AcDbEntity
8
SK1
62
256
6
ByLayer
370
18
48
1
60
0
100
AcDbLine
10
-30.75
20
9.188436
30
0
11
-30.75
21
6.27
31
0
39
0
210
0
220
0
230
1
0
LINE
5
11F
100
AcDbEntity
8
SK1
62
256
6
ByLayer
370
13
48
1
60
0
100
AcDbLine
10
-31.842316
20
9.961592
30
0
11
-31.06758
21
10.313314
31
0
39
0
210
0
220
0
230
1
0
LINE
5
120
100
AcDbEntity
8
SK1
62
256
6
ByLayer
370
13
48
1
60
0
100
AcDbLine
10
-23.2
20
-10.457493
30
0
11
-25.542528
21
-10.457493
31
0
39
0
210
0
220
0
230
1
0
LINE
5
121
100
AcDbEntity
8
SK1
62
256
6
ByLayer
370
18
48
1
60
0
100
AcDbLine
10
-23.2
20
-6.27
30
0
11
-30.75
21
-6.27
31
0
39
0
210
0
220
0
230
1
0
LINE
5
122
100
AcDbEntity
8
SK1
62
256
6
ByLayer
370
18
48
1
60
0
100
AcDbLine
10
-30.75
20
-9.188436
30
0
11
-30.75
21
-6.27
31
0
39
0
210
0
220
0
230
1
0
LINE
5
123
100
AcDbEntity
8
SK1
62
256
6
ByLayer
370
13
48
1
60
0
100
AcDbLine
10
-23.2
20
10.457493
30
0
11
-25.542528
21
10.457493
31
0
39
0
210
0
220
0
230
1
0
LINE
5
124
100
AcDbEntity
8
SK1
62
256
6
ByLayer
370
13
48
1
60
0
100
AcDbLine
10
-23.2
20
10.457493
30
0
11
-23.2
21
12.535097
31
0
39
0
210
0
220
0
230
1
0
LINE
5
125
100
AcDbEntity
8
SK1
62
256
6
ByLayer
370
13
48
1
60
0
100
AcDbLine
10
-23.2
20
6.27
30
0
11
-23.2
21
10.457493
31
0
39
0
210
0
220
0
230
1
0
LINE
5
126
100
AcDbEntity
8
SK1
62
256
6
ByLayer
370
13
48
1
60
0
100
AcDbLine
10
-23.2
20
-10.457493
30
0
11
-23.2
21
-6.27
31
0
39
0
210
0
220
0
230
1
0
LINE
5
127
100
AcDbEntity
8
SK1
62
256
6
ByLayer
370
13
48
1
60
0
100
AcDbLine
10
-0.45
20
23.970431
30
0
11
-0.45
21
0
31
0
39
0
210
0
220
0
230
1
0
LINE
5
128
100
AcDbEntity
8
SK1
62
256
6
ByLayer
370
13
48
1
60
0
100
AcDbLine
10
-0.45
20
0
30
0
11
-0.45
21
-23.970431
31
0
39
0
210
0
220
0
230
1
0
LINE
5
129
100
AcDbEntity
8
SK1
62
256
6
ByLayer
370
18
48
1
60
0
100
AcDbLine
10
-1.566987
20
23.970431
30
0
11
-1.566987
21
0
31
0
39
0
210
0
220
0
230
1
0
LINE
5
12A
100
AcDbEntity
8
SK1
62
256
6
ByLayer
370
18
48
1
60
0
100
AcDbLine
10
-1.566987
20
0
30
0
11
-1.566987
21
-23.970431
31
0
39
0
210
0
220
0
230
1
0
LINE
5
12B
100
AcDbEntity
8
SK1
62
256
6
ByLayer
370
18
48
1
60
0
100
AcDbLine
10
-2
20
-24.220431
30
0
11
-2
21
0
31
0
39
0
210
0
220
0
230
1
0
LINE
5
12C
100
AcDbEntity
8
SK1
62
256
6
ByLayer
370
18
48
1
60
0
100
AcDbLine
10
-2
20
0
30
0
11
-2
21
24.220431
31
0
39
0
210
0
220
0
230
1
0
LINE
5
12D
100
AcDbEntity
8
SK1
62
256
6
ByLayer
370
13
48
1
60
0
100
AcDbLine
10
-30.760045
20
22.779547
30
0
11
-30.760045
21
9.210823
31
0
39
0
210
0
220
0
230
1
0
LINE
5
12E
100
AcDbEntity
8
SK1
62
256
6
ByLayer
370
18
48
1
60
0
100
AcDbLine
10
-21.8
20
7.593863
30
0
11
-21.8
21
-7.593863
31
0
39
0
210
0
220
0
230
1
0
LINE
5
12F
100
AcDbEntity
8
SK1
62
256
6
ByLayer
370
13
48
1
60
0
100
AcDbLine
10
-30.760045
20
-9.210823
30
0
11
-30.760045
21
-22.779547
31
0
39
0
210
0
220
0
230
1
0
LINE
5
130
100
AcDbEntity
8
1
62
256
6
ByLayer
370
13
48
0.05
60
0
100
AcDbLine
10
-17.75
20
0
30
0
11
-0.25
21
0
31
0
39
0
210
0
220
0
230
1
0
LINE
5
131
100
AcDbEntity
8
1
62
256
6
ByLayer
370
13
48
0.05
60
0
100
AcDbLine
10
-9
20
-8.75
30
0
11
-9
21
8.75
31
0
39
0
210
0
220
0
230
1
0
LINE
5
132
100
AcDbEntity
8
SK2
62
256
6
ByLayer
370
18
48
1
60
0
100
AcDbLine
10
-48.875025
20
-31.47
30
0
11
-48.875025
21
31.47
31
0
39
0
210
0
220
0
230
1
0
LINE
5
133
100
AcDbEntity
8
SK2
62
256
6
ByLayer
370
18
48
1
60
0
100
AcDbLine
10
-1.0875
20
31.47
30
0
11
-50.875025
21
31.47
31
0
39
0
210
0
220
0
230
1
0
LINE
5
134
100
AcDbEntity
8
SK2
62
256
6
ByLayer
370
18
48
1
60
0
100
AcDbLine
10
-1.0875
20
-31.47
30
0
11
-50.875025
21
-31.47
31
0
39
0
210
0
220
0
230
1
0
LINE
5
135
100
AcDbEntity
8
1
62
256
6
ByLayer
370
18
48
1
60
1
100
AcDbLine
10
-48.875025
20
31.47
30
0
11
-48.414241
21
27.970002
31
0
39
0
210
0
220
0
230
1
0
LINE
5
136
100
AcDbEntity
8
1
62
256
6
ByLayer
370
18
48
1
60
1
100
AcDbLine
10
-48.414241
20
27.970002
30
0
11
-49.335809
21
27.969998
31
0
39
0
210
0
220
0
230
1
0
LINE
5
137
100
AcDbEntity
8
1
62
256
6
ByLayer
370
18
48
1
60
1
100
AcDbLine
10
-49.335809
20
27.969998
30
0
11
-48.875025
21
31.47
31
0
39
0
210
0
220
0
230
1
0
LINE
5
138
100
AcDbEntity
8
1
62
256
6
ByLayer
370
18
48
1
60
1
100
AcDbLine
10
-48.875025
20
-31.47
30
0
11
-49.335809
21
-27.970002
31
0
39
0
210
0
220
0
230
1
0
LINE
5
139
100
AcDbEntity
8
1
62
256
6
ByLayer
370
18
48
1
60
1
100
AcDbLine
10
-49.335809
20
-27.970002
30
0
11
-48.414241
21
-27.969998
31
0
39
0
210
0
220
0
230
1
0
LINE
5
13A
100
AcDbEntity
8
1
62
256
6
ByLayer
370
18
48
1
60
1
100
AcDbLine
10
-48.414241
20
-27.969998
30
0
11
-48.875025
21
-31.47
31
0
39
0
210
0
220
0
230
1
0
LINE
5
13B
100
AcDbEntity
8
SK2
62
256
6
ByLayer
370
18
48
1
60
0
100
AcDbLine
10
129.725
20
-15.996
30
0
11
129.725
21
15.996
31
0
39
0
210
0
220
0
230
1
0
LINE
5
13C
100
AcDbEntity
8
SK2
62
256
6
ByLayer
370
18
48
1
60
0
100
AcDbLine
10
80.5875
20
15.996
30
0
11
131.725
21
15.996
31
0
39
0
210
0
220
0
230
1
0
LINE
5
13D
100
AcDbEntity
8
SK2
62
256
6
ByLayer
370
18
48
1
60
0
100
AcDbLine
10
80.5875
20
-15.996
30
0
11
131.725
21
-15.996
31
0
39
0
210
0
220
0
230
1
0
LINE
5
13E
100
AcDbEntity
8
1
62
256
6
ByLayer
370
18
48
1
60
1
100
AcDbLine
10
129.725
20
15.996
30
0
11
130.185784
21
12.496002
31
0
39
0
210
0
220
0
230
1
0
LINE
5
13F
100
AcDbEntity
8
1
62
256
6
ByLayer
370
18
48
1
60
1
100
AcDbLine
10
130.185784
20
12.496002
30
0
11
129.264216
21
12.495998
31
0
39
0
210
0
220
0
230
1
0
LINE
5
140
100
AcDbEntity
8
1
62
256
6
ByLayer
370
18
48
1
60
1
100
AcDbLine
10
129.264216
20
12.495998
30
0
11
129.725
21
15.996
31
0
39
0
210
0
220
0
230
1
0
LINE
5
141
100
AcDbEntity
8
1
62
256
6
ByLayer
370
18
48
1
60
1
100
AcDbLine
10
129.725
20
-15.996
30
0
11
129.264216
21
-12.496002
31
0
39
0
210
0
220
0
230
1
0
LINE
5
142
100
AcDbEntity
8
1
62
256
6
ByLayer
370
18
48
1
60
1
100
AcDbLine
10
129.264216
20
-12.496002
30
0
11
130.185784
21
-12.495998
31
0
39
0
210
0
220
0
230
1
0
LINE
5
143
100
AcDbEntity
8
1
62
256
6
ByLayer
370
18
48
1
60
1
100
AcDbLine
10
130.185784
20
-12.495998
30
0
11
129.725
21
-15.996
31
0
39
0
210
0
220
0
230
1
0
LINE
5
144
100
AcDbEntity
8
SK2
62
256
6
ByLayer
370
18
48
1
60
0
100
AcDbLine
10
144.725
20
26.25
30
0
11
144.725
21
-26.25
31
0
39
0
210
0
220
0
230
1
0
LINE
5
145
100
AcDbEntity
8
SK2
62
256
6
ByLayer
370
18
48
1
60
0
100
AcDbLine
10
42.8375
20
-26.25
30
0
11
146.725
21
-26.25
31
0
39
0
210
0
220
0
230
1
0
LINE
5
146
100
AcDbEntity
8
SK2
62
256
6
ByLayer
370
18
48
1
60
0
100
AcDbLine
10
42.8375
20
26.25
30
0
11
146.725
21
26.25
31
0
39
0
210
0
220
0
230
1
0
LINE
5
147
100
AcDbEntity
8
1
62
256
6
ByLayer
370
18
48
1
60
1
100
AcDbLine
10
144.725
20
-26.25
30
0
11
144.264216
21
-22.750002
31
0
39
0
210
0
220
0
230
1
0
LINE
5
148
100
AcDbEntity
8
1
62
256
6
ByLayer
370
18
48
1
60
1
100
AcDbLine
10
144.264216
20
-22.750002
30
0
11
145.185784
21
-22.749998
31
0
39
0
210
0
220
0
230
1
0
LINE
5
149
100
AcDbEntity
8
1
62
256
6
ByLayer
370
18
48
1
60
1
100
AcDbLine
10
145.185784
20
-22.749998
30
0
11
144.725
21
-26.25
31
0
39
0
210
0
220
0
230
1
0
LINE
5
14A
100
AcDbEntity
8
1
62
256
6
ByLayer
370
18
48
1
60
1
100
AcDbLine
10
144.725
20
26.25
30
0
11
145.185784
21
22.750002
31
0
39
0
210
0
220
0
230
1
0
LINE
5
14B
100
AcDbEntity
8
1
62
256
6
ByLayer
370
18
48
1
60
1
100
AcDbLine
10
145.185784
20
22.750002
30
0
11
144.264216
21
22.749998
31
0
39
0
210
0
220
0
230
1
0
LINE
5
14C
100
AcDbEntity
8
1
62
256
6
ByLayer
370
18
48
1
60
1
100
AcDbLine
10
144.264216
20
22.749998
30
0
11
144.725
21
26.25
31
0
39
0
210
0
220
0
230
1
0
LINE
5
14D
100
AcDbEntity
8
SK2
62
256
6
ByLayer
370
18
48
1
60
0
100
AcDbLine
10
154.725
20
39
30
0
11
154.725
21
-39
31
0
39
0
210
0
220
0
230
1
0
LINE
5
14E
100
AcDbEntity
8
SK2
62
256
6
ByLayer
370
18
48
1
60
0
100
AcDbLine
10
61.0875
20
-39
30
0
11
156.725
21
-39
31
0
39
0
210
0
220
0
230
1
0
LINE
5
14F
100
AcDbEntity
8
SK2
62
256
6
ByLayer
370
18
48
1
60
0
100
AcDbLine
10
61.0875
20
39
30
0
11
156.725
21
39
31
0
39
0
210
0
220
0
230
1
0
LINE
5
150
100
AcDbEntity
8
1
62
256
6
ByLayer
370
18
48
1
60
1
100
AcDbLine
10
154.725
20
-39
30
0
11
154.264216
21
-35.500002
31
0
39
0
210
0
220
0
230
1
0
LINE
5
151
100
AcDbEntity
8
1
62
256
6
ByLayer
370
18
48
1
60
1
100
AcDbLine
10
154.264216
20
-35.500002
30
0
11
155.185784
21
-35.499998
31
0
39
0
210
0
220
0
230
1
0
LINE
5
152
100
AcDbEntity
8
1
62
256
6
ByLayer
370
18
48
1
60
1
100
AcDbLine
10
155.185784
20
-35.499998
30
0
11
154.725
21
-39
31
0
39
0
210
0
220
0
230
1
0
LINE
5
153
100
AcDbEntity
8
1
62
256
6
ByLayer
370
18
48
1
60
1
100
AcDbLine
10
154.725
20
39
30
0
11
155.185784
21
35.500002
31
0
39
0
210
0
220
0
230
1
0
LINE
5
154
100
AcDbEntity
8
1
62
256
6
ByLayer
370
18
48
1
60
1
100
AcDbLine
10
155.185784
20
35.500002
30
0
11
154.264216
21
35.499998
31
0
39
0
210
0
220
0
230
1
0
LINE
5
155
100
AcDbEntity
8
1
62
256
6
ByLayer
370
18
48
1
60
1
100
AcDbLine
10
154.264216
20
35.499998
30
0
11
154.725
21
39
31
0
39
0
210
0
220
0
230
1
0
LINE
5
156
100
AcDbEntity
8
SK2
62
256
6
ByLayer
370
18
48
1
60
0
100
AcDbLine
10
-31.9
20
66.85
30
0
11
0
21
66.85
31
0
39
0
210
0
220
0
230
1
0
LINE
5
157
100
AcDbEntity
8
SK2
62
256
6
ByLayer
370
18
48
1
60
0
100
AcDbLine
10
0
20
32.5575
30
0
11
0
21
68.85
31
0
39
0
210
0
220
0
230
1
0
LINE
5
158
100
AcDbEntity
8
SK2
62
256
6
ByLayer
370
18
48
1
60
0
100
AcDbLine
10
-31.9
20
23.16855
30
0
11
-31.9
21
68.85
31
0
39
0
210
0
220
0
230
1
0
LINE
5
159
100
AcDbEntity
8
1
62
256
6
ByLayer
370
18
48
1
60
1
100
AcDbLine
10
0
20
66.85
30
0
11
-3.499998
21
66.389216
31
0
39
0
210
0
220
0
230
1
0
LINE
5
15A
100
AcDbEntity
8
1
62
256
6
ByLayer
370
18
48
1
60
1
100
AcDbLine
10
-3.499998
20
66.389216
30
0
11
-3.500002
21
67.310784
31
0
39
0
210
0
220
0
230
1
0
LINE
5
15B
100
AcDbEntity
8
1
62
256
6
ByLayer
370
18
48
1
60
1
100
AcDbLine
10
-3.500002
20
67.310784
30
0
11
0
21
66.85
31
0
39
0
210
0
220
0
230
1
0
LINE
5
15C
100
AcDbEntity
8
1
62
256
6
ByLayer
370
18
48
1
60
1
100
AcDbLine
10
-31.9
20
66.85
30
0
11
-28.400002
21
67.310784
31
0
39
0
210
0
220
0
230
1
0
LINE
5
15D
100
AcDbEntity
8
1
62
256
6
ByLayer
370
18
48
1
60
1
100
AcDbLine
10
-28.400002
20
67.310784
30
0
11
-28.399998
21
66.389216
31
0
39
0
210
0
220
0
230
1
0
LINE
5
15E
100
AcDbEntity
8
1
62
256
6
ByLayer
370
18
48
1
60
1
100
AcDbLine
10
-28.399998
20
66.389216
30
0
11
-31.9
21
66.85
31
0
39
0
210
0
220
0
230
1
0
LINE
5
15F
100
AcDbEntity
8
SK2
62
256
6
ByLayer
370
18
48
1
60
0
100
AcDbLine
10
0
20
56.85
30
0
11
42.25
21
56.85
31
0
39
0
210
0
220
0
230
1
0
LINE
5
160
100
AcDbEntity
8
SK2
62
256
6
ByLayer
370
18
48
1
60
0
100
AcDbLine
10
42.25
20
39.5875
30
0
11
42.25
21
58.85
31
0
39
0
210
0
220
0
230
1
0
LINE
5
161
100
AcDbEntity
8
SK2
62
256
6
ByLayer
370
18
48
1
60
0
100
AcDbLine
10
0
20
32.5575
30
0
11
0
21
58.85
31
0
39
0
210
0
220
0
230
1
0
LINE
5
162
100
AcDbEntity
8
1
62
256
6
ByLayer
370
18
48
1
60
1
100
AcDbLine
10
42.25
20
56.85
30
0
11
38.750002
21
56.389216
31
0
39
0
210
0
220
0
230
1
0
LINE
5
163
100
AcDbEntity
8
1
62
256
6
ByLayer
370
18
48
1
60
1
100
AcDbLine
10
38.750002
20
56.389216
30
0
11
38.749998
21
57.310784
31
0
39
0
210
0
220
0
230
1
0
LINE
5
164
100
AcDbEntity
8
1
62
256
6
ByLayer
370
18
48
1
60
1
100
AcDbLine
10
38.749998
20
57.310784
30
0
11
42.25
21
56.85
31
0
39
0
210
0
220
0
230
1
0
LINE
5
165
100
AcDbEntity
8
1
62
256
6
ByLayer
370
18
48
1
60
1
100
AcDbLine
10
0
20
56.85
30
0
11
3.499998
21
57.310784
31
0
39
0
210
0
220
0
230
1
0
LINE
5
166
100
AcDbEntity
8
1
62
256
6
ByLayer
370
18
48
1
60
1
100
AcDbLine
10
3.499998
20
57.310784
30
0
11
3.500002
21
56.389216
31
0
39
0
210
0
220
0
230
1
0
LINE
5
167
100
AcDbEntity
8
1
62
256
6
ByLayer
370
18
48
1
60
1
100
AcDbLine
10
3.500002
20
56.389216
30
0
11
0
21
56.85
31
0
39
0
210
0
220
0
230
1
0
LINE
5
168
100
AcDbEntity
8
2
62
256
6
ByLayer
370
18
48
1
60
0
100
AcDbLine
10
0
20
66.85
30
0
11
60
21
66.85
31
0
39
0
210
0
220
0
230
1
0
LINE
5
169
100
AcDbEntity
8
2
62
256
6
ByLayer
370
18
48
1
60
0
100
AcDbLine
10
60
20
40.0875
30
0
11
60
21
68.85
31
0
39
0
210
0
220
0
230
1
0
LINE
5
16A
100
AcDbEntity
8
2
62
256
6
ByLayer
370
18
48
1
60
0
100
AcDbLine
10
0
20
32.5575
30
0
11
0
21
68.85
31
0
39
0
210
0
220
0
230
1
0
LINE
5
16B
100
AcDbEntity
8
1
62
256
6
ByLayer
370
18
48
1
60
1
100
AcDbLine
10
60
20
66.85
30
0
11
56.500002
21
66.389216
31
0
39
0
210
0
220
0
230
1
0
LINE
5
16C
100
AcDbEntity
8
1
62
256
6
ByLayer
370
18
48
1
60
1
100
AcDbLine
10
56.500002
20
66.389216
30
0
11
56.499998
21
67.310784
31
0
39
0
210
0
220
0
230
1
0
LINE
5
16D
100
AcDbEntity
8
1
62
256
6
ByLayer
370
18
48
1
60
1
100
AcDbLine
10
56.499998
20
67.310784
30
0
11
60
21
66.85
31
0
39
0
210
0
220
0
230
1
0
LINE
5
16E
100
AcDbEntity
8
1
62
256
6
ByLayer
370
18
48
1
60
1
100
AcDbLine
10
0
20
66.85
30
0
11
3.499998
21
67.310784
31
0
39
0
210
0
220
0
230
1
0
LINE
5
16F
100
AcDbEntity
8
1
62
256
6
ByLayer
370
18
48
1
60
1
100
AcDbLine
10
3.499998
20
67.310784
30
0
11
3.500002
21
66.389216
31
0
39
0
210
0
220
0
230
1
0
LINE
5
170
100
AcDbEntity
8
1
62
256
6
ByLayer
370
18
48
1
60
1
100
AcDbLine
10
3.500002
20
66.389216
30
0
11
0
21
66.85
31
0
39
0
210
0
220
0
230
1
0
LINE
5
171
100
AcDbEntity
8
SK2
62
256
6
ByLayer
370
18
48
1
60
0
100
AcDbLine
10
60
20
49.85
30
0
11
80
21
49.85
31
0
39
0
210
0
220
0
230
1
0
LINE
5
172
100
AcDbEntity
8
SK2
62
256
6
ByLayer
370
18
48
1
60
0
100
AcDbLine
10
80
20
17.00615
30
0
11
80
21
51.85
31
0
39
0
210
0
220
0
230
1
0
LINE
5
173
100
AcDbEntity
8
SK2
62
256
6
ByLayer
370
18
48
1
60
0
100
AcDbLine
10
60
20
40.0875
30
0
11
60
21
51.85
31
0
39
0
210
0
220
0
230
1
0
LINE
5
174
100
AcDbEntity
8
1
62
256
6
ByLayer
370
18
48
1
60
1
100
AcDbLine
10
80
20
49.85
30
0
11
76.500002
21
49.389216
31
0
39
0
210
0
220
0
230
1
0
LINE
5
175
100
AcDbEntity
8
1
62
256
6
ByLayer
370
18
48
1
60
1
100
AcDbLine
10
76.500002
20
49.389216
30
0
11
76.499998
21
50.310784
31
0
39
0
210
0
220
0
230
1
0
LINE
5
176
100
AcDbEntity
8
1
62
256
6
ByLayer
370
18
48
1
60
1
100
AcDbLine
10
76.499998
20
50.310784
30
0
11
80
21
49.85
31
0
39
0
210
0
220
0
230
1
0
LINE
5
177
100
AcDbEntity
8
1
62
256
6
ByLayer
370
18
48
1
60
1
100
AcDbLine
10
60
20
49.85
30
0
11
63.499998
21
50.310784
31
0
39
0
210
0
220
0
230
1
0
LINE
5
178
100
AcDbEntity
8
1
62
256
6
ByLayer
370
18
48
1
60
1
100
AcDbLine
10
63.499998
20
50.310784
30
0
11
63.500002
21
49.389216
31
0
39
0
210
0
220
0
230
1
0
LINE
5
179
100
AcDbEntity
8
1
62
256
6
ByLayer
370
18
48
1
60
1
100
AcDbLine
10
63.500002
20
49.389216
30
0
11
60
21
49.85
31
0
39
0
210
0
220
0
230
1
0
LINE
5
1C0
100
AcDbEntity
8
1
62
256
6
ByLayer
370
13
48
0.05
60
0
100
AcDbLine
10
18
20
29.234794
30
0
11
18
21
8.969053
31
0
39
0
210
0
220
0
230
1
0
LINE
5
1C1
100
AcDbEntity
8
1
62
256
6
ByLayer
370
13
48
0.05
60
0
100
AcDbLine
10
18
20
32.635248
30
0
11
18
21
11.474174
31
0
39
0
210
0
220
0
230
1
0
LINE
5
1C2
100
AcDbEntity
8
1
62
256
6
ByLayer
370
13
48
0.05
60
0
100
AcDbLine
10
18
20
34.144664
30
0
11
18
21
13.424591
31
0
39
0
210
0
220
0
230
1
0
LINE
5
1C3
100
AcDbEntity
8
1
62
256
6
ByLayer
370
13
48
0.05
60
0
100
AcDbLine
10
-37.260045
20
0
30
0
11
86.5
21
0
31
0
39
0
210
0
220
0
230
1
0
LINE
5
1C4
100
AcDbEntity
8
1
62
256
6
ByLayer
370
13
48
0.05
60
0
100
AcDbLine
10
104.5
20
0
30
0
11
44
21
0
31
0
39
0
210
0
220
0
230
1
0
LINE
5
1C5
100
AcDbEntity
8
1
62
256
6
ByLayer
370
13
48
0.05
60
0
100
AcDbLine
10
95.5
20
0
30
0
11
76.5
21
0
31
0
39
0
210
0
220
0
230
1
0
LINE
5
1CA
100
AcDbEntity
8
1
62
256
6
ByLayer
370
18
48
1
60
1
100
AcDbLine
10
-48.875025
20
31.47
30
0
11
-48.414241
21
27.970002
31
0
39
0
210
0
220
0
230
1
0
LINE
5
1CB
100
AcDbEntity
8
1
62
256
6
ByLayer
370
18
48
1
60
1
100
AcDbLine
10
-48.414241
20
27.970002
30
0
11
-49.335809
21
27.969998
31
0
39
0
210
0
220
0
230
1
0
LINE
5
1CC
100
AcDbEntity
8
1
62
256
6
ByLayer
370
18
48
1
60
1
100
AcDbLine
10
-49.335809
20
27.969998
30
0
11
-48.875025
21
31.47
31
0
39
0
210
0
220
0
230
1
0
LINE
5
1CE
100
AcDbEntity
8
1
62
256
6
ByLayer
370
18
48
1
60
1
100
AcDbLine
10
-48.875025
20
-31.47
30
0
11
-49.335809
21
-27.970002
31
0
39
0
210
0
220
0
230
1
0
LINE
5
1CF
100
AcDbEntity
8
1
62
256
6
ByLayer
370
18
48
1
60
1
100
AcDbLine
10
-49.335809
20
-27.970002
30
0
11
-48.414241
21
-27.969998
31
0
39
0
210
0
220
0
230
1
0
LINE
5
1D0
100
AcDbEntity
8
1
62
256
6
ByLayer
370
18
48
1
60
1
100
AcDbLine
10
-48.414241
20
-27.969998
30
0
11
-48.875025
21
-31.47
31
0
39
0
210
0
220
0
230
1
0
LINE
5
1D4
100
AcDbEntity
8
1
62
256
6
ByLayer
370
18
48
1
60
1
100
AcDbLine
10
129.725
20
15.996
30
0
11
130.185784
21
12.496002
31
0
39
0
210
0
220
0
230
1
0
LINE
5
1D5
100
AcDbEntity
8
1
62
256
6
ByLayer
370
18
48
1
60
1
100
AcDbLine
10
130.185784
20
12.496002
30
0
11
129.264216
21
12.495998
31
0
39
0
210
0
220
0
230
1
0
LINE
5
1D6
100
AcDbEntity
8
1
62
256
6
ByLayer
370
18
48
1
60
1
100
AcDbLine
10
129.264216
20
12.495998
30
0
11
129.725
21
15.996
31
0
39
0
210
0
220
0
230
1
0
LINE
5
1D8
100
AcDbEntity
8
1
62
256
6
ByLayer
370
18
48
1
60
1
100
AcDbLine
10
129.725
20
-15.996
30
0
11
129.264216
21
-12.496002
31
0
39
0
210
0
220
0
230
1
0
LINE
5
1D9
100
AcDbEntity
8
1
62
256
6
ByLayer
370
18
48
1
60
1
100
AcDbLine
10
129.264216
20
-12.496002
30
0
11
130.185784
21
-12.495998
31
0
39
0
210
0
220
0
230
1
0
LINE
5
1DA
100
AcDbEntity
8
1
62
256
6
ByLayer
370
18
48
1
60
1
100
AcDbLine
10
130.185784
20
-12.495998
30
0
11
129.725
21
-15.996
31
0
39
0
210
0
220
0
230
1
0
LINE
5
1DE
100
AcDbEntity
8
1
62
256
6
ByLayer
370
18
48
1
60
1
100
AcDbLine
10
144.725
20
-26.25
30
0
11
144.264216
21
-22.750002
31
0
39
0
210
0
220
0
230
1
0
LINE
5
1DF
100
AcDbEntity
8
1
62
256
6
ByLayer
370
18
48
1
60
1
100
AcDbLine
10
144.264216
20
-22.750002
30
0
11
145.185784
21
-22.749998
31
0
39
0
210
0
220
0
230
1
0
LINE
5
1E0
100
AcDbEntity
8
1
62
256
6
ByLayer
370
18
48
1
60
1
100
AcDbLine
10
145.185784
20
-22.749998
30
0
11
144.725
21
-26.25
31
0
39
0
210
0
220
0
230
1
0
LINE
5
1E2
100
AcDbEntity
8
1
62
256
6
ByLayer
370
18
48
1
60
1
100
AcDbLine
10
144.725
20
26.25
30
0
11
145.185784
21
22.750002
31
0
39
0
210
0
220
0
230
1
0
LINE
5
1E3
100
AcDbEntity
8
1
62
256
6
ByLayer
370
18
48
1
60
1
100
AcDbLine
10
145.185784
20
22.750002
30
0
11
144.264216
21
22.749998
31
0
39
0
210
0
220
0
230
1
0
LINE
5
1E4
100
AcDbEntity
8
1
62
256
6
ByLayer
370
18
48
1
60
1
100
AcDbLine
10
144.264216
20
22.749998
30
0
11
144.725
21
26.25
31
0
39
0
210
0
220
0
230
1
0
LINE
5
1E8
100
AcDbEntity
8
1
62
256
6
ByLayer
370
18
48
1
60
1
100
AcDbLine
10
154.725
20
-39
30
0
11
154.264216
21
-35.500002
31
0
39
0
210
0
220
0
230
1
0
LINE
5
1E9
100
AcDbEntity
8
1
62
256
6
ByLayer
370
18
48
1
60
1
100
AcDbLine
10
154.264216
20
-35.500002
30
0
11
155.185784
21
-35.499998
31
0
39
0
210
0
220
0
230
1
0
LINE
5
1EA
100
AcDbEntity
8
1
62
256
6
ByLayer
370
18
48
1
60
1
100
AcDbLine
10
155.185784
20
-35.499998
30
0
11
154.725
21
-39
31
0
39
0
210
0
220
0
230
1
0
LINE
5
1EC
100
AcDbEntity
8
1
62
256
6
ByLayer
370
18
48
1
60
1
100
AcDbLine
10
154.725
20
39
30
0
11
155.185784
21
35.500002
31
0
39
0
210
0
220
0
230
1
0
LINE
5
1ED
100
AcDbEntity
8
1
62
256
6
ByLayer
370
18
48
1
60
1
100
AcDbLine
10
155.185784
20
35.500002
30
0
11
154.264216
21
35.499998
31
0
39
0
210
0
220
0
230
1
0
LINE
5
1EE
100
AcDbEntity
8
1
62
256
6
ByLayer
370
18
48
1
60
1
100
AcDbLine
10
154.264216
20
35.499998
30
0
11
154.725
21
39
31
0
39
0
210
0
220
0
230
1
0
LINE
5
1F1
100
AcDbEntity
8
1
62
256
6
ByLayer
370
18
48
1
60
1
100
AcDbLine
10
0
20
66.85
30
0
11
-3.499998
21
66.389216
31
0
39
0
210
0
220
0
230
1
0
LINE
5
1F2
100
AcDbEntity
8
1
62
256
6
ByLayer
370
18
48
1
60
1
100
AcDbLine
10
-3.499998
20
66.389216
30
0
11
-3.500002
21
67.310784
31
0
39
0
210
0
220
0
230
1
0
LINE
5
1F3
100
AcDbEntity
8
1
62
256
6
ByLayer
370
18
48
1
60
1
100
AcDbLine
10
-3.500002
20
67.310784
30
0
11
0
21
66.85
31
0
39
0
210
0
220
0
230
1
0
LINE
5
1F5
100
AcDbEntity
8
1
62
256
6
ByLayer
370
18
48
1
60
1
100
AcDbLine
10
-31.9
20
66.85
30
0
11
-28.400002
21
67.310784
31
0
39
0
210
0
220
0
230
1
0
LINE
5
1F6
100
AcDbEntity
8
1
62
256
6
ByLayer
370
18
48
1
60
1
100
AcDbLine
10
-28.400002
20
67.310784
30
0
11
-28.399998
21
66.389216
31
0
39
0
210
0
220
0
230
1
0
LINE
5
1F7
100
AcDbEntity
8
1
62
256
6
ByLayer
370
18
48
1
60
1
100
AcDbLine
10
-28.399998
20
66.389216
30
0
11
-31.9
21
66.85
31
0
39
0
210
0
220
0
230
1
0
LINE
5
1FA
100
AcDbEntity
8
1
62
256
6
ByLayer
370
18
48
1
60
1
100
AcDbLine
10
42.25
20
56.85
30
0
11
38.750002
21
56.389216
31
0
39
0
210
0
220
0
230
1
0
LINE
5
1FB
100
AcDbEntity
8
1
62
256
6
ByLayer
370
18
48
1
60
1
100
AcDbLine
10
38.750002
20
56.389216
30
0
11
38.749998
21
57.310784
31
0
39
0
210
0
220
0
230
1
0
LINE
5
1FC
100
AcDbEntity
8
1
62
256
6
ByLayer
370
18
48
1
60
1
100
AcDbLine
10
38.749998
20
57.310784
30
0
11
42.25
21
56.85
31
0
39
0
210
0
220
0
230
1
0
LINE
5
1FE
100
AcDbEntity
8
1
62
256
6
ByLayer
370
18
48
1
60
1
100
AcDbLine
10
0
20
56.85
30
0
11
3.499998
21
57.310784
31
0
39
0
210
0
220
0
230
1
0
LINE
5
1FF
100
AcDbEntity
8
1
62
256
6
ByLayer
370
18
48
1
60
1
100
AcDbLine
10
3.499998
20
57.310784
30
0
11
3.500002
21
56.389216
31
0
39
0
210
0
220
0
230
1
0
LINE
5
200
100
AcDbEntity
8
1
62
256
6
ByLayer
370
18
48
1
60
1
100
AcDbLine
10
3.500002
20
56.389216
30
0
11
0
21
56.85
31
0
39
0
210
0
220
0
230
1
0
LINE
5
204
100
AcDbEntity
8
1
62
256
6
ByLayer
370
18
48
1
60
1
100
AcDbLine
10
60
20
66.85
30
0
11
56.500002
21
66.389216
31
0
39
0
210
0
220
0
230
1
0
LINE
5
205
100
AcDbEntity
8
1
62
256
6
ByLayer
370
18
48
1
60
1
100
AcDbLine
10
56.500002
20
66.389216
30
0
11
56.499998
21
67.310784
31
0
39
0
210
0
220
0
230
1
0
LINE
5
206
100
AcDbEntity
8
1
62
256
6
ByLayer
370
18
48
1
60
1
100
AcDbLine
10
56.499998
20
67.310784
30
0
11
60
21
66.85
31
0
39
0
210
0
220
0
230
1
0
LINE
5
208
100
AcDbEntity
8
1
62
256
6
ByLayer
370
18
48
1
60
1
100
AcDbLine
10
0
20
66.85
30
0
11
3.499998
21
67.310784
31
0
39
0
210
0
220
0
230
1
0
LINE
5
209
100
AcDbEntity
8
1
62
256
6
ByLayer
370
18
48
1
60
1
100
AcDbLine
10
3.499998
20
67.310784
30
0
11
3.500002
21
66.389216
31
0
39
0
210
0
220
0
230
1
0
LINE
5
20A
100
AcDbEntity
8
1
62
256
6
ByLayer
370
18
48
1
60
1
100
AcDbLine
10
3.500002
20
66.389216
30
0
11
0
21
66.85
31
0
39
0
210
0
220
0
230
1
0
LINE
5
20D
100
AcDbEntity
8
1
62
256
6
ByLayer
370
18
48
1
60
1
100
AcDbLine
10
80
20
49.85
30
0
11
76.500002
21
49.389216
31
0
39
0
210
0
220
0
230
1
0
LINE
5
20E
100
AcDbEntity
8
1
62
256
6
ByLayer
370
18
48
1
60
1
100
AcDbLine
10
76.500002
20
49.389216
30
0
11
76.499998
21
50.310784
31
0
39
0
210
0
220
0
230
1
0
LINE
5
20F
100
AcDbEntity
8
1
62
256
6
ByLayer
370
18
48
1
60
1
100
AcDbLine
10
76.499998
20
50.310784
30
0
11
80
21
49.85
31
0
39
0
210
0
220
0
230
1
0
LINE
5
211
100
AcDbEntity
8
1
62
256
6
ByLayer
370
18
48
1
60
1
100
AcDbLine
10
60
20
49.85
30
0
11
63.499998
21
50.310784
31
0
39
0
210
0
220
0
230
1
0
LINE
5
212
100
AcDbEntity
8
1
62
256
6
ByLayer
370
18
48
1
60
1
100
AcDbLine
10
63.499998
20
50.310784
30
0
11
63.500002
21
49.389216
31
0
39
0
210
0
220
0
230
1
0
LINE
5
213
100
AcDbEntity
8
1
62
256
6
ByLayer
370
18
48
1
60
1
100
AcDbLine
10
63.500002
20
49.389216
30
0
11
60
21
49.85
31
0
39
0
210
0
220
0
230
1
0
MTEXT
5
1C6
100
AcDbEntity
8
SK2
62
256
6
ByLayer
370
18
48
1
60
0
100
AcDbMText
10
-50.439659
20
-4.530622
30
0
210
0
220
0
230
1
1
%%c
40
3.5
41
0
44
1.084337
50
90
71
7
72
5
7
iso_b_vert
0
MTEXT
5
1C9
100
AcDbEntity
8
SK2
62
256
6
ByLayer
370
18
48
1
60
0
100
AcDbMText
10
-50.439659
20
2.442034
30
0
210
0
220
0
230
1
1
\W0.6740;63
40
3.5
41
0
44
1.084337
50
90
71
7
72
5
7
iso_b_vert
0
MTEXT
5
1D2
100
AcDbEntity
8
SK2
62
256
6
ByLayer
370
18
48
1
60
0
100
AcDbMText
10
128.160366
20
-4.530622
30
0
210
0
220
0
230
1
1
%%c
40
3.5
41
0
44
1.084337
50
90
71
7
72
5
7
iso_b_vert
0
MTEXT
5
1D3
100
AcDbEntity
8
SK2
62
256
6
ByLayer
370
18
48
1
60
0
100
AcDbMText
10
128.160366
20
2.442034
30
0
210
0
220
0
230
1
1
\W0.6740;32
40
3.5
41
0
44
1.084337
50
90
71
7
72
5
7
iso_b_vert
0
MTEXT
5
1DC
100
AcDbEntity
8
SK2
62
256
6
ByLayer
370
18
48
1
60
0
100
AcDbMText
10
143.160366
20
-6.547355
30
0
210
0
220
0
230
1
1
%%c
40
3.5
41
0
44
1.084337
50
90
71
7
72
5
7
iso_b_vert
0
MTEXT
5
1DD
100
AcDbEntity
8
SK2
62
256
6
ByLayer
370
18
48
1
60
0
100
AcDbMText
10
143.160366
20
0.425301
30
0
210
0
220
0
230
1
1
\W0.7346;52.5
40
3.5
41
0
44
1.084337
50
90
71
7
72
5
7
iso_b_vert
0
MTEXT
5
1E6
100
AcDbEntity
8
SK2
62
256
6
ByLayer
370
18
48
1
60
0
100
AcDbMText
10
153.160366
20
-4.530622
30
0
210
0
220
0
230
1
1
%%c
40
3.5
41
0
44
1.084337
50
90
71
7
72
5
7
iso_b_vert
0
MTEXT
5
1E7
100
AcDbEntity
8
SK2
62
256
6
ByLayer
370
18
48
1
60
0
100
AcDbMText
10
153.160366
20
2.442034
30
0
210
0
220
0
230
1
1
\W0.6740;78
40
3.5
41
0
44
1.084337
50
90
71
7
72
5
7
iso_b_vert
0
MTEXT
5
1F0
100
AcDbEntity
8
SK2
62
256
6
ByLayer
370
18
48
1
60
0
100
AcDbMText
10
-19.434266
20
67.882634
30
0
210
0
220
0
230
1
1
\W0.6662;31.9
40
3.5
41
0
44
1.084337
50
0
71
7
72
5
7
iso_b_vert
0
MTEXT
5
1F9
100
AcDbEntity
8
SK2
62
256
6
ByLayer
370
18
48
1
60
0
100
AcDbMText
10
17.019034
20
57.882634
30
0
210
0
220
0
230
1
1
\W0.7640;42.2
40
3.5
41
0
44
1.084337
50
0
71
7
72
5
7
iso_b_vert
0
MTEXT
5
202
100
AcDbEntity
8
2
62
256
6
ByLayer
370
18
48
1
60
0
100
AcDbMText
10
29.388934
20
67.882634
30
0
210
0
220
0
230
1
1
\W0.8277;\W0.4138;%%p\W0.8277;0.1
40
3.5
41
0
44
1.084337
50
0
71
7
72
5
7
iso_b_vert
0
MTEXT
5
203
100
AcDbEntity
8
2
62
256
6
ByLayer
370
18
48
1
60
0
100
AcDbMText
10
21.708001
20
67.882634
30
0
210
0
220
0
230
1
1
\W0.6740;60
40
3.5
41
0
44
1.084337
50
0
71
7
72
5
7
iso_b_vert
0
MTEXT
5
20C
100
AcDbEntity
8
SK2
62
256
6
ByLayer
370
18
48
1
60
0
100
AcDbMText
10
68.095034
20
50.882634
30
0
210
0
220
0
230
1
1
\W0.6740;20
40
3.5
41
0
44
1.084337
50
0
71
7
72
5
7
iso_b_vert
0
MTEXT
5
215
100
AcDbEntity
8
SK6
62
256
6
ByLayer
370
18
48
1
60
0
100
AcDbMText
10
62.837562
20
-92.114886
30
0
210
0
220
0
230
1
1
\W0.7788;HA06-AR32-B078-060
40
3
41
0
44
1.084337
50
0
71
7
72
5
7
iso_b_vert
0
HATCH
5
1CD
100
AcDbEntity
8
SK2
62
256
6
ByLayer
370
13
48
1
60
0
100
AcDbHatch
10
0
20
0
30
0
210
0
220
0
230
1
2
ANSI31
70
0
71
0
91
1
92
5
93
3
72
1
10
-48.875025
20
31.47
11
-48.4142412584472
21
27.9700016925532
72
1
10
-48.4142412584472
20
27.9700016925532
11
-49.3358087415528
21
27.9699983074468
72
1
10
-49.3358087415528
20
27.9699983074468
11
-48.875025
21
31.47
97
0
75
0
76
1
52
0
41
0.0062
77
0
78
1
53
45
43
0
44
0
45
-0.0139193969876572
46
0.0139193969876572
79
0
47
0
98
1
10
0
20
0
0
HATCH
5
1D1
100
AcDbEntity
8
SK2
62
256
6
ByLayer
370
13
48
1
60
0
100
AcDbHatch
10
0
20
0
30
0
210
0
220
0
230
1
2
ANSI31
70
0
71
0
91
1
92
5
93
3
72
1
10
-48.875025
20
-31.47
11
-49.3358087415528
21
-27.9700016925532
72
1
10
-49.3358087415528
20
-27.9700016925532
11
-48.4142412584472
21
-27.9699983074468
72
1
10
-48.4142412584472
20
-27.9699983074468
11
-48.875025
21
-31.47
97
0
75
0
76
1
52
0
41
0.0062
77
0
78
1
53
45
43
0
44
0
45
-0.0139193969876572
46
0.0139193969876572
79
0
47
0
98
1
10
0
20
0
0
HATCH
5
1D7
100
AcDbEntity
8
SK2
62
256
6
ByLayer
370
13
48
1
60
0
100
AcDbHatch
10
0
20
0
30
0
210
0
220
0
230
1
2
ANSI31
70
0
71
0
91
1
92
5
93
3
72
1
10
129.725
20
15.996
11
130.185783741553
21
12.4960016925532
72
1
10
130.185783741553
20
12.4960016925532
11
129.264216258447
21
12.4959983074468
72
1
10
129.264216258447
20
12.4959983074468
11
129.725
21
15.996
97
0
75
0
76
1
52
0
41
0.0062
77
0
78
1
53
45
43
0
44
0
45
-0.0139193969876572
46
0.0139193969876572
79
0
47
0
98
1
10
0
20
0
0
HATCH
5
1DB
100
AcDbEntity
8
SK2
62
256
6
ByLayer
370
13
48
1
60
0
100
AcDbHatch
10
0
20
0
30
0
210
0
220
0
230
1
2
ANSI31
70
0
71
0
91
1
92
5
93
3
72
1
10
129.725
20
-15.996
11
129.264216258447
21
-12.4960016925532
72
1
10
129.264216258447
20
-12.4960016925532
11
130.185783741553
21
-12.4959983074468
72
1
10
130.185783741553
20
-12.4959983074468
11
129.725
21
-15.996
97
0
75
0
76
1
52
0
41
0.0062
77
0
78
1
53
45
43
0
44
0
45
-0.0139193969876572
46
0.0139193969876572
79
0
47
0
98
1
10
0
20
0
0
HATCH
5
1E1
100
AcDbEntity
8
SK2
62
256
6
ByLayer
370
13
48
1
60
0
100
AcDbHatch
10
0
20
0
30
0
210
0
220
0
230
1
2
ANSI31
70
0
71
0
91
1
92
5
93
3
72
1
10
144.725
20
-26.25
11
144.264216258447
21
-22.7500016925532
72
1
10
144.264216258447
20
-22.7500016925532
11
145.185783741553
21
-22.7499983074468
72
1
10
145.185783741553
20
-22.7499983074468
11
144.725
21
-26.25
97
0
75
0
76
1
52
0
41
0.0062
77
0
78
1
53
45
43
0
44
0
45
-0.0139193969876572
46
0.0139193969876572
79
0
47
0
98
1
10
0
20
0
0
HATCH
5
1E5
100
AcDbEntity
8
SK2
62
256
6
ByLayer
370
13
48
1
60
0
100
AcDbHatch
10
0
20
0
30
0
210
0
220
0
230
1
2
ANSI31
70
0
71
0
91
1
92
5
93
3
72
1
10
144.725
20
26.25
11
145.185783741553
21
22.7500016925532
72
1
10
145.185783741553
20
22.7500016925532
11
144.264216258447
21
22.7499983074468
72
1
10
144.264216258447
20
22.7499983074468
11
144.725
21
26.25
97
0
75
0
76
1
52
0
41
0.0062
77
0
78
1
53
45
43
0
44
0
45
-0.0139193969876572
46
0.0139193969876572
79
0
47
0
98
1
10
0
20
0
0
HATCH
5
1EB
100
AcDbEntity
8
SK2
62
256
6
ByLayer
370
13
48
1
60
0
100
AcDbHatch
10
0
20
0
30
0
210
0
220
0
230
1
2
ANSI31
70
0
71
0
91
1
92
5
93
3
72
1
10
154.725
20
-39
11
154.264216258447
21
-35.5000016925532
72
1
10
154.264216258447
20
-35.5000016925532
11
155.185783741553
21
-35.4999983074468
72
1
10
155.185783741553
20
-35.4999983074468
11
154.725
21
-39
97
0
75
0
76
1
52
0
41
0.0062
77
0
78
1
53
45
43
0
44
0
45
-0.0139193969876572
46
0.0139193969876572
79
0
47
0
98
1
10
0
20
0
0
HATCH
5
1EF
100
AcDbEntity
8
SK2
62
256
6
ByLayer
370
13
48
1
60
0
100
AcDbHatch
10
0
20
0
30
0
210
0
220
0
230
1
2
ANSI31
70
0
71
0
91
1
92
5
93
3
72
1
10
154.725
20
39
11
155.185783741553
21
35.5000016925532
72
1
10
155.185783741553
20
35.5000016925532
11
154.264216258447
21
35.4999983074468
72
1
10
154.264216258447
20
35.4999983074468
11
154.725
21
39
97
0
75
0
76
1
52
0
41
0.0062
77
0
78
1
53
45
43
0
44
0
45
-0.0139193969876572
46
0.0139193969876572
79
0
47
0
98
1
10
0
20
0
0
HATCH
5
1F4
100
AcDbEntity
8
SK2
62
256
6
ByLayer
370
13
48
1
60
0
100
AcDbHatch
10
0
20
0
30
0
210
0
220
0
230
1
2
ANSI31
70
0
71
0
91
1
92
5
93
3
72
1
10
0
20
66.85
11
-3.4999983074468
21
66.3892162584472
72
1
10
-3.4999983074468
20
66.3892162584472
11
-3.5000016925532
21
67.3107837415528
72
1
10
-3.5000016925532
20
67.3107837415528
11
0
21
66.85
97
0
75
0
76
1
52
0
41
0.0062
77
0
78
1
53
45
43
0
44
0
45
-0.0139193969876572
46
0.0139193969876572
79
0
47
0
98
1
10
0
20
0
0
HATCH
5
1F8
100
AcDbEntity
8
SK2
62
256
6
ByLayer
370
13
48
1
60
0
100
AcDbHatch
10
0
20
0
30
0
210
0
220
0
230
1
2
ANSI31
70
0
71
0
91
1
92
5
93
3
72
1
10
-31.9
20
66.85
11
-28.4000016925532
21
67.3107837415528
72
1
10
-28.4000016925532
20
67.3107837415528
11
-28.3999983074468
21
66.3892162584472
72
1
10
-28.3999983074468
20
66.3892162584472
11
-31.9
21
66.85
97
0
75
0
76
1
52
0
41
0.0062
77
0
78
1
53
45
43
0
44
0
45
-0.0139193969876572
46
0.0139193969876572
79
0
47
0
98
1
10
0
20
0
0
HATCH
5
1FD
100
AcDbEntity
8
SK2
62
256
6
ByLayer
370
13
48
1
60
0
100
AcDbHatch
10
0
20
0
30
0
210
0
220
0
230
1
2
ANSI31
70
0
71
0
91
1
92
5
93
3
72
1
10
42.25
20
56.85
11
38.7500016925532
21
56.3892162584472
72
1
10
38.7500016925532
20
56.3892162584472
11
38.7499983074468
21
57.3107837415528
72
1
10
38.7499983074468
20
57.3107837415528
11
42.25
21
56.85
97
0
75
0
76
1
52
0
41
0.0062
77
0
78
1
53
45
43
0
44
0
45
-0.0139193969876572
46
0.0139193969876572
79
0
47
0
98
1
10
0
20
0
0
HATCH
5
201
100
AcDbEntity
8
SK2
62
256
6
ByLayer
370
13
48
1
60
0
100
AcDbHatch
10
0
20
0
30
0
210
0
220
0
230
1
2
ANSI31
70
0
71
0
91
1
92
5
93
3
72
1
10
0
20
56.85
11
3.4999983074468
21
57.3107837415528
72
1
10
3.4999983074468
20
57.3107837415528
11
3.5000016925532
21
56.3892162584472
72
1
10
3.5000016925532
20
56.3892162584472
11
0
21
56.85
97
0
75
0
76
1
52
0
41
0.0062
77
0
78
1
53
45
43
0
44
0
45
-0.0139193969876572
46
0.0139193969876572
79
0
47
0
98
1
10
0
20
0
0
HATCH
5
207
100
AcDbEntity
8
2
62
256
6
ByLayer
370
13
48
1
60
0
100
AcDbHatch
10
0
20
0
30
0
210
0
220
0
230
1
2
ANSI31
70
0
71
0
91
1
92
5
93
3
72
1
10
60
20
66.85
11
56.5000016925532
21
66.3892162584472
72
1
10
56.5000016925532
20
66.3892162584472
11
56.4999983074468
21
67.3107837415528
72
1
10
56.4999983074468
20
67.3107837415528
11
60
21
66.85
97
0
75
0
76
1
52
0
41
0.0062
77
0
78
1
53
45
43
0
44
0
45
-0.0139193969876572
46
0.0139193969876572
79
0
47
0
98
1
10
0
20
0
0
HATCH
5
20B
100
AcDbEntity
8
2
62
256
6
ByLayer
370
13
48
1
60
0
100
AcDbHatch
10
0
20
0
30
0
210
0
220
0
230
1
2
ANSI31
70
0
71
0
91
1
92
5
93
3
72
1
10
0
20
66.85
11
3.4999983074468
21
67.3107837415528
72
1
10
3.4999983074468
20
67.3107837415528
11
3.5000016925532
21
66.3892162584472
72
1
10
3.5000016925532
20
66.3892162584472
11
0
21
66.85
97
0
75
0
76
1
52
0
41
0.0062
77
0
78
1
53
45
43
0
44
0
45
-0.0139193969876572
46
0.0139193969876572
79
0
47
0
98
1
10
0
20
0
0
HATCH
5
210
100
AcDbEntity
8
SK2
62
256
6
ByLayer
370
13
48
1
60
0
100
AcDbHatch
10
0
20
0
30
0
210
0
220
0
230
1
2
ANSI31
70
0
71
0
91
1
92
5
93
3
72
1
10
80
20
49.85
11
76.5000016925532
21
49.3892162584472
72
1
10
76.5000016925532
20
49.3892162584472
11
76.4999983074468
21
50.3107837415528
72
1
10
76.4999983074468
20
50.3107837415528
11
80
21
49.85
97
0
75
0
76
1
52
0
41
0.0062
77
0
78
1
53
45
43
0
44
0
45
-0.0139193969876572
46
0.0139193969876572
79
0
47
0
98
1
10
0
20
0
0
HATCH
5
214
100
AcDbEntity
8
SK2
62
256
6
ByLayer
370
13
48
1
60
0
100
AcDbHatch
10
0
20
0
30
0
210
0
220
0
230
1
2
ANSI31
70
0
71
0
91
1
92
5
93
3
72
1
10
60
20
49.85
11
63.4999983074468
21
50.3107837415528
72
1
10
63.4999983074468
20
50.3107837415528
11
63.5000016925532
21
49.3892162584472
72
1
10
63.5000016925532
20
49.3892162584472
11
60
21
49.85
97
0
75
0
76
1
52
0
41
0.0062
77
0
78
1
53
45
43
0
44
0
45
-0.0139193969876572
46
0.0139193969876572
79
0
47
0
98
1
10
0
20
0
0
ENDSEC
0
SECTION
2
OBJECTS
0
DICTIONARY
5
284
330
0
100
AcDbDictionary
280
0
281
1
3
ACAD_GROUP
350
285
3
ACAD_MLINESTYLE
350
286
0
DICTIONARY
5
285
330
0
100
AcDbDictionary
280
0
281
1
0
DICTIONARY
5
286
330
0
100
AcDbDictionary
280
0
281
1
3
Standard
350
18
0
MLINESTYLE
5
18
330
286
100
AcDbMlineStyle
2
Standard
70
0
3

62
256
51
90
52
90
71
2
49
-0.5
62
256
6
ByLayer
49
0.5
62
256
6
ByLayer
0
RASTERVARIABLES
5
272
330

100
AcDbRasterVariables
90
0
70
1
71
1
72
1
0
ENDSEC
0
EOF
