0
SECTION
2
HEADER
9
$ACADVER
1
AC1015
9
$DWGCODEPAGE
3
ANSI_1252
9
$HANDSEED
5
265
9
$ANGBASE
50
0
9
$ANGDIR
70
0
9
$ATTMODE
70
1
9
$AUNITS
70
0
9
$AUPREC
70
0
9
$CECOLOR
62
256
9
$CELTSCALE
40
1
9
$CELTYPE
6
ByLayer
9
$CELWEIGHT
370
18
9
$CLAYER
8
0
9
$CMLJUST
70
0
9
$CMLSCALE
40
1
9
$CMLSTYLE
2
Standard
9
$DIMSTYLE
2
Standard
9
$TEXTSIZE
40
0.2
9
$TEXTSTYLE
7
Standard
9
$LUNITS
70
2
9
$LUPREC
70
4
9
$EXTNAMES
290
1
9
$INSUNITS
70
4
9
$LTSCALE
40
1
9
$LWDISPLAY
290
1
9
$PDMODE
70
0
9
$PDSIZE
40
0
9
$PLINEGEN
70
0
0
ENDSEC
0
SECTION
2
CLASSES
0
CLASS
1
RASTERVARIABLES
2
AcDbRasterVariables
3
ISM
90
0
280
0
281
0
0
ENDSEC
0
SECTION
2
TABLES
0
TABLE
2
VPORT
5
25b
100
AcDbSymbolTable
0
VPORT
5
1
100
AcDbSymbolTableRecord
100
AcDbViewportTableRecord
2
*Active
70
0
10
0
20
0
11
1
21
1
12
-1
22
1
13
0
23
0
14
0.5
24
0.5
15
10
25
10
16
0
26
0
36
1
17
0
27
0
37
0
0
ENDTAB
0
TABLE
2
LTYPE
5
25c
100
AcDbSymbolTable
0
LTYPE
5
14
100
AcDbSymbolTableRecord
100
AcDbLinetypeTableRecord
70
0
2
ByBlock
3

72
65
73
0
40
0
0
LTYPE
5
15
100
AcDbSymbolTableRecord
100
AcDbLinetypeTableRecord
70
0
2
ByLayer
3

72
65
73
0
40
0
0
LTYPE
5
16
100
AcDbSymbolTableRecord
100
AcDbLinetypeTableRecord
70
0
2
Continuous
3
Solid line
72
65
73
0
40
0
0
LTYPE
5
6E
100
AcDbSymbolTableRecord
100
AcDbLinetypeTableRecord
70
0
2
CENTER
3
____ _ ____ _ ____ _ ____
72
65
73
4
40
47.5
49
22
74
0
49
-8.5
74
0
49
8.5
74
0
49
-8.5
74
0
0
LTYPE
5
6F
100
AcDbSymbolTableRecord
100
AcDbLinetypeTableRecord
70
0
2
DASHED
3
__ __ __ __ __ __ __ __ __
72
65
73
2
40
25.72
49
12.86
74
0
49
-12.86
74
0
0
ENDTAB
0
TABLE
2
LAYER
5
25d
100
AcDbSymbolTable
0
LAYER
5
10
100
AcDbSymbolTableRecord
100
AcDbLayerTableRecord
2
0
70
0
62
7
6
Continuous
290
1
370
-3
390
0
0
LAYER
5
71
100
AcDbSymbolTableRecord
100
AcDbLayerTableRecord
2
2
70
0
62
7
6
Continuous
290
1
370
-3
390
0
0
LAYER
5
7B
100
AcDbSymbolTableRecord
100
AcDbLayerTableRecord
2
80
70
0
62
-6
6
Continuous
290
1
370
-3
390
0
0
LAYER
5
7D
100
AcDbSymbolTableRecord
100
AcDbLayerTableRecord
2
81
70
0
62
-3
6
Continuous
290
1
370
-3
390
0
0
LAYER
5
7F
100
AcDbSymbolTableRecord
100
AcDbLayerTableRecord
2
1
70
0
62
4
6
Continuous
290
1
370
-3
390
0
0
LAYER
5
86
100
AcDbSymbolTableRecord
100
AcDbLayerTableRecord
2
4
70
0
62
-2
6
CENTER
290
1
370
-3
390
0
0
LAYER
5
247
100
AcDbSymbolTableRecord
100
AcDbLayerTableRecord
2
SK4
70
0
62
2
6
CENTER
290
1
370
-3
390
0
0
LAYER
5
248
100
AcDbSymbolTableRecord
100
AcDbLayerTableRecord
2
SK1
70
0
62
4
6
Continuous
290
1
370
-3
390
0
0
LAYER
5
249
100
AcDbSymbolTableRecord
100
AcDbLayerTableRecord
2
SK2
70
0
62
7
6
Continuous
290
1
370
-3
390
0
0
LAYER
5
24a
100
AcDbSymbolTableRecord
100
AcDbLayerTableRecord
2
SK6
70
0
62
5
6
Continuous
290
1
370
-3
390
0
0
ENDTAB
0
TABLE
2
STYLE
5
25e
100
AcDbSymbolTable
0
STYLE
5
11
100
AcDbSymbolTableRecord
100
AcDbTextStyleTableRecord
2
Standard
3
txt
70
0
71
0
40
0
41
1
42
0
50
0
0
STYLE
5
19B
100
AcDbSymbolTableRecord
100
AcDbTextStyleTableRecord
2
iso_b_vert
3
simplex.shx
70
0
71
0
40
0
41
1
42
0
50
0
0
STYLE
5
19C
100
AcDbSymbolTableRecord
100
AcDbTextStyleTableRecord
2
DWGDirectTextStyle
3
simplex
70
0
71
0
40
0
41
1
42
0
50
0
0
ENDTAB
0
TABLE
2
DIMSTYLE
5
25f
100
AcDbSymbolTable
100
AcDbDimStyleTable
0
DIMSTYLE
105
27
100
AcDbSymbolTableRecord
100
AcDbDimStyleTableRecord
2
Standard
70
0
3
<>
41
0.18
42
0.0625
44
0.18
140
0.18
147
0.09
73
0
74
0
77
1
271
2
275
0
278
52
280
0
340
11
0
ENDTAB
0
TABLE
2
VIEW
5
260
100
AcDbSymbolTable
0
ENDTAB
0
TABLE
2
UCS
5
261
100
AcDbSymbolTable
0
ENDTAB
0
TABLE
2
APPID
5
262
100
AcDbSymbolTable
0
APPID
5
12
100
AcDbSymbolTableRecord
100
AcDbRegAppTableRecord
2
ACAD
70
0
0
APPID
5
243
100
AcDbSymbolTableRecord
100
AcDbRegAppTableRecord
2
ACAD_MLEADERVER
70
0
0
ENDTAB
0
TABLE
2
BLOCK_RECORD
5
263
100
AcDbSymbolTable
0
BLOCK_RECORD
5
1F
100
AcDbSymbolTableRecord
100
AcDbBlockTableRecord
2
*Model_Space
340
0
70
0
0
BLOCK_RECORD
5
1B
100
AcDbSymbolTableRecord
100
AcDbBlockTableRecord
2
*Paper_Space
340
0
70
0
0
BLOCK_RECORD
5
23
100
AcDbSymbolTableRecord
100
AcDbBlockTableRecord
2
*Paper_Space0
340
0
70
0
0
ENDTAB
0
ENDSEC
0
SECTION
2
BLOCKS
0
BLOCK
5
20
100
AcDbEntity
8
0
100
AcDbBlockBegin
2
*Model_Space
70
0
10
0
20
0
30
0
3
*Model_Space
0
ENDBLK
5
21
100
AcDbEntity
8
0
100
AcDbBlockEnd
0
BLOCK
5
1C
100
AcDbEntity
8
0
100
AcDbBlockBegin
2
*Paper_Space
70
0
10
0
20
0
30
0
3
*Paper_Space
0
ENDBLK
5
1D
100
AcDbEntity
8
0
100
AcDbBlockEnd
0
BLOCK
5
24
100
AcDbEntity
8
0
100
AcDbBlockBegin
2
*Paper_Space0
70
0
10
0
20
0
30
0
3
*Paper_Space0
0
ENDBLK
5
25
100
AcDbEntity
8
0
100
AcDbBlockEnd
0
ENDSEC
0
SECTION
2
ENTITIES
0
ARC
5
157
100
AcDbEntity
8
1
62
256
6
ByLayer
370
18
48
1
60
0
100
AcDbCircle
39
0
10
86.214791
20
30.24525
30
0
40
0.6
210
0
220
0
230
1
100
AcDbArc
50
270
51
285
0
ARC
5
158
100
AcDbEntity
8
1
62
256
6
ByLayer
370
18
48
1
60
0
100
AcDbCircle
39
0
10
86.214791
20
-30.24525
30
0
40
0.6
210
0
220
0
230
1
100
AcDbArc
50
75
51
90
0
ARC
5
159
100
AcDbEntity
8
1
62
256
6
ByLayer
370
18
48
1
60
0
100
AcDbCircle
39
0
10
85.375
20
-30.24525
30
0
40
0.599999999999988
210
0
220
0
230
1
100
AcDbArc
50
90
51
128.68315
0
ARC
5
15A
100
AcDbEntity
8
1
62
256
6
ByLayer
370
18
48
1
60
0
100
AcDbCircle
39
0
10
85.375
20
30.24525
30
0
40
0.599999999999988
210
0
220
0
230
1
100
AcDbArc
50
231.31685
51
270
0
ARC
5
15B
100
AcDbEntity
8
1
62
256
6
ByLayer
370
18
48
1
60
0
100
AcDbCircle
39
0
10
29.95
20
-56.25
30
0
40
1
210
0
220
0
230
1
100
AcDbArc
50
90
51
180
0
ARC
5
15C
100
AcDbEntity
8
1
62
256
6
ByLayer
370
18
48
1
60
0
100
AcDbCircle
39
0
10
29.95
20
56.25
30
0
40
1
210
0
220
0
230
1
100
AcDbArc
50
180
51
270
0
ARC
5
15D
100
AcDbEntity
8
1
62
256
6
ByLayer
370
18
48
1
60
0
100
AcDbCircle
39
0
10
45
20
-56.25
30
0
40
1
210
0
220
0
230
1
100
AcDbArc
50
0
51
90
0
ARC
5
15E
100
AcDbEntity
8
1
62
256
6
ByLayer
370
18
48
1
60
0
100
AcDbCircle
39
0
10
45
20
56.25
30
0
40
1
210
0
220
0
230
1
100
AcDbArc
50
270
51
0
0
ARC
5
15F
100
AcDbEntity
8
1
62
256
6
ByLayer
370
18
48
1
60
0
100
AcDbCircle
39
0
10
21.525
20
-58.875
30
0
40
0.400000000000006
210
0
220
0
230
1
100
AcDbArc
50
0
51
90
0
ARC
5
160
100
AcDbEntity
8
1
62
256
6
ByLayer
370
18
48
1
60
0
100
AcDbCircle
39
0
10
18.475
20
58.875
30
0
40
0.399999999999999
210
0
220
0
230
1
100
AcDbArc
50
180
51
270
0
ARC
5
161
100
AcDbEntity
8
1
62
256
6
ByLayer
370
18
48
1
60
0
100
AcDbCircle
39
0
10
21.525
20
58.875
30
0
40
0.400000000000006
210
0
220
0
230
1
100
AcDbArc
50
270
51
0
0
ARC
5
162
100
AcDbEntity
8
1
62
256
6
ByLayer
370
18
48
1
60
0
100
AcDbCircle
39
0
10
18.475
20
-58.875
30
0
40
0.399999999999999
210
0
220
0
230
1
100
AcDbArc
50
90
51
180
0
ARC
5
163
100
AcDbEntity
8
1
62
256
6
ByLayer
370
18
48
1
60
0
100
AcDbCircle
39
0
10
47
20
-64
30
0
40
1
210
0
220
0
230
1
100
AcDbArc
50
180
51
270
0
ARC
5
164
100
AcDbEntity
8
1
62
256
6
ByLayer
370
18
48
1
60
0
100
AcDbCircle
39
0
10
47
20
64
30
0
40
1
210
0
220
0
230
1
100
AcDbArc
50
90
51
180
0
ARC
5
165
100
AcDbEntity
8
SK1
62
256
6
ByLayer
370
18
48
1
60
0
100
AcDbCircle
39
0
10
-60.4
20
42.605065
30
0
40
2.5
210
0
220
0
230
1
100
AcDbArc
50
92.868132
51
180
0
ARC
5
166
100
AcDbEntity
8
SK1
62
256
6
ByLayer
370
18
48
1
60
0
100
AcDbCircle
39
0
10
-60.4
20
-42.605065
30
0
40
2.5
210
0
220
0
230
1
100
AcDbArc
50
180
51
267.131868
0
ARC
5
167
100
AcDbEntity
8
SK1
62
256
6
ByLayer
370
18
48
1
60
0
100
AcDbCircle
39
0
10
-1.4
20
49.183852
30
0
40
1.60000000000001
210
0
220
0
230
1
100
AcDbArc
50
270
51
331.044976
0
ARC
5
168
100
AcDbEntity
8
SK1
62
256
6
ByLayer
370
18
48
1
60
0
100
AcDbCircle
39
0
10
-1.4
20
-49.183852
30
0
40
1.60000000000001
210
0
220
0
230
1
100
AcDbArc
50
28.955024
51
90
0
ARC
5
169
100
AcDbEntity
8
SK1
62
256
6
ByLayer
370
18
48
1
60
0
100
AcDbCircle
39
0
10
-46.2
20
10.11
30
0
40
2.4
210
0
220
0
230
1
100
AcDbArc
50
0
51
90
0
ARC
5
16A
100
AcDbEntity
8
SK1
62
256
6
ByLayer
370
18
48
1
60
0
100
AcDbCircle
39
0
10
-46.2
20
-10.11
30
0
40
2.4
210
0
220
0
230
1
100
AcDbArc
50
270
51
0
0
CIRCLE
5
16B
100
AcDbEntity
8
SK1
62
256
6
ByLayer
370
18
48
1
60
0
100
AcDbCircle
10
-18.5
20
0
30
0
40
7.24999999999999
39
0
210
0
220
0
230
1
0
ELLIPSE
5
16C
100
AcDbEntity
8
SK1
62
256
6
ByLayer
370
13
48
1
60
0
100
AcDbEllipse
10
-46.2
20
22.149041
30
0
11
2.4
21
0
31
0
210
0
220
0
230
1
40
0.45399
41
-1.5707963267949
42
-1.23142742339284
0
ELLIPSE
5
16D
100
AcDbEntity
8
SK1
62
256
6
ByLayer
370
13
48
1
60
0
100
AcDbEllipse
10
-46.2
20
-22.149041
30
0
11
2.4
21
0
31
0
210
0
220
0
230
1
40
0.45399
41
1.23142742339348
42
1.5707963267949
0
POINT
5
70
100
AcDbEntity
8
2
62
256
6
ByLayer
370
18
48
1
60
0
100
AcDbPoint
10
85
20
0
30
0
39
0
210
0
220
0
230
1
50
360
0
POINT
5
72
100
AcDbEntity
8
2
62
256
6
ByLayer
370
18
48
1
60
0
100
AcDbPoint
10
85
20
0
30
0
39
0
210
0
220
0
230
1
50
360
0
POINT
5
73
100
AcDbEntity
8
2
62
256
6
ByLayer
370
18
48
1
60
0
100
AcDbPoint
10
85
20
0
30
0
39
0
210
0
220
0
230
1
50
360
0
POINT
5
74
100
AcDbEntity
8
2
62
256
6
ByLayer
370
18
48
1
60
0
100
AcDbPoint
10
85
20
0
30
0
39
0
210
0
220
0
230
1
50
360
0
POINT
5
75
100
AcDbEntity
8
2
62
256
6
ByLayer
370
18
48
1
60
0
100
AcDbPoint
10
85
20
0
30
0
39
0
210
0
220
0
230
1
50
360
0
POINT
5
76
100
AcDbEntity
8
2
62
256
6
ByLayer
370
18
48
1
60
0
100
AcDbPoint
10
0
20
0
30
0
39
0
210
0
220
0
230
1
50
360
0
POINT
5
77
100
AcDbEntity
8
2
62
256
6
ByLayer
370
18
48
1
60
0
100
AcDbPoint
10
85
20
0
30
0
39
0
210
0
220
0
230
1
50
360
0
POINT
5
78
100
AcDbEntity
8
2
62
256
6
ByLayer
370
18
48
1
60
0
100
AcDbPoint
10
85
20
35.921024
30
0
39
0
210
0
220
0
230
1
50
360
0
POINT
5
79
100
AcDbEntity
8
2
62
256
6
ByLayer
370
18
48
1
60
0
100
AcDbPoint
10
85
20
0
30
0
39
0
210
0
220
0
230
1
50
360
0
POINT
5
7A
100
AcDbEntity
8
80
62
256
6
ByLayer
370
18
48
1
60
0
100
AcDbPoint
10
0
20
0
30
0
39
0
210
0
220
0
230
1
50
360
0
POINT
5
7C
100
AcDbEntity
8
81
62
256
6
ByLayer
370
18
48
1
60
0
100
AcDbPoint
10
85
20
0
30
0
39
0
210
0
220
0
230
1
50
360
0
POINT
5
7E
100
AcDbEntity
8
1
62
256
6
ByLayer
370
13
48
1
60
1
100
AcDbPoint
10
20
20
-59.448848
30
0
39
0
210
0
220
0
230
1
50
360
0
POINT
5
80
100
AcDbEntity
8
1
62
256
6
ByLayer
370
13
48
1
60
1
100
AcDbPoint
10
20
20
-49.067024
30
0
39
0
210
0
220
0
230
1
50
360
0
POINT
5
81
100
AcDbEntity
8
1
62
256
6
ByLayer
370
13
48
1
60
1
100
AcDbPoint
10
20
20
-60.089814
30
0
39
0
210
0
220
0
230
1
50
360
0
POINT
5
82
100
AcDbEntity
8
1
62
256
6
ByLayer
370
13
48
1
60
1
100
AcDbPoint
10
20
20
-50.234449
30
0
39
0
210
0
220
0
230
1
50
360
0
POINT
5
83
100
AcDbEntity
8
1
62
256
6
ByLayer
370
13
48
1
60
1
100
AcDbPoint
10
-62.25
20
0
30
0
39
0
210
0
220
0
230
1
50
360
0
POINT
5
84
100
AcDbEntity
8
1
62
256
6
ByLayer
370
13
48
1
60
1
100
AcDbPoint
10
115.5
20
0
30
0
39
0
210
0
220
0
230
1
50
360
0
SPLINE
5
16E
100
AcDbEntity
8
1
62
256
6
ByLayer
370
18
48
1
60
0
100
AcDbSpline
70
4
71
3
72
52
73
48
40
0
40
0
40
0
40
0
40
0.0624999999999854
40
0.0624999999999854
40
0.124999999999971
40
0.124999999999971
40
0.156249999999964
40
0.156249999999964
40
0.171874999999961
40
0.171874999999961
40
0.187499999999958
40
0.187499999999958
40
0.24999999999995
40
0.312499999999942
40
0.312499999999942
40
0.328124999999942
40
0.328124999999942
40
0.343749999999941
40
0.37499999999994
40
0.37499999999994
40
0.437499999999937
40
0.437499999999937
40
0.468749999999936
40
0.468749999999936
40
0.484374999999936
40
0.484374999999936
40
0.499999999999937
40
0.499999999999937
40
0.562499999999943
40
0.624999999999948
40
0.624999999999948
40
0.656249999999953
40
0.656249999999953
40
0.687499999999957
40
0.687499999999957
40
0.749999999999965
40
0.749999999999965
40
0.781249999999969
40
0.781249999999969
40
0.812499999999973
40
0.812499999999973
40
0.874999999999982
40
0.93749999999999
40
0.93749999999999
40
0.968749999999995
40
0.968749999999995
40
1
40
1
40
1
40
1
41
1
10
21.525
20
-58.2381299616412
30
0
41
1
10
21.4868065447375
20
-58.2442316971122
30
0
41
1
10
21.4445381850189
20
-58.2499190730104
30
0
41
1
10
21.3521784449498
20
-58.2605526432306
30
0
41
1
10
21.3020860530701
20
-58.2654985782993
30
0
41
1
10
21.2210093836793
20
-58.2723991382729
30
0
41
1
10
21.1929910048798
20
-58.2746126726306
30
0
41
1
10
21.1494353018811
20
-58.2778053849069
30
0
41
1
10
21.1346855847533
20
-58.2788464514689
30
0
41
1
10
21.1048920218933
20
-58.2808720187578
30
0
41
1
10
21.0898246363568
20
-58.2818582638509
30
0
41
1
10
21.0136453160905
20
-58.2866607605539
30
0
41
1
10
20.8863886769157
20
-58.2935248537805
30
0
41
1
10
20.7485754193611
20
-58.2988864370772
30
0
41
1
10
20.6590239963448
20
-58.3017815860491
30
0
41
1
10
20.6409265949803
20
-58.3023380537829
30
0
41
1
10
20.6046560996624
20
-58.3033974908912
30
0
41
1
10
20.5500416231474
20
-58.3049095842224
30
0
41
1
10
20.4948099763354
20
-58.3061966538488
30
0
41
1
10
20.3835372624479
20
-58.3084819610865
30
0
41
1
10
20.3082796904917
20
-58.3096220362805
30
0
41
1
10
20.1937693325706
20
-58.3107706549506
30
0
41
1
10
20.1553276866493
20
-58.3110595332486
30
0
41
1
10
20.0972484602442
20
-58.3113497244087
30
0
41
1
10
20.0777829041829
20
-58.311422624149
30
0
41
1
10
20.0389498391258
20
-58.311519515652
30
0
41
1
10
20.0195734157022
20
-58.3115436593006
30
0
41
1
10
19.922889055704
20
-58.3115446362025
30
0
41
1
10
19.7694545645521
20
-58.3107841373075
30
0
41
1
10
19.6184844227804
20
-58.3085184343909
30
0
41
1
10
19.506208832766
20
-58.3062200341332
30
0
41
1
10
19.4688866369618
20
-58.3053512855418
30
0
41
1
10
19.3956628447326
20
-58.3034335603538
30
0
41
1
10
19.3596254396705
20
-58.302382199913
30
0
41
1
10
19.2532037430067
20
-58.2989484764385
30
0
41
1
10
19.1845027824179
20
-58.2962880032651
30
0
41
1
10
19.0848241390994
20
-58.2917041520396
30
0
41
1
10
19.0521618527348
20
-58.2900769689124
30
0
41
1
10
18.9879880206823
20
-58.2866132291089
30
0
41
1
10
18.956388316023
20
-58.2847703475527
30
0
41
1
10
18.8646453210054
20
-58.2789904808032
30
0
41
1
10
18.7497190819256
20
-58.2705834981297
30
0
41
1
10
18.649179801911
20
-58.2606974670981
30
0
41
1
10
18.579303800545
20
-58.2526696518928
30
0
41
1
10
18.5568878626424
20
-58.2498841691373
30
0
41
1
10
18.5142947565065
20
-58.2441403763605
30
0
41
1
10
18.4940967106199
20
-58.2411808266589
30
0
41
1
10
18.475
20
-58.2381299616412
30
0
0
SPLINE
5
16F
100
AcDbEntity
8
1
62
256
6
ByLayer
370
18
48
1
60
0
100
AcDbSpline
70
4
71
3
72
52
73
48
40
0
40
0
40
0
40
0
40
0.0624999999999982
40
0.0624999999999982
40
0.124999999999996
40
0.124999999999996
40
0.156249999999994
40
0.156249999999994
40
0.171874999999993
40
0.171874999999993
40
0.187499999999993
40
0.187499999999993
40
0.249999999999982
40
0.312499999999972
40
0.312499999999972
40
0.328124999999971
40
0.328124999999971
40
0.34374999999997
40
0.374999999999968
40
0.374999999999968
40
0.437499999999967
40
0.437499999999967
40
0.468749999999967
40
0.468749999999967
40
0.484374999999968
40
0.484374999999968
40
0.499999999999969
40
0.499999999999969
40
0.562499999999974
40
0.624999999999979
40
0.624999999999979
40
0.656249999999982
40
0.656249999999982
40
0.687499999999986
40
0.687499999999986
40
0.74999999999999
40
0.74999999999999
40
0.781249999999991
40
0.781249999999991
40
0.812499999999993
40
0.812499999999993
40
0.874999999999995
40
0.937499999999997
40
0.937499999999997
40
0.968749999999999
40
0.968749999999999
40
1
40
1
40
1
40
1
41
1
10
18.475
20
-58.058672519838
30
0
41
1
10
18.5131934552625
20
-58.0505893499221
30
0
41
1
10
18.5554618149811
20
-58.0427829335135
30
0
41
1
10
18.6478215550502
20
-58.0277555094785
30
0
41
1
10
18.6979139469299
20
-58.0205344147664
30
0
41
1
10
18.7789906163207
20
-58.0101912089349
30
0
41
1
10
18.8070089951202
20
-58.0068251505134
30
0
41
1
10
18.8505646981189
20
-58.0019075403621
30
0
41
1
10
18.8653144152467
20
-58.0002931473103
30
0
41
1
10
18.8951079781067
20
-57.9971324448986
30
0
41
1
10
18.9101753636432
20
-57.9955834533851
30
0
41
1
10
18.9863546839095
20
-57.9879956392728
30
0
41
1
10
19.1136113230843
20
-57.9768574885911
30
0
41
1
10
19.2514245806389
20
-57.9677987121995
30
0
41
1
10
19.3409760036552
20
-57.9628407563899
30
0
41
1
10
19.3590734050197
20
-57.9618838788607
30
0
41
1
10
19.3953439003376
20
-57.9600557714685
30
0
41
1
10
19.4499583768525
20
-57.9574366063478
30
0
41
1
10
19.5051900236646
20
-57.9551839203135
30
0
41
1
10
19.616462737552
20
-57.9511654355036
30
0
41
1
10
19.6917203095083
20
-57.9491339524724
30
0
41
1
10
19.8062306674294
20
-57.9470815081417
30
0
41
1
10
19.8446723133507
20
-57.9465635692774
30
0
41
1
10
19.9027515397558
20
-57.946042906342
30
0
41
1
10
19.9222170958171
20
-57.9459119967617
30
0
41
1
10
19.9610501608742
20
-57.9457379735704
30
0
41
1
10
19.9804265842978
20
-57.9456945876228
30
0
41
1
10
20.077110944296
20
-57.9456928324402
30
0
41
1
10
20.2305454744228
20
-57.9470626859543
30
0
41
1
10
20.3815155772196
20
-57.9511009499943
30
0
41
1
10
20.493791167234
20
-57.9551429791151
30
0
41
1
10
20.5311133630382
20
-57.9566635905762
30
0
41
1
10
20.6043371552674
20
-57.9599959319934
30
0
41
1
10
20.6403745603295
20
-57.9618118854828
30
0
41
1
10
20.7467962569933
20
-57.967693089021
30
0
41
1
10
20.8154972175821
20
-57.9721901808792
30
0
41
1
10
20.9151758609006
20
-57.9797653678531
30
0
41
1
10
20.9478381472652
20
-57.9824290701179
30
0
41
1
10
21.0120119793177
20
-57.9880325375738
30
0
41
1
10
21.0436116839769
20
-57.9909821165968
30
0
41
1
10
21.1353546789946
20
-58.0001151138722
30
0
41
1
10
21.2502809180744
20
-58.0131021387875
30
0
41
1
10
21.350820198089
20
-58.0275475961004
30
0
41
1
10
21.420696199455
20
-58.0388973735374
30
0
41
1
10
21.4431121373576
20
-58.0427763357694
30
0
41
1
10
21.4857052434935
20
-58.0506420730961
30
0
41
1
10
21.5059032893801
20
-58.0546309384802
30
0
41
1
10
21.525
20
-58.0586725198379
30
0
0
SPLINE
5
170
100
AcDbEntity
8
1
62
256
6
ByLayer
370
18
48
1
60
0
100
AcDbSpline
70
4
71
3
72
52
73
48
40
0
40
0
40
0
40
0
40
0.0624999999999838
40
0.0624999999999838
40
0.124999999999968
40
0.124999999999968
40
0.156249999999961
40
0.156249999999961
40
0.171874999999958
40
0.171874999999958
40
0.187499999999955
40
0.187499999999955
40
0.249999999999949
40
0.312499999999942
40
0.312499999999942
40
0.328124999999942
40
0.328124999999942
40
0.343749999999942
40
0.374999999999942
40
0.374999999999942
40
0.437499999999942
40
0.437499999999942
40
0.468749999999942
40
0.468749999999942
40
0.484374999999944
40
0.484374999999944
40
0.499999999999945
40
0.499999999999945
40
0.562499999999951
40
0.624999999999957
40
0.624999999999957
40
0.656249999999961
40
0.656249999999961
40
0.687499999999965
40
0.687499999999965
40
0.749999999999974
40
0.749999999999974
40
0.781249999999978
40
0.781249999999978
40
0.812499999999981
40
0.812499999999981
40
0.874999999999988
40
0.937499999999995
40
0.937499999999995
40
0.968749999999998
40
0.968749999999998
40
1
40
1
40
1
40
1
41
1
10
21.525
20
-57.3694918933653
30
0
41
1
10
21.4868065447375
20
-57.3826246867865
30
0
41
1
10
21.4445381850189
20
-57.3950024828914
30
0
41
1
10
21.3521784449498
20
-57.4183621479062
30
0
41
1
10
21.3020860530701
20
-57.4293436752734
30
0
41
1
10
21.2210093836793
20
-57.4447999956984
30
0
41
1
10
21.1929910048798
20
-57.4497822487124
30
0
41
1
10
21.1494353018811
20
-57.4569998927886
30
0
41
1
10
21.1346855847533
20
-57.4593588620356
30
0
41
1
10
21.1048920218933
20
-57.4639584979565
30
0
41
1
10
21.0898246363568
20
-57.4662031057276
30
0
41
1
10
21.0136453160905
20
-57.4771558118328
30
0
41
1
10
20.8863886769157
20
-57.4929575939236
30
0
41
1
10
20.7485754193611
20
-57.5054807970224
30
0
41
1
10
20.6590239963448
20
-57.5122764597855
30
0
41
1
10
20.6409265949803
20
-57.5135846061583
30
0
41
1
10
20.6046560996624
20
-57.5160783251276
30
0
41
1
10
20.5500416231474
20
-57.5196425299042
30
0
41
1
10
20.4948099763354
20
-57.5226880353994
30
0
41
1
10
20.3835372624479
20
-57.5281049737698
30
0
41
1
10
20.3082796904917
20
-57.5308207922359
30
0
41
1
10
20.1937693325706
20
-57.5335598471621
30
0
41
1
10
20.1553276866493
20
-57.5342495998949
30
0
41
1
10
20.0972484602442
20
-57.5349426734592
30
0
41
1
10
20.0777829041829
20
-57.5351168389222
30
0
41
1
10
20.0389498391258
20
-57.5353483386402
30
0
41
1
10
20.0195734157022
20
-57.53540603556
30
0
41
1
10
19.922889055704
20
-57.5354083699445
30
0
41
1
10
19.7694545255772
20
-57.5335894609943
30
0
41
1
10
19.6184844227804
20
-57.5281916040215
30
0
41
1
10
19.506208832766
20
-57.5227433686311
30
0
41
1
10
19.4688866369618
20
-57.5206876628833
30
0
41
1
10
19.3956628447326
20
-57.5161620193404
30
0
41
1
10
19.3596254396705
20
-57.5136864150633
30
0
41
1
10
19.2532037430067
20
-57.5056261079733
30
0
41
1
10
19.1845027824179
20
-57.4994109426803
30
0
41
1
10
19.0848241390994
20
-57.4887895554316
30
0
41
1
10
19.0521618527348
20
-57.4850319026487
30
0
41
1
10
18.9879880206823
20
-57.4770666155645
30
0
41
1
10
18.956388316023
20
-57.4728446467151
30
0
41
1
10
18.8646453210054
20
-57.4596624383926
30
0
41
1
10
18.7497190819256
20
-57.4406379465097
30
0
41
1
10
18.649179801911
20
-57.4186819274332
30
0
41
1
10
18.579303800545
20
-57.4010441211817
30
0
41
1
10
18.5568878626424
20
-57.3949539226692
30
0
41
1
10
18.5142947565065
20
-57.3824624509044
30
0
41
1
10
18.4940967106199
20
-57.3760582842265
30
0
41
1
10
18.475
20
-57.3694918933653
30
0
0
SPLINE
5
171
100
AcDbEntity
8
1
62
256
6
ByLayer
370
18
48
1
60
0
100
AcDbSpline
70
4
71
3
72
43
73
39
40
0
40
0
40
0
40
0
40
0.0312499999999998
40
0.0312499999999998
40
0.0624999999999997
40
0.0624999999999997
40
0.125
40
0.125
40
0.25
40
0.25
40
0.3125
40
0.3125
40
0.375
40
0.375
40
0.4375
40
0.4375
40
0.46875
40
0.46875
40
0.5
40
0.5
40
0.5078125
40
0.5078125
40
0.515625
40
0.53125
40
0.53125
40
0.5625
40
0.5625
40
0.625
40
0.625
40
0.6875
40
0.6875
40
0.75
40
0.75
40
0.875
40
0.875
40
0.9375
40
0.9375
40
1
40
1
40
1
40
1
41
1
10
28.95
20
9.74179141636694
30
0
41
1
10
28.95
20
9.53915695303996
30
0
41
1
10
28.9518437701936
20
9.33633995203971
30
0
41
1
10
28.9586129538583
20
8.93100107266389
30
0
41
1
10
28.9635391273246
20
8.72840846439323
30
0
41
1
10
28.9821864114404
20
8.12082345622679
30
0
41
1
10
28.999758463228
20
7.71602298471083
30
0
41
1
10
29.0629378245289
20
6.50214304948241
30
0
41
1
10
29.1191372698038
20
5.69359149086719
30
0
41
1
10
29.2067025105977
20
4.48092693187402
30
0
41
1
10
29.2364292123726
20
4.07673224013922
30
0
41
1
10
29.2932858654796
20
3.26821343633117
30
0
41
1
10
29.3204173794885
20
2.86388940214073
30
0
41
1
10
29.3675094518759
20
2.0548839380358
30
0
41
1
10
29.3874168944649
20
1.65019986086523
30
0
41
1
10
29.4082146393925
20
1.04272203025479
30
0
41
1
10
29.4136395254953
20
0.840154277494747
30
0
41
1
10
29.4210495687331
20
0.434847338139605
30
0
41
1
10
29.4230318697196
20
0.23210800919594
30
0
41
1
10
29.4232480685731
20
-0.0214288725004792
30
0
41
1
10
29.4231785016102
20
-0.0725360275555715
30
0
41
1
10
29.422811877397
20
-0.174503482780949
30
0
41
1
10
29.4219220168781
20
-0.327445452424826
30
0
41
1
10
29.4200179525937
20
-0.480359933421852
30
0
41
1
10
29.4148984258141
20
-0.786153351708208
30
0
41
1
10
29.4097302171932
20
-0.989968058449819
30
0
41
1
10
29.3895750218038
20
-1.60128613116086
30
0
41
1
10
29.3699179096851
20
-2.00871210709494
30
0
41
1
10
29.3230454841576
20
-2.82305234442859
30
0
41
1
10
29.2958896201285
20
-3.22998550913695
30
0
41
1
10
29.2388311991639
20
-4.04367686522681
30
0
41
1
10
29.2089267547553
20
-4.45044815534186
30
0
41
1
10
29.1207353186238
20
-5.67084502367229
30
0
41
1
10
29.0640081210057
20
-6.48449253211112
30
0
41
1
10
29.0002334222696
20
-7.70547523657188
30
0
41
1
10
28.9824930361327
20
-8.11255387586061
30
0
41
1
10
28.9573933743127
20
-8.92696023069587
30
0
41
1
10
28.95
20
-9.33428712810647
30
0
41
1
10
28.95
20
-9.74179141636694
30
0
0
SPLINE
5
172
100
AcDbEntity
8
1
62
256
6
ByLayer
370
18
48
1
60
0
100
AcDbSpline
70
4
71
3
72
52
73
48
40
0
40
0
40
0
40
0
40
0.0624999999999913
40
0.0624999999999913
40
0.124999999999983
40
0.124999999999983
40
0.156249999999978
40
0.156249999999978
40
0.171874999999975
40
0.171874999999975
40
0.187499999999973
40
0.187499999999973
40
0.249999999999965
40
0.312499999999958
40
0.312499999999958
40
0.328124999999957
40
0.328124999999957
40
0.343749999999956
40
0.374999999999955
40
0.374999999999955
40
0.437499999999955
40
0.437499999999955
40
0.468749999999955
40
0.468749999999955
40
0.484374999999957
40
0.484374999999957
40
0.499999999999958
40
0.499999999999958
40
0.562499999999964
40
0.62499999999997
40
0.62499999999997
40
0.656249999999974
40
0.656249999999974
40
0.687499999999978
40
0.687499999999978
40
0.749999999999983
40
0.749999999999983
40
0.781249999999985
40
0.781249999999985
40
0.812499999999986
40
0.812499999999986
40
0.87499999999999
40
0.937499999999994
40
0.937499999999994
40
0.968749999999997
40
0.968749999999997
40
1
40
1
40
1
40
1
41
1
10
18.475
20
-57.0125431830452
30
0
41
1
10
18.5131934552625
20
-56.9974615784844
30
0
41
1
10
18.5554618149811
20
-56.982999630788
30
0
41
1
10
18.6478215550502
20
-56.9553184545154
30
0
41
1
10
18.6979139469299
20
-56.9420992268453
30
0
41
1
10
18.7789906163207
20
-56.9232569419667
30
0
41
1
10
18.8070089951202
20
-56.9171411406084
30
0
41
1
10
18.8505646981189
20
-56.9082269982192
30
0
41
1
10
18.8653144152467
20
-56.9053041420098
30
0
41
1
10
18.8951079781067
20
-56.8995880603856
30
0
41
1
10
18.9101753636432
20
-56.8967899715264
30
0
41
1
10
18.9863546839095
20
-56.8830978068392
30
0
41
1
10
19.1136113230843
20
-56.8630923374645
30
0
41
1
10
19.2514245806389
20
-56.8469328136653
30
0
41
1
10
19.3409760036552
20
-56.8381083071246
30
0
41
1
10
19.3590734050197
20
-56.8364063434989
30
0
41
1
10
19.3953439003376
20
-56.833156610009
30
0
41
1
10
19.4499583768525
20
-56.8285035608141
30
0
41
1
10
19.5051900236646
20
-56.8245083372916
30
0
41
1
10
19.616462737552
20
-56.8173867572317
30
0
41
1
10
19.6917203095083
20
-56.8137942075028
30
0
41
1
10
19.8062306674294
20
-56.8101662079435
30
0
41
1
10
19.8446723133507
20
-56.8092511660095
30
0
41
1
10
19.9027515397558
20
-56.8083314152699
30
0
41
1
10
19.9222170958171
20
-56.8081001950693
30
0
41
1
10
19.9610501608742
20
-56.8077928335967
30
0
41
1
10
19.9804265842978
20
-56.8077162111926
30
0
41
1
10
20.077110944296
20
-56.8077131113413
30
0
41
1
10
20.2305454354479
20
-56.810131440777
30
0
41
1
10
20.3815155772196
20
-56.8172725759817
30
0
41
1
10
20.493791167234
20
-56.8244357322772
30
0
41
1
10
20.5311133630382
20
-56.8271325683058
30
0
41
1
10
20.6043371552674
20
-56.8330495371449
30
0
41
1
10
20.6403745603295
20
-56.8362771458369
30
0
41
1
10
20.7467962569933
20
-56.8467446364824
30
0
41
1
10
20.8154972175821
20
-56.8547661814723
30
0
41
1
10
20.9151758609006
20
-56.8683296536555
30
0
41
1
10
20.9478381472652
20
-56.8731067598183
30
0
41
1
10
21.0120119793177
20
-56.8831765450328
30
0
41
1
10
21.043611683977
20
-56.8884869901409
30
0
41
1
10
21.1353546789946
20
-56.9049671214093
30
0
41
1
10
21.2502809180744
20
-56.9284962474796
30
0
41
1
10
21.350820198089
20
-56.9549366242143
30
0
41
1
10
21.420696199455
20
-56.9758416982874
30
0
41
1
10
21.4431121373576
20
-56.9830073726959
30
0
41
1
10
21.4857052434935
20
-56.9975858522782
30
0
41
1
10
21.5059032893801
20
-57.0050023874821
30
0
41
1
10
21.525
20
-57.0125431830452
30
0
0
SPLINE
5
173
100
AcDbEntity
8
1
62
256
6
ByLayer
370
18
48
1
60
0
100
AcDbSpline
70
4
71
3
72
30
73
26
40
0
40
0
40
0
40
0
40
0.062576442718778
40
0.062576442718778
40
0.125152885437556
40
0.187729328156334
40
0.187729328156334
40
0.250305770875112
40
0.250305770875112
40
0.375458656312655
40
0.375458656312655
40
0.43803509903143
40
0.43803509903143
40
0.500611541750204
40
0.500611541750204
40
0.625764427187776
40
0.625764427187776
40
0.688340869906548
40
0.688340869906548
40
0.750917312625321
40
0.813493755344093
40
0.813493755344093
40
0.876070198062865
40
0.876070198062865
40
1
40
1
40
1
40
1
41
1
10
21.525
20
-14.021
30
0
41
1
10
21.5383565660136
20
-14.021
30
0
41
1
10
21.5517763277954
20
-14.021
30
0
41
1
10
21.5781978288958
20
-14.021
30
0
41
1
10
21.6043537760268
20
-14.021
30
0
41
1
10
21.6299867815616
20
-14.021
30
0
41
1
10
21.65535460942
20
-14.021
30
0
41
1
10
21.6679678518592
20
-14.021
30
0
41
1
10
21.7046468649582
20
-14.021
30
0
41
1
10
21.727734299009
20
-14.021
30
0
41
1
10
21.7603730499857
20
-14.021
30
0
41
1
10
21.7709560487511
20
-14.021
30
0
41
1
10
21.7912596229049
20
-14.021
30
0
41
1
10
21.8009022066225
20
-14.021
30
0
41
1
10
21.8283603298702
20
-14.021
30
0
41
1
10
21.8447198077366
20
-14.021
30
0
41
1
10
21.8663111757052
20
-14.021
30
0
41
1
10
21.872975054113
20
-14.021
30
0
41
1
10
21.8850540697862
20
-14.021
30
0
41
1
10
21.8959532189782
20
-14.021
30
0
41
1
10
21.9045351473129
20
-14.021
30
0
41
1
10
21.911946816633
20
-14.021
30
0
41
1
10
21.9150787044352
20
-14.021
30
0
41
1
10
21.922495524601
20
-14.021
30
0
41
1
10
21.9249625459577
20
-14.0209999999999
30
0
41
1
10
21.924995
20
-14.0209999999999
30
0
0
SPLINE
5
174
100
AcDbEntity
8
1
62
256
6
ByLayer
370
18
48
1
60
0
100
AcDbSpline
70
4
71
3
72
32
73
28
40
0
40
0
40
0
40
0
40
0.12500000000001
40
0.12500000000001
40
0.25000000000002
40
0.25000000000002
40
0.28125000000002
40
0.28125000000002
40
0.31250000000002
40
0.31250000000002
40
0.375000000000019
40
0.375000000000019
40
0.500000000000018
40
0.500000000000018
40
0.562500000000019
40
0.562500000000019
40
0.59375000000002
40
0.59375000000002
40
0.62500000000002
40
0.62500000000002
40
0.750000000000012
40
0.750000000000012
40
0.875000000000005
40
0.875000000000005
40
0.937500000000003
40
0.937500000000003
40
1
40
1
40
1
40
1
41
1
10
21.525
20
-57.0125431830452
30
0
41
1
10
21.5622091277275
20
-57.0272361022005
30
0
41
1
10
21.5945489254162
20
-57.0470519796455
30
0
41
1
10
21.6502927391022
20
-57.0909243535904
30
0
41
1
10
21.6736891429507
20
-57.115058541125
30
0
41
1
10
21.6973731110775
20
-57.1451779170251
30
0
41
1
10
21.7018302018911
20
-57.1512005984477
30
0
41
1
10
21.7101792173999
20
-57.1631773899664
30
0
41
1
10
21.7140718220585
20
-57.1691341739976
30
0
41
1
10
21.7248207317236
20
-57.1866830536457
30
0
41
1
10
21.7307792981145
20
-57.1979911055163
30
0
41
1
10
21.7450996504873
20
-57.2301056162306
30
0
41
1
10
21.7499213156919
20
-57.2490123911834
30
0
41
1
10
21.7500379155224
20
-57.2723459320807
30
0
41
1
10
21.7488869110087
20
-57.2793073425585
30
0
41
1
10
21.7453378078205
20
-57.2885794742781
30
0
41
1
10
21.7438507727598
20
-57.2914767752324
30
0
41
1
10
21.7402595269246
20
-57.2969120282203
30
0
41
1
10
21.7381563840293
20
-57.2994456144992
30
0
41
1
10
21.7261892938871
20
-57.3112280949869
30
0
41
1
10
21.711946648434
20
-57.317875077253
30
0
41
1
10
21.6743632967335
20
-57.3296835163933
30
0
41
1
10
21.6510244607746
20
-57.3348398991763
30
0
41
1
10
21.6088348940345
20
-57.3450191302815
30
0
41
1
10
21.5936169800891
20
-57.3488159200007
30
0
41
1
10
21.5609948685701
20
-57.3578591603394
30
0
41
1
10
21.5435694250032
20
-57.3631068093012
30
0
41
1
10
21.5250000000016
20
-57.3694918933638
30
0
0
SPLINE
5
175
100
AcDbEntity
8
1
62
256
6
ByLayer
370
18
48
1
60
0
100
AcDbSpline
70
4
71
3
72
32
73
28
40
0
40
0
40
0
40
0
40
0.125000000000001
40
0.125000000000001
40
0.250000000000002
40
0.250000000000002
40
0.281250000000002
40
0.281250000000002
40
0.312500000000002
40
0.312500000000002
40
0.375000000000002
40
0.375000000000002
40
0.5
40
0.5
40
0.562499999999999
40
0.562499999999999
40
0.593749999999999
40
0.593749999999999
40
0.624999999999998
40
0.624999999999998
40
0.749999999999998
40
0.749999999999998
40
0.874999999999998
40
0.874999999999998
40
0.937499999999999
40
0.937499999999999
40
1
40
1
40
1
40
1
41
1
10
21.525
20
-58.0586725198379
30
0
41
1
10
21.5622091277275
20
-58.06654736907
30
0
41
1
10
21.5945489254162
20
-58.0794884637484
30
0
41
1
10
21.6502927391022
20
-58.1093609628004
30
0
41
1
10
21.6736891429507
20
-58.1263719441247
30
0
41
1
10
21.6973731110775
20
-58.1473553622924
30
0
41
1
10
21.7018302018911
20
-58.1515392219465
30
0
41
1
10
21.7101792173999
20
-58.1598129952199
30
0
41
1
10
21.7140718220585
20
-58.1639045865194
30
0
41
1
10
21.7248207317236
20
-58.1758559847222
30
0
41
1
10
21.7307792981145
20
-58.1834172941932
30
0
41
1
10
21.7450996504873
20
-58.2042337241608
30
0
41
1
10
21.7499213156919
20
-58.2155295590335
30
0
41
1
10
21.7500379155224
20
-58.2273022273744
30
0
41
1
10
21.7488869110087
20
-58.2303863491575
30
0
41
1
10
21.7453378078205
20
-58.233807944613
30
0
41
1
10
21.7438507727598
20
-58.2347493306353
30
0
41
1
10
21.7402595269246
20
-58.2362617881184
30
0
41
1
10
21.7381563840293
20
-58.2368311582227
30
0
41
1
10
21.7261892938871
20
-58.2388464944649
30
0
41
1
10
21.711946648434
20
-58.237790292031
30
0
41
1
10
21.6743632967335
20
-58.2344255563881
30
0
41
1
10
21.6510244607746
20
-58.2321118767665
30
0
41
1
10
21.6088348940345
20
-58.2312864760153
30
0
41
1
10
21.5936169800891
20
-58.2314625068628
30
0
41
1
10
21.5609948685701
20
-58.2334032065544
30
0
41
1
10
21.5435694250032
20
-58.2351633350689
30
0
41
1
10
21.5250000000017
20
-58.2381299616395
30
0
0
SPLINE
5
176
100
AcDbEntity
8
1
62
256
6
ByLayer
370
18
48
1
60
0
100
AcDbSpline
70
4
71
3
72
31
73
27
40
0
40
0
40
0
40
0
40
0.0624999999999825
40
0.0624999999999825
40
0.124999999999965
40
0.124999999999965
40
0.249999999999952
40
0.249999999999952
40
0.31249999999996
40
0.31249999999996
40
0.374999999999968
40
0.374999999999968
40
0.499999999999983
40
0.499999999999983
40
0.562499999999985
40
0.562499999999985
40
0.624999999999987
40
0.68749999999999
40
0.68749999999999
40
0.749999999999992
40
0.749999999999992
40
0.874999999999996
40
0.874999999999996
40
0.937499999999998
40
0.937499999999998
40
1
40
1
40
1
40
1
41
1
10
18.475
20
14.021
30
0
41
1
10
18.4617822486917
20
14.021
30
0
41
1
10
18.4485682507878
20
14.021
30
0
41
1
10
18.4221478606538
20
14.021
30
0
41
1
10
18.4088663353462
20
14.021
30
0
41
1
10
18.3696520560442
20
14.021
30
0
41
1
10
18.344432971585
20
14.021
30
0
41
1
10
18.3079455510392
20
14.021
30
0
41
1
10
18.2960082756252
20
14.021
30
0
41
1
10
18.2725969963394
20
14.021
30
0
41
1
10
18.2613173058504
20
14.021
30
0
41
1
10
18.2287204638864
20
14.021
30
0
41
1
10
18.2086258741378
20
14.021
30
0
41
1
10
18.1809454250374
20
14.021
30
0
41
1
10
18.1721416227339
20
14.021
30
0
41
1
10
18.1557307130559
20
14.021
30
0
41
1
10
18.1404121989409
20
14.021
30
0
41
1
10
18.1272298282906
20
14.021
30
0
41
1
10
18.1151218735206
20
14.021
30
0
41
1
10
18.1095809579754
20
14.021
30
0
41
1
10
18.0948253546682
20
14.021
30
0
41
1
10
18.0874674551519
20
14.021
30
0
41
1
10
18.0800243789715
20
14.021
30
0
41
1
10
18.078146589233
20
14.021
30
0
41
1
10
18.0756283251619
20
14.021
30
0
41
1
10
18.0749889989
20
14.021
30
0
41
1
10
18.075004750475
20
14.021
30
0
0
SPLINE
5
177
100
AcDbEntity
8
1
62
256
6
ByLayer
370
18
48
1
60
0
100
AcDbSpline
70
4
71
3
72
29
73
25
40
0
40
0
40
0
40
0
40
0.125000000000022
40
0.125000000000022
40
0.187500000000015
40
0.187500000000015
40
0.250000000000008
40
0.250000000000008
40
0.374999999999964
40
0.374999999999964
40
0.437499999999956
40
0.437499999999956
40
0.499999999999948
40
0.499999999999948
40
0.624999999999943
40
0.624999999999943
40
0.68749999999995
40
0.68749999999995
40
0.749999999999957
40
0.812499999999964
40
0.812499999999964
40
0.87499999999997
40
0.87499999999997
40
1
40
1
40
1
40
1
41
1
10
21.9250050005
20
14.021
30
0
41
1
10
21.9249949995
20
14.021
30
0
41
1
10
21.9225037565047
20
14.021
30
0
41
1
10
21.9150859549369
20
14.021
30
0
41
1
10
21.9119968815208
20
14.021
30
0
41
1
10
21.9045446082261
20
14.021
30
0
41
1
10
21.9001945721766
20
14.021
30
0
41
1
10
21.8855033547473
20
14.021
30
0
41
1
10
21.8734712633949
20
14.021
30
0
41
1
10
21.8520183761686
20
14.021
30
0
41
1
10
21.8442537349004
20
14.021
30
0
41
1
10
21.8277321852977
20
14.021
30
0
41
1
10
21.8190196603745
20
14.021
30
0
41
1
10
21.7915558910164
20
14.021
30
0
41
1
10
21.7714915924639
20
14.021
30
0
41
1
10
21.7386447510564
20
14.021
30
0
41
1
10
21.7272377264529
20
14.021
30
0
41
1
10
21.7040208082463
20
14.021
30
0
41
1
10
21.6802740882196
20
14.021
30
0
41
1
10
21.6554772900746
20
14.021
30
0
41
1
10
21.6301446723804
20
14.021
30
0
41
1
10
21.6171346160865
20
14.021
30
0
41
1
10
21.5778626065881
20
14.021
30
0
41
1
10
21.5515134117235
20
14.021
30
0
41
1
10
21.525
20
14.021
30
0
0
SPLINE
5
178
100
AcDbEntity
8
1
62
256
6
ByLayer
370
18
48
1
60
0
100
AcDbSpline
70
4
71
3
72
31
73
27
40
0
40
0
40
0
40
0
40
0.0598590502994085
40
0.0598590502994085
40
0.122535113612797
40
0.122535113612797
40
0.247887240239538
40
0.247887240239538
40
0.310563303552905
40
0.310563303552905
40
0.373239366866273
40
0.373239366866273
40
0.498591493493035
40
0.498591493493035
40
0.561267556806411
40
0.561267556806411
40
0.623943620119787
40
0.623943620119787
40
0.749295746746524
40
0.749295746746524
40
0.811971810059893
40
0.811971810059893
40
0.874647873373262
40
0.937323936686631
40
0.937323936686631
40
1
40
1
40
1
40
1
41
1
10
18.0750000000025
20
-14.0209999999998
30
0
41
1
10
18.0750613055477
20
-14.021
30
0
41
1
10
18.0756730973052
20
-14.021
30
0
41
1
10
18.0781064819451
20
-14.021
30
0
41
1
10
18.079994235111
20
-14.021
30
0
41
1
10
18.0874927469118
20
-14.021
30
0
41
1
10
18.0948856836146
20
-14.021
30
0
41
1
10
18.1095084992438
20
-14.021
30
0
41
1
10
18.1149757382317
20
-14.021
30
0
41
1
10
18.1271378362884
20
-14.021
30
0
41
1
10
18.1338231564275
20
-14.021
30
0
41
1
10
18.1552950460992
20
-14.021
30
0
41
1
10
18.1716079785918
20
-14.021
30
0
41
1
10
18.1991183964842
20
-14.021
30
0
41
1
10
18.2088464466446
20
-14.021
30
0
41
1
10
18.2291509743934
20
-14.021
30
0
41
1
10
18.2396569765872
20
-14.021
30
0
41
1
10
18.2722119912513
20
-14.021
30
0
41
1
10
18.2952876860248
20
-14.021
30
0
41
1
10
18.3320477057291
20
-14.021
30
0
41
1
10
18.3446462552221
20
-14.021
30
0
41
1
10
18.3699793884104
20
-14.021
30
0
41
1
10
18.3955919646582
20
-14.021
30
0
41
1
10
18.4217575255655
20
-14.021
30
0
41
1
10
18.4482048841807
20
-14.021
30
0
41
1
10
18.4616497348238
20
-14.021
30
0
41
1
10
18.475
20
-14.021
30
0
0
SPLINE
5
179
100
AcDbEntity
8
1
62
256
6
ByLayer
370
18
48
1
60
0
100
AcDbSpline
70
4
71
3
72
32
73
28
40
0
40
0
40
0
40
0
40
0.124999999999999
40
0.124999999999999
40
0.249999999999998
40
0.249999999999998
40
0.281249999999997
40
0.281249999999997
40
0.312499999999997
40
0.312499999999997
40
0.374999999999995
40
0.374999999999995
40
0.499999999999991
40
0.499999999999991
40
0.562499999999989
40
0.562499999999989
40
0.593749999999987
40
0.593749999999987
40
0.624999999999986
40
0.624999999999986
40
0.749999999999991
40
0.749999999999991
40
0.874999999999995
40
0.874999999999995
40
0.937499999999998
40
0.937499999999998
40
1
40
1
40
1
40
1
41
1
10
18.475
20
-58.2381299616412
30
0
41
1
10
18.4377908722725
20
-58.2321854810243
30
0
41
1
10
18.4054510745838
20
-58.2310285291341
30
0
41
1
10
18.3497072608978
20
-58.2320763817573
30
0
41
1
10
18.3263108570493
20
-58.2343619083583
30
0
41
1
10
18.3026268889225
20
-58.236486329183
30
0
41
1
10
18.2981697981089
20
-58.2368756763148
30
0
41
1
10
18.2898207826001
20
-58.2375130297378
30
0
41
1
10
18.2859281779415
20
-58.2377606771728
30
0
41
1
10
18.2751792682764
20
-58.2381870482323
30
0
41
1
10
18.2692207018855
20
-58.2380483007795
30
0
41
1
10
18.2549003495127
20
-58.2357106446755
30
0
41
1
10
18.2500786843081
20
-58.2314980637835
30
0
41
1
10
18.2499620844777
20
-58.2198901120708
30
0
41
1
10
18.2511130889913
20
-58.2151611362131
30
0
41
1
10
18.2546621921795
20
-58.2068337064159
30
0
41
1
10
18.2561492272402
20
-58.203853862923
30
0
41
1
10
18.2597404730754
20
-58.1975141775161
30
0
41
1
10
18.2618436159707
20
-58.1941579895672
30
0
41
1
10
18.2738107061129
20
-58.1766800487756
30
0
41
1
10
18.288053351566
20
-58.1603364637851
30
0
41
1
10
18.3256367032665
20
-58.1269018093995
30
0
41
1
10
18.3489755392254
20
-58.1098056182793
30
0
41
1
10
18.3911651059655
20
-58.0871185535748
30
0
41
1
10
18.4063830199109
20
-58.0800869717091
30
0
41
1
10
18.4390051314299
20
-58.0678368518509
30
0
41
1
10
18.4564305749968
20
-58.062602507749
30
0
41
1
10
18.4749999999983
20
-58.0586725198362
30
0
0
SPLINE
5
17A
100
AcDbEntity
8
1
62
256
6
ByLayer
370
18
48
1
60
0
100
AcDbSpline
70
4
71
3
72
32
73
28
40
0
40
0
40
0
40
0
40
0.124999999999997
40
0.124999999999997
40
0.249999999999994
40
0.249999999999994
40
0.281249999999993
40
0.281249999999993
40
0.312499999999993
40
0.312499999999993
40
0.374999999999992
40
0.374999999999992
40
0.499999999999989
40
0.499999999999989
40
0.562499999999986
40
0.562499999999986
40
0.593749999999985
40
0.593749999999985
40
0.624999999999983
40
0.624999999999983
40
0.749999999999991
40
0.749999999999991
40
0.875
40
0.875
40
0.9375
40
0.9375
40
1
40
1
40
1
40
1
41
1
10
18.475
20
-57.3694918933653
30
0
41
1
10
18.4377908722725
20
-57.3566975602926
30
0
41
1
10
18.4054510745838
20
-57.3484718057486
30
0
41
1
10
18.3497072608978
20
-57.3350106956943
30
0
41
1
10
18.3263108570493
20
-57.3298553089458
30
0
41
1
10
18.3026268889225
20
-57.3224633132812
30
0
41
1
10
18.2981697981089
20
-57.3209385431324
30
0
41
1
10
18.2898207826001
20
-57.3177261611642
30
0
41
1
10
18.2859281779415
20
-57.3160371725199
30
0
41
1
10
18.2751792682764
20
-57.3106622684904
30
0
41
1
10
18.2692207018855
20
-57.3066545699485
30
0
41
1
10
18.2549003495127
20
-57.2927145895319
30
0
41
1
10
18.2500786843081
20
-57.2807744464038
30
0
41
1
10
18.2499620844776
20
-57.2576029101597
30
0
41
1
10
18.2511130889913
20
-57.2490237272889
30
0
41
1
10
18.2546621921795
20
-57.2349265332822
30
0
41
1
10
18.2561492272402
20
-57.2300243370175
30
0
41
1
10
18.2597404730754
20
-57.2198413339461
30
0
41
1
10
18.2618436159707
20
-57.2145668133539
30
0
41
1
10
18.2738107061129
20
-57.1875763121966
30
0
41
1
10
18.288053351566
20
-57.1638160211118
30
0
41
1
10
18.3256367032665
20
-57.1158140750889
30
0
41
1
10
18.3489755392254
20
-57.0915673951641
30
0
41
1
10
18.3911651059655
20
-57.058262819328
30
0
41
1
10
18.4063830199109
20
-57.0477233517338
30
0
41
1
10
18.4390051314299
20
-57.0285404305615
30
0
41
1
10
18.4564305749968
20
-57.0198757671961
30
0
41
1
10
18.4749999999983
20
-57.0125431830433
30
0
0
SPLINE
5
17B
100
AcDbEntity
8
1
62
256
6
ByLayer
370
18
48
1
60
0
100
AcDbSpline
70
4
71
3
72
8
73
4
40
0
40
0
40
0
40
0
40
1
40
1
40
1
40
1
41
1
10
23.2389350101538
20
14.021
30
0
41
1
10
22.8006217736448
20
14.021
30
0
41
1
10
22.3626306026578
20
14.021
30
0
41
1
10
21.925
20
14.021
30
0
0
SPLINE
5
17C
100
AcDbEntity
8
1
62
256
6
ByLayer
370
18
48
1
60
0
100
AcDbSpline
70
4
71
3
72
8
73
4
40
0
40
0
40
0
40
0
40
1
40
1
40
1
40
1
41
1
10
18.075
20
14.021
30
0
41
1
10
17.6373693973422
20
14.021
30
0
41
1
10
17.1993782263553
20
14.021
30
0
41
1
10
16.7610649898462
20
14.021
30
0
0
SPLINE
5
17D
100
AcDbEntity
8
1
62
256
6
ByLayer
370
18
48
1
60
0
100
AcDbSpline
70
4
71
3
72
8
73
4
40
0
40
0
40
0
40
0
40
1
40
1
40
1
40
1
41
1
10
21.925
20
-14.021
30
0
41
1
10
22.3626306026578
20
-14.021
30
0
41
1
10
22.8006217736448
20
-14.021
30
0
41
1
10
23.2389350101538
20
-14.021
30
0
0
SPLINE
5
17E
100
AcDbEntity
8
1
62
256
6
ByLayer
370
18
48
1
60
0
100
AcDbSpline
70
4
71
3
72
8
73
4
40
0
40
0
40
0
40
0
40
1
40
1
40
1
40
1
41
1
10
28.95
20
14.021
30
0
41
1
10
28.7167031746915
20
14.021
30
0
41
1
10
28.4833694215914
20
14.021
30
0
41
1
10
28.25
20
14.021
30
0
0
SPLINE
5
17F
100
AcDbEntity
8
1
62
256
6
ByLayer
370
18
48
1
60
0
100
AcDbSpline
70
4
71
3
72
8
73
4
40
0
40
0
40
0
40
0
40
1
40
1
40
1
40
1
41
1
10
16.7610649898462
20
-14.021
30
0
41
1
10
17.1993782263553
20
-14.021
30
0
41
1
10
17.6373693973422
20
-14.021
30
0
41
1
10
18.075
20
-14.021
30
0
0
SPLINE
5
180
100
AcDbEntity
8
1
62
256
6
ByLayer
370
18
48
1
60
0
100
AcDbSpline
70
4
71
3
72
8
73
4
40
0
40
0
40
0
40
0
40
1
40
1
40
1
40
1
41
1
10
28.25
20
-14.021
30
0
41
1
10
28.4833694215914
20
-14.021
30
0
41
1
10
28.7167031746915
20
-14.021
30
0
41
1
10
28.95
20
-14.021
30
0
0
SPLINE
5
181
100
AcDbEntity
8
1
62
256
6
ByLayer
370
18
48
1
60
0
100
AcDbSpline
70
4
71
3
72
91
73
87
40
0
40
0
40
0
40
0
40
0.0310250985915436
40
0.0310250985915436
40
0.0622823534756871
40
0.0622823534756871
40
0.0700966671967228
40
0.0700966671967228
40
0.0779109809177587
40
0.0779109809177587
40
0.0935396083598304
40
0.0935396083598304
40
0.124796863243974
40
0.156054118128117
40
0.156054118128117
40
0.171682745570188
40
0.171682745570188
40
0.18731137301226
40
0.18731137301226
40
0.218568627896403
40
0.249825882780546
40
0.249825882780546
40
0.28108313766469
40
0.28108313766469
40
0.288897451385726
40
0.288897451385726
40
0.296711765106761
40
0.312340392548833
40
0.312340392548833
40
0.343597647432976
40
0.37485490231712
40
0.37485490231712
40
0.390483529759192
40
0.390483529759192
40
0.398297843480228
40
0.398297843480228
40
0.406112157201263
40
0.406112157201263
40
0.437369412085407
40
0.46862666696955
40
0.46862666696955
40
0.499883921853694
40
0.499883921853694
40
0.50769823557473
40
0.50769823557473
40
0.515512549295765
40
0.531141176737837
40
0.531141176737837
40
0.56239843162198
40
0.593655686506124
40
0.593655686506124
40
0.609284313948196
40
0.609284313948196
40
0.624912941390268
40
0.624912941390268
40
0.656170196274412
40
0.687427451158555
40
0.687427451158555
40
0.703056078600627
40
0.703056078600627
40
0.710870392321664
40
0.710870392321664
40
0.7186847060427
40
0.7186847060427
40
0.749941960926845
40
0.749941960926845
40
0.781199215810989
40
0.812456470695134
40
0.812456470695134
40
0.82027078441617
40
0.82027078441617
40
0.828085098137206
40
0.828085098137206
40
0.843713725579278
40
0.843713725579278
40
0.874970980463422
40
0.906228235347567
40
0.906228235347567
40
0.921856862789639
40
0.921856862789639
40
0.929671176510675
40
0.929671176510675
40
0.937485490231711
40
0.937485490231711
40
0.968742745115856
40
1
40
1
40
1
40
1
41
1
10
1.97750033074452
20
-62.4599999731562
30
0
41
1
10
1.97755937481922
20
-62.4599952033909
30
0
41
1
10
1.98550502214111
20
-62.459354827204
30
0
41
1
10
2.01723356909523
20
-62.4568155057887
30
0
41
1
10
2.04113368025446
20
-62.4549071414886
30
0
41
1
10
2.08123668793544
20
-62.4517434691812
30
0
41
1
10
2.08976987527782
20
-62.4510718258988
30
0
41
1
10
2.10787277880854
20
-62.4496510884902
30
0
41
1
10
2.11744389988114
20
-62.4489018936423
30
0
41
1
10
2.14755053670953
20
-62.4465528203727
30
0
41
1
10
2.16952768541528
20
-62.4448475954219
30
0
41
1
10
2.24106922044339
20
-62.4393403906856
30
0
41
1
10
2.35139088648387
20
-62.4309548721316
30
0
41
1
10
2.4911027941816
20
-62.4207521813646
30
0
41
1
10
2.60704994963042
20
-62.4125197190133
30
0
41
1
10
2.64756284656055
20
-62.4096788402371
30
0
41
1
10
2.73238175516458
20
-62.4038209507283
30
0
41
1
10
2.77679662424656
20
-62.4007968393238
30
0
41
1
10
2.91439735318171
20
-62.391584634365
30
0
41
1
10
3.11006885167792
20
-62.3788870631575
30
0
41
1
10
3.32948137965441
20
-62.3657395506144
30
0
41
1
10
3.56077738580127
20
-62.3525541974247
30
0
41
1
10
3.6823662348777
20
-62.3459422885994
30
0
41
1
10
3.84200647076411
20
-62.3377734615994
30
0
41
1
10
3.87436068981081
20
-62.3361424258316
30
0
41
1
10
3.93962728143826
20
-62.3329039304912
30
0
41
1
10
4.03827622130918
20
-62.32808571698
30
0
41
1
10
4.13914510610304
20
-62.3233980164645
30
0
41
1
10
4.34379468469255
20
-62.3142271991373
30
0
41
1
10
4.62441256007138
20
-62.3025466516722
30
0
41
1
10
4.92036657960814
20
-62.2922781989868
30
0
41
1
10
5.14818783604947
20
-62.2852273064588
30
0
41
1
10
5.22510594966157
20
-62.282985447894
30
0
41
1
10
5.3419793850879
20
-62.2798009753173
30
0
41
1
10
5.38123210971911
20
-62.2787681294999
30
0
41
1
10
5.4598323141412
20
-62.276774697683
30
0
41
1
10
5.49921695161076
20
-62.2758130145302
30
0
41
1
10
5.69655848851066
20
-62.2711821915099
30
0
41
1
10
6.01497498207145
20
-62.2649106618524
30
0
41
1
10
6.33860707915498
20
-62.2610385863028
30
0
41
1
10
6.66485977267895
20
-62.2584275758816
30
0
41
1
10
6.82929617318119
20
-62.2577525027341
30
0
41
1
10
7.03653567446152
20
-62.2577361512373
30
0
41
1
10
7.07804356755476
20
-62.2577744044013
30
0
41
1
10
7.160766408957
20
-62.2579330578541
30
0
41
1
10
7.28458044560246
20
-62.2582941780361
30
0
41
1
10
7.40759308893847
20
-62.2590198952947
30
0
41
1
10
7.6525659983527
20
-62.2609450507846
30
0
41
1
10
7.9763946492882
20
-62.2647745381896
30
0
41
1
10
8.29466852441097
20
-62.2709996566144
30
0
41
1
10
8.53124869664909
20
-62.2765172500436
30
0
41
1
10
8.60976950318216
20
-62.2784983141601
30
0
41
1
10
8.76602339563435
20
-62.2827330248713
30
0
41
1
10
8.84312918453271
20
-62.2849695529378
30
0
41
1
10
9.07144903910513
20
-62.2920049546162
30
0
41
1
10
9.3678979004069
20
-62.3022524715334
30
0
41
1
10
9.64872756155829
20
-62.3139090539682
30
0
41
1
10
9.85344906747521
20
-62.3230584765052
30
0
41
1
10
9.92070437066441
20
-62.3261761064167
30
0
41
1
10
10.0200877657599
20
-62.3309387778831
30
0
41
1
10
10.0529655205268
20
-62.3325407024778
30
0
41
1
10
10.1182158571511
20
-62.335770646462
30
0
41
1
10
10.1506330255586
20
-62.3374009634367
30
0
41
1
10
10.3107899626147
20
-62.3455776343372
30
0
41
1
10
10.4327103893539
20
-62.3521948323028
30
0
41
1
10
10.6645512611159
20
-62.3653883942787
30
0
41
1
10
10.8843875325842
20
-62.3785405254651
30
0
41
1
10
11.0803235245117
20
-62.3912392597301
30
0
41
1
10
11.1951274483345
20
-62.3989155612272
30
0
41
1
10
11.2177045340659
20
-62.4004377805099
30
0
41
1
10
11.2620829243333
20
-62.4034530656477
30
0
41
1
10
11.2838975352744
20
-62.4049470798847
30
0
41
1
10
11.3478165450506
20
-62.40935663233
30
0
41
1
10
11.3885149305018
20
-62.4122076007088
30
0
41
1
10
11.5049764012583
20
-62.420468888701
30
0
41
1
10
11.6452627775163
20
-62.4307048364781
30
0
41
1
10
11.7560416730209
20
-62.4391202971296
30
0
41
1
10
11.8279205897774
20
-62.4446502136466
30
0
41
1
10
11.8500093688005
20
-62.4463632220342
30
0
41
1
10
11.8802873579377
20
-62.448724544251
30
0
41
1
10
11.8899039310325
20
-62.449476949533
30
0
41
1
10
11.9081739081967
20
-62.4509101769431
30
0
41
1
10
11.916815242596
20
-62.4515900544463
30
0
41
1
10
11.9574238043283
20
-62.4547924654474
30
0
41
1
10
12.0060859728541
20
-62.4586769849357
30
0
41
1
10
12.0225079749371
20
-62.4600006427902
30
0
41
1
10
12.0225015576047
20
-62.4600001255471
30
0
0
SPLINE
5
182
100
AcDbEntity
8
1
62
256
6
ByLayer
370
18
48
1
60
0
100
AcDbSpline
70
4
71
3
72
43
73
39
40
0
40
0
40
0
40
0
40
0.0624999999999998
40
0.0624999999999998
40
0.125
40
0.187499999999999
40
0.187499999999999
40
0.218749999999999
40
0.218749999999999
40
0.249999999999999
40
0.249999999999999
40
0.312499999999998
40
0.374999999999997
40
0.374999999999997
40
0.406249999999996
40
0.406249999999996
40
0.437499999999996
40
0.437499999999996
40
0.499999999999996
40
0.499999999999996
40
0.562499999999996
40
0.624999999999997
40
0.624999999999997
40
0.656249999999997
40
0.656249999999997
40
0.687499999999997
40
0.687499999999997
40
0.749999999999998
40
0.812499999999998
40
0.812499999999998
40
0.843749999999998
40
0.843749999999998
40
0.859374999999998
40
0.859374999999998
40
0.874999999999998
40
0.874999999999998
40
0.937499999999999
40
1
40
1
40
1
40
1
41
1
10
4.95
20
-9.02099999999999
30
0
41
1
10
4.95
20
-9.18570505897438
30
0
41
1
10
4.95811705938097
20
-9.34893779434523
30
0
41
1
10
4.98997056589003
20
-9.67257233103169
30
0
41
1
10
5.03744741027297
20
-9.99337525055947
30
0
41
1
10
5.11587746349953
20
-10.308583768299
30
0
41
1
10
5.18653573383354
20
-10.5428611465989
30
0
41
1
10
5.21207026245982
20
-10.6206139379731
30
0
41
1
10
5.2671524274691
20
-10.7753322264801
30
0
41
1
10
5.29648291750031
20
-10.8516902858492
30
0
41
1
10
5.38973117020201
20
-11.0778278584384
30
0
41
1
10
5.52805462669649
20
-11.3715277919979
30
0
41
1
10
5.69382456562037
20
-11.6499468278159
30
0
41
1
10
5.82854531279291
20
-11.8529973427289
30
0
41
1
10
5.87518755288498
20
-11.919718522785
30
0
41
1
10
5.97199845766555
20
-12.0512094453495
30
0
41
1
10
6.02218915881424
20
-12.1160063448618
30
0
41
1
10
6.17804145253864
20
-12.307240683778
30
0
41
1
10
6.28740874112147
20
-12.4286253266827
30
0
41
1
10
6.51675218316485
20
-12.6595841373891
30
0
41
1
10
6.75670687515394
20
-12.8787297510232
30
0
41
1
10
7.01787294487566
20
-13.0743393051925
30
0
41
1
10
7.22193570328936
20
-13.2119900191501
30
0
41
1
10
7.2913560183339
20
-13.2563808335571
30
0
41
1
10
7.43287142721171
20
-13.3419839590728
30
0
41
1
10
7.50441768153
20
-13.3828663910737
30
0
41
1
10
7.72137927141428
20
-13.4998675809948
30
0
41
1
10
8.0168444933429
20
-13.6408402689333
30
0
41
1
10
8.3245008646832
20
-13.752247365591
30
0
41
1
10
8.55988239845193
20
-13.824572662321
30
0
41
1
10
8.63911749378256
20
-13.84680604727
30
0
41
1
10
8.75915349111555
20
-13.8772937339108
30
0
41
1
10
8.7993628101808
20
-13.8869790001535
30
0
41
1
10
8.88018084978076
20
-13.9053837439696
30
0
41
1
10
8.92083479316914
20
-13.9141121202292
30
0
41
1
10
9.12453460048447
20
-13.9551911981167
30
0
41
1
10
9.45224137460282
20
-14.0044047671323
30
0
41
1
10
9.78348113154173
20
-14.021
30
0
41
1
10
9.95
20
-14.021
30
0
0
SPLINE
5
183
100
AcDbEntity
8
1
62
256
6
ByLayer
370
18
48
1
60
0
100
AcDbSpline
70
4
71
3
72
48
73
44
40
0
40
0
40
0
40
0
40
0.0625000000000015
40
0.0625000000000015
40
0.125000000000003
40
0.187500000000005
40
0.187500000000005
40
0.203125000000005
40
0.203125000000005
40
0.218750000000006
40
0.218750000000006
40
0.250000000000007
40
0.250000000000007
40
0.312500000000009
40
0.375000000000011
40
0.375000000000011
40
0.406250000000012
40
0.406250000000012
40
0.421875000000013
40
0.421875000000013
40
0.437500000000013
40
0.437500000000013
40
0.500000000000013
40
0.500000000000013
40
0.562500000000013
40
0.625000000000012
40
0.625000000000012
40
0.640625000000012
40
0.640625000000012
40
0.656250000000012
40
0.687500000000011
40
0.687500000000011
40
0.750000000000009
40
0.812500000000007
40
0.812500000000007
40
0.843750000000006
40
0.843750000000006
40
0.859375000000006
40
0.859375000000006
40
0.875000000000005
40
0.875000000000005
40
0.937500000000002
40
1
40
1
40
1
40
1
41
1
10
9.95
20
14.021
30
0
41
1
10
9.78353076139034
20
14.021
30
0
41
1
10
9.61852063484439
20
14.0127084242845
30
0
41
1
10
9.29131100092853
20
13.9801491573756
30
0
41
1
10
8.96691269817173
20
13.9316096794039
30
0
41
1
10
8.64808961067114
20
13.8513536235443
30
0
41
1
10
8.45060333731779
20
13.7910644725552
30
0
41
1
10
8.41119519518939
20
13.7784989996673
30
0
41
1
10
8.33255887811013
20
13.7523424285675
30
0
41
1
10
8.2933085471749
20
13.7387417014126
30
0
41
1
10
8.17648996609474
20
13.6966299558542
30
0
41
1
10
8.09963850543367
20
13.6667418801966
30
0
41
1
10
7.87209845038892
20
13.5717522743025
30
0
41
1
10
7.57673518948921
20
13.4309246908244
30
0
41
1
10
7.29706258704367
20
13.2623119897723
30
0
41
1
10
7.09323117481593
20
13.125335872875
30
0
41
1
10
7.02627631222994
20
13.077921234841
30
0
41
1
10
6.92734888241104
20
13.0041234914789
30
0
41
1
10
6.89458736903985
20
12.9790491029419
30
0
41
1
10
6.82974756543418
20
12.9281375444583
30
0
41
1
10
6.79771430414426
20
12.9023374026691
30
0
41
1
10
6.63945662974724
20
12.7716352608798
30
0
41
1
10
6.51894339911489
20
12.6616420238324
30
0
41
1
10
6.2897184810051
20
12.4310972047547
30
0
41
1
10
6.07229775386101
20
12.1899917384517
30
0
41
1
10
5.87842288858205
20
11.9277460229221
30
0
41
1
10
5.76481063814011
20
11.7570321715715
30
0
41
1
10
5.74245975892667
20
11.7225335610435
30
0
41
1
10
5.69875598128807
20
11.6532239181084
30
0
41
1
10
5.63460566340616
20
11.5486556071787
30
0
41
1
10
5.57462243708487
20
11.4422946444082
30
0
41
1
10
5.46012264965249
20
11.2272156900993
30
0
41
1
10
5.32200826576603
20
10.9341691528201
30
0
41
1
10
5.21269983817386
20
10.6286520351984
30
0
41
1
10
5.14172625061038
20
10.3947332431406
30
0
41
1
10
5.11990631174213
20
10.3159620898324
30
0
41
1
10
5.08999063488822
20
10.19658153009
30
0
41
1
10
5.0804946862303
20
10.156604885462
30
0
41
1
10
5.06252962290453
20
10.0766106146353
30
0
41
1
10
5.05404913761602
20
10.0365486187412
30
0
41
1
10
5.01414204856734
20
9.83591581514082
30
0
41
1
10
4.96622524830978
20
9.51284142121116
30
0
41
1
10
4.95
20
9.18565041939326
30
0
41
1
10
4.95
20
9.02099999999999
30
0
0
SPLINE
5
184
100
AcDbEntity
8
SK1
62
256
6
ByLayer
370
18
48
1
60
0
100
AcDbSpline
70
4
71
3
72
39
73
35
40
0
40
0
40
0
40
0
40
0.0625000000000037
40
0.125000000000007
40
0.187500000000011
40
0.187500000000011
40
0.218750000000012
40
0.218750000000012
40
0.250000000000013
40
0.250000000000013
40
0.312500000000016
40
0.37500000000002
40
0.437500000000023
40
0.437500000000023
40
0.453125000000025
40
0.453125000000025
40
0.468750000000026
40
0.468750000000026
40
0.500000000000026
40
0.500000000000026
40
0.562500000000022
40
0.625000000000018
40
0.625000000000018
40
0.687500000000014
40
0.687500000000014
40
0.750000000000011
40
0.812500000000007
40
0.875000000000003
40
0.875000000000003
40
0.906250000000001
40
0.906250000000001
40
0.937499999999999
40
0.937499999999999
40
1
40
1
40
1
40
1
41
1
10
-50.8
20
10.11
30
0
41
1
10
-50.8
20
10.1878525848645
30
0
41
1
10
-50.8075561329327
20
10.3421472385298
30
0
41
1
10
-50.840681839672
20
10.5695252548156
30
0
41
1
10
-50.8771312648786
20
10.7184438802574
30
0
41
1
10
-50.9099473223753
20
10.8291241288613
30
0
41
1
10
-50.9218007690325
20
10.8658491680421
30
0
41
1
10
-50.9473729303532
20
10.9389577708818
30
0
41
1
10
-50.9611032195091
20
10.9753537364214
30
0
41
1
10
-51.0046724651593
20
11.0828928749322
30
0
41
1
10
-51.0693489811831
20
11.2226603496286
30
0
41
1
10
-51.1857552224393
20
11.4217186148908
30
0
41
1
10
-51.2764216691557
20
11.5473377405003
30
0
41
1
10
-51.337337683525
20
11.6235620009539
30
0
41
1
10
-51.3497338908747
20
11.6386921926666
30
0
41
1
10
-51.3749587340778
20
11.6687202674562
30
0
41
1
10
-51.3877982316194
20
11.6836295042934
30
0
41
1
10
-51.4267584376158
20
11.7277622278477
30
0
41
1
10
-51.4533825540895
20
11.7564674101041
30
0
41
1
10
-51.5351852601434
20
11.8404628344834
30
0
41
1
10
-51.6493940546012
20
11.9468130974484
30
0
41
1
10
-51.7738803526145
20
12.0419395889159
30
0
41
1
10
-51.9036619963112
20
12.1313153153507
30
0
41
1
10
-51.9712047925946
20
12.173132088649
30
0
41
1
10
-52.1118962277897
20
12.2506732253797
30
0
41
1
10
-52.2555682366798
20
12.3206731882281
30
0
41
1
10
-52.4798435166721
20
12.4035758764869
30
0
41
1
10
-52.6352632543938
20
12.4440137675429
30
0
41
1
10
-52.7541321559251
20
12.4685671138107
30
0
41
1
10
-52.794207303707
20
12.4757972257169
30
0
41
1
10
-52.874845587155
20
12.488221779688
30
0
41
1
10
-52.9152612811356
20
12.4933972057908
30
0
41
1
10
-53.0367966651917
20
12.5058293315417
30
0
41
1
10
-53.1182039231892
20
12.51
30
0
41
1
10
-53.2
20
12.51
30
0
0
SPLINE
5
185
100
AcDbEntity
8
SK1
62
256
6
ByLayer
370
18
48
1
60
0
100
AcDbSpline
70
4
71
3
72
44
73
40
40
0
40
0
40
0
40
0
40
0.0625000000000096
40
0.0625000000000096
40
0.125000000000019
40
0.187500000000029
40
0.187500000000029
40
0.203125000000028
40
0.203125000000028
40
0.218750000000027
40
0.25000000000003
40
0.25000000000003
40
0.312500000000043
40
0.375000000000056
40
0.375000000000056
40
0.390625000000057
40
0.390625000000057
40
0.406250000000057
40
0.406250000000057
40
0.437500000000054
40
0.437500000000054
40
0.500000000000047
40
0.56250000000004
40
0.56250000000004
40
0.593750000000037
40
0.593750000000037
40
0.609375000000036
40
0.609375000000036
40
0.625000000000034
40
0.687500000000029
40
0.750000000000024
40
0.812500000000019
40
0.812500000000019
40
0.843750000000017
40
0.843750000000017
40
0.875000000000014
40
0.875000000000014
40
0.937500000000007
40
1
40
1
40
1
40
1
41
1
10
-53.2
20
-12.51
30
0
41
1
10
-53.1183064559913
20
-12.51
30
0
41
1
10
-53.0373911343459
20
-12.5058405285214
30
0
41
1
10
-52.877053556341
20
-12.4895375760477
30
0
41
1
10
-52.7182094686944
20
-12.4652482961705
30
0
41
1
10
-52.5623183592776
20
-12.4251460326083
30
0
41
1
10
-52.4658262726973
20
-12.3950377737227
30
0
41
1
10
-52.4465461980735
20
-12.3887532553456
30
0
41
1
10
-52.4082503894184
20
-12.3757320195754
30
0
41
1
10
-52.3512075950096
20
-12.3555263089784
30
0
41
1
10
-52.2953478549595
20
-12.3333305315418
30
0
41
1
10
-52.1851661490371
20
-12.2863476006809
30
0
41
1
10
-52.0423501039458
20
-12.2168067220332
30
0
41
1
10
-51.9074974281785
20
-12.1337920443093
30
0
41
1
10
-51.8257088594821
20
-12.0776680187833
30
0
41
1
10
-51.8094761551199
20
-12.0662307183271
30
0
41
1
10
-51.7772620909901
20
-12.0429283558302
30
0
41
1
10
-51.7612823031333
20
-12.0310633486978
30
0
41
1
10
-51.7139754629956
20
-11.9950207105944
30
0
41
1
10
-51.6831925904259
20
-11.9703332576836
30
0
41
1
10
-51.5930463926244
20
-11.8943425380997
30
0
41
1
10
-51.4787130708776
20
-11.7878892414854
30
0
41
1
10
-51.3757276989341
20
-11.6714375812628
30
0
41
1
10
-51.3027324272745
20
-11.5803366773086
30
0
41
1
10
-51.2791092633898
20
-11.5493415435616
30
0
41
1
10
-51.2447478473932
20
-11.5018945164705
30
0
41
1
10
-51.2334683339119
20
-11.4859117664364
30
0
41
1
10
-51.2113785447246
20
-11.4537874424042
30
0
41
1
10
-51.1572585439731
20
-11.3729835298089
30
0
41
1
10
-51.0696125272683
20
-11.2231643840582
30
0
41
1
10
-50.9729206420849
20
-11.0143076431476
30
0
41
1
10
-50.9218562681533
20
-10.8689857814756
30
0
41
1
10
-50.8887103916718
20
-10.7576418117237
30
0
41
1
10
-50.8785538646821
20
-10.7202277859983
30
0
41
1
10
-50.8601297638642
20
-10.6452545077178
30
0
41
1
10
-50.8518419187815
20
-10.6076285222969
30
0
41
1
10
-50.8297238813362
20
-10.4943347547028
30
0
41
1
10
-50.8075422118519
20
-10.3421691320341
30
0
41
1
10
-50.8
20
-10.1877731708925
30
0
41
1
10
-50.8
20
-10.11
30
0
0
SPLINE
5
186
100
AcDbEntity
8
SK1
62
256
6
ByLayer
370
18
48
1
60
0
100
AcDbSpline
70
4
71
3
72
31
73
27
40
0
40
0
40
0
40
0
40
0.0312499999999972
40
0.0312499999999972
40
0.0624999999999945
40
0.0624999999999945
40
0.124999999999993
40
0.124999999999993
40
0.187499999999991
40
0.187499999999991
40
0.24999999999999
40
0.24999999999999
40
0.312499999999988
40
0.312499999999988
40
0.374999999999986
40
0.374999999999986
40
0.499999999999989
40
0.499999999999989
40
0.624999999999992
40
0.624999999999992
40
0.749999999999995
40
0.749999999999995
40
0.812499999999995
40
0.812499999999995
40
0.874999999999996
40
1
40
1
40
1
40
1
41
1
10
-62.4783617161935
20
20.2748043392031
30
0
41
1
10
-62.4788546264454
20
20.2463419587591
30
0
41
1
10
-62.48001214241
20
20.2173557801112
30
0
41
1
10
-62.4836154939063
20
20.1583509381573
30
0
41
1
10
-62.4860745456612
20
20.1282281140048
30
0
41
1
10
-62.4950747165007
20
20.0378201639512
30
0
41
1
10
-62.5032353895034
20
19.9771284140088
30
0
41
1
10
-62.5223989318705
20
19.8550284734819
30
0
41
1
10
-62.5333965289005
20
19.7936201346473
30
0
41
1
10
-62.5570397342861
20
19.6701653762201
30
0
41
1
10
-62.5696873096926
20
19.6081180602213
30
0
41
1
10
-62.59578017061
20
19.4834299188974
30
0
41
1
10
-62.6091174277113
20
19.4213082250607
30
0
41
1
10
-62.6358050631142
20
19.2973418545894
30
0
41
1
10
-62.6491587221797
20
19.2354982173665
30
0
41
1
10
-62.6886703288628
20
19.0502208900126
30
0
41
1
10
-62.7142543237653
20
18.927032829504
30
0
41
1
10
-62.7619335859628
20
18.6807903650571
30
0
41
1
10
-62.7840512088927
20
18.5577428238623
30
0
41
1
10
-62.823473744018
20
18.3114684767689
30
0
41
1
10
-62.8407877815698
20
18.1882444599353
30
0
41
1
10
-62.8622571490131
20
18.0030810561145
30
0
41
1
10
-62.8686642278744
20
17.9412999404832
30
0
41
1
10
-62.8798241457412
20
17.817619850994
30
0
41
1
10
-62.8939910474065
20
17.6329336042086
30
0
41
1
10
-62.9
20
17.4506261682612
30
0
41
1
10
-62.9
20
17.3300315497529
30
0
0
SPLINE
5
187
100
AcDbEntity
8
SK1
62
256
6
ByLayer
370
18
48
1
60
0
100
AcDbSpline
70
4
71
3
72
80
73
76
40
0
40
0
40
0
40
0
40
0.124999999999955
40
0.124999999999955
40
0.187499999999932
40
0.187499999999932
40
0.249999999999908
40
0.249999999999908
40
0.281249999999897
40
0.281249999999897
40
0.312499999999885
40
0.312499999999885
40
0.343749999999873
40
0.343749999999873
40
0.374999999999861
40
0.374999999999861
40
0.406249999999849
40
0.406249999999849
40
0.421874999999844
40
0.421874999999844
40
0.437499999999839
40
0.437499999999839
40
0.453124999999834
40
0.453124999999834
40
0.468749999999828
40
0.468749999999828
40
0.476562499999827
40
0.476562499999827
40
0.480468749999826
40
0.480468749999826
40
0.484374999999826
40
0.484374999999826
40
0.492187499999822
40
0.492187499999822
40
0.496093749999823
40
0.496093749999823
40
0.499999999999825
40
0.499999999999825
40
0.503906249999826
40
0.503906249999826
40
0.507812499999827
40
0.507812499999827
40
0.511718749999828
40
0.511718749999828
40
0.51562499999983
40
0.51562499999983
40
0.519531249999831
40
0.519531249999831
40
0.523437499999832
40
0.523437499999832
40
0.531249999999835
40
0.531249999999835
40
0.539062499999837
40
0.539062499999837
40
0.54687499999984
40
0.54687499999984
40
0.562499999999847
40
0.562499999999847
40
0.578124999999854
40
0.578124999999854
40
0.59374999999986
40
0.59374999999986
40
0.624999999999873
40
0.624999999999873
40
0.656249999999885
40
0.656249999999885
40
0.687499999999897
40
0.687499999999897
40
0.749999999999918
40
0.749999999999918
40
0.812499999999939
40
0.812499999999939
40
0.87499999999996
40
0.87499999999996
40
1
40
1
40
1
40
1
41
1
10
-61.7893320150771
20
20.5876172775483
30
0
41
1
10
-61.7936301853992
20
20.7528533362358
30
0
41
1
10
-61.8014883059138
20
20.9161669143876
30
0
41
1
10
-61.8194820548713
20
21.1577855474942
30
0
41
1
10
-61.8265234757698
20
21.2377615678995
30
0
41
1
10
-61.8430287496921
20
21.3964054222586
30
0
41
1
10
-61.8524862966005
20
21.475076661705
30
0
41
1
10
-61.8689335114041
20
21.5918625696476
30
0
41
1
10
-61.8747998726734
20
21.6306114317224
30
0
41
1
10
-61.8873750465823
20
21.7073987222814
30
0
41
1
10
-61.8940854299602
20
21.7454584989393
30
0
41
1
10
-61.908510833071
20
21.8207847235128
30
0
41
1
10
-61.9162241029038
20
21.8580525532676
30
0
41
1
10
-61.9328984051984
20
21.9316028951024
30
0
41
1
10
-61.9418552588725
20
21.9678887070354
30
0
41
1
10
-61.9614265945864
20
22.039151355549
30
0
41
1
10
-61.9720286555948
20
22.0741380006152
30
0
41
1
10
-61.9897699248377
20
22.1251664188851
30
0
41
1
10
-61.9960041198695
20
22.1419557262824
30
0
41
1
10
-62.0092211151342
20
22.1747389234469
30
0
41
1
10
-62.0162005603013
20
22.1907371791093
30
0
41
1
10
-62.0311726257765
20
22.2216593464073
30
0
41
1
10
-62.0391875638712
20
22.2366365979086
30
0
41
1
10
-62.0565835771408
20
22.2647528352765
30
0
41
1
10
-62.0659226736912
20
22.2778788865105
30
0
41
1
10
-62.0815315030574
20
22.2952414879511
30
0
41
1
10
-62.0870048969807
20
22.3006358189042
30
0
41
1
10
-62.095788967405
20
22.3078928182801
30
0
41
1
10
-62.0988135199818
20
22.3101714763951
30
0
41
1
10
-62.1051011539348
20
22.3143820005064
30
0
41
1
10
-62.1083820269882
20
22.3163226834963
30
0
41
1
10
-62.1185278594129
20
22.3214073164406
30
0
41
1
10
-62.1256670813409
20
22.3238359648985
30
0
41
1
10
-62.1372185999188
20
22.3253210948593
30
0
41
1
10
-62.1412295762358
20
22.3254437591009
30
0
41
1
10
-62.1493436418809
20
22.3248012244737
30
0
41
1
10
-62.1534722749395
20
22.324042636816
30
0
41
1
10
-62.1618920024303
20
22.3215331789664
30
0
41
1
10
-62.1662040738054
20
22.3197602900065
30
0
41
1
10
-62.1746417977787
20
22.3153138875736
30
0
41
1
10
-62.178810021946
20
22.3126330087278
30
0
41
1
10
-62.1870498755594
20
22.30639820311
30
0
41
1
10
-62.1911356852657
20
22.3028217300356
30
0
41
1
10
-62.1989327645878
20
22.2951437240253
30
0
41
1
10
-62.2026842847538
20
22.291016005198
30
0
41
1
10
-62.2099431618959
20
22.2822810816352
30
0
41
1
10
-62.2134658815523
20
22.2776510690738
30
0
41
1
10
-62.2202282200827
20
22.268091165581
30
0
41
1
10
-62.2234518129903
20
22.2631886359656
30
0
41
1
10
-62.2327475841747
20
22.2481893306104
30
0
41
1
10
-62.2384497316055
20
22.2378047097062
30
0
41
1
10
-62.24917378993
20
22.2165063152607
30
0
41
1
10
-62.2541950499189
20
22.2055745532285
30
0
41
1
10
-62.2635640450948
20
22.1837229098743
30
0
41
1
10
-62.2679407439449
20
22.1727432386731
30
0
41
1
10
-62.2803893780148
20
22.1396850029103
30
0
41
1
10
-62.2877915597711
20
22.1174892646868
30
0
41
1
10
-62.3014698731872
20
22.0729007852822
30
0
41
1
10
-62.3077353604999
20
22.050506181868
30
0
41
1
10
-62.3194543437943
20
22.0055749168005
30
0
41
1
10
-62.3248874272093
20
21.9830996874686
30
0
41
1
10
-62.340154303588
20
21.9160174983886
30
0
41
1
10
-62.3490201863533
20
21.8715731095207
30
0
41
1
10
-62.3651139639003
20
21.7830302358517
30
0
41
1
10
-62.3723253923172
20
21.7389352283549
30
0
41
1
10
-62.3855627553723
20
21.6509955614246
30
0
41
1
10
-62.3915834688136
20
21.6071520045835
30
0
41
1
10
-62.4082722747753
20
21.475911349583
30
0
41
1
10
-62.4175881349019
20
21.3887998107127
30
0
41
1
10
-62.4337892719329
20
21.2150900142844
30
0
41
1
10
-62.4406579974637
20
21.1284597251661
30
0
41
1
10
-62.4524994784726
20
20.9560573593564
30
0
41
1
10
-62.4574727032233
20
20.8702243859461
30
0
41
1
10
-62.4700790395463
20
20.6136244407309
30
0
41
1
10
-62.4754360617598
20
20.4437419689557
30
0
41
1
10
-62.4783617161968
20
20.2748043392018
30
0
0
SPLINE
5
188
100
AcDbEntity
8
SK1
62
256
6
ByLayer
370
18
48
1
60
0
100
AcDbSpline
70
4
71
3
72
28
73
24
40
0
40
0
40
0
40
0
40
0.249999999999992
40
0.249999999999992
40
0.374999999999989
40
0.374999999999989
40
0.499999999999986
40
0.499999999999986
40
0.624999999999984
40
0.624999999999984
40
0.687499999999984
40
0.687499999999984
40
0.749999999999985
40
0.749999999999985
40
0.812499999999985
40
0.812499999999985
40
0.843749999999986
40
0.843749999999986
40
0.874999999999987
40
0.874999999999987
40
0.937499999999993
40
0.937499999999993
40
1
40
1
40
1
40
1
41
1
10
-60.7499999999969
20
18.2453419054179
30
0
41
1
10
-60.8608531452584
20
18.4459941934218
30
0
41
1
10
-60.9697335147915
20
18.6425589680045
30
0
41
1
10
-61.1285100498982
20
18.9324531187881
30
0
41
1
10
-61.1806684421092
20
19.028264406043
30
0
41
1
10
-61.2829320141356
20
19.2186308714849
30
0
41
1
10
-61.33304685562
20
19.3131773868143
30
0
41
1
10
-61.4303274150566
20
19.5017088814601
30
0
41
1
10
-61.4775402332213
20
19.5957283541182
30
0
41
1
10
-61.5446266683353
20
19.7369333227396
30
0
41
1
10
-61.5663665720856
20
19.7840529939914
30
0
41
1
10
-61.6082186486419
20
19.8787027221671
30
0
41
1
10
-61.6283334656812
20
19.9262305941653
30
0
41
1
10
-61.6663709578142
20
20.022155244782
30
0
41
1
10
-61.6842970360064
20
20.0705493122084
30
0
41
1
10
-61.7089111376315
20
20.1443075732272
30
0
41
1
10
-61.7167341439593
20
20.1690902675334
30
0
41
1
10
-61.7314768330126
20
20.2191630252889
30
0
41
1
10
-61.7384063269105
20
20.2444936502279
30
0
41
1
10
-61.7575197900492
20
20.3211475654976
30
0
41
1
10
-61.7679874982308
20
20.3729668155098
30
0
41
1
10
-61.7831862816239
20
20.4786477700416
30
0
41
1
10
-61.7878987928391
20
20.5325194158754
30
0
41
1
10
-61.7893320150772
20
20.5876172775483
30
0
0
SPLINE
5
189
100
AcDbEntity
8
SK1
62
256
6
ByLayer
370
18
48
1
60
0
100
AcDbSpline
70
4
71
3
72
8
73
4
40
0
40
0
40
0
40
0
40
1
40
1
40
1
40
1
41
1
10
-60.7500000000024
20
18.2453419054244
30
0
41
1
10
-60.6766912865711
20
18.2696034330769
30
0
41
1
10
-60.601812763104
20
18.2869093516075
30
0
41
1
10
-60.5250936050384
20
18.2960551095261
30
0
0
SPLINE
5
18A
100
AcDbEntity
8
SK1
62
256
6
ByLayer
370
18
48
1
60
0
100
AcDbSpline
70
4
71
3
72
28
73
24
40
0
40
0
40
0
40
0
40
0.249999999999997
40
0.249999999999997
40
0.374999999999999
40
0.374999999999999
40
0.500000000000001
40
0.500000000000001
40
0.625000000000003
40
0.625000000000003
40
0.687500000000003
40
0.687500000000003
40
0.750000000000004
40
0.750000000000004
40
0.812500000000005
40
0.812500000000005
40
0.843750000000003
40
0.843750000000003
40
0.875000000000002
40
0.875000000000002
40
0.937500000000001
40
0.937500000000001
40
1
40
1
40
1
40
1
41
1
10
-60.7499999999969
20
-18.2453419054179
30
0
41
1
10
-60.8608531452584
20
-18.4459941934218
30
0
41
1
10
-60.9697335147915
20
-18.6425589680045
30
0
41
1
10
-61.1285100498982
20
-18.932453118788
30
0
41
1
10
-61.1806684421093
20
-19.028264406043
30
0
41
1
10
-61.2829320141356
20
-19.2186308714849
30
0
41
1
10
-61.33304685562
20
-19.3131773868142
30
0
41
1
10
-61.4303274150567
20
-19.5017088814601
30
0
41
1
10
-61.4775402332213
20
-19.5957283541182
30
0
41
1
10
-61.5446266683354
20
-19.7369333227396
30
0
41
1
10
-61.5663665720856
20
-19.7840529939914
30
0
41
1
10
-61.6082186486419
20
-19.8787027221671
30
0
41
1
10
-61.6283334656812
20
-19.9262305941653
30
0
41
1
10
-61.6663709578142
20
-20.022155244782
30
0
41
1
10
-61.6842970360064
20
-20.0705493122084
30
0
41
1
10
-61.7089111376316
20
-20.1443075732272
30
0
41
1
10
-61.7167341439593
20
-20.1690902675334
30
0
41
1
10
-61.7314768330127
20
-20.2191630252889
30
0
41
1
10
-61.7384063269106
20
-20.2444936502279
30
0
41
1
10
-61.7575197900492
20
-20.3211475654975
30
0
41
1
10
-61.7679874982309
20
-20.3729668155098
30
0
41
1
10
-61.783186281624
20
-20.4786477700416
30
0
41
1
10
-61.7878987928391
20
-20.5325194158754
30
0
41
1
10
-61.7893320150772
20
-20.5876172775483
30
0
0
SPLINE
5
18B
100
AcDbEntity
8
SK1
62
256
6
ByLayer
370
18
48
1
60
0
100
AcDbSpline
70
4
71
3
72
80
73
76
40
0
40
0
40
0
40
0
40
0.124999999999993
40
0.124999999999993
40
0.187499999999989
40
0.187499999999989
40
0.249999999999984
40
0.249999999999984
40
0.281249999999985
40
0.281249999999985
40
0.312499999999985
40
0.312499999999985
40
0.343749999999985
40
0.343749999999985
40
0.374999999999986
40
0.374999999999986
40
0.406249999999986
40
0.406249999999986
40
0.421874999999987
40
0.421874999999987
40
0.437499999999989
40
0.437499999999989
40
0.45312499999999
40
0.45312499999999
40
0.468749999999992
40
0.468749999999992
40
0.476562499999992
40
0.476562499999992
40
0.48046874999999
40
0.48046874999999
40
0.484374999999987
40
0.484374999999987
40
0.492187499999983
40
0.492187499999983
40
0.496093749999983
40
0.496093749999983
40
0.499999999999984
40
0.499999999999984
40
0.503906249999985
40
0.503906249999985
40
0.507812499999986
40
0.507812499999986
40
0.511718749999987
40
0.511718749999987
40
0.515624999999988
40
0.515624999999988
40
0.519531249999989
40
0.519531249999989
40
0.52343749999999
40
0.52343749999999
40
0.531249999999989
40
0.531249999999989
40
0.539062499999988
40
0.539062499999988
40
0.546874999999988
40
0.546874999999988
40
0.562499999999989
40
0.562499999999989
40
0.57812499999999
40
0.57812499999999
40
0.59374999999999
40
0.59374999999999
40
0.624999999999991
40
0.624999999999991
40
0.656249999999992
40
0.656249999999992
40
0.687499999999993
40
0.687499999999993
40
0.749999999999995
40
0.749999999999995
40
0.812499999999996
40
0.812499999999996
40
0.874999999999998
40
0.874999999999998
40
1
40
1
40
1
40
1
41
1
10
-61.7893320150772
20
-20.5876172775483
30
0
41
1
10
-61.7936301853992
20
-20.7528533362361
30
0
41
1
10
-61.8014883059139
20
-20.9161669143882
30
0
41
1
10
-61.8194820548715
20
-21.1577855474953
30
0
41
1
10
-61.82652347577
20
-21.2377615679008
30
0
41
1
10
-61.8430287496923
20
-21.3964054222601
30
0
41
1
10
-61.8524862966007
20
-21.4750766617067
30
0
41
1
10
-61.8689335114044
20
-21.5918625696495
30
0
41
1
10
-61.8747998726737
20
-21.6306114317243
30
0
41
1
10
-61.8873750465827
20
-21.7073987222834
30
0
41
1
10
-61.8940854299607
20
-21.7454584989414
30
0
41
1
10
-61.9085108330715
20
-21.8207847235151
30
0
41
1
10
-61.9162241029043
20
-21.8580525532699
30
0
41
1
10
-61.932898405199
20
-21.9316028951048
30
0
41
1
10
-61.9418552588732
20
-21.9678887070379
30
0
41
1
10
-61.9614265945873
20
-22.0391513555515
30
0
41
1
10
-61.9720286555956
20
-22.0741380006178
30
0
41
1
10
-61.9897699248387
20
-22.1251664188877
30
0
41
1
10
-61.9960041198705
20
-22.141955726285
30
0
41
1
10
-62.0092211151354
20
-22.1747389234495
30
0
41
1
10
-62.0162005603025
20
-22.1907371791119
30
0
41
1
10
-62.0311726257778
20
-22.2216593464098
30
0
41
1
10
-62.0391875638726
20
-22.236636597911
30
0
41
1
10
-62.0565835771424
20
-22.2647528352788
30
0
41
1
10
-62.065922673693
20
-22.2778788865126
30
0
41
1
10
-62.0815315030595
20
-22.295241487953
30
0
41
1
10
-62.0870048969829
20
-22.300635818906
30
0
41
1
10
-62.0957889674074
20
-22.3078928182818
30
0
41
1
10
-62.0988135199842
20
-22.3101714763967
30
0
41
1
10
-62.1051011539374
20
-22.3143820005078
30
0
41
1
10
-62.1083820269909
20
-22.3163226834976
30
0
41
1
10
-62.1185278594158
20
-22.3214073164414
30
0
41
1
10
-62.1256670813437
20
-22.3238359648992
30
0
41
1
10
-62.1372185999219
20
-22.3253210948594
30
0
41
1
10
-62.141229576239
20
-22.3254437591008
30
0
41
1
10
-62.1493436418841
20
-22.3248012244731
30
0
41
1
10
-62.1534722749427
20
-22.3240426368153
30
0
41
1
10
-62.1618920024336
20
-22.3215331789652
30
0
41
1
10
-62.1662040738087
20
-22.3197602900049
30
0
41
1
10
-62.1746417977819
20
-22.3153138875715
30
0
41
1
10
-62.1788100219492
20
-22.3126330087254
30
0
41
1
10
-62.1870498755625
20
-22.3063982031071
30
0
41
1
10
-62.1911356852688
20
-22.3028217300328
30
0
41
1
10
-62.1989327645907
20
-22.2951437240222
30
0
41
1
10
-62.2026842847566
20
-22.2910160051947
30
0
41
1
10
-62.2099431618986
20
-22.2822810816317
30
0
41
1
10
-62.213465881555
20
-22.27765106907
30
0
41
1
10
-62.2202282200852
20
-22.2680911655772
30
0
41
1
10
-62.2234518129927
20
-22.2631886359617
30
0
41
1
10
-62.2327475841769
20
-22.2481893306064
30
0
41
1
10
-62.2384497316076
20
-22.2378047097022
30
0
41
1
10
-62.2491737899319
20
-22.2165063152566
30
0
41
1
10
-62.2541950499208
20
-22.2055745532244
30
0
41
1
10
-62.2635640450964
20
-22.1837229098702
30
0
41
1
10
-62.2679407439464
20
-22.1727432386691
30
0
41
1
10
-62.2803893780161
20
-22.1396850029063
30
0
41
1
10
-62.2877915597722
20
-22.1174892646828
30
0
41
1
10
-62.3014698731883
20
-22.0729007852783
30
0
41
1
10
-62.3077353605009
20
-22.0505061818641
30
0
41
1
10
-62.3194543437953
20
-22.0055749167965
30
0
41
1
10
-62.3248874272102
20
-21.9830996874648
30
0
41
1
10
-62.3401543035888
20
-21.9160174983851
30
0
41
1
10
-62.3490201863539
20
-21.8715731095174
30
0
41
1
10
-62.3651139639008
20
-21.7830302358487
30
0
41
1
10
-62.3723253923176
20
-21.7389352283521
30
0
41
1
10
-62.3855627553727
20
-21.6509955614219
30
0
41
1
10
-62.391583468814
20
-21.6071520045809
30
0
41
1
10
-62.4082722747755
20
-21.4759113495806
30
0
41
1
10
-62.4175881349021
20
-21.3887998107104
30
0
41
1
10
-62.433789271933
20
-21.2150900142821
30
0
41
1
10
-62.4406579974638
20
-21.128459725164
30
0
41
1
10
-62.4524994784727
20
-20.9560573593547
30
0
41
1
10
-62.4574727032233
20
-20.8702243859447
30
0
41
1
10
-62.4700790395462
20
-20.6136244407301
30
0
41
1
10
-62.4754360617598
20
-20.4437419689553
30
0
41
1
10
-62.4783617161968
20
-20.2748043392019
30
0
0
SPLINE
5
18C
100
AcDbEntity
8
SK1
62
256
6
ByLayer
370
18
48
1
60
0
100
AcDbSpline
70
4
71
3
72
31
73
27
40
0
40
0
40
0
40
0
40
0.0312499999999977
40
0.0312499999999977
40
0.0624999999999954
40
0.0624999999999954
40
0.124999999999995
40
0.124999999999995
40
0.187499999999994
40
0.187499999999994
40
0.249999999999993
40
0.249999999999993
40
0.312499999999992
40
0.312499999999992
40
0.374999999999992
40
0.374999999999992
40
0.499999999999993
40
0.499999999999993
40
0.624999999999994
40
0.624999999999994
40
0.749999999999996
40
0.749999999999996
40
0.812499999999997
40
0.812499999999997
40
0.874999999999999
40
1
40
1
40
1
40
1
41
1
10
-62.4783617161935
20
-20.2748043392031
30
0
41
1
10
-62.4788546264454
20
-20.2463419587591
30
0
41
1
10
-62.4800121424099
20
-20.2173557801112
30
0
41
1
10
-62.4836154939062
20
-20.1583509381573
30
0
41
1
10
-62.4860745456612
20
-20.1282281140048
30
0
41
1
10
-62.4950747165007
20
-20.0378201639512
30
0
41
1
10
-62.5032353895033
20
-19.9771284140089
30
0
41
1
10
-62.5223989318704
20
-19.8550284734819
30
0
41
1
10
-62.5333965289005
20
-19.7936201346473
30
0
41
1
10
-62.557039734286
20
-19.6701653762201
30
0
41
1
10
-62.5696873096925
20
-19.6081180602213
30
0
41
1
10
-62.59578017061
20
-19.4834299188974
30
0
41
1
10
-62.6091174277113
20
-19.4213082250607
30
0
41
1
10
-62.6358050631142
20
-19.2973418545894
30
0
41
1
10
-62.6491587221797
20
-19.2354982173665
30
0
41
1
10
-62.6886703288628
20
-19.0502208900126
30
0
41
1
10
-62.7142543237653
20
-18.927032829504
30
0
41
1
10
-62.7619335859628
20
-18.6807903650571
30
0
41
1
10
-62.7840512088927
20
-18.5577428238623
30
0
41
1
10
-62.823473744018
20
-18.3114684767689
30
0
41
1
10
-62.8407877815698
20
-18.1882444599353
30
0
41
1
10
-62.8622571490131
20
-18.0030810561145
30
0
41
1
10
-62.8686642278744
20
-17.9412999404832
30
0
41
1
10
-62.8798241457412
20
-17.817619850994
30
0
41
1
10
-62.8939910474065
20
-17.6329336042086
30
0
41
1
10
-62.9
20
-17.4506261682612
30
0
41
1
10
-62.9
20
-17.3300315497529
30
0
0
SPLINE
5
18D
100
AcDbEntity
8
SK1
62
256
6
ByLayer
370
18
48
1
60
0
100
AcDbSpline
70
4
71
3
72
8
73
4
40
0
40
0
40
0
40
0
40
1
40
1
40
1
40
1
41
1
10
-60.5250936050385
20
-18.2960551095261
30
0
41
1
10
-60.6018127631041
20
-18.2869093516074
30
0
41
1
10
-60.6766912865712
20
-18.2696034330769
30
0
41
1
10
-60.7500000000024
20
-18.2453419054244
30
0
0
SPLINE
5
18E
100
AcDbEntity
8
SK1
62
256
6
ByLayer
370
18
48
1
60
0
100
AcDbSpline
70
4
71
3
72
56
73
52
40
0
40
0
40
0
40
0
40
0.0078125000000003
40
0.0078125000000003
40
0.0117187500000001
40
0.0117187500000001
40
0.0156249999999999
40
0.0156249999999999
40
0.0234374999999995
40
0.0234374999999995
40
0.0312499999999992
40
0.0312499999999992
40
0.0390624999999988
40
0.0390624999999988
40
0.0468749999999984
40
0.0468749999999984
40
0.0624999999999977
40
0.0624999999999977
40
0.0703124999999971
40
0.0703124999999971
40
0.0781249999999964
40
0.0781249999999964
40
0.093749999999996
40
0.093749999999996
40
0.124999999999997
40
0.124999999999997
40
0.156249999999997
40
0.156249999999997
40
0.187499999999998
40
0.187499999999998
40
0.218749999999998
40
0.218749999999998
40
0.249999999999999
40
0.249999999999999
40
0.281249999999999
40
0.281249999999999
40
0.3125
40
0.3125
40
0.374999999999999
40
0.374999999999999
40
0.437499999999999
40
0.437499999999999
40
0.499999999999998
40
0.499999999999998
40
0.624999999999998
40
0.624999999999998
40
0.749999999999999
40
0.749999999999999
40
0.874999999999999
40
0.874999999999999
40
1
40
1
40
1
40
1
41
1
10
-48.1331915495804
20
21.0594641384685
30
0
41
1
10
-48.1382682077704
20
21.0289271107356
30
0
41
1
10
-48.1482482455825
20
20.9997955107462
30
0
41
1
10
-48.16878084324
20
20.9576924852025
30
0
41
1
10
-48.1765934578859
20
20.9438766331926
30
0
41
1
10
-48.1937312864108
20
20.9169447124318
30
0
41
1
10
-48.2029730316526
20
20.9039424359538
30
0
41
1
10
-48.2323432508123
20
20.8660692583113
30
0
41
1
10
-48.2540978655964
20
20.8423190237234
30
0
41
1
10
-48.3006950924517
20
20.796946696751
30
0
41
1
10
-48.3256588725386
20
20.7752572834195
30
0
41
1
10
-48.3769949349455
20
20.7342151690249
30
0
41
1
10
-48.4034600179963
20
20.7147649260795
30
0
41
1
10
-48.4575694963076
20
20.677448829319
30
0
41
1
10
-48.4852171270383
20
20.6595873221257
30
0
41
1
10
-48.5695448384522
20
20.6078633117244
30
0
41
1
10
-48.6275896485857
20
20.5758343306801
30
0
41
1
10
-48.7164846301619
20
20.530246557855
30
0
41
1
10
-48.7464275047001
20
20.5154687648623
30
0
41
1
10
-48.8068404842286
20
20.4866215522011
30
0
41
1
10
-48.8373303541305
20
20.4725446312714
30
0
41
1
10
-48.9290682229516
20
20.4314103083522
30
0
41
1
10
-48.9907176539474
20
20.4053718062654
30
0
41
1
10
-49.1767637612453
20
20.3303526275856
30
0
41
1
10
-49.3022396776805
20
20.2844158972512
30
0
41
1
10
-49.5550164257936
20
20.1976898892987
30
0
41
1
10
-49.6823332512396
20
20.1569457160366
30
0
41
1
10
-49.9382767477733
20
20.0791522758529
30
0
41
1
10
-50.0669088543893
20
20.042118337758
30
0
41
1
10
-50.3251699141881
20
19.9708626825424
30
0
41
1
10
-50.4548011548889
20
19.9366474164825
30
0
41
1
10
-50.7148548560739
20
19.8704492211087
30
0
41
1
10
-50.8452784261191
20
19.8384694208789
30
0
41
1
10
-51.1067735035932
20
19.7763380903547
30
0
41
1
10
-51.2378933838984
20
19.746177759801
30
0
41
1
10
-51.5003868855217
20
19.6874548273651
30
0
41
1
10
-51.6317654102766
20
19.6588911926362
30
0
41
1
10
-52.0262366204466
20
19.5752325003975
30
0
41
1
10
-52.2896620872677
20
19.5221523763579
30
0
41
1
10
-52.8171842923992
20
19.4200569428808
30
0
41
1
10
-53.081282596067
20
19.3710511086681
30
0
41
1
10
-53.6100125987956
20
19.2762696841298
30
0
41
1
10
-53.8746450519831
20
19.2304986585867
30
0
41
1
10
-54.6691987042391
20
19.0971605179512
30
0
41
1
10
-55.1997688360397
20
19.0135237886049
30
0
41
1
10
-56.2621525258847
20
18.8537831623894
30
0
41
1
10
-56.7939708254099
20
18.7777079660057
30
0
41
1
10
-57.8585661535462
20
18.6313671290626
30
0
41
1
10
-58.3913452017009
20
18.561113712918
30
0
41
1
10
-59.4576736583939
20
18.4252762402503
30
0
41
1
10
-59.9912240551396
20
18.3596981653996
30
0
41
1
10
-60.5250936050379
20
18.2960551095241
30
0
0
SPLINE
5
18F
100
AcDbEntity
8
SK1
62
256
6
ByLayer
370
18
48
1
60
0
100
AcDbSpline
70
4
71
3
72
28
73
24
40
0
40
0
40
0
40
0
40
0.124999999999988
40
0.124999999999988
40
0.249999999999977
40
0.249999999999977
40
0.312499999999973
40
0.343749999999973
40
0.343749999999973
40
0.374999999999974
40
0.374999999999974
40
0.499999999999977
40
0.499999999999977
40
0.62499999999998
40
0.62499999999998
40
0.749999999999983
40
0.749999999999983
40
0.781249999999986
40
0.781249999999986
40
0.812499999999989
40
0.874999999999993
40
0.874999999999993
40
1
40
1
40
1
40
1
41
1
10
-46.2
20
23.4273752028449
30
0
41
1
10
-46.311318474844
20
23.3514004833186
30
0
41
1
10
-46.4207893249174
20
23.2734708388239
30
0
41
1
10
-46.6353724122347
20
23.1129998120062
30
0
41
1
10
-46.7404876769329
20
23.0304616329557
30
0
41
1
10
-46.8942308561049
20
22.9024964294384
30
0
41
1
10
-46.9701170172623
20
22.837471170821
30
0
41
1
10
-47.0443663476354
20
22.7707140230125
30
0
41
1
10
-47.0934815497274
20
22.7258025852312
30
0
41
1
10
-47.1178591926745
20
22.7031317627921
30
0
41
1
10
-47.2384066857238
20
22.5890164026371
30
0
41
1
10
-47.3307919556462
20
22.495106832557
30
0
41
1
10
-47.505808506831
20
22.3009884883892
30
0
41
1
10
-47.5884495633779
20
22.2007860272586
30
0
41
1
10
-47.7417085743839
20
21.9926164893622
30
0
41
1
10
-47.8123449994308
20
21.8846613410501
30
0
41
1
10
-47.8910619665503
20
21.7435314921807
30
0
41
1
10
-47.9062797468735
20
21.7150678579229
30
0
41
1
10
-47.9354981834678
20
21.65787834294
30
0
41
1
10
-47.9775572339134
20
21.5715977087168
30
0
41
1
10
-48.014125091776
20
21.4837759622561
30
0
41
1
10
-48.0793845558171
20
21.3059219863345
30
0
41
1
10
-48.1124191749499
20
21.1844137719537
30
0
41
1
10
-48.1331915495804
20
21.0594641384685
30
0
0
SPLINE
5
190
100
AcDbEntity
8
SK1
62
256
6
ByLayer
370
18
48
1
60
0
100
AcDbSpline
70
4
71
3
72
51
73
47
40
0
40
0
40
0
40
0
40
0.0156250000000033
40
0.0156250000000033
40
0.0234375000000074
40
0.0234375000000074
40
0.0312500000000114
40
0.0390625000000155
40
0.0390625000000155
40
0.0468750000000195
40
0.0468750000000195
40
0.0546875000000236
40
0.0546875000000236
40
0.0625000000000276
40
0.0625000000000276
40
0.0781250000000304
40
0.0781250000000304
40
0.0937500000000331
40
0.0937500000000331
40
0.109375000000036
40
0.109375000000036
40
0.125000000000039
40
0.125000000000039
40
0.140625000000041
40
0.140625000000041
40
0.156250000000044
40
0.156250000000044
40
0.187500000000046
40
0.187500000000046
40
0.250000000000045
40
0.250000000000045
40
0.281250000000043
40
0.281250000000043
40
0.312500000000041
40
0.312500000000041
40
0.375000000000036
40
0.375000000000036
40
0.500000000000029
40
0.500000000000029
40
0.625000000000022
40
0.625000000000022
40
0.750000000000015
40
0.750000000000015
40
0.875000000000007
40
0.875000000000007
40
1
40
1
40
1
40
1
41
1
10
-46.2
20
23.4273752028448
30
0
41
1
10
-46.1872007997324
20
23.4361106409817
30
0
41
1
10
-46.1737610216598
20
23.4439167226458
30
0
41
1
10
-46.1522874180136
20
23.4537218449185
30
0
41
1
10
-46.1448554369685
20
23.45668641571
30
0
41
1
10
-46.129762090864
20
23.461748531396
30
0
41
1
10
-46.1144648467134
20
23.4659483598828
30
0
41
1
10
-46.09872710967
20
23.4682856398862
30
0
41
1
10
-46.0827494614845
20
23.4696085769568
30
0
41
1
10
-46.0745998141255
20
23.4697511003829
30
0
41
1
10
-46.058653698347
20
23.4689907349082
30
0
41
1
10
-46.0507862094605
20
23.468099467408
30
0
41
1
10
-46.0352476508158
20
23.4653658098478
30
0
41
1
10
-46.0275377663565
20
23.463511131427
30
0
41
1
10
-46.0049521270472
20
23.4566938972038
30
0
41
1
10
-45.9908943112773
20
23.4506089917967
30
0
41
1
10
-45.9642030012118
20
23.4362412478592
30
0
41
1
10
-45.951526899423
20
23.4278968332045
30
0
41
1
10
-45.9279177464434
20
23.4100563787732
30
0
41
1
10
-45.9168792631733
20
23.4005079315262
30
0
41
1
10
-45.8959150349021
20
23.3804959963295
30
0
41
1
10
-45.8859931476925
20
23.3700293609473
30
0
41
1
10
-45.8670155477291
20
23.3483814982763
30
0
41
1
10
-45.8579862741839
20
23.3372230077802
30
0
41
1
10
-45.8408260091435
20
23.3146183135505
30
0
41
1
10
-45.8326630318606
20
23.303133846315
30
0
41
1
10
-45.8091703149359
20
23.2682429197011
30
0
41
1
10
-45.7948238013271
20
23.2444044801107
30
0
41
1
10
-45.7545210954989
20
23.1716705889095
30
0
41
1
10
-45.7312514070195
20
23.1215780037087
30
0
41
1
10
-45.6995562491248
20
23.0449638030736
30
0
41
1
10
-45.6895418637191
20
23.0191497146798
30
0
41
1
10
-45.6705412393405
20
22.967406094606
30
0
41
1
10
-45.6615383313391
20
22.9414360831614
30
0
41
1
10
-45.6357686842072
20
22.8632732868592
30
0
41
1
10
-45.6202282390508
20
22.8108298602229
30
0
41
1
10
-45.5772498566053
20
22.6527051189374
30
0
41
1
10
-45.5533955612265
20
22.5462391575069
30
0
41
1
10
-45.5119875715045
20
22.3317483732413
30
0
41
1
10
-45.4944928120426
20
22.2237137818491
30
0
41
1
10
-45.464385094978
20
22.0063150245844
30
0
41
1
10
-45.4517899305147
20
21.8969479188038
30
0
41
1
10
-45.4307001302223
20
21.6770078381586
30
0
41
1
10
-45.4222107025115
20
21.5663774556465
30
0
41
1
10
-45.4089292733915
20
21.344521531091
30
0
41
1
10
-45.4041327860154
20
21.2332389228451
30
0
41
1
10
-45.4010590643828
20
21.1216082390365
30
0
0
SPLINE
5
191
100
AcDbEntity
8
SK1
62
256
6
ByLayer
370
18
48
1
60
0
100
AcDbSpline
70
4
71
3
72
35
73
31
40
0
40
0
40
0
40
0
40
0.0312500000000005
40
0.0312500000000005
40
0.0625000000000011
40
0.0625000000000011
40
0.125000000000001
40
0.125000000000001
40
0.15625
40
0.15625
40
0.1875
40
0.1875
40
0.25
40
0.25
40
0.312499999999999
40
0.312499999999999
40
0.374999999999999
40
0.374999999999999
40
0.499999999999999
40
0.499999999999999
40
0.624999999999999
40
0.624999999999999
40
0.6875
40
0.71875
40
0.71875
40
0.75
40
0.75
40
0.875
40
0.875
40
1
40
1
40
1
40
1
41
1
10
-45.4010590643849
20
21.1216082390361
30
0
41
1
10
-45.3994819852625
20
21.0643322583557
30
0
41
1
10
-45.3949245711612
20
21.0074832957105
30
0
41
1
10
-45.3804716252901
20
20.8945422048329
30
0
41
1
10
-45.3705842069802
20
20.8384487535335
30
0
41
1
10
-45.334283635802
20
20.6710847439302
30
0
41
1
10
-45.3012980367454
20
20.5607202209547
30
0
41
1
10
-45.2440965660724
20
20.3961079145809
30
0
41
1
10
-45.2237183070566
20
20.341366158707
30
0
41
1
10
-45.1812537297456
20
20.2324951432997
30
0
41
1
10
-45.1591474290756
20
20.1783066586548
30
0
41
1
10
-45.0910347346077
20
20.0162024962744
30
0
41
1
10
-45.0432786221598
20
19.9087333722031
30
0
41
1
10
-44.9460603460709
20
19.6939803855598
30
0
41
1
10
-44.8965742606525
20
19.5867045241538
30
0
41
1
10
-44.7976951980896
20
19.3717203407879
30
0
41
1
10
-44.7482896235752
20
19.2640162497307
30
0
41
1
10
-44.6020355817083
20
18.9396205557181
30
0
41
1
10
-44.5072158767482
20
18.7216243498178
30
0
41
1
10
-44.3294991442257
20
18.2798237567674
30
0
41
1
10
-44.2465284549793
20
18.0560445416861
30
0
41
1
10
-44.1346416057354
20
17.7146677925558
30
0
41
1
10
-44.0818321056268
20
17.5425547540162
30
0
41
1
10
-44.0344102424159
20
17.3680434124349
30
0
41
1
10
-44.0040730463177
20
17.2511387675334
30
0
41
1
10
-43.989563987595
20
17.1924811353673
30
0
41
1
10
-43.9206325497595
20
16.8987378678707
30
0
41
1
10
-43.8768710638516
20
16.6617136924165
30
0
41
1
10
-43.8165814834242
20
16.1830630957261
30
0
41
1
10
-43.8
20
15.9414428402137
30
0
41
1
10
-43.8
20
15.6971604709519
30
0
0
SPLINE
5
192
100
AcDbEntity
8
SK1
62
256
6
ByLayer
370
18
48
1
60
0
100
AcDbSpline
70
4
71
3
72
45
73
41
40
0
40
0
40
0
40
0
40
0.031250000000003
40
0.031250000000003
40
0.0468750000000032
40
0.0468750000000032
40
0.0625000000000033
40
0.125000000000005
40
0.125000000000005
40
0.25000000000001
40
0.25000000000001
40
0.375000000000014
40
0.375000000000014
40
0.437500000000018
40
0.437500000000018
40
0.468750000000019
40
0.468750000000019
40
0.500000000000019
40
0.500000000000019
40
0.625000000000018
40
0.625000000000018
40
0.687500000000016
40
0.687500000000016
40
0.750000000000015
40
0.750000000000015
40
0.812500000000013
40
0.812500000000013
40
0.843750000000011
40
0.843750000000011
40
0.87500000000001
40
0.87500000000001
40
0.937500000000004
40
0.937500000000004
40
0.968750000000003
40
0.968750000000003
40
0.984375000000002
40
0.984375000000002
40
0.992187500000001
40
0.992187500000001
40
1
40
1
40
1
40
1
41
1
10
-43.8
20
-15.6971604709388
30
0
41
1
10
-43.7999999999998
20
-15.7582198262686
30
0
41
1
10
-43.8010426630446
20
-15.8193258033593
30
0
41
1
10
-43.8041184142794
20
-15.9110494007444
30
0
41
1
10
-43.8053965892213
20
-15.9416442172835
30
0
41
1
10
-43.8084372675889
20
-16.0026558740543
30
0
41
1
10
-43.8172545092689
20
-16.15486182361
30
0
41
1
10
-43.8319510569163
20
-16.3054970953142
30
0
41
1
10
-43.8773002804588
20
-16.664283204109
30
0
41
1
10
-43.9209364450104
20
-16.8998304406551
30
0
41
1
10
-44.0299532834715
20
-17.3647966096693
30
0
41
1
10
-44.095372176551
20
-17.594207342421
30
0
41
1
10
-44.2065771726486
20
-17.9344569936342
30
0
41
1
10
-44.2458268530659
20
-18.0472285428928
30
0
41
1
10
-44.307544571434
20
-18.2155130357352
30
0
41
1
10
-44.3285995588081
20
-18.2714848715565
30
0
41
1
10
-44.3715143187151
20
-18.3829871813524
30
0
41
1
10
-44.3933781648388
20
-18.4385299050664
30
0
41
1
10
-44.5045224118144
20
-18.7152843134164
30
0
41
1
10
-44.5993749296844
20
-18.9335843629651
30
0
41
1
10
-44.7456755707707
20
-19.2582829169689
30
0
41
1
10
-44.7950971449125
20
-19.3660625945926
30
0
41
1
10
-44.8940287145076
20
-19.5811785399505
30
0
41
1
10
-44.9435512229207
20
-19.6885102325378
30
0
41
1
10
-45.0408950370834
20
-19.9033992092147
30
0
41
1
10
-45.0887405189182
20
-20.0109476900389
30
0
41
1
10
-45.1570600684447
20
-20.1732433608574
30
0
41
1
10
-45.1792506523876
20
-20.2275193056253
30
0
41
1
10
-45.2218143874927
20
-20.3363392620161
30
0
41
1
10
-45.2421992952902
20
-20.3909084531529
30
0
41
1
10
-45.2995986935363
20
-20.55534485541
30
0
41
1
10
-45.3329245454655
20
-20.6659258634344
30
0
41
1
10
-45.3698533446864
20
-20.8345567936627
30
0
41
1
10
-45.3799646676803
20
-20.8912319556304
30
0
41
1
10
-45.3910776608516
20
-20.9771174156999
30
0
41
1
10
-45.3941068239944
20
-21.0058912203766
30
0
41
1
10
-45.3975561946978
20
-21.049288609776
30
0
41
1
10
-45.3985237842836
20
-21.0638052867994
30
0
41
1
10
-45.400075770016
20
-21.0927461644561
30
0
41
1
10
-45.4006620703666
20
-21.1071903057298
30
0
41
1
10
-45.4010590643829
20
-21.1216082390362
30
0
0
SPLINE
5
193
100
AcDbEntity
8
SK1
62
256
6
ByLayer
370
18
48
1
60
0
100
AcDbSpline
70
4
71
3
72
49
73
45
40
0
40
0
40
0
40
0
40
0.125
40
0.125
40
0.25
40
0.25
40
0.375
40
0.375
40
0.5
40
0.5
40
0.625000000000001
40
0.625000000000001
40
0.6875
40
0.6875
40
0.749999999999999
40
0.749999999999999
40
0.781250000000001
40
0.781250000000001
40
0.812500000000003
40
0.812500000000003
40
0.843750000000006
40
0.843750000000006
40
0.875000000000008
40
0.875000000000008
40
0.89062500000001
40
0.89062500000001
40
0.906250000000013
40
0.906250000000013
40
0.921875000000015
40
0.921875000000015
40
0.929687500000014
40
0.929687500000014
40
0.937500000000012
40
0.945312500000011
40
0.945312500000011
40
0.953125000000009
40
0.953125000000009
40
0.960937500000008
40
0.960937500000008
40
0.968750000000006
40
0.968750000000006
40
0.984375000000003
40
0.984375000000003
40
1
40
1
40
1
40
1
41
1
10
-45.4010590643849
20
-21.1216082390363
30
0
41
1
10
-45.4041292756877
20
-21.2331114355261
30
0
41
1
10
-45.4089140503497
20
-21.3441004267153
30
0
41
1
10
-45.4221198294781
20
-21.5650249739796
30
0
41
1
10
-45.4305380731936
20
-21.6749609271474
30
0
41
1
10
-45.4514470135767
20
-21.8937200826098
30
0
41
1
10
-45.4639310021553
20
-22.0025442655816
30
0
41
1
10
-45.4937699263046
20
-22.2189669373562
30
0
41
1
10
-45.5111072913452
20
-22.326568009881
30
0
41
1
10
-45.5521410197312
20
-22.5403298661079
30
0
41
1
10
-45.575779376554
20
-22.6464992053287
30
0
41
1
10
-45.6183628170849
20
-22.8043292323492
30
0
41
1
10
-45.6337596063785
20
-22.8566997524205
30
0
41
1
10
-45.6677960205492
20
-22.9608387976476
30
0
41
1
10
-45.6864121890563
20
-23.0126107924106
30
0
41
1
10
-45.7179420685907
20
-23.08964453876
30
0
41
1
10
-45.7290599120055
20
-23.1152173871762
30
0
41
1
10
-45.7528843551898
20
-23.16609792357
30
0
41
1
10
-45.7655392486228
20
-23.1912952031762
30
0
41
1
10
-45.7926942790071
20
-23.2407810047868
30
0
41
1
10
-45.8072291660892
20
-23.2651502664135
30
0
41
1
10
-45.8388572026904
20
-23.3125205667175
30
0
41
1
10
-45.8558592178364
20
-23.3354287979462
30
0
41
1
10
-45.8841276399212
20
-23.3679991868004
30
0
41
1
10
-45.8940170512958
20
-23.378553681305
30
0
41
1
10
-45.9150388917033
20
-23.3988603935435
30
0
41
1
10
-45.9262368146569
20
-23.4086658540908
30
0
41
1
10
-45.9499675948463
20
-23.4268234722823
30
0
41
1
10
-45.9624889520686
20
-23.4351885680569
30
0
41
1
10
-45.9826584661996
20
-23.4462296682361
30
0
41
1
10
-45.9896158927122
20
-23.4496509125457
30
0
41
1
10
-46.0037926713847
20
-23.4557585627187
30
0
41
1
10
-46.0182935978794
20
-23.4611676975979
30
0
41
1
10
-46.033533030285
20
-23.4649862819448
30
0
41
1
10
-46.0492004145384
20
-23.4678835207988
30
0
41
1
10
-46.0572757821963
20
-23.4688622311752
30
0
41
1
10
-46.0733085109208
20
-23.4697426750584
30
0
41
1
10
-46.0813337859622
20
-23.4696611716344
30
0
41
1
10
-46.0974022432806
20
-23.4684498044284
30
0
41
1
10
-46.1055085572271
20
-23.4673039394213
30
0
41
1
10
-46.1292669093628
20
-23.4624189862602
30
0
41
1
10
-46.1444349429565
20
-23.457268878667
30
0
41
1
10
-46.1735082470471
20
-23.4440694149142
30
0
41
1
10
-46.1870943420722
20
-23.4361832982011
30
0
41
1
10
-46.2000000000002
20
-23.4273752028445
30
0
0
SPLINE
5
194
100
AcDbEntity
8
SK1
62
256
6
ByLayer
370
18
48
1
60
0
100
AcDbSpline
70
4
71
3
72
30
73
26
40
0
40
0
40
0
40
0
40
0.0312500000000005
40
0.0312500000000005
40
0.0625000000000011
40
0.0625000000000011
40
0.125000000000001
40
0.125000000000001
40
0.249999999999997
40
0.249999999999997
40
0.312499999999997
40
0.312499999999997
40
0.374999999999996
40
0.374999999999996
40
0.499999999999998
40
0.499999999999998
40
0.624999999999999
40
0.624999999999999
40
0.75
40
0.75
40
0.812499999999999
40
0.812499999999999
40
0.874999999999998
40
0.874999999999998
40
1
40
1
40
1
40
1
41
1
10
-48.1331915495803
20
-21.0594641384685
30
0
41
1
10
-48.1280467998026
20
-21.0904107495577
30
0
41
1
10
-48.1221175994941
20
-21.1213247367108
30
0
41
1
10
-48.1087002603107
20
-21.1830878774678
30
0
41
1
10
-48.1011972709778
20
-21.2139914395885
30
0
41
1
10
-48.076466301077
20
-21.3062324892466
30
0
41
1
10
-48.0571516885857
20
-21.366656563123
30
0
41
1
10
-47.991543208948
20
-21.5450281881157
30
0
41
1
10
-47.9376154955644
20
-21.6600867969635
30
0
41
1
10
-47.8440176272308
20
-21.827866156202
30
0
41
1
10
-47.8106921769941
20
-21.8829879879161
30
0
41
1
10
-47.7401329982176
20
-21.9917526078798
30
0
41
1
10
-47.702809588515
20
-22.0455022893657
30
0
41
1
10
-47.5867681315093
20
-22.2029683117837
30
0
41
1
10
-47.5036890725528
20
-22.30348086459
30
0
41
1
10
-47.328526085997
20
-22.49747479135
30
0
41
1
10
-47.2364293238732
20
-22.5909461438542
30
0
41
1
10
-47.0448875116056
20
-22.7721511607987
30
0
41
1
10
-46.9454355651092
20
-22.859879440431
30
0
41
1
10
-46.791651482261
20
-22.9878752769765
30
0
41
1
10
-46.739619478618
20
-23.0299388228264
30
0
41
1
10
-46.6341368471807
20
-23.1129582248389
30
0
41
1
10
-46.5808625327714
20
-23.1537749004944
30
0
41
1
10
-46.4197749105662
20
-23.2742069010478
30
0
41
1
10
-46.3106195285793
20
-23.35187751327
30
0
41
1
10
-46.2000000000012
20
-23.4273752028461
30
0
0
SPLINE
5
195
100
AcDbEntity
8
SK1
62
256
6
ByLayer
370
18
48
1
60
0
100
AcDbSpline
70
4
71
3
72
54
73
50
40
0
40
0
40
0
40
0
40
0.125
40
0.125
40
0.249999999999999
40
0.249999999999999
40
0.374999999999999
40
0.374999999999999
40
0.499999999999998
40
0.499999999999998
40
0.562499999999998
40
0.562499999999998
40
0.624999999999998
40
0.624999999999998
40
0.687499999999997
40
0.687499999999997
40
0.749999999999997
40
0.749999999999997
40
0.781249999999996
40
0.781249999999996
40
0.812499999999995
40
0.812499999999995
40
0.843749999999994
40
0.843749999999994
40
0.874999999999993
40
0.874999999999993
40
0.906249999999992
40
0.906249999999992
40
0.921874999999992
40
0.921874999999992
40
0.937499999999993
40
0.937499999999993
40
0.953124999999993
40
0.953124999999993
40
0.960937499999994
40
0.960937499999994
40
0.968749999999995
40
0.968749999999995
40
0.976562499999996
40
0.976562499999996
40
0.984374999999996
40
0.984374999999996
40
0.988281249999997
40
0.988281249999997
40
0.990234374999998
40
0.990234374999998
40
0.992187499999998
40
0.992187499999998
40
1
40
1
40
1
40
1
41
1
10
-60.5250936050379
20
-18.2960551095232
30
0
41
1
10
-59.9908356710532
20
-18.3597444650053
30
0
41
1
10
-59.4568370473209
20
-18.4253787395934
30
0
41
1
10
-58.3894677804839
20
-18.5613569591536
30
0
41
1
10
-57.8560963226322
20
-18.6316947962552
30
0
41
1
10
-56.7901370221018
20
-18.7782468758439
30
0
41
1
10
-56.2575025069044
20
-18.8544555643269
30
0
41
1
10
-55.1935182260494
20
-19.0144906872507
30
0
41
1
10
-54.6621698754303
20
-19.0982867030902
30
0
41
1
10
-53.8664959099926
20
-19.2318934782628
30
0
41
1
10
-53.6014871730559
20
-19.2777610064389
30
0
41
1
10
-53.0720703623873
20
-19.3727407413651
30
0
41
1
10
-52.8077101922428
20
-19.4218396858434
30
0
41
1
10
-52.2798692779956
20
-19.5241003963741
30
0
41
1
10
-52.0163865300328
20
-19.5772529109433
30
0
41
1
10
-51.4905786237353
20
-19.6889049870435
30
0
41
1
10
-51.2282537634085
20
-19.7473839685893
30
0
41
1
10
-50.8363672801215
20
-19.8406342771187
30
0
41
1
10
-50.7059948265026
20
-19.8726504179304
30
0
41
1
10
-50.4458804063725
20
-19.9389762518622
30
0
41
1
10
-50.3161072951329
20
-19.9732910086372
30
0
41
1
10
-50.0575146274423
20
-20.0447876880349
30
0
41
1
10
-49.9287166041214
20
-20.0819558762262
30
0
41
1
10
-49.6724436599742
20
-20.1600618671185
30
0
41
1
10
-49.5449216465993
20
-20.2009981978743
30
0
41
1
10
-49.2919247346917
20
-20.2881230426332
30
0
41
1
10
-49.1665766517618
20
-20.3342199065859
30
0
41
1
10
-48.9812581067587
20
-20.4093210998965
30
0
41
1
10
-48.9198784610382
20
-20.4353894248149
30
0
41
1
10
-48.7987077605195
20
-20.4900256800022
30
0
41
1
10
-48.738916418642
20
-20.5185799095853
30
0
41
1
10
-48.6215382048798
20
-20.5791201338674
30
0
41
1
10
-48.563936203503
20
-20.6110825780069
30
0
41
1
10
-48.4800221425711
20
-20.6629007362223
30
0
41
1
10
-48.4524133706671
20
-20.6808679234259
30
0
41
1
10
-48.3986167786014
20
-20.7182697002795
30
0
41
1
10
-48.3724361957429
20
-20.7376899857515
30
0
41
1
10
-48.3219569157066
20
-20.778416830055
30
0
41
1
10
-48.2976460357073
20
-20.7997220967226
30
0
41
1
10
-48.2516500123194
20
-20.8449205094414
30
0
41
1
10
-48.2302866820465
20
-20.8684943291053
30
0
41
1
10
-48.2015914997844
20
-20.9058522230897
30
0
41
1
10
-48.1925889302211
20
-20.9186402125962
30
0
41
1
10
-48.1800987107468
20
-20.9384265244549
30
0
41
1
10
-48.1761047512104
20
-20.9451229857591
30
0
41
1
10
-48.1684916551997
20
-20.9587393768117
30
0
41
1
10
-48.1648658685799
20
-20.96567540967
30
0
41
1
10
-48.147962881996
20
-21.000576301104
30
0
41
1
10
-48.1381851872229
20
-21.029426494515
30
0
41
1
10
-48.1331915495802
20
-21.0594641384685
30
0
0
SPLINE
5
196
100
AcDbEntity
8
SK1
62
256
6
ByLayer
370
18
48
1
60
0
100
AcDbSpline
70
2053
71
3
72
198
73
194
40
0
40
0
40
0
40
0
40
0.0156250000000008
40
0.0156250000000008
40
0.0312500000000015
40
0.0312500000000015
40
0.0390625000000019
40
0.0390625000000019
40
0.042968750000002
40
0.042968750000002
40
0.0468750000000022
40
0.0468750000000022
40
0.0625000000000029
40
0.0625000000000029
40
0.0781250000000035
40
0.0781250000000035
40
0.0937500000000042
40
0.0937500000000042
40
0.0976562500000043
40
0.0976562500000043
40
0.0996093750000044
40
0.0996093750000044
40
0.101562500000004
40
0.109375000000005
40
0.109375000000005
40
0.125000000000005
40
0.125000000000005
40
0.140625000000006
40
0.140625000000006
40
0.144531250000006
40
0.146484375000006
40
0.146484375000006
40
0.148437500000006
40
0.148437500000006
40
0.156250000000006
40
0.156250000000006
40
0.171875000000007
40
0.171875000000007
40
0.187500000000008
40
0.187500000000008
40
0.195312500000008
40
0.195312500000008
40
0.203125000000009
40
0.203125000000009
40
0.21875000000001
40
0.21875000000001
40
0.23437500000001
40
0.23437500000001
40
0.242187500000011
40
0.242187500000011
40
0.246093750000011
40
0.246093750000011
40
0.250000000000011
40
0.250000000000011
40
0.265625000000012
40
0.265625000000012
40
0.281250000000013
40
0.281250000000013
40
0.289062500000013
40
0.289062500000013
40
0.292968750000014
40
0.292968750000014
40
0.296875000000014
40
0.296875000000014
40
0.312500000000015
40
0.312500000000015
40
0.328125000000016
40
0.343750000000017
40
0.343750000000017
40
0.347656250000017
40
0.347656250000017
40
0.351562500000017
40
0.351562500000017
40
0.359375000000018
40
0.359375000000018
40
0.375000000000018
40
0.375000000000018
40
0.390625000000019
40
0.390625000000019
40
0.40625000000002
40
0.40625000000002
40
0.41015625000002
40
0.41015625000002
40
0.41406250000002
40
0.42187500000002
40
0.42187500000002
40
0.43750000000002
40
0.43750000000002
40
0.45312500000002
40
0.45312500000002
40
0.46093750000002
40
0.46093750000002
40
0.46484375000002
40
0.46484375000002
40
0.46875000000002
40
0.46875000000002
40
0.484375000000019
40
0.500000000000019
40
0.500000000000019
40
0.515625000000019
40
0.515625000000019
40
0.523437500000019
40
0.523437500000019
40
0.527343750000018
40
0.527343750000018
40
0.531250000000018
40
0.531250000000018
40
0.546875000000018
40
0.546875000000018
40
0.562500000000017
40
0.562500000000017
40
0.578125000000016
40
0.578125000000016
40
0.582031250000016
40
0.582031250000016
40
0.585937500000016
40
0.585937500000016
40
0.593750000000015
40
0.593750000000015
40
0.609375000000015
40
0.609375000000015
40
0.625000000000014
40
0.625000000000014
40
0.632812500000013
40
0.632812500000013
40
0.640625000000013
40
0.640625000000013
40
0.656250000000012
40
0.656250000000012
40
0.671875000000011
40
0.671875000000011
40
0.679687500000011
40
0.679687500000011
40
0.68750000000001
40
0.68750000000001
40
0.703125000000009
40
0.703125000000009
40
0.718750000000008
40
0.718750000000008
40
0.726562500000008
40
0.726562500000008
40
0.734375000000007
40
0.734375000000007
40
0.750000000000007
40
0.750000000000007
40
0.765625000000006
40
0.765625000000006
40
0.773437500000005
40
0.773437500000005
40
0.777343750000005
40
0.777343750000005
40
0.781250000000005
40
0.781250000000005
40
0.796875000000004
40
0.796875000000004
40
0.812500000000003
40
0.828125000000003
40
0.828125000000003
40
0.832031250000002
40
0.832031250000002
40
0.835937500000002
40
0.843750000000002
40
0.843750000000002
40
0.859375000000002
40
0.875000000000001
40
0.875000000000001
40
0.882812500000001
40
0.882812500000001
40
0.886718750000001
40
0.886718750000001
40
0.890625
40
0.890625
40
0.90625
40
0.90625
40
0.921875
40
0.921875
40
0.937499999999999
40
0.937499999999999
40
0.945312499999999
40
0.945312499999999
40
0.949218749999999
40
0.949218749999999
40
0.953125
40
0.953125
40
0.96875
40
0.96875
40
0.984375
40
0.984375
40
0.9921875
40
0.9921875
40
0.99609375
40
0.99609375
40
1
40
1
40
1
40
1
41
1
10
-23.5386955034974
20
-5.62030144899939
30
0
41
1
10
-23.7384439580726
20
-5.45452787450017
30
0
41
1
10
-23.9286885796496
20
-5.280206124545
30
0
41
1
10
-24.2903129000955
20
-4.91456115287934
30
0
41
1
10
-24.4616933834803
20
-4.72323869374668
30
0
41
1
10
-24.7042944515949
20
-4.42318951250363
30
0
41
1
10
-24.7827453559215
20
-4.32099146927808
30
0
41
1
10
-24.8967135421431
20
-4.16434299045741
30
0
41
1
10
-24.9340845880239
20
-4.11156797147666
30
0
41
1
10
-25.0075719101091
20
-4.00488337435849
30
0
41
1
10
-25.0437345320359
20
-3.95090035122041
30
0
41
1
10
-25.2205032361884
20
-3.67943595334378
30
0
41
1
10
-25.3494006040013
20
-3.45681715006944
30
0
41
1
10
-25.5825597986147
20
-3.00083981650107
30
0
41
1
10
-25.6868214221928
20
-2.76748122960555
30
0
41
1
10
-25.8703438173782
20
-2.28984880691266
30
0
41
1
10
-25.9496084806547
20
-2.04557668657785
30
0
41
1
10
-26.0323289364961
20
-1.73308540825059
30
0
41
1
10
-26.0480528127423
20
-1.67022864365029
30
0
41
1
10
-26.0703874905819
20
-1.57539650930164
30
0
41
1
10
-26.0776219248884
20
-1.54370065371722
30
0
41
1
10
-26.0916253849084
20
-1.48033697150041
30
0
41
1
10
-26.1255002618573
20
-1.32186744430675
30
0
41
1
10
-26.1537453053509
20
-1.16309834800847
30
0
41
1
10
-26.2108975471629
20
-0.78148637557652
30
0
41
1
10
-26.2348448578779
20
-0.526324954328544
30
0
41
1
10
-26.2546791311363
20
-0.0145078779640073
30
0
41
1
10
-26.2505670478136
20
0.242147726404767
30
0
41
1
10
-26.2274951070175
20
0.563922052605534
30
0
41
1
10
-26.2192253592782
20
0.660526134138593
30
0
41
1
10
-26.2089116724114
20
0.757239036696518
30
0
41
1
10
-26.201578890941
20
0.821738634306541
30
0
41
1
10
-26.1976805586094
20
0.854026531368589
30
0
41
1
10
-26.1770912889732
20
1.0151276268933
30
0
41
1
10
-26.1571137965382
20
1.14295925353889
30
0
41
1
10
-26.0869378096131
20
1.52338952808304
30
0
41
1
10
-26.0265223796738
20
1.77293143119334
30
0
41
1
10
-25.8791985869498
20
2.26409628261459
30
0
41
1
10
-25.7922885663587
20
2.5057187231879
30
0
41
1
10
-25.6420003660103
20
2.86220487056642
30
0
41
1
10
-25.5885733380238
20
2.98004885868403
30
0
41
1
10
-25.4749947694334
20
3.21369242083117
30
0
41
1
10
-25.4153331665617
20
3.32848617661853
30
0
41
1
10
-25.2279960573508
20
3.66697493021778
30
0
41
1
10
-25.0919901481115
20
3.88479280860142
30
0
41
1
10
-24.7985762116144
20
4.30535614486584
30
0
41
1
10
-24.6411657278874
20
4.50809982770426
30
0
41
1
10
-24.3891064437321
20
4.80100896815111
30
0
41
1
10
-24.3024243853371
20
4.89677408518739
30
0
41
1
10
-24.1683761784756
20
5.0375954840695
30
0
41
1
10
-24.1230087716405
20
5.08407452444612
30
0
41
1
10
-24.0314153726883
20
5.17560607502418
30
0
41
1
10
-23.985131103128
20
5.22072106394381
30
0
41
1
10
-23.7513081396643
20
5.44309174928739
30
0
41
1
10
-23.5565836976395
20
5.61076025410702
30
0
41
1
10
-23.1524093594217
20
5.92648269487904
30
0
41
1
10
-22.9429574856119
20
6.07453393943135
30
0
41
1
10
-22.6178517628434
20
6.28207756169215
30
0
41
1
10
-22.5076585737497
20
6.34883215534654
30
0
41
1
10
-22.3396173065024
20
6.44530750841477
30
0
41
1
10
-22.2831447663366
20
6.47685626460705
30
0
41
1
10
-22.1692772075444
20
6.53872830723489
30
0
41
1
10
-22.1118293302758
20
6.56907707131012
30
0
41
1
10
-21.8236418541365
20
6.71704721802564
30
0
41
1
10
-21.5891851939479
20
6.82387977349629
30
0
41
1
10
-21.1127964380698
20
7.01545639351497
30
0
41
1
10
-20.6289305355811
20
7.18493946663637
30
0
41
1
10
-20.1303501210642
20
7.31094416311132
30
0
41
1
10
-19.814089688942
20
7.37596422470466
30
0
41
1
10
-19.7506047298374
20
7.38828014830241
30
0
41
1
10
-19.6231658410969
20
7.41152628936695
30
0
41
1
10
-19.5591480440657
20
7.42246544172986
30
0
41
1
10
-19.3672588683758
20
7.45305455142085
30
0
41
1
10
-19.2393365987686
20
7.4705226445345
30
0
41
1
10
-18.855582446279
20
7.51434198015249
30
0
41
1
10
-18.5997633466267
20
7.53212704479822
30
0
41
1
10
-18.0881618283052
20
7.54536610807048
30
0
41
1
10
-17.8323794034601
20
7.54081923809795
30
0
41
1
10
-17.3208498853795
20
7.50932293642333
30
0
41
1
10
-17.0651028031059
20
7.48237532358584
30
0
41
1
10
-16.7454376580474
20
7.43426769007712
30
0
41
1
10
-16.6815333222034
20
7.423925415626
30
0
41
1
10
-16.5543562101829
20
7.40189889815889
30
0
41
1
10
-16.364305036197
20
7.36681053517017
30
0
41
1
10
-16.1763747833972
20
7.32563705281595
30
0
41
1
10
-15.8033026525529
20
7.23527688892051
30
0
41
1
10
-15.5582997078242
20
7.16437054129162
30
0
41
1
10
-15.0756552821656
20
7.00131675861621
30
0
41
1
10
-14.8380134593581
20
6.90917047397153
30
0
41
1
10
-14.4871731694652
20
6.75464503699718
30
0
41
1
10
-14.3711650472231
20
6.70041417699022
30
0
41
1
10
-14.198588764041
20
6.61489134484546
30
0
41
1
10
-14.1413027647359
20
6.58568730623784
30
0
41
1
10
-14.0272156944676
20
6.52586659823291
30
0
41
1
10
-13.9703664052701
20
6.4952213032671
30
0
41
1
10
-13.6887873630916
20
6.33922175206624
30
0
41
1
10
-13.2532457357821
20
6.07088793770191
30
0
41
1
10
-12.8471478038384
20
5.76556639423049
30
0
41
1
10
-12.4559404259
20
5.4414442056395
30
0
41
1
10
-12.2677798799319
20
5.26998566218251
30
0
41
1
10
-11.9971774268018
20
4.99802849803936
30
0
41
1
10
-11.9089201154221
20
4.90490971501282
30
0
41
1
10
-11.7795468563587
20
4.76139870225992
30
0
41
1
10
-11.7368610813399
20
4.71284668536728
30
0
41
1
10
-11.65291556249
20
4.61491118164508
30
0
41
1
10
-11.6116455538624
20
4.56552092329801
30
0
41
1
10
-11.40878926272
20
4.31646689989543
30
0
41
1
10
-11.2576575722635
20
4.11051080639183
30
0
41
1
10
-10.9776209591713
20
3.68516700372396
30
0
41
1
10
-10.8487148730962
20
3.46578008630002
30
0
41
1
10
-10.6137386364282
20
3.01315726082652
30
0
41
1
10
-10.5076634020699
20
2.77992449942144
30
0
41
1
10
-10.3902070238527
20
2.47917572573911
30
0
41
1
10
-10.3674747908983
20
2.41856427753743
30
0
41
1
10
-10.3235593948656
20
2.29639853987743
30
0
41
1
10
-10.3024777074037
20
2.23512481727124
30
0
41
1
10
-10.24189737193
20
2.05090199548775
30
0
41
1
10
-10.2050353979603
20
1.92747841055862
30
0
41
1
10
-10.104901041966
20
1.55540199658879
30
0
41
1
10
-10.0520539015265
20
1.30494795024478
30
0
41
1
10
-9.97417049452046
20
0.799227908579383
30
0
41
1
10
-9.94913223821889
20
0.543962261807025
30
0
41
1
10
-9.93307836898667
20
0.157340608386647
30
0
41
1
10
-9.93131793359383
20
0.0278450208260779
30
0
41
1
10
-9.93517793902586
20
-0.232424103967816
30
0
41
1
10
-9.94078061343583
20
-0.36190573532707
30
0
41
1
10
-9.96831964617803
20
-0.748229445215543
30
0
41
1
10
-10.0009608062983
20
-1.0030514520096
30
0
41
1
10
-10.0940140259467
20
-1.50739735167878
30
0
41
1
10
-10.1544276883749
20
-1.75692093060266
30
0
41
1
10
-10.2659381154751
20
-2.12722755192618
30
0
41
1
10
-10.3065997904405
20
-2.25000774286178
30
0
41
1
10
-10.3949786576234
20
-2.49418722962918
30
0
41
1
10
-10.4422982146571
20
-2.61449086112941
30
0
41
1
10
-10.5933406760816
20
-2.97022531612151
30
0
41
1
10
-10.706123025312
20
-3.20049340677707
30
0
41
1
10
-10.9548800394693
20
-3.64785490090958
30
0
41
1
10
-11.0908576100643
20
-3.86494658195269
30
0
41
1
10
-11.312049635645
20
-4.18083508634112
30
0
41
1
10
-11.3886915922522
20
-4.28454784796983
30
0
41
1
10
-11.5476246449519
20
-4.48852020701651
30
0
41
1
10
-11.629351276635
20
-4.58806092938789
30
0
41
1
10
-11.881094534587
20
-4.8795980132613
30
0
41
1
10
-12.0576572732679
20
-5.06452798028192
30
0
41
1
10
-12.4275572357256
20
-5.4163679431048
30
0
41
1
10
-12.6208967119757
20
-5.58327535697191
30
0
41
1
10
-12.9233679628061
20
-5.82031507060398
30
0
41
1
10
-13.0262726306527
20
-5.89710386215143
30
0
41
1
10
-13.1837708078624
20
-6.00893743436973
30
0
41
1
10
-13.236858212183
20
-6.04569958788122
30
0
41
1
10
-13.3437333565181
20
-6.11786502925483
30
0
41
1
10
-13.3975003693847
20
-6.15325708205472
30
0
41
1
10
-13.6679602785363
20
-6.32681580874171
30
0
41
1
10
-13.8895152403584
20
-6.45480465848971
30
0
41
1
10
-14.3426359834103
20
-6.68994223737681
30
0
41
1
10
-14.8057703727617
20
-6.90423393240249
30
0
41
1
10
-15.2887913575063
20
-7.07733103469675
30
0
41
1
10
-15.5970229182042
20
-7.17243187554465
30
0
41
1
10
-15.659062610626
20
-7.19081724256844
30
0
41
1
10
-15.7833402026226
20
-7.22614188055223
30
0
41
1
10
-15.970037706124
20
-7.2769602749251
30
0
41
1
10
-16.1575695735997
20
-7.3213540577616
30
0
41
1
10
-16.533729919137
20
-7.40172376341107
30
0
41
1
10
-17.0381967440516
20
-7.48647471671308
30
0
41
1
10
-17.548446020015
20
-7.52704814090905
30
0
41
1
10
-17.9333331124602
20
-7.54070861779041
30
0
41
1
10
-18.061996047104
20
-7.54246260937106
30
0
41
1
10
-18.255550429563
20
-7.5408260268083
30
0
41
1
10
-18.3201619242621
20
-7.53956892909167
30
0
41
1
10
-18.4495736324341
20
-7.53561635841552
30
0
41
1
10
-18.5144532796789
20
-7.53291583686806
30
0
41
1
10
-18.8379529342858
20
-7.51585363521761
30
0
41
1
10
-19.0943338077968
20
-7.49085574354399
30
0
41
1
10
-19.6023744555918
20
-7.41871890682748
30
0
41
1
10
-19.8540339897896
20
-7.371578828069
30
0
41
1
10
-20.3526196001986
20
-7.2551156446396
30
0
41
1
10
-20.5995460154414
20
-7.18579408776586
30
0
41
1
10
-20.9662796912401
20
-7.06469626827086
30
0
41
1
10
-21.0879138865109
20
-7.02147294468341
30
0
41
1
10
-21.2694261433534
20
-6.95224469389251
30
0
41
1
10
-21.3298279559546
20
-6.92841375143649
30
0
41
1
10
-21.4500638104265
20
-6.87936689695238
30
0
41
1
10
-21.5097932382048
20
-6.85419524462623
30
0
41
1
10
-21.8065098708459
20
-6.72511505729332
30
0
41
1
10
-22.0377189977437
20
-6.61156329316023
30
0
41
1
10
-22.487898052954
20
-6.36401078776277
30
0
41
1
10
-22.7068684871786
20
-6.23001093042967
30
0
41
1
10
-23.0259517196796
20
-6.01333272591341
30
0
41
1
10
-23.1307479853989
20
-5.93848898034568
30
0
41
1
10
-23.2855443944398
20
-5.82220932179578
30
0
41
1
10
-23.3367433377469
20
-5.78278010118211
30
0
41
1
10
-23.4383305773606
20
-5.70256425397113
30
0
41
1
10
-23.4887583898535
20
-5.66174484262419
30
0
41
1
10
-23.5386955034974
20
-5.62030144899939
30
0
0
LINE
5
85
100
AcDbEntity
8
4
62
256
6
ByLayer
370
18
48
0.05
60
0
100
AcDbLine
10
0
20
0
30
0
11
85
21
0
31
0
39
0
210
0
220
0
230
1
0
LINE
5
87
100
AcDbEntity
8
81
62
256
6
ByLayer
370
18
48
1
60
0
100
AcDbLine
10
85
20
0
30
0
11
90
21
0
31
0
39
0
210
0
220
0
230
1
0
LINE
5
88
100
AcDbEntity
8
SK4
62
256
6
ByLayer
370
18
48
0.05
60
0
100
AcDbLine
10
0
20
0
30
0
11
85
21
0
31
0
39
0
210
0
220
0
230
1
0
LINE
5
8A
100
AcDbEntity
8
80
62
256
6
ByLayer
370
18
48
1
60
0
100
AcDbLine
10
0
20
0
30
0
11
-5
21
0
31
0
39
0
210
0
220
0
230
1
0
LINE
5
8B
100
AcDbEntity
8
1
62
256
6
ByLayer
370
18
48
1
60
0
100
AcDbLine
10
18.475
20
-58.475
30
0
11
21.525
21
-58.475
31
0
39
0
210
0
220
0
230
1
0
LINE
5
8C
100
AcDbEntity
8
1
62
256
6
ByLayer
370
18
48
1
60
0
100
AcDbLine
10
86.214791
20
29.64525
30
0
11
85.375
21
29.64525
31
0
39
0
210
0
220
0
230
1
0
LINE
5
8D
100
AcDbEntity
8
1
62
256
6
ByLayer
370
18
48
1
60
0
100
AcDbLine
10
85.375
20
-29.64525
30
0
11
86.214791
21
-29.64525
31
0
39
0
210
0
220
0
230
1
0
LINE
5
8E
100
AcDbEntity
8
1
62
256
6
ByLayer
370
18
48
1
60
0
100
AcDbLine
10
114
20
28.840549
30
0
11
112
21
29.99525
31
0
39
0
210
0
220
0
230
1
0
LINE
5
8F
100
AcDbEntity
8
1
62
256
6
ByLayer
370
18
48
1
60
0
100
AcDbLine
10
112
20
-29.99525
30
0
11
114
21
-28.840549
31
0
39
0
210
0
220
0
230
1
0
LINE
5
90
100
AcDbEntity
8
1
62
256
6
ByLayer
370
18
48
1
60
0
100
AcDbLine
10
86.370082
20
-29.665695
30
0
11
87.6
21
-29.99525
31
0
39
0
210
0
220
0
230
1
0
LINE
5
91
100
AcDbEntity
8
1
62
256
6
ByLayer
370
18
48
1
60
0
100
AcDbLine
10
87.6
20
29.99525
30
0
11
86.370082
21
29.665695
31
0
39
0
210
0
220
0
230
1
0
LINE
5
92
100
AcDbEntity
8
1
62
256
6
ByLayer
370
18
48
1
60
0
100
AcDbLine
10
112
20
29.99525
30
0
11
87.6
21
29.99525
31
0
39
0
210
0
220
0
230
1
0
LINE
5
93
100
AcDbEntity
8
1
62
256
6
ByLayer
370
18
48
1
60
0
100
AcDbLine
10
87.6
20
-29.99525
30
0
11
112
21
-29.99525
31
0
39
0
210
0
220
0
230
1
0
LINE
5
94
100
AcDbEntity
8
1
62
256
6
ByLayer
370
18
48
1
60
0
100
AcDbLine
10
29.95
20
-55.25
30
0
11
45
21
-55.25
31
0
39
0
210
0
220
0
230
1
0
LINE
5
95
100
AcDbEntity
8
1
62
256
6
ByLayer
370
18
48
1
60
0
100
AcDbLine
10
45
20
55.25
30
0
11
29.95
21
55.25
31
0
39
0
210
0
220
0
230
1
0
LINE
5
96
100
AcDbEntity
8
1
62
256
6
ByLayer
370
18
48
1
60
0
100
AcDbLine
10
21.525
20
58.475
30
0
11
18.475
21
58.475
31
0
39
0
210
0
220
0
230
1
0
LINE
5
97
100
AcDbEntity
8
1
62
256
6
ByLayer
370
18
48
1
60
0
100
AcDbLine
10
28.25
20
62.46
30
0
11
23.238935
21
62.46
31
0
39
0
210
0
220
0
230
1
0
LINE
5
98
100
AcDbEntity
8
1
62
256
6
ByLayer
370
18
48
1
60
0
100
AcDbLine
10
23.238935
20
62.46
30
0
11
21.925
21
60.184198
31
0
39
0
210
0
220
0
230
1
0
LINE
5
99
100
AcDbEntity
8
1
62
256
6
ByLayer
370
18
48
1
60
0
100
AcDbLine
10
18.075
20
60.184198
30
0
11
16.761065
21
62.46
31
0
39
0
210
0
220
0
230
1
0
LINE
5
9A
100
AcDbEntity
8
1
62
256
6
ByLayer
370
18
48
1
60
0
100
AcDbLine
10
21.925
20
-60.184198
30
0
11
23.238935
21
-62.46
31
0
39
0
210
0
220
0
230
1
0
LINE
5
9B
100
AcDbEntity
8
1
62
256
6
ByLayer
370
18
48
1
60
0
100
AcDbLine
10
28.95
20
61.76
30
0
11
28.25
21
62.46
31
0
39
0
210
0
220
0
230
1
0
LINE
5
9C
100
AcDbEntity
8
1
62
256
6
ByLayer
370
18
48
1
60
0
100
AcDbLine
10
16.761065
20
-62.46
30
0
11
18.075
21
-60.184198
31
0
39
0
210
0
220
0
230
1
0
LINE
5
9D
100
AcDbEntity
8
1
62
256
6
ByLayer
370
18
48
1
60
0
100
AcDbLine
10
28.25
20
-62.46
30
0
11
28.95
21
-61.76
31
0
39
0
210
0
220
0
230
1
0
LINE
5
9E
100
AcDbEntity
8
1
62
256
6
ByLayer
370
18
48
1
60
0
100
AcDbLine
10
23.238935
20
-62.46
30
0
11
28.25
21
-62.46
31
0
39
0
210
0
220
0
230
1
0
LINE
5
9F
100
AcDbEntity
8
1
62
256
6
ByLayer
370
18
48
1
60
0
100
AcDbLine
10
16.761065
20
62.46
30
0
11
0.7
21
62.46
31
0
39
0
210
0
220
0
230
1
0
LINE
5
A0
100
AcDbEntity
8
1
62
256
6
ByLayer
370
18
48
1
60
0
100
AcDbLine
10
0.7
20
-62.46
30
0
11
1.993165
21
-62.46
31
0
39
0
210
0
220
0
230
1
0
LINE
5
A1
100
AcDbEntity
8
1
62
256
6
ByLayer
370
18
48
1
60
0
100
AcDbLine
10
12.0225
20
-62.46
30
0
11
16.761065
21
-62.46
31
0
39
0
210
0
220
0
230
1
0
LINE
5
A2
100
AcDbEntity
8
1
62
256
6
ByLayer
370
18
48
1
60
0
100
AcDbLine
10
0
20
-61.76
30
0
11
0.7
21
-62.46
31
0
39
0
210
0
220
0
230
1
0
LINE
5
A3
100
AcDbEntity
8
1
62
256
6
ByLayer
370
18
48
1
60
0
100
AcDbLine
10
0.7
20
62.46
30
0
11
0
21
61.76
31
0
39
0
210
0
220
0
230
1
0
LINE
5
A4
100
AcDbEntity
8
1
62
256
6
ByLayer
370
18
48
1
60
0
100
AcDbLine
10
47
20
-65
30
0
11
83.5
21
-65
31
0
39
0
210
0
220
0
230
1
0
LINE
5
A5
100
AcDbEntity
8
1
62
256
6
ByLayer
370
18
48
1
60
0
100
AcDbLine
10
83.5
20
65
30
0
11
47
21
65
31
0
39
0
210
0
220
0
230
1
0
LINE
5
A6
100
AcDbEntity
8
1
62
256
6
ByLayer
370
18
48
1
60
0
100
AcDbLine
10
85
20
63.5
30
0
11
83.5
21
65
31
0
39
0
210
0
220
0
230
1
0
LINE
5
A7
100
AcDbEntity
8
1
62
256
6
ByLayer
370
18
48
1
60
0
100
AcDbLine
10
83.5
20
-65
30
0
11
85
21
-63.5
31
0
39
0
210
0
220
0
230
1
0
LINE
5
A8
100
AcDbEntity
8
SK1
62
256
6
ByLayer
370
18
48
1
60
0
100
AcDbLine
10
-1.4
20
47.583852
30
0
11
-3.393782
21
47.583852
31
0
39
0
210
0
220
0
230
1
0
LINE
5
AA
100
AcDbEntity
8
SK1
62
256
6
ByLayer
370
18
48
1
60
0
100
AcDbLine
10
-3.393782
20
-47.583852
30
0
11
-1.4
21
-47.583852
31
0
39
0
210
0
220
0
230
1
0
LINE
5
AB
100
AcDbEntity
8
SK1
62
256
6
ByLayer
370
18
48
1
60
0
100
AcDbLine
10
-3.393782
20
47.583852
30
0
11
-4
21
47.933852
31
0
39
0
210
0
220
0
230
1
0
LINE
5
AC
100
AcDbEntity
8
SK1
62
256
6
ByLayer
370
18
48
1
60
0
100
AcDbLine
10
-4
20
-47.933852
30
0
11
-3.393782
21
-47.583852
31
0
39
0
210
0
220
0
230
1
0
LINE
5
AD
100
AcDbEntity
8
SK1
62
256
6
ByLayer
370
18
48
1
60
0
100
AcDbLine
10
-60.525094
20
-45.101933
30
0
11
-4
21
-47.933852
31
0
39
0
210
0
220
0
230
1
0
LINE
5
AE
100
AcDbEntity
8
SK1
62
256
6
ByLayer
370
18
48
1
60
0
100
AcDbLine
10
-4
20
47.933852
30
0
11
-60.525094
21
45.101933
31
0
39
0
210
0
220
0
230
1
0
LINE
5
AF
100
AcDbEntity
8
1
62
256
6
ByLayer
370
13
48
1
60
0
100
AcDbLine
10
86.214791
20
29.64525
30
0
11
86.214791
21
12.677609
31
0
39
0
210
0
220
0
230
1
0
LINE
5
B0
100
AcDbEntity
8
1
62
256
6
ByLayer
370
13
48
1
60
0
100
AcDbLine
10
86.214791
20
-12.677609
30
0
11
86.214791
21
-29.64525
31
0
39
0
210
0
220
0
230
1
0
LINE
5
B1
100
AcDbEntity
8
1
62
256
6
ByLayer
370
18
48
1
60
0
100
AcDbLine
10
114
20
28.840549
30
0
11
114
21
0
31
0
39
0
210
0
220
0
230
1
0
LINE
5
B2
100
AcDbEntity
8
1
62
256
6
ByLayer
370
18
48
1
60
0
100
AcDbLine
10
114
20
0
30
0
11
114
21
-28.840549
31
0
39
0
210
0
220
0
230
1
0
LINE
5
B3
100
AcDbEntity
8
1
62
256
6
ByLayer
370
13
48
1
60
0
100
AcDbLine
10
86.370082
20
-29.665695
30
0
11
86.370082
21
-12.67582
31
0
39
0
210
0
220
0
230
1
0
LINE
5
B4
100
AcDbEntity
8
1
62
256
6
ByLayer
370
13
48
1
60
0
100
AcDbLine
10
86.370082
20
12.67582
30
0
11
86.370082
21
29.665695
31
0
39
0
210
0
220
0
230
1
0
LINE
5
B5
100
AcDbEntity
8
1
62
256
6
ByLayer
370
18
48
1
60
0
100
AcDbLine
10
112
20
29.99525
30
0
11
112
21
0
31
0
39
0
210
0
220
0
230
1
0
LINE
5
B6
100
AcDbEntity
8
1
62
256
6
ByLayer
370
18
48
1
60
0
100
AcDbLine
10
112
20
0
30
0
11
112
21
-29.99525
31
0
39
0
210
0
220
0
230
1
0
LINE
5
B7
100
AcDbEntity
8
1
62
256
6
ByLayer
370
18
48
1
60
0
100
AcDbLine
10
87.6
20
-29.99525
30
0
11
87.6
21
-12.672685
31
0
39
0
210
0
220
0
230
1
0
LINE
5
B8
100
AcDbEntity
8
1
62
256
6
ByLayer
370
18
48
1
60
0
100
AcDbLine
10
87.6
20
12.672685
30
0
11
87.6
21
29.99525
31
0
39
0
210
0
220
0
230
1
0
LINE
5
B9
100
AcDbEntity
8
1
62
256
6
ByLayer
370
13
48
1
60
0
100
AcDbLine
10
85.375
20
29.64525
30
0
11
85.375
21
12.674978
31
0
39
0
210
0
220
0
230
1
0
LINE
5
BA
100
AcDbEntity
8
1
62
256
6
ByLayer
370
13
48
1
60
0
100
AcDbLine
10
85.375
20
-12.674978
30
0
11
85.375
21
-29.64525
31
0
39
0
210
0
220
0
230
1
0
LINE
5
BB
100
AcDbEntity
8
1
62
256
6
ByLayer
370
13
48
1
60
0
100
AcDbLine
10
29.95
20
55.25
30
0
11
29.95
21
-55.25
31
0
39
0
210
0
220
0
230
1
0
LINE
5
BC
100
AcDbEntity
8
1
62
256
6
ByLayer
370
18
48
1
60
0
100
AcDbLine
10
28.95
20
-14.021
30
0
11
28.95
21
-9.741791
31
0
39
0
210
0
220
0
230
1
0
LINE
5
BD
100
AcDbEntity
8
1
62
256
6
ByLayer
370
18
48
1
60
0
100
AcDbLine
10
28.95
20
9.741791
30
0
11
28.95
21
14.021
31
0
39
0
210
0
220
0
230
1
0
LINE
5
BE
100
AcDbEntity
8
1
62
256
6
ByLayer
370
13
48
1
60
0
100
AcDbLine
10
45
20
55.25
30
0
11
45
21
-55.25
31
0
39
0
210
0
220
0
230
1
0
LINE
5
BF
100
AcDbEntity
8
1
62
256
6
ByLayer
370
18
48
1
60
0
100
AcDbLine
10
18.475
20
-14.021
30
0
11
21.525
21
-14.021
31
0
39
0
210
0
220
0
230
1
0
LINE
5
C0
100
AcDbEntity
8
1
62
256
6
ByLayer
370
18
48
1
60
0
100
AcDbLine
10
21.525
20
14.021
30
0
11
18.475
21
14.021
31
0
39
0
210
0
220
0
230
1
0
LINE
5
C1
100
AcDbEntity
8
1
62
256
6
ByLayer
370
13
48
1
60
0
100
AcDbLine
10
21.525
20
-14.021
30
0
11
21.525
21
-57.012543
31
0
39
0
210
0
220
0
230
1
0
LINE
5
C2
100
AcDbEntity
8
1
62
256
6
ByLayer
370
13
48
1
60
0
100
AcDbLine
10
21.525
20
-57.369492
30
0
11
21.525
21
-58.058673
31
0
39
0
210
0
220
0
230
1
0
LINE
5
C3
100
AcDbEntity
8
1
62
256
6
ByLayer
370
13
48
1
60
0
100
AcDbLine
10
21.525
20
-58.23813
30
0
11
21.525
21
-58.475
31
0
39
0
210
0
220
0
230
1
0
LINE
5
C4
100
AcDbEntity
8
1
62
256
6
ByLayer
370
13
48
1
60
0
100
AcDbLine
10
18.475
20
58.475
30
0
11
18.475
21
14.021
31
0
39
0
210
0
220
0
230
1
0
LINE
5
C5
100
AcDbEntity
8
1
62
256
6
ByLayer
370
13
48
1
60
0
100
AcDbLine
10
21.525
20
58.475
30
0
11
21.525
21
14.021
31
0
39
0
210
0
220
0
230
1
0
LINE
5
C6
100
AcDbEntity
8
1
62
256
6
ByLayer
370
13
48
1
60
0
100
AcDbLine
10
18.475
20
-58.23813
30
0
11
18.475
21
-58.475
31
0
39
0
210
0
220
0
230
1
0
LINE
5
C7
100
AcDbEntity
8
1
62
256
6
ByLayer
370
13
48
1
60
0
100
AcDbLine
10
18.475
20
-57.369492
30
0
11
18.475
21
-58.058673
31
0
39
0
210
0
220
0
230
1
0
LINE
5
C8
100
AcDbEntity
8
1
62
256
6
ByLayer
370
13
48
1
60
0
100
AcDbLine
10
18.475
20
-14.021
30
0
11
18.475
21
-57.012543
31
0
39
0
210
0
220
0
230
1
0
LINE
5
C9
100
AcDbEntity
8
1
62
256
6
ByLayer
370
18
48
1
60
0
100
AcDbLine
10
28.25
20
14.021
30
0
11
23.238935
21
14.021
31
0
39
0
210
0
220
0
230
1
0
LINE
5
CA
100
AcDbEntity
8
1
62
256
6
ByLayer
370
18
48
1
60
0
100
AcDbLine
10
23.238935
20
62.46
30
0
11
23.238935
21
14.021
31
0
39
0
210
0
220
0
230
1
0
LINE
5
CB
100
AcDbEntity
8
1
62
256
6
ByLayer
370
18
48
1
60
0
100
AcDbLine
10
21.925
20
60.184198
30
0
11
21.925
21
14.021
31
0
39
0
210
0
220
0
230
1
0
LINE
5
CC
100
AcDbEntity
8
1
62
256
6
ByLayer
370
18
48
1
60
0
100
AcDbLine
10
18.075
20
60.184198
30
0
11
18.075
21
14.021
31
0
39
0
210
0
220
0
230
1
0
LINE
5
CD
100
AcDbEntity
8
1
62
256
6
ByLayer
370
18
48
1
60
0
100
AcDbLine
10
21.925
20
-60.184198
30
0
11
21.925
21
-14.021
31
0
39
0
210
0
220
0
230
1
0
LINE
5
CE
100
AcDbEntity
8
1
62
256
6
ByLayer
370
18
48
1
60
0
100
AcDbLine
10
28.95
20
61.76
30
0
11
28.95
21
14.021
31
0
39
0
210
0
220
0
230
1
0
LINE
5
CF
100
AcDbEntity
8
1
62
256
6
ByLayer
370
18
48
1
60
0
100
AcDbLine
10
28.25
20
14.021
30
0
11
28.25
21
62.46
31
0
39
0
210
0
220
0
230
1
0
LINE
5
D0
100
AcDbEntity
8
1
62
256
6
ByLayer
370
18
48
1
60
0
100
AcDbLine
10
18.075
20
-60.184198
30
0
11
18.075
21
-14.021
31
0
39
0
210
0
220
0
230
1
0
LINE
5
D1
100
AcDbEntity
8
1
62
256
6
ByLayer
370
18
48
1
60
0
100
AcDbLine
10
28.95
20
-61.76
30
0
11
28.95
21
-14.021
31
0
39
0
210
0
220
0
230
1
0
LINE
5
D2
100
AcDbEntity
8
1
62
256
6
ByLayer
370
18
48
1
60
0
100
AcDbLine
10
23.238935
20
-62.46
30
0
11
23.238935
21
-14.021
31
0
39
0
210
0
220
0
230
1
0
LINE
5
D3
100
AcDbEntity
8
1
62
256
6
ByLayer
370
18
48
1
60
0
100
AcDbLine
10
28.25
20
-14.021
30
0
11
28.25
21
-62.46
31
0
39
0
210
0
220
0
230
1
0
LINE
5
D4
100
AcDbEntity
8
1
62
256
6
ByLayer
370
18
48
1
60
0
100
AcDbLine
10
23.238935
20
-14.021
30
0
11
28.25
21
-14.021
31
0
39
0
210
0
220
0
230
1
0
LINE
5
D5
100
AcDbEntity
8
1
62
256
6
ByLayer
370
18
48
1
60
0
100
AcDbLine
10
16.761065
20
-14.021
30
0
11
16.761065
21
-62.46
31
0
39
0
210
0
220
0
230
1
0
LINE
5
D6
100
AcDbEntity
8
1
62
256
6
ByLayer
370
18
48
1
60
0
100
AcDbLine
10
9.95
20
-14.021
30
0
11
16.761065
21
-14.021
31
0
39
0
210
0
220
0
230
1
0
LINE
5
D7
100
AcDbEntity
8
1
62
256
6
ByLayer
370
18
48
1
60
0
100
AcDbLine
10
4.95
20
9.021
30
0
11
4.95
21
-9.021
31
0
39
0
210
0
220
0
230
1
0
LINE
5
D8
100
AcDbEntity
8
1
62
256
6
ByLayer
370
18
48
1
60
0
100
AcDbLine
10
16.761065
20
14.021
30
0
11
9.95
21
14.021
31
0
39
0
210
0
220
0
230
1
0
LINE
5
D9
100
AcDbEntity
8
1
62
256
6
ByLayer
370
18
48
1
60
0
100
AcDbLine
10
16.761065
20
14.021
30
0
11
16.761065
21
62.46
31
0
39
0
210
0
220
0
230
1
0
LINE
5
DA
100
AcDbEntity
8
1
62
256
6
ByLayer
370
18
48
1
60
0
100
AcDbLine
10
0.7
20
-62.46
30
0
11
0.7
21
0
31
0
39
0
210
0
220
0
230
1
0
LINE
5
DB
100
AcDbEntity
8
1
62
256
6
ByLayer
370
18
48
1
60
0
100
AcDbLine
10
0.7
20
0
30
0
11
0.7
21
62.46
31
0
39
0
210
0
220
0
230
1
0
LINE
5
DC
100
AcDbEntity
8
1
62
256
6
ByLayer
370
18
48
1
60
0
100
AcDbLine
10
0
20
61.76
30
0
11
0
21
0
31
0
39
0
210
0
220
0
230
1
0
LINE
5
DD
100
AcDbEntity
8
1
62
256
6
ByLayer
370
18
48
1
60
0
100
AcDbLine
10
0
20
0
30
0
11
0
21
-61.76
31
0
39
0
210
0
220
0
230
1
0
LINE
5
DE
100
AcDbEntity
8
1
62
256
6
ByLayer
370
18
48
1
60
0
100
AcDbLine
10
46
20
64
30
0
11
46
21
-64
31
0
39
0
210
0
220
0
230
1
0
LINE
5
DF
100
AcDbEntity
8
1
62
256
6
ByLayer
370
13
48
1
60
0
100
AcDbLine
10
47
20
65
30
0
11
47
21
-65
31
0
39
0
210
0
220
0
230
1
0
LINE
5
E0
100
AcDbEntity
8
1
62
256
6
ByLayer
370
18
48
1
60
0
100
AcDbLine
10
83.5
20
65
30
0
11
83.5
21
0
31
0
39
0
210
0
220
0
230
1
0
LINE
5
E1
100
AcDbEntity
8
1
62
256
6
ByLayer
370
18
48
1
60
0
100
AcDbLine
10
83.5
20
0
30
0
11
83.5
21
-65
31
0
39
0
210
0
220
0
230
1
0
LINE
5
E2
100
AcDbEntity
8
1
62
256
6
ByLayer
370
18
48
1
60
0
100
AcDbLine
10
85
20
63.5
30
0
11
85
21
0
31
0
39
0
210
0
220
0
230
1
0
LINE
5
E3
100
AcDbEntity
8
1
62
256
6
ByLayer
370
18
48
1
60
0
100
AcDbLine
10
85
20
0
30
0
11
85
21
-63.5
31
0
39
0
210
0
220
0
230
1
0
LINE
5
E4
100
AcDbEntity
8
1
62
256
6
ByLayer
370
18
48
1
60
0
100
AcDbLine
10
96.7
20
-12.675
30
0
11
85
21
-12.675
31
0
39
0
210
0
220
0
230
1
0
LINE
5
E5
100
AcDbEntity
8
1
62
256
6
ByLayer
370
18
48
1
60
0
100
AcDbLine
10
96.7
20
-11.675
30
0
11
96.7
21
-12.675
31
0
39
0
210
0
220
0
230
1
0
LINE
5
E6
100
AcDbEntity
8
1
62
256
6
ByLayer
370
18
48
1
60
0
100
AcDbLine
10
97.7
20
-11.675
30
0
11
96.7
21
-12.675
31
0
39
0
210
0
220
0
230
1
0
LINE
5
E7
100
AcDbEntity
8
1
62
256
6
ByLayer
370
18
48
1
60
0
100
AcDbLine
10
97.7
20
-11.675
30
0
11
96.7
21
-11.675
31
0
39
0
210
0
220
0
230
1
0
LINE
5
E8
100
AcDbEntity
8
1
62
256
6
ByLayer
370
18
48
1
60
0
100
AcDbLine
10
97.7
20
11.675
30
0
11
97.7
21
-11.675
31
0
39
0
210
0
220
0
230
1
0
LINE
5
E9
100
AcDbEntity
8
1
62
256
6
ByLayer
370
18
48
1
60
0
100
AcDbLine
10
96.7
20
-11.675
30
0
11
96.7
21
11.675
31
0
39
0
210
0
220
0
230
1
0
LINE
5
EA
100
AcDbEntity
8
1
62
256
6
ByLayer
370
18
48
1
60
0
100
AcDbLine
10
85
20
-11.675
30
0
11
96.7
21
-11.675
31
0
39
0
210
0
220
0
230
1
0
LINE
5
EB
100
AcDbEntity
8
1
62
256
6
ByLayer
370
18
48
1
60
0
100
AcDbLine
10
96.7
20
12.675
30
0
11
97.7
21
11.675
31
0
39
0
210
0
220
0
230
1
0
LINE
5
EC
100
AcDbEntity
8
1
62
256
6
ByLayer
370
18
48
1
60
0
100
AcDbLine
10
97.7
20
11.675
30
0
11
96.7
21
11.675
31
0
39
0
210
0
220
0
230
1
0
LINE
5
ED
100
AcDbEntity
8
1
62
256
6
ByLayer
370
18
48
1
60
0
100
AcDbLine
10
96.7
20
12.675
30
0
11
96.7
21
11.675
31
0
39
0
210
0
220
0
230
1
0
LINE
5
EE
100
AcDbEntity
8
1
62
256
6
ByLayer
370
18
48
1
60
0
100
AcDbLine
10
85
20
12.675
30
0
11
96.7
21
12.675
31
0
39
0
210
0
220
0
230
1
0
LINE
5
EF
100
AcDbEntity
8
1
62
256
6
ByLayer
370
18
48
1
60
0
100
AcDbLine
10
96.7
20
11.675
30
0
11
85
21
11.675
31
0
39
0
210
0
220
0
230
1
0
LINE
5
F0
100
AcDbEntity
8
SK1
62
256
6
ByLayer
370
18
48
1
60
0
100
AcDbLine
10
-50.8
20
10.11
30
0
11
-50.8
21
-10.11
31
0
39
0
210
0
220
0
230
1
0
LINE
5
F1
100
AcDbEntity
8
SK1
62
256
6
ByLayer
370
13
48
1
60
0
100
AcDbLine
10
-46.2
20
21.059464
30
0
11
-46.2
21
23.427375
31
0
39
0
210
0
220
0
230
1
0
LINE
5
F2
100
AcDbEntity
8
SK1
62
256
6
ByLayer
370
13
48
1
60
0
100
AcDbLine
10
-62.478362
20
20.274804
30
0
11
-61.789332
21
20.587617
31
0
39
0
210
0
220
0
230
1
0
LINE
5
F3
100
AcDbEntity
8
SK1
62
256
6
ByLayer
370
18
48
1
60
0
100
AcDbLine
10
-62.9
20
14.66
30
0
11
-62.9
21
17.330032
31
0
39
0
210
0
220
0
230
1
0
LINE
5
F4
100
AcDbEntity
8
SK1
62
256
6
ByLayer
370
18
48
1
60
0
100
AcDbLine
10
-62.9
20
14.66
30
0
11
-60.75
21
12.51
31
0
39
0
210
0
220
0
230
1
0
LINE
5
F5
100
AcDbEntity
8
SK1
62
256
6
ByLayer
370
18
48
1
60
0
100
AcDbLine
10
-62.9
20
-14.66
30
0
11
-60.75
21
-12.51
31
0
39
0
210
0
220
0
230
1
0
LINE
5
F6
100
AcDbEntity
8
SK1
62
256
6
ByLayer
370
18
48
1
60
0
100
AcDbLine
10
-62.9
20
-14.66
30
0
11
-62.9
21
-17.330032
31
0
39
0
210
0
220
0
230
1
0
LINE
5
F7
100
AcDbEntity
8
SK1
62
256
6
ByLayer
370
13
48
1
60
0
100
AcDbLine
10
-62.478362
20
-20.274804
30
0
11
-61.789332
21
-20.587617
31
0
39
0
210
0
220
0
230
1
0
LINE
5
F8
100
AcDbEntity
8
SK1
62
256
6
ByLayer
370
18
48
1
60
0
100
AcDbLine
10
-60.75
20
18.245342
30
0
11
-60.75
21
12.51
31
0
39
0
210
0
220
0
230
1
0
LINE
5
F9
100
AcDbEntity
8
SK1
62
256
6
ByLayer
370
18
48
1
60
0
100
AcDbLine
10
-46.2
20
12.51
30
0
11
-60.75
21
12.51
31
0
39
0
210
0
220
0
230
1
0
LINE
5
FA
100
AcDbEntity
8
SK1
62
256
6
ByLayer
370
13
48
1
60
0
100
AcDbLine
10
-46.2
20
21.059464
30
0
11
-48.133192
21
21.059464
31
0
39
0
210
0
220
0
230
1
0
LINE
5
FB
100
AcDbEntity
8
SK1
62
256
6
ByLayer
370
18
48
1
60
0
100
AcDbLine
10
-62.9
20
17.330032
30
0
11
-62.9
21
42.605065
31
0
39
0
210
0
220
0
230
1
0
LINE
5
FC
100
AcDbEntity
8
SK1
62
256
6
ByLayer
370
18
48
1
60
0
100
AcDbLine
10
-62.9
20
-17.330032
30
0
11
-62.9
21
-42.605065
31
0
39
0
210
0
220
0
230
1
0
LINE
5
FD
100
AcDbEntity
8
SK1
62
256
6
ByLayer
370
13
48
1
60
0
100
AcDbLine
10
-46.2
20
-21.059464
30
0
11
-48.133192
21
-21.059464
31
0
39
0
210
0
220
0
230
1
0
LINE
5
FE
100
AcDbEntity
8
SK1
62
256
6
ByLayer
370
18
48
1
60
0
100
AcDbLine
10
-46.2
20
-12.51
30
0
11
-60.75
21
-12.51
31
0
39
0
210
0
220
0
230
1
0
LINE
5
FF
100
AcDbEntity
8
SK1
62
256
6
ByLayer
370
18
48
1
60
0
100
AcDbLine
10
-60.75
20
-18.245342
30
0
11
-60.75
21
-12.51
31
0
39
0
210
0
220
0
230
1
0
LINE
5
100
100
AcDbEntity
8
SK1
62
256
6
ByLayer
370
13
48
1
60
0
100
AcDbLine
10
-46.2
20
-23.427375
30
0
11
-46.2
21
-21.059464
31
0
39
0
210
0
220
0
230
1
0
LINE
5
101
100
AcDbEntity
8
SK1
62
256
6
ByLayer
370
13
48
1
60
0
100
AcDbLine
10
-46.2
20
12.51
30
0
11
-46.2
21
21.059464
31
0
39
0
210
0
220
0
230
1
0
LINE
5
102
100
AcDbEntity
8
SK1
62
256
6
ByLayer
370
13
48
1
60
0
100
AcDbLine
10
-46.2
20
-21.059464
30
0
11
-46.2
21
-12.51
31
0
39
0
210
0
220
0
230
1
0
LINE
5
103
100
AcDbEntity
8
SK1
62
256
6
ByLayer
370
18
48
1
60
0
100
AcDbLine
10
-3.393782
20
47.583852
30
0
11
-3.393782
21
0
31
0
39
0
210
0
220
0
230
1
0
LINE
5
104
100
AcDbEntity
8
SK1
62
256
6
ByLayer
370
18
48
1
60
0
100
AcDbLine
10
-3.393782
20
0
30
0
11
-3.393782
21
-47.583852
31
0
39
0
210
0
220
0
230
1
0
LINE
5
105
100
AcDbEntity
8
SK1
62
256
6
ByLayer
370
13
48
1
60
0
100
AcDbLine
10
-60.525094
20
-18.296055
30
0
11
-60.525094
21
-45.101933
31
0
39
0
210
0
220
0
230
1
0
LINE
5
106
100
AcDbEntity
8
SK1
62
256
6
ByLayer
370
13
48
1
60
0
100
AcDbLine
10
-60.525094
20
18.296055
30
0
11
-60.525094
21
45.101933
31
0
39
0
210
0
220
0
230
1
0
LINE
5
107
100
AcDbEntity
8
SK1
62
256
6
ByLayer
370
18
48
1
60
0
100
AcDbLine
10
-43.8
20
15.69716
30
0
11
-43.8
21
-15.69716
31
0
39
0
210
0
220
0
230
1
0
LINE
5
108
100
AcDbEntity
8
SK1
62
256
6
ByLayer
370
18
48
1
60
0
100
AcDbLine
10
-4
20
-47.933852
30
0
11
-4
21
0
31
0
39
0
210
0
220
0
230
1
0
LINE
5
109
100
AcDbEntity
8
SK1
62
256
6
ByLayer
370
18
48
1
60
0
100
AcDbLine
10
-4
20
0
30
0
11
-4
21
47.933852
31
0
39
0
210
0
220
0
230
1
0
LINE
5
10A
100
AcDbEntity
8
SK1
62
256
6
ByLayer
370
13
48
1
60
0
100
AcDbLine
10
-1.4
20
47.583852
30
0
11
-1.4
21
0
31
0
39
0
210
0
220
0
230
1
0
LINE
5
10B
100
AcDbEntity
8
SK1
62
256
6
ByLayer
370
13
48
1
60
0
100
AcDbLine
10
-1.4
20
0
30
0
11
-1.4
21
-47.583852
31
0
39
0
210
0
220
0
230
1
0
LINE
5
10C
100
AcDbEntity
8
1
62
256
6
ByLayer
370
13
48
0.05
60
0
100
AcDbLine
10
-30.75
20
0
30
0
11
-6.25
21
0
31
0
39
0
210
0
220
0
230
1
0
LINE
5
10D
100
AcDbEntity
8
1
62
256
6
ByLayer
370
13
48
0.05
60
0
100
AcDbLine
10
-18.5
20
-12.25
30
0
11
-18.5
21
12.25
31
0
39
0
210
0
220
0
230
1
0
LINE
5
10E
100
AcDbEntity
8
SK2
62
256
6
ByLayer
370
18
48
1
60
0
100
AcDbLine
10
-79.875025
20
-62.46
30
0
11
-79.875025
21
62.46
31
0
39
0
210
0
220
0
230
1
0
LINE
5
110
100
AcDbEntity
8
SK2
62
256
6
ByLayer
370
18
48
1
60
0
100
AcDbLine
10
-0.8875
20
62.46
30
0
11
-81.875025
21
62.46
31
0
39
0
210
0
220
0
230
1
0
LINE
5
111
100
AcDbEntity
8
SK2
62
256
6
ByLayer
370
18
48
1
60
0
100
AcDbLine
10
-0.8875
20
-62.46
30
0
11
-81.875025
21
-62.46
31
0
39
0
210
0
220
0
230
1
0
LINE
5
112
100
AcDbEntity
8
1
62
256
6
ByLayer
370
18
48
1
60
1
100
AcDbLine
10
-79.875025
20
62.46
30
0
11
-79.414241
21
58.960002
31
0
39
0
210
0
220
0
230
1
0
LINE
5
113
100
AcDbEntity
8
1
62
256
6
ByLayer
370
18
48
1
60
1
100
AcDbLine
10
-79.414241
20
58.960002
30
0
11
-80.335809
21
58.959998
31
0
39
0
210
0
220
0
230
1
0
LINE
5
114
100
AcDbEntity
8
1
62
256
6
ByLayer
370
18
48
1
60
1
100
AcDbLine
10
-80.335809
20
58.959998
30
0
11
-79.875025
21
62.46
31
0
39
0
210
0
220
0
230
1
0
LINE
5
115
100
AcDbEntity
8
1
62
256
6
ByLayer
370
18
48
1
60
1
100
AcDbLine
10
-79.875025
20
-62.46
30
0
11
-80.335809
21
-58.960002
31
0
39
0
210
0
220
0
230
1
0
LINE
5
116
100
AcDbEntity
8
1
62
256
6
ByLayer
370
18
48
1
60
1
100
AcDbLine
10
-80.335809
20
-58.960002
30
0
11
-79.414241
21
-58.959998
31
0
39
0
210
0
220
0
230
1
0
LINE
5
117
100
AcDbEntity
8
1
62
256
6
ByLayer
370
18
48
1
60
1
100
AcDbLine
10
-79.414241
20
-58.959998
30
0
11
-79.875025
21
-62.46
31
0
39
0
210
0
220
0
230
1
0
LINE
5
118
100
AcDbEntity
8
SK2
62
256
6
ByLayer
370
18
48
1
60
0
100
AcDbLine
10
144.835939
20
-29.99525
30
0
11
144.835939
21
29.99525
31
0
39
0
210
0
220
0
230
1
0
LINE
5
119
100
AcDbEntity
8
SK2
62
256
6
ByLayer
370
18
48
1
60
0
100
AcDbLine
10
113.5875
20
29.99525
30
0
11
146.835939
21
29.99525
31
0
39
0
210
0
220
0
230
1
0
LINE
5
11A
100
AcDbEntity
8
SK2
62
256
6
ByLayer
370
18
48
1
60
0
100
AcDbLine
10
113.5875
20
-29.99525
30
0
11
146.835939
21
-29.99525
31
0
39
0
210
0
220
0
230
1
0
LINE
5
11B
100
AcDbEntity
8
1
62
256
6
ByLayer
370
18
48
1
60
1
100
AcDbLine
10
144.835939
20
29.99525
30
0
11
145.296723
21
26.495252
31
0
39
0
210
0
220
0
230
1
0
LINE
5
11C
100
AcDbEntity
8
1
62
256
6
ByLayer
370
18
48
1
60
1
100
AcDbLine
10
145.296723
20
26.495252
30
0
11
144.375156
21
26.495248
31
0
39
0
210
0
220
0
230
1
0
LINE
5
11D
100
AcDbEntity
8
1
62
256
6
ByLayer
370
18
48
1
60
1
100
AcDbLine
10
144.375156
20
26.495248
30
0
11
144.835939
21
29.99525
31
0
39
0
210
0
220
0
230
1
0
LINE
5
11E
100
AcDbEntity
8
1
62
256
6
ByLayer
370
18
48
1
60
1
100
AcDbLine
10
144.835939
20
-29.99525
30
0
11
144.375156
21
-26.495252
31
0
39
0
210
0
220
0
230
1
0
LINE
5
11F
100
AcDbEntity
8
1
62
256
6
ByLayer
370
18
48
1
60
1
100
AcDbLine
10
144.375156
20
-26.495252
30
0
11
145.296723
21
-26.495248
31
0
39
0
210
0
220
0
230
1
0
LINE
5
120
100
AcDbEntity
8
1
62
256
6
ByLayer
370
18
48
1
60
1
100
AcDbLine
10
145.296723
20
-26.495248
30
0
11
144.835939
21
-29.99525
31
0
39
0
210
0
220
0
230
1
0
LINE
5
121
100
AcDbEntity
8
SK2
62
256
6
ByLayer
370
18
48
1
60
0
100
AcDbLine
10
159.835939
20
55.25
30
0
11
159.835939
21
-55.25
31
0
39
0
210
0
220
0
230
1
0
LINE
5
122
100
AcDbEntity
8
SK2
62
256
6
ByLayer
370
18
48
1
60
0
100
AcDbLine
10
46.5875
20
-55.25
30
0
11
161.835939
21
-55.25
31
0
39
0
210
0
220
0
230
1
0
LINE
5
123
100
AcDbEntity
8
SK2
62
256
6
ByLayer
370
18
48
1
60
0
100
AcDbLine
10
46.5875
20
55.25
30
0
11
161.835939
21
55.25
31
0
39
0
210
0
220
0
230
1
0
LINE
5
124
100
AcDbEntity
8
1
62
256
6
ByLayer
370
18
48
1
60
1
100
AcDbLine
10
159.835939
20
-55.25
30
0
11
159.375156
21
-51.750002
31
0
39
0
210
0
220
0
230
1
0
LINE
5
125
100
AcDbEntity
8
1
62
256
6
ByLayer
370
18
48
1
60
1
100
AcDbLine
10
159.375156
20
-51.750002
30
0
11
160.296723
21
-51.749998
31
0
39
0
210
0
220
0
230
1
0
LINE
5
126
100
AcDbEntity
8
1
62
256
6
ByLayer
370
18
48
1
60
1
100
AcDbLine
10
160.296723
20
-51.749998
30
0
11
159.835939
21
-55.25
31
0
39
0
210
0
220
0
230
1
0
LINE
5
127
100
AcDbEntity
8
1
62
256
6
ByLayer
370
18
48
1
60
1
100
AcDbLine
10
159.835939
20
55.25
30
0
11
160.296723
21
51.750002
31
0
39
0
210
0
220
0
230
1
0
LINE
5
128
100
AcDbEntity
8
1
62
256
6
ByLayer
370
18
48
1
60
1
100
AcDbLine
10
160.296723
20
51.750002
30
0
11
159.375156
21
51.749998
31
0
39
0
210
0
220
0
230
1
0
LINE
5
129
100
AcDbEntity
8
1
62
256
6
ByLayer
370
18
48
1
60
1
100
AcDbLine
10
159.375156
20
51.749998
30
0
11
159.835939
21
55.25
31
0
39
0
210
0
220
0
230
1
0
LINE
5
12A
100
AcDbEntity
8
SK2
62
256
6
ByLayer
370
18
48
1
60
0
100
AcDbLine
10
169.835939
20
65
30
0
11
169.835939
21
-65
31
0
39
0
210
0
220
0
230
1
0
LINE
5
12B
100
AcDbEntity
8
SK2
62
256
6
ByLayer
370
18
48
1
60
0
100
AcDbLine
10
85.0875
20
-65
30
0
11
171.835939
21
-65
31
0
39
0
210
0
220
0
230
1
0
LINE
5
12C
100
AcDbEntity
8
SK2
62
256
6
ByLayer
370
18
48
1
60
0
100
AcDbLine
10
85.0875
20
65
30
0
11
171.835939
21
65
31
0
39
0
210
0
220
0
230
1
0
LINE
5
12D
100
AcDbEntity
8
1
62
256
6
ByLayer
370
18
48
1
60
1
100
AcDbLine
10
169.835939
20
-65
30
0
11
169.375156
21
-61.500002
31
0
39
0
210
0
220
0
230
1
0
LINE
5
12E
100
AcDbEntity
8
1
62
256
6
ByLayer
370
18
48
1
60
1
100
AcDbLine
10
169.375156
20
-61.500002
30
0
11
170.296723
21
-61.499998
31
0
39
0
210
0
220
0
230
1
0
LINE
5
12F
100
AcDbEntity
8
1
62
256
6
ByLayer
370
18
48
1
60
1
100
AcDbLine
10
170.296723
20
-61.499998
30
0
11
169.835939
21
-65
31
0
39
0
210
0
220
0
230
1
0
LINE
5
130
100
AcDbEntity
8
1
62
256
6
ByLayer
370
18
48
1
60
1
100
AcDbLine
10
169.835939
20
65
30
0
11
170.296723
21
61.500002
31
0
39
0
210
0
220
0
230
1
0
LINE
5
131
100
AcDbEntity
8
1
62
256
6
ByLayer
370
18
48
1
60
1
100
AcDbLine
10
170.296723
20
61.500002
30
0
11
169.375156
21
61.499998
31
0
39
0
210
0
220
0
230
1
0
LINE
5
132
100
AcDbEntity
8
1
62
256
6
ByLayer
370
18
48
1
60
1
100
AcDbLine
10
169.375156
20
61.499998
30
0
11
169.835939
21
65
31
0
39
0
210
0
220
0
230
1
0
LINE
5
133
100
AcDbEntity
8
SK2
62
256
6
ByLayer
370
18
48
1
60
0
100
AcDbLine
10
-62.9
20
92.85
30
0
11
0
21
92.85
31
0
39
0
210
0
220
0
230
1
0
LINE
5
134
100
AcDbEntity
8
SK2
62
256
6
ByLayer
370
18
48
1
60
0
100
AcDbLine
10
0
20
63.3475
30
0
11
0
21
94.85
31
0
39
0
210
0
220
0
230
1
0
LINE
5
135
100
AcDbEntity
8
SK2
62
256
6
ByLayer
370
18
48
1
60
0
100
AcDbLine
10
-62.9
20
44.192565
30
0
11
-62.9
21
94.85
31
0
39
0
210
0
220
0
230
1
0
LINE
5
136
100
AcDbEntity
8
1
62
256
6
ByLayer
370
18
48
1
60
1
100
AcDbLine
10
0
20
92.85
30
0
11
-3.499998
21
92.389216
31
0
39
0
210
0
220
0
230
1
0
LINE
5
137
100
AcDbEntity
8
1
62
256
6
ByLayer
370
18
48
1
60
1
100
AcDbLine
10
-3.499998
20
92.389216
30
0
11
-3.500002
21
93.310784
31
0
39
0
210
0
220
0
230
1
0
LINE
5
138
100
AcDbEntity
8
1
62
256
6
ByLayer
370
18
48
1
60
1
100
AcDbLine
10
-3.500002
20
93.310784
30
0
11
0
21
92.85
31
0
39
0
210
0
220
0
230
1
0
LINE
5
139
100
AcDbEntity
8
1
62
256
6
ByLayer
370
18
48
1
60
1
100
AcDbLine
10
-62.9
20
92.85
30
0
11
-59.400002
21
93.310784
31
0
39
0
210
0
220
0
230
1
0
LINE
5
13A
100
AcDbEntity
8
1
62
256
6
ByLayer
370
18
48
1
60
1
100
AcDbLine
10
-59.400002
20
93.310784
30
0
11
-59.399998
21
92.389216
31
0
39
0
210
0
220
0
230
1
0
LINE
5
13B
100
AcDbEntity
8
1
62
256
6
ByLayer
370
18
48
1
60
1
100
AcDbLine
10
-59.399998
20
92.389216
30
0
11
-62.9
21
92.85
31
0
39
0
210
0
220
0
230
1
0
LINE
5
13C
100
AcDbEntity
8
SK2
62
256
6
ByLayer
370
18
48
1
60
0
100
AcDbLine
10
0
20
82.85
30
0
11
46
21
82.85
31
0
39
0
210
0
220
0
230
1
0
LINE
5
13D
100
AcDbEntity
8
SK2
62
256
6
ByLayer
370
18
48
1
60
0
100
AcDbLine
10
46
20
65.5875
30
0
11
46
21
84.85
31
0
39
0
210
0
220
0
230
1
0
LINE
5
13E
100
AcDbEntity
8
SK2
62
256
6
ByLayer
370
18
48
1
60
0
100
AcDbLine
10
0
20
63.3475
30
0
11
0
21
84.85
31
0
39
0
210
0
220
0
230
1
0
LINE
5
13F
100
AcDbEntity
8
1
62
256
6
ByLayer
370
18
48
1
60
1
100
AcDbLine
10
46
20
82.85
30
0
11
42.500002
21
82.389216
31
0
39
0
210
0
220
0
230
1
0
LINE
5
140
100
AcDbEntity
8
1
62
256
6
ByLayer
370
18
48
1
60
1
100
AcDbLine
10
42.500002
20
82.389216
30
0
11
42.499998
21
83.310784
31
0
39
0
210
0
220
0
230
1
0
LINE
5
141
100
AcDbEntity
8
1
62
256
6
ByLayer
370
18
48
1
60
1
100
AcDbLine
10
42.499998
20
83.310784
30
0
11
46
21
82.85
31
0
39
0
210
0
220
0
230
1
0
LINE
5
142
100
AcDbEntity
8
1
62
256
6
ByLayer
370
18
48
1
60
1
100
AcDbLine
10
0
20
82.85
30
0
11
3.499998
21
83.310784
31
0
39
0
210
0
220
0
230
1
0
LINE
5
143
100
AcDbEntity
8
1
62
256
6
ByLayer
370
18
48
1
60
1
100
AcDbLine
10
3.499998
20
83.310784
30
0
11
3.500002
21
82.389216
31
0
39
0
210
0
220
0
230
1
0
LINE
5
144
100
AcDbEntity
8
1
62
256
6
ByLayer
370
18
48
1
60
1
100
AcDbLine
10
3.500002
20
82.389216
30
0
11
0
21
82.85
31
0
39
0
210
0
220
0
230
1
0
LINE
5
145
100
AcDbEntity
8
2
62
256
6
ByLayer
370
18
48
1
60
0
100
AcDbLine
10
0
20
92.85
30
0
11
85
21
92.85
31
0
39
0
210
0
220
0
230
1
0
LINE
5
146
100
AcDbEntity
8
2
62
256
6
ByLayer
370
18
48
1
60
0
100
AcDbLine
10
85
20
65.0875
30
0
11
85
21
94.85
31
0
39
0
210
0
220
0
230
1
0
LINE
5
147
100
AcDbEntity
8
2
62
256
6
ByLayer
370
18
48
1
60
0
100
AcDbLine
10
0
20
63.3475
30
0
11
0
21
94.85
31
0
39
0
210
0
220
0
230
1
0
LINE
5
148
100
AcDbEntity
8
1
62
256
6
ByLayer
370
18
48
1
60
1
100
AcDbLine
10
85
20
92.85
30
0
11
81.500002
21
92.389216
31
0
39
0
210
0
220
0
230
1
0
LINE
5
149
100
AcDbEntity
8
1
62
256
6
ByLayer
370
18
48
1
60
1
100
AcDbLine
10
81.500002
20
92.389216
30
0
11
81.499998
21
93.310784
31
0
39
0
210
0
220
0
230
1
0
LINE
5
14A
100
AcDbEntity
8
1
62
256
6
ByLayer
370
18
48
1
60
1
100
AcDbLine
10
81.499998
20
93.310784
30
0
11
85
21
92.85
31
0
39
0
210
0
220
0
230
1
0
LINE
5
14B
100
AcDbEntity
8
1
62
256
6
ByLayer
370
18
48
1
60
1
100
AcDbLine
10
0
20
92.85
30
0
11
3.499998
21
93.310784
31
0
39
0
210
0
220
0
230
1
0
LINE
5
14C
100
AcDbEntity
8
1
62
256
6
ByLayer
370
18
48
1
60
1
100
AcDbLine
10
3.499998
20
93.310784
30
0
11
3.500002
21
92.389216
31
0
39
0
210
0
220
0
230
1
0
LINE
5
14D
100
AcDbEntity
8
1
62
256
6
ByLayer
370
18
48
1
60
1
100
AcDbLine
10
3.500002
20
92.389216
30
0
11
0
21
92.85
31
0
39
0
210
0
220
0
230
1
0
LINE
5
14E
100
AcDbEntity
8
SK2
62
256
6
ByLayer
370
18
48
1
60
0
100
AcDbLine
10
85
20
75.85
30
0
11
114
21
75.85
31
0
39
0
210
0
220
0
230
1
0
LINE
5
14F
100
AcDbEntity
8
SK2
62
256
6
ByLayer
370
18
48
1
60
0
100
AcDbLine
10
114
20
30.428049
30
0
11
114
21
77.85
31
0
39
0
210
0
220
0
230
1
0
LINE
5
150
100
AcDbEntity
8
SK2
62
256
6
ByLayer
370
18
48
1
60
0
100
AcDbLine
10
85
20
65.0875
30
0
11
85
21
77.85
31
0
39
0
210
0
220
0
230
1
0
LINE
5
151
100
AcDbEntity
8
1
62
256
6
ByLayer
370
18
48
1
60
1
100
AcDbLine
10
114
20
75.85
30
0
11
110.500002
21
75.389216
31
0
39
0
210
0
220
0
230
1
0
LINE
5
152
100
AcDbEntity
8
1
62
256
6
ByLayer
370
18
48
1
60
1
100
AcDbLine
10
110.500002
20
75.389216
30
0
11
110.499998
21
76.310784
31
0
39
0
210
0
220
0
230
1
0
LINE
5
153
100
AcDbEntity
8
1
62
256
6
ByLayer
370
18
48
1
60
1
100
AcDbLine
10
110.499998
20
76.310784
30
0
11
114
21
75.85
31
0
39
0
210
0
220
0
230
1
0
LINE
5
154
100
AcDbEntity
8
1
62
256
6
ByLayer
370
18
48
1
60
1
100
AcDbLine
10
85
20
75.85
30
0
11
88.499998
21
76.310784
31
0
39
0
210
0
220
0
230
1
0
LINE
5
155
100
AcDbEntity
8
1
62
256
6
ByLayer
370
18
48
1
60
1
100
AcDbLine
10
88.499998
20
76.310784
30
0
11
88.500002
21
75.389216
31
0
39
0
210
0
220
0
230
1
0
LINE
5
156
100
AcDbEntity
8
1
62
256
6
ByLayer
370
18
48
1
60
1
100
AcDbLine
10
88.500002
20
75.389216
30
0
11
85
21
75.85
31
0
39
0
210
0
220
0
230
1
0
LINE
5
197
100
AcDbEntity
8
1
62
256
6
ByLayer
370
13
48
0.05
60
0
100
AcDbLine
10
20
20
-64.448848
30
0
11
20
21
-44.067024
31
0
39
0
210
0
220
0
230
1
0
LINE
5
198
100
AcDbEntity
8
1
62
256
6
ByLayer
370
13
48
0.05
60
0
100
AcDbLine
10
20
20
-65.089814
30
0
11
20
21
-45.234449
31
0
39
0
210
0
220
0
230
1
0
LINE
5
199
100
AcDbEntity
8
1
62
256
6
ByLayer
370
13
48
0.05
60
0
100
AcDbLine
10
-67.25
20
0
30
0
11
120.5
21
0
31
0
39
0
210
0
220
0
230
1
0
LINE
5
19E
100
AcDbEntity
8
1
62
256
6
ByLayer
370
18
48
1
60
1
100
AcDbLine
10
-79.875025
20
62.46
30
0
11
-79.414241
21
58.960002
31
0
39
0
210
0
220
0
230
1
0
LINE
5
19F
100
AcDbEntity
8
1
62
256
6
ByLayer
370
18
48
1
60
1
100
AcDbLine
10
-79.414241
20
58.960002
30
0
11
-80.335809
21
58.959998
31
0
39
0
210
0
220
0
230
1
0
LINE
5
1A0
100
AcDbEntity
8
1
62
256
6
ByLayer
370
18
48
1
60
1
100
AcDbLine
10
-80.335809
20
58.959998
30
0
11
-79.875025
21
62.46
31
0
39
0
210
0
220
0
230
1
0
LINE
5
1A2
100
AcDbEntity
8
1
62
256
6
ByLayer
370
18
48
1
60
1
100
AcDbLine
10
-79.875025
20
-62.46
30
0
11
-80.335809
21
-58.960002
31
0
39
0
210
0
220
0
230
1
0
LINE
5
1A3
100
AcDbEntity
8
1
62
256
6
ByLayer
370
18
48
1
60
1
100
AcDbLine
10
-80.335809
20
-58.960002
30
0
11
-79.414241
21
-58.959998
31
0
39
0
210
0
220
0
230
1
0
LINE
5
1A4
100
AcDbEntity
8
1
62
256
6
ByLayer
370
18
48
1
60
1
100
AcDbLine
10
-79.414241
20
-58.959998
30
0
11
-79.875025
21
-62.46
31
0
39
0
210
0
220
0
230
1
0
LINE
5
1A8
100
AcDbEntity
8
1
62
256
6
ByLayer
370
18
48
1
60
1
100
AcDbLine
10
144.835939
20
29.99525
30
0
11
145.296723
21
26.495252
31
0
39
0
210
0
220
0
230
1
0
LINE
5
1A9
100
AcDbEntity
8
1
62
256
6
ByLayer
370
18
48
1
60
1
100
AcDbLine
10
145.296723
20
26.495252
30
0
11
144.375156
21
26.495248
31
0
39
0
210
0
220
0
230
1
0
LINE
5
1AA
100
AcDbEntity
8
1
62
256
6
ByLayer
370
18
48
1
60
1
100
AcDbLine
10
144.375156
20
26.495248
30
0
11
144.835939
21
29.99525
31
0
39
0
210
0
220
0
230
1
0
LINE
5
1AC
100
AcDbEntity
8
1
62
256
6
ByLayer
370
18
48
1
60
1
100
AcDbLine
10
144.835939
20
-29.99525
30
0
11
144.375156
21
-26.495252
31
0
39
0
210
0
220
0
230
1
0
LINE
5
1AD
100
AcDbEntity
8
1
62
256
6
ByLayer
370
18
48
1
60
1
100
AcDbLine
10
144.375156
20
-26.495252
30
0
11
145.296723
21
-26.495248
31
0
39
0
210
0
220
0
230
1
0
LINE
5
1AE
100
AcDbEntity
8
1
62
256
6
ByLayer
370
18
48
1
60
1
100
AcDbLine
10
145.296723
20
-26.495248
30
0
11
144.835939
21
-29.99525
31
0
39
0
210
0
220
0
230
1
0
LINE
5
1B2
100
AcDbEntity
8
1
62
256
6
ByLayer
370
18
48
1
60
1
100
AcDbLine
10
159.835939
20
-55.25
30
0
11
159.375156
21
-51.750002
31
0
39
0
210
0
220
0
230
1
0
LINE
5
1B3
100
AcDbEntity
8
1
62
256
6
ByLayer
370
18
48
1
60
1
100
AcDbLine
10
159.375156
20
-51.750002
30
0
11
160.296723
21
-51.749998
31
0
39
0
210
0
220
0
230
1
0
LINE
5
1B4
100
AcDbEntity
8
1
62
256
6
ByLayer
370
18
48
1
60
1
100
AcDbLine
10
160.296723
20
-51.749998
30
0
11
159.835939
21
-55.25
31
0
39
0
210
0
220
0
230
1
0
LINE
5
1B6
100
AcDbEntity
8
1
62
256
6
ByLayer
370
18
48
1
60
1
100
AcDbLine
10
159.835939
20
55.25
30
0
11
160.296723
21
51.750002
31
0
39
0
210
0
220
0
230
1
0
LINE
5
1B7
100
AcDbEntity
8
1
62
256
6
ByLayer
370
18
48
1
60
1
100
AcDbLine
10
160.296723
20
51.750002
30
0
11
159.375156
21
51.749998
31
0
39
0
210
0
220
0
230
1
0
LINE
5
1B8
100
AcDbEntity
8
1
62
256
6
ByLayer
370
18
48
1
60
1
100
AcDbLine
10
159.375156
20
51.749998
30
0
11
159.835939
21
55.25
31
0
39
0
210
0
220
0
230
1
0
LINE
5
1BC
100
AcDbEntity
8
1
62
256
6
ByLayer
370
18
48
1
60
1
100
AcDbLine
10
169.835939
20
-65
30
0
11
169.375156
21
-61.500002
31
0
39
0
210
0
220
0
230
1
0
LINE
5
1BD
100
AcDbEntity
8
1
62
256
6
ByLayer
370
18
48
1
60
1
100
AcDbLine
10
169.375156
20
-61.500002
30
0
11
170.296723
21
-61.499998
31
0
39
0
210
0
220
0
230
1
0
LINE
5
1BE
100
AcDbEntity
8
1
62
256
6
ByLayer
370
18
48
1
60
1
100
AcDbLine
10
170.296723
20
-61.499998
30
0
11
169.835939
21
-65
31
0
39
0
210
0
220
0
230
1
0
LINE
5
1C0
100
AcDbEntity
8
1
62
256
6
ByLayer
370
18
48
1
60
1
100
AcDbLine
10
169.835939
20
65
30
0
11
170.296723
21
61.500002
31
0
39
0
210
0
220
0
230
1
0
LINE
5
1C1
100
AcDbEntity
8
1
62
256
6
ByLayer
370
18
48
1
60
1
100
AcDbLine
10
170.296723
20
61.500002
30
0
11
169.375156
21
61.499998
31
0
39
0
210
0
220
0
230
1
0
LINE
5
1C2
100
AcDbEntity
8
1
62
256
6
ByLayer
370
18
48
1
60
1
100
AcDbLine
10
169.375156
20
61.499998
30
0
11
169.835939
21
65
31
0
39
0
210
0
220
0
230
1
0
LINE
5
1C5
100
AcDbEntity
8
1
62
256
6
ByLayer
370
18
48
1
60
1
100
AcDbLine
10
0
20
92.85
30
0
11
-3.499998
21
92.389216
31
0
39
0
210
0
220
0
230
1
0
LINE
5
1C6
100
AcDbEntity
8
1
62
256
6
ByLayer
370
18
48
1
60
1
100
AcDbLine
10
-3.499998
20
92.389216
30
0
11
-3.500002
21
93.310784
31
0
39
0
210
0
220
0
230
1
0
LINE
5
1C7
100
AcDbEntity
8
1
62
256
6
ByLayer
370
18
48
1
60
1
100
AcDbLine
10
-3.500002
20
93.310784
30
0
11
0
21
92.85
31
0
39
0
210
0
220
0
230
1
0
LINE
5
1C9
100
AcDbEntity
8
1
62
256
6
ByLayer
370
18
48
1
60
1
100
AcDbLine
10
-62.9
20
92.85
30
0
11
-59.400002
21
93.310784
31
0
39
0
210
0
220
0
230
1
0
LINE
5
1CA
100
AcDbEntity
8
1
62
256
6
ByLayer
370
18
48
1
60
1
100
AcDbLine
10
-59.400002
20
93.310784
30
0
11
-59.399998
21
92.389216
31
0
39
0
210
0
220
0
230
1
0
LINE
5
1CB
100
AcDbEntity
8
1
62
256
6
ByLayer
370
18
48
1
60
1
100
AcDbLine
10
-59.399998
20
92.389216
30
0
11
-62.9
21
92.85
31
0
39
0
210
0
220
0
230
1
0
LINE
5
1CE
100
AcDbEntity
8
1
62
256
6
ByLayer
370
18
48
1
60
1
100
AcDbLine
10
46
20
82.85
30
0
11
42.500002
21
82.389216
31
0
39
0
210
0
220
0
230
1
0
LINE
5
1CF
100
AcDbEntity
8
1
62
256
6
ByLayer
370
18
48
1
60
1
100
AcDbLine
10
42.500002
20
82.389216
30
0
11
42.499998
21
83.310784
31
0
39
0
210
0
220
0
230
1
0
LINE
5
1D0
100
AcDbEntity
8
1
62
256
6
ByLayer
370
18
48
1
60
1
100
AcDbLine
10
42.499998
20
83.310784
30
0
11
46
21
82.85
31
0
39
0
210
0
220
0
230
1
0
LINE
5
1D2
100
AcDbEntity
8
1
62
256
6
ByLayer
370
18
48
1
60
1
100
AcDbLine
10
0
20
82.85
30
0
11
3.499998
21
83.310784
31
0
39
0
210
0
220
0
230
1
0
LINE
5
1D3
100
AcDbEntity
8
1
62
256
6
ByLayer
370
18
48
1
60
1
100
AcDbLine
10
3.499998
20
83.310784
30
0
11
3.500002
21
82.389216
31
0
39
0
210
0
220
0
230
1
0
LINE
5
1D4
100
AcDbEntity
8
1
62
256
6
ByLayer
370
18
48
1
60
1
100
AcDbLine
10
3.500002
20
82.389216
30
0
11
0
21
82.85
31
0
39
0
210
0
220
0
230
1
0
LINE
5
1D8
100
AcDbEntity
8
1
62
256
6
ByLayer
370
18
48
1
60
1
100
AcDbLine
10
85
20
92.85
30
0
11
81.500002
21
92.389216
31
0
39
0
210
0
220
0
230
1
0
LINE
5
1D9
100
AcDbEntity
8
1
62
256
6
ByLayer
370
18
48
1
60
1
100
AcDbLine
10
81.500002
20
92.389216
30
0
11
81.499998
21
93.310784
31
0
39
0
210
0
220
0
230
1
0
LINE
5
1DA
100
AcDbEntity
8
1
62
256
6
ByLayer
370
18
48
1
60
1
100
AcDbLine
10
81.499998
20
93.310784
30
0
11
85
21
92.85
31
0
39
0
210
0
220
0
230
1
0
LINE
5
1DC
100
AcDbEntity
8
1
62
256
6
ByLayer
370
18
48
1
60
1
100
AcDbLine
10
0
20
92.85
30
0
11
3.499998
21
93.310784
31
0
39
0
210
0
220
0
230
1
0
LINE
5
1DD
100
AcDbEntity
8
1
62
256
6
ByLayer
370
18
48
1
60
1
100
AcDbLine
10
3.499998
20
93.310784
30
0
11
3.500002
21
92.389216
31
0
39
0
210
0
220
0
230
1
0
LINE
5
1DE
100
AcDbEntity
8
1
62
256
6
ByLayer
370
18
48
1
60
1
100
AcDbLine
10
3.500002
20
92.389216
30
0
11
0
21
92.85
31
0
39
0
210
0
220
0
230
1
0
LINE
5
1E1
100
AcDbEntity
8
1
62
256
6
ByLayer
370
18
48
1
60
1
100
AcDbLine
10
114
20
75.85
30
0
11
110.500002
21
75.389216
31
0
39
0
210
0
220
0
230
1
0
LINE
5
1E2
100
AcDbEntity
8
1
62
256
6
ByLayer
370
18
48
1
60
1
100
AcDbLine
10
110.500002
20
75.389216
30
0
11
110.499998
21
76.310784
31
0
39
0
210
0
220
0
230
1
0
LINE
5
1E3
100
AcDbEntity
8
1
62
256
6
ByLayer
370
18
48
1
60
1
100
AcDbLine
10
110.499998
20
76.310784
30
0
11
114
21
75.85
31
0
39
0
210
0
220
0
230
1
0
LINE
5
1E5
100
AcDbEntity
8
1
62
256
6
ByLayer
370
18
48
1
60
1
100
AcDbLine
10
85
20
75.85
30
0
11
88.499998
21
76.310784
31
0
39
0
210
0
220
0
230
1
0
LINE
5
1E6
100
AcDbEntity
8
1
62
256
6
ByLayer
370
18
48
1
60
1
100
AcDbLine
10
88.499998
20
76.310784
30
0
11
88.500002
21
75.389216
31
0
39
0
210
0
220
0
230
1
0
LINE
5
1E7
100
AcDbEntity
8
1
62
256
6
ByLayer
370
18
48
1
60
1
100
AcDbLine
10
88.500002
20
75.389216
30
0
11
85
21
75.85
31
0
39
0
210
0
220
0
230
1
0
MTEXT
5
19A
100
AcDbEntity
8
SK2
62
256
6
ByLayer
370
18
48
1
60
0
100
AcDbMText
10
-81.439659
20
-5.400922
30
0
210
0
220
0
230
1
1
%%c
40
3.5
41
0
44
1.084337
50
90
71
7
72
5
7
iso_b_vert
0
MTEXT
5
19D
100
AcDbEntity
8
SK2
62
256
6
ByLayer
370
18
48
1
60
0
100
AcDbMText
10
-81.439659
20
1.571734
30
0
210
0
220
0
230
1
1
\W0.6217;125
40
3.5
41
0
44
1.084337
50
90
71
7
72
5
7
iso_b_vert
0
MTEXT
5
1A6
100
AcDbEntity
8
SK2
62
256
6
ByLayer
370
18
48
1
60
0
100
AcDbMText
10
143.271306
20
-4.530622
30
0
210
0
220
0
230
1
1
%%c
40
3.5
41
0
44
1.084337
50
90
71
7
72
5
7
iso_b_vert
0
MTEXT
5
1A7
100
AcDbEntity
8
SK2
62
256
6
ByLayer
370
18
48
1
60
0
100
AcDbMText
10
143.271306
20
2.442034
30
0
210
0
220
0
230
1
1
\W0.6740;60
40
3.5
41
0
44
1.084337
50
90
71
7
72
5
7
iso_b_vert
0
MTEXT
5
1B0
100
AcDbEntity
8
SK2
62
256
6
ByLayer
370
18
48
1
60
0
100
AcDbMText
10
158.271306
20
-6.980222
30
0
210
0
220
0
230
1
1
%%c
40
3.5
41
0
44
1.084337
50
90
71
7
72
5
7
iso_b_vert
0
MTEXT
5
1B1
100
AcDbEntity
8
SK2
62
256
6
ByLayer
370
18
48
1
60
0
100
AcDbMText
10
158.271306
20
-0.007566
30
0
210
0
220
0
230
1
1
\W0.6261;110.5
40
3.5
41
0
44
1.084337
50
90
71
7
72
5
7
iso_b_vert
0
MTEXT
5
1BA
100
AcDbEntity
8
SK2
62
256
6
ByLayer
370
18
48
1
60
0
100
AcDbMText
10
168.271306
20
-5.400922
30
0
210
0
220
0
230
1
1
%%c
40
3.5
41
0
44
1.084337
50
90
71
7
72
5
7
iso_b_vert
0
MTEXT
5
1BB
100
AcDbEntity
8
SK2
62
256
6
ByLayer
370
18
48
1
60
0
100
AcDbMText
10
168.271306
20
1.571734
30
0
210
0
220
0
230
1
1
\W0.6217;130
40
3.5
41
0
44
1.084337
50
90
71
7
72
5
7
iso_b_vert
0
MTEXT
5
1C4
100
AcDbEntity
8
SK2
62
256
6
ByLayer
370
18
48
1
60
0
100
AcDbMText
10
-35.371699
20
93.882634
30
0
210
0
220
0
230
1
1
\W0.7457;62.9
40
3.5
41
0
44
1.084337
50
0
71
7
72
5
7
iso_b_vert
0
MTEXT
5
1CD
100
AcDbEntity
8
SK2
62
256
6
ByLayer
370
18
48
1
60
0
100
AcDbMText
10
20.910767
20
83.882634
30
0
210
0
220
0
230
1
1
\W0.7361;46
40
3.5
41
0
44
1.084337
50
0
71
7
72
5
7
iso_b_vert
0
MTEXT
5
1D6
100
AcDbEntity
8
2
62
256
6
ByLayer
370
18
48
1
60
0
100
AcDbMText
10
41.888934
20
93.882634
30
0
210
0
220
0
230
1
1
\W0.8277;\W0.4138;%%p\W0.8277;0.1
40
3.5
41
0
44
1.084337
50
0
71
7
72
5
7
iso_b_vert
0
MTEXT
5
1D7
100
AcDbEntity
8
2
62
256
6
ByLayer
370
18
48
1
60
0
100
AcDbMText
10
34.208001
20
93.882634
30
0
210
0
220
0
230
1
1
\W0.6740;85
40
3.5
41
0
44
1.084337
50
0
71
7
72
5
7
iso_b_vert
0
MTEXT
5
1E0
100
AcDbEntity
8
SK2
62
256
6
ByLayer
370
18
48
1
60
0
100
AcDbMText
10
97.595034
20
76.882634
30
0
210
0
220
0
230
1
1
\W0.6927;29
40
3.5
41
0
44
1.084337
50
0
71
7
72
5
7
iso_b_vert
0
MTEXT
5
1E9
100
AcDbEntity
8
SK6
62
256
6
ByLayer
370
18
48
1
60
0
100
AcDbMText
10
55.465289
20
-92.114886
30
0
210
0
220
0
230
1
1
\W0.7639;HA12-AR60-A130-085
40
3
41
0
44
1.084337
50
0
71
7
72
5
7
iso_b_vert
0
HATCH
5
1A1
100
AcDbEntity
8
SK2
62
256
6
ByLayer
370
13
48
1
60
0
100
AcDbHatch
10
0
20
0
30
0
210
0
220
0
230
1
2
ANSI31
70
0
71
0
91
1
92
5
93
3
72
1
10
-79.875025
20
62.46
11
-79.4142412584472
21
58.9600016925532
72
1
10
-79.4142412584472
20
58.9600016925532
11
-80.3358087415528
21
58.9599983074468
72
1
10
-80.3358087415528
20
58.9599983074468
11
-79.875025
21
62.46
97
0
75
0
76
1
52
0
41
0.0062
77
0
78
1
53
45
43
0
44
0
45
-0.0139193969876572
46
0.0139193969876572
79
0
47
0
98
1
10
0
20
0
0
HATCH
5
1A5
100
AcDbEntity
8
SK2
62
256
6
ByLayer
370
13
48
1
60
0
100
AcDbHatch
10
0
20
0
30
0
210
0
220
0
230
1
2
ANSI31
70
0
71
0
91
1
92
5
93
3
72
1
10
-79.875025
20
-62.46
11
-80.3358087415528
21
-58.9600016925532
72
1
10
-80.3358087415528
20
-58.9600016925532
11
-79.4142412584472
21
-58.9599983074468
72
1
10
-79.4142412584472
20
-58.9599983074468
11
-79.875025
21
-62.46
97
0
75
0
76
1
52
0
41
0.0062
77
0
78
1
53
45
43
0
44
0
45
-0.0139193969876572
46
0.0139193969876572
79
0
47
0
98
1
10
0
20
0
0
HATCH
5
1AB
100
AcDbEntity
8
SK2
62
256
6
ByLayer
370
13
48
1
60
0
100
AcDbHatch
10
0
20
0
30
0
210
0
220
0
230
1
2
ANSI31
70
0
71
0
91
1
92
5
93
3
72
1
10
144.83593941277
20
29.99525
11
145.296723154323
21
26.4952516925532
72
1
10
145.296723154323
20
26.4952516925532
11
144.375155671218
21
26.4952483074468
72
1
10
144.375155671218
20
26.4952483074468
11
144.83593941277
21
29.99525
97
0
75
0
76
1
52
0
41
0.0062
77
0
78
1
53
45
43
0
44
0
45
-0.0139193969876572
46
0.0139193969876572
79
0
47
0
98
1
10
0
20
0
0
HATCH
5
1AF
100
AcDbEntity
8
SK2
62
256
6
ByLayer
370
13
48
1
60
0
100
AcDbHatch
10
0
20
0
30
0
210
0
220
0
230
1
2
ANSI31
70
0
71
0
91
1
92
5
93
3
72
1
10
144.83593941277
20
-29.99525
11
144.375155671218
21
-26.4952516925532
72
1
10
144.375155671218
20
-26.4952516925532
11
145.296723154323
21
-26.4952483074468
72
1
10
145.296723154323
20
-26.4952483074468
11
144.83593941277
21
-29.99525
97
0
75
0
76
1
52
0
41
0.0062
77
0
78
1
53
45
43
0
44
0
45
-0.0139193969876572
46
0.0139193969876572
79
0
47
0
98
1
10
0
20
0
0
HATCH
5
1B5
100
AcDbEntity
8
SK2
62
256
6
ByLayer
370
13
48
1
60
0
100
AcDbHatch
10
0
20
0
30
0
210
0
220
0
230
1
2
ANSI31
70
0
71
0
91
1
92
5
93
3
72
1
10
159.83593941277
20
-55.25
11
159.375155671218
21
-51.7500016925532
72
1
10
159.375155671218
20
-51.7500016925532
11
160.296723154323
21
-51.7499983074468
72
1
10
160.296723154323
20
-51.7499983074468
11
159.83593941277
21
-55.25
97
0
75
0
76
1
52
0
41
0.0062
77
0
78
1
53
45
43
0
44
0
45
-0.0139193969876572
46
0.0139193969876572
79
0
47
0
98
1
10
0
20
0
0
HATCH
5
1B9
100
AcDbEntity
8
SK2
62
256
6
ByLayer
370
13
48
1
60
0
100
AcDbHatch
10
0
20
0
30
0
210
0
220
0
230
1
2
ANSI31
70
0
71
0
91
1
92
5
93
3
72
1
10
159.83593941277
20
55.25
11
160.296723154323
21
51.7500016925532
72
1
10
160.296723154323
20
51.7500016925532
11
159.375155671218
21
51.7499983074468
72
1
10
159.375155671218
20
51.7499983074468
11
159.83593941277
21
55.25
97
0
75
0
76
1
52
0
41
0.0062
77
0
78
1
53
45
43
0
44
0
45
-0.0139193969876572
46
0.0139193969876572
79
0
47
0
98
1
10
0
20
0
0
HATCH
5
1BF
100
AcDbEntity
8
SK2
62
256
6
ByLayer
370
13
48
1
60
0
100
AcDbHatch
10
0
20
0
30
0
210
0
220
0
230
1
2
ANSI31
70
0
71
0
91
1
92
5
93
3
72
1
10
169.83593941277
20
-65
11
169.375155671218
21
-61.5000016925532
72
1
10
169.375155671218
20
-61.5000016925532
11
170.296723154323
21
-61.4999983074468
72
1
10
170.296723154323
20
-61.4999983074468
11
169.83593941277
21
-65
97
0
75
0
76
1
52
0
41
0.0062
77
0
78
1
53
45
43
0
44
0
45
-0.0139193969876572
46
0.0139193969876572
79
0
47
0
98
1
10
0
20
0
0
HATCH
5
1C3
100
AcDbEntity
8
SK2
62
256
6
ByLayer
370
13
48
1
60
0
100
AcDbHatch
10
0
20
0
30
0
210
0
220
0
230
1
2
ANSI31
70
0
71
0
91
1
92
5
93
3
72
1
10
169.83593941277
20
65
11
170.296723154323
21
61.5000016925532
72
1
10
170.296723154323
20
61.5000016925532
11
169.375155671218
21
61.4999983074468
72
1
10
169.375155671218
20
61.4999983074468
11
169.83593941277
21
65
97
0
75
0
76
1
52
0
41
0.0062
77
0
78
1
53
45
43
0
44
0
45
-0.0139193969876572
46
0.0139193969876572
79
0
47
0
98
1
10
0
20
0
0
HATCH
5
1C8
100
AcDbEntity
8
SK2
62
256
6
ByLayer
370
13
48
1
60
0
100
AcDbHatch
10
0
20
0
30
0
210
0
220
0
230
1
2
ANSI31
70
0
71
0
91
1
92
5
93
3
72
1
10
0
20
92.85
11
-3.4999983074468
21
92.3892162584472
72
1
10
-3.4999983074468
20
92.3892162584472
11
-3.5000016925532
21
93.3107837415528
72
1
10
-3.5000016925532
20
93.3107837415528
11
0
21
92.85
97
0
75
0
76
1
52
0
41
0.0062
77
0
78
1
53
45
43
0
44
0
45
-0.0139193969876572
46
0.0139193969876572
79
0
47
0
98
1
10
0
20
0
0
HATCH
5
1CC
100
AcDbEntity
8
SK2
62
256
6
ByLayer
370
13
48
1
60
0
100
AcDbHatch
10
0
20
0
30
0
210
0
220
0
230
1
2
ANSI31
70
0
71
0
91
1
92
5
93
3
72
1
10
-62.9
20
92.85
11
-59.4000016925532
21
93.3107837415528
72
1
10
-59.4000016925532
20
93.3107837415528
11
-59.3999983074468
21
92.3892162584472
72
1
10
-59.3999983074468
20
92.3892162584472
11
-62.9
21
92.85
97
0
75
0
76
1
52
0
41
0.0062
77
0
78
1
53
45
43
0
44
0
45
-0.0139193969876572
46
0.0139193969876572
79
0
47
0
98
1
10
0
20
0
0
HATCH
5
1D1
100
AcDbEntity
8
SK2
62
256
6
ByLayer
370
13
48
1
60
0
100
AcDbHatch
10
0
20
0
30
0
210
0
220
0
230
1
2
ANSI31
70
0
71
0
91
1
92
5
93
3
72
1
10
46
20
82.85
11
42.5000016925532
21
82.3892162584472
72
1
10
42.5000016925532
20
82.3892162584472
11
42.4999983074468
21
83.3107837415528
72
1
10
42.4999983074468
20
83.3107837415528
11
46
21
82.85
97
0
75
0
76
1
52
0
41
0.0062
77
0
78
1
53
45
43
0
44
0
45
-0.0139193969876572
46
0.0139193969876572
79
0
47
0
98
1
10
0
20
0
0
HATCH
5
1D5
100
AcDbEntity
8
SK2
62
256
6
ByLayer
370
13
48
1
60
0
100
AcDbHatch
10
0
20
0
30
0
210
0
220
0
230
1
2
ANSI31
70
0
71
0
91
1
92
5
93
3
72
1
10
0
20
82.85
11
3.4999983074468
21
83.3107837415528
72
1
10
3.4999983074468
20
83.3107837415528
11
3.5000016925532
21
82.3892162584472
72
1
10
3.5000016925532
20
82.3892162584472
11
0
21
82.85
97
0
75
0
76
1
52
0
41
0.0062
77
0
78
1
53
45
43
0
44
0
45
-0.0139193969876572
46
0.0139193969876572
79
0
47
0
98
1
10
0
20
0
0
HATCH
5
1DB
100
AcDbEntity
8
2
62
256
6
ByLayer
370
13
48
1
60
0
100
AcDbHatch
10
0
20
0
30
0
210
0
220
0
230
1
2
ANSI31
70
0
71
0
91
1
92
5
93
3
72
1
10
85
20
92.85
11
81.5000016925532
21
92.3892162584472
72
1
10
81.5000016925532
20
92.3892162584472
11
81.4999983074468
21
93.3107837415528
72
1
10
81.4999983074468
20
93.3107837415528
11
85
21
92.85
97
0
75
0
76
1
52
0
41
0.0062
77
0
78
1
53
45
43
0
44
0
45
-0.0139193969876572
46
0.0139193969876572
79
0
47
0
98
1
10
0
20
0
0
HATCH
5
1DF
100
AcDbEntity
8
2
62
256
6
ByLayer
370
13
48
1
60
0
100
AcDbHatch
10
0
20
0
30
0
210
0
220
0
230
1
2
ANSI31
70
0
71
0
91
1
92
5
93
3
72
1
10
0
20
92.85
11
3.4999983074468
21
93.3107837415528
72
1
10
3.4999983074468
20
93.3107837415528
11
3.5000016925532
21
92.3892162584472
72
1
10
3.5000016925532
20
92.3892162584472
11
0
21
92.85
97
0
75
0
76
1
52
0
41
0.0062
77
0
78
1
53
45
43
0
44
0
45
-0.0139193969876572
46
0.0139193969876572
79
0
47
0
98
1
10
0
20
0
0
HATCH
5
1E4
100
AcDbEntity
8
SK2
62
256
6
ByLayer
370
13
48
1
60
0
100
AcDbHatch
10
0
20
0
30
0
210
0
220
0
230
1
2
ANSI31
70
0
71
0
91
1
92
5
93
3
72
1
10
114
20
75.85
11
110.500001692553
21
75.3892162584472
72
1
10
110.500001692553
20
75.3892162584472
11
110.499998307447
21
76.3107837415528
72
1
10
110.499998307447
20
76.3107837415528
11
114
21
75.85
97
0
75
0
76
1
52
0
41
0.0062
77
0
78
1
53
45
43
0
44
0
45
-0.0139193969876572
46
0.0139193969876572
79
0
47
0
98
1
10
0
20
0
0
HATCH
5
1E8
100
AcDbEntity
8
SK2
62
256
6
ByLayer
370
13
48
1
60
0
100
AcDbHatch
10
0
20
0
30
0
210
0
220
0
230
1
2
ANSI31
70
0
71
0
91
1
92
5
93
3
72
1
10
85
20
75.85
11
88.4999983074468
21
76.3107837415528
72
1
10
88.4999983074468
20
76.3107837415528
11
88.5000016925532
21
75.3892162584472
72
1
10
88.5000016925532
20
75.3892162584472
11
85
21
75.85
97
0
75
0
76
1
52
0
41
0.0062
77
0
78
1
53
45
43
0
44
0
45
-0.0139193969876572
46
0.0139193969876572
79
0
47
0
98
1
10
0
20
0
0
ENDSEC
0
SECTION
2
OBJECTS
0
DICTIONARY
5
258
330
0
100
AcDbDictionary
280
0
281
1
3
ACAD_GROUP
350
259
3
ACAD_MLINESTYLE
350
25a
0
DICTIONARY
5
259
330
0
100
AcDbDictionary
280
0
281
1
0
DICTIONARY
5
25a
330
0
100
AcDbDictionary
280
0
281
1
3
Standard
350
18
0
MLINESTYLE
5
18
330
25a
100
AcDbMlineStyle
2
Standard
70
0
3

62
256
51
90
52
90
71
2
49
-0.5
62
256
6
ByLayer
49
0.5
62
256
6
ByLayer
0
RASTERVARIABLES
5
246
330

100
AcDbRasterVariables
90
0
70
1
71
1
72
1
0
ENDSEC
0
EOF
