0
SECTION
2
HEADER
9
$ACADVER
1
AC1015
9
$DWGCODEPAGE
3
ANSI_1252
9
$HANDSEED
5
287
9
$ANGBASE
50
0
9
$ANGDIR
70
0
9
$ATTMODE
70
1
9
$AUNITS
70
0
9
$AUPREC
70
0
9
$CECOLOR
62
256
9
$CELTSCALE
40
1
9
$CELTYPE
6
ByLayer
9
$CELWEIGHT
370
18
9
$CLAYER
8
0
9
$CMLJUST
70
0
9
$CMLSCALE
40
1
9
$CMLSTYLE
2
Standard
9
$DIMSTYLE
2
Standard
9
$TEXTSIZE
40
0.2
9
$TEXTSTYLE
7
Standard
9
$LUNITS
70
2
9
$LUPREC
70
4
9
$EXTNAMES
290
1
9
$INSUNITS
70
4
9
$LTSCALE
40
1
9
$LWDISPLAY
290
1
9
$PDMODE
70
0
9
$PDSIZE
40
0
9
$PLINEGEN
70
0
0
ENDSEC
0
SECTION
2
CLASSES
0
CLASS
1
RASTERVARIABLES
2
AcDbRasterVariables
3
ISM
90
0
280
0
281
0
0
ENDSEC
0
SECTION
2
TABLES
0
TABLE
2
VPORT
5
27d
100
AcDbSymbolTable
0
VPORT
5
1
100
AcDbSymbolTableRecord
100
AcDbViewportTableRecord
2
*Active
70
0
10
0
20
0
11
1
21
1
12
-1
22
1
13
0
23
0
14
0.5
24
0.5
15
10
25
10
16
0
26
0
36
1
17
0
27
0
37
0
0
ENDTAB
0
TABLE
2
LTYPE
5
27e
100
AcDbSymbolTable
0
LTYPE
5
14
100
AcDbSymbolTableRecord
100
AcDbLinetypeTableRecord
70
0
2
ByBlock
3

72
65
73
0
40
0
0
LTYPE
5
15
100
AcDbSymbolTableRecord
100
AcDbLinetypeTableRecord
70
0
2
ByLayer
3

72
65
73
0
40
0
0
LTYPE
5
16
100
AcDbSymbolTableRecord
100
AcDbLinetypeTableRecord
70
0
2
Continuous
3
Solid line
72
65
73
0
40
0
0
LTYPE
5
6E
100
AcDbSymbolTableRecord
100
AcDbLinetypeTableRecord
70
0
2
CENTER
3
____ _ ____ _ ____ _ ____
72
65
73
4
40
47.5
49
22
74
0
49
-8.5
74
0
49
8.5
74
0
49
-8.5
74
0
0
LTYPE
5
6F
100
AcDbSymbolTableRecord
100
AcDbLinetypeTableRecord
70
0
2
DASHED
3
__ __ __ __ __ __ __ __ __
72
65
73
2
40
25.72
49
12.86
74
0
49
-12.86
74
0
0
ENDTAB
0
TABLE
2
LAYER
5
27f
100
AcDbSymbolTable
0
LAYER
5
10
100
AcDbSymbolTableRecord
100
AcDbLayerTableRecord
2
0
70
0
62
7
6
Continuous
290
1
370
-3
390
0
0
LAYER
5
71
100
AcDbSymbolTableRecord
100
AcDbLayerTableRecord
2
2
70
0
62
7
6
Continuous
290
1
370
-3
390
0
0
LAYER
5
88
100
AcDbSymbolTableRecord
100
AcDbLayerTableRecord
2
81
70
0
62
-3
6
Continuous
290
1
370
-3
390
0
0
LAYER
5
8A
100
AcDbSymbolTableRecord
100
AcDbLayerTableRecord
2
80
70
0
62
-6
6
Continuous
290
1
370
-3
390
0
0
LAYER
5
8C
100
AcDbSymbolTableRecord
100
AcDbLayerTableRecord
2
1
70
0
62
4
6
Continuous
290
1
370
-3
390
0
0
LAYER
5
98
100
AcDbSymbolTableRecord
100
AcDbLayerTableRecord
2
4
70
0
62
-2
6
CENTER
290
1
370
-3
390
0
0
LAYER
5
269
100
AcDbSymbolTableRecord
100
AcDbLayerTableRecord
2
SK4
70
0
62
2
6
CENTER
290
1
370
-3
390
0
0
LAYER
5
26a
100
AcDbSymbolTableRecord
100
AcDbLayerTableRecord
2
SK2
70
0
62
7
6
Continuous
290
1
370
-3
390
0
0
LAYER
5
26b
100
AcDbSymbolTableRecord
100
AcDbLayerTableRecord
2
SK1
70
0
62
4
6
Continuous
290
1
370
-3
390
0
0
LAYER
5
26c
100
AcDbSymbolTableRecord
100
AcDbLayerTableRecord
2
SK6
70
0
62
5
6
Continuous
290
1
370
-3
390
0
0
ENDTAB
0
TABLE
2
STYLE
5
280
100
AcDbSymbolTable
0
STYLE
5
11
100
AcDbSymbolTableRecord
100
AcDbTextStyleTableRecord
2
Standard
3
txt
70
0
71
0
40
0
41
1
42
0
50
0
0
STYLE
5
1BD
100
AcDbSymbolTableRecord
100
AcDbTextStyleTableRecord
2
iso_b_vert
3
simplex.shx
70
0
71
0
40
0
41
1
42
0
50
0
0
STYLE
5
1BE
100
AcDbSymbolTableRecord
100
AcDbTextStyleTableRecord
2
DWGDirectTextStyle
3
simplex
70
0
71
0
40
0
41
1
42
0
50
0
0
ENDTAB
0
TABLE
2
DIMSTYLE
5
281
100
AcDbSymbolTable
100
AcDbDimStyleTable
0
DIMSTYLE
105
27
100
AcDbSymbolTableRecord
100
AcDbDimStyleTableRecord
2
Standard
70
0
3
<>
41
0.18
42
0.0625
44
0.18
140
0.18
147
0.09
73
0
74
0
77
1
271
2
275
0
278
52
280
0
340
11
0
ENDTAB
0
TABLE
2
VIEW
5
282
100
AcDbSymbolTable
0
ENDTAB
0
TABLE
2
UCS
5
283
100
AcDbSymbolTable
0
ENDTAB
0
TABLE
2
APPID
5
284
100
AcDbSymbolTable
0
APPID
5
12
100
AcDbSymbolTableRecord
100
AcDbRegAppTableRecord
2
ACAD
70
0
0
APPID
5
265
100
AcDbSymbolTableRecord
100
AcDbRegAppTableRecord
2
ACAD_MLEADERVER
70
0
0
ENDTAB
0
TABLE
2
BLOCK_RECORD
5
285
100
AcDbSymbolTable
0
BLOCK_RECORD
5
1F
100
AcDbSymbolTableRecord
100
AcDbBlockTableRecord
2
*Model_Space
340
0
70
0
0
BLOCK_RECORD
5
1B
100
AcDbSymbolTableRecord
100
AcDbBlockTableRecord
2
*Paper_Space
340
0
70
0
0
BLOCK_RECORD
5
23
100
AcDbSymbolTableRecord
100
AcDbBlockTableRecord
2
*Paper_Space0
340
0
70
0
0
ENDTAB
0
ENDSEC
0
SECTION
2
BLOCKS
0
BLOCK
5
20
100
AcDbEntity
8
0
100
AcDbBlockBegin
2
*Model_Space
70
0
10
0
20
0
30
0
3
*Model_Space
0
ENDBLK
5
21
100
AcDbEntity
8
0
100
AcDbBlockEnd
0
BLOCK
5
1C
100
AcDbEntity
8
0
100
AcDbBlockBegin
2
*Paper_Space
70
0
10
0
20
0
30
0
3
*Paper_Space
0
ENDBLK
5
1D
100
AcDbEntity
8
0
100
AcDbBlockEnd
0
BLOCK
5
24
100
AcDbEntity
8
0
100
AcDbBlockBegin
2
*Paper_Space0
70
0
10
0
20
0
30
0
3
*Paper_Space0
0
ENDBLK
5
25
100
AcDbEntity
8
0
100
AcDbBlockEnd
0
ENDSEC
0
SECTION
2
ENTITIES
0
ARC
5
175
100
AcDbEntity
8
1
62
256
6
ByLayer
370
18
48
1
60
0
100
AcDbCircle
39
0
10
71.214791
20
20.246
30
0
40
0.6
210
0
220
0
230
1
100
AcDbArc
50
270
51
285
0
ARC
5
176
100
AcDbEntity
8
1
62
256
6
ByLayer
370
18
48
1
60
0
100
AcDbCircle
39
0
10
71.214791
20
-20.246
30
0
40
0.6
210
0
220
0
230
1
100
AcDbArc
50
75
51
90
0
ARC
5
177
100
AcDbEntity
8
1
62
256
6
ByLayer
370
18
48
1
60
0
100
AcDbCircle
39
0
10
70.375
20
-20.246
30
0
40
0.600000000000004
210
0
220
0
230
1
100
AcDbArc
50
90
51
128.68315
0
ARC
5
178
100
AcDbEntity
8
1
62
256
6
ByLayer
370
18
48
1
60
0
100
AcDbCircle
39
0
10
70.375
20
20.246
30
0
40
0.600000000000004
210
0
220
0
230
1
100
AcDbArc
50
231.31685
51
270
0
ARC
5
179
100
AcDbEntity
8
1
62
256
6
ByLayer
370
18
48
1
60
0
100
AcDbCircle
39
0
10
26.95
20
-34.75
30
0
40
1
210
0
220
0
230
1
100
AcDbArc
50
90
51
180
0
ARC
5
17A
100
AcDbEntity
8
1
62
256
6
ByLayer
370
18
48
1
60
0
100
AcDbCircle
39
0
10
26.95
20
34.75
30
0
40
1
210
0
220
0
230
1
100
AcDbArc
50
180
51
270
0
ARC
5
17B
100
AcDbEntity
8
1
62
256
6
ByLayer
370
18
48
1
60
0
100
AcDbCircle
39
0
10
16.475
20
35.375
30
0
40
0.400000000000002
210
0
220
0
230
1
100
AcDbArc
50
180
51
270
0
ARC
5
17C
100
AcDbEntity
8
1
62
256
6
ByLayer
370
18
48
1
60
0
100
AcDbCircle
39
0
10
19.525
20
35.375
30
0
40
0.399999999999999
210
0
220
0
230
1
100
AcDbArc
50
270
51
0
0
ARC
5
17D
100
AcDbEntity
8
1
62
256
6
ByLayer
370
18
48
1
60
0
100
AcDbCircle
39
0
10
16.475
20
-35.375
30
0
40
0.400000000000002
210
0
220
0
230
1
100
AcDbArc
50
90
51
180
0
ARC
5
17E
100
AcDbEntity
8
1
62
256
6
ByLayer
370
18
48
1
60
0
100
AcDbCircle
39
0
10
19.525
20
-35.375
30
0
40
0.399999999999999
210
0
220
0
230
1
100
AcDbArc
50
0
51
90
0
ARC
5
17F
100
AcDbEntity
8
1
62
256
6
ByLayer
370
18
48
1
60
0
100
AcDbCircle
39
0
10
41.643752
20
-34.75
30
0
40
1
210
0
220
0
230
1
100
AcDbArc
50
0
51
90
0
ARC
5
180
100
AcDbEntity
8
1
62
256
6
ByLayer
370
18
48
1
60
0
100
AcDbCircle
39
0
10
41.643752
20
34.75
30
0
40
1
210
0
220
0
230
1
100
AcDbArc
50
270
51
0
0
ARC
5
181
100
AcDbEntity
8
1
62
256
6
ByLayer
370
18
48
1
60
0
100
AcDbCircle
39
0
10
43.643752
20
-45
30
0
40
1
210
0
220
0
230
1
100
AcDbArc
50
180
51
270
0
ARC
5
182
100
AcDbEntity
8
1
62
256
6
ByLayer
370
18
48
1
60
0
100
AcDbCircle
39
0
10
43.643752
20
45
30
0
40
1
210
0
220
0
230
1
100
AcDbArc
50
90
51
180
0
ARC
5
183
100
AcDbEntity
8
SK2
62
256
6
ByLayer
370
18
48
1
60
0
100
AcDbCircle
39
0
10
112.5
20
-12.9175
30
0
40
2
210
0
220
0
230
1
100
AcDbArc
50
270
51
0
0
ARC
5
184
100
AcDbEntity
8
SK2
62
256
6
ByLayer
370
18
48
1
60
0
100
AcDbCircle
39
0
10
112.5
20
12.9175
30
0
40
2
210
0
220
0
230
1
100
AcDbArc
50
0
51
90
0
ARC
5
185
100
AcDbEntity
8
SK1
62
256
6
ByLayer
370
18
48
1
60
0
100
AcDbCircle
39
0
10
-38.3
20
26.885957
30
0
40
1.6
210
0
220
0
230
1
100
AcDbArc
50
92.868132
51
180
0
ARC
5
186
100
AcDbEntity
8
SK1
62
256
6
ByLayer
370
18
48
1
60
0
100
AcDbCircle
39
0
10
-38.3
20
-26.885957
30
0
40
1.6
210
0
220
0
230
1
100
AcDbArc
50
180
51
267.131868
0
ARC
5
187
100
AcDbEntity
8
SK1
62
256
6
ByLayer
370
18
48
1
60
0
100
AcDbCircle
39
0
10
-0.8
20
31.031551
30
0
40
0.999999999999993
210
0
220
0
230
1
100
AcDbArc
50
270
51
323.130102
0
ARC
5
188
100
AcDbEntity
8
SK1
62
256
6
ByLayer
370
18
48
1
60
0
100
AcDbCircle
39
0
10
-0.8
20
-31.031551
30
0
40
0.999999999999993
210
0
220
0
230
1
100
AcDbArc
50
36.869898
51
90
0
ARC
5
189
100
AcDbEntity
8
SK1
62
256
6
ByLayer
370
18
48
1
60
0
100
AcDbCircle
39
0
10
-29.7
20
6.12
30
0
40
1.9
210
0
220
0
230
1
100
AcDbArc
50
0
51
90
0
ARC
5
18A
100
AcDbEntity
8
SK1
62
256
6
ByLayer
370
18
48
1
60
0
100
AcDbCircle
39
0
10
-29.7
20
-6.12
30
0
40
1.9
210
0
220
0
230
1
100
AcDbArc
50
270
51
0
0
CIRCLE
5
18B
100
AcDbEntity
8
SK1
62
256
6
ByLayer
370
18
48
1
60
0
100
AcDbCircle
10
-12
20
0
30
0
40
4.24999999999999
39
0
210
0
220
0
230
1
0
ELLIPSE
5
18C
100
AcDbEntity
8
SK1
62
256
6
ByLayer
370
13
48
1
60
0
100
AcDbEllipse
10
-29.7
20
14.524065
30
0
11
1.9
21
0
31
0
210
0
220
0
230
1
40
0.45399
41
-1.5707963267949
42
-1.18705315176065
0
ELLIPSE
5
18D
100
AcDbEntity
8
SK1
62
256
6
ByLayer
370
13
48
1
60
0
100
AcDbEllipse
10
-29.7
20
-14.524065
30
0
11
1.9
21
0
31
0
210
0
220
0
230
1
40
0.45399
41
1.18705315175984
42
1.5707963267949
0
POINT
5
70
100
AcDbEntity
8
2
62
256
6
ByLayer
370
18
48
1
60
0
100
AcDbPoint
10
65
20
0
30
0
39
0
210
0
220
0
230
1
50
360
0
POINT
5
72
100
AcDbEntity
8
2
62
256
6
ByLayer
370
18
48
1
60
0
100
AcDbPoint
10
70
20
0
30
0
39
0
210
0
220
0
230
1
50
360
0
POINT
5
73
100
AcDbEntity
8
2
62
256
6
ByLayer
370
18
48
1
60
0
100
AcDbPoint
10
70
20
0
30
0
39
0
210
0
220
0
230
1
50
360
0
POINT
5
74
100
AcDbEntity
8
2
62
256
6
ByLayer
370
18
48
1
60
0
100
AcDbPoint
10
70
20
6.5175
30
0
39
0
210
0
220
0
230
1
50
360
0
POINT
5
75
100
AcDbEntity
8
2
62
256
6
ByLayer
370
18
48
1
60
0
100
AcDbPoint
10
70
20
0
30
0
39
0
210
0
220
0
230
1
50
360
0
POINT
5
76
100
AcDbEntity
8
2
62
256
6
ByLayer
370
18
48
1
60
0
100
AcDbPoint
10
70
20
0
30
0
39
0
210
0
220
0
230
1
50
360
0
POINT
5
77
100
AcDbEntity
8
2
62
256
6
ByLayer
370
18
48
1
60
0
100
AcDbPoint
10
93
20
0
30
0
39
0
210
0
220
0
230
1
50
360
0
POINT
5
78
100
AcDbEntity
8
2
62
256
6
ByLayer
370
18
48
1
60
0
100
AcDbPoint
10
70
20
-6.5175
30
0
39
0
210
0
220
0
230
1
50
360
0
POINT
5
79
100
AcDbEntity
8
2
62
256
6
ByLayer
370
18
48
1
60
0
100
AcDbPoint
10
70
20
0
30
0
39
0
210
0
220
0
230
1
50
360
0
POINT
5
7A
100
AcDbEntity
8
2
62
256
6
ByLayer
370
18
48
1
60
0
100
AcDbPoint
10
70
20
0
30
0
39
0
210
0
220
0
230
1
50
360
0
POINT
5
7B
100
AcDbEntity
8
2
62
256
6
ByLayer
370
18
48
1
60
0
100
AcDbPoint
10
65
20
0
30
0
39
0
210
0
220
0
230
1
50
360
0
POINT
5
7C
100
AcDbEntity
8
2
62
256
6
ByLayer
370
18
48
1
60
0
100
AcDbPoint
10
70
20
0
30
0
39
0
210
0
220
0
230
1
50
360
0
POINT
5
7D
100
AcDbEntity
8
2
62
256
6
ByLayer
370
18
48
1
60
0
100
AcDbPoint
10
93
20
0
30
0
39
0
210
0
220
0
230
1
50
360
0
POINT
5
7E
100
AcDbEntity
8
2
62
256
6
ByLayer
370
18
48
1
60
0
100
AcDbPoint
10
70
20
6.5175
30
0
39
0
210
0
220
0
230
1
50
360
0
POINT
5
7F
100
AcDbEntity
8
2
62
256
6
ByLayer
370
18
48
1
60
0
100
AcDbPoint
10
70
20
0
30
0
39
0
210
0
220
0
230
1
50
360
0
POINT
5
80
100
AcDbEntity
8
2
62
256
6
ByLayer
370
18
48
1
60
0
100
AcDbPoint
10
70
20
23.582011
30
0
39
0
210
0
220
0
230
1
50
360
0
POINT
5
81
100
AcDbEntity
8
2
62
256
6
ByLayer
370
18
48
1
60
0
100
AcDbPoint
10
65
20
0
30
0
39
0
210
0
220
0
230
1
50
360
0
POINT
5
82
100
AcDbEntity
8
2
62
256
6
ByLayer
370
18
48
1
60
0
100
AcDbPoint
10
70
20
0
30
0
39
0
210
0
220
0
230
1
50
360
0
POINT
5
83
100
AcDbEntity
8
2
62
256
6
ByLayer
370
18
48
1
60
0
100
AcDbPoint
10
0
20
0
30
0
39
0
210
0
220
0
230
1
50
360
0
POINT
5
84
100
AcDbEntity
8
2
62
256
6
ByLayer
370
18
48
1
60
0
100
AcDbPoint
10
93
20
0
30
0
39
0
210
0
220
0
230
1
50
360
0
POINT
5
85
100
AcDbEntity
8
2
62
256
6
ByLayer
370
18
48
1
60
0
100
AcDbPoint
10
70
20
-6.5175
30
0
39
0
210
0
220
0
230
1
50
360
0
POINT
5
86
100
AcDbEntity
8
2
62
256
6
ByLayer
370
18
48
1
60
0
100
AcDbPoint
10
70
20
0
30
0
39
0
210
0
220
0
230
1
50
360
0
POINT
5
87
100
AcDbEntity
8
81
62
256
6
ByLayer
370
18
48
1
60
0
100
AcDbPoint
10
70
20
0
30
0
39
0
210
0
220
0
230
1
50
360
0
POINT
5
89
100
AcDbEntity
8
80
62
256
6
ByLayer
370
18
48
1
60
0
100
AcDbPoint
10
0
20
0
30
0
39
0
210
0
220
0
230
1
50
360
0
POINT
5
8B
100
AcDbEntity
8
1
62
256
6
ByLayer
370
13
48
1
60
1
100
AcDbPoint
10
18
20
35.409139
30
0
39
0
210
0
220
0
230
1
50
360
0
POINT
5
8D
100
AcDbEntity
8
1
62
256
6
ByLayer
370
13
48
1
60
1
100
AcDbPoint
10
18
20
25.569151
30
0
39
0
210
0
220
0
230
1
50
360
0
POINT
5
8E
100
AcDbEntity
8
1
62
256
6
ByLayer
370
13
48
1
60
1
100
AcDbPoint
10
18
20
36.579353
30
0
39
0
210
0
220
0
230
1
50
360
0
POINT
5
8F
100
AcDbEntity
8
1
62
256
6
ByLayer
370
13
48
1
60
1
100
AcDbPoint
10
18
20
27.315086
30
0
39
0
210
0
220
0
230
1
50
360
0
POINT
5
90
100
AcDbEntity
8
1
62
256
6
ByLayer
370
13
48
1
60
1
100
AcDbPoint
10
-39.88006
20
0
30
0
39
0
210
0
220
0
230
1
50
360
0
POINT
5
91
100
AcDbEntity
8
1
62
256
6
ByLayer
370
13
48
1
60
1
100
AcDbPoint
10
94.5
20
0
30
0
39
0
210
0
220
0
230
1
50
360
0
POINT
5
92
100
AcDbEntity
8
1
62
256
6
ByLayer
370
13
48
1
60
1
100
AcDbPoint
10
114
20
0
30
0
39
0
210
0
220
0
230
1
50
360
0
POINT
5
93
100
AcDbEntity
8
1
62
256
6
ByLayer
370
13
48
1
60
1
100
AcDbPoint
10
62.0335
20
0
30
0
39
0
210
0
220
0
230
1
50
360
0
POINT
5
94
100
AcDbEntity
8
1
62
256
6
ByLayer
370
13
48
1
60
1
100
AcDbPoint
10
103.5
20
0
30
0
39
0
210
0
220
0
230
1
50
360
0
POINT
5
95
100
AcDbEntity
8
1
62
256
6
ByLayer
370
13
48
1
60
1
100
AcDbPoint
10
94.5
20
0
30
0
39
0
210
0
220
0
230
1
50
360
0
SPLINE
5
18E
100
AcDbEntity
8
1
62
256
6
ByLayer
370
18
48
1
60
0
100
AcDbSpline
70
4
71
3
72
52
73
48
40
0
40
0
40
0
40
0
40
0.0624999999999937
40
0.0624999999999937
40
0.124999999999987
40
0.124999999999987
40
0.156249999999983
40
0.156249999999983
40
0.17187499999998
40
0.17187499999998
40
0.187499999999978
40
0.187499999999978
40
0.249999999999973
40
0.312499999999968
40
0.312499999999968
40
0.328124999999967
40
0.328124999999967
40
0.343749999999966
40
0.374999999999968
40
0.374999999999968
40
0.437499999999968
40
0.437499999999968
40
0.468749999999966
40
0.468749999999966
40
0.484374999999965
40
0.484374999999965
40
0.499999999999965
40
0.499999999999965
40
0.562499999999967
40
0.62499999999997
40
0.62499999999997
40
0.656249999999973
40
0.656249999999973
40
0.687499999999975
40
0.687499999999975
40
0.749999999999981
40
0.749999999999981
40
0.781249999999984
40
0.781249999999984
40
0.812499999999986
40
0.812499999999986
40
0.874999999999991
40
0.937499999999997
40
0.937499999999997
40
0.968749999999998
40
0.968749999999998
40
1
40
1
40
1
40
1
41
1
10
16.475
20
34.5823373961183
30
0
41
1
10
16.513192368528
20
34.5924789357983
30
-1E-16
41
1
10
16.5554584258523
20
34.6019322026227
30
7E-16
41
1
10
16.6478110747928
20
34.6196075745993
30
6E-16
41
1
10
16.6978986808658
20
34.6278292478525
30
5E-16
41
1
10
16.7789666575442
20
34.6393006755274
30
4E-16
41
1
10
16.8069818901433
20
34.6429805356332
30
4E-16
41
1
10
16.8505325799917
20
34.6482883580591
30
3E-16
41
1
10
16.8652810761181
20
34.6500191942934
30
3E-16
41
1
10
16.8950719612417
20
34.6533868413475
30
3E-16
41
1
10
16.9101380103323
20
34.6550265677885
30
2E-16
41
1
10
16.9863107117912
20
34.6630112922971
30
1E-16
41
1
10
17.1135571557736
20
34.6744244257614
30
0
41
1
10
17.2513638492584
20
34.6833403841666
30
-2E-16
41
1
10
17.3409133866371
20
34.6881550880651
30
6E-16
41
1
10
17.3590111952473
20
34.6890805580471
30
6E-16
41
1
10
17.3952830111543
20
34.6908425567054
30
5E-16
41
1
10
17.4498996140951
20
34.6933574130275
30
4E-16
41
1
10
17.5051338530743
20
34.6954980804575
30
4E-16
41
1
10
17.6164124474961
20
34.6992990904608
30
2E-16
41
1
10
17.691674867976
20
34.7011954013033
30
1E-16
41
1
10
17.8061941854362
20
34.7031060019239
30
0
41
1
10
17.8446390989645
20
34.7035865391764
30
0
41
1
10
17.9027236861451
20
34.704069288876
30
-1E-16
41
1
10
17.9221912959374
20
34.7041905713178
30
-1E-16
41
1
10
17.9610301646462
20
34.7043517874435
30
-2E-16
41
1
10
17.9804093969619
20
34.7043919690527
30
-2E-16
41
1
10
18.077107348226
20
34.7043936932379
30
6E-16
41
1
10
18.2305606921184
20
34.7031287989672
30
4E-16
41
1
10
18.3815443710828
20
34.6993603614938
30
2E-16
41
1
10
18.4938282532831
20
34.6955376758449
30
1E-16
41
1
10
18.53115226445
20
34.6940928184088
30
0
41
1
10
18.6043783915348
20
34.6909034597334
30
-1E-16
41
1
10
18.6404165706572
20
34.6891549822308
30
-1E-16
41
1
10
18.7468396619682
20
34.6834446253719
30
7E-16
41
1
10
18.8155403200885
20
34.6790203682669
30
6E-16
41
1
10
18.9152175598245
20
34.67139801214
30
5E-16
41
1
10
18.9478792187373
20
34.6686922736156
30
4E-16
41
1
10
19.0120516141997
20
34.6629327848131
30
4E-16
41
1
10
19.0436486054671
20
34.6598686898224
30
3E-16
41
1
10
19.1353791067361
20
34.6502595372273
30
2E-16
41
1
10
19.2502923894074
20
34.6362832430074
30
1E-16
41
1
10
19.3508263837691
20
34.6198491196315
30
0
41
1
10
19.4207011215191
20
34.6065043492361
30
-1E-16
41
1
10
19.4431167320905
20
34.6018740974956
30
-1E-16
41
1
10
19.4857068210087
20
34.5923272104726
30
8E-16
41
1
10
19.5059038628627
20
34.5874081534444
30
7E-16
41
1
10
19.525
20
34.5823373961183
30
7E-16
0
SPLINE
5
18F
100
AcDbEntity
8
1
62
256
6
ByLayer
370
18
48
1
60
0
100
AcDbSpline
70
4
71
3
72
52
73
48
40
0
40
0
40
0
40
0
40
0.0625000000000053
40
0.0625000000000053
40
0.125000000000011
40
0.125000000000011
40
0.156250000000013
40
0.156250000000013
40
0.171875000000013
40
0.171875000000013
40
0.187500000000014
40
0.187500000000014
40
0.250000000000021
40
0.312500000000027
40
0.312500000000027
40
0.32812500000003
40
0.32812500000003
40
0.343750000000033
40
0.375000000000035
40
0.375000000000035
40
0.437500000000036
40
0.437500000000036
40
0.468750000000035
40
0.468750000000035
40
0.484375000000035
40
0.484375000000035
40
0.500000000000034
40
0.500000000000034
40
0.562500000000026
40
0.625000000000018
40
0.625000000000018
40
0.656250000000016
40
0.656250000000016
40
0.687500000000013
40
0.687500000000013
40
0.750000000000008
40
0.750000000000008
40
0.781250000000007
40
0.781250000000007
40
0.812500000000005
40
0.812500000000005
40
0.875000000000003
40
0.937500000000001
40
0.937500000000001
40
0.968750000000001
40
0.968750000000001
40
1
40
1
40
1
40
1
41
1
10
19.525
20
34.2842132607036
30
2E-16
41
1
10
19.486807631472
20
34.2707907604291
30
2E-16
41
1
10
19.4445415741478
20
34.2578286163672
30
-6E-16
41
1
10
19.3521889252072
20
34.2328772840324
30
-4E-16
41
1
10
19.3021013191342
20
34.2208879527396
30
-4E-16
41
1
10
19.2210333424558
20
34.2037152179014
30
-2E-16
41
1
10
19.1930181098567
20
34.1981266338325
30
-2E-16
41
1
10
19.1494674200083
20
34.1899620810806
30
-1E-16
41
1
10
19.1347189238819
20
34.1872816705711
30
-1E-16
41
1
10
19.1049280387583
20
34.1820339363563
30
-1E-16
41
1
10
19.0898619896677
20
34.1794621356517
30
-1E-16
41
1
10
19.0136892882088
20
34.1668640237174
30
1E-16
41
1
10
18.8864428442264
20
34.1483711463911
30
2E-16
41
1
10
18.7486361507416
20
34.1333300285207
30
4E-16
41
1
10
18.6590866133629
20
34.1250976061009
30
-4E-16
41
1
10
18.6409888047527
20
34.1235086862798
30
-3E-16
41
1
10
18.6047169888457
20
34.1204730267229
30
-3E-16
41
1
10
18.5501003859049
20
34.1161237624349
30
-2E-16
41
1
10
18.4948661469257
20
34.1123830072137
30
-1E-16
41
1
10
18.3835875525039
20
34.1057099416271
30
0
41
1
10
18.308325132024
20
34.1023363721449
30
1E-16
41
1
10
18.1938058145638
20
34.0989278614048
30
2E-16
41
1
10
18.1553609010355
20
34.0980676840156
30
3E-16
41
1
10
18.0972763138549
20
34.0972029319763
30
4E-16
41
1
10
18.0778087040626
20
34.0969854916728
30
4E-16
41
1
10
18.0389698353538
20
34.096696406018
30
4E-16
41
1
10
18.0195906030382
20
34.0966243168675
30
5E-16
41
1
10
17.922892651774
20
34.0966212240677
30
-3E-16
41
1
10
17.7694393078816
20
34.0988959147242
30
-1E-16
41
1
10
17.6184556289172
20
34.1056017836582
30
0
41
1
10
17.5061717467169
20
34.1123137805337
30
2E-16
41
1
10
17.46884773555
20
34.1148387806759
30
2E-16
41
1
10
17.3956216084652
20
34.1203720747099
30
3E-16
41
1
10
17.3595834293428
20
34.1233874017958
30
3E-16
41
1
10
17.2531603380318
20
34.133152837155
30
-4E-16
41
1
10
17.1844596799115
20
34.1406199013619
30
-4E-16
41
1
10
17.0847824401755
20
34.1531977887512
30
-3E-16
41
1
10
17.0521207812628
20
34.1576206015712
30
-2E-16
41
1
10
16.9879483858003
20
34.1669246005107
30
-2E-16
41
1
10
16.9563513945329
20
34.1718218040987
30
-1E-16
41
1
10
16.8646208932639
20
34.1869845234046
30
0
41
1
10
16.7497076105926
20
34.2085461045424
30
1E-16
41
1
10
16.6491736162309
20
34.2325309217582
30
2E-16
41
1
10
16.579298878481
20
34.2513769843752
30
2E-16
41
1
10
16.5568832679095
20
34.2578180376528
30
3E-16
41
1
10
16.5142931789914
20
34.2708785747848
30
-6E-16
41
1
10
16.4940961371374
20
34.2775020271288
30
-6E-16
41
1
10
16.475
20
34.2842132607036
30
-6E-16
0
SPLINE
5
190
100
AcDbEntity
8
1
62
256
6
ByLayer
370
18
48
1
60
0
100
AcDbSpline
70
4
71
3
72
52
73
48
40
0
40
0
40
0
40
0
40
0.0625000000000138
40
0.0625000000000138
40
0.125000000000028
40
0.125000000000028
40
0.156250000000034
40
0.156250000000034
40
0.171875000000036
40
0.171875000000036
40
0.187500000000039
40
0.187500000000039
40
0.250000000000045
40
0.312500000000051
40
0.312500000000051
40
0.328125000000054
40
0.328125000000054
40
0.343750000000056
40
0.375000000000058
40
0.375000000000058
40
0.43750000000006
40
0.43750000000006
40
0.468750000000059
40
0.468750000000059
40
0.484375000000059
40
0.484375000000059
40
0.500000000000058
40
0.500000000000058
40
0.562500000000051
40
0.625000000000044
40
0.625000000000044
40
0.656250000000039
40
0.656250000000039
40
0.687500000000035
40
0.687500000000035
40
0.750000000000026
40
0.750000000000026
40
0.781250000000022
40
0.781250000000022
40
0.812500000000019
40
0.812500000000019
40
0.875000000000013
40
0.937500000000006
40
0.937500000000006
40
0.968750000000003
40
0.968750000000003
40
1
40
1
40
1
40
1
41
1
10
16.475
20
33.1494438671053
30
-1E-16
41
1
10
16.5131923685281
20
33.1710845882641
30
-2E-16
41
1
10
16.5554584258523
20
33.1914853928464
30
-3E-16
41
1
10
16.6478110747928
20
33.2299931814537
30
-4E-16
41
1
10
16.6978986808658
20
33.2480996066976
30
-5E-16
41
1
10
16.7789666575442
20
33.2735885380303
30
-6E-16
41
1
10
16.8069818901433
20
33.2818055321083
30
-7E-16
41
1
10
16.8505325799917
20
33.2937103014596
30
-7E-16
41
1
10
16.8652810761181
20
33.2976014948394
30
-8E-16
41
1
10
16.8950719612417
20
33.3051890099638
30
-8E-16
41
1
10
16.9101380103324
20
33.3088918670934
30
9E-16
41
1
10
16.9863107117912
20
33.3269609824784
30
8E-16
41
1
10
17.1135571557736
20
33.3530349472834
30
6E-16
41
1
10
17.2513638492584
20
33.3737057821708
30
4E-16
41
1
10
17.3409133866371
20
33.3849241187954
30
3E-16
41
1
10
17.3590111952473
20
33.3870837811335
30
3E-16
41
1
10
17.3952830111543
20
33.391200895598
30
3E-16
41
1
10
17.4498996140951
20
33.3970855489382
30
2E-16
41
1
10
17.5051338530743
20
33.4021142265638
30
1E-16
41
1
10
17.6164124474961
20
33.4110589356399
30
0
41
1
10
17.691674867976
20
33.4155439627473
30
-1E-16
41
1
10
17.8061941854362
20
33.4200676202543
30
-3E-16
41
1
10
17.8446390989645
20
33.4212068422269
30
-3E-16
41
1
10
17.9027236861451
20
33.4223516211914
30
-4E-16
41
1
10
17.9221912959375
20
33.4226393215954
30
-4E-16
41
1
10
17.9610301646463
20
33.4230217764377
30
-5E-16
41
1
10
17.9804093969619
20
33.4231171186414
30
-5E-16
41
1
10
18.077107348226
20
33.4231212094872
30
-6E-16
41
1
10
18.2305606921184
20
33.4201171670567
30
-8E-16
41
1
10
18.3815443710828
20
33.4112034211379
30
8E-16
41
1
10
18.4938282532831
20
33.4022072584543
30
7E-16
41
1
10
18.53115226445
20
33.39881304202
30
6E-16
41
1
10
18.6043783915348
20
33.3913411845489
30
6E-16
41
1
10
18.6404165706572
20
33.3872541597578
30
5E-16
41
1
10
18.7468396619682
20
33.3739481350323
30
4E-16
41
1
10
18.8155403200885
20
33.3636891759827
30
3E-16
41
1
10
18.9152175598245
20
33.3461600760026
30
2E-16
41
1
10
18.9478792187373
20
33.3399590299826
30
2E-16
41
1
10
19.0120516141997
20
33.3268154565708
30
2E-16
41
1
10
19.0436486054671
20
33.3198496739391
30
1E-16
41
1
10
19.1353791067361
20
33.2981037182735
30
0
41
1
10
19.2502923894074
20
33.2667246413636
30
-1E-16
41
1
10
19.3508263837691
20
33.2305221494029
30
-1E-16
41
1
10
19.4207011215191
20
33.201445003447
30
-2E-16
41
1
10
19.4431167320905
20
33.1914058197874
30
-2E-16
41
1
10
19.4857068210087
20
33.1708181961598
30
-2E-16
41
1
10
19.5059038628627
20
33.1602642009816
30
-2E-16
41
1
10
19.525
20
33.1494438671053
30
-3E-16
0
SPLINE
5
191
100
AcDbEntity
8
1
62
256
6
ByLayer
370
18
48
1
60
0
100
AcDbSpline
70
4
71
3
72
52
73
48
40
0
40
0
40
0
40
0
40
0.0625000000000041
40
0.0625000000000041
40
0.125000000000008
40
0.125000000000008
40
0.156250000000009
40
0.156250000000009
40
0.171875000000011
40
0.171875000000011
40
0.187500000000012
40
0.187500000000012
40
0.250000000000022
40
0.312500000000032
40
0.312500000000032
40
0.328125000000034
40
0.328125000000034
40
0.343750000000037
40
0.375000000000041
40
0.375000000000041
40
0.437500000000045
40
0.437500000000045
40
0.468750000000046
40
0.468750000000046
40
0.484375000000046
40
0.484375000000046
40
0.500000000000046
40
0.500000000000046
40
0.562500000000041
40
0.625000000000037
40
0.625000000000037
40
0.656250000000033
40
0.656250000000033
40
0.687500000000029
40
0.687500000000029
40
0.750000000000022
40
0.750000000000022
40
0.781250000000018
40
0.781250000000018
40
0.812500000000015
40
0.812500000000015
40
0.875000000000011
40
0.937500000000006
40
0.937500000000006
40
0.968750000000003
40
0.968750000000003
40
1
40
1
40
1
40
1
41
1
10
19.525
20
32.5622539472724
30
-1.3E-15
41
1
10
19.486807631472
20
32.5374825699522
30
-1.3E-15
41
1
10
19.4445415741478
20
32.513733633679
30
-1.2E-15
41
1
10
19.3521889252073
20
32.4682832045037
30
-1E-15
41
1
10
19.3021013191342
20
32.4465817218015
30
-9E-16
41
1
10
19.2210333424558
20
32.4156526664915
30
-8E-16
41
1
10
19.1930181098567
20
32.405614389206
30
-8E-16
41
1
10
19.1494674200083
20
32.3909837595041
30
-7E-16
41
1
10
19.134718923882
20
32.3861864928967
30
-7E-16
41
1
10
19.1049280387584
20
32.3768050194834
30
-6E-16
41
1
10
19.0898619896677
20
32.3722127874431
30
-6E-16
41
1
10
19.0136892882088
20
32.3497416290122
30
-5E-16
41
1
10
18.8864428442264
20
32.3169122512406
30
-3E-16
41
1
10
18.7486361507416
20
32.2903968572166
30
-1E-16
41
1
10
18.6590866133629
20
32.2759173715358
30
0
41
1
10
18.6409888047528
20
32.2731246527294
30
1E-16
41
1
10
18.6047169888457
20
32.2677922251806
30
1E-16
41
1
10
18.5501003859049
20
32.2601572001319
30
2E-16
41
1
10
18.4948661469257
20
32.2536017365064
30
3E-16
41
1
10
18.3835875525039
20
32.2419165438893
30
4E-16
41
1
10
18.308325132024
20
32.2360219329942
30
-1.3E-15
41
1
10
18.1938058145638
20
32.2300689862868
30
-1.1E-15
41
1
10
18.1553609010355
20
32.2285675159119
30
-1.1E-15
41
1
10
18.0972763138549
20
32.2270582345573
30
-1E-15
41
1
10
18.0778087040626
20
32.2266787813897
30
-1E-15
41
1
10
18.0389698353538
20
32.2261743148628
30
-9E-16
41
1
10
18.0195906030382
20
32.2260485268375
30
-9E-16
41
1
10
17.922892651774
20
32.2260431300748
30
-8E-16
41
1
10
17.7694393078816
20
32.230010709002
30
-6E-16
41
1
10
17.6184556289173
20
32.2417273193978
30
-4E-16
41
1
10
17.5061717467169
20
32.2534804307655
30
-3E-16
41
1
10
17.46884773555
20
32.2579053073741
30
-3E-16
41
1
10
17.3956216084652
20
32.267613721933
30
-2E-16
41
1
10
17.3595834293428
20
32.2729095605271
30
-2E-16
41
1
10
17.2531603380319
20
32.2900848961224
30
-1E-16
41
1
10
17.1844596799115
20
32.3032472679157
30
0
41
1
10
17.0847824401755
20
32.3255048807907
30
1E-16
41
1
10
17.0521207812628
20
32.3333443400342
30
1E-16
41
1
10
16.9879483858003
20
32.3498700456537
30
2E-16
41
1
10
16.9563513945329
20
32.3585849601508
30
2E-16
41
1
10
16.8646208932639
20
32.3856300674947
30
-1.5E-15
41
1
10
16.7497076105926
20
32.4242469409405
30
-1.4E-15
41
1
10
16.6491736162309
20
32.4676542211063
30
-1.3E-15
41
1
10
16.579298878481
20
32.5019806390035
30
-1.3E-15
41
1
10
16.5568832679095
20
32.5137476693793
30
-1.3E-15
41
1
10
16.5142931789914
20
32.5376879789187
30
-1.2E-15
41
1
10
16.4940961371374
20
32.5498682891784
30
-1.2E-15
41
1
10
16.475
20
32.5622539472724
30
-1.2E-15
0
SPLINE
5
192
100
AcDbEntity
8
1
62
256
6
ByLayer
370
18
48
1
60
0
100
AcDbSpline
70
4
71
3
72
43
73
39
40
0
40
0
40
0
40
0
40
0.0625
40
0.0625
40
0.125
40
0.125
40
0.25
40
0.25
40
0.3125
40
0.3125
40
0.375
40
0.375
40
0.4375
40
0.4375
40
0.46875
40
0.46875
40
0.484375
40
0.4921875
40
0.49609375
40
0.49609375
40
0.498046875
40
0.498046875
40
0.5
40
0.53125
40
0.53125
40
0.5625
40
0.5625
40
0.625
40
0.625
40
0.6875
40
0.6875
40
0.75
40
0.75
40
0.875
40
0.875
40
0.9375
40
0.9375
40
1
40
1
40
1
40
1
41
1
10
25.95
20
7.63888080807661
30
-4.8E-15
41
1
10
25.95
20
7.31806829744045
30
-4.4E-15
41
1
10
25.9573819065375
20
6.99767732163252
30
-4E-15
41
1
10
25.9824519038305
20
6.35748389217858
30
-3.3E-15
41
1
10
26.0001744282098
20
6.0376834048229
30
-3E-15
41
1
10
26.0639121623502
20
5.07888553899221
30
-1.9E-15
41
1
10
26.120641420337
20
4.44049997325899
30
-1.2E-15
41
1
10
26.2089247907561
20
3.48310375624629
30
-2E-16
41
1
10
26.2388750526654
20
3.16400151902604
30
1E-16
41
1
10
26.2960348704735
20
2.52564053988974
30
-6.3E-15
41
1
10
26.3232453647406
20
2.20638185155804
30
-6E-15
41
1
10
26.3701879262901
20
1.56743742838319
30
-5.3E-15
41
1
10
26.3898613703798
20
1.24774834593367
30
-4.9E-15
41
1
10
26.4099737389108
20
0.767678072414469
30
-4.4E-15
41
1
10
26.4151153032185
20
0.607565419896218
30
-4.2E-15
41
1
10
26.4201688348407
20
0.367244612719077
30
-3.9E-15
41
1
10
26.4220334195786
20
0.247046396082652
30
-3.8E-15
41
1
10
26.4230130990904
20
0.106746866090816
30
-3.6E-15
41
1
10
26.4231751912388
20
0.0466037764222449
30
-3.6E-15
41
1
10
26.4232132011499
20
0.0165297740600181
30
-3.5E-15
41
1
10
26.4232186712525
20
0.0064428657211693
30
-3.5E-15
41
1
10
26.4232153745897
20
-0.0134176002795527
30
-3.5E-15
41
1
10
26.4230684294727
20
-0.182226509214786
30
-3.3E-15
41
1
10
26.420873774523
20
-0.350948427971588
30
-3.1E-15
41
1
10
26.4132964863794
20
-0.668396228726692
30
-2.7E-15
41
1
10
26.4077876913629
20
-0.827047054181605
30
-2.5E-15
41
1
10
26.3867495205789
20
-1.30280786225427
30
-1.9E-15
41
1
10
26.3666982412977
20
-1.61972574675963
30
-1.5E-15
41
1
10
26.319389598903
20
-2.25325538913629
30
-7E-16
41
1
10
26.2921806315309
20
-2.56991893055047
30
-3E-16
41
1
10
26.2352387156908
20
-3.20320161644028
30
-6.6E-15
41
1
10
26.2055048226928
20
-3.51981287313455
30
-6.2E-15
41
1
10
26.118025726228
20
-4.46968767941203
30
-5E-15
41
1
10
26.0620391848174
20
-5.10299312469388
30
-4.2E-15
41
1
10
25.9992670928134
20
-6.05345651318873
30
-3E-15
41
1
10
25.9818432836484
20
-6.37036102665763
30
-2.6E-15
41
1
10
25.9572257352185
20
-7.00441375927147
30
-1.9E-15
41
1
10
25.95
20
-7.32156121619335
30
-1.5E-15
41
1
10
25.95
20
-7.63888080807652
30
-1.1E-15
0
SPLINE
5
193
100
AcDbEntity
8
1
62
256
6
ByLayer
370
18
48
1
60
0
100
AcDbSpline
70
4
71
3
72
34
73
30
40
0
40
0
40
0
40
0
40
0.0156250000000001
40
0.0156250000000001
40
0.0312500000000002
40
0.0312500000000002
40
0.0624999999999989
40
0.0624999999999989
40
0.0937499999999976
40
0.0937499999999976
40
0.124999999999996
40
0.124999999999996
40
0.156249999999995
40
0.156249999999995
40
0.187499999999994
40
0.187499999999994
40
0.249999999999994
40
0.249999999999994
40
0.312499999999995
40
0.312499999999995
40
0.374999999999995
40
0.374999999999995
40
0.499999999999996
40
0.499999999999996
40
0.624999999999997
40
0.624999999999997
40
0.749999999999998
40
0.749999999999998
40
1
40
1
40
1
40
1
41
1
10
16.4750000000001
20
8.60468622321591
30
-1.6E-15
41
1
10
16.4669192883393
20
8.60468622321594
30
-1.6E-15
41
1
10
16.4586828331082
20
8.60572192962474
30
-1.6E-15
41
1
10
16.4429007947537
20
8.60961008474888
30
-1.5E-15
41
1
10
16.4352430522618
20
8.61245288382477
30
-1.5E-15
41
1
10
16.413123641402
20
8.62310740461388
30
-1.5E-15
41
1
10
16.4000600949817
20
8.63264340313009
30
-1.5E-15
41
1
10
16.3758514619869
20
8.65448922028941
30
-1.5E-15
41
1
10
16.3650348924486
20
8.66655319233067
30
-1.5E-15
41
1
10
16.3450691079751
20
8.6918570293488
30
-1.5E-15
41
1
10
16.3359043413531
20
8.70514888865787
30
-1.5E-15
41
1
10
16.3186915493421
20
8.73260612628727
30
-1.5E-15
41
1
10
16.3106966663168
20
8.74670528976358
30
-1.5E-15
41
1
10
16.2957157714743
20
8.77517937620379
30
-1.6E-15
41
1
10
16.2887050455689
20
8.78960180410513
30
-1.6E-15
41
1
10
16.2687615982101
20
8.83328981926175
30
-1.6E-15
41
1
10
16.256900311759
20
8.86296945431309
30
-1.6E-15
41
1
10
16.2350662835216
20
8.92305853794107
30
-1.7E-15
41
1
10
16.2251087375976
20
8.95347385884153
30
-1.7E-15
41
1
10
16.2066188482047
20
9.01485525914316
30
-1.7E-15
41
1
10
16.198078323291
20
9.04587700059824
30
-1.8E-15
41
1
10
16.1742849452066
20
9.13919060547062
30
5.3E-15
41
1
10
16.1608451559839
20
9.20161302849732
30
5.2E-15
41
1
10
16.1373668888215
20
9.32675743759717
30
5.1E-15
41
1
10
16.1273530775996
20
9.38948159613747
30
5E-15
41
1
10
16.1101192404497
20
9.51517596974287
30
4.9E-15
41
1
10
16.1029069666495
20
9.57814686755958
30
4.8E-15
41
1
10
16.0850150067315
20
9.7673893814881
30
4.6E-15
41
1
10
16.0780196035913
20
9.89398548275895
30
4.5E-15
41
1
10
16.0757749965766
20
10.021
30
4.4E-15
0
SPLINE
5
194
100
AcDbEntity
8
1
62
256
6
ByLayer
370
18
48
1
60
0
100
AcDbSpline
70
4
71
3
72
32
73
28
40
0
40
0
40
0
40
0
40
0.125000000000008
40
0.125000000000008
40
0.250000000000017
40
0.250000000000017
40
0.281250000000017
40
0.281250000000017
40
0.312500000000016
40
0.312500000000016
40
0.375000000000018
40
0.375000000000018
40
0.500000000000019
40
0.500000000000019
40
0.562500000000019
40
0.562500000000019
40
0.593750000000016
40
0.593750000000016
40
0.625000000000013
40
0.625000000000013
40
0.750000000000007
40
0.750000000000007
40
0.875000000000001
40
0.875000000000001
40
0.937500000000001
40
0.937500000000001
40
1
40
1
40
1
40
1
41
1
10
16.475
20
32.5622539472724
30
-1.2E-15
41
1
10
16.4377804139895
20
32.5863943827652
30
-1.2E-15
41
1
10
16.4054472373538
20
32.6155797492459
30
6E-16
41
1
10
16.3497168379715
20
32.678306828203
30
6E-16
41
1
10
16.3263277878524
20
32.7119232524482
30
6E-16
41
1
10
16.3026467500111
20
32.7541143966791
30
5E-16
41
1
10
16.2981899709248
20
32.7625624004245
30
5E-16
41
1
10
16.2898410046102
20
32.7794156432815
30
5E-16
41
1
10
16.285946347605
20
32.7878286241805
30
5E-16
41
1
10
16.2751913338857
20
32.8127391976539
30
5E-16
41
1
10
16.269230018887
20
32.8289588335014
30
5E-16
41
1
10
16.2549036971005
20
32.8758464174627
30
5E-16
41
1
10
16.2500811129379
20
32.9046568177303
30
4E-16
41
1
10
16.2499609589324
20
32.9429843510044
30
4E-16
41
1
10
16.251110412168
20
32.9549659605561
30
4E-16
41
1
10
16.2546557210175
20
32.9717994670438
30
3E-16
41
1
10
16.2561412460464
20
32.9772223352555
30
3E-16
41
1
10
16.259728818531
20
32.9877177466211
30
3E-16
41
1
10
16.2618331122295
20
32.9927907916741
30
3E-16
41
1
10
16.2738069175772
20
33.0171768809818
30
3E-16
41
1
10
16.2880581308779
20
33.0337066933496
30
2E-16
41
1
10
16.3256476715634
20
33.0648318205599
30
2E-16
41
1
10
16.3489842232542
20
33.0794218074835
30
1E-16
41
1
10
16.3911588265373
20
33.103331016341
30
0
41
1
10
16.4063756189558
20
33.1116196044668
30
0
41
1
10
16.4389971029831
20
33.1294087476771
30
-1E-16
41
1
10
16.4564242238662
20
33.1389183823783
30
-1E-16
41
1
10
16.4749999999984
20
33.149443867104
30
-1E-16
0
SPLINE
5
195
100
AcDbEntity
8
1
62
256
6
ByLayer
370
18
48
1
60
0
100
AcDbSpline
70
4
71
3
72
32
73
28
40
0
40
0
40
0
40
0
40
0.125000000000008
40
0.125000000000008
40
0.250000000000017
40
0.250000000000017
40
0.281250000000018
40
0.281250000000018
40
0.31250000000002
40
0.31250000000002
40
0.375000000000019
40
0.375000000000019
40
0.500000000000014
40
0.500000000000014
40
0.562500000000011
40
0.562500000000011
40
0.59375000000001
40
0.59375000000001
40
0.625000000000009
40
0.625000000000009
40
0.750000000000006
40
0.750000000000006
40
0.875000000000002
40
0.875000000000002
40
0.937500000000001
40
0.937500000000001
40
1
40
1
40
1
40
1
41
1
10
16.475
20
34.2842132607036
30
-6E-16
41
1
10
16.4377804139895
20
34.2972938818511
30
-5E-16
41
1
10
16.4054472373537
20
34.3154202289819
30
-5E-16
41
1
10
16.3497168379715
20
34.3556862339504
30
-5E-16
41
1
10
16.3263277878523
20
34.3779052933897
30
-5E-16
41
1
10
16.3026467500111
20
34.4054569522413
30
-5E-16
41
1
10
16.2981899709248
20
34.4109573866417
30
-5E-16
41
1
10
16.2898410046102
20
34.4218713199455
30
-5E-16
41
1
10
16.285946347605
20
34.4272896151367
30
-5E-16
41
1
10
16.2751913338857
20
34.4432056228277
30
-5E-16
41
1
10
16.269230018887
20
34.4533960167478
30
-5E-16
41
1
10
16.2549036971005
20
34.4820647371276
30
-5E-16
41
1
10
16.2500811129379
20
34.4985498244697
30
3E-16
41
1
10
16.2499609589324
20
34.5180537722337
30
3E-16
41
1
10
16.2511104121679
20
34.5237059941253
30
3E-16
41
1
10
16.2546557210175
20
34.5309656315769
30
3E-16
41
1
10
16.2561412460464
20
34.5331839926428
30
3E-16
41
1
10
16.259728818531
20
34.5372452998741
30
3E-16
41
1
10
16.2618331122295
20
34.5390878477499
30
3E-16
41
1
10
16.2738069175772
20
34.5473986685379
30
3E-16
41
1
10
16.2880581308779
20
34.5512037383191
30
2E-16
41
1
10
16.3256476715634
20
34.5572409319136
30
2E-16
41
1
10
16.3489842232542
20
34.5594675121809
30
2E-16
41
1
10
16.3911588265373
20
34.5652070899081
30
1E-16
41
1
10
16.4063756189558
20
34.5675227330799
30
1E-16
41
1
10
16.4389971029831
20
34.5736221083396
30
0
41
1
10
16.4564242238662
20
34.5774048146093
30
0
41
1
10
16.4749999999984
20
34.5823373961169
30
0
0
SPLINE
5
196
100
AcDbEntity
8
1
62
256
6
ByLayer
370
18
48
1
60
0
100
AcDbSpline
70
4
71
3
72
32
73
28
40
0
40
0
40
0
40
0
40
0.124999999999999
40
0.124999999999999
40
0.249999999999998
40
0.249999999999998
40
0.281249999999998
40
0.281249999999998
40
0.312499999999999
40
0.312499999999999
40
0.374999999999998
40
0.374999999999998
40
0.499999999999996
40
0.499999999999996
40
0.562499999999996
40
0.562499999999996
40
0.593749999999995
40
0.593749999999995
40
0.624999999999994
40
0.624999999999994
40
0.749999999999996
40
0.749999999999996
40
0.874999999999998
40
0.874999999999998
40
0.937499999999999
40
0.937499999999999
40
1
40
1
40
1
40
1
41
1
10
19.525
20
34.5823373961183
30
7E-16
41
1
10
19.5622195860106
20
34.5724541675324
30
7E-16
41
1
10
19.5945527626463
20
34.5671629535747
30
7E-16
41
1
10
19.6502831620285
20
34.5595560666566
30
6E-16
41
1
10
19.6736722121477
20
34.5573218680375
30
6E-16
41
1
10
19.6973532499889
20
34.5535533760214
30
6E-16
41
1
10
19.7018100290752
20
34.5527519264845
30
5E-16
41
1
10
19.7101589953899
20
34.5509829365089
30
5E-16
41
1
10
19.714053652395
20
34.550013958086
30
5E-16
41
1
10
19.7248086661144
20
34.5467780239592
30
5E-16
41
1
10
19.7307699811131
20
34.5441736475513
30
5E-16
41
1
10
19.7450963028996
20
34.5343714254976
30
5E-16
41
1
10
19.7499188870622
20
34.5250929315945
30
5E-16
41
1
10
19.7500390410677
20
34.5057618070943
30
5E-16
41
1
10
19.7488895878321
20
34.4984375674309
30
6E-16
41
1
10
19.7453442789825
20
34.4861853249692
30
-3E-16
41
1
10
19.7438587539536
20
34.4818918757659
30
-3E-16
41
1
10
19.7402711814691
20
34.4729140189015
30
-3E-16
41
1
10
19.7381668877706
20
34.4682274758626
30
-3E-16
41
1
10
19.7261930824228
20
34.4441263109531
30
-2E-16
41
1
10
19.7119418691222
20
34.4225251979732
30
-2E-16
41
1
10
19.6743523284366
20
34.3786040709294
30
-1E-16
41
1
10
19.6510157767458
20
34.3562785888125
30
0
41
1
10
19.6088411734627
20
34.3257130957106
30
0
41
1
10
19.5936243810442
20
34.3160553927887
30
1E-16
41
1
10
19.5610028970169
20
34.2985800715884
30
1E-16
41
1
10
19.5435757761338
20
34.2907416162307
30
2E-16
41
1
10
19.5250000000016
20
34.2842132607019
30
2E-16
0
SPLINE
5
197
100
AcDbEntity
8
1
62
256
6
ByLayer
370
18
48
1
60
0
100
AcDbSpline
70
4
71
3
72
32
73
28
40
0
40
0
40
0
40
0
40
0.125
40
0.125
40
0.25
40
0.25
40
0.281249999999999
40
0.281249999999999
40
0.312499999999999
40
0.312499999999999
40
0.375
40
0.375
40
0.499999999999999
40
0.499999999999999
40
0.562500000000002
40
0.562500000000002
40
0.593750000000002
40
0.593750000000002
40
0.625000000000002
40
0.625000000000002
40
0.750000000000003
40
0.750000000000003
40
0.875000000000004
40
0.875000000000004
40
0.937500000000002
40
0.937500000000002
40
1
40
1
40
1
40
1
41
1
10
19.525
20
33.1494438671053
30
-3E-16
41
1
10
19.5622195860106
20
33.1283543480851
30
-3E-16
41
1
10
19.5945527626463
20
33.1114161231328
30
-3E-16
41
1
10
19.6502831620285
20
33.0798520119117
30
-3E-16
41
1
10
19.6736722121477
20
33.0653049199123
30
-3E-16
41
1
10
19.6973532499889
20
33.0458074093432
30
-3E-16
41
1
10
19.7018100290752
20
33.0418431247682
30
-3E-16
41
1
10
19.7101589953899
20
33.0337158852725
30
-3E-16
41
1
10
19.714053652395
20
33.0295483930203
30
-3E-16
41
1
10
19.7248086661144
20
33.0167370049187
30
-3E-16
41
1
10
19.7307699811131
20
33.0077558627321
30
-3E-16
41
1
10
19.7450963028996
20
32.978870481945
30
-3E-16
41
1
10
19.7499188870622
20
32.9569365331014
30
-3E-16
41
1
10
19.7500390410677
20
32.9187739058661
30
-3E-16
41
1
10
19.7488895878321
20
32.9051968755259
30
-2E-16
41
1
10
19.7453442789825
20
32.8835994807847
30
-2E-16
41
1
10
19.7438587539536
20
32.8761965865179
30
-2E-16
41
1
10
19.7402711814691
20
32.8610098580949
30
-2E-16
41
1
10
19.7381668877706
20
32.8532231044424
30
-2E-16
41
1
10
19.7261930824228
20
32.8137700441392
30
-1E-16
41
1
10
19.7119418691222
20
32.7802594449917
30
-1E-16
41
1
10
19.6743523284367
20
32.7129858892178
30
1E-16
41
1
10
19.6510157767459
20
32.6792177533648
30
1E-16
41
1
10
19.6088411734627
20
32.6316199317699
30
2E-16
41
1
10
19.5936243810442
20
32.6163256317706
30
3E-16
41
1
10
19.5610028970169
20
32.5876816872834
30
-1.4E-15
41
1
10
19.5435757761338
20
32.5743021018451
30
-1.4E-15
41
1
10
19.5250000000016
20
32.5622539472706
30
-1.3E-15
0
SPLINE
5
198
100
AcDbEntity
8
1
62
256
6
ByLayer
370
18
48
1
60
0
100
AcDbSpline
70
4
71
3
72
38
73
34
40
0
40
0
40
0
40
0
40
0.250000000000007
40
0.250000000000007
40
0.375000000000011
40
0.375000000000011
40
0.437500000000011
40
0.437500000000011
40
0.500000000000011
40
0.500000000000011
40
0.625000000000013
40
0.625000000000013
40
0.687500000000013
40
0.687500000000013
40
0.750000000000013
40
0.750000000000013
40
0.812500000000013
40
0.812500000000013
40
0.843750000000012
40
0.843750000000012
40
0.87500000000001
40
0.87500000000001
40
0.906250000000009
40
0.906250000000009
40
0.937500000000007
40
0.937500000000007
40
0.953125000000006
40
0.953125000000006
40
0.968750000000004
40
0.968750000000004
40
0.984375000000002
40
0.984375000000002
40
1
40
1
40
1
40
1
41
1
10
19.9242250034235
20
10.021
30
-3E-16
41
1
10
19.9219887293966
20
9.89445701759715
30
-1E-16
41
1
10
19.9150312552186
20
9.76795585018755
30
0
41
1
10
19.8971083492035
20
9.57827040765585
30
3E-16
41
1
10
19.8898712275837
20
9.51505311142435
30
3E-16
41
1
10
19.8768613363001
20
9.42024624659624
30
5E-16
41
1
10
19.8721638509689
20
9.38864715436037
30
5E-16
41
1
10
19.8619728041314
20
9.32545602062126
30
6E-16
41
1
10
19.8564774372253
20
9.29385768787552
30
6E-16
41
1
10
19.8387145982883
20
9.19945149330013
30
8E-16
41
1
10
19.8251882829258
20
9.13690783746213
30
9E-16
41
1
10
19.8013916574702
20
9.04391230340269
30
-6.1E-15
41
1
10
19.792868650864
20
9.01305191685384
30
-6.1E-15
41
1
10
19.7743191281751
20
8.95168265461044
30
-6E-15
41
1
10
19.7642991662281
20
8.92118632417649
30
-5.9E-15
41
1
10
19.7423447882712
20
8.86102601668017
30
-5.8E-15
41
1
10
19.7304156148049
20
8.83132041454877
30
-5.8E-15
41
1
10
19.7103470695674
20
8.78761766526446
30
-5.7E-15
41
1
10
19.7032760679352
20
8.77316852716743
30
-5.7E-15
41
1
10
19.6882549601022
20
8.74482121689806
30
-5.6E-15
41
1
10
19.6803077626059
20
8.7309170878105
30
-5.6E-15
41
1
10
19.6632153909608
20
8.70384830211717
30
-5.5E-15
41
1
10
19.6540736548598
20
8.69067161915976
30
-5.5E-15
41
1
10
19.6340132961949
20
8.66545523755008
30
-5.5E-15
41
1
10
19.6232427350501
20
8.65357561596858
30
-5.4E-15
41
1
10
19.6052901002551
20
8.63752430933292
30
-5.4E-15
41
1
10
19.5989596770452
20
8.63244707449752
30
-5.4E-15
41
1
10
19.5857499156981
20
8.62329805754612
30
-5.4E-15
41
1
10
19.5788658017674
20
8.6192119511137
30
-5.3E-15
41
1
10
19.564372786932
20
8.61230745056477
30
-5.3E-15
41
1
10
19.5566955113262
20
8.60948705861992
30
-5.3E-15
41
1
10
19.541116254682
20
8.60569693427905
30
-5.3E-15
41
1
10
19.5330973716575
20
8.60468622321591
30
-5.3E-15
41
1
10
19.5250000000001
20
8.60468622321591
30
-5.3E-15
0
SPLINE
5
199
100
AcDbEntity
8
1
62
256
6
ByLayer
370
18
48
1
60
0
100
AcDbSpline
70
4
71
3
72
43
73
39
40
0
40
0
40
0
40
0
40
0.0625000000000257
40
0.0937500000000388
40
0.109375000000045
40
0.109375000000045
40
0.117187500000047
40
0.117187500000047
40
0.125000000000048
40
0.250000000000042
40
0.250000000000042
40
0.375000000000036
40
0.375000000000036
40
0.50000000000003
40
0.50000000000003
40
0.625000000000023
40
0.625000000000023
40
0.68750000000002
40
0.68750000000002
40
0.750000000000017
40
0.750000000000017
40
0.812500000000014
40
0.812500000000014
40
0.843750000000012
40
0.843750000000012
40
0.875000000000011
40
0.875000000000011
40
0.906250000000009
40
0.906250000000009
40
0.937500000000008
40
0.937500000000008
40
0.953125000000006
40
0.953125000000006
40
0.968750000000004
40
0.968750000000004
40
0.984375000000002
40
0.984375000000002
40
1
40
1
40
1
40
1
41
1
10
16.0757749965766
20
-10.021
30
-6E-16
41
1
10
16.076331305945
20
-9.98952038445884
30
-6E-16
41
1
10
16.07761275216
20
-9.94227060734173
30
-7E-16
41
1
10
16.0798876533783
20
-9.88709290699197
30
-7E-16
41
1
10
16.0810304931352
20
-9.8634339205378
30
-8E-16
41
1
10
16.0816299798676
20
-9.85160252133795
30
-8E-16
41
1
10
16.0818327052825
20
-9.84769178091173
30
-8E-16
41
1
10
16.0822560831435
20
-9.83970917115576
30
-8E-16
41
1
10
16.0859358541538
20
-9.77186873930486
30
-9E-16
41
1
10
16.0909802997421
20
-9.70422614304249
30
-1E-15
41
1
10
16.102996933325
20
-9.57726439996497
30
-1.1E-15
41
1
10
16.1102631614043
20
-9.5139658866411
30
-1.2E-15
41
1
10
16.1276093321015
20
-9.38777676154052
30
-1.4E-15
41
1
10
16.1376818730846
20
-9.32488507675581
30
-1.5E-15
41
1
10
16.1612603543131
20
-9.19959944384439
30
-1.7E-15
41
1
10
16.174742973881
20
-9.13720211494103
30
-1.7E-15
41
1
10
16.1985504933508
20
-9.04412563127096
30
5.2E-15
41
1
10
16.207090129966
20
-9.01320154634413
30
5.2E-15
41
1
10
16.2255850359537
20
-8.95198655605043
30
5.1E-15
41
1
10
16.2355458392603
20
-8.92165032662425
30
5E-15
41
1
10
16.2573916884588
20
-8.86170959949249
30
4.9E-15
41
1
10
16.2692612681058
20
-8.83209922043798
30
4.9E-15
41
1
10
16.2892284460124
20
-8.78850610301197
30
4.8E-15
41
1
10
16.29624901373
20
-8.77411380224035
30
4.8E-15
41
1
10
16.3112567291455
20
-8.74569676206249
30
4.7E-15
41
1
10
16.319267913266
20
-8.73163093691085
30
4.7E-15
41
1
10
16.3364273600148
20
-8.70437407568855
30
4.7E-15
41
1
10
16.3455800522056
20
-8.69114990934449
30
4.6E-15
41
1
10
16.3655941891869
20
-8.66590720530087
30
4.6E-15
41
1
10
16.3765058237874
20
-8.6538327712054
30
4.6E-15
41
1
10
16.3944636891471
20
-8.63772876956506
30
4.5E-15
41
1
10
16.4007296421828
20
-8.63268193360435
30
4.5E-15
41
1
10
16.4140092943712
20
-8.62344594511057
30
4.5E-15
41
1
10
16.4210143743497
20
-8.61927705427959
30
4.5E-15
41
1
10
16.4355348576285
20
-8.61234354635729
30
4.4E-15
41
1
10
16.4431362663055
20
-8.6095326035578
30
4.4E-15
41
1
10
16.458937803677
20
-8.60567919643879
30
4.4E-15
41
1
10
16.4669236591641
20
-8.60468622321579
30
4.4E-15
41
1
10
16.4750000000001
20
-8.60468622321579
30
4.4E-15
0
SPLINE
5
19A
100
AcDbEntity
8
1
62
256
6
ByLayer
370
18
48
1
60
0
100
AcDbSpline
70
4
71
3
72
40
73
36
40
0
40
0
40
0
40
0
40
0.0156250000000008
40
0.0156250000000008
40
0.0312500000000015
40
0.0312500000000015
40
0.0468750000000023
40
0.0468750000000023
40
0.0625000000000031
40
0.0625000000000031
40
0.0937500000000024
40
0.0937500000000024
40
0.125000000000002
40
0.125000000000002
40
0.187500000000001
40
0.187500000000001
40
0.25
40
0.25
40
0.3125
40
0.3125
40
0.374999999999999
40
0.374999999999999
40
0.499999999999998
40
0.499999999999998
40
0.624999999999996
40
0.624999999999996
40
0.749999999999995
40
0.749999999999995
40
0.874999999999993
40
0.874999999999993
40
0.890624999999994
40
0.890624999999994
40
0.906249999999994
40
0.937499999999995
40
1
40
1
40
1
40
1
41
1
10
19.5250000000001
20
-8.60468622321579
30
7E-16
41
1
10
19.5331750682897
20
-8.60468622321579
30
7E-16
41
1
10
19.5412548303794
20
-8.60571404256208
30
7E-16
41
1
10
19.5569764263643
20
-8.60957245314984
30
7E-16
41
1
10
19.5647168072676
20
-8.61244293736692
30
7E-16
41
1
10
19.5792963057458
20
-8.61944699930785
30
6E-16
41
1
10
19.5862194972576
20
-8.62358925264414
30
6E-16
41
1
10
19.5995016749871
20
-8.63285918895454
30
6E-16
41
1
10
19.6058698919062
20
-8.63800578204888
30
6E-16
41
1
10
19.623882910249
20
-8.65422764261399
30
6E-16
41
1
10
19.6346453028471
20
-8.66618235740765
30
6E-16
41
1
10
19.6546567990752
20
-8.6914761903443
30
6E-16
41
1
10
19.6639013926188
20
-8.70486566667574
30
6E-16
41
1
10
19.6895492152164
20
-8.74569933326376
30
7E-16
41
1
10
19.704165435704
20
-8.77407950022086
30
7E-16
41
1
10
19.7307300235338
20
-8.83208408304083
30
7E-16
41
1
10
19.7426211121792
20
-8.86173521287625
30
7E-16
41
1
10
19.7645434509462
20
-8.9219048748823
30
8E-16
41
1
10
19.7745687445431
20
-8.95246764405172
30
8E-16
41
1
10
19.793047834497
20
-9.01368652839943
30
8E-16
41
1
10
19.8015265136645
20
-9.04442127251426
30
9E-16
41
1
10
19.8251817707373
20
-9.13691876977015
30
-6.2E-15
41
1
10
19.8386032915785
20
-9.19897055161229
30
-6.1E-15
41
1
10
19.8620987860416
20
-9.32362540063338
30
-6E-15
41
1
10
19.8721504788895
20
-9.38623213708507
30
-5.9E-15
41
1
10
19.8894802589205
20
-9.5119023766994
30
-5.8E-15
41
1
10
19.8967512115135
20
-9.57496705481032
30
-5.7E-15
41
1
10
19.9087954880564
20
-9.70150772891876
30
-5.6E-15
41
1
10
19.9135662121702
20
-9.76498415306605
30
-5.5E-15
41
1
10
19.9175812854355
20
-9.83661778071723
30
-5.4E-15
41
1
10
19.9180085799534
20
-9.84457941337985
30
-5.4E-15
41
1
10
19.9188310759013
20
-9.8606258042069
30
-5.4E-15
41
1
10
19.9200068263136
20
-9.88469355269308
30
-5.4E-15
41
1
10
19.9223453911859
20
-9.94083880312866
30
-5.3E-15
41
1
10
19.9236584620944
20
-9.98894139332998
30
-5.3E-15
41
1
10
19.9242250034235
20
-10.021
30
-5.2E-15
0
SPLINE
5
19B
100
AcDbEntity
8
1
62
256
6
ByLayer
370
18
48
1
60
0
100
AcDbSpline
70
4
71
3
72
8
73
4
40
0
40
0
40
0
40
0
40
1
40
1
40
1
40
1
41
1
10
25.95
20
10.021
30
-5E-16
41
1
10
25.716740368086
20
10.021
30
-2E-16
41
1
10
25.4834057019011
20
10.021
30
1E-16
41
1
10
25.2500000000001
20
10.021
30
4E-16
0
SPLINE
5
19C
100
AcDbEntity
8
1
62
256
6
ByLayer
370
18
48
1
60
0
100
AcDbSpline
70
4
71
3
72
8
73
4
40
0
40
0
40
0
40
0
40
1
40
1
40
1
40
1
41
1
10
16.075
20
10.021
30
4.4E-15
41
1
10
15.5447752597817
20
10.021
30
5E-15
41
1
10
15.0133819693916
20
10.021
30
5.6E-15
41
1
10
14.4810501092893
20
10.021
30
-8E-16
0
SPLINE
5
19D
100
AcDbEntity
8
1
62
256
6
ByLayer
370
18
48
1
60
0
100
AcDbSpline
70
4
71
3
72
8
73
4
40
0
40
0
40
0
40
0
40
1
40
1
40
1
40
1
41
1
10
21.5189498907108
20
10.021
30
4.9E-15
41
1
10
20.9866180306085
20
10.021
30
5.5E-15
41
1
10
20.4552247402184
20
10.021
30
-9E-16
41
1
10
19.925
20
10.021
30
-3E-16
0
SPLINE
5
19E
100
AcDbEntity
8
1
62
256
6
ByLayer
370
18
48
1
60
0
100
AcDbSpline
70
4
71
3
72
8
73
4
40
0
40
0
40
0
40
0
40
1
40
1
40
1
40
1
41
1
10
25.25
20
-10.021
30
-4.6E-15
41
1
10
25.4834057019011
20
-10.021
30
-4.9E-15
41
1
10
25.716740368086
20
-10.021
30
-5.1E-15
41
1
10
25.95
20
-10.021
30
-5.4E-15
0
SPLINE
5
19F
100
AcDbEntity
8
1
62
256
6
ByLayer
370
18
48
1
60
0
100
AcDbSpline
70
4
71
3
72
8
73
4
40
0
40
0
40
0
40
0
40
1
40
1
40
1
40
1
41
1
10
19.925
20
-10.021
30
-5.2E-15
41
1
10
20.4552247402184
20
-10.021
30
-5.9E-15
41
1
10
20.9866180306085
20
-10.021
30
6E-16
41
1
10
21.5189498907108
20
-10.021
30
-1E-16
0
SPLINE
5
1A0
100
AcDbEntity
8
1
62
256
6
ByLayer
370
18
48
1
60
0
100
AcDbSpline
70
4
71
3
72
8
73
4
40
0
40
0
40
0
40
0
40
1
40
1
40
1
40
1
41
1
10
14.4810501092893
20
-10.021
30
-5.8E-15
41
1
10
15.0133819693916
20
-10.021
30
7E-16
41
1
10
15.5447752597817
20
-10.021
30
1E-16
41
1
10
16.075
20
-10.021
30
-6E-16
0
SPLINE
5
1A1
100
AcDbEntity
8
1
62
256
6
ByLayer
370
18
48
1
60
0
100
AcDbSpline
70
4
71
3
72
91
73
87
40
0
40
0
40
0
40
0
40
0.0312420577757368
40
0.0312420577757368
40
0.0624923139765196
40
0.0624923139765196
40
0.0703048780267153
40
0.0703048780267153
40
0.078117442076911
40
0.078117442076911
40
0.0937425701773026
40
0.0937425701773026
40
0.124992826378085
40
0.156243082578868
40
0.156243082578868
40
0.171868210679259
40
0.171868210679259
40
0.179680774729455
40
0.179680774729455
40
0.18749333877965
40
0.18749333877965
40
0.218743594980433
40
0.249993851181216
40
0.249993851181216
40
0.281244107381999
40
0.281244107381999
40
0.289056671432194
40
0.289056671432194
40
0.29686923548239
40
0.312494363582782
40
0.312494363582782
40
0.343744619783564
40
0.374994875984347
40
0.374994875984347
40
0.390620004084738
40
0.390620004084738
40
0.398432568134934
40
0.398432568134934
40
0.40624513218513
40
0.40624513218513
40
0.437495388385912
40
0.468745644586695
40
0.468745644586695
40
0.499995900787478
40
0.499995900787478
40
0.531246156988261
40
0.531246156988261
40
0.562496413189043
40
0.593746669389826
40
0.593746669389826
40
0.601559233440022
40
0.601559233440022
40
0.609371797490217
40
0.609371797490217
40
0.624996925590608
40
0.624996925590608
40
0.656247181791391
40
0.687497437992173
40
0.687497437992173
40
0.703122566092564
40
0.703122566092564
40
0.71093513014276
40
0.71093513014276
40
0.718747694192956
40
0.718747694192956
40
0.749997950393738
40
0.749997950393738
40
0.781248206594521
40
0.812498462795303
40
0.812498462795303
40
0.828123590895694
40
0.828123590895694
40
0.843748718996085
40
0.843748718996085
40
0.874998975196868
40
0.906249231397651
40
0.906249231397651
40
0.921874359498043
40
0.921874359498043
40
0.929686923548239
40
0.929686923548239
40
0.937499487598434
40
0.937499487598434
40
0.968749743799217
40
0.968749743799217
40
1
40
1
40
1
40
1
41
1
10
1.97750030719082
20
-39.9699999613989
30
0
41
1
10
1.97744296587391
20
-39.9700071654828
30
0
41
1
10
1.98539134865303
20
-39.9690060379802
30
0
41
1
10
2.01726934598872
20
-39.9650190588861
30
0
41
1
10
2.04120219023253
20
-39.9620326318288
30
-1E-16
41
1
10
2.08137964597508
20
-39.9570789266368
30
-1E-16
41
1
10
2.08992941054291
20
-39.9560271538305
30
-1E-16
41
1
10
2.10806926440176
20
-39.9538020599552
30
-2E-16
41
1
10
2.11763644721499
20
-39.9526315574463
30
1E-16
41
1
10
2.14774797854958
20
-39.9489592660889
30
0
41
1
10
2.16972830952231
20
-39.94629341633
30
0
41
1
10
2.24128239690175
20
-39.9376832624885
30
-1E-16
41
1
10
2.35162935398817
20
-39.9245700764387
30
0
41
1
10
2.49141916947218
20
-39.9086053872681
30
2E-16
41
1
10
2.6074605654577
20
-39.8957180498024
30
1E-16
41
1
10
2.64801087750873
20
-39.891269993928
30
0
41
1
10
2.71169261984814
20
-39.8843895352644
30
-1E-16
41
1
10
2.73342602833158
20
-39.8820581558557
30
-1E-16
41
1
10
2.77769833442406
20
-39.8773462086742
30
3E-16
41
1
10
2.80022174965966
20
-39.8749672370681
30
3E-16
41
1
10
2.91475370137897
20
-39.8629693820462
30
1E-16
41
1
10
3.11023041241734
20
-39.8431151831053
30
-2E-16
41
1
10
3.32954339147571
20
-39.8225360811375
30
0
41
1
10
3.56081935547658
20
-39.8018855297598
30
1E-16
41
1
10
3.68243777969805
20
-39.7915240322585
30
0
41
1
10
3.84218873144806
20
-39.778714804606
30
-2E-16
41
1
10
3.87455143148531
20
-39.7761582833317
30
2E-16
41
1
10
3.93970161412823
20
-39.771092076558
30
1E-16
41
1
10
4.03818420583389
20
-39.7635532224284
30
0
41
1
10
4.1389133313763
20
-39.7562144949296
30
7E-16
41
1
10
4.3433238067676
20
-39.7418525400062
30
5E-16
41
1
10
4.62372997040139
20
-39.7235450932095
30
1E-16
41
1
10
4.91974160569649
20
-39.7074277852377
30
6E-16
41
1
10
5.14773133039957
20
-39.6963541288124
30
3E-16
41
1
10
5.22472652449865
20
-39.69283202658
30
2E-16
41
1
10
5.34175058894624
20
-39.6878276807402
30
1E-16
41
1
10
5.3809717543872
20
-39.6862080231962
30
0
41
1
10
5.45949289289801
20
-39.6830822510972
30
-1E-16
41
1
10
5.49884215928664
20
-39.6815740040395
30
-1E-16
41
1
10
5.69602768146812
20
-39.6743101611456
30
5E-16
41
1
10
6.01432884643896
20
-39.6644638269593
30
1E-16
41
1
10
6.33812461077105
20
-39.6583763642154
30
6E-16
41
1
10
6.66468945643987
20
-39.654270513723
30
2E-16
41
1
10
6.82939697216676
20
-39.6532082275732
30
0
41
1
10
7.16151986619975
20
-39.6531701886918
30
5E-16
41
1
10
7.32618357324374
20
-39.6541942504003
30
3E-16
41
1
10
7.65281418291819
20
-39.6582260354954
30
-1E-16
41
1
10
7.97674733580047
20
-39.6642416490202
30
4E-16
41
1
10
8.29532417523654
20
-39.6740261769261
30
0
41
1
10
8.49272459686921
20
-39.6812558254618
30
7E-16
41
1
10
8.53211898062409
20
-39.6827574601149
30
6E-16
41
1
10
8.61073463378321
20
-39.685870497294
30
6E-16
41
1
10
8.650009618024
20
-39.6874842561504
30
5E-16
41
1
10
8.76703512121006
20
-39.692464413791
30
4E-16
41
1
10
8.8440467604628
20
-39.695971276321
30
3E-16
41
1
10
9.07212875351503
20
-39.7070024653595
30
0
41
1
10
9.36837782703161
20
-39.7230714690997
30
6E-16
41
1
10
9.64921950226896
20
-39.7413538700203
30
3E-16
41
1
10
9.85402226292558
20
-39.755706499225
30
0
41
1
10
9.92131670672659
20
-39.7605974974013
30
8E-16
41
1
10
10.0207760664672
20
-39.7680699666023
30
7E-16
41
1
10
10.05368201842
20
-39.7705834457541
30
-2E-16
41
1
10
10.118994359027
20
-39.7756515918685
30
2E-16
41
1
10
10.1513784323584
20
-39.7782046483844
30
1E-16
41
1
10
10.3111646077805
20
-39.7909910558514
30
0
41
1
10
10.4328786334672
20
-39.8013410507715
30
-2E-16
41
1
10
10.6644518708877
20
-39.8219826382585
30
0
41
1
10
10.884167674525
20
-39.8425663198192
30
2E-16
41
1
10
11.0802137778337
20
-39.8624532338297
30
0
41
1
10
11.218123722373
20
-39.8768839227234
30
3E-16
41
1
10
11.2626531892471
20
-39.881622561671
30
2E-16
41
1
10
11.3477151499693
20
-39.8908038646135
30
2E-16
41
1
10
11.3883520751813
20
-39.8952571446875
30
1E-16
41
1
10
11.50467921386
20
-39.908164432729
30
0
41
1
10
11.6449188275324
20
-39.9241668091915
30
-2E-16
41
1
10
11.7558121780452
20
-39.9373368346973
30
-1E-16
41
1
10
11.8277979028517
20
-39.9459942784891
30
-1E-16
41
1
10
11.8499257577082
20
-39.9486767072694
30
1E-16
41
1
10
11.8802621782084
20
-39.9523747972785
30
0
41
1
10
11.8899074871481
20
-39.9535543687351
30
0
41
1
10
11.908187905208
20
-39.9557958245789
30
0
41
1
10
11.9168148244402
20
-39.9568566941817
30
0
41
1
10
11.9574009712226
20
-39.9618590649141
30
-1E-16
41
1
10
11.9817334975843
20
-39.9648946160049
30
-1E-16
41
1
10
12.0142828221731
20
-39.9689650259819
30
0
41
1
10
12.0225079380847
20
-39.9700009998059
30
0
41
1
10
12.0225015504068
20
-39.9700001952776
30
0
0
SPLINE
5
1A2
100
AcDbEntity
8
1
62
256
6
ByLayer
370
18
48
1
60
0
100
AcDbSpline
70
4
71
3
72
53
73
49
40
0
40
0
40
0
40
0
40
0.0625000000000001
40
0.0625000000000001
40
0.125
40
0.125
40
0.187500000000001
40
0.187500000000001
40
0.203125000000001
40
0.203125000000001
40
0.218750000000001
40
0.218750000000001
40
0.250000000000001
40
0.250000000000001
40
0.312500000000001
40
0.312500000000001
40
0.375000000000001
40
0.375000000000001
40
0.406250000000001
40
0.406250000000001
40
0.421875000000001
40
0.421875000000001
40
0.437500000000001
40
0.437500000000001
40
0.5
40
0.5
40
0.5625
40
0.5625
40
0.624999999999999
40
0.624999999999999
40
0.640624999999999
40
0.640624999999999
40
0.656249999999999
40
0.687499999999999
40
0.687499999999999
40
0.749999999999999
40
0.749999999999999
40
0.812499999999999
40
0.812499999999999
40
0.843749999999999
40
0.843749999999999
40
0.859374999999999
40
0.859374999999999
40
0.875
40
0.875
40
0.9375
40
0.9375
40
1
40
1
40
1
40
1
41
1
10
3.95000000000005
20
-1.02099999999996
30
3.5E-15
41
1
10
3.95000000000005
20
-1.31949577845313
30
3.9E-15
41
1
10
3.96481059181392
20
-1.61529472729808
30
4.2E-15
41
1
10
4.02292103650571
20
-2.2017099997083
30
4.8E-15
41
1
10
4.06622413454203
20
-2.49232574118804
30
5.1E-15
41
1
10
4.18106200323979
20
-3.06843729411941
30
-1.5E-15
41
1
10
4.25259588511157
20
-3.3539332201203
30
-1.2E-15
41
1
10
4.36001264188467
20
-3.70755554039349
30
-9E-16
41
1
10
4.38239806625488
20
-3.77811727250534
30
-9E-16
41
1
10
4.42899061456541
20
-3.9189126285649
30
-8E-16
41
1
10
4.45323077693627
20
-3.98923387808168
30
-7E-16
41
1
10
4.52833030766818
20
-4.19865289691029
30
-6E-16
41
1
10
4.58163029159545
20
-4.33642880259723
30
-5E-16
41
1
10
4.75102599340768
20
-4.74437805302713
30
-2E-16
41
1
10
4.87659392635129
20
-5.00918581971899
30
0
41
1
10
5.15251351193764
20
-5.5248557071825
30
2E-16
41
1
10
5.30286568437346
20
-5.7757173589259
30
4E-16
41
1
10
5.54717846921082
20
-6.14152082159708
30
5E-16
41
1
10
5.63175260946461
20
-6.26170400228418
30
5E-16
41
1
10
5.76339771583575
20
-6.43931878320231
30
6E-16
41
1
10
5.80807712699584
20
-6.49808016774781
30
6E-16
41
1
10
5.89904946419358
20
-6.61470771755975
30
6E-16
41
1
10
5.94522536295598
20
-6.67242169031647
30
6E-16
41
1
10
6.17902102035339
20
-6.9573963023098
30
7E-16
41
1
10
6.37586758519829
20
-7.17454395232565
30
7E-16
41
1
10
6.78871041473835
20
-7.58787374837496
30
7E-16
41
1
10
7.00470782670472
20
-7.78405432296091
30
7E-16
41
1
10
7.45597307110577
20
-8.15549864431634
30
5E-16
41
1
10
7.69123915639859
20
-8.33076398470573
30
5E-16
41
1
10
7.99781114213681
20
-8.53640261471054
30
3E-16
41
1
10
8.0598038886893
20
-8.57688964050212
30
3E-16
41
1
10
8.18482669160252
20
-8.65635261841007
30
2E-16
41
1
10
8.37346970086783
20
-8.7730010344857
30
2E-16
41
1
10
8.56540657615439
20
-8.88210085589958
30
1E-16
41
1
10
8.95361731390369
20
-9.09039837054132
30
6.9E-15
41
1
10
9.21819689125545
20
-9.2160846975118
30
-3E-16
41
1
10
9.75886548255967
20
-9.44135795755909
30
-7E-16
41
1
10
10.0349541480895
20
-9.54094545968667
30
-1E-15
41
1
10
10.4579424473345
20
-9.67035777343588
30
-1.3E-15
41
1
10
10.600417050923
20
-9.71016091426475
30
-1.4E-15
41
1
10
10.8163999543089
20
-9.76475578353896
30
-1.6E-15
41
1
10
10.888849305346
20
-9.78211901507544
30
-1.7E-15
41
1
10
11.0341451353131
20
-9.81503483731126
30
-1.8E-15
41
1
10
11.1069050912331
20
-9.83057008591311
30
-1.9E-15
41
1
10
11.4712618391039
20
-9.90366381852465
30
-2.3E-15
41
1
10
11.7645256608926
20
-9.94750856384428
30
-2.6E-15
41
1
10
12.3545903195274
20
-10.0061762287374
30
-3.2E-15
41
1
10
12.651391048624
20
-10.021
30
-3.6E-15
41
1
10
12.9500000000001
20
-10.021
30
-3.9E-15
0
SPLINE
5
1A3
100
AcDbEntity
8
1
62
256
6
ByLayer
370
18
48
1
60
0
100
AcDbSpline
70
4
71
3
72
53
73
49
40
0
40
0
40
0
40
0
40
0.0624999999999999
40
0.0624999999999999
40
0.125
40
0.125
40
0.1875
40
0.1875
40
0.203125
40
0.203125
40
0.21875
40
0.21875
40
0.25
40
0.25
40
0.3125
40
0.3125
40
0.375
40
0.375
40
0.40625
40
0.40625
40
0.421875
40
0.421875
40
0.4375
40
0.4375
40
0.499999999999999
40
0.499999999999999
40
0.562499999999999
40
0.562499999999999
40
0.624999999999999
40
0.624999999999999
40
0.640624999999999
40
0.640624999999999
40
0.656249999999999
40
0.687499999999999
40
0.687499999999999
40
0.749999999999999
40
0.749999999999999
40
0.8125
40
0.8125
40
0.84375
40
0.84375
40
0.859375
40
0.859375
40
0.875
40
0.875
40
0.9375
40
0.9375
40
1
40
1
40
1
40
1
41
1
10
12.9500000000001
20
10.021
30
1E-15
41
1
10
12.6513995898491
20
10.021
30
1.4E-15
41
1
10
12.3554358706993
20
10.0061788664818
30
1.8E-15
41
1
10
11.7685820323744
20
9.94799262642769
30
2.5E-15
41
1
10
11.4776924579571
20
9.90462440122073
30
2.9E-15
41
1
10
10.90093407144
20
9.78956891520701
30
3.8E-15
41
1
10
10.6150651082532
20
9.71788266959001
30
4.2E-15
41
1
10
10.260920530736
20
9.61019857599155
30
4.8E-15
41
1
10
10.1902515501292
20
9.58775582741742
30
4.9E-15
41
1
10
10.0492362611177
20
9.54104029593407
30
5.1E-15
41
1
10
9.97883594728448
20
9.51674553441816
30
5.2E-15
41
1
10
9.76928291662657
20
9.4415148827417
30
5.6E-15
41
1
10
9.63141593331174
20
9.38812113486389
30
5.8E-15
41
1
10
9.22318902552516
20
9.2184230788209
30
6.5E-15
41
1
10
8.95819018744344
20
9.09262556564607
30
-2E-16
41
1
10
8.44213164238765
20
8.81617849199438
30
-6.3E-15
41
1
10
8.19107236591393
20
8.66552843235166
30
-5.8E-15
41
1
10
7.82497353851537
20
8.4207064512018
30
-5.1E-15
41
1
10
7.70469210541836
20
8.33595216287998
30
-4.9E-15
41
1
10
7.52693125926049
20
8.20401959114409
30
-4.5E-15
41
1
10
7.46807114721226
20
8.15920205966205
30
-4.4E-15
41
1
10
7.35147254441333
20
8.06812444339053
30
-4.1E-15
41
1
10
7.29385841229828
20
8.0219636658326
30
-4E-15
41
1
10
7.00916971332487
20
7.78808312878743
30
-3.4E-15
41
1
10
6.79221433957566
20
7.5911574465199
30
-2.9E-15
41
1
10
6.37921455098677
20
7.17811553365897
30
-1.9E-15
41
1
10
6.18317166017891
20
6.96199820312364
30
-1.4E-15
41
1
10
5.81196667577713
20
6.51043582642222
30
-4E-16
41
1
10
5.63680294200186
20
6.27499258029496
30
0
41
1
10
5.43128138525789
20
5.96815331984081
30
7E-16
41
1
10
5.3908019761093
20
5.906078092961
30
8E-16
41
1
10
5.31159185569575
20
5.78127139559783
30
1E-15
41
1
10
5.19530269278027
20
5.59294346655574
30
1.4E-15
41
1
10
5.08650644245262
20
5.40129273707677
30
1.7E-15
41
1
10
4.87875251649962
20
5.01361137958568
30
2.4E-15
41
1
10
4.75334401071582
20
4.74932754465408
30
2.9E-15
41
1
10
4.52850788340722
20
4.20911326917033
30
3.8E-15
41
1
10
4.42907948698983
20
3.93318329900788
30
4.3E-15
41
1
10
4.29985237680533
20
3.51031126738977
30
4.9E-15
41
1
10
4.26010205637554
20
3.36785509251016
30
5.1E-15
41
1
10
4.20557768624825
20
3.15186653094986
30
5.4E-15
41
1
10
4.18824057401534
20
3.07942082085481
30
5.5E-15
41
1
10
4.15543878206043
20
2.93443081883632
30
-1.4E-15
41
1
10
4.13995502156089
20
2.86181764280261
30
-1.3E-15
41
1
10
4.06709388018278
20
2.49816374356394
30
-7E-16
41
1
10
4.02335593810214
20
2.20536293163553
30
-3E-16
41
1
10
3.96480955691901
20
1.61601467478925
30
4E-16
41
1
10
3.95000000000005
20
1.31946738315415
30
8E-16
41
1
10
3.95000000000005
20
1.02100000000004
30
1.1E-15
0
SPLINE
5
1A4
100
AcDbEntity
8
SK1
62
256
6
ByLayer
370
18
48
1
60
0
100
AcDbSpline
70
4
71
3
72
36
73
32
40
0
40
0
40
0
40
0
40
0.12500000000001
40
0.12500000000001
40
0.187500000000015
40
0.187500000000015
40
0.218750000000018
40
0.218750000000018
40
0.25000000000002
40
0.25000000000002
40
0.375000000000025
40
0.375000000000025
40
0.437500000000025
40
0.437500000000025
40
0.468750000000026
40
0.468750000000026
40
0.500000000000026
40
0.500000000000026
40
0.625000000000015
40
0.625000000000015
40
0.687500000000012
40
0.687500000000012
40
0.75000000000001
40
0.812500000000007
40
0.875000000000005
40
0.875000000000005
40
0.906250000000004
40
0.906250000000004
40
0.937500000000002
40
0.937500000000002
40
1
40
1
40
1
40
1
41
1
10
-31.8
20
6.11999999999998
30
-7E-16
41
1
10
-31.8
20
6.2436467867033
30
-9E-16
41
1
10
-31.8119522509508
20
6.36498509608725
30
-1E-15
41
1
10
-31.8468580208138
20
6.54373376662298
30
-1.1E-15
41
1
10
-31.861344004085
20
6.60277002551041
30
-1.2E-15
41
1
10
-31.887415968707
20
6.69049962463879
30
-1.3E-15
41
1
10
-31.8968317291632
20
6.71960515356054
30
-1.3E-15
41
1
10
-31.9171408765434
20
6.77753745067227
30
-1.3E-15
41
1
10
-31.9280390978805
20
6.8063622423048
30
-1.4E-15
41
1
10
-31.9856628824046
20
6.9482905939748
30
-1.5E-15
41
1
10
-32.0421004623434
20
7.05608706441831
30
-1.5E-15
41
1
10
-32.1421229490193
20
7.20937668476611
30
-1.6E-15
41
1
10
-32.1780430705712
20
7.25906266466527
30
-1.6E-15
41
1
10
-32.2359508807698
20
7.3314100621792
30
-1.6E-15
41
1
10
-32.2559851540277
20
7.35522628170747
30
-1.6E-15
41
1
10
-32.2970904761219
20
7.40172060536659
30
-1.6E-15
41
1
10
-32.3181568997679
20
7.424401997329
30
-1.6E-15
41
1
10
-32.4260308303844
20
7.53501990924877
30
-1.6E-15
41
1
10
-32.5203868577688
20
7.61467311216018
30
2E-15
41
1
10
-32.6744130060927
20
7.72064207033083
30
2E-15
41
1
10
-32.7279025073731
20
7.75372517734206
30
2.1E-15
41
1
10
-32.8391408153298
20
7.81497874748382
30
2.1E-15
41
1
10
-32.9527474488359
20
7.87028892524731
30
2.2E-15
41
1
10
-33.130137382201
20
7.93582429697574
30
2.3E-15
41
1
10
-33.2531056130709
20
7.96780566689696
30
2.4E-15
41
1
10
-33.3471728357289
20
7.98722737931772
30
2.5E-15
41
1
10
-33.3788954489363
20
7.99294787424924
30
2.6E-15
41
1
10
-33.4426993293079
20
8.00277408024169
30
2.6E-15
41
1
10
-33.4746786370105
20
8.006867413451
30
2.7E-15
41
1
10
-33.5708476649254
20
8.01670057852999
30
2.8E-15
41
1
10
-33.6352679066373
20
8.01999999999998
30
2.8E-15
41
1
10
-33.7
20
8.01999999999998
30
2.9E-15
0
SPLINE
5
1A5
100
AcDbEntity
8
SK1
62
256
6
ByLayer
370
18
48
1
60
0
100
AcDbSpline
70
4
71
3
72
37
73
33
40
0
40
0
40
0
40
0
40
0.0624999999999903
40
0.124999999999981
40
0.187499999999971
40
0.187499999999971
40
0.218749999999969
40
0.218749999999969
40
0.249999999999968
40
0.249999999999968
40
0.374999999999965
40
0.374999999999965
40
0.406249999999965
40
0.406249999999965
40
0.437499999999966
40
0.437499999999966
40
0.499999999999973
40
0.562499999999979
40
0.562499999999979
40
0.593749999999982
40
0.593749999999982
40
0.624999999999985
40
0.624999999999985
40
0.749999999999992
40
0.749999999999992
40
0.812499999999995
40
0.812499999999995
40
0.843749999999996
40
0.843749999999996
40
0.874999999999997
40
0.874999999999997
40
1
40
1
40
1
40
1
41
1
10
-33.7
20
-8.02000000000001
30
4E-16
41
1
10
-33.6353480523558
20
-8.02000000000004
30
3E-16
41
1
10
-33.5072818300391
20
-8.01341951373536
30
1E-16
41
1
10
-33.3187439792002
20
-7.98460115487319
30
-1E-16
41
1
10
-33.1953979615136
20
-7.952885678016
30
-3E-16
41
1
10
-33.1037835719949
20
-7.924314067023
30
-4E-16
41
1
10
-33.0733992812249
20
-7.91398579773164
30
-5E-16
41
1
10
-33.0136494145292
20
-7.89198656232381
30
-6E-16
41
1
10
-32.9841907577923
20
-7.88028818449302
30
-6E-16
41
1
10
-32.8389255548399
20
-7.8183841199866
30
-9E-16
41
1
10
-32.7291430698381
20
-7.75804542515223
30
-1.1E-15
41
1
10
-32.5997333931206
20
-7.66932183338159
30
-1.4E-15
41
1
10
-32.5741801803655
20
-7.65085353289535
30
-1.4E-15
41
1
10
-32.5242890326131
20
-7.61287860411559
30
-1.5E-15
41
1
10
-32.4999384404486
20
-7.59336963705675
30
-1.6E-15
41
1
10
-32.4286220035954
20
-7.53331572081839
30
1.8E-15
41
1
10
-32.33815186041
20
-7.44917970541982
30
1.6E-15
41
1
10
-32.2566218854057
20
-7.35711401143075
30
1.4E-15
41
1
10
-32.1988182709875
20
-7.28507565472003
30
1.3E-15
41
1
10
-32.1801087454141
20
-7.26056377710492
30
1.2E-15
41
1
10
-32.1438175840959
20
-7.21052805733797
30
1.1E-15
41
1
10
-32.1262874161439
20
-7.18506930959882
30
1.1E-15
41
1
10
-32.0422546987304
20
-7.0564739235555
30
8E-16
41
1
10
-31.9859045326461
20
-6.94865802548932
30
6E-16
41
1
10
-31.9171451869272
20
-6.77964237591769
30
3E-16
41
1
10
-31.8968726158045
20
-6.72208010005104
30
2E-16
41
1
10
-31.8705431879628
20
-6.63383847220592
30
1E-16
41
1
10
-31.8624719326573
20
-6.60417721253211
30
1E-16
41
1
10
-31.847828896211
20
-6.54473423890309
30
0
41
1
10
-31.841240423693
20
-6.51489778638395
30
-1E-16
41
1
10
-31.8119301587763
20
-6.36514294182197
30
-3E-16
41
1
10
-31.8
20
-6.24352039525303
30
-4E-16
41
1
10
-31.8
20
-6.12000000000003
30
-6E-16
0
SPLINE
5
1A6
100
AcDbEntity
8
SK1
62
256
6
ByLayer
370
18
48
1
60
0
100
AcDbSpline
70
4
71
3
72
87
73
83
40
0
40
0
40
0
40
0
40
0.0624999999999685
40
0.0624999999999685
40
0.124999999999937
40
0.124999999999937
40
0.187499999999906
40
0.187499999999906
40
0.249999999999874
40
0.249999999999874
40
0.312499999999843
40
0.312499999999843
40
0.343749999999826
40
0.343749999999826
40
0.359374999999818
40
0.359374999999818
40
0.37499999999981
40
0.37499999999981
40
0.406249999999794
40
0.406249999999794
40
0.421874999999785
40
0.421874999999785
40
0.437499999999777
40
0.437499999999777
40
0.453124999999769
40
0.453124999999769
40
0.460937499999766
40
0.460937499999766
40
0.468749999999763
40
0.468749999999763
40
0.476562499999759
40
0.476562499999759
40
0.484374999999756
40
0.484374999999756
40
0.492187499999753
40
0.492187499999753
40
0.496093749999752
40
0.496093749999752
40
0.499999999999751
40
0.499999999999751
40
0.50390624999975
40
0.50390624999975
40
0.507812499999749
40
0.507812499999749
40
0.511718749999749
40
0.513671874999748
40
0.513671874999748
40
0.515624999999748
40
0.515624999999748
40
0.51953124999975
40
0.51953124999975
40
0.523437499999752
40
0.523437499999752
40
0.531249999999755
40
0.531249999999755
40
0.539062499999758
40
0.539062499999758
40
0.546874999999762
40
0.546874999999762
40
0.562499999999768
40
0.562499999999768
40
0.570312499999772
40
0.570312499999772
40
0.578124999999775
40
0.578124999999775
40
0.593749999999783
40
0.593749999999783
40
0.6249999999998
40
0.6249999999998
40
0.656249999999818
40
0.656249999999818
40
0.687499999999834
40
0.687499999999834
40
0.749999999999867
40
0.749999999999867
40
0.8124999999999
40
0.8124999999999
40
0.874999999999934
40
0.874999999999934
40
0.937499999999967
40
0.937499999999967
40
1
40
1
40
1
40
1
41
1
10
-38.6109569339023
20
13.4976121201826
30
-1.1E-15
41
1
10
-38.6160035181082
20
13.6522048661151
30
2.3E-15
41
1
10
-38.6231319700824
20
13.8061268406852
30
2.1E-15
41
1
10
-38.6416892881492
20
14.1108350094325
30
1.8E-15
41
1
10
-38.6531163292079
20
14.2617503238144
30
1.6E-15
41
1
10
-38.6806100532368
20
14.5604737875224
30
1.3E-15
41
1
10
-38.6966725330052
20
14.7082847517301
30
1.1E-15
41
1
10
-38.7340349083021
20
15.000399186347
30
8E-16
41
1
10
-38.755324664789
20
15.1447094468655
30
7E-16
41
1
10
-38.8041944780495
20
15.4291173580477
30
4E-16
41
1
10
-38.8317452583228
20
15.5692346151638
30
3E-16
41
1
10
-38.8793090347024
20
15.7752331803315
30
1E-16
41
1
10
-38.896212314256
20
15.8431970634588
30
0
41
1
10
-38.9234987523354
20
15.9438493513477
30
-1E-16
41
1
10
-38.9329176932172
20
15.9771834920145
30
-1E-16
41
1
10
-38.9524891200598
20
16.0433605187039
30
-1E-16
41
1
10
-38.9626490109555
20
16.0762241321929
30
-2E-16
41
1
10
-38.9942486237371
20
16.1735143709627
30
-2E-16
41
1
10
-39.0168192929943
20
16.2367987924952
30
-3E-16
41
1
10
-39.0538036875577
20
16.3284483845519
30
-3E-16
41
1
10
-39.0666580489107
20
16.358447014242
30
-4E-16
41
1
10
-39.0936734757839
20
16.4170754797017
30
-4E-16
41
1
10
-39.1078311461907
20
16.445708871908
30
-4E-16
41
1
10
-39.1378542437155
20
16.5011867533213
30
-4E-16
41
1
10
-39.1537107304315
20
16.5280406077451
30
-5E-16
41
1
10
-39.1793133959855
20
16.5664170723249
30
-5E-16
41
1
10
-39.1881536106008
20
16.5788886947755
30
-5E-16
41
1
10
-39.2066035936802
20
16.6030258194728
30
-5E-16
41
1
10
-39.2161473773061
20
16.6146044737199
30
-5E-16
41
1
10
-39.2359973056591
20
16.6364963226097
30
-5E-16
41
1
10
-39.2463063092381
20
16.6468184755519
30
-5E-16
41
1
10
-39.2679310576535
20
16.6658275937374
30
-5E-16
41
1
10
-39.2792424548455
20
16.674521620591
30
-5E-16
41
1
10
-39.3032740541941
20
16.6896214393304
30
3.1E-15
41
1
10
-39.3160733210661
20
16.6960532616947
30
3.1E-15
41
1
10
-39.3362695229811
20
16.7028703280182
30
3.1E-15
41
1
10
-39.3431827669186
20
16.7046789397622
30
3.1E-15
41
1
10
-39.3574543409754
20
16.7071569108613
30
3.1E-15
41
1
10
-39.3648392676576
20
16.7078191535651
30
3.1E-15
41
1
10
-39.3797857771534
20
16.7077321038814
30
3.2E-15
41
1
10
-39.3873836291086
20
16.7069936839897
30
3.2E-15
41
1
10
-39.4028693501777
20
16.7038993802815
30
3.2E-15
41
1
10
-39.4107869455578
20
16.7015320775365
30
3.2E-15
41
1
10
-39.4268410602904
20
16.6949266792823
30
3.2E-15
41
1
10
-39.4387478874919
20
16.6886970326405
30
3.2E-15
41
1
10
-39.4504551758713
20
16.680564474029
30
3.3E-15
41
1
10
-39.4582157068528
20
16.674720032687
30
-3E-16
41
1
10
-39.4620912174028
20
16.6715707795614
30
-3E-16
41
1
10
-39.4735065561114
20
16.6616181943438
30
-2E-16
41
1
10
-39.4808191689376
20
16.6543376116036
30
-2E-16
41
1
10
-39.4949344215917
20
16.6386703089058
30
-2E-16
41
1
10
-39.5017759281466
20
16.6302285416737
30
-2E-16
41
1
10
-39.5213314742926
20
16.603870797656
30
-1E-16
41
1
10
-39.5330159174994
20
16.5851083985949
30
-1E-16
41
1
10
-39.5546148356281
20
16.5460256454056
30
0
41
1
10
-39.5645454559712
20
16.5256042763803
30
0
41
1
10
-39.5826700245649
20
16.4846986833189
30
1E-16
41
1
10
-39.5909423654552
20
16.464071408984
30
1E-16
41
1
10
-39.614089232713
20
16.4018206924022
30
2E-16
41
1
10
-39.62732491594
20
16.3598352726385
30
3E-16
41
1
10
-39.6452270378373
20
16.2964261292043
30
4E-16
41
1
10
-39.6508615272903
20
16.2751915686317
30
4E-16
41
1
10
-39.661501075869
20
16.2329252333031
30
5E-16
41
1
10
-39.6665182653273
20
16.2118510600547
30
5E-16
41
1
10
-39.6808316624556
20
16.1487724602193
30
6E-16
41
1
10
-39.6893982067515
20
16.1069102947775
30
-2.9E-15
41
1
10
-39.713026933257
20
15.9817275593152
30
-2.7E-15
41
1
10
-39.7260572165222
20
15.8988031449482
30
-2.6E-15
41
1
10
-39.748911703588
20
15.7335793997149
30
-2.4E-15
41
1
10
-39.7586964964897
20
15.6512877527203
30
-2.3E-15
41
1
10
-39.776063913609
20
15.4871338115669
30
-2E-15
41
1
10
-39.7836388873253
20
15.4052195585851
30
-1.9E-15
41
1
10
-39.8039270518278
20
15.1603458702171
30
-1.6E-15
41
1
10
-39.8142463776984
20
14.9984278272091
30
-1.4E-15
41
1
10
-39.8312440407204
20
14.6761033692548
30
-1E-15
41
1
10
-39.8378785194996
20
14.5157151629741
30
-8E-16
41
1
10
-39.8487975016241
20
14.1959143889229
30
-4E-16
41
1
10
-39.8530679120946
20
14.0365076720866
30
-2E-16
41
1
10
-39.860008602842
20
13.718358563928
30
1E-16
41
1
10
-39.8626732334894
20
13.5596185181606
30
-3.2E-15
41
1
10
-39.8668471579568
20
13.2426180874277
30
-2.9E-15
41
1
10
-39.8683539374409
20
13.0843587463382
30
-2.7E-15
41
1
10
-39.8694062536461
20
12.9262880846153
30
-2.5E-15
0
SPLINE
5
1A7
100
AcDbEntity
8
SK1
62
256
6
ByLayer
370
18
48
1
60
0
100
AcDbSpline
70
4
71
3
72
87
73
83
40
0
40
0
40
0
40
0
40
0.0625000000000155
40
0.0625000000000155
40
0.125000000000031
40
0.125000000000031
40
0.187500000000046
40
0.187500000000046
40
0.250000000000062
40
0.250000000000062
40
0.312500000000078
40
0.312500000000078
40
0.343750000000085
40
0.343750000000085
40
0.359375000000088
40
0.359375000000088
40
0.375000000000091
40
0.375000000000091
40
0.406250000000097
40
0.406250000000097
40
0.421875000000099
40
0.421875000000099
40
0.437500000000102
40
0.437500000000102
40
0.453125000000105
40
0.453125000000105
40
0.460937500000105
40
0.460937500000105
40
0.468750000000105
40
0.468750000000105
40
0.476562500000105
40
0.476562500000105
40
0.484375000000105
40
0.484375000000105
40
0.492187500000105
40
0.492187500000105
40
0.496093750000105
40
0.496093750000105
40
0.500000000000105
40
0.500000000000105
40
0.503906250000105
40
0.503906250000105
40
0.507812500000105
40
0.507812500000105
40
0.511718750000105
40
0.513671875000105
40
0.513671875000105
40
0.515625000000105
40
0.515625000000105
40
0.519531250000105
40
0.519531250000105
40
0.523437500000104
40
0.523437500000104
40
0.531250000000102
40
0.531250000000102
40
0.5390625000001
40
0.5390625000001
40
0.546875000000098
40
0.546875000000098
40
0.562500000000095
40
0.562500000000095
40
0.570312500000094
40
0.570312500000094
40
0.578125000000092
40
0.578125000000092
40
0.593750000000089
40
0.593750000000089
40
0.625000000000081
40
0.625000000000081
40
0.656250000000073
40
0.656250000000073
40
0.687500000000066
40
0.687500000000066
40
0.750000000000053
40
0.750000000000053
40
0.81250000000004
40
0.81250000000004
40
0.875000000000026
40
0.875000000000026
40
0.937500000000013
40
0.937500000000013
40
1
40
1
40
1
40
1
41
1
10
-38.6109569339023
20
-13.4976121201826
30
2.1E-15
41
1
10
-38.6160035181083
20
-13.6522048661151
30
-1.3E-15
41
1
10
-38.6231319700824
20
-13.8061268406852
30
-1.1E-15
41
1
10
-38.6416892881492
20
-14.1108350094325
30
-7E-16
41
1
10
-38.6531163292079
20
-14.2617503238143
30
-5E-16
41
1
10
-38.6806100532368
20
-14.5604737875223
30
-1E-16
41
1
10
-38.6966725330052
20
-14.70828475173
30
1E-16
41
1
10
-38.7340349083021
20
-15.0003991863469
30
4E-16
41
1
10
-38.755324664789
20
-15.1447094468654
30
6E-16
41
1
10
-38.8041944780495
20
-15.4291173580476
30
1E-15
41
1
10
-38.8317452583228
20
-15.5692346151636
30
1.2E-15
41
1
10
-38.8793090347024
20
-15.7752331803314
30
1.5E-15
41
1
10
-38.896212314256
20
-15.8431970634587
30
1.6E-15
41
1
10
-38.9234987523354
20
-15.9438493513476
30
1.8E-15
41
1
10
-38.9329176932172
20
-15.9771834920144
30
1.8E-15
41
1
10
-38.9524891200598
20
-16.0433605187037
30
1.9E-15
41
1
10
-38.9626490109554
20
-16.0762241321927
30
2E-15
41
1
10
-38.9942486237371
20
-16.1735143709626
30
2.1E-15
41
1
10
-39.0168192929943
20
-16.236798792495
30
2.2E-15
41
1
10
-39.0538036875577
20
-16.3284483845518
30
2.4E-15
41
1
10
-39.0666580489106
20
-16.3584470142419
30
2.4E-15
41
1
10
-39.0936734757838
20
-16.4170754797016
30
2.5E-15
41
1
10
-39.1078311461906
20
-16.4457088719079
30
2.6E-15
41
1
10
-39.1378542437154
20
-16.5011867533212
30
2.7E-15
41
1
10
-39.1537107304315
20
-16.528040607745
30
2.7E-15
41
1
10
-39.1793133959855
20
-16.5664170723248
30
2.8E-15
41
1
10
-39.1881536106007
20
-16.5788886947754
30
2.8E-15
41
1
10
-39.2066035936801
20
-16.6030258194727
30
2.9E-15
41
1
10
-39.216147377306
20
-16.6146044737197
30
2.9E-15
41
1
10
-39.2359973056591
20
-16.6364963226096
30
3E-15
41
1
10
-39.2463063092381
20
-16.6468184755518
30
3E-15
41
1
10
-39.2679310576534
20
-16.6658275937373
30
3E-15
41
1
10
-39.2792424548454
20
-16.674521620591
30
3.1E-15
41
1
10
-39.303274054194
20
-16.6896214393303
30
-4E-16
41
1
10
-39.3160733210661
20
-16.6960532616946
30
-4E-16
41
1
10
-39.336269522981
20
-16.7028703280182
30
-4E-16
41
1
10
-39.3431827669186
20
-16.7046789397622
30
-4E-16
41
1
10
-39.3574543409752
20
-16.7071569108612
30
-4E-16
41
1
10
-39.3648392676575
20
-16.7078191535651
30
-4E-16
41
1
10
-39.3797857771533
20
-16.7077321038814
30
-3E-16
41
1
10
-39.3873836291085
20
-16.7069936839897
30
-3E-16
41
1
10
-39.4028693501776
20
-16.7038993802815
30
-3E-16
41
1
10
-39.4107869455577
20
-16.7015320775366
30
-3E-16
41
1
10
-39.4268410602902
20
-16.6949266792823
30
-3E-16
41
1
10
-39.4387478874918
20
-16.6886970326405
30
-3E-16
41
1
10
-39.4504551758712
20
-16.680564474029
30
-3E-16
41
1
10
-39.4582157068527
20
-16.6747200326871
30
3.3E-15
41
1
10
-39.4620912174027
20
-16.6715707795614
30
3.3E-15
41
1
10
-39.4735065561113
20
-16.6616181943439
30
3.3E-15
41
1
10
-39.4808191689374
20
-16.6543376116037
30
3.3E-15
41
1
10
-39.4949344215916
20
-16.6386703089059
30
3.3E-15
41
1
10
-39.5017759281465
20
-16.6302285416738
30
3.3E-15
41
1
10
-39.5213314742925
20
-16.6038707976562
30
3.3E-15
41
1
10
-39.5330159174993
20
-16.585108398595
30
3.3E-15
41
1
10
-39.554614835628
20
-16.5460256454057
30
3.2E-15
41
1
10
-39.5645454559711
20
-16.5256042763804
30
3.2E-15
41
1
10
-39.5826700245648
20
-16.484698683319
30
3.2E-15
41
1
10
-39.5909423654551
20
-16.4640714089842
30
3.2E-15
41
1
10
-39.614089232713
20
-16.4018206924023
30
3.1E-15
41
1
10
-39.62732491594
20
-16.3598352726387
30
3.1E-15
41
1
10
-39.6452270378373
20
-16.2964261292044
30
3.1E-15
41
1
10
-39.6508615272902
20
-16.2751915686318
30
3E-15
41
1
10
-39.661501075869
20
-16.2329252333032
30
3E-15
41
1
10
-39.6665182653273
20
-16.2118510600548
30
3E-15
41
1
10
-39.6808316624556
20
-16.1487724602195
30
2.9E-15
41
1
10
-39.6893982067515
20
-16.1069102947777
30
-7E-16
41
1
10
-39.713026933257
20
-15.9817275593153
30
-8E-16
41
1
10
-39.7260572165222
20
-15.8988031449483
30
-9E-16
41
1
10
-39.748911703588
20
-15.733579399715
30
-1E-15
41
1
10
-39.7586964964897
20
-15.6512877527204
30
-1.1E-15
41
1
10
-39.776063913609
20
-15.487133811567
30
-1.3E-15
41
1
10
-39.7836388873253
20
-15.4052195585851
30
-1.4E-15
41
1
10
-39.8039270518278
20
-15.1603458702171
30
-1.6E-15
41
1
10
-39.8142463776984
20
-14.9984278272092
30
-1.8E-15
41
1
10
-39.8312440407204
20
-14.6761033692549
30
-2.2E-15
41
1
10
-39.8378785194996
20
-14.5157151629741
30
-2.3E-15
41
1
10
-39.8487975016242
20
-14.1959143889229
30
-2.7E-15
41
1
10
-39.8530679120946
20
-14.0365076720866
30
-2.9E-15
41
1
10
-39.860008602842
20
-13.718358563928
30
-3.3E-15
41
1
10
-39.8626732334894
20
-13.5596185181606
30
1E-16
41
1
10
-39.8668471579568
20
-13.2426180874277
30
-3E-16
41
1
10
-39.8683539374409
20
-13.0843587463382
30
-4E-16
41
1
10
-39.8694062536461
20
-12.9262880846153
30
-6E-16
0
SPLINE
5
1A8
100
AcDbEntity
8
SK1
62
256
6
ByLayer
370
18
48
1
60
0
100
AcDbSpline
70
4
71
3
72
20
73
16
40
0
40
0
40
0
40
0
40
0.249999999999987
40
0.249999999999987
40
0.312499999999985
40
0.312499999999985
40
0.374999999999983
40
0.499999999999987
40
0.499999999999987
40
0.749999999999993
40
0.749999999999993
40
0.874999999999994
40
0.937499999999997
40
0.937499999999997
40
1
40
1
40
1
40
1
41
1
10
-39.8694062536461
20
12.9262880846153
30
-2.5E-15
41
1
10
-39.8699642039182
20
12.8424771841627
30
-2.4E-15
41
1
10
-39.8718799934452
20
12.7554416856357
30
-2.3E-15
41
1
10
-39.8754658101046
20
12.6427323375918
30
-2.1E-15
41
1
10
-39.8762410635527
20
12.6199706892339
30
-2.1E-15
41
1
10
-39.8778698132153
20
12.5744286281775
30
-2.1E-15
41
1
10
-39.8804338449581
20
12.5059591467217
30
-2E-15
41
1
10
-39.8832413582569
20
12.4370392279785
30
-1.9E-15
41
1
10
-39.8888461923831
20
12.2986412583957
30
-1.7E-15
41
1
10
-39.8925690800327
20
12.2056337065968
30
-1.6E-15
41
1
10
-39.8967523805697
20
12.0651375028561
30
-1.4E-15
41
1
10
-39.8984935189108
20
11.9946423948846
30
-1.4E-15
41
1
10
-39.8994499334561
20
11.9237950794029
30
-1.3E-15
41
1
10
-39.8998844598165
20
11.8764870110009
30
-1.2E-15
41
1
10
-39.9
20
11.8527686372283
30
-1.2E-15
41
1
10
-39.9
20
11.8291198564499
30
-1.2E-15
0
SPLINE
5
1A9
100
AcDbEntity
8
SK1
62
256
6
ByLayer
370
18
48
1
60
0
100
AcDbSpline
70
4
71
3
72
14
73
10
40
0
40
0
40
0
40
0
40
0.25
40
0.25
40
0.5
40
0.5
40
0.75
40
0.75
40
1
40
1
40
1
40
1
41
1
10
-38.3800599072243
20
12.4341278687476
30
-2E-16
41
1
10
-38.4115909901914
20
12.5223206298551
30
-2E-16
41
1
10
-38.4409954581573
20
12.6101865256533
30
-3E-16
41
1
10
-38.4942489607683
20
12.7858728927528
30
-4E-16
41
1
10
-38.5180944106067
20
12.8736952128504
30
-5E-16
41
1
10
-38.558661532451
20
13.050010690614
30
-7E-16
41
1
10
-38.5753717030815
20
13.1385097784972
30
-7E-16
41
1
10
-38.600046024489
20
13.3168932918837
30
-9E-16
41
1
10
-38.607991998839
20
13.4067868343114
30
-1E-15
41
1
10
-38.6109569339037
20
13.497612120182
30
-1.1E-15
0
SPLINE
5
1AA
100
AcDbEntity
8
SK1
62
256
6
ByLayer
370
18
48
1
60
0
100
AcDbSpline
70
4
71
3
72
14
73
10
40
0
40
0
40
0
40
0
40
0.25
40
0.25
40
0.5
40
0.5
40
0.75
40
0.75
40
1
40
1
40
1
40
1
41
1
10
-38.3800599072244
20
-12.4341278687475
30
6E-16
41
1
10
-38.4115909901915
20
-12.5223206298551
30
7E-16
41
1
10
-38.4409954581573
20
-12.6101865256532
30
8E-16
41
1
10
-38.4942489607683
20
-12.7858728927527
30
1.1E-15
41
1
10
-38.5180944106067
20
-12.8736952128504
30
1.2E-15
41
1
10
-38.558661532451
20
-13.0500106906139
30
1.5E-15
41
1
10
-38.5753717030815
20
-13.1385097784972
30
1.6E-15
41
1
10
-38.600046024489
20
-13.3168932918837
30
1.9E-15
41
1
10
-38.607991998839
20
-13.4067868343114
30
2E-15
41
1
10
-38.6109569339037
20
-13.497612120182
30
2.1E-15
0
SPLINE
5
1AB
100
AcDbEntity
8
SK1
62
256
6
ByLayer
370
18
48
1
60
0
100
AcDbSpline
70
4
71
3
72
20
73
16
40
0
40
0
40
0
40
0
40
0.250000000000001
40
0.250000000000001
40
0.3125
40
0.3125
40
0.375
40
0.500000000000001
40
0.500000000000001
40
0.750000000000003
40
0.750000000000003
40
0.875000000000003
40
0.937500000000002
40
0.937500000000002
40
1
40
1
40
1
40
1
41
1
10
-39.8694062536461
20
-12.9262880846152
30
-6E-16
41
1
10
-39.8699642039182
20
-12.8424771841627
30
-7E-16
41
1
10
-39.8718799934452
20
-12.7554416856357
30
-8E-16
41
1
10
-39.8754658101046
20
-12.6427323375918
30
-9E-16
41
1
10
-39.8762410635527
20
-12.6199706892338
30
-1E-15
41
1
10
-39.8778698132153
20
-12.5744286281774
30
-1E-15
41
1
10
-39.8804338449581
20
-12.5059591467216
30
-1.1E-15
41
1
10
-39.883241358257
20
-12.4370392279785
30
-1.2E-15
41
1
10
-39.8888461923831
20
-12.2986412583956
30
-1.3E-15
41
1
10
-39.8925690800327
20
-12.2056337065968
30
-1.4E-15
41
1
10
-39.8967523805697
20
-12.0651375028561
30
-1.6E-15
41
1
10
-39.8984935189108
20
-11.9946423948845
30
-1.7E-15
41
1
10
-39.8994499334561
20
-11.9237950794028
30
-1.8E-15
41
1
10
-39.8998844598165
20
-11.8764870110008
30
-1.8E-15
41
1
10
-39.9
20
-11.8527686372283
30
-1.8E-15
41
1
10
-39.9
20
-11.8291198564499
30
-1.9E-15
0
SPLINE
5
1AC
100
AcDbEntity
8
SK1
62
256
6
ByLayer
370
18
48
1
60
0
100
AcDbSpline
70
2053
71
3
72
188
73
184
40
0
40
0
40
0
40
0
40
0.0156249999999985
40
0.0312499999999971
40
0.0312499999999971
40
0.0390624999999963
40
0.0429687499999958
40
0.0429687499999958
40
0.0468749999999954
40
0.0468749999999954
40
0.0624999999999939
40
0.0781249999999924
40
0.0781249999999924
40
0.0937499999999909
40
0.0937499999999909
40
0.0976562499999906
40
0.0976562499999906
40
0.10156249999999
40
0.10156249999999
40
0.10937499999999
40
0.10937499999999
40
0.124999999999988
40
0.140624999999987
40
0.140624999999987
40
0.148437499999986
40
0.148437499999986
40
0.152343749999986
40
0.152343749999986
40
0.156249999999986
40
0.156249999999986
40
0.171874999999984
40
0.171874999999984
40
0.187499999999983
40
0.187499999999983
40
0.195312499999982
40
0.195312499999982
40
0.199218749999982
40
0.199218749999982
40
0.203124999999982
40
0.203124999999982
40
0.21874999999998
40
0.21874999999998
40
0.234374999999979
40
0.234374999999979
40
0.242187499999978
40
0.242187499999978
40
0.246093749999978
40
0.246093749999978
40
0.249999999999978
40
0.249999999999978
40
0.265624999999977
40
0.265624999999977
40
0.281249999999976
40
0.281249999999976
40
0.289062499999976
40
0.292968749999975
40
0.292968749999975
40
0.296874999999975
40
0.296874999999975
40
0.312499999999974
40
0.312499999999974
40
0.328124999999974
40
0.343749999999973
40
0.343749999999973
40
0.347656249999973
40
0.347656249999973
40
0.351562499999973
40
0.351562499999973
40
0.359374999999972
40
0.359374999999972
40
0.374999999999971
40
0.39062499999997
40
0.39062499999997
40
0.406249999999969
40
0.406249999999969
40
0.410156249999969
40
0.410156249999969
40
0.414062499999969
40
0.421874999999969
40
0.421874999999969
40
0.437499999999969
40
0.453124999999969
40
0.453124999999969
40
0.460937499999969
40
0.464843749999969
40
0.464843749999969
40
0.468749999999969
40
0.468749999999969
40
0.48437499999997
40
0.49999999999997
40
0.49999999999997
40
0.51562499999997
40
0.51562499999997
40
0.52343749999997
40
0.52343749999997
40
0.52734374999997
40
0.52734374999997
40
0.53124999999997
40
0.53124999999997
40
0.546874999999971
40
0.562499999999972
40
0.562499999999972
40
0.578124999999973
40
0.578124999999973
40
0.582031249999973
40
0.582031249999973
40
0.585937499999974
40
0.585937499999974
40
0.593749999999974
40
0.593749999999974
40
0.609374999999975
40
0.609374999999975
40
0.624999999999976
40
0.624999999999976
40
0.632812499999977
40
0.632812499999977
40
0.636718749999977
40
0.636718749999977
40
0.640624999999978
40
0.640624999999978
40
0.656249999999979
40
0.656249999999979
40
0.67187499999998
40
0.67187499999998
40
0.67968749999998
40
0.67968749999998
40
0.683593749999981
40
0.683593749999981
40
0.687499999999981
40
0.687499999999981
40
0.703124999999982
40
0.703124999999982
40
0.718749999999983
40
0.718749999999983
40
0.726562499999983
40
0.726562499999983
40
0.730468749999984
40
0.730468749999984
40
0.734374999999984
40
0.734374999999984
40
0.749999999999985
40
0.749999999999985
40
0.765624999999986
40
0.765624999999986
40
0.773437499999986
40
0.773437499999986
40
0.781249999999987
40
0.781249999999987
40
0.796874999999988
40
0.796874999999988
40
0.812499999999989
40
0.82812499999999
40
0.82812499999999
40
0.83203124999999
40
0.83203124999999
40
0.83593749999999
40
0.843749999999991
40
0.843749999999991
40
0.859374999999991
40
0.874999999999992
40
0.874999999999992
40
0.882812499999992
40
0.886718749999992
40
0.886718749999992
40
0.890624999999992
40
0.890624999999992
40
0.906249999999993
40
0.921874999999994
40
0.937499999999995
40
0.937499999999995
40
0.945312499999996
40
0.945312499999996
40
0.949218749999996
40
0.949218749999996
40
0.953124999999996
40
0.953124999999996
40
0.968749999999998
40
0.984374999999999
40
0.984374999999999
40
0.9921875
40
0.99609375
40
0.99609375
40
1
40
1
40
1
40
1
41
1
10
-14.7523569735283
20
-3.70754602207992
30
9E-16
41
1
10
-14.8830693958693
20
-3.61656243618393
30
9E-16
41
1
10
-15.1339751543141
20
-3.42333007966258
30
1E-15
41
1
10
-15.3640172392863
20
-3.20771685337638
30
1E-15
41
1
10
-15.5285555605097
20
-3.03741772418078
30
1E-15
41
1
10
-15.6088230871357
20
-2.95011728291502
30
1E-15
41
1
10
-15.6860194717737
20
-2.85951392435115
30
1E-15
41
1
10
-15.7367914177744
20
-2.7983668175867
30
1E-15
41
1
10
-15.7618599331086
20
-2.76738301156806
30
1E-15
41
1
10
-15.8848381980881
20
-2.6113529657045
30
9E-16
41
1
10
-16.067211583014
20
-2.35382616732724
30
9E-16
41
1
10
-16.221231175164
20
-2.08074949037999
30
-2.8E-15
41
1
10
-16.3608530372892
20
-1.79976408124693
30
-3E-15
41
1
10
-16.4234673986459
20
-1.65531828708652
30
-3.1E-15
41
1
10
-16.4923083494325
20
-1.46957581084973
30
3E-16
41
1
10
-16.5056039281163
20
-1.43216736370295
30
3E-16
41
1
10
-16.5312337592808
20
-1.35682155598781
30
3E-16
41
1
10
-16.5435689575396
20
-1.31887369117709
30
2E-16
41
1
10
-16.5788830403764
20
-1.20498134091744
30
1E-16
41
1
10
-16.6002584261888
20
-1.12874138439929
30
1E-16
41
1
10
-16.6579819557129
20
-0.899100185945173
30
-1E-16
41
1
10
-16.7179012859716
20
-0.590459050096371
30
-4E-16
41
1
10
-16.743979479036
20
-0.276944670286099
30
-8E-16
41
1
10
-16.7505410399324
20
-0.0399366831412635
30
-1E-15
41
1
10
-16.7505578761437
20
0.0393786061310095
30
-1.1E-15
41
1
10
-16.747248736206
20
0.158831840879827
30
-1.3E-15
41
1
10
-16.745587965029
20
0.198710288978134
30
-1.3E-15
41
1
10
-16.7411773084789
20
0.278111758632093
30
-1.4E-15
41
1
10
-16.7384260966155
20
0.317698692651163
30
-1.5E-15
41
1
10
-16.7219737442125
20
0.515071300630979
30
-1.7E-15
41
1
10
-16.70020543551
20
0.67117526195554
30
-1.9E-15
41
1
10
-16.6399435695722
20
0.979898366843571
30
-2.4E-15
41
1
10
-16.601448934542
20
1.13251728315248
30
-2.6E-15
41
1
10
-16.53113075359
20
1.35882766628981
30
-2.9E-15
41
1
10
-16.5055913205458
20
1.43382730542587
30
-3E-15
41
1
10
-16.4640911224935
20
1.54566288649849
30
3E-16
41
1
10
-16.4497049347256
20
1.58287958941929
30
3E-16
41
1
10
-16.420019936867
20
1.65669764940549
30
1E-16
41
1
10
-16.4047109829856
20
1.6933306433871
30
1E-16
41
1
10
-16.3258693885997
20
1.87513685645402
30
-2E-16
41
1
10
-16.2554654264474
20
2.016245082713
30
-5E-16
41
1
10
-16.1005821895456
20
2.29014711200878
30
2.6E-15
41
1
10
-16.0161011109151
20
2.42293982963886
30
2.3E-15
41
1
10
-15.8789209972774
20
2.61596153527793
30
1.9E-15
41
1
10
-15.8314478685054
20
2.67927224629818
30
1.8E-15
41
1
10
-15.757600986863
20
2.77268461059782
30
1.6E-15
41
1
10
-15.7325220801273
20
2.80359112214055
30
1.5E-15
41
1
10
-15.6815864136667
20
2.86475490147689
30
1.4E-15
41
1
10
-15.6557807277091
20
2.89495245506919
30
1.3E-15
41
1
10
-15.5250900518626
20
3.04405003644294
30
1E-15
41
1
10
-15.4152319768199
20
3.15729506987483
30
7E-16
41
1
10
-15.1853662397472
20
3.37226279819356
30
2E-16
41
1
10
-15.0653570172089
20
3.47398368758357
30
-1E-16
41
1
10
-14.8778366346024
20
3.61805720644077
30
-5E-16
41
1
10
-14.7821966066561
20
3.687963371954
30
-7E-16
41
1
10
-14.6837250003903
20
3.7546628315317
30
-9E-16
41
1
10
-14.6174449847694
20
3.79841337821927
30
-1E-15
41
1
10
-14.5839509569789
20
3.81995430000981
30
-1.1E-15
41
1
10
-14.4153608756049
20
3.92556563732876
30
-1.4E-15
41
1
10
-14.2774759285879
20
4.00304422280544
30
-1.6E-15
41
1
10
-13.9959589687589
20
4.14463557714592
30
-2.2E-15
41
1
10
-13.70869371057
20
4.27285825378317
30
-2.6E-15
41
1
10
-13.4101441844585
20
4.37484881766952
30
-3.1E-15
41
1
10
-13.2199941761198
20
4.43032812560392
30
1E-16
41
1
10
-13.1817859689173
20
4.44100986686851
30
1E-16
41
1
10
-13.1050108543436
20
4.46153985324358
30
0
41
1
10
-13.0663986546816
20
4.47139853649475
30
-1E-16
41
1
10
-12.950511309863
20
4.49959808127565
30
-3E-16
41
1
10
-12.8731066290916
20
4.51658915315275
30
-4E-16
41
1
10
-12.6404642023668
20
4.5622598232662
30
2.8E-15
41
1
10
-12.3291340350993
20
4.60903803344323
30
2.4E-15
41
1
10
-12.0155873503412
20
4.62828958171011
30
2E-15
41
1
10
-11.7009325962646
20
4.63376337532233
30
1.6E-15
41
1
10
-11.543051263556
20
4.62961234020815
30
1.4E-15
41
1
10
-11.3449871884756
20
4.61557235668744
30
1.2E-15
41
1
10
-11.3053982706673
20
4.61232413071852
30
1.2E-15
41
1
10
-11.2265170315738
20
4.60497424375868
30
1.1E-15
41
1
10
-11.1085276146611
20
4.59266044756646
30
9E-16
41
1
10
-10.9915247626657
20
4.57651986765745
30
8E-16
41
1
10
-10.7588152387739
20
4.53920487375475
30
-3E-15
41
1
10
-10.4519870134956
20
4.47604973785579
30
-3.3E-15
41
1
10
-10.1519906471414
20
4.38627316955294
30
0
41
1
10
-9.92959608189238
20
4.30875097731257
30
-2E-16
41
1
10
-9.81905043320131
20
4.26743851769254
30
-2E-16
41
1
10
-9.70950047652296
20
4.22221667324385
30
-3E-16
41
1
10
-9.63669109203211
20
4.1911882864238
30
-4E-16
41
1
10
-9.60042362649013
20
4.17524315367422
30
-4E-16
41
1
10
-9.42057606360457
20
4.09372233357388
30
-5E-16
41
1
10
-9.14089470525164
20
3.95122110038292
30
-7E-16
41
1
10
-8.87705212281075
20
3.78494269460018
30
-8E-16
41
1
10
-8.62120083740307
20
3.60660909813322
30
-9E-16
41
1
10
-8.49726978836014
20
3.51141641013046
30
-9E-16
41
1
10
-8.31760053019686
20
3.359185330022
30
-1E-15
41
1
10
-8.25875063425758
20
3.30686493267146
30
-1E-15
41
1
10
-8.1720848678335
20
3.22593825918642
30
-1E-15
41
1
10
-8.1434397439785
20
3.19852864139099
30
-1E-15
41
1
10
-8.08701569207366
20
3.14319737728735
30
-1E-15
41
1
10
-8.05919959680311
20
3.11524225866313
30
-1E-15
41
1
10
-7.92208767717128
20
2.97402578367738
30
-1E-15
41
1
10
-7.71527833040788
20
2.73887882665599
30
-1E-15
41
1
10
-7.53351820113357
20
2.48531941735988
30
-9E-16
41
1
10
-7.36462557129353
20
2.22226466012359
30
-8E-16
41
1
10
-7.28661012725695
20
2.08599178817306
30
2.8E-15
41
1
10
-7.19761839012035
20
1.90933616214497
30
2.9E-15
41
1
10
-7.1802476331638
20
1.87368841627079
30
2.9E-15
41
1
10
-7.14637868656239
20
1.80174630605103
30
3E-15
41
1
10
-7.12993659584924
20
1.76556883334112
30
3E-15
41
1
10
-7.08220984321174
20
1.65670588383986
30
3.1E-15
41
1
10
-7.05246689047104
20
1.58356996640254
30
3.1E-15
41
1
10
-6.96939956148474
20
1.36249531612106
30
-3E-16
41
1
10
-6.92222116245873
20
1.21289380871076
30
-2E-16
41
1
10
-6.844308829455
20
0.909232781461952
30
1E-16
41
1
10
-6.81357350688711
20
0.755173646960799
30
2E-16
41
1
10
-6.78022351432503
20
0.520623063028523
30
5E-16
41
1
10
-6.77123648387213
20
0.441861455176479
30
6E-16
41
1
10
-6.76104404765694
20
0.322826152747268
30
7E-16
41
1
10
-6.75819439136365
20
0.28295897446128
30
7E-16
41
1
10
-6.75363494182237
20
0.203459343265052
30
8E-16
41
1
10
-6.75191878168306
20
0.163766292458206
30
9E-16
41
1
10
-6.74612347444767
20
-0.034418373285007
30
1.1E-15
41
1
10
-6.75037873316754
20
-0.192070394767597
30
1.3E-15
41
1
10
-6.77621028099
20
-0.505629870251767
30
1.7E-15
41
1
10
-6.79778747801421
20
-0.661537232445369
30
1.9E-15
41
1
10
-6.8432043135314
20
-0.894085007351492
30
2.2E-15
41
1
10
-6.86052254158291
20
-0.97138165055614
30
2.3E-15
41
1
10
-6.88981453302728
20
-1.08699333879801
30
2.5E-15
41
1
10
-6.90014879536237
20
-1.12553444827944
30
2.6E-15
41
1
10
-6.92182240237327
20
-1.20212108679326
30
2.7E-15
41
1
10
-6.93316266313214
20
-1.24017873736679
30
2.7E-15
41
1
10
-6.99234089272274
20
-1.42930812019426
30
3E-15
41
1
10
-7.04758864319126
20
-1.57691293162617
30
-3E-16
41
1
10
-7.17321420651703
20
-1.86506064900752
30
2E-16
41
1
10
-7.24359410253999
20
-2.00560255597585
30
4E-16
41
1
10
-7.36037440882426
20
-2.21119883038844
30
-2.7E-15
41
1
10
-7.40117322595778
20
-2.27885982033044
30
-2.6E-15
41
1
10
-7.46519473230518
20
-2.37903982922123
30
-2.4E-15
41
1
10
-7.48703313439
20
-2.41225304009609
30
-2.3E-15
41
1
10
-7.53143500148418
20
-2.47791822201745
30
-2.2E-15
41
1
10
-7.554014963147
20
-2.51039834878492
30
-2.1E-15
41
1
10
-7.66877850341025
20
-2.6710676216106
30
-1.8E-15
41
1
10
-7.76653742234076
20
-2.79407742608225
30
-1.6E-15
41
1
10
-7.97341477886437
20
-3.02958946031382
30
-1E-15
41
1
10
-8.08253502560719
20
-3.14208993355845
30
-8E-16
41
1
10
-8.25461175578386
20
-3.30310894807971
30
-4E-16
41
1
10
-8.31337275564361
20
-3.35549084673681
30
-2E-16
41
1
10
-8.43370990156961
20
-3.4576682837446
30
0
41
1
10
-8.49542370137499
20
-3.50756240787217
30
2E-16
41
1
10
-8.68313282956393
20
-3.65206252909403
30
6E-16
41
1
10
-8.81203353730712
20
-3.74183617328816
30
8E-16
41
1
10
-9.07705209766641
20
-3.90886272818827
30
1.3E-15
41
1
10
-9.3492896935318
20
-4.06336537590923
30
1.8E-15
41
1
10
-9.63579479665471
20
-4.19323711527286
30
2.3E-15
41
1
10
-9.81939245311992
20
-4.266617581128
30
2.7E-15
41
1
10
-9.85638116276256
20
-4.28091884184008
30
2.7E-15
41
1
10
-9.93059857564825
20
-4.30865437619642
30
2.8E-15
41
1
10
-10.0422056824862
20
-4.34893026932582
30
3E-15
41
1
10
-10.1546457359998
20
-4.38527742135969
30
3.2E-15
41
1
10
-10.3806183459756
20
-4.45283298087736
30
0
41
1
10
-10.6848234734009
20
-4.52922907836998
30
5E-16
41
1
10
-10.9947707858661
20
-4.57874117661893
30
-2.7E-15
41
1
10
-11.229411834253
20
-4.60569747084676
30
-2.3E-15
41
1
10
-11.3472782749958
20
-4.61662733379004
30
-2.2E-15
41
1
10
-11.4659769734283
20
-4.62367586569454
30
-2E-15
41
1
10
-11.5452963459314
20
-4.62750349110004
30
-1.9E-15
41
1
10
-11.5850815464467
20
-4.62898149744282
30
-1.9E-15
41
1
10
-11.7835208096469
20
-4.63415081220927
30
-1.6E-15
41
1
10
-12.0992531502507
20
-4.62833720806742
30
-1.3E-15
41
1
10
-12.5676728726938
20
-4.57842444098776
30
-8E-16
41
1
10
-12.8764951150955
20
-4.51767945926903
30
3.1E-15
41
1
10
-13.1067767306146
20
-4.46153703055128
30
3.3E-15
41
1
10
-13.1833143729315
20
-4.44105599850286
30
3.4E-15
41
1
10
-13.2977779186522
20
-4.40762008504123
30
-1E-16
41
1
10
-13.3359229716027
20
-4.39600663339129
30
0
41
1
10
-13.4118065471408
20
-4.37195486095186
30
0
41
1
10
-13.4495473389112
20
-4.35951742630041
30
0
41
1
10
-13.6372528606696
20
-4.29528565261154
30
2E-16
41
1
10
-13.93120320174
20
-4.17945290459144
30
4E-16
41
1
10
-14.2125007395972
20
-4.03769421926108
30
6E-16
41
1
10
-14.4186349917439
20
-3.92145316753957
30
7E-16
41
1
10
-14.5204905065348
20
-3.86084825107932
30
8E-16
41
1
10
-14.6204900883922
20
-3.79643630939074
30
8E-16
41
1
10
-14.6867385288017
20
-3.75263752069796
30
8E-16
41
1
10
-14.7196788679431
20
-3.73029191855392
30
8E-16
41
1
10
-14.7523569735283
20
-3.70754602207992
30
9E-16
0
SPLINE
5
1AD
100
AcDbEntity
8
SK1
62
256
6
ByLayer
370
18
48
1
60
0
100
AcDbSpline
70
4
71
3
72
8
73
4
40
0
40
0
40
0
40
0
40
1
40
1
40
1
40
1
41
1
10
-38.3800599072243
20
12.4341278687476
30
-2E-16
41
1
10
-38.340857052271
20
12.3244770830374
30
-1E-16
41
1
10
-38.2972640933933
20
12.2159810648502
30
0
41
1
10
-38.25
20
12.1084166393131
30
1E-16
0
SPLINE
5
1AE
100
AcDbEntity
8
SK1
62
256
6
ByLayer
370
18
48
1
60
0
100
AcDbSpline
70
4
71
3
72
44
73
40
40
0
40
0
40
0
40
0
40
0.0078125000000003
40
0.0078125000000003
40
0.0156250000000006
40
0.0156250000000006
40
0.023437500000001
40
0.023437500000001
40
0.0312500000000013
40
0.0312500000000013
40
0.0468750000000015
40
0.0468750000000015
40
0.0625000000000017
40
0.0625000000000017
40
0.0781250000000019
40
0.0781250000000019
40
0.0937500000000021
40
0.0937500000000021
40
0.125000000000003
40
0.125000000000003
40
0.156250000000003
40
0.156250000000003
40
0.187500000000004
40
0.187500000000004
40
0.250000000000002
40
0.250000000000002
40
0.312500000000001
40
0.312500000000001
40
0.374999999999999
40
0.374999999999999
40
0.5
40
0.5
40
0.625
40
0.625
40
0.75
40
0.75
40
0.875
40
0.875
40
1
40
1
40
1
40
1
41
1
10
-31.7461682088003
20
13.6614831389895
30
1E-15
41
1
10
-31.7536778395616
20
13.6467074253008
30
-2.5E-15
41
1
10
-31.7625408970295
20
13.63278316706
30
-2.4E-15
41
1
10
-31.7822066225232
20
13.6061548904359
30
-2.4E-15
41
1
10
-31.7930163197418
20
13.5934552941712
30
-2.4E-15
41
1
10
-31.8161243774566
20
13.568992653402
30
-2.3E-15
41
1
10
-31.8284258069001
20
13.5572315395903
30
-2.3E-15
41
1
10
-31.8542168563141
20
13.5344568393816
30
-2.2E-15
41
1
10
-31.8675674569353
20
13.5235674192668
30
-2.2E-15
41
1
10
-31.9084903077422
20
13.4921829065626
30
-2.1E-15
41
1
10
-31.937004237814
20
13.4728761038735
30
-2.1E-15
41
1
10
-31.9956255673145
20
13.4363529010917
30
-1.9E-15
41
1
10
-32.0257449929038
20
13.4191522766053
30
-1.9E-15
41
1
10
-32.0871399258677
20
13.3862676832333
30
-1.8E-15
41
1
10
-32.1184197202039
20
13.3705893378634
30
-1.7E-15
41
1
10
-32.1818653975549
20
13.3403951382409
30
-1.6E-15
41
1
10
-32.213964331827
20
13.3259159499652
30
-1.5E-15
41
1
10
-32.3106707484875
20
13.2841230245918
30
-1.4E-15
41
1
10
-32.3758932527897
20
13.2583265816404
30
-1.3E-15
41
1
10
-32.5073241068289
20
13.2094432477459
30
-1.1E-15
41
1
10
-32.5735392883267
20
13.1863751304785
30
-9E-16
41
1
10
-32.7066903846932
20
13.1422199259013
30
-7E-16
41
1
10
-32.7736287950566
20
13.121139696202
30
-6E-16
41
1
10
-32.975277464686
20
13.0601899854554
30
-3E-16
41
1
10
-33.1108082557067
20
13.0225760151981
30
-1E-16
41
1
10
-33.383305598673
20
12.9512954141943
30
3E-16
41
1
10
-33.5202824080779
20
12.9176569708196
30
5E-16
41
1
10
-33.7952851431801
20
12.8532649460596
30
9E-16
41
1
10
-33.9331943977607
20
12.8225501841681
30
-2.4E-15
41
1
10
-34.3473783662752
20
12.7338889051257
30
-1.8E-15
41
1
10
-34.6243295875104
20
12.6793160632772
30
-1.4E-15
41
1
10
-35.1793047774169
20
12.5760427455071
30
-6E-16
41
1
10
-35.457337014575
20
12.5273875026884
30
-2E-16
41
1
10
-36.0141835077827
20
12.4343589534124
30
5E-16
41
1
10
-36.2930006673418
20
12.3900015307068
30
9E-16
41
1
10
-36.8512380579745
20
12.3045896933756
30
-1.8E-15
41
1
10
-37.1306595372568
20
12.2635421071132
30
-1.5E-15
41
1
10
-37.6899867936032
20
12.1841001951116
30
-7E-16
41
1
10
-37.9698931853465
20
12.1457092319901
30
-3E-16
41
1
10
-38.25
20
12.1084166393131
30
1E-16
0
SPLINE
5
1AF
100
AcDbEntity
8
SK1
62
256
6
ByLayer
370
18
48
1
60
0
100
AcDbSpline
70
4
71
3
72
28
73
24
40
0
40
0
40
0
40
0
40
0.125000000000006
40
0.125000000000006
40
0.187500000000007
40
0.187500000000007
40
0.250000000000009
40
0.250000000000009
40
0.375000000000012
40
0.375000000000012
40
0.500000000000015
40
0.500000000000015
40
0.625000000000018
40
0.625000000000018
40
0.750000000000021
40
0.750000000000021
40
0.781250000000018
40
0.781250000000018
40
0.812500000000015
40
0.812500000000015
40
0.87500000000001
40
0.87500000000001
40
1
40
1
40
1
40
1
41
1
10
-29.7000000000006
20
15.3235319389953
30
2E-16
41
1
10
-29.800552248447
20
15.2720042064439
30
4E-16
41
1
10
-29.9005601033374
20
15.2190033143432
30
5E-16
41
1
10
-30.0495890398979
20
15.1368423403033
30
8E-16
41
1
10
-30.0991010452857
20
15.1090107255268
30
9E-16
41
1
10
-30.1977612420385
20
15.0523629947875
30
1.1E-15
41
1
10
-30.246802196595
20
15.0236072729313
30
1.2E-15
41
1
10
-30.3926040590001
20
14.936145731482
30
1.5E-15
41
1
10
-30.4881977497714
20
14.8761679605294
30
1.7E-15
41
1
10
-30.6755143196623
20
14.7521910514375
30
2E-15
41
1
10
-30.7672411090937
20
14.6881959757016
30
2.2E-15
41
1
10
-30.9459205908172
20
14.5552460381924
30
-1E-15
41
1
10
-31.0328806851118
20
14.4862988663231
30
-8E-16
41
1
10
-31.2007106022034
20
14.3420773694795
30
-4E-16
41
1
10
-31.2815960219532
20
14.2668192481029
30
-2E-16
41
1
10
-31.3776148734292
20
14.1674607779819
30
0
41
1
10
-31.3965616631751
20
14.1473221081289
30
1E-16
41
1
10
-31.4338966392597
20
14.1064644380906
30
2E-16
41
1
10
-31.4523108617394
20
14.0857140445542
30
2E-16
41
1
10
-31.5063361783768
20
14.0228712392924
30
3E-16
41
1
10
-31.54079365255
20
13.9801293458913
30
4E-16
41
1
10
-31.6388518307493
20
13.8490182568054
30
7E-16
41
1
10
-31.6972136589527
20
13.7578045741302
30
9E-16
41
1
10
-31.7461682088002
20
13.6614831389894
30
1E-15
0
SPLINE
5
1B0
100
AcDbEntity
8
SK1
62
256
6
ByLayer
370
18
48
1
60
0
100
AcDbSpline
70
4
71
3
72
47
73
43
40
0
40
0
40
0
40
0
40
0.0156250000000033
40
0.0156250000000033
40
0.0234375000000071
40
0.0234375000000071
40
0.0312500000000109
40
0.0312500000000109
40
0.0468750000000142
40
0.0546875000000135
40
0.0546875000000135
40
0.0625000000000128
40
0.0625000000000128
40
0.0781250000000163
40
0.0781250000000163
40
0.0859375000000175
40
0.0859375000000175
40
0.0937500000000186
40
0.0937500000000186
40
0.125000000000019
40
0.125000000000019
40
0.15625000000002
40
0.15625000000002
40
0.187500000000021
40
0.187500000000021
40
0.218750000000022
40
0.218750000000022
40
0.250000000000022
40
0.250000000000022
40
0.312500000000021
40
0.312500000000021
40
0.37500000000002
40
0.37500000000002
40
0.437500000000019
40
0.437500000000019
40
0.500000000000018
40
0.500000000000018
40
0.625000000000015
40
0.625000000000015
40
0.750000000000012
40
0.750000000000012
40
1
40
1
40
1
40
1
41
1
10
-29.7
20
15.3235319389937
30
2E-16
41
1
10
-29.6899320132645
20
15.3286912520458
30
2E-16
41
1
10
-29.679563095409
20
15.3332120103836
30
1E-16
41
1
10
-29.6634730021287
20
15.3388553186165
30
1E-16
41
1
10
-29.658019909642
20
15.3405461989438
30
1E-16
41
1
10
-29.6469158238517
20
15.3435085470703
30
1E-16
41
1
10
-29.6412318955046
20
15.3447848416703
30
1E-16
41
1
10
-29.6241704520727
20
15.3478632694633
30
1E-16
41
1
10
-29.6070567378448
20
15.3494698656147
30
0
41
1
10
-29.5898632531018
20
15.3488296562769
30
0
41
1
10
-29.5783829592563
20
15.3478967966358
30
0
41
1
10
-29.5726396483175
20
15.3471743131843
30
0
41
1
10
-29.5557704003759
20
15.3443269291181
30
0
41
1
10
-29.544868213647
20
15.341517016762
30
0
41
1
10
-29.5289551720728
20
15.3361342569563
30
0
41
1
10
-29.5237048865244
20
15.3341356711454
30
0
41
1
10
-29.5134763464372
20
15.3298339700338
30
-1E-16
41
1
10
-29.5084894142529
20
15.3275298803393
30
-1E-16
41
1
10
-29.4841131064784
20
15.3153369451055
30
-1E-16
41
1
10
-29.4663421628306
20
15.3034611928833
30
-1E-16
41
1
10
-29.4331599622024
20
15.2770069278024
30
-1E-16
41
1
10
-29.4181368053414
20
15.2627321397236
30
-1E-16
41
1
10
-29.3901094138845
20
15.2328228183735
30
-1E-16
41
1
10
-29.3771220674995
20
15.2171771219288
30
-1E-16
41
1
10
-29.3526269820705
20
15.1848801480828
30
-1E-16
41
1
10
-29.3410979372783
20
15.1681775529462
30
-1E-16
41
1
10
-29.3194357990557
20
15.1343857210257
30
-1E-16
41
1
10
-29.3092704613452
20
15.1172559562828
30
0
41
1
10
-29.280316307567
20
15.0653153193056
30
0
41
1
10
-29.2630465632977
20
15.0299606377321
30
0
41
1
10
-29.2312352242664
20
14.958236099245
30
0
41
1
10
-29.2167122600432
20
14.9218600708097
30
1E-16
41
1
10
-29.1897232818428
20
14.8483123986336
30
1E-16
41
1
10
-29.1772638379378
20
14.8111385815289
30
2E-16
41
1
10
-29.1539870597724
20
14.7361303223798
30
2E-16
41
1
10
-29.1431615501528
20
14.6982503129555
30
2E-16
41
1
10
-29.1128516531471
20
14.5842120488401
30
3E-16
41
1
10
-29.0954744478148
20
14.5075870097993
30
4E-16
41
1
10
-29.064834559853
20
14.3533462227059
30
6E-16
41
1
10
-29.0515908571072
20
14.2757278711246
30
6E-16
41
1
10
-29.0168376045535
20
14.0415453013342
30
9E-16
41
1
10
-29.0002318858955
20
13.8836638332658
30
1E-15
41
1
10
-28.9886513676477
20
13.7242189720324
30
1.2E-15
0
SPLINE
5
1B1
100
AcDbEntity
8
SK1
62
256
6
ByLayer
370
18
48
1
60
0
100
AcDbSpline
70
4
71
3
72
32
73
28
40
0
40
0
40
0
40
0
40
0.0624999999999992
40
0.0624999999999992
40
0.124999999999998
40
0.124999999999998
40
0.156249999999997
40
0.156249999999997
40
0.187499999999996
40
0.187499999999996
40
0.249999999999996
40
0.249999999999996
40
0.312499999999996
40
0.312499999999996
40
0.374999999999996
40
0.374999999999996
40
0.499999999999997
40
0.499999999999997
40
0.624999999999997
40
0.624999999999997
40
0.687499999999998
40
0.687499999999998
40
0.749999999999999
40
0.749999999999999
40
0.874999999999999
40
0.874999999999999
40
1
40
1
40
1
40
1
41
1
10
-28.9886513676477
20
13.7242189720324
30
1.2E-15
41
1
10
-28.9827130472323
20
13.6424579787561
30
-2.3E-15
41
1
10
-28.96900690363
20
13.5617668055124
30
-2.2E-15
41
1
10
-28.9301228262662
20
13.4018812332315
30
-2.1E-15
41
1
10
-28.9050274806874
20
13.3226731599914
30
-2E-15
41
1
10
-28.862186370551
20
13.2044324412855
30
-1.9E-15
41
1
10
-28.8470578314287
20
13.1651821590857
30
-1.9E-15
41
1
10
-28.8156253580519
20
13.087066728824
30
-1.8E-15
41
1
10
-28.7993095517665
20
13.0481700972783
30
-1.8E-15
41
1
10
-28.7490985979663
20
12.931783742872
30
-1.7E-15
41
1
10
-28.7139664991063
20
12.8545887718375
30
-1.7E-15
41
1
10
-28.6424255228992
20
12.7003010245525
30
-1.6E-15
41
1
10
-28.6060039809534
20
12.6232124338142
30
-1.5E-15
41
1
10
-28.533194576754
20
12.468688611668
30
-1.4E-15
41
1
10
-28.4967992831159
20
12.3912558511739
30
-1.4E-15
41
1
10
-28.3890361124598
20
12.1579599746731
30
-1.2E-15
41
1
10
-28.3191443604828
20
12.0010822990163
30
-1.1E-15
41
1
10
-28.1882486823654
20
11.6828439047826
30
-9E-16
41
1
10
-28.1271918846205
20
11.5215011478575
30
-8E-16
41
1
10
-28.0449789146967
20
11.2751047903875
30
-6E-16
41
1
10
-28.0191315383275
20
11.1922437265208
30
-6E-16
41
1
10
-27.9709943003534
20
11.0248921159286
30
-4E-16
41
1
10
-27.9486915691112
20
10.9403513987902
30
-4E-16
41
1
10
-27.8878918935714
20
10.6843272853337
30
3.4E-15
41
1
10
-27.855893957718
20
10.5121662582622
30
0
41
1
10
-27.8119655304856
20
10.1645566590423
30
4E-16
41
1
10
-27.8
20
9.98911170662305
30
6E-16
41
1
10
-27.8
20
9.81180884588855
30
8E-16
0
SPLINE
5
1B2
100
AcDbEntity
8
SK1
62
256
6
ByLayer
370
18
48
1
60
0
100
AcDbSpline
70
4
71
3
72
34
73
30
40
0
40
0
40
0
40
0
40
0.124999999999999
40
0.124999999999999
40
0.249999999999998
40
0.249999999999998
40
0.312499999999997
40
0.312499999999997
40
0.374999999999996
40
0.374999999999996
40
0.499999999999997
40
0.499999999999997
40
0.624999999999998
40
0.624999999999998
40
0.687499999999999
40
0.687499999999999
40
0.749999999999999
40
0.749999999999999
40
0.8125
40
0.8125
40
0.875
40
0.875
40
0.937500000000001
40
0.937500000000001
40
0.968750000000001
40
0.968750000000001
40
0.984375
40
0.984375
40
1
40
1
40
1
40
1
41
1
10
-27.8
20
-9.81180884588849
30
2.5E-15
41
1
10
-27.8
20
-9.9880033094164
30
2.7E-15
41
1
10
-27.8118164408959
20
-10.1623226077758
30
2.9E-15
41
1
10
-27.8551932756349
20
-10.507655599822
30
3.3E-15
41
1
10
-27.8867878936418
20
-10.6786656404815
30
0
41
1
10
-27.9468205801887
20
-10.9329491904593
30
-3.2E-15
41
1
10
-27.9689693229537
20
-11.017407671482
30
-3E-15
41
1
10
-28.0167800569714
20
-11.1844743839131
30
-2.8E-15
41
1
10
-28.0424730974938
20
-11.26722944261
30
-2.6E-15
41
1
10
-28.1242616592294
20
-11.5133990777946
30
-2.3E-15
41
1
10
-28.1850878239042
20
-11.6747123534566
30
-2E-15
41
1
10
-28.3156650470699
20
-11.9930479163044
30
-1.5E-15
41
1
10
-28.3854685692409
20
-12.1500532830665
30
-1.2E-15
41
1
10
-28.4932173684265
20
-12.3835864015794
30
-8E-16
41
1
10
-28.5296208407019
20
-12.4610917807711
30
-7E-16
41
1
10
-28.6024697812079
20
-12.6157229540086
30
-4E-16
41
1
10
-28.6389235848855
20
-12.6928487370729
30
-3E-16
41
1
10
-28.7105643941217
20
-12.8471608347557
30
0
41
1
10
-28.7457637050509
20
-12.9243432182359
30
1E-16
41
1
10
-28.812905041964
20
-13.0794209426619
30
4E-16
41
1
10
-28.8448641508791
20
-13.1573109077107
30
5E-16
41
1
10
-28.9024061351671
20
-13.3148157256135
30
8E-16
41
1
10
-28.9279942308245
20
-13.3944292828941
30
9E-16
41
1
10
-28.9580832340274
20
-13.5162714781723
30
1.1E-15
41
1
10
-28.9667168283859
20
-13.5572935371204
30
1.2E-15
41
1
10
-28.9770542863337
20
-13.6196035391783
30
1.2E-15
41
1
10
-28.9800708165619
20
-13.6405616795084
30
1.3E-15
41
1
10
-28.9851125799362
20
-13.6824576681554
30
-2.2E-15
41
1
10
-28.9871364448993
20
-13.7033609549874
30
-2.2E-15
41
1
10
-28.9886513676452
20
-13.7242189720324
30
-2.2E-15
0
SPLINE
5
1B3
100
AcDbEntity
8
SK1
62
256
6
ByLayer
370
18
48
1
60
0
100
AcDbSpline
70
4
71
3
72
49
73
45
40
0
40
0
40
0
40
0
40
0.125000000000001
40
0.125000000000001
40
0.250000000000002
40
0.250000000000002
40
0.375000000000003
40
0.375000000000003
40
0.500000000000004
40
0.500000000000004
40
0.562500000000003
40
0.562500000000003
40
0.625000000000002
40
0.625000000000002
40
0.6875
40
0.6875
40
0.749999999999999
40
0.749999999999999
40
0.781249999999997
40
0.781249999999997
40
0.812499999999994
40
0.812499999999994
40
0.843749999999991
40
0.843749999999991
40
0.874999999999989
40
0.874999999999989
40
0.890624999999987
40
0.890624999999987
40
0.906249999999986
40
0.906249999999986
40
0.921874999999985
40
0.921874999999985
40
0.929687499999986
40
0.929687499999986
40
0.937499999999986
40
0.937499999999986
40
0.953124999999989
40
0.960937499999992
40
0.960937499999992
40
0.968749999999996
40
0.968749999999996
40
0.984374999999998
40
0.984374999999998
40
1
40
1
40
1
40
1
41
1
10
-28.9886513676477
20
-13.7242189720323
30
-2.2E-15
41
1
10
-28.9944495606372
20
-13.8040506390462
30
-2.1E-15
41
1
10
-29.0015346438237
20
-13.8835307700336
30
-2E-15
41
1
10
-29.0185804354125
20
-14.0417582177013
30
-1.8E-15
41
1
10
-29.0285378172533
20
-14.1205058879594
30
-1.7E-15
41
1
10
-29.0518298545523
20
-14.2772170539535
30
-1.5E-15
41
1
10
-29.0651664182898
20
-14.3552157472236
30
-1.3E-15
41
1
10
-29.0959783169403
20
-14.5099190514393
30
-1.1E-15
41
1
10
-29.1134404135387
20
-14.5866687367074
30
-1E-15
41
1
10
-29.1438429566397
20
-14.7006873647861
30
-8E-16
41
1
10
-29.1546864007152
20
-14.7385079226548
30
-8E-16
41
1
10
-29.178051578424
20
-14.8135448684405
30
-7E-16
41
1
10
-29.1905750652387
20
-14.8507817460204
30
-6E-16
41
1
10
-29.2177652741693
20
-14.9245707230323
30
-5E-16
41
1
10
-29.2324453517676
20
-14.9611651591773
30
-4E-16
41
1
10
-29.2645376865807
20
-15.0331044024774
30
-3E-16
41
1
10
-29.2819408819409
20
-15.0684847614562
30
-2E-16
41
1
10
-29.3110464556205
20
-15.1202965086871
30
-2E-16
41
1
10
-29.3212538763986
20
-15.1373551701727
30
-1E-16
41
1
10
-29.3429678578456
20
-15.1709364207719
30
-1E-16
41
1
10
-29.3544597658536
20
-15.1874344859817
30
0
41
1
10
-29.3789383225821
20
-15.219411859273
30
0
41
1
10
-29.391937885956
20
-15.2349260515862
30
1E-16
41
1
10
-29.4200787943308
20
-15.2646306994085
30
1E-16
41
1
10
-29.4352639520093
20
-15.2788523522263
30
2E-16
41
1
10
-29.4598598251452
20
-15.2981935835167
30
2E-16
41
1
10
-29.4683802704441
20
-15.3043245096584
30
3E-16
41
1
10
-29.4862256590474
20
-15.3157980861651
30
3E-16
41
1
10
-29.4956030558715
20
-15.3211679318895
30
3E-16
41
1
10
-29.5151475826166
20
-15.3307599172219
30
3E-16
41
1
10
-29.5252391562401
20
-15.3349513645123
30
4E-16
41
1
10
-29.5409536010524
20
-15.34014751056
30
4E-16
41
1
10
-29.5462882595292
20
-15.3416970988426
30
4E-16
41
1
10
-29.5571720817849
20
-15.3443909460607
30
4E-16
41
1
10
-29.562748734131
20
-15.3455378520369
30
4E-16
41
1
10
-29.5794771392784
20
-15.348249167786
30
4E-16
41
1
10
-29.5963200380376
20
-15.3495449060391
30
5E-16
41
1
10
-29.6133405902616
20
-15.3486454187105
30
5E-16
41
1
10
-29.6247279566904
20
-15.347547311268
30
5E-16
41
1
10
-29.6304652896925
20
-15.3467424546022
30
5E-16
41
1
10
-29.647351058508
20
-15.3436484973981
30
5E-16
41
1
10
-29.6582881396324
20
-15.3406800494919
30
5E-16
41
1
10
-29.6796130668308
20
-15.3331881822068
30
5E-16
41
1
10
-29.6900168213244
20
-15.3286477923808
30
6E-16
41
1
10
-29.7
20
-15.3235319389936
30
6E-16
0
SPLINE
5
1B4
100
AcDbEntity
8
SK1
62
256
6
ByLayer
370
18
48
1
60
0
100
AcDbSpline
70
4
71
3
72
26
73
22
40
0
40
0
40
0
40
0
40
0.124999999999983
40
0.124999999999983
40
0.156249999999981
40
0.156249999999981
40
0.187499999999978
40
0.187499999999978
40
0.249999999999978
40
0.249999999999978
40
0.374999999999982
40
0.374999999999982
40
0.499999999999985
40
0.499999999999985
40
0.624999999999989
40
0.624999999999989
40
0.749999999999993
40
0.749999999999993
40
0.874999999999996
40
0.874999999999996
40
1
40
1
40
1
40
1
41
1
10
-31.7461682088001
20
-13.6614831389895
30
-2.5E-15
41
1
10
-31.6976828534674
20
-13.7568814017354
30
-2.4E-15
41
1
10
-31.6397565776721
20
-13.8476510455376
30
-2.4E-15
41
1
10
-31.5583453944199
20
-13.9566990155259
30
-2.4E-15
41
1
10
-31.5416083142824
20
-13.9782856124981
30
-2.3E-15
41
1
10
-31.507277808518
20
-14.021038964228
30
-2.3E-15
41
1
10
-31.4896627668905
20
-14.0422306893134
30
-2.3E-15
41
1
10
-31.4357564879918
20
-14.1050368395918
30
-2.3E-15
41
1
10
-31.3985547997775
20
-14.1457217576276
30
-2.3E-15
41
1
10
-31.2837255977992
20
-14.2647521221168
30
-2.3E-15
41
1
10
-31.2029009235047
20
-14.3400984844402
30
-2.3E-15
41
1
10
-31.0348025278945
20
-14.4847417053506
30
-2.4E-15
41
1
10
-30.9475143143599
20
-14.5540249695674
30
-2.4E-15
41
1
10
-30.7678255647142
20
-14.687795903485
30
1.1E-15
41
1
10
-30.6754179383593
20
-14.7522769222099
30
1.1E-15
41
1
10
-30.4864242944622
20
-14.8773194358885
30
1E-15
41
1
10
-30.3905261321647
20
-14.9374254289974
30
9E-16
41
1
10
-30.1965735429637
20
-15.0537038597146
30
8E-16
41
1
10
-30.0984992361082
20
-15.1098833436413
30
8E-16
41
1
10
-29.9005391579505
20
-15.2190092111371
30
7E-16
41
1
10
-29.8006519865953
20
-15.2719530958927
30
6E-16
41
1
10
-29.7
20
-15.3235319389936
30
6E-16
0
SPLINE
5
1B5
100
AcDbEntity
8
SK1
62
256
6
ByLayer
370
18
48
1
60
0
100
AcDbSpline
70
4
71
3
72
42
73
38
40
0
40
0
40
0
40
0
40
0.125000000000001
40
0.125000000000001
40
0.250000000000002
40
0.250000000000002
40
0.375000000000003
40
0.375000000000003
40
0.500000000000004
40
0.500000000000004
40
0.625000000000005
40
0.625000000000005
40
0.687500000000004
40
0.687500000000004
40
0.750000000000003
40
0.750000000000003
40
0.812500000000002
40
0.812500000000002
40
0.843750000000002
40
0.843750000000002
40
0.875000000000001
40
0.875000000000001
40
0.906250000000001
40
0.906250000000001
40
0.9375
40
0.9375
40
0.953125000000002
40
0.953125000000002
40
0.960937500000002
40
0.960937500000002
40
0.968750000000003
40
0.968750000000003
40
0.984375
40
0.984375
40
0.9921875
40
0.9921875
40
1
40
1
40
1
40
1
41
1
10
-38.2499999999996
20
-12.1084166393108
30
0
41
1
10
-37.9697881421388
20
-12.1457232171295
30
-3E-16
41
1
10
-37.6897490634698
20
-12.1841326403466
30
-6E-16
41
1
10
-37.1300897452701
20
-12.263624357106
30
-1.2E-15
41
1
10
-36.8504689692215
20
-12.304703230213
30
-1.4E-15
41
1
10
-36.2917502760217
20
-12.390196994782
30
1.5E-15
41
1
10
-36.0126512660557
20
-12.4346049192712
30
1.2E-15
41
1
10
-35.4551343401842
20
-12.5277655711283
30
7E-16
41
1
10
-35.176803661522
20
-12.5764878137287
30
4E-16
41
1
10
-34.6213926586573
20
-12.6798831412936
30
-1E-16
41
1
10
-34.3442722044515
20
-12.7345176713666
30
-4E-16
41
1
10
-33.9300707618537
20
-12.8232372187387
30
-8E-16
41
1
10
-33.7923139636962
20
-12.8539391230574
30
2.6E-15
41
1
10
-33.5176145661512
20
-12.9183036197483
30
2.4E-15
41
1
10
-33.3806689478798
20
-12.9519552403529
30
2.2E-15
41
1
10
-33.1079072838659
20
-13.023365348019
30
2E-15
41
1
10
-32.9720674539047
20
-13.0611023875281
30
1.9E-15
41
1
10
-32.7700824547793
20
-13.1222416450551
30
1.7E-15
41
1
10
-32.7030376520921
20
-13.1433898632182
30
1.6E-15
41
1
10
-32.5696894355454
20
-13.1876955727154
30
1.5E-15
41
1
10
-32.50330631209
20
-13.2108756896313
30
1.5E-15
41
1
10
-32.3719770449632
20
-13.2598488996512
30
1.4E-15
41
1
10
-32.3070588983496
20
-13.285611472754
30
1.3E-15
41
1
10
-32.1794332045164
20
-13.3409149100071
30
1.2E-15
41
1
10
-32.1166968715275
20
-13.3704065813251
30
1.2E-15
41
1
10
-32.0253597401936
20
-13.4193737089843
30
1.1E-15
41
1
10
-31.995382059548
20
-13.4364959786893
30
1.1E-15
41
1
10
-31.9514212456896
20
-13.4638981594606
30
1.1E-15
41
1
10
-31.9369368206267
20
-13.4733213512631
30
1.1E-15
41
1
10
-31.9083882523714
20
-13.4928859978622
30
1.1E-15
41
1
10
-31.8943517325355
20
-13.5030114532852
30
1.1E-15
41
1
10
-31.8535304299621
20
-13.5343626319127
30
1.1E-15
41
1
10
-31.8278417671388
20
-13.5566069054554
30
1.1E-15
41
1
10
-31.793123459896
20
-13.5933326941399
30
1.1E-15
41
1
10
-31.7821559726242
20
-13.6062117915629
30
1.1E-15
41
1
10
-31.7624154779407
20
-13.6329647758599
30
1.1E-15
41
1
10
-31.7535944434187
20
-13.6468715129329
30
1.1E-15
41
1
10
-31.7461682088002
20
-13.6614831389895
30
-2.5E-15
0
SPLINE
5
1B6
100
AcDbEntity
8
SK1
62
256
6
ByLayer
370
18
48
1
60
0
100
AcDbSpline
70
4
71
3
72
8
73
4
40
0
40
0
40
0
40
0
40
1
40
1
40
1
40
1
41
1
10
-38.3800599072244
20
-12.4341278687475
30
6E-16
41
1
10
-38.340857052271
20
-12.3244770830373
30
4E-16
41
1
10
-38.2972640933933
20
-12.2159810648501
30
2E-16
41
1
10
-38.25
20
-12.1084166393131
30
0
0
LINE
5
96
100
AcDbEntity
8
80
62
256
6
ByLayer
370
18
48
1
60
0
100
AcDbLine
10
0
20
0
30
0
11
-5
21
0
31
0
39
0
210
0
220
0
230
1
0
LINE
5
97
100
AcDbEntity
8
4
62
256
6
ByLayer
370
18
48
0.05
60
0
100
AcDbLine
10
0
20
0
30
0
11
70
21
0
31
0
39
0
210
0
220
0
230
1
0
LINE
5
99
100
AcDbEntity
8
81
62
256
6
ByLayer
370
18
48
1
60
0
100
AcDbLine
10
70
20
0
30
0
11
75
21
0
31
0
39
0
210
0
220
0
230
1
0
LINE
5
9A
100
AcDbEntity
8
SK4
62
256
6
ByLayer
370
18
48
0.05
60
0
100
AcDbLine
10
0
20
0
30
0
11
70
21
0
31
0
39
0
210
0
220
0
230
1
0
LINE
5
9C
100
AcDbEntity
8
1
62
256
6
ByLayer
370
18
48
1
60
0
100
AcDbLine
10
19.525
20
34.975
30
0
11
16.475
21
34.975
31
0
39
0
210
0
220
0
230
1
0
LINE
5
9D
100
AcDbEntity
8
1
62
256
6
ByLayer
370
18
48
1
60
0
100
AcDbLine
10
71.214791
20
19.646
30
0
11
70.375
21
19.646
31
0
39
0
210
0
220
0
230
1
0
LINE
5
9E
100
AcDbEntity
8
1
62
256
6
ByLayer
370
18
48
1
60
0
100
AcDbLine
10
70.375
20
-19.646
30
0
11
71.214791
21
-19.646
31
0
39
0
210
0
220
0
230
1
0
LINE
5
9F
100
AcDbEntity
8
1
62
256
6
ByLayer
370
18
48
1
60
0
100
AcDbLine
10
93
20
19.41865
30
0
11
92
21
19.996
31
0
39
0
210
0
220
0
230
1
0
LINE
5
A0
100
AcDbEntity
8
1
62
256
6
ByLayer
370
18
48
1
60
0
100
AcDbLine
10
92
20
-19.996
30
0
11
93
21
-19.41865
31
0
39
0
210
0
220
0
230
1
0
LINE
5
A1
100
AcDbEntity
8
1
62
256
6
ByLayer
370
18
48
1
60
0
100
AcDbLine
10
71.370082
20
-19.666445
30
0
11
72.6
21
-19.996
31
0
39
0
210
0
220
0
230
1
0
LINE
5
A2
100
AcDbEntity
8
1
62
256
6
ByLayer
370
18
48
1
60
0
100
AcDbLine
10
72.6
20
19.996
30
0
11
71.370082
21
19.666445
31
0
39
0
210
0
220
0
230
1
0
LINE
5
A3
100
AcDbEntity
8
1
62
256
6
ByLayer
370
18
48
1
60
0
100
AcDbLine
10
92
20
19.996
30
0
11
72.6
21
19.996
31
0
39
0
210
0
220
0
230
1
0
LINE
5
A4
100
AcDbEntity
8
1
62
256
6
ByLayer
370
18
48
1
60
0
100
AcDbLine
10
72.6
20
-19.996
30
0
11
92
21
-19.996
31
0
39
0
210
0
220
0
230
1
0
LINE
5
A5
100
AcDbEntity
8
1
62
256
6
ByLayer
370
18
48
1
60
0
100
AcDbLine
10
26.95
20
-33.75
30
0
11
41.643752
21
-33.75
31
0
39
0
210
0
220
0
230
1
0
LINE
5
A6
100
AcDbEntity
8
1
62
256
6
ByLayer
370
18
48
1
60
0
100
AcDbLine
10
41.643752
20
33.75
30
0
11
26.95
21
33.75
31
0
39
0
210
0
220
0
230
1
0
LINE
5
A7
100
AcDbEntity
8
1
62
256
6
ByLayer
370
18
48
1
60
0
100
AcDbLine
10
16.475
20
-34.975
30
0
11
19.525
21
-34.975
31
0
39
0
210
0
220
0
230
1
0
LINE
5
A8
100
AcDbEntity
8
1
62
256
6
ByLayer
370
18
48
1
60
0
100
AcDbLine
10
25.25
20
39.97
30
0
11
21.51895
21
39.97
31
0
39
0
210
0
220
0
230
1
0
LINE
5
A9
100
AcDbEntity
8
1
62
256
6
ByLayer
370
18
48
1
60
0
100
AcDbLine
10
25.95
20
39.27
30
0
11
25.25
21
39.97
31
0
39
0
210
0
220
0
230
1
0
LINE
5
AA
100
AcDbEntity
8
1
62
256
6
ByLayer
370
18
48
1
60
0
100
AcDbLine
10
16.075
20
37.209198
30
0
11
14.48105
21
39.97
31
0
39
0
210
0
220
0
230
1
0
LINE
5
AB
100
AcDbEntity
8
1
62
256
6
ByLayer
370
18
48
1
60
0
100
AcDbLine
10
21.51895
20
39.97
30
0
11
19.925
21
37.209198
31
0
39
0
210
0
220
0
230
1
0
LINE
5
AC
100
AcDbEntity
8
1
62
256
6
ByLayer
370
18
48
1
60
0
100
AcDbLine
10
21.51895
20
-39.97
30
0
11
25.25
21
-39.97
31
0
39
0
210
0
220
0
230
1
0
LINE
5
AD
100
AcDbEntity
8
1
62
256
6
ByLayer
370
18
48
1
60
0
100
AcDbLine
10
25.25
20
-39.97
30
0
11
25.95
21
-39.27
31
0
39
0
210
0
220
0
230
1
0
LINE
5
AE
100
AcDbEntity
8
1
62
256
6
ByLayer
370
18
48
1
60
0
100
AcDbLine
10
19.925
20
-37.209198
30
0
11
21.51895
21
-39.97
31
0
39
0
210
0
220
0
230
1
0
LINE
5
AF
100
AcDbEntity
8
1
62
256
6
ByLayer
370
18
48
1
60
0
100
AcDbLine
10
14.48105
20
-39.97
30
0
11
16.075
21
-37.209198
31
0
39
0
210
0
220
0
230
1
0
LINE
5
B0
100
AcDbEntity
8
1
62
256
6
ByLayer
370
18
48
1
60
0
100
AcDbLine
10
0
20
-39.27
30
0
11
0.7
21
-39.97
31
0
39
0
210
0
220
0
230
1
0
LINE
5
B1
100
AcDbEntity
8
1
62
256
6
ByLayer
370
18
48
1
60
0
100
AcDbLine
10
0.7
20
39.97
30
0
11
0
21
39.27
31
0
39
0
210
0
220
0
230
1
0
LINE
5
B2
100
AcDbEntity
8
1
62
256
6
ByLayer
370
18
48
1
60
0
100
AcDbLine
10
14.48105
20
39.97
30
0
11
0.7
21
39.97
31
0
39
0
210
0
220
0
230
1
0
LINE
5
B3
100
AcDbEntity
8
1
62
256
6
ByLayer
370
18
48
1
60
0
100
AcDbLine
10
0.7
20
-39.97
30
0
11
1.992419
21
-39.97
31
0
39
0
210
0
220
0
230
1
0
LINE
5
B4
100
AcDbEntity
8
1
62
256
6
ByLayer
370
18
48
1
60
0
100
AcDbLine
10
12.0225
20
-39.97
30
0
11
14.48105
21
-39.97
31
0
39
0
210
0
220
0
230
1
0
LINE
5
B5
100
AcDbEntity
8
1
62
256
6
ByLayer
370
18
48
1
60
0
100
AcDbLine
10
70
20
45.5
30
0
11
69.5
21
46
31
0
39
0
210
0
220
0
230
1
0
LINE
5
B6
100
AcDbEntity
8
1
62
256
6
ByLayer
370
18
48
1
60
0
100
AcDbLine
10
69.5
20
-46
30
0
11
70
21
-45.5
31
0
39
0
210
0
220
0
230
1
0
LINE
5
B7
100
AcDbEntity
8
1
62
256
6
ByLayer
370
18
48
1
60
0
100
AcDbLine
10
43.643752
20
-46
30
0
11
69.5
21
-46
31
0
39
0
210
0
220
0
230
1
0
LINE
5
B8
100
AcDbEntity
8
1
62
256
6
ByLayer
370
18
48
1
60
0
100
AcDbLine
10
69.5
20
46
30
0
11
43.643752
21
46
31
0
39
0
210
0
220
0
230
1
0
LINE
5
B9
100
AcDbEntity
8
SK2
62
256
6
ByLayer
370
18
48
1
60
0
100
AcDbLine
10
102
20
24
30
0
11
101
21
25
31
0
39
0
210
0
220
0
230
1
0
LINE
5
BB
100
AcDbEntity
8
SK2
62
256
6
ByLayer
370
18
48
1
60
0
100
AcDbLine
10
101
20
-25
30
0
11
102
21
-24
31
0
39
0
210
0
220
0
230
1
0
LINE
5
BC
100
AcDbEntity
8
SK2
62
256
6
ByLayer
370
18
48
1
60
0
100
AcDbLine
10
101
20
25
30
0
11
96
21
25
31
0
39
0
210
0
220
0
230
1
0
LINE
5
BD
100
AcDbEntity
8
SK2
62
256
6
ByLayer
370
18
48
1
60
0
100
AcDbLine
10
96
20
-25
30
0
11
101
21
-25
31
0
39
0
210
0
220
0
230
1
0
LINE
5
BE
100
AcDbEntity
8
SK2
62
256
6
ByLayer
370
18
48
1
60
0
100
AcDbLine
10
95.999669
20
10
30
0
11
92.999885
21
10
31
0
39
0
210
0
220
0
230
1
0
LINE
5
BF
100
AcDbEntity
8
SK2
62
256
6
ByLayer
370
18
48
1
60
0
100
AcDbLine
10
92.999885
20
-10
30
0
11
95.999669
21
-10
31
0
39
0
210
0
220
0
230
1
0
LINE
5
C0
100
AcDbEntity
8
SK2
62
256
6
ByLayer
370
18
48
1
60
0
100
AcDbLine
10
102
20
-14.9175
30
0
11
112.5
21
-14.9175
31
0
39
0
210
0
220
0
230
1
0
LINE
5
C1
100
AcDbEntity
8
SK2
62
256
6
ByLayer
370
18
48
1
60
0
100
AcDbLine
10
112.5
20
14.9175
30
0
11
102
21
14.9175
31
0
39
0
210
0
220
0
230
1
0
LINE
5
C2
100
AcDbEntity
8
SK1
62
256
6
ByLayer
370
18
48
1
60
0
100
AcDbLine
10
-0.8
20
30.031551
30
0
11
-2.066987
21
30.031551
31
0
39
0
210
0
220
0
230
1
0
LINE
5
C4
100
AcDbEntity
8
SK1
62
256
6
ByLayer
370
18
48
1
60
0
100
AcDbLine
10
-2.066987
20
-30.031551
30
0
11
-0.8
21
-30.031551
31
0
39
0
210
0
220
0
230
1
0
LINE
5
C5
100
AcDbEntity
8
SK1
62
256
6
ByLayer
370
18
48
1
60
0
100
AcDbLine
10
-2.066987
20
30.031551
30
0
11
-2.5
21
30.281551
31
0
39
0
210
0
220
0
230
1
0
LINE
5
C6
100
AcDbEntity
8
SK1
62
256
6
ByLayer
370
18
48
1
60
0
100
AcDbLine
10
-2.5
20
-30.281551
30
0
11
-2.066987
21
-30.031551
31
0
39
0
210
0
220
0
230
1
0
LINE
5
C7
100
AcDbEntity
8
SK1
62
256
6
ByLayer
370
18
48
1
60
0
100
AcDbLine
10
-38.38006
20
-28.483953
30
0
11
-2.5
21
-30.281551
31
0
39
0
210
0
220
0
230
1
0
LINE
5
C8
100
AcDbEntity
8
SK1
62
256
6
ByLayer
370
18
48
1
60
0
100
AcDbLine
10
-2.5
20
30.281551
30
0
11
-38.38006
21
28.483953
31
0
39
0
210
0
220
0
230
1
0
LINE
5
C9
100
AcDbEntity
8
1
62
256
6
ByLayer
370
13
48
1
60
0
100
AcDbLine
10
71.214791
20
19.646
30
0
11
71.214791
21
7.989573
31
0
39
0
210
0
220
0
230
1
0
LINE
5
CA
100
AcDbEntity
8
1
62
256
6
ByLayer
370
13
48
1
60
0
100
AcDbLine
10
71.214791
20
-7.989573
30
0
11
71.214791
21
-19.646
31
0
39
0
210
0
220
0
230
1
0
LINE
5
CB
100
AcDbEntity
8
1
62
256
6
ByLayer
370
18
48
1
60
0
100
AcDbLine
10
93
20
19.41865
30
0
11
93
21
0
31
0
39
0
210
0
220
0
230
1
0
LINE
5
CC
100
AcDbEntity
8
1
62
256
6
ByLayer
370
18
48
1
60
0
100
AcDbLine
10
93
20
0
30
0
11
93
21
-19.41865
31
0
39
0
210
0
220
0
230
1
0
LINE
5
CD
100
AcDbEntity
8
1
62
256
6
ByLayer
370
13
48
1
60
0
100
AcDbLine
10
71.370082
20
-19.666445
30
0
11
71.370082
21
-7.990832
31
0
39
0
210
0
220
0
230
1
0
LINE
5
CE
100
AcDbEntity
8
1
62
256
6
ByLayer
370
13
48
1
60
0
100
AcDbLine
10
71.370082
20
7.990832
30
0
11
71.370082
21
19.666445
31
0
39
0
210
0
220
0
230
1
0
LINE
5
CF
100
AcDbEntity
8
1
62
256
6
ByLayer
370
18
48
1
60
0
100
AcDbLine
10
92
20
19.996
30
0
11
92
21
0
31
0
39
0
210
0
220
0
230
1
0
LINE
5
D0
100
AcDbEntity
8
1
62
256
6
ByLayer
370
18
48
1
60
0
100
AcDbLine
10
92
20
0
30
0
11
92
21
-19.996
31
0
39
0
210
0
220
0
230
1
0
LINE
5
D1
100
AcDbEntity
8
1
62
256
6
ByLayer
370
18
48
1
60
0
100
AcDbLine
10
72.6
20
-19.996
30
0
11
72.6
21
-7.988186
31
0
39
0
210
0
220
0
230
1
0
LINE
5
D2
100
AcDbEntity
8
1
62
256
6
ByLayer
370
18
48
1
60
0
100
AcDbLine
10
72.6
20
7.988186
30
0
11
72.6
21
19.996
31
0
39
0
210
0
220
0
230
1
0
LINE
5
D3
100
AcDbEntity
8
1
62
256
6
ByLayer
370
13
48
1
60
0
100
AcDbLine
10
70.375
20
19.646
30
0
11
70.375
21
7.987811
31
0
39
0
210
0
220
0
230
1
0
LINE
5
D4
100
AcDbEntity
8
1
62
256
6
ByLayer
370
13
48
1
60
0
100
AcDbLine
10
70.375
20
-7.987811
30
0
11
70.375
21
-19.646
31
0
39
0
210
0
220
0
230
1
0
LINE
5
D5
100
AcDbEntity
8
1
62
256
6
ByLayer
370
13
48
1
60
0
100
AcDbLine
10
26.95
20
33.75
30
0
11
26.95
21
-33.75
31
0
39
0
210
0
220
0
230
1
0
LINE
5
D6
100
AcDbEntity
8
1
62
256
6
ByLayer
370
18
48
1
60
0
100
AcDbLine
10
25.95
20
-10.021
30
0
11
25.95
21
-7.638881
31
0
39
0
210
0
220
0
230
1
0
LINE
5
D7
100
AcDbEntity
8
1
62
256
6
ByLayer
370
18
48
1
60
0
100
AcDbLine
10
25.95
20
7.638881
30
0
11
25.95
21
10.021
31
0
39
0
210
0
220
0
230
1
0
LINE
5
D8
100
AcDbEntity
8
1
62
256
6
ByLayer
370
18
48
1
60
0
100
AcDbLine
10
19.525
20
8.604686
30
0
11
16.475
21
8.604686
31
0
39
0
210
0
220
0
230
1
0
LINE
5
D9
100
AcDbEntity
8
1
62
256
6
ByLayer
370
18
48
1
60
0
100
AcDbLine
10
16.475
20
-8.604686
30
0
11
19.525
21
-8.604686
31
0
39
0
210
0
220
0
230
1
0
LINE
5
DA
100
AcDbEntity
8
1
62
256
6
ByLayer
370
13
48
1
60
0
100
AcDbLine
10
16.475
20
32.562254
30
0
11
16.475
21
8.604686
31
0
39
0
210
0
220
0
230
1
0
LINE
5
DB
100
AcDbEntity
8
1
62
256
6
ByLayer
370
13
48
1
60
0
100
AcDbLine
10
16.475
20
34.284213
30
0
11
16.475
21
33.149444
31
0
39
0
210
0
220
0
230
1
0
LINE
5
DC
100
AcDbEntity
8
1
62
256
6
ByLayer
370
13
48
1
60
0
100
AcDbLine
10
16.475
20
34.582337
30
0
11
16.475
21
34.975
31
0
39
0
210
0
220
0
230
1
0
LINE
5
DD
100
AcDbEntity
8
1
62
256
6
ByLayer
370
13
48
1
60
0
100
AcDbLine
10
19.525
20
34.582337
30
0
11
19.525
21
34.975
31
0
39
0
210
0
220
0
230
1
0
LINE
5
DE
100
AcDbEntity
8
1
62
256
6
ByLayer
370
13
48
1
60
0
100
AcDbLine
10
19.525
20
34.284213
30
0
11
19.525
21
33.149444
31
0
39
0
210
0
220
0
230
1
0
LINE
5
DF
100
AcDbEntity
8
1
62
256
6
ByLayer
370
13
48
1
60
0
100
AcDbLine
10
19.525
20
32.562254
30
0
11
19.525
21
8.604686
31
0
39
0
210
0
220
0
230
1
0
LINE
5
E0
100
AcDbEntity
8
1
62
256
6
ByLayer
370
13
48
1
60
0
100
AcDbLine
10
16.475
20
-34.975
30
0
11
16.475
21
-8.604686
31
0
39
0
210
0
220
0
230
1
0
LINE
5
E1
100
AcDbEntity
8
1
62
256
6
ByLayer
370
13
48
1
60
0
100
AcDbLine
10
19.525
20
-34.975
30
0
11
19.525
21
-8.604686
31
0
39
0
210
0
220
0
230
1
0
LINE
5
E2
100
AcDbEntity
8
1
62
256
6
ByLayer
370
13
48
1
60
0
100
AcDbLine
10
41.643752
20
33.75
30
0
11
41.643752
21
-33.75
31
0
39
0
210
0
220
0
230
1
0
LINE
5
E3
100
AcDbEntity
8
1
62
256
6
ByLayer
370
18
48
1
60
0
100
AcDbLine
10
25.25
20
10.021
30
0
11
21.51895
21
10.021
31
0
39
0
210
0
220
0
230
1
0
LINE
5
E4
100
AcDbEntity
8
1
62
256
6
ByLayer
370
18
48
1
60
0
100
AcDbLine
10
25.95
20
39.27
30
0
11
25.95
21
10.021
31
0
39
0
210
0
220
0
230
1
0
LINE
5
E5
100
AcDbEntity
8
1
62
256
6
ByLayer
370
18
48
1
60
0
100
AcDbLine
10
25.25
20
10.021
30
0
11
25.25
21
39.97
31
0
39
0
210
0
220
0
230
1
0
LINE
5
E6
100
AcDbEntity
8
1
62
256
6
ByLayer
370
18
48
1
60
0
100
AcDbLine
10
16.075
20
37.209198
30
0
11
16.075
21
10.021
31
0
39
0
210
0
220
0
230
1
0
LINE
5
E7
100
AcDbEntity
8
1
62
256
6
ByLayer
370
18
48
1
60
0
100
AcDbLine
10
21.51895
20
39.97
30
0
11
21.51895
21
10.021
31
0
39
0
210
0
220
0
230
1
0
LINE
5
E8
100
AcDbEntity
8
1
62
256
6
ByLayer
370
18
48
1
60
0
100
AcDbLine
10
19.925
20
37.209198
30
0
11
19.925
21
10.021
31
0
39
0
210
0
220
0
230
1
0
LINE
5
E9
100
AcDbEntity
8
1
62
256
6
ByLayer
370
18
48
1
60
0
100
AcDbLine
10
21.51895
20
-10.021
30
0
11
25.25
21
-10.021
31
0
39
0
210
0
220
0
230
1
0
LINE
5
EA
100
AcDbEntity
8
1
62
256
6
ByLayer
370
18
48
1
60
0
100
AcDbLine
10
25.25
20
-10.021
30
0
11
25.25
21
-39.97
31
0
39
0
210
0
220
0
230
1
0
LINE
5
EB
100
AcDbEntity
8
1
62
256
6
ByLayer
370
18
48
1
60
0
100
AcDbLine
10
25.95
20
-39.27
30
0
11
25.95
21
-10.021
31
0
39
0
210
0
220
0
230
1
0
LINE
5
EC
100
AcDbEntity
8
1
62
256
6
ByLayer
370
18
48
1
60
0
100
AcDbLine
10
19.925
20
-37.209198
30
0
11
19.925
21
-10.021
31
0
39
0
210
0
220
0
230
1
0
LINE
5
ED
100
AcDbEntity
8
1
62
256
6
ByLayer
370
18
48
1
60
0
100
AcDbLine
10
21.51895
20
-39.97
30
0
11
21.51895
21
-10.021
31
0
39
0
210
0
220
0
230
1
0
LINE
5
EE
100
AcDbEntity
8
1
62
256
6
ByLayer
370
18
48
1
60
0
100
AcDbLine
10
16.075
20
-37.209198
30
0
11
16.075
21
-10.021
31
0
39
0
210
0
220
0
230
1
0
LINE
5
EF
100
AcDbEntity
8
1
62
256
6
ByLayer
370
18
48
1
60
0
100
AcDbLine
10
0
20
39.27
30
0
11
0
21
0
31
0
39
0
210
0
220
0
230
1
0
LINE
5
F0
100
AcDbEntity
8
1
62
256
6
ByLayer
370
18
48
1
60
0
100
AcDbLine
10
0
20
0
30
0
11
0
21
-39.27
31
0
39
0
210
0
220
0
230
1
0
LINE
5
F1
100
AcDbEntity
8
1
62
256
6
ByLayer
370
18
48
1
60
0
100
AcDbLine
10
0.7
20
-39.97
30
0
11
0.7
21
0
31
0
39
0
210
0
220
0
230
1
0
LINE
5
F2
100
AcDbEntity
8
1
62
256
6
ByLayer
370
18
48
1
60
0
100
AcDbLine
10
0.7
20
0
30
0
11
0.7
21
39.97
31
0
39
0
210
0
220
0
230
1
0
LINE
5
F3
100
AcDbEntity
8
1
62
256
6
ByLayer
370
18
48
1
60
0
100
AcDbLine
10
14.48105
20
-10.021
30
0
11
14.48105
21
-39.97
31
0
39
0
210
0
220
0
230
1
0
LINE
5
F4
100
AcDbEntity
8
1
62
256
6
ByLayer
370
18
48
1
60
0
100
AcDbLine
10
12.95
20
-10.021
30
0
11
14.48105
21
-10.021
31
0
39
0
210
0
220
0
230
1
0
LINE
5
F5
100
AcDbEntity
8
1
62
256
6
ByLayer
370
18
48
1
60
0
100
AcDbLine
10
3.95
20
1.021
30
0
11
3.95
21
-1.021
31
0
39
0
210
0
220
0
230
1
0
LINE
5
F6
100
AcDbEntity
8
1
62
256
6
ByLayer
370
18
48
1
60
0
100
AcDbLine
10
14.48105
20
10.021
30
0
11
12.95
21
10.021
31
0
39
0
210
0
220
0
230
1
0
LINE
5
F7
100
AcDbEntity
8
1
62
256
6
ByLayer
370
18
48
1
60
0
100
AcDbLine
10
14.48105
20
10.021
30
0
11
14.48105
21
39.97
31
0
39
0
210
0
220
0
230
1
0
LINE
5
F8
100
AcDbEntity
8
1
62
256
6
ByLayer
370
18
48
1
60
0
100
AcDbLine
10
70
20
45.5
30
0
11
70
21
0
31
0
39
0
210
0
220
0
230
1
0
LINE
5
F9
100
AcDbEntity
8
1
62
256
6
ByLayer
370
18
48
1
60
0
100
AcDbLine
10
70
20
0
30
0
11
70
21
-45.5
31
0
39
0
210
0
220
0
230
1
0
LINE
5
FA
100
AcDbEntity
8
1
62
256
6
ByLayer
370
18
48
1
60
0
100
AcDbLine
10
69.5
20
46
30
0
11
69.5
21
0
31
0
39
0
210
0
220
0
230
1
0
LINE
5
FB
100
AcDbEntity
8
1
62
256
6
ByLayer
370
18
48
1
60
0
100
AcDbLine
10
69.5
20
0
30
0
11
69.5
21
-46
31
0
39
0
210
0
220
0
230
1
0
LINE
5
FC
100
AcDbEntity
8
1
62
256
6
ByLayer
370
18
48
1
60
0
100
AcDbLine
10
42.643752
20
45
30
0
11
42.643752
21
-45
31
0
39
0
210
0
220
0
230
1
0
LINE
5
FD
100
AcDbEntity
8
1
62
256
6
ByLayer
370
13
48
1
60
0
100
AcDbLine
10
43.643752
20
46
30
0
11
43.643752
21
-46
31
0
39
0
210
0
220
0
230
1
0
LINE
5
FE
100
AcDbEntity
8
SK2
62
256
6
ByLayer
370
18
48
1
60
0
100
AcDbLine
10
102
20
24
30
0
11
102
21
-24
31
0
39
0
210
0
220
0
230
1
0
LINE
5
FF
100
AcDbEntity
8
SK2
62
256
6
ByLayer
370
18
48
1
60
0
100
AcDbLine
10
101
20
-25
30
0
11
101
21
25
31
0
39
0
210
0
220
0
230
1
0
LINE
5
100
100
AcDbEntity
8
SK2
62
256
6
ByLayer
370
18
48
1
60
0
100
AcDbLine
10
96
20
25
30
0
11
96
21
-25
31
0
39
0
210
0
220
0
230
1
0
LINE
5
101
100
AcDbEntity
8
SK2
62
256
6
ByLayer
370
18
48
1
60
0
100
AcDbLine
10
114.5
20
12.9175
30
0
11
114.5
21
-12.9175
31
0
39
0
210
0
220
0
230
1
0
LINE
5
102
100
AcDbEntity
8
SK2
62
256
6
ByLayer
370
13
48
1
60
0
100
AcDbLine
10
112.5
20
-14.9175
30
0
11
112.5
21
14.9175
31
0
39
0
210
0
220
0
230
1
0
LINE
5
103
100
AcDbEntity
8
1
62
256
6
ByLayer
370
18
48
1
60
0
100
AcDbLine
10
77.2
20
-7.98925
30
0
11
70.000009
21
-7.98925
31
0
39
0
210
0
220
0
230
1
0
LINE
5
104
100
AcDbEntity
8
1
62
256
6
ByLayer
370
18
48
1
60
0
100
AcDbLine
10
77.2
20
-7.98925
30
0
11
77.6
21
-7.58925
31
0
39
0
210
0
220
0
230
1
0
LINE
5
105
100
AcDbEntity
8
1
62
256
6
ByLayer
370
18
48
1
60
0
100
AcDbLine
10
77.6
20
-7.58925
30
0
11
78
21
-7.18925
31
0
39
0
210
0
220
0
230
1
0
LINE
5
106
100
AcDbEntity
8
1
62
256
6
ByLayer
370
18
48
1
60
0
100
AcDbLine
10
78
20
7.18925
30
0
11
78
21
-7.18925
31
0
39
0
210
0
220
0
230
1
0
LINE
5
107
100
AcDbEntity
8
1
62
256
6
ByLayer
370
18
48
1
60
0
100
AcDbLine
10
77.6
20
7.58925
30
0
11
78
21
7.18925
31
0
39
0
210
0
220
0
230
1
0
LINE
5
108
100
AcDbEntity
8
1
62
256
6
ByLayer
370
18
48
1
60
0
100
AcDbLine
10
77.6
20
-7.58925
30
0
11
77.2
21
-7.18925
31
0
39
0
210
0
220
0
230
1
0
LINE
5
109
100
AcDbEntity
8
1
62
256
6
ByLayer
370
18
48
1
60
0
100
AcDbLine
10
77.2
20
7.18925
30
0
11
77.6
21
7.58925
31
0
39
0
210
0
220
0
230
1
0
LINE
5
10A
100
AcDbEntity
8
1
62
256
6
ByLayer
370
18
48
1
60
0
100
AcDbLine
10
77.6
20
7.58925
30
0
11
77.2
21
7.98925
31
0
39
0
210
0
220
0
230
1
0
LINE
5
10B
100
AcDbEntity
8
1
62
256
6
ByLayer
370
18
48
1
60
0
100
AcDbLine
10
70.000009
20
7.98925
30
0
11
77.2
21
7.98925
31
0
39
0
210
0
220
0
230
1
0
LINE
5
10C
100
AcDbEntity
8
1
62
256
6
ByLayer
370
18
48
1
60
0
100
AcDbLine
10
70.000009
20
-7.18925
30
0
11
77.2
21
-7.18925
31
0
39
0
210
0
220
0
230
1
0
LINE
5
10D
100
AcDbEntity
8
1
62
256
6
ByLayer
370
18
48
1
60
0
100
AcDbLine
10
77.2
20
-7.18925
30
0
11
77.2
21
7.18925
31
0
39
0
210
0
220
0
230
1
0
LINE
5
10E
100
AcDbEntity
8
1
62
256
6
ByLayer
370
18
48
1
60
0
100
AcDbLine
10
77.2
20
7.18925
30
0
11
70.000009
21
7.18925
31
0
39
0
210
0
220
0
230
1
0
LINE
5
10F
100
AcDbEntity
8
SK1
62
256
6
ByLayer
370
18
48
1
60
0
100
AcDbLine
10
-31.8
20
6.12
30
0
11
-31.8
21
-6.12
31
0
39
0
210
0
220
0
230
1
0
LINE
5
110
100
AcDbEntity
8
SK1
62
256
6
ByLayer
370
13
48
1
60
0
100
AcDbLine
10
-29.7
20
-15.323532
30
0
11
-29.7
21
-13.661483
31
0
39
0
210
0
220
0
230
1
0
LINE
5
111
100
AcDbEntity
8
SK1
62
256
6
ByLayer
370
18
48
1
60
0
100
AcDbLine
10
-39.9
20
26.885957
30
0
11
-39.9
21
11.82912
31
0
39
0
210
0
220
0
230
1
0
LINE
5
112
100
AcDbEntity
8
SK1
62
256
6
ByLayer
370
18
48
1
60
0
100
AcDbLine
10
-39.9
20
-26.885957
30
0
11
-39.9
21
-11.82912
31
0
39
0
210
0
220
0
230
1
0
LINE
5
113
100
AcDbEntity
8
SK1
62
256
6
ByLayer
370
13
48
1
60
0
100
AcDbLine
10
-29.7
20
13.661483
30
0
11
-29.7
21
15.323532
31
0
39
0
210
0
220
0
230
1
0
LINE
5
114
100
AcDbEntity
8
SK1
62
256
6
ByLayer
370
18
48
1
60
0
100
AcDbLine
10
-29.7
20
8.02
30
0
11
-38.25
21
8.02
31
0
39
0
210
0
220
0
230
1
0
LINE
5
115
100
AcDbEntity
8
SK1
62
256
6
ByLayer
370
13
48
1
60
0
100
AcDbLine
10
-29.7
20
13.661483
30
0
11
-31.746168
21
13.661483
31
0
39
0
210
0
220
0
230
1
0
LINE
5
116
100
AcDbEntity
8
SK1
62
256
6
ByLayer
370
18
48
1
60
0
100
AcDbLine
10
-39.9
20
9.67
30
0
11
-39.9
21
11.82912
31
0
39
0
210
0
220
0
230
1
0
LINE
5
117
100
AcDbEntity
8
SK1
62
256
6
ByLayer
370
18
48
1
60
0
100
AcDbLine
10
-39.9
20
9.67
30
0
11
-38.25
21
8.02
31
0
39
0
210
0
220
0
230
1
0
LINE
5
118
100
AcDbEntity
8
SK1
62
256
6
ByLayer
370
18
48
1
60
0
100
AcDbLine
10
-38.25
20
12.108417
30
0
11
-38.25
21
8.02
31
0
39
0
210
0
220
0
230
1
0
LINE
5
119
100
AcDbEntity
8
SK1
62
256
6
ByLayer
370
13
48
1
60
0
100
AcDbLine
10
-39.869406
20
12.926288
30
0
11
-38.610957
21
13.497612
31
0
39
0
210
0
220
0
230
1
0
LINE
5
11A
100
AcDbEntity
8
SK1
62
256
6
ByLayer
370
13
48
1
60
0
100
AcDbLine
10
-29.7
20
-13.661483
30
0
11
-31.746168
21
-13.661483
31
0
39
0
210
0
220
0
230
1
0
LINE
5
11B
100
AcDbEntity
8
SK1
62
256
6
ByLayer
370
18
48
1
60
0
100
AcDbLine
10
-29.7
20
-8.02
30
0
11
-38.25
21
-8.02
31
0
39
0
210
0
220
0
230
1
0
LINE
5
11C
100
AcDbEntity
8
SK1
62
256
6
ByLayer
370
13
48
1
60
0
100
AcDbLine
10
-39.869406
20
-12.926288
30
0
11
-38.610957
21
-13.497612
31
0
39
0
210
0
220
0
230
1
0
LINE
5
11D
100
AcDbEntity
8
SK1
62
256
6
ByLayer
370
18
48
1
60
0
100
AcDbLine
10
-38.25
20
-12.108417
30
0
11
-38.25
21
-8.02
31
0
39
0
210
0
220
0
230
1
0
LINE
5
11E
100
AcDbEntity
8
SK1
62
256
6
ByLayer
370
18
48
1
60
0
100
AcDbLine
10
-39.9
20
-9.67
30
0
11
-38.25
21
-8.02
31
0
39
0
210
0
220
0
230
1
0
LINE
5
11F
100
AcDbEntity
8
SK1
62
256
6
ByLayer
370
18
48
1
60
0
100
AcDbLine
10
-39.9
20
-9.67
30
0
11
-39.9
21
-11.82912
31
0
39
0
210
0
220
0
230
1
0
LINE
5
120
100
AcDbEntity
8
SK1
62
256
6
ByLayer
370
13
48
1
60
0
100
AcDbLine
10
-29.7
20
8.02
30
0
11
-29.7
21
13.661483
31
0
39
0
210
0
220
0
230
1
0
LINE
5
121
100
AcDbEntity
8
SK1
62
256
6
ByLayer
370
13
48
1
60
0
100
AcDbLine
10
-29.7
20
-13.661483
30
0
11
-29.7
21
-8.02
31
0
39
0
210
0
220
0
230
1
0
LINE
5
122
100
AcDbEntity
8
SK1
62
256
6
ByLayer
370
18
48
1
60
0
100
AcDbLine
10
-2.066987
20
30.031551
30
0
11
-2.066987
21
0
31
0
39
0
210
0
220
0
230
1
0
LINE
5
123
100
AcDbEntity
8
SK1
62
256
6
ByLayer
370
18
48
1
60
0
100
AcDbLine
10
-2.066987
20
0
30
0
11
-2.066987
21
-30.031551
31
0
39
0
210
0
220
0
230
1
0
LINE
5
124
100
AcDbEntity
8
SK1
62
256
6
ByLayer
370
18
48
1
60
0
100
AcDbLine
10
-2.5
20
-30.281551
30
0
11
-2.5
21
0
31
0
39
0
210
0
220
0
230
1
0
LINE
5
125
100
AcDbEntity
8
SK1
62
256
6
ByLayer
370
18
48
1
60
0
100
AcDbLine
10
-2.5
20
0
30
0
11
-2.5
21
30.281551
31
0
39
0
210
0
220
0
230
1
0
LINE
5
126
100
AcDbEntity
8
SK1
62
256
6
ByLayer
370
13
48
1
60
0
100
AcDbLine
10
-38.38006
20
28.483953
30
0
11
-38.38006
21
12.434128
31
0
39
0
210
0
220
0
230
1
0
LINE
5
127
100
AcDbEntity
8
SK1
62
256
6
ByLayer
370
18
48
1
60
0
100
AcDbLine
10
-27.8
20
9.811809
30
0
11
-27.8
21
-9.811809
31
0
39
0
210
0
220
0
230
1
0
LINE
5
128
100
AcDbEntity
8
SK1
62
256
6
ByLayer
370
13
48
1
60
0
100
AcDbLine
10
-38.38006
20
-12.434128
30
0
11
-38.38006
21
-28.483953
31
0
39
0
210
0
220
0
230
1
0
LINE
5
129
100
AcDbEntity
8
SK1
62
256
6
ByLayer
370
13
48
1
60
0
100
AcDbLine
10
-0.8
20
30.031551
30
0
11
-0.8
21
0
31
0
39
0
210
0
220
0
230
1
0
LINE
5
12A
100
AcDbEntity
8
SK1
62
256
6
ByLayer
370
13
48
1
60
0
100
AcDbLine
10
-0.8
20
0
30
0
11
-0.8
21
-30.031551
31
0
39
0
210
0
220
0
230
1
0
LINE
5
12B
100
AcDbEntity
8
1
62
256
6
ByLayer
370
13
48
0.05
60
0
100
AcDbLine
10
-21.25
20
0
30
0
11
-2.75
21
0
31
0
39
0
210
0
220
0
230
1
0
LINE
5
12C
100
AcDbEntity
8
1
62
256
6
ByLayer
370
13
48
0.05
60
0
100
AcDbLine
10
-12
20
-9.25
30
0
11
-12
21
9.25
31
0
39
0
210
0
220
0
230
1
0
LINE
5
12D
100
AcDbEntity
8
SK2
62
256
6
ByLayer
370
18
48
1
60
0
100
AcDbLine
10
-56.875025
20
-39.97
30
0
11
-56.875025
21
39.97
31
0
39
0
210
0
220
0
230
1
0
LINE
5
12E
100
AcDbEntity
8
SK2
62
256
6
ByLayer
370
18
48
1
60
0
100
AcDbLine
10
-0.8875
20
39.97
30
0
11
-58.875025
21
39.97
31
0
39
0
210
0
220
0
230
1
0
LINE
5
12F
100
AcDbEntity
8
SK2
62
256
6
ByLayer
370
18
48
1
60
0
100
AcDbLine
10
-0.8875
20
-39.97
30
0
11
-58.875025
21
-39.97
31
0
39
0
210
0
220
0
230
1
0
LINE
5
130
100
AcDbEntity
8
1
62
256
6
ByLayer
370
18
48
1
60
1
100
AcDbLine
10
-56.875025
20
39.97
30
0
11
-56.414241
21
36.470002
31
0
39
0
210
0
220
0
230
1
0
LINE
5
131
100
AcDbEntity
8
1
62
256
6
ByLayer
370
18
48
1
60
1
100
AcDbLine
10
-56.414241
20
36.470002
30
0
11
-57.335809
21
36.469998
31
0
39
0
210
0
220
0
230
1
0
LINE
5
132
100
AcDbEntity
8
1
62
256
6
ByLayer
370
18
48
1
60
1
100
AcDbLine
10
-57.335809
20
36.469998
30
0
11
-56.875025
21
39.97
31
0
39
0
210
0
220
0
230
1
0
LINE
5
133
100
AcDbEntity
8
1
62
256
6
ByLayer
370
18
48
1
60
1
100
AcDbLine
10
-56.875025
20
-39.97
30
0
11
-57.335809
21
-36.470002
31
0
39
0
210
0
220
0
230
1
0
LINE
5
134
100
AcDbEntity
8
1
62
256
6
ByLayer
370
18
48
1
60
1
100
AcDbLine
10
-57.335809
20
-36.470002
30
0
11
-56.414241
21
-36.469998
31
0
39
0
210
0
220
0
230
1
0
LINE
5
135
100
AcDbEntity
8
1
62
256
6
ByLayer
370
18
48
1
60
1
100
AcDbLine
10
-56.414241
20
-36.469998
30
0
11
-56.875025
21
-39.97
31
0
39
0
210
0
220
0
230
1
0
LINE
5
136
100
AcDbEntity
8
SK2
62
256
6
ByLayer
370
18
48
1
60
0
100
AcDbLine
10
145.956359
20
-19.996
30
0
11
145.956359
21
19.996
31
0
39
0
210
0
220
0
230
1
0
LINE
5
137
100
AcDbEntity
8
SK2
62
256
6
ByLayer
370
18
48
1
60
0
100
AcDbLine
10
93.5875
20
19.996
30
0
11
147.956359
21
19.996
31
0
39
0
210
0
220
0
230
1
0
LINE
5
138
100
AcDbEntity
8
SK2
62
256
6
ByLayer
370
18
48
1
60
0
100
AcDbLine
10
93.5875
20
-19.996
30
0
11
147.956359
21
-19.996
31
0
39
0
210
0
220
0
230
1
0
LINE
5
139
100
AcDbEntity
8
1
62
256
6
ByLayer
370
18
48
1
60
1
100
AcDbLine
10
145.956359
20
19.996
30
0
11
146.417143
21
16.496002
31
0
39
0
210
0
220
0
230
1
0
LINE
5
13A
100
AcDbEntity
8
1
62
256
6
ByLayer
370
18
48
1
60
1
100
AcDbLine
10
146.417143
20
16.496002
30
0
11
145.495576
21
16.495998
31
0
39
0
210
0
220
0
230
1
0
LINE
5
13B
100
AcDbEntity
8
1
62
256
6
ByLayer
370
18
48
1
60
1
100
AcDbLine
10
145.495576
20
16.495998
30
0
11
145.956359
21
19.996
31
0
39
0
210
0
220
0
230
1
0
LINE
5
13C
100
AcDbEntity
8
1
62
256
6
ByLayer
370
18
48
1
60
1
100
AcDbLine
10
145.956359
20
-19.996
30
0
11
145.495576
21
-16.496002
31
0
39
0
210
0
220
0
230
1
0
LINE
5
13D
100
AcDbEntity
8
1
62
256
6
ByLayer
370
18
48
1
60
1
100
AcDbLine
10
145.495576
20
-16.496002
30
0
11
146.417143
21
-16.495998
31
0
39
0
210
0
220
0
230
1
0
LINE
5
13E
100
AcDbEntity
8
1
62
256
6
ByLayer
370
18
48
1
60
1
100
AcDbLine
10
146.417143
20
-16.495998
30
0
11
145.956359
21
-19.996
31
0
39
0
210
0
220
0
230
1
0
LINE
5
13F
100
AcDbEntity
8
SK2
62
256
6
ByLayer
370
18
48
1
60
0
100
AcDbLine
10
160.956359
20
33.75
30
0
11
160.956359
21
-33.75
31
0
39
0
210
0
220
0
230
1
0
LINE
5
140
100
AcDbEntity
8
SK2
62
256
6
ByLayer
370
18
48
1
60
0
100
AcDbLine
10
43.231252
20
-33.75
30
0
11
162.956359
21
-33.75
31
0
39
0
210
0
220
0
230
1
0
LINE
5
141
100
AcDbEntity
8
SK2
62
256
6
ByLayer
370
18
48
1
60
0
100
AcDbLine
10
43.231252
20
33.75
30
0
11
162.956359
21
33.75
31
0
39
0
210
0
220
0
230
1
0
LINE
5
142
100
AcDbEntity
8
1
62
256
6
ByLayer
370
18
48
1
60
1
100
AcDbLine
10
160.956359
20
-33.75
30
0
11
160.495576
21
-30.250002
31
0
39
0
210
0
220
0
230
1
0
LINE
5
143
100
AcDbEntity
8
1
62
256
6
ByLayer
370
18
48
1
60
1
100
AcDbLine
10
160.495576
20
-30.250002
30
0
11
161.417143
21
-30.249998
31
0
39
0
210
0
220
0
230
1
0
LINE
5
144
100
AcDbEntity
8
1
62
256
6
ByLayer
370
18
48
1
60
1
100
AcDbLine
10
161.417143
20
-30.249998
30
0
11
160.956359
21
-33.75
31
0
39
0
210
0
220
0
230
1
0
LINE
5
145
100
AcDbEntity
8
1
62
256
6
ByLayer
370
18
48
1
60
1
100
AcDbLine
10
160.956359
20
33.75
30
0
11
161.417143
21
30.250002
31
0
39
0
210
0
220
0
230
1
0
LINE
5
146
100
AcDbEntity
8
1
62
256
6
ByLayer
370
18
48
1
60
1
100
AcDbLine
10
161.417143
20
30.250002
30
0
11
160.495576
21
30.249998
31
0
39
0
210
0
220
0
230
1
0
LINE
5
147
100
AcDbEntity
8
1
62
256
6
ByLayer
370
18
48
1
60
1
100
AcDbLine
10
160.495576
20
30.249998
30
0
11
160.956359
21
33.75
31
0
39
0
210
0
220
0
230
1
0
LINE
5
148
100
AcDbEntity
8
SK2
62
256
6
ByLayer
370
18
48
1
60
0
100
AcDbLine
10
170.956359
20
46
30
0
11
170.956359
21
-46
31
0
39
0
210
0
220
0
230
1
0
LINE
5
149
100
AcDbEntity
8
SK2
62
256
6
ByLayer
370
18
48
1
60
0
100
AcDbLine
10
71.0875
20
-46
30
0
11
172.956359
21
-46
31
0
39
0
210
0
220
0
230
1
0
LINE
5
14A
100
AcDbEntity
8
SK2
62
256
6
ByLayer
370
18
48
1
60
0
100
AcDbLine
10
71.0875
20
46
30
0
11
172.956359
21
46
31
0
39
0
210
0
220
0
230
1
0
LINE
5
14B
100
AcDbEntity
8
1
62
256
6
ByLayer
370
18
48
1
60
1
100
AcDbLine
10
170.956359
20
-46
30
0
11
170.495576
21
-42.500002
31
0
39
0
210
0
220
0
230
1
0
LINE
5
14C
100
AcDbEntity
8
1
62
256
6
ByLayer
370
18
48
1
60
1
100
AcDbLine
10
170.495576
20
-42.500002
30
0
11
171.417143
21
-42.499998
31
0
39
0
210
0
220
0
230
1
0
LINE
5
14D
100
AcDbEntity
8
1
62
256
6
ByLayer
370
18
48
1
60
1
100
AcDbLine
10
171.417143
20
-42.499998
30
0
11
170.956359
21
-46
31
0
39
0
210
0
220
0
230
1
0
LINE
5
14E
100
AcDbEntity
8
1
62
256
6
ByLayer
370
18
48
1
60
1
100
AcDbLine
10
170.956359
20
46
30
0
11
171.417143
21
42.500002
31
0
39
0
210
0
220
0
230
1
0
LINE
5
14F
100
AcDbEntity
8
1
62
256
6
ByLayer
370
18
48
1
60
1
100
AcDbLine
10
171.417143
20
42.500002
30
0
11
170.495576
21
42.499998
31
0
39
0
210
0
220
0
230
1
0
LINE
5
150
100
AcDbEntity
8
1
62
256
6
ByLayer
370
18
48
1
60
1
100
AcDbLine
10
170.495576
20
42.499998
30
0
11
170.956359
21
46
31
0
39
0
210
0
220
0
230
1
0
LINE
5
151
100
AcDbEntity
8
SK2
62
256
6
ByLayer
370
18
48
1
60
0
100
AcDbLine
10
-39.9
20
73.85
30
0
11
0
21
73.85
31
0
39
0
210
0
220
0
230
1
0
LINE
5
152
100
AcDbEntity
8
SK2
62
256
6
ByLayer
370
18
48
1
60
0
100
AcDbLine
10
0
20
40.8575
30
0
11
0
21
75.85
31
0
39
0
210
0
220
0
230
1
0
LINE
5
153
100
AcDbEntity
8
SK2
62
256
6
ByLayer
370
18
48
1
60
0
100
AcDbLine
10
-39.9
20
28.473457
30
0
11
-39.9
21
75.85
31
0
39
0
210
0
220
0
230
1
0
LINE
5
154
100
AcDbEntity
8
1
62
256
6
ByLayer
370
18
48
1
60
1
100
AcDbLine
10
0
20
73.85
30
0
11
-3.499998
21
73.389216
31
0
39
0
210
0
220
0
230
1
0
LINE
5
155
100
AcDbEntity
8
1
62
256
6
ByLayer
370
18
48
1
60
1
100
AcDbLine
10
-3.499998
20
73.389216
30
0
11
-3.500002
21
74.310784
31
0
39
0
210
0
220
0
230
1
0
LINE
5
156
100
AcDbEntity
8
1
62
256
6
ByLayer
370
18
48
1
60
1
100
AcDbLine
10
-3.500002
20
74.310784
30
0
11
0
21
73.85
31
0
39
0
210
0
220
0
230
1
0
LINE
5
157
100
AcDbEntity
8
1
62
256
6
ByLayer
370
18
48
1
60
1
100
AcDbLine
10
-39.9
20
73.85
30
0
11
-36.400002
21
74.310784
31
0
39
0
210
0
220
0
230
1
0
LINE
5
158
100
AcDbEntity
8
1
62
256
6
ByLayer
370
18
48
1
60
1
100
AcDbLine
10
-36.400002
20
74.310784
30
0
11
-36.399998
21
73.389216
31
0
39
0
210
0
220
0
230
1
0
LINE
5
159
100
AcDbEntity
8
1
62
256
6
ByLayer
370
18
48
1
60
1
100
AcDbLine
10
-36.399998
20
73.389216
30
0
11
-39.9
21
73.85
31
0
39
0
210
0
220
0
230
1
0
LINE
5
15A
100
AcDbEntity
8
SK2
62
256
6
ByLayer
370
18
48
1
60
0
100
AcDbLine
10
0
20
63.85
30
0
11
42.643752
21
63.85
31
0
39
0
210
0
220
0
230
1
0
LINE
5
15B
100
AcDbEntity
8
SK2
62
256
6
ByLayer
370
18
48
1
60
0
100
AcDbLine
10
42.643752
20
46.5875
30
0
11
42.643752
21
65.85
31
0
39
0
210
0
220
0
230
1
0
LINE
5
15C
100
AcDbEntity
8
SK2
62
256
6
ByLayer
370
18
48
1
60
0
100
AcDbLine
10
0
20
40.8575
30
0
11
0
21
65.85
31
0
39
0
210
0
220
0
230
1
0
LINE
5
15D
100
AcDbEntity
8
1
62
256
6
ByLayer
370
18
48
1
60
1
100
AcDbLine
10
42.643752
20
63.85
30
0
11
39.143753
21
63.389216
31
0
39
0
210
0
220
0
230
1
0
LINE
5
15E
100
AcDbEntity
8
1
62
256
6
ByLayer
370
18
48
1
60
1
100
AcDbLine
10
39.143753
20
63.389216
30
0
11
39.14375
21
64.310784
31
0
39
0
210
0
220
0
230
1
0
LINE
5
15F
100
AcDbEntity
8
1
62
256
6
ByLayer
370
18
48
1
60
1
100
AcDbLine
10
39.14375
20
64.310784
30
0
11
42.643752
21
63.85
31
0
39
0
210
0
220
0
230
1
0
LINE
5
160
100
AcDbEntity
8
1
62
256
6
ByLayer
370
18
48
1
60
1
100
AcDbLine
10
0
20
63.85
30
0
11
3.499998
21
64.310784
31
0
39
0
210
0
220
0
230
1
0
LINE
5
161
100
AcDbEntity
8
1
62
256
6
ByLayer
370
18
48
1
60
1
100
AcDbLine
10
3.499998
20
64.310784
30
0
11
3.500002
21
63.389216
31
0
39
0
210
0
220
0
230
1
0
LINE
5
162
100
AcDbEntity
8
1
62
256
6
ByLayer
370
18
48
1
60
1
100
AcDbLine
10
3.500002
20
63.389216
30
0
11
0
21
63.85
31
0
39
0
210
0
220
0
230
1
0
LINE
5
163
100
AcDbEntity
8
2
62
256
6
ByLayer
370
18
48
1
60
0
100
AcDbLine
10
0
20
73.85
30
0
11
70
21
73.85
31
0
39
0
210
0
220
0
230
1
0
LINE
5
164
100
AcDbEntity
8
2
62
256
6
ByLayer
370
18
48
1
60
0
100
AcDbLine
10
70
20
47.0875
30
0
11
70
21
75.85
31
0
39
0
210
0
220
0
230
1
0
LINE
5
165
100
AcDbEntity
8
2
62
256
6
ByLayer
370
18
48
1
60
0
100
AcDbLine
10
0
20
40.8575
30
0
11
0
21
75.85
31
0
39
0
210
0
220
0
230
1
0
LINE
5
166
100
AcDbEntity
8
1
62
256
6
ByLayer
370
18
48
1
60
1
100
AcDbLine
10
70
20
73.85
30
0
11
66.500002
21
73.389216
31
0
39
0
210
0
220
0
230
1
0
LINE
5
167
100
AcDbEntity
8
1
62
256
6
ByLayer
370
18
48
1
60
1
100
AcDbLine
10
66.500002
20
73.389216
30
0
11
66.499998
21
74.310784
31
0
39
0
210
0
220
0
230
1
0
LINE
5
168
100
AcDbEntity
8
1
62
256
6
ByLayer
370
18
48
1
60
1
100
AcDbLine
10
66.499998
20
74.310784
30
0
11
70
21
73.85
31
0
39
0
210
0
220
0
230
1
0
LINE
5
169
100
AcDbEntity
8
1
62
256
6
ByLayer
370
18
48
1
60
1
100
AcDbLine
10
0
20
73.85
30
0
11
3.499998
21
74.310784
31
0
39
0
210
0
220
0
230
1
0
LINE
5
16A
100
AcDbEntity
8
1
62
256
6
ByLayer
370
18
48
1
60
1
100
AcDbLine
10
3.499998
20
74.310784
30
0
11
3.500002
21
73.389216
31
0
39
0
210
0
220
0
230
1
0
LINE
5
16B
100
AcDbEntity
8
1
62
256
6
ByLayer
370
18
48
1
60
1
100
AcDbLine
10
3.500002
20
73.389216
30
0
11
0
21
73.85
31
0
39
0
210
0
220
0
230
1
0
LINE
5
16C
100
AcDbEntity
8
SK2
62
256
6
ByLayer
370
18
48
1
60
0
100
AcDbLine
10
70
20
56.85
30
0
11
93
21
56.85
31
0
39
0
210
0
220
0
230
1
0
LINE
5
16D
100
AcDbEntity
8
SK2
62
256
6
ByLayer
370
18
48
1
60
0
100
AcDbLine
10
93
20
21.00615
30
0
11
93
21
58.85
31
0
39
0
210
0
220
0
230
1
0
LINE
5
16E
100
AcDbEntity
8
SK2
62
256
6
ByLayer
370
18
48
1
60
0
100
AcDbLine
10
70
20
47.0875
30
0
11
70
21
58.85
31
0
39
0
210
0
220
0
230
1
0
LINE
5
16F
100
AcDbEntity
8
1
62
256
6
ByLayer
370
18
48
1
60
1
100
AcDbLine
10
93
20
56.85
30
0
11
89.500002
21
56.389216
31
0
39
0
210
0
220
0
230
1
0
LINE
5
170
100
AcDbEntity
8
1
62
256
6
ByLayer
370
18
48
1
60
1
100
AcDbLine
10
89.500002
20
56.389216
30
0
11
89.499998
21
57.310784
31
0
39
0
210
0
220
0
230
1
0
LINE
5
171
100
AcDbEntity
8
1
62
256
6
ByLayer
370
18
48
1
60
1
100
AcDbLine
10
89.499998
20
57.310784
30
0
11
93
21
56.85
31
0
39
0
210
0
220
0
230
1
0
LINE
5
172
100
AcDbEntity
8
1
62
256
6
ByLayer
370
18
48
1
60
1
100
AcDbLine
10
70
20
56.85
30
0
11
73.499998
21
57.310784
31
0
39
0
210
0
220
0
230
1
0
LINE
5
173
100
AcDbEntity
8
1
62
256
6
ByLayer
370
18
48
1
60
1
100
AcDbLine
10
73.499998
20
57.310784
30
0
11
73.500002
21
56.389216
31
0
39
0
210
0
220
0
230
1
0
LINE
5
174
100
AcDbEntity
8
1
62
256
6
ByLayer
370
18
48
1
60
1
100
AcDbLine
10
73.500002
20
56.389216
30
0
11
70
21
56.85
31
0
39
0
210
0
220
0
230
1
0
LINE
5
1B7
100
AcDbEntity
8
1
62
256
6
ByLayer
370
13
48
0.05
60
0
100
AcDbLine
10
18
20
40.409139
30
0
11
18
21
20.569151
31
0
39
0
210
0
220
0
230
1
0
LINE
5
1B8
100
AcDbEntity
8
1
62
256
6
ByLayer
370
13
48
0.05
60
0
100
AcDbLine
10
18
20
41.579353
30
0
11
18
21
22.315086
31
0
39
0
210
0
220
0
230
1
0
LINE
5
1B9
100
AcDbEntity
8
1
62
256
6
ByLayer
370
13
48
0.05
60
0
100
AcDbLine
10
-44.88006
20
0
30
0
11
99.5
21
0
31
0
39
0
210
0
220
0
230
1
0
LINE
5
1BA
100
AcDbEntity
8
1
62
256
6
ByLayer
370
13
48
0.05
60
0
100
AcDbLine
10
119
20
0
30
0
11
57.0335
21
0
31
0
39
0
210
0
220
0
230
1
0
LINE
5
1BB
100
AcDbEntity
8
1
62
256
6
ByLayer
370
13
48
0.05
60
0
100
AcDbLine
10
108.5
20
0
30
0
11
89.5
21
0
31
0
39
0
210
0
220
0
230
1
0
LINE
5
1C0
100
AcDbEntity
8
1
62
256
6
ByLayer
370
18
48
1
60
1
100
AcDbLine
10
-56.875025
20
39.97
30
0
11
-56.414241
21
36.470002
31
0
39
0
210
0
220
0
230
1
0
LINE
5
1C1
100
AcDbEntity
8
1
62
256
6
ByLayer
370
18
48
1
60
1
100
AcDbLine
10
-56.414241
20
36.470002
30
0
11
-57.335809
21
36.469998
31
0
39
0
210
0
220
0
230
1
0
LINE
5
1C2
100
AcDbEntity
8
1
62
256
6
ByLayer
370
18
48
1
60
1
100
AcDbLine
10
-57.335809
20
36.469998
30
0
11
-56.875025
21
39.97
31
0
39
0
210
0
220
0
230
1
0
LINE
5
1C4
100
AcDbEntity
8
1
62
256
6
ByLayer
370
18
48
1
60
1
100
AcDbLine
10
-56.875025
20
-39.97
30
0
11
-57.335809
21
-36.470002
31
0
39
0
210
0
220
0
230
1
0
LINE
5
1C5
100
AcDbEntity
8
1
62
256
6
ByLayer
370
18
48
1
60
1
100
AcDbLine
10
-57.335809
20
-36.470002
30
0
11
-56.414241
21
-36.469998
31
0
39
0
210
0
220
0
230
1
0
LINE
5
1C6
100
AcDbEntity
8
1
62
256
6
ByLayer
370
18
48
1
60
1
100
AcDbLine
10
-56.414241
20
-36.469998
30
0
11
-56.875025
21
-39.97
31
0
39
0
210
0
220
0
230
1
0
LINE
5
1CA
100
AcDbEntity
8
1
62
256
6
ByLayer
370
18
48
1
60
1
100
AcDbLine
10
145.956359
20
19.996
30
0
11
146.417143
21
16.496002
31
0
39
0
210
0
220
0
230
1
0
LINE
5
1CB
100
AcDbEntity
8
1
62
256
6
ByLayer
370
18
48
1
60
1
100
AcDbLine
10
146.417143
20
16.496002
30
0
11
145.495576
21
16.495998
31
0
39
0
210
0
220
0
230
1
0
LINE
5
1CC
100
AcDbEntity
8
1
62
256
6
ByLayer
370
18
48
1
60
1
100
AcDbLine
10
145.495576
20
16.495998
30
0
11
145.956359
21
19.996
31
0
39
0
210
0
220
0
230
1
0
LINE
5
1CE
100
AcDbEntity
8
1
62
256
6
ByLayer
370
18
48
1
60
1
100
AcDbLine
10
145.956359
20
-19.996
30
0
11
145.495576
21
-16.496002
31
0
39
0
210
0
220
0
230
1
0
LINE
5
1CF
100
AcDbEntity
8
1
62
256
6
ByLayer
370
18
48
1
60
1
100
AcDbLine
10
145.495576
20
-16.496002
30
0
11
146.417143
21
-16.495998
31
0
39
0
210
0
220
0
230
1
0
LINE
5
1D0
100
AcDbEntity
8
1
62
256
6
ByLayer
370
18
48
1
60
1
100
AcDbLine
10
146.417143
20
-16.495998
30
0
11
145.956359
21
-19.996
31
0
39
0
210
0
220
0
230
1
0
LINE
5
1D4
100
AcDbEntity
8
1
62
256
6
ByLayer
370
18
48
1
60
1
100
AcDbLine
10
160.956359
20
-33.75
30
0
11
160.495576
21
-30.250002
31
0
39
0
210
0
220
0
230
1
0
LINE
5
1D5
100
AcDbEntity
8
1
62
256
6
ByLayer
370
18
48
1
60
1
100
AcDbLine
10
160.495576
20
-30.250002
30
0
11
161.417143
21
-30.249998
31
0
39
0
210
0
220
0
230
1
0
LINE
5
1D6
100
AcDbEntity
8
1
62
256
6
ByLayer
370
18
48
1
60
1
100
AcDbLine
10
161.417143
20
-30.249998
30
0
11
160.956359
21
-33.75
31
0
39
0
210
0
220
0
230
1
0
LINE
5
1D8
100
AcDbEntity
8
1
62
256
6
ByLayer
370
18
48
1
60
1
100
AcDbLine
10
160.956359
20
33.75
30
0
11
161.417143
21
30.250002
31
0
39
0
210
0
220
0
230
1
0
LINE
5
1D9
100
AcDbEntity
8
1
62
256
6
ByLayer
370
18
48
1
60
1
100
AcDbLine
10
161.417143
20
30.250002
30
0
11
160.495576
21
30.249998
31
0
39
0
210
0
220
0
230
1
0
LINE
5
1DA
100
AcDbEntity
8
1
62
256
6
ByLayer
370
18
48
1
60
1
100
AcDbLine
10
160.495576
20
30.249998
30
0
11
160.956359
21
33.75
31
0
39
0
210
0
220
0
230
1
0
LINE
5
1DE
100
AcDbEntity
8
1
62
256
6
ByLayer
370
18
48
1
60
1
100
AcDbLine
10
170.956359
20
-46
30
0
11
170.495576
21
-42.500002
31
0
39
0
210
0
220
0
230
1
0
LINE
5
1DF
100
AcDbEntity
8
1
62
256
6
ByLayer
370
18
48
1
60
1
100
AcDbLine
10
170.495576
20
-42.500002
30
0
11
171.417143
21
-42.499998
31
0
39
0
210
0
220
0
230
1
0
LINE
5
1E0
100
AcDbEntity
8
1
62
256
6
ByLayer
370
18
48
1
60
1
100
AcDbLine
10
171.417143
20
-42.499998
30
0
11
170.956359
21
-46
31
0
39
0
210
0
220
0
230
1
0
LINE
5
1E2
100
AcDbEntity
8
1
62
256
6
ByLayer
370
18
48
1
60
1
100
AcDbLine
10
170.956359
20
46
30
0
11
171.417143
21
42.500002
31
0
39
0
210
0
220
0
230
1
0
LINE
5
1E3
100
AcDbEntity
8
1
62
256
6
ByLayer
370
18
48
1
60
1
100
AcDbLine
10
171.417143
20
42.500002
30
0
11
170.495576
21
42.499998
31
0
39
0
210
0
220
0
230
1
0
LINE
5
1E4
100
AcDbEntity
8
1
62
256
6
ByLayer
370
18
48
1
60
1
100
AcDbLine
10
170.495576
20
42.499998
30
0
11
170.956359
21
46
31
0
39
0
210
0
220
0
230
1
0
LINE
5
1E7
100
AcDbEntity
8
1
62
256
6
ByLayer
370
18
48
1
60
1
100
AcDbLine
10
0
20
73.85
30
0
11
-3.499998
21
73.389216
31
0
39
0
210
0
220
0
230
1
0
LINE
5
1E8
100
AcDbEntity
8
1
62
256
6
ByLayer
370
18
48
1
60
1
100
AcDbLine
10
-3.499998
20
73.389216
30
0
11
-3.500002
21
74.310784
31
0
39
0
210
0
220
0
230
1
0
LINE
5
1E9
100
AcDbEntity
8
1
62
256
6
ByLayer
370
18
48
1
60
1
100
AcDbLine
10
-3.500002
20
74.310784
30
0
11
0
21
73.85
31
0
39
0
210
0
220
0
230
1
0
LINE
5
1EB
100
AcDbEntity
8
1
62
256
6
ByLayer
370
18
48
1
60
1
100
AcDbLine
10
-39.9
20
73.85
30
0
11
-36.400002
21
74.310784
31
0
39
0
210
0
220
0
230
1
0
LINE
5
1EC
100
AcDbEntity
8
1
62
256
6
ByLayer
370
18
48
1
60
1
100
AcDbLine
10
-36.400002
20
74.310784
30
0
11
-36.399998
21
73.389216
31
0
39
0
210
0
220
0
230
1
0
LINE
5
1ED
100
AcDbEntity
8
1
62
256
6
ByLayer
370
18
48
1
60
1
100
AcDbLine
10
-36.399998
20
73.389216
30
0
11
-39.9
21
73.85
31
0
39
0
210
0
220
0
230
1
0
LINE
5
1F0
100
AcDbEntity
8
1
62
256
6
ByLayer
370
18
48
1
60
1
100
AcDbLine
10
42.643752
20
63.85
30
0
11
39.143753
21
63.389216
31
0
39
0
210
0
220
0
230
1
0
LINE
5
1F1
100
AcDbEntity
8
1
62
256
6
ByLayer
370
18
48
1
60
1
100
AcDbLine
10
39.143753
20
63.389216
30
0
11
39.14375
21
64.310784
31
0
39
0
210
0
220
0
230
1
0
LINE
5
1F2
100
AcDbEntity
8
1
62
256
6
ByLayer
370
18
48
1
60
1
100
AcDbLine
10
39.14375
20
64.310784
30
0
11
42.643752
21
63.85
31
0
39
0
210
0
220
0
230
1
0
LINE
5
1F4
100
AcDbEntity
8
1
62
256
6
ByLayer
370
18
48
1
60
1
100
AcDbLine
10
0
20
63.85
30
0
11
3.499998
21
64.310784
31
0
39
0
210
0
220
0
230
1
0
LINE
5
1F5
100
AcDbEntity
8
1
62
256
6
ByLayer
370
18
48
1
60
1
100
AcDbLine
10
3.499998
20
64.310784
30
0
11
3.500002
21
63.389216
31
0
39
0
210
0
220
0
230
1
0
LINE
5
1F6
100
AcDbEntity
8
1
62
256
6
ByLayer
370
18
48
1
60
1
100
AcDbLine
10
3.500002
20
63.389216
30
0
11
0
21
63.85
31
0
39
0
210
0
220
0
230
1
0
LINE
5
1FA
100
AcDbEntity
8
1
62
256
6
ByLayer
370
18
48
1
60
1
100
AcDbLine
10
70
20
73.85
30
0
11
66.500002
21
73.389216
31
0
39
0
210
0
220
0
230
1
0
LINE
5
1FB
100
AcDbEntity
8
1
62
256
6
ByLayer
370
18
48
1
60
1
100
AcDbLine
10
66.500002
20
73.389216
30
0
11
66.499998
21
74.310784
31
0
39
0
210
0
220
0
230
1
0
LINE
5
1FC
100
AcDbEntity
8
1
62
256
6
ByLayer
370
18
48
1
60
1
100
AcDbLine
10
66.499998
20
74.310784
30
0
11
70
21
73.85
31
0
39
0
210
0
220
0
230
1
0
LINE
5
1FE
100
AcDbEntity
8
1
62
256
6
ByLayer
370
18
48
1
60
1
100
AcDbLine
10
0
20
73.85
30
0
11
3.499998
21
74.310784
31
0
39
0
210
0
220
0
230
1
0
LINE
5
1FF
100
AcDbEntity
8
1
62
256
6
ByLayer
370
18
48
1
60
1
100
AcDbLine
10
3.499998
20
74.310784
30
0
11
3.500002
21
73.389216
31
0
39
0
210
0
220
0
230
1
0
LINE
5
200
100
AcDbEntity
8
1
62
256
6
ByLayer
370
18
48
1
60
1
100
AcDbLine
10
3.500002
20
73.389216
30
0
11
0
21
73.85
31
0
39
0
210
0
220
0
230
1
0
LINE
5
203
100
AcDbEntity
8
1
62
256
6
ByLayer
370
18
48
1
60
1
100
AcDbLine
10
93
20
56.85
30
0
11
89.500002
21
56.389216
31
0
39
0
210
0
220
0
230
1
0
LINE
5
204
100
AcDbEntity
8
1
62
256
6
ByLayer
370
18
48
1
60
1
100
AcDbLine
10
89.500002
20
56.389216
30
0
11
89.499998
21
57.310784
31
0
39
0
210
0
220
0
230
1
0
LINE
5
205
100
AcDbEntity
8
1
62
256
6
ByLayer
370
18
48
1
60
1
100
AcDbLine
10
89.499998
20
57.310784
30
0
11
93
21
56.85
31
0
39
0
210
0
220
0
230
1
0
LINE
5
207
100
AcDbEntity
8
1
62
256
6
ByLayer
370
18
48
1
60
1
100
AcDbLine
10
70
20
56.85
30
0
11
73.499998
21
57.310784
31
0
39
0
210
0
220
0
230
1
0
LINE
5
208
100
AcDbEntity
8
1
62
256
6
ByLayer
370
18
48
1
60
1
100
AcDbLine
10
73.499998
20
57.310784
30
0
11
73.500002
21
56.389216
31
0
39
0
210
0
220
0
230
1
0
LINE
5
209
100
AcDbEntity
8
1
62
256
6
ByLayer
370
18
48
1
60
1
100
AcDbLine
10
73.500002
20
56.389216
30
0
11
70
21
56.85
31
0
39
0
210
0
220
0
230
1
0
MTEXT
5
1BC
100
AcDbEntity
8
SK2
62
256
6
ByLayer
370
18
48
1
60
0
100
AcDbMText
10
-58.439659
20
-4.530622
30
0
210
0
220
0
230
1
1
%%c
40
3.5
41
0
44
1.084337
50
90
71
7
72
5
7
iso_b_vert
0
MTEXT
5
1BF
100
AcDbEntity
8
SK2
62
256
6
ByLayer
370
18
48
1
60
0
100
AcDbMText
10
-58.439659
20
2.442034
30
0
210
0
220
0
230
1
1
\W0.6740;80
40
3.5
41
0
44
1.084337
50
90
71
7
72
5
7
iso_b_vert
0
MTEXT
5
1C8
100
AcDbEntity
8
SK2
62
256
6
ByLayer
370
18
48
1
60
0
100
AcDbMText
10
144.391726
20
-4.714889
30
0
210
0
220
0
230
1
1
%%c
40
3.5
41
0
44
1.084337
50
90
71
7
72
5
7
iso_b_vert
0
MTEXT
5
1C9
100
AcDbEntity
8
SK2
62
256
6
ByLayer
370
18
48
1
60
0
100
AcDbMText
10
144.391726
20
2.257767
30
0
210
0
220
0
230
1
1
\W0.7361;40
40
3.5
41
0
44
1.084337
50
90
71
7
72
5
7
iso_b_vert
0
MTEXT
5
1D2
100
AcDbEntity
8
SK2
62
256
6
ByLayer
370
18
48
1
60
0
100
AcDbMText
10
159.391726
20
-6.547355
30
0
210
0
220
0
230
1
1
%%c
40
3.5
41
0
44
1.084337
50
90
71
7
72
5
7
iso_b_vert
0
MTEXT
5
1D3
100
AcDbEntity
8
SK2
62
256
6
ByLayer
370
18
48
1
60
0
100
AcDbMText
10
159.391726
20
0.425301
30
0
210
0
220
0
230
1
1
\W0.7346;67.5
40
3.5
41
0
44
1.084337
50
90
71
7
72
5
7
iso_b_vert
0
MTEXT
5
1DC
100
AcDbEntity
8
SK2
62
256
6
ByLayer
370
18
48
1
60
0
100
AcDbMText
10
169.391726
20
-4.530622
30
0
210
0
220
0
230
1
1
%%c
40
3.5
41
0
44
1.084337
50
90
71
7
72
5
7
iso_b_vert
0
MTEXT
5
1DD
100
AcDbEntity
8
SK2
62
256
6
ByLayer
370
18
48
1
60
0
100
AcDbMText
10
169.391726
20
2.442034
30
0
210
0
220
0
230
1
1
\W0.6740;92
40
3.5
41
0
44
1.084337
50
90
71
7
72
5
7
iso_b_vert
0
MTEXT
5
1E6
100
AcDbEntity
8
SK2
62
256
6
ByLayer
370
18
48
1
60
0
100
AcDbMText
10
-23.871699
20
74.882634
30
0
210
0
220
0
230
1
1
\W0.7457;39.9
40
3.5
41
0
44
1.084337
50
0
71
7
72
5
7
iso_b_vert
0
MTEXT
5
1EF
100
AcDbEntity
8
SK2
62
256
6
ByLayer
370
18
48
1
60
0
100
AcDbMText
10
17.21591
20
64.882634
30
0
210
0
220
0
230
1
1
\W0.7640;42.6
40
3.5
41
0
44
1.084337
50
0
71
7
72
5
7
iso_b_vert
0
MTEXT
5
1F8
100
AcDbEntity
8
2
62
256
6
ByLayer
370
18
48
1
60
0
100
AcDbMText
10
34.388934
20
74.882634
30
0
210
0
220
0
230
1
1
\W0.8277;\W0.4138;%%p\W0.8277;0.1
40
3.5
41
0
44
1.084337
50
0
71
7
72
5
7
iso_b_vert
0
MTEXT
5
1F9
100
AcDbEntity
8
2
62
256
6
ByLayer
370
18
48
1
60
0
100
AcDbMText
10
26.708001
20
74.882634
30
0
210
0
220
0
230
1
1
\W0.6740;70
40
3.5
41
0
44
1.084337
50
0
71
7
72
5
7
iso_b_vert
0
MTEXT
5
202
100
AcDbEntity
8
SK2
62
256
6
ByLayer
370
18
48
1
60
0
100
AcDbMText
10
79.595034
20
57.882634
30
0
210
0
220
0
230
1
1
\W0.6740;23
40
3.5
41
0
44
1.084337
50
0
71
7
72
5
7
iso_b_vert
0
MTEXT
5
20B
100
AcDbEntity
8
SK6
62
256
6
ByLayer
370
18
48
1
60
0
100
AcDbMText
10
66.795299
20
-92.114886
30
0
210
0
220
0
230
1
1
\W0.7849;HA08-AR40-B092-070
40
3
41
0
44
1.084337
50
0
71
7
72
5
7
iso_b_vert
0
HATCH
5
1C3
100
AcDbEntity
8
SK2
62
256
6
ByLayer
370
13
48
1
60
0
100
AcDbHatch
10
0
20
0
30
0
210
0
220
0
230
1
2
ANSI31
70
0
71
0
91
1
92
5
93
3
72
1
10
-56.8750250000001
20
39.97
11
-56.4142412584473
21
36.4700016925532
72
1
10
-56.4142412584473
20
36.4700016925532
11
-57.3358087415528
21
36.4699983074468
72
1
10
-57.3358087415528
20
36.4699983074468
11
-56.8750250000001
21
39.97
97
0
75
0
76
1
52
0
41
0.0062
77
0
78
1
53
45
43
0
44
0
45
-0.0139193969876572
46
0.0139193969876572
79
0
47
0
98
1
10
0
20
0
0
HATCH
5
1C7
100
AcDbEntity
8
SK2
62
256
6
ByLayer
370
13
48
1
60
0
100
AcDbHatch
10
0
20
0
30
0
210
0
220
0
230
1
2
ANSI31
70
0
71
0
91
1
92
5
93
3
72
1
10
-56.8750250000001
20
-39.97
11
-57.3358087415528
21
-36.4700016925532
72
1
10
-57.3358087415528
20
-36.4700016925532
11
-56.4142412584473
21
-36.4699983074468
72
1
10
-56.4142412584473
20
-36.4699983074468
11
-56.8750250000001
21
-39.97
97
0
75
0
76
1
52
0
41
0.0062
77
0
78
1
53
45
43
0
44
0
45
-0.0139193969876572
46
0.0139193969876572
79
0
47
0
98
1
10
0
20
0
0
HATCH
5
1CD
100
AcDbEntity
8
SK2
62
256
6
ByLayer
370
13
48
1
60
0
100
AcDbHatch
10
0
20
0
30
0
210
0
220
0
230
1
2
ANSI31
70
0
71
0
91
1
92
5
93
3
72
1
10
145.956359313254
20
19.996
11
146.417143054807
21
16.4960016925532
72
1
10
146.417143054807
20
16.4960016925532
11
145.495575571701
21
16.4959983074468
72
1
10
145.495575571701
20
16.4959983074468
11
145.956359313254
21
19.996
97
0
75
0
76
1
52
0
41
0.0062
77
0
78
1
53
45
43
0
44
0
45
-0.0139193969876572
46
0.0139193969876572
79
0
47
0
98
1
10
0
20
0
0
HATCH
5
1D1
100
AcDbEntity
8
SK2
62
256
6
ByLayer
370
13
48
1
60
0
100
AcDbHatch
10
0
20
0
30
0
210
0
220
0
230
1
2
ANSI31
70
0
71
0
91
1
92
5
93
3
72
1
10
145.956359313254
20
-19.996
11
145.495575571701
21
-16.4960016925532
72
1
10
145.495575571701
20
-16.4960016925532
11
146.417143054807
21
-16.4959983074468
72
1
10
146.417143054807
20
-16.4959983074468
11
145.956359313254
21
-19.996
97
0
75
0
76
1
52
0
41
0.0062
77
0
78
1
53
45
43
0
44
0
45
-0.0139193969876572
46
0.0139193969876572
79
0
47
0
98
1
10
0
20
0
0
HATCH
5
1D7
100
AcDbEntity
8
SK2
62
256
6
ByLayer
370
13
48
1
60
0
100
AcDbHatch
10
0
20
0
30
0
210
0
220
0
230
1
2
ANSI31
70
0
71
0
91
1
92
5
93
3
72
1
10
160.956359313254
20
-33.75
11
160.495575571701
21
-30.2500016925532
72
1
10
160.495575571701
20
-30.2500016925532
11
161.417143054807
21
-30.2499983074468
72
1
10
161.417143054807
20
-30.2499983074468
11
160.956359313254
21
-33.75
97
0
75
0
76
1
52
0
41
0.0062
77
0
78
1
53
45
43
0
44
0
45
-0.0139193969876572
46
0.0139193969876572
79
0
47
0
98
1
10
0
20
0
0
HATCH
5
1DB
100
AcDbEntity
8
SK2
62
256
6
ByLayer
370
13
48
1
60
0
100
AcDbHatch
10
0
20
0
30
0
210
0
220
0
230
1
2
ANSI31
70
0
71
0
91
1
92
5
93
3
72
1
10
160.956359313254
20
33.75
11
161.417143054807
21
30.2500016925532
72
1
10
161.417143054807
20
30.2500016925532
11
160.495575571701
21
30.2499983074468
72
1
10
160.495575571701
20
30.2499983074468
11
160.956359313254
21
33.75
97
0
75
0
76
1
52
0
41
0.0062
77
0
78
1
53
45
43
0
44
0
45
-0.0139193969876572
46
0.0139193969876572
79
0
47
0
98
1
10
0
20
0
0
HATCH
5
1E1
100
AcDbEntity
8
SK2
62
256
6
ByLayer
370
13
48
1
60
0
100
AcDbHatch
10
0
20
0
30
0
210
0
220
0
230
1
2
ANSI31
70
0
71
0
91
1
92
5
93
3
72
1
10
170.956359313254
20
-46
11
170.495575571701
21
-42.5000016925532
72
1
10
170.495575571701
20
-42.5000016925532
11
171.417143054807
21
-42.4999983074468
72
1
10
171.417143054807
20
-42.4999983074468
11
170.956359313254
21
-46
97
0
75
0
76
1
52
0
41
0.0062
77
0
78
1
53
45
43
0
44
0
45
-0.0139193969876572
46
0.0139193969876572
79
0
47
0
98
1
10
0
20
0
0
HATCH
5
1E5
100
AcDbEntity
8
SK2
62
256
6
ByLayer
370
13
48
1
60
0
100
AcDbHatch
10
0
20
0
30
0
210
0
220
0
230
1
2
ANSI31
70
0
71
0
91
1
92
5
93
3
72
1
10
170.956359313254
20
46
11
171.417143054807
21
42.5000016925532
72
1
10
171.417143054807
20
42.5000016925532
11
170.495575571701
21
42.4999983074468
72
1
10
170.495575571701
20
42.4999983074468
11
170.956359313254
21
46
97
0
75
0
76
1
52
0
41
0.0062
77
0
78
1
53
45
43
0
44
0
45
-0.0139193969876572
46
0.0139193969876572
79
0
47
0
98
1
10
0
20
0
0
HATCH
5
1EA
100
AcDbEntity
8
SK2
62
256
6
ByLayer
370
13
48
1
60
0
100
AcDbHatch
10
0
20
0
30
0
210
0
220
0
230
1
2
ANSI31
70
0
71
0
91
1
92
5
93
3
72
1
10
0
20
73.85
11
-3.4999983074468
21
73.3892162584472
72
1
10
-3.4999983074468
20
73.3892162584472
11
-3.5000016925532
21
74.3107837415528
72
1
10
-3.5000016925532
20
74.3107837415528
11
0
21
73.85
97
0
75
0
76
1
52
0
41
0.0062
77
0
78
1
53
45
43
0
44
0
45
-0.0139193969876572
46
0.0139193969876572
79
0
47
0
98
1
10
0
20
0
0
HATCH
5
1EE
100
AcDbEntity
8
SK2
62
256
6
ByLayer
370
13
48
1
60
0
100
AcDbHatch
10
0
20
0
30
0
210
0
220
0
230
1
2
ANSI31
70
0
71
0
91
1
92
5
93
3
72
1
10
-39.9
20
73.85
11
-36.4000016925532
21
74.3107837415528
72
1
10
-36.4000016925532
20
74.3107837415528
11
-36.3999983074468
21
73.3892162584472
72
1
10
-36.3999983074468
20
73.3892162584472
11
-39.9
21
73.85
97
0
75
0
76
1
52
0
41
0.0062
77
0
78
1
53
45
43
0
44
0
45
-0.0139193969876572
46
0.0139193969876572
79
0
47
0
98
1
10
0
20
0
0
HATCH
5
1F3
100
AcDbEntity
8
SK2
62
256
6
ByLayer
370
13
48
1
60
0
100
AcDbHatch
10
0
20
0
30
0
210
0
220
0
230
1
2
ANSI31
70
0
71
0
91
1
92
5
93
3
72
1
10
42.6437518052424
20
63.8500000000001
11
39.1437534977956
21
63.3892162584473
72
1
10
39.1437534977956
20
63.3892162584473
11
39.1437501126892
21
64.3107837415528
72
1
10
39.1437501126892
20
64.3107837415528
11
42.6437518052424
21
63.8500000000001
97
0
75
0
76
1
52
0
41
0.0062
77
0
78
1
53
45
43
0
44
0
45
-0.0139193969876572
46
0.0139193969876572
79
0
47
0
98
1
10
0
20
0
0
HATCH
5
1F7
100
AcDbEntity
8
SK2
62
256
6
ByLayer
370
13
48
1
60
0
100
AcDbHatch
10
0
20
0
30
0
210
0
220
0
230
1
2
ANSI31
70
0
71
0
91
1
92
5
93
3
72
1
10
0
20
63.8500000000001
11
3.4999983074468
21
64.3107837415528
72
1
10
3.4999983074468
20
64.3107837415528
11
3.5000016925532
21
63.3892162584473
72
1
10
3.5000016925532
20
63.3892162584473
11
0
21
63.8500000000001
97
0
75
0
76
1
52
0
41
0.0062
77
0
78
1
53
45
43
0
44
0
45
-0.0139193969876572
46
0.0139193969876572
79
0
47
0
98
1
10
0
20
0
0
HATCH
5
1FD
100
AcDbEntity
8
2
62
256
6
ByLayer
370
13
48
1
60
0
100
AcDbHatch
10
0
20
0
30
0
210
0
220
0
230
1
2
ANSI31
70
0
71
0
91
1
92
5
93
3
72
1
10
70
20
73.85
11
66.5000016925532
21
73.3892162584472
72
1
10
66.5000016925532
20
73.3892162584472
11
66.4999983074468
21
74.3107837415528
72
1
10
66.4999983074468
20
74.3107837415528
11
70
21
73.85
97
0
75
0
76
1
52
0
41
0.0062
77
0
78
1
53
45
43
0
44
0
45
-0.0139193969876572
46
0.0139193969876572
79
0
47
0
98
1
10
0
20
0
0
HATCH
5
201
100
AcDbEntity
8
2
62
256
6
ByLayer
370
13
48
1
60
0
100
AcDbHatch
10
0
20
0
30
0
210
0
220
0
230
1
2
ANSI31
70
0
71
0
91
1
92
5
93
3
72
1
10
0
20
73.85
11
3.4999983074468
21
74.3107837415528
72
1
10
3.4999983074468
20
74.3107837415528
11
3.5000016925532
21
73.3892162584472
72
1
10
3.5000016925532
20
73.3892162584472
11
0
21
73.85
97
0
75
0
76
1
52
0
41
0.0062
77
0
78
1
53
45
43
0
44
0
45
-0.0139193969876572
46
0.0139193969876572
79
0
47
0
98
1
10
0
20
0
0
HATCH
5
206
100
AcDbEntity
8
SK2
62
256
6
ByLayer
370
13
48
1
60
0
100
AcDbHatch
10
0
20
0
30
0
210
0
220
0
230
1
2
ANSI31
70
0
71
0
91
1
92
5
93
3
72
1
10
93
20
56.8500000000001
11
89.5000016925532
21
56.3892162584473
72
1
10
89.5000016925532
20
56.3892162584473
11
89.4999983074468
21
57.3107837415528
72
1
10
89.4999983074468
20
57.3107837415528
11
93
21
56.8500000000001
97
0
75
0
76
1
52
0
41
0.0062
77
0
78
1
53
45
43
0
44
0
45
-0.0139193969876572
46
0.0139193969876572
79
0
47
0
98
1
10
0
20
0
0
HATCH
5
20A
100
AcDbEntity
8
SK2
62
256
6
ByLayer
370
13
48
1
60
0
100
AcDbHatch
10
0
20
0
30
0
210
0
220
0
230
1
2
ANSI31
70
0
71
0
91
1
92
5
93
3
72
1
10
70
20
56.8500000000001
11
73.4999983074468
21
57.3107837415528
72
1
10
73.4999983074468
20
57.3107837415528
11
73.5000016925532
21
56.3892162584473
72
1
10
73.5000016925532
20
56.3892162584473
11
70
21
56.8500000000001
97
0
75
0
76
1
52
0
41
0.0062
77
0
78
1
53
45
43
0
44
0
45
-0.0139193969876572
46
0.0139193969876572
79
0
47
0
98
1
10
0
20
0
0
ENDSEC
0
SECTION
2
OBJECTS
0
DICTIONARY
5
27a
330
0
100
AcDbDictionary
280
0
281
1
3
ACAD_GROUP
350
27b
3
ACAD_MLINESTYLE
350
27c
0
DICTIONARY
5
27b
330
0
100
AcDbDictionary
280
0
281
1
0
DICTIONARY
5
27c
330
0
100
AcDbDictionary
280
0
281
1
3
Standard
350
18
0
MLINESTYLE
5
18
330
27c
100
AcDbMlineStyle
2
Standard
70
0
3

62
256
51
90
52
90
71
2
49
-0.5
62
256
6
ByLayer
49
0.5
62
256
6
ByLayer
0
RASTERVARIABLES
5
268
330

100
AcDbRasterVariables
90
0
70
1
71
1
72
1
0
ENDSEC
0
EOF
