0
SECTION
2
HEADER
9
$ACADVER
1
AC1015
9
$DWGCODEPAGE
3
ANSI_1252
9
$HANDSEED
5
2a6
9
$ANGBASE
50
0
9
$ANGDIR
70
0
9
$ATTMODE
70
1
9
$AUNITS
70
0
9
$AUPREC
70
0
9
$CECOLOR
62
256
9
$CELTSCALE
40
1
9
$CELTYPE
6
ByLayer
9
$CELWEIGHT
370
18
9
$CLAYER
8
0
9
$CMLJUST
70
0
9
$CMLSCALE
40
1
9
$CMLSTYLE
2
Standard
9
$DIMSTYLE
2
Standard
9
$TEXTSIZE
40
0.2
9
$TEXTSTYLE
7
Standard
9
$LUNITS
70
2
9
$LUPREC
70
4
9
$EXTNAMES
290
1
9
$INSUNITS
70
4
9
$LTSCALE
40
1
9
$LWDISPLAY
290
1
9
$PDMODE
70
0
9
$PDSIZE
40
0
9
$PLINEGEN
70
0
0
ENDSEC
0
SECTION
2
CLASSES
0
CLASS
1
RASTERVARIABLES
2
AcDbRasterVariables
3
ISM
90
0
280
0
281
0
0
ENDSEC
0
SECTION
2
TABLES
0
TABLE
2
VPORT
5
29c
100
AcDbSymbolTable
0
VPORT
5
1
100
AcDbSymbolTableRecord
100
AcDbViewportTableRecord
2
*Active
70
0
10
0
20
0
11
1
21
1
12
-1
22
1
13
0
23
0
14
0.5
24
0.5
15
10
25
10
16
0
26
0
36
1
17
0
27
0
37
0
0
ENDTAB
0
TABLE
2
LTYPE
5
29d
100
AcDbSymbolTable
0
LTYPE
5
14
100
AcDbSymbolTableRecord
100
AcDbLinetypeTableRecord
70
0
2
ByBlock
3

72
65
73
0
40
0
0
LTYPE
5
15
100
AcDbSymbolTableRecord
100
AcDbLinetypeTableRecord
70
0
2
ByLayer
3

72
65
73
0
40
0
0
LTYPE
5
16
100
AcDbSymbolTableRecord
100
AcDbLinetypeTableRecord
70
0
2
Continuous
3
Solid line
72
65
73
0
40
0
0
LTYPE
5
6E
100
AcDbSymbolTableRecord
100
AcDbLinetypeTableRecord
70
0
2
CENTER
3
____ _ ____ _ ____ _ ____
72
65
73
4
40
47.5
49
22
74
0
49
-8.5
74
0
49
8.5
74
0
49
-8.5
74
0
0
LTYPE
5
6F
100
AcDbSymbolTableRecord
100
AcDbLinetypeTableRecord
70
0
2
DASHED
3
__ __ __ __ __ __ __ __ __
72
65
73
2
40
25.72
49
12.86
74
0
49
-12.86
74
0
0
ENDTAB
0
TABLE
2
LAYER
5
29e
100
AcDbSymbolTable
0
LAYER
5
10
100
AcDbSymbolTableRecord
100
AcDbLayerTableRecord
2
0
70
0
62
7
6
Continuous
290
1
370
-3
390
0
0
LAYER
5
71
100
AcDbSymbolTableRecord
100
AcDbLayerTableRecord
2
2
70
0
62
7
6
Continuous
290
1
370
-3
390
0
0
LAYER
5
81
100
AcDbSymbolTableRecord
100
AcDbLayerTableRecord
2
81
70
0
62
-3
6
Continuous
290
1
370
-3
390
0
0
LAYER
5
83
100
AcDbSymbolTableRecord
100
AcDbLayerTableRecord
2
80
70
0
62
-6
6
Continuous
290
1
370
-3
390
0
0
LAYER
5
85
100
AcDbSymbolTableRecord
100
AcDbLayerTableRecord
2
1
70
0
62
4
6
Continuous
290
1
370
-3
390
0
0
LAYER
5
91
100
AcDbSymbolTableRecord
100
AcDbLayerTableRecord
2
4
70
0
62
-2
6
CENTER
290
1
370
-3
390
0
0
LAYER
5
288
100
AcDbSymbolTableRecord
100
AcDbLayerTableRecord
2
SK4
70
0
62
2
6
CENTER
290
1
370
-3
390
0
0
LAYER
5
289
100
AcDbSymbolTableRecord
100
AcDbLayerTableRecord
2
SK2
70
0
62
7
6
Continuous
290
1
370
-3
390
0
0
LAYER
5
28a
100
AcDbSymbolTableRecord
100
AcDbLayerTableRecord
2
SK1
70
0
62
4
6
Continuous
290
1
370
-3
390
0
0
LAYER
5
28b
100
AcDbSymbolTableRecord
100
AcDbLayerTableRecord
2
SK6
70
0
62
5
6
Continuous
290
1
370
-3
390
0
0
ENDTAB
0
TABLE
2
STYLE
5
29f
100
AcDbSymbolTable
0
STYLE
5
11
100
AcDbSymbolTableRecord
100
AcDbTextStyleTableRecord
2
Standard
3
txt
70
0
71
0
40
0
41
1
42
0
50
0
0
STYLE
5
1DC
100
AcDbSymbolTableRecord
100
AcDbTextStyleTableRecord
2
iso_b_vert
3
simplex.shx
70
0
71
0
40
0
41
1
42
0
50
0
0
STYLE
5
1DD
100
AcDbSymbolTableRecord
100
AcDbTextStyleTableRecord
2
DWGDirectTextStyle
3
simplex
70
0
71
0
40
0
41
1
42
0
50
0
0
ENDTAB
0
TABLE
2
DIMSTYLE
5
2a0
100
AcDbSymbolTable
100
AcDbDimStyleTable
0
DIMSTYLE
105
27
100
AcDbSymbolTableRecord
100
AcDbDimStyleTableRecord
2
Standard
70
0
3
<>
41
0.18
42
0.0625
44
0.18
140
0.18
147
0.09
73
0
74
0
77
1
271
2
275
0
278
52
280
0
340
11
0
ENDTAB
0
TABLE
2
VIEW
5
2a1
100
AcDbSymbolTable
0
ENDTAB
0
TABLE
2
UCS
5
2a2
100
AcDbSymbolTable
0
ENDTAB
0
TABLE
2
APPID
5
2a3
100
AcDbSymbolTable
0
APPID
5
12
100
AcDbSymbolTableRecord
100
AcDbRegAppTableRecord
2
ACAD
70
0
0
APPID
5
284
100
AcDbSymbolTableRecord
100
AcDbRegAppTableRecord
2
ACAD_MLEADERVER
70
0
0
ENDTAB
0
TABLE
2
BLOCK_RECORD
5
2a4
100
AcDbSymbolTable
0
BLOCK_RECORD
5
1F
100
AcDbSymbolTableRecord
100
AcDbBlockTableRecord
2
*Model_Space
340
0
70
0
0
BLOCK_RECORD
5
1B
100
AcDbSymbolTableRecord
100
AcDbBlockTableRecord
2
*Paper_Space
340
0
70
0
0
BLOCK_RECORD
5
23
100
AcDbSymbolTableRecord
100
AcDbBlockTableRecord
2
*Paper_Space0
340
0
70
0
0
ENDTAB
0
ENDSEC
0
SECTION
2
BLOCKS
0
BLOCK
5
20
100
AcDbEntity
8
0
100
AcDbBlockBegin
2
*Model_Space
70
0
10
0
20
0
30
0
3
*Model_Space
0
ENDBLK
5
21
100
AcDbEntity
8
0
100
AcDbBlockEnd
0
BLOCK
5
1C
100
AcDbEntity
8
0
100
AcDbBlockBegin
2
*Paper_Space
70
0
10
0
20
0
30
0
3
*Paper_Space
0
ENDBLK
5
1D
100
AcDbEntity
8
0
100
AcDbBlockEnd
0
BLOCK
5
24
100
AcDbEntity
8
0
100
AcDbBlockBegin
2
*Paper_Space0
70
0
10
0
20
0
30
0
3
*Paper_Space0
0
ENDBLK
5
25
100
AcDbEntity
8
0
100
AcDbBlockEnd
0
ENDSEC
0
SECTION
2
ENTITIES
0
ARC
5
185
100
AcDbEntity
8
1
62
256
6
ByLayer
370
18
48
1
60
0
100
AcDbCircle
39
0
10
61.214791
20
11.24675
30
0
40
0.6
210
0
220
0
230
1
100
AcDbArc
50
270
51
285
0
ARC
5
186
100
AcDbEntity
8
1
62
256
6
ByLayer
370
18
48
1
60
0
100
AcDbCircle
39
0
10
61.214791
20
-11.24675
30
0
40
0.6
210
0
220
0
230
1
100
AcDbArc
50
75
51
90
0
ARC
5
187
100
AcDbEntity
8
1
62
256
6
ByLayer
370
18
48
1
60
0
100
AcDbCircle
39
0
10
60.375
20
-11.24675
30
0
40
0.599999999999983
210
0
220
0
230
1
100
AcDbArc
50
90
51
128.68315
0
ARC
5
188
100
AcDbEntity
8
1
62
256
6
ByLayer
370
18
48
1
60
0
100
AcDbCircle
39
0
10
60.375
20
11.24675
30
0
40
0.599999999999983
210
0
220
0
230
1
100
AcDbArc
50
231.31685
51
270
0
ARC
5
189
100
AcDbEntity
8
1
62
256
6
ByLayer
370
18
48
1
60
0
100
AcDbCircle
39
0
10
19.525
20
21.875
30
0
40
0.399999999999999
210
0
220
0
230
1
100
AcDbArc
50
270
51
0
0
ARC
5
18A
100
AcDbEntity
8
1
62
256
6
ByLayer
370
18
48
1
60
0
100
AcDbCircle
39
0
10
19.525
20
-21.875
30
0
40
0.399999999999999
210
0
220
0
230
1
100
AcDbArc
50
0
51
90
0
ARC
5
18B
100
AcDbEntity
8
1
62
256
6
ByLayer
370
18
48
1
60
0
100
AcDbCircle
39
0
10
26.95
20
-21.75
30
0
40
1
210
0
220
0
230
1
100
AcDbArc
50
90
51
180
0
ARC
5
18C
100
AcDbEntity
8
1
62
256
6
ByLayer
370
18
48
1
60
0
100
AcDbCircle
39
0
10
26.95
20
21.75
30
0
40
1
210
0
220
0
230
1
100
AcDbArc
50
180
51
270
0
ARC
5
18D
100
AcDbEntity
8
1
62
256
6
ByLayer
370
18
48
1
60
0
100
AcDbCircle
39
0
10
16.475
20
-21.875
30
0
40
0.399999999999999
210
0
220
0
230
1
100
AcDbArc
50
90
51
180
0
ARC
5
18E
100
AcDbEntity
8
1
62
256
6
ByLayer
370
18
48
1
60
0
100
AcDbCircle
39
0
10
16.475
20
21.875
30
0
40
0.399999999999999
210
0
220
0
230
1
100
AcDbArc
50
180
51
270
0
ARC
5
18F
100
AcDbEntity
8
1
62
256
6
ByLayer
370
18
48
1
60
0
100
AcDbCircle
39
0
10
41.399449
20
-21.75
30
0
40
1
210
0
220
0
230
1
100
AcDbArc
50
0
51
90
0
ARC
5
190
100
AcDbEntity
8
1
62
256
6
ByLayer
370
18
48
1
60
0
100
AcDbCircle
39
0
10
41.399449
20
21.75
30
0
40
1
210
0
220
0
230
1
100
AcDbArc
50
270
51
0
0
ARC
5
191
100
AcDbEntity
8
1
62
256
6
ByLayer
370
18
48
1
60
0
100
AcDbCircle
39
0
10
43.399449
20
-23
30
0
40
1
210
0
220
0
230
1
100
AcDbArc
50
180
51
270
0
ARC
5
192
100
AcDbEntity
8
1
62
256
6
ByLayer
370
18
48
1
60
0
100
AcDbCircle
39
0
10
43.399449
20
23
30
0
40
1
210
0
220
0
230
1
100
AcDbArc
50
90
51
180
0
ARC
5
193
100
AcDbEntity
8
SK2
62
256
6
ByLayer
370
18
48
1
60
0
100
AcDbCircle
39
0
10
89.5
20
-7
30
0
40
1
210
0
220
0
230
1
100
AcDbArc
50
270
51
0
0
ARC
5
194
100
AcDbEntity
8
SK2
62
256
6
ByLayer
370
18
48
1
60
0
100
AcDbCircle
39
0
10
89.5
20
7
30
0
40
1
210
0
220
0
230
1
100
AcDbArc
50
0
51
90
0
ARC
5
195
100
AcDbEntity
8
SK1
62
256
6
ByLayer
370
18
48
1
60
0
100
AcDbCircle
39
0
10
-23.9
20
17.056352
30
0
40
1
210
0
220
0
230
1
100
AcDbArc
50
92.868132
51
180
0
ARC
5
196
100
AcDbEntity
8
SK1
62
256
6
ByLayer
370
18
48
1
60
0
100
AcDbCircle
39
0
10
-23.9
20
-17.056352
30
0
40
1
210
0
220
0
230
1
100
AcDbArc
50
180
51
267.131868
0
ARC
5
197
100
AcDbEntity
8
SK1
62
256
6
ByLayer
370
18
48
1
60
0
100
AcDbCircle
39
0
10
-0.45
20
19.504801
30
0
40
0.600000000000001
210
0
220
0
230
1
100
AcDbArc
50
270
51
318.590378
0
ARC
5
198
100
AcDbEntity
8
SK1
62
256
6
ByLayer
370
18
48
1
60
0
100
AcDbCircle
39
0
10
-0.45
20
-19.504801
30
0
40
0.600000000000001
210
0
220
0
230
1
100
AcDbArc
50
41.409622
51
90
0
ARC
5
199
100
AcDbEntity
8
SK1
62
256
6
ByLayer
370
18
48
1
60
0
100
AcDbCircle
39
0
10
-18.7
20
3.87
30
0
40
1.4
210
0
220
0
230
1
100
AcDbArc
50
0
51
90
0
ARC
5
19A
100
AcDbEntity
8
SK1
62
256
6
ByLayer
370
18
48
1
60
0
100
AcDbCircle
39
0
10
-18.7
20
-3.87
30
0
40
1.4
210
0
220
0
230
1
100
AcDbArc
50
270
51
0
0
CIRCLE
5
19B
100
AcDbEntity
8
SK1
62
256
6
ByLayer
370
18
48
1
60
0
100
AcDbCircle
10
-7.5
20
0
30
0
40
3
39
0
210
0
220
0
230
1
0
ELLIPSE
5
19C
100
AcDbEntity
8
SK1
62
256
6
ByLayer
370
13
48
1
60
0
100
AcDbEllipse
10
-18.7
20
9.366084
30
0
11
1.4
21
0
31
0
210
0
220
0
230
1
40
0.45399
41
-1.5707963267949
42
-1.11390176847086
0
ELLIPSE
5
19D
100
AcDbEntity
8
SK1
62
256
6
ByLayer
370
13
48
1
60
0
100
AcDbEllipse
10
-18.7
20
-9.366084
30
0
11
1.4
21
0
31
0
210
0
220
0
230
1
40
0.45399
41
1.11390176847084
42
1.5707963267949
0
ELLIPSE
5
19E
100
AcDbEntity
8
SK1
62
256
6
ByLayer
370
18
48
1
60
0
100
AcDbEllipse
10
-41.086371
20
0.391136
30
0
11
14.6735386478079
21
14.6413707136207
31
0
210
0
220
0
230
1
40
0.61245
41
-0.517906837756581
42
-0.464826187041985
0
ELLIPSE
5
19F
100
AcDbEntity
8
SK1
62
256
6
ByLayer
370
18
48
1
60
0
100
AcDbEllipse
10
-41.086371
20
-0.391136
30
0
11
14.6735385507243
21
-14.6413706778236
31
0
210
0
220
0
230
1
40
0.61245
41
0.464826189312611
42
0.517906840162721
0
POINT
5
70
100
AcDbEntity
8
2
62
256
6
ByLayer
370
18
48
1
60
0
100
AcDbPoint
10
60
20
0
30
0
39
0
210
0
220
0
230
1
50
360
0
POINT
5
72
100
AcDbEntity
8
2
62
256
6
ByLayer
370
18
48
1
60
0
100
AcDbPoint
10
55
20
0
30
0
39
0
210
0
220
0
230
1
50
360
0
POINT
5
73
100
AcDbEntity
8
2
62
256
6
ByLayer
370
18
48
1
60
0
100
AcDbPoint
10
76
20
0
30
0
39
0
210
0
220
0
230
1
50
360
0
POINT
5
74
100
AcDbEntity
8
2
62
256
6
ByLayer
370
18
48
1
60
0
100
AcDbPoint
10
60
20
-3.5145
30
0
39
0
210
0
220
0
230
1
50
360
0
POINT
5
75
100
AcDbEntity
8
2
62
256
6
ByLayer
370
18
48
1
60
0
100
AcDbPoint
10
60
20
0
30
0
39
0
210
0
220
0
230
1
50
360
0
POINT
5
76
100
AcDbEntity
8
2
62
256
6
ByLayer
370
18
48
1
60
0
100
AcDbPoint
10
60
20
0
30
0
39
0
210
0
220
0
230
1
50
360
0
POINT
5
77
100
AcDbEntity
8
2
62
256
6
ByLayer
370
18
48
1
60
0
100
AcDbPoint
10
55
20
0
30
0
39
0
210
0
220
0
230
1
50
360
0
POINT
5
78
100
AcDbEntity
8
2
62
256
6
ByLayer
370
18
48
1
60
0
100
AcDbPoint
10
76
20
0
30
0
39
0
210
0
220
0
230
1
50
360
0
POINT
5
79
100
AcDbEntity
8
2
62
256
6
ByLayer
370
18
48
1
60
0
100
AcDbPoint
10
60
20
0
30
0
39
0
210
0
220
0
230
1
50
360
0
POINT
5
7A
100
AcDbEntity
8
2
62
256
6
ByLayer
370
18
48
1
60
0
100
AcDbPoint
10
60
20
0
30
0
39
0
210
0
220
0
230
1
50
360
0
POINT
5
7B
100
AcDbEntity
8
2
62
256
6
ByLayer
370
18
48
1
60
0
100
AcDbPoint
10
60
20
3.5145
30
0
39
0
210
0
220
0
230
1
50
360
0
POINT
5
7C
100
AcDbEntity
8
2
62
256
6
ByLayer
370
18
48
1
60
0
100
AcDbPoint
10
0
20
0
30
0
39
0
210
0
220
0
230
1
50
360
0
POINT
5
7D
100
AcDbEntity
8
2
62
256
6
ByLayer
370
18
48
1
60
0
100
AcDbPoint
10
60
20
0
30
0
39
0
210
0
220
0
230
1
50
360
0
POINT
5
7E
100
AcDbEntity
8
2
62
256
6
ByLayer
370
18
48
1
60
0
100
AcDbPoint
10
55
20
0
30
0
39
0
210
0
220
0
230
1
50
360
0
POINT
5
7F
100
AcDbEntity
8
2
62
256
6
ByLayer
370
18
48
1
60
0
100
AcDbPoint
10
76
20
0
30
0
39
0
210
0
220
0
230
1
50
360
0
POINT
5
80
100
AcDbEntity
8
81
62
256
6
ByLayer
370
18
48
1
60
0
100
AcDbPoint
10
60
20
0
30
0
39
0
210
0
220
0
230
1
50
360
0
POINT
5
82
100
AcDbEntity
8
80
62
256
6
ByLayer
370
18
48
1
60
0
100
AcDbPoint
10
0
20
0
30
0
39
0
210
0
220
0
230
1
50
360
0
POINT
5
84
100
AcDbEntity
8
1
62
256
6
ByLayer
370
13
48
1
60
1
100
AcDbPoint
10
18
20
20.972896
30
0
39
0
210
0
220
0
230
1
50
360
0
POINT
5
86
100
AcDbEntity
8
1
62
256
6
ByLayer
370
13
48
1
60
1
100
AcDbPoint
10
18
20
10.807844
30
0
39
0
210
0
220
0
230
1
50
360
0
POINT
5
87
100
AcDbEntity
8
1
62
256
6
ByLayer
370
13
48
1
60
1
100
AcDbPoint
10
18
20
23.158769
30
0
39
0
210
0
220
0
230
1
50
360
0
POINT
5
88
100
AcDbEntity
8
1
62
256
6
ByLayer
370
13
48
1
60
1
100
AcDbPoint
10
18
20
13.069154
30
0
39
0
210
0
220
0
230
1
50
360
0
POINT
5
89
100
AcDbEntity
8
1
62
256
6
ByLayer
370
13
48
1
60
1
100
AcDbPoint
10
-25.450037
20
0
30
0
39
0
210
0
220
0
230
1
50
360
0
POINT
5
8A
100
AcDbEntity
8
1
62
256
6
ByLayer
370
13
48
1
60
1
100
AcDbPoint
10
77.5
20
0
30
0
39
0
210
0
220
0
230
1
50
360
0
POINT
5
8B
100
AcDbEntity
8
1
62
256
6
ByLayer
370
13
48
1
60
1
100
AcDbPoint
10
91
20
0
30
0
39
0
210
0
220
0
230
1
50
360
0
POINT
5
8C
100
AcDbEntity
8
1
62
256
6
ByLayer
370
13
48
1
60
1
100
AcDbPoint
10
43.5
20
0
30
0
39
0
210
0
220
0
230
1
50
360
0
POINT
5
8D
100
AcDbEntity
8
1
62
256
6
ByLayer
370
13
48
1
60
1
100
AcDbPoint
10
85.5
20
0
30
0
39
0
210
0
220
0
230
1
50
360
0
POINT
5
8E
100
AcDbEntity
8
1
62
256
6
ByLayer
370
13
48
1
60
1
100
AcDbPoint
10
77.5
20
0
30
0
39
0
210
0
220
0
230
1
50
360
0
SPLINE
5
1A0
100
AcDbEntity
8
1
62
256
6
ByLayer
370
18
48
1
60
0
100
AcDbSpline
70
4
71
3
72
52
73
48
40
0
40
0
40
0
40
0
40
0.062500000000004
40
0.062500000000004
40
0.125000000000008
40
0.125000000000008
40
0.15625000000001
40
0.15625000000001
40
0.171875000000011
40
0.171875000000011
40
0.187500000000011
40
0.187500000000011
40
0.250000000000014
40
0.312500000000017
40
0.312500000000017
40
0.328125000000017
40
0.328125000000017
40
0.343750000000018
40
0.375000000000019
40
0.375000000000019
40
0.437500000000025
40
0.437500000000025
40
0.468750000000029
40
0.468750000000029
40
0.48437500000003
40
0.48437500000003
40
0.500000000000031
40
0.500000000000031
40
0.562500000000025
40
0.625000000000019
40
0.625000000000019
40
0.656250000000017
40
0.656250000000017
40
0.687500000000014
40
0.687500000000014
40
0.750000000000011
40
0.750000000000011
40
0.78125000000001
40
0.78125000000001
40
0.812500000000008
40
0.812500000000008
40
0.875000000000005
40
0.937500000000002
40
0.937500000000002
40
0.968750000000001
40
0.968750000000001
40
1
40
1
40
1
40
1
41
1
10
16.475
20
21.0653476550618
30
0
41
1
10
16.5131895945438
20
21.0785466325113
30
0
41
1
10
16.5554497479994
20
21.0907891718153
30
0
41
1
10
16.647784177154
20
21.1135838836962
30
0
41
1
10
16.6978594748116
20
21.1241353916883
30
0
41
1
10
16.7789050741279
20
21.138798133465
30
0
41
1
10
16.806912204682
20
21.1434910427921
30
0
41
1
10
16.8504499796508
20
21.1502462598175
30
0
41
1
10
16.8651953187061
20
21.152446865016
30
0
41
1
10
16.8949793021191
20
21.1567241070956
30
0
41
1
10
16.9100419058858
20
21.1588045055246
30
0
41
1
10
16.9861975405849
20
21.1689251862767
30
0
41
1
10
17.1134176719784
20
21.1833268675624
30
0
41
1
10
17.2512073715102
20
21.1944989238667
30
0
41
1
10
17.3407519969364
20
21.2005175721685
30
0
41
1
10
17.3588507974287
20
21.2016737217386
30
0
41
1
10
17.3951260114012
20
21.2038735670864
30
0
41
1
10
17.4497480862929
20
21.2070111412542
30
0
41
1
10
17.5049889973384
20
21.2096767288108
30
0
41
1
10
17.616282731246
20
21.214405724505
30
0
41
1
10
17.6915576382962
20
21.216759163866
30
0
41
1
10
17.8061000400701
20
21.2191292728974
30
0
41
1
10
17.8445533740248
20
21.2197250443857
30
0
41
1
10
17.902651778108
20
21.2203235651399
30
0
41
1
10
17.9221246102815
20
21.2204739372342
30
0
41
1
10
17.96097847823
20
21.220673875482
30
0
41
1
10
17.9803649691625
20
21.220723733144
30
0
41
1
10
18.0770980383558
20
21.2207261873787
30
0
41
1
10
18.2306001039233
20
21.219160127304
30
0
41
1
10
18.3816186564517
20
21.2144838173951
30
0
41
1
10
18.4939239011646
20
21.209728304113
30
0
41
1
10
18.5312525760327
20
21.2079293455313
30
0
41
1
10
18.6044847112407
20
21.2039530952107
30
0
41
1
10
18.6405248780374
20
21.2017708277962
30
0
41
1
10
18.7469515376954
20
21.1946328198845
30
0
41
1
10
18.8156513935594
20
21.1890893084443
30
0
41
1
10
18.9153249838575
20
21.1795003175003
30
0
41
1
10
18.9479850152686
20
21.1760908601919
30
0
41
1
10
19.0121536891257
20
21.1688186273879
30
0
41
1
10
19.0437434219323
20
21.1649432874026
30
0
41
1
10
19.1354418375882
20
21.1527657045608
30
0
41
1
10
19.2503218625078
20
21.1349873916354
30
0
41
1
10
19.3508423394487
20
21.1138973252705
30
0
41
1
10
19.4207138887809
20
21.0966861072461
30
0
41
1
10
19.4431285005902
20
21.0907011870591
30
0
41
1
10
19.4857108527118
20
21.0783337870489
30
0
41
1
10
19.5059053248031
20
21.0719471015954
30
0
41
1
10
19.525
20
21.0653476550618
30
0
0
SPLINE
5
1A1
100
AcDbEntity
8
1
62
256
6
ByLayer
370
18
48
1
60
0
100
AcDbSpline
70
4
71
3
72
52
73
48
40
0
40
0
40
0
40
0
40
0.0624999999999963
40
0.0624999999999963
40
0.124999999999993
40
0.124999999999993
40
0.15624999999999
40
0.15624999999999
40
0.171874999999989
40
0.171874999999989
40
0.187499999999987
40
0.187499999999987
40
0.249999999999983
40
0.312499999999979
40
0.312499999999979
40
0.328124999999978
40
0.328124999999978
40
0.343749999999977
40
0.374999999999975
40
0.374999999999975
40
0.437499999999974
40
0.437499999999974
40
0.468749999999972
40
0.468749999999972
40
0.484374999999972
40
0.484374999999972
40
0.499999999999973
40
0.499999999999973
40
0.562499999999977
40
0.624999999999982
40
0.624999999999982
40
0.656249999999983
40
0.656249999999983
40
0.687499999999984
40
0.687499999999984
40
0.749999999999985
40
0.749999999999985
40
0.781249999999987
40
0.781249999999987
40
0.812499999999989
40
0.812499999999989
40
0.874999999999994
40
0.937499999999998
40
0.937499999999998
40
0.968749999999999
40
0.968749999999999
40
1
40
1
40
1
40
1
41
1
10
19.525
20
20.6645620078919
30
0
41
1
10
19.4868104054562
20
20.6460847742056
30
0
41
1
10
19.4445502520006
20
20.6281970625732
30
0
41
1
10
19.352215822846
20
20.5936955013188
30
0
41
1
10
19.3021405251884
20
20.5770813854456
30
0
41
1
10
19.2210949258721
20
20.5532433420704
30
0
41
1
10
19.193087795318
20
20.5454784593755
30
0
41
1
10
19.1495500203492
20
20.534125163987
30
0
41
1
10
19.1348046812939
20
20.5303959721701
30
0
41
1
10
19.1050206978809
20
20.5230921762364
30
0
41
1
10
19.0899580941142
20
20.5195112643664
30
0
41
1
10
19.0138024594151
20
20.5019633252855
30
0
41
1
10
18.8865823280216
20
20.4761615478303
30
0
41
1
10
18.7487926284898
20
20.455122516715
30
0
41
1
10
18.6592480030636
20
20.4435972275544
30
0
41
1
10
18.6411492025713
20
20.4413719648919
30
0
41
1
10
18.6048739885988
20
20.4371195524915
30
0
41
1
10
18.5502519137071
20
20.4310256269484
30
0
41
1
10
18.4950110026616
20
20.4257810288893
30
0
41
1
10
18.3837172687539
20
20.4164225815861
30
0
41
1
10
18.3084423617038
20
20.4116875271399
30
0
41
1
10
18.1938999599298
20
20.4069022073228
30
0
41
1
10
18.1554466259752
20
20.4056942336357
30
0
41
1
10
18.0973482218919
20
20.4044796044243
30
0
41
1
10
18.0778753897185
20
20.4041741134888
30
0
41
1
10
18.0390215217699
20
20.4037678364764
30
0
41
1
10
18.0196350308375
20
20.4036664594306
30
0
41
1
10
17.9229019616442
20
20.4036614702367
30
0
41
1
10
17.7693999315899
20
20.4068555975596
30
0
41
1
10
17.6183813435483
20
20.4162669677766
30
0
41
1
10
17.5060760988353
20
20.4256794846891
30
0
41
1
10
17.4687474239673
20
20.4292192619371
30
0
41
1
10
17.3955152887593
20
20.4369727292025
30
0
41
1
10
17.3594751219625
20
20.4411963565321
30
0
41
1
10
17.2530484623046
20
20.4548680171811
30
0
41
1
10
17.1843486064406
20
20.4653134619703
30
0
41
1
10
17.0846750161424
20
20.4828843253342
30
0
41
1
10
17.0520149847314
20
20.4890592548763
30
0
41
1
10
16.9878463108744
20
20.5020397010179
30
0
41
1
10
16.9562565780677
20
20.50886645008
30
0
41
1
10
16.8645581624118
20
20.5299836730831
30
0
41
1
10
16.7496781374922
20
20.5599707310849
30
0
41
1
10
16.6491576605513
20
20.5932119966352
30
0
41
1
10
16.5792861112191
20
20.6192759984396
30
0
41
1
10
16.5568714994097
20
20.6281747020508
30
0
41
1
10
16.5142891472882
20
20.6461948055612
30
0
41
1
10
16.4940946751969
20
20.6553234501122
30
0
41
1
10
16.475
20
20.6645620078919
30
0
0
SPLINE
5
1A2
100
AcDbEntity
8
1
62
256
6
ByLayer
370
18
48
1
60
0
100
AcDbSpline
70
4
71
3
72
52
73
48
40
0
40
0
40
0
40
0
40
0.0624999999999992
40
0.0624999999999992
40
0.124999999999999
40
0.124999999999999
40
0.156249999999999
40
0.156249999999999
40
0.171874999999999
40
0.171874999999999
40
0.1875
40
0.1875
40
0.250000000000002
40
0.312500000000005
40
0.312500000000005
40
0.328125000000006
40
0.328125000000006
40
0.343750000000006
40
0.375000000000006
40
0.375000000000006
40
0.437500000000009
40
0.437500000000009
40
0.46875000000001
40
0.46875000000001
40
0.484375000000011
40
0.484375000000011
40
0.500000000000013
40
0.500000000000013
40
0.56250000000001
40
0.625000000000008
40
0.625000000000008
40
0.656250000000008
40
0.656250000000008
40
0.687500000000009
40
0.687500000000009
40
0.750000000000007
40
0.750000000000007
40
0.781250000000006
40
0.781250000000006
40
0.812500000000006
40
0.812500000000006
40
0.875000000000004
40
0.937500000000001
40
0.937500000000001
40
0.968750000000001
40
0.968750000000001
40
1
40
1
40
1
40
1
41
1
10
16.475
20
18.7443335005355
30
0
41
1
10
16.5131895945438
20
18.7774682592717
30
0
41
1
10
16.5554497479994
20
18.8087120616285
30
0
41
1
10
16.647784177154
20
18.8676997808023
30
0
41
1
10
16.6978594748116
20
18.8954428437332
30
0
41
1
10
16.7789050741279
20
18.9345064026994
30
0
41
1
10
16.806912204682
20
18.9471010907469
30
0
41
1
10
16.8504499796508
20
18.9653504175257
30
0
41
1
10
16.8651953187061
20
18.9713162835667
30
0
41
1
10
16.8949793021191
20
18.9829497075023
30
0
41
1
10
16.9100419058858
20
18.9886274176335
30
0
41
1
10
16.9861975405849
20
19.0163350753699
30
0
41
1
10
17.1134176719784
20
19.0563286748543
30
0
41
1
10
17.2512073715102
20
19.0880501644904
30
0
41
1
10
17.3407519969364
20
19.1052693293144
30
0
41
1
10
17.3588507974287
20
19.1085847404994
30
0
41
1
10
17.3951260114012
20
19.1149055627708
30
0
41
1
10
17.4497480862929
20
19.1239403917554
30
0
41
1
10
17.5049889973384
20
19.1316619739649
30
0
41
1
10
17.616282731246
20
19.1453975569448
30
0
41
1
10
17.6915576382962
20
19.1522861266972
30
0
41
1
10
17.8061000400701
20
19.1592348741206
30
0
41
1
10
17.8445533740248
20
19.1609850395051
30
0
41
1
10
17.902651778108
20
19.1627440171765
30
0
41
1
10
17.9221246102815
20
19.1631861652355
30
0
41
1
10
17.96097847823
20
19.163774116288
30
0
41
1
10
17.9803649691625
20
19.1639207755703
30
0
41
1
10
18.0770980383558
20
19.1639279941172
30
0
41
1
10
18.23060006841
20
19.1593143741866
30
0
41
1
10
18.3816186564517
20
19.1456251108779
30
0
41
1
10
18.4939239011646
20
19.1318114223115
30
0
41
1
10
18.5312525760327
20
19.1266000640572
30
0
41
1
10
18.6044847112407
20
19.1151293687041
30
0
41
1
10
18.6405248780374
20
19.1088555177941
30
0
41
1
10
18.7469515376954
20
19.0884319422221
30
0
41
1
10
18.8156513935593
20
19.0726878363681
30
0
41
1
10
18.9153249838575
20
19.0457927010877
30
0
41
1
10
18.9479850152686
20
19.0362792673197
30
0
41
1
10
19.0121536891257
20
19.0161171194606
30
0
41
1
10
19.0437434219323
20
19.0054343834512
30
0
41
1
10
19.1354418375882
20
18.9720935267669
30
0
41
1
10
19.2503218625078
20
18.9239919119225
30
0
41
1
10
19.3508423394487
20
18.868517083867
30
0
41
1
10
19.4207138887809
20
18.823969040487
30
0
41
1
10
19.4431285005903
20
18.8085902422592
30
0
41
1
10
19.4857108527118
20
18.7770618498233
30
0
41
1
10
19.5059053248031
20
18.7609007739867
30
0
41
1
10
19.525
20
18.7443335005355
30
0
0
SPLINE
5
1A3
100
AcDbEntity
8
1
62
256
6
ByLayer
370
18
48
1
60
0
100
AcDbSpline
70
4
71
3
72
8
73
4
40
0
40
0
40
0
40
0
40
1
40
1
40
1
40
1
41
1
10
60
20
-5.12077274809329
30
0
41
1
10
59.9936972178889
20
-5.07983001930751
30
0
41
1
10
59.9875444741552
20
-5.0381308098593
30
0
41
1
10
59.9815435205437
20
-4.99568583213295
30
0
0
SPLINE
5
1A4
100
AcDbEntity
8
1
62
256
6
ByLayer
370
18
48
1
60
0
100
AcDbSpline
70
4
71
3
72
8
73
4
40
0
40
0
40
0
40
0
40
1
40
1
40
1
40
1
41
1
10
59.9811798053042
20
4.99309724884659
30
0
41
1
10
59.9873176735781
20
5.03659023012682
30
0
41
1
10
59.9935923874483
20
5.07914904315714
30
0
41
1
10
60
20
5.12077274809323
30
0
0
SPLINE
5
1A5
100
AcDbEntity
8
1
62
256
6
ByLayer
370
18
48
1
60
0
100
AcDbSpline
70
4
71
3
72
32
73
28
40
0
40
0
40
0
40
0
40
0.125000000000001
40
0.125000000000001
40
0.250000000000003
40
0.250000000000003
40
0.281250000000004
40
0.281250000000004
40
0.312500000000005
40
0.312500000000005
40
0.375000000000006
40
0.375000000000006
40
0.500000000000006
40
0.500000000000006
40
0.562500000000004
40
0.562500000000004
40
0.593750000000004
40
0.593750000000004
40
0.625000000000003
40
0.625000000000003
40
0.750000000000001
40
0.750000000000001
40
0.875
40
0.875
40
0.9375
40
0.9375
40
1
40
1
40
1
40
1
41
1
10
19.525
20
21.0653476550618
30
0
41
1
10
19.5622327167028
20
21.0524793909701
30
0
41
1
10
19.5945541166443
20
21.0439798124605
30
0
41
1
10
19.6502628279011
20
21.0295137659414
30
0
41
1
10
19.6736410832893
20
21.0236299618877
30
0
41
1
10
19.6973188259838
20
21.0150239982335
30
0
41
1
10
19.7017753954127
20
21.0132412243239
30
0
41
1
10
19.7101248579622
20
21.0094816160918
30
0
41
1
10
19.7140224206491
20
21.0075012996701
30
0
41
1
10
19.7247882411978
20
21.0012081499323
30
0
41
1
10
19.7307544748794
20
20.9965316339765
30
0
41
1
10
19.7450914147325
20
20.9804175357417
30
0
41
1
10
19.7499155193078
20
20.9668048050529
30
0
41
1
10
19.750040597562
20
20.9407982832335
30
0
41
1
10
19.7488932331723
20
20.9312196963673
30
0
41
1
10
19.7453532095065
20
20.9155414501709
30
0
41
1
10
19.743869805839
20
20.9100985640551
30
0
41
1
10
19.7402874560068
20
20.8988065804925
30
0
41
1
10
19.7381833117555
20
20.8929461332567
30
0
41
1
10
19.7261980886555
20
20.8629619146902
30
0
41
1
10
19.7119323631264
20
20.8366494745743
30
0
41
1
10
19.6743312612028
20
20.7832440717804
30
0
41
1
10
19.6509974954736
20
20.7561450491313
30
0
41
1
10
19.6088457821417
20
20.7183073243589
30
0
41
1
10
19.5936317112992
20
20.7062079841775
30
0
41
1
10
19.5610128515505
20
20.6838442579601
30
0
41
1
10
19.5435842420266
20
20.6735536032944
30
0
41
1
10
19.5250000000015
20
20.6645620078903
30
0
0
SPLINE
5
1A6
100
AcDbEntity
8
1
62
256
6
ByLayer
370
18
48
1
60
0
100
AcDbSpline
70
4
71
3
72
32
73
28
40
0
40
0
40
0
40
0
40
0.125000000000001
40
0.125000000000001
40
0.250000000000002
40
0.250000000000002
40
0.281250000000002
40
0.281250000000002
40
0.312500000000001
40
0.312500000000001
40
0.375000000000002
40
0.375000000000002
40
0.500000000000001
40
0.500000000000001
40
0.5625
40
0.5625
40
0.593749999999998
40
0.593749999999998
40
0.624999999999996
40
0.624999999999996
40
0.749999999999997
40
0.749999999999997
40
0.874999999999997
40
0.874999999999997
40
0.937499999999999
40
0.937499999999999
40
1
40
1
40
1
40
1
41
1
10
19.525
20
18.7443335005355
30
0
41
1
10
19.5622327167028
20
18.7120289657591
30
0
41
1
10
19.5945541166443
20
18.6831528684967
30
0
41
1
10
19.6502628279011
20
18.6266802502191
30
0
41
1
10
19.6736410832892
20
18.5991583635547
30
0
41
1
10
19.6973188259838
20
18.5629650279192
30
0
41
1
10
19.7017753954127
20
18.555637507749
30
0
41
1
10
19.7101248579622
20
18.5407391805551
30
0
41
1
10
19.7140224206491
20
18.5331564708348
30
0
41
1
10
19.7247882411978
20
18.51010307691
30
0
41
1
10
19.7307544748794
20
18.4942891528135
30
0
41
1
10
19.7450914147325
20
18.4449445735561
30
0
41
1
10
19.7499155193078
20
18.4094309708115
30
0
41
1
10
19.750040597562
20
18.3510969548458
30
0
41
1
10
19.7488932331723
20
18.3308273540096
30
0
41
1
10
19.7453532095065
20
18.299233154562
30
0
41
1
10
19.743869805839
20
18.2885048622531
30
0
41
1
10
19.7402874560068
20
18.2666786643776
30
0
41
1
10
19.7381833117555
20
18.2555600050951
30
0
41
1
10
19.7261980886555
20
18.1995655901357
30
0
41
1
10
19.7119323631264
20
18.1532295713545
30
0
41
1
10
19.6743312612028
20
18.0606775033053
30
0
41
1
10
19.6509974954736
20
18.0144562664142
30
0
41
1
10
19.6088457821417
20
17.9480746463106
30
0
41
1
10
19.5936317112992
20
17.9265101492711
30
0
41
1
10
19.5610128515505
20
17.8853289026495
30
0
41
1
10
19.5435842420265
20
17.865669781655
30
0
41
1
10
19.5250000000015
20
17.8472930883959
30
0
0
SPLINE
5
1A7
100
AcDbEntity
8
1
62
256
6
ByLayer
370
18
48
1
60
0
100
AcDbSpline
70
4
71
3
72
36
73
32
40
0
40
0
40
0
40
0
40
0.0156250000000025
40
0.0156250000000025
40
0.031250000000005
40
0.031250000000005
40
0.0468750000000075
40
0.0468750000000075
40
0.06250000000001
40
0.06250000000001
40
0.0937500000000105
40
0.0937500000000105
40
0.125000000000011
40
0.125000000000011
40
0.187500000000012
40
0.187500000000012
40
0.218750000000013
40
0.218750000000013
40
0.250000000000013
40
0.250000000000013
40
0.312500000000013
40
0.312500000000013
40
0.375000000000012
40
0.375000000000012
40
0.50000000000001
40
0.50000000000001
40
0.625000000000007
40
0.625000000000007
40
0.750000000000005
40
0.750000000000005
40
1
40
1
40
1
40
1
41
1
10
19.525
20
-4.93615488006611
30
0
41
1
10
19.5336320581162
20
-4.93615488006611
30
0
41
1
10
19.5421566231379
20
-4.93736889850504
30
0
41
1
10
19.5590051073134
20
-4.94206301381939
30
0
41
1
10
19.5669738756528
20
-4.94543583368841
30
0
41
1
10
19.5821552713583
20
-4.95366229212939
30
0
41
1
10
19.5894299643468
20
-4.95856928379106
30
0
41
1
10
19.6030429312765
20
-4.96923114934944
30
0
41
1
10
19.6094268457176
20
-4.97500158844855
30
0
41
1
10
19.6276591759961
20
-4.99326917045354
30
0
41
1
10
19.6386654450415
20
-5.00680293177396
30
0
41
1
10
19.6587334516983
20
-5.03474117410133
30
0
41
1
10
19.6678459525315
20
-5.04920747152451
30
0
41
1
10
19.6933991635731
20
-5.09356903872705
30
0
41
1
10
19.708088767368
20
-5.12440907918386
30
0
41
1
10
19.7281814102863
20
-5.17171677496259
30
0
41
1
10
19.734546389856
20
-5.18769541925508
30
0
41
1
10
19.7466478720498
20
-5.21974647326422
30
0
41
1
10
19.7523929336085
20
-5.23583818846106
30
0
41
1
10
19.7688777363573
20
-5.28427581278194
30
0
41
1
10
19.7788757600175
20
-5.31678232455133
30
0
41
1
10
19.7974200193441
20
-5.38210970090355
30
0
41
1
10
19.8059602788647
20
-5.41493185948954
30
0
41
1
10
19.8298325456028
20
-5.51377693709122
30
0
41
1
10
19.8434402505447
20
-5.58017321590452
30
0
41
1
10
19.8672244357559
20
-5.71370872989525
30
0
41
1
10
19.8773810867727
20
-5.78085225866192
30
0
41
1
10
19.894719800829
20
-5.91578339790934
30
0
41
1
10
19.9018978566442
20
-5.9836409907148
30
0
41
1
10
19.9191221863884
20
-6.18694161411923
30
0
41
1
10
19.925
20
-6.32246884417543
30
0
41
1
10
19.925
20
-6.45798923814527
30
0
0
SPLINE
5
1A8
100
AcDbEntity
8
1
62
256
6
ByLayer
370
18
48
1
60
0
100
AcDbSpline
70
4
71
3
72
41
73
37
40
0
40
0
40
0
40
0
40
0.124999999999999
40
0.124999999999999
40
0.249999999999998
40
0.249999999999998
40
0.374999999999998
40
0.374999999999998
40
0.499999999999997
40
0.499999999999997
40
0.624999999999996
40
0.624999999999996
40
0.687499999999996
40
0.687499999999996
40
0.749999999999997
40
0.749999999999997
40
0.812499999999997
40
0.812499999999997
40
0.843749999999997
40
0.843749999999997
40
0.874999999999998
40
0.874999999999998
40
0.906249999999998
40
0.906249999999998
40
0.937499999999998
40
0.937499999999998
40
0.953124999999998
40
0.953124999999998
40
0.968749999999998
40
0.968749999999998
40
0.976562499999999
40
0.976562499999999
40
0.984374999999999
40
0.992187499999999
40
0.992187499999999
40
1
40
1
40
1
40
1
41
1
10
19.925
20
6.45798923814527
30
0
41
1
10
19.925
20
6.39016588209199
30
0
41
1
10
19.9235043504352
20
6.32222086699508
30
0
41
1
10
19.9176538330562
20
6.18609826242945
30
0
41
1
10
19.9133108809558
20
6.11822533679006
30
0
41
1
10
19.9018394034989
20
5.98307727906254
30
0
41
1
10
19.8947111288867
20
5.91576476218316
30
0
41
1
10
19.8774956693868
20
5.7816953984842
30
0
41
1
10
19.8674146797046
20
5.71493738823281
30
0
41
1
10
19.8438057839661
20
5.58206868314332
30
0
41
1
10
19.8302977037578
20
5.51595426509996
30
0
41
1
10
19.8065921577543
20
5.41742929791357
30
0
41
1
10
19.7981103782789
20
5.38469655058566
30
0
41
1
10
19.7796890991648
20
5.31950480922916
30
0
41
1
10
19.7697555814457
20
5.28704469182293
30
0
41
1
10
19.7479112484272
20
5.22249578461501
30
0
41
1
10
19.7360194636743
20
5.19040342096216
30
0
41
1
10
19.7158980436825
20
5.14269375213505
30
0
41
1
10
19.7087848805424
20
5.1268251170587
30
0
41
1
10
19.6936755506546
20
5.09561019459457
30
0
41
1
10
19.6856744703204
20
5.08023782863063
30
0
41
1
10
19.6684295872466
20
5.05014755029791
30
0
41
1
10
19.6591667200254
20
5.03539574316514
30
0
41
1
10
19.6390610184136
20
5.00730433321547
30
0
41
1
10
19.6282196212854
20
4.99390531183471
30
0
41
1
10
19.6099293367446
20
4.975470089092
30
0
41
1
10
19.6034420589207
20
4.96957146721951
30
0
41
1
10
19.5897323463815
20
4.95877978080352
30
0
41
1
10
19.5825351128995
20
4.9538941057792
30
0
41
1
10
19.5710304604238
20
4.94762176270902
30
0
41
1
10
19.5670639726001
20
4.94570638983055
30
0
41
1
10
19.5590334353566
20
4.94237300002581
30
0
41
1
10
19.5508680995477
20
4.93951370564619
30
0
41
1
10
19.5424050582159
20
4.93770146118206
30
0
41
1
10
19.5337761857151
20
4.93647245585254
30
0
41
1
10
19.5293532702919
20
4.93615488006608
30
0
41
1
10
19.5249999999999
20
4.93615488006611
30
0
0
SPLINE
5
1A9
100
AcDbEntity
8
1
62
256
6
ByLayer
370
18
48
1
60
0
100
AcDbSpline
70
4
71
3
72
49
73
45
40
0
40
0
40
0
40
0
40
0.0625000000000001
40
0.0625000000000001
40
0.0937500000000001
40
0.0937500000000001
40
0.125
40
0.125
40
0.25
40
0.25
40
0.3125
40
0.3125
40
0.375
40
0.375
40
0.4375
40
0.4375
40
0.46875
40
0.46875
40
0.484375
40
0.4921875
40
0.494140625
40
0.49462890625
40
0.49462890625
40
0.4951171875
40
0.4951171875
40
0.49609375
40
0.5
40
0.53125
40
0.53125
40
0.5625
40
0.5625
40
0.625
40
0.625
40
0.6875
40
0.6875
40
0.75
40
0.75
40
0.875
40
0.875
40
0.9375
40
0.9375
40
0.96875
40
0.96875
40
1
40
1
40
1
40
1
41
1
10
25.95
20
6.02100489951639
30
0
41
1
10
25.95
20
5.76770063339859
30
0
41
1
10
25.9573091386989
20
5.51415285303423
30
0
41
1
10
25.9760885654708
20
5.13357079081433
30
0
41
1
10
25.9836629174433
20
5.00666630755524
30
0
41
1
10
26.0010163993486
20
4.75278388575509
30
0
41
1
10
26.0107945629328
20
4.6258375048848
30
0
41
1
10
26.0641502025198
20
3.99170333209619
30
0
41
1
10
26.1212400995893
20
3.48567284482576
30
0
41
1
10
26.2101246567675
20
2.7269151587887
30
0
41
1
10
26.2402833500105
20
2.47404295273447
30
0
41
1
10
26.2977864896646
20
1.96804909407038
30
0
41
1
10
26.3251324209415
20
1.71492757307467
30
0
41
1
10
26.3721118813892
20
1.20800092646155
30
0
41
1
10
26.3916826657924
20
0.954190239332632
30
0
41
1
10
26.4113155807765
20
0.572612367349052
30
0
41
1
10
26.4162432179041
20
0.445276446673347
30
0
41
1
10
26.4208871838645
20
0.254029036257094
30
0
41
1
10
26.4225250076063
20
0.158344689187885
30
0
41
1
10
26.4231539886617
20
0.0545851280269574
30
0
41
1
10
26.4232143513281
20
0.0126650638576677
30
0
41
1
10
26.4232171883243
20
0.0026830737639045
30
0
41
1
10
26.4232173999912
20
-0.001309804097275
30
0
41
1
10
26.4232170569493
20
-0.0032269305995953
30
0
41
1
10
26.4232147212882
20
-0.0090724474290766
30
0
41
1
10
26.4231981431456
20
-0.0285569342525775
30
0
41
1
10
26.4227516389842
20
-0.172721170731364
30
0
41
1
10
26.4200278051896
20
-0.312840850124047
30
0
41
1
10
26.4117869596424
20
-0.561722469133088
30
0
41
1
10
26.4059704901141
20
-0.686053468578365
30
0
41
1
10
26.3841200698534
20
-1.05876152467923
30
0
41
1
10
26.3636812993092
20
-1.30685339254322
30
0
41
1
10
26.3159329796162
20
-1.80259228168688
30
0
41
1
10
26.2886695406727
20
-2.05025175864822
30
0
41
1
10
26.2318696817498
20
-2.54534980015956
30
0
41
1
10
26.2023283875797
20
-2.792800416728
30
0
41
1
10
26.1156120062948
20
-3.53531672403949
30
0
41
1
10
26.060372336254
20
-4.03054927918848
30
0
41
1
10
25.998503432443
20
-4.77520784287643
30
0
41
1
10
25.981346359995
20
-5.02372618062421
30
0
41
1
10
25.9631695807355
20
-5.39715538118639
30
0
41
1
10
25.9583745751213
20
-5.52174075188836
30
0
41
1
10
25.9517904841339
20
-5.77117065246884
30
0
41
1
10
25.95
20
-5.89607062020801
30
0
41
1
10
25.95
20
-6.02100489951639
30
0
0
SPLINE
5
1AA
100
AcDbEntity
8
1
62
256
6
ByLayer
370
18
48
1
60
0
100
AcDbSpline
70
4
71
3
72
41
73
37
40
0
40
0
40
0
40
0
40
0.125000000000002
40
0.125000000000002
40
0.250000000000004
40
0.250000000000004
40
0.375000000000006
40
0.375000000000006
40
0.500000000000008
40
0.500000000000008
40
0.562500000000008
40
0.625000000000007
40
0.625000000000007
40
0.687500000000007
40
0.687500000000007
40
0.750000000000006
40
0.750000000000006
40
0.812500000000006
40
0.812500000000006
40
0.843750000000007
40
0.843750000000007
40
0.875000000000007
40
0.875000000000007
40
0.906250000000008
40
0.906250000000008
40
0.937500000000008
40
0.937500000000008
40
0.953125000000008
40
0.953125000000008
40
0.968750000000008
40
0.968750000000008
40
0.976562500000004
40
0.976562500000004
40
0.984375000000001
40
0.984375000000001
40
1
40
1
40
1
40
1
41
1
10
16.075
20
-6.45798923814525
30
0
41
1
10
16.075
20
-6.39010848415427
30
0
41
1
10
16.0764980372846
20
-6.32219379073422
30
0
41
1
10
16.0823362733752
20
-6.18630001207947
30
0
41
1
10
16.0866837049049
20
-6.11825481284973
30
0
41
1
10
16.0982011193283
20
-5.98263428446202
30
0
41
1
10
16.1053679972487
20
-5.91501546938366
30
0
41
1
10
16.122715325639
20
-5.78018755219395
30
0
41
1
10
16.132888884516
20
-5.71297751312989
30
0
41
1
10
16.1508063968242
20
-5.61252371301438
30
0
41
1
10
16.1636433068617
20
-5.54567577225333
30
0
41
1
10
16.1785180797112
20
-5.47910552990172
30
0
41
1
10
16.1945510097815
20
-5.41291530237078
30
0
41
1
10
16.2031491097007
20
-5.37998505135701
30
0
41
1
10
16.2217981312414
20
-5.31453634750417
30
0
41
1
10
16.2318434246396
20
-5.28201629936123
30
0
41
1
10
16.2538889971142
20
-5.21753033819914
30
0
41
1
10
16.2658913509858
20
-5.18552800755825
30
0
41
1
10
16.2859567939785
20
-5.13850710432425
30
0
41
1
10
16.2929963724726
20
-5.12298796660863
30
0
41
1
10
16.3079961080126
20
-5.09235478191638
30
0
41
1
10
16.3159727480877
20
-5.077209070431
30
0
41
1
10
16.3330332123222
20
-5.04778071790102
30
0
41
1
10
16.3421205759003
20
-5.03346735387245
30
0
41
1
10
16.3619530685204
20
-5.00603325759036
30
0
41
1
10
16.3726722039938
20
-4.99289382501013
30
0
41
1
10
16.390880160166
20
-4.97471650606082
30
0
41
1
10
16.3973377589223
20
-4.96890766574469
30
0
41
1
10
16.410872619429
20
-4.95835892916344
30
0
41
1
10
16.4179825473809
20
-4.95357660428968
30
0
41
1
10
16.4293606410605
20
-4.94742772598585
30
0
41
1
10
16.4332915434897
20
-4.94554514337597
30
0
41
1
10
16.4412629624367
20
-4.94226481014476
30
0
41
1
10
16.4453184418299
20
-4.94085699242612
30
0
41
1
10
16.4577171307331
20
-4.93740698432572
30
0
41
1
10
16.4664286097084
20
-4.93615488006614
30
0
41
1
10
16.475
20
-4.93615488006614
30
0
0
SPLINE
5
1AB
100
AcDbEntity
8
1
62
256
6
ByLayer
370
18
48
1
60
0
100
AcDbSpline
70
4
71
3
72
38
73
34
40
0
40
0
40
0
40
0
40
0.0156249999999973
40
0.0156249999999973
40
0.023437499999993
40
0.023437499999993
40
0.0312499999999886
40
0.0312499999999886
40
0.062499999999987
40
0.062499999999987
40
0.0937499999999854
40
0.0937499999999854
40
0.124999999999984
40
0.124999999999984
40
0.187499999999984
40
0.187499999999984
40
0.249999999999984
40
0.249999999999984
40
0.312499999999984
40
0.312499999999984
40
0.374999999999984
40
0.374999999999984
40
0.499999999999987
40
0.499999999999987
40
0.624999999999989
40
0.624999999999989
40
0.749999999999992
40
0.749999999999992
40
0.874999999999995
40
0.874999999999995
40
0.937499999999998
40
0.937499999999998
40
1
40
1
40
1
40
1
41
1
10
16.475
20
4.93615488006608
30
0
41
1
10
16.4662677997247
20
4.93615488006608
30
0
41
1
10
16.4576551555328
20
4.93741180639407
30
0
41
1
10
16.4451431753999
20
4.94091212765318
30
0
41
1
10
16.4409996739762
20
4.9423605768522
30
0
41
1
10
16.4329625575964
20
4.94569406703596
30
0
41
1
10
16.4290684616971
20
4.94757400364281
30
0
41
1
10
16.4101229122702
20
4.95787283963483
30
0
41
1
10
16.3965002929006
20
4.96904294203873
30
0
41
1
10
16.3722018828048
20
4.99342866818355
30
0
41
1
10
16.3613426833073
20
5.00678586784122
30
0
41
1
10
16.3411638808849
20
5.0348898802597
30
0
41
1
10
16.3319834308782
20
5.04948342148646
30
0
41
1
10
16.3063810080791
20
5.09399184067428
30
0
41
1
10
16.2917421925719
20
5.12478703861092
30
0
41
1
10
16.2650858667267
20
5.18758902237073
30
0
41
1
10
16.2531239827211
20
5.21962151912265
30
0
41
1
10
16.2310361406099
20
5.28453509203163
30
0
41
1
10
16.2209796405487
20
5.31725795591314
30
0
41
1
10
16.2023827238095
20
5.3828389807928
30
0
41
1
10
16.1938322413572
20
5.41574652566459
30
0
41
1
10
16.1699551104302
20
5.51474677960161
30
0
41
1
10
16.1563777432056
20
5.58111319084645
30
0
41
1
10
16.1326698199417
20
5.71438532039952
30
0
41
1
10
16.1225603190399
20
5.78129433311054
30
0
41
1
10
16.1053085595442
20
5.9155766296079
30
0
41
1
10
16.098172833462
20
5.98295093550701
30
0
41
1
10
16.0866951344634
20
6.11813667331376
30
0
41
1
10
16.0823551105331
20
6.18594841017051
30
0
41
1
10
16.0779653041172
20
6.28799775823845
30
0
41
1
10
16.0768577499397
20
6.32207052178038
30
0
41
1
10
16.0753758654545
20
6.39008395845991
30
0
41
1
10
16.075
20
6.42405497614087
30
0
41
1
10
16.075
20
6.45798923814527
30
0
0
SPLINE
5
1AC
100
AcDbEntity
8
1
62
256
6
ByLayer
370
18
48
1
60
0
100
AcDbSpline
70
4
71
3
72
32
73
28
40
0
40
0
40
0
40
0
40
0.124999999999998
40
0.124999999999998
40
0.249999999999996
40
0.249999999999996
40
0.281249999999998
40
0.281249999999998
40
0.3125
40
0.3125
40
0.375000000000005
40
0.375000000000005
40
0.50000000000001
40
0.50000000000001
40
0.562500000000012
40
0.562500000000012
40
0.593750000000012
40
0.593750000000012
40
0.625000000000013
40
0.625000000000013
40
0.750000000000008
40
0.750000000000008
40
0.875000000000003
40
0.875000000000003
40
0.937500000000001
40
0.937500000000001
40
1
40
1
40
1
40
1
41
1
10
16.475
20
17.8472930883975
30
0
41
1
10
16.4377672832972
20
17.8841099902182
30
0
41
1
10
16.4054458833557
20
17.9256782680712
30
0
41
1
10
16.3497371720989
20
18.0131907026623
30
0
41
1
10
16.3263589167108
20
18.059202427426
30
0
41
1
10
16.3026811740162
20
18.1172075974497
30
0
41
1
10
16.2982246045873
20
18.1288343884752
30
0
41
1
10
16.2898751420379
20
18.1520851250195
30
0
41
1
10
16.2859775793509
20
18.1637262666942
30
0
41
1
10
16.2752117588022
20
18.1983326925354
30
0
41
1
10
16.2692455251206
20
18.2210347667459
30
0
41
1
10
16.2549085852675
20
18.2874845747593
30
0
41
1
10
16.2500844806922
20
18.3294980487938
30
0
41
1
10
16.249959402438
20
18.3879945003796
30
0
41
1
10
16.2511067668278
20
18.4067578335244
30
0
41
1
10
16.2546467904935
20
18.4338471301626
30
0
41
1
10
16.256130194161
20
18.4427023104675
30
0
41
1
10
16.2597125439933
20
18.4600871844315
30
0
41
1
10
16.2618166882445
20
18.4686316421885
30
0
41
1
10
16.2738019113445
20
18.5103053895726
30
0
41
1
10
16.2880676368737
20
18.5404654048872
30
0
41
1
10
16.3256687387973
20
18.5982603900796
30
0
41
1
10
16.3490025045264
20
18.6258897574495
30
0
41
1
10
16.3911542178583
20
18.6686875139787
30
0
41
1
10
16.4063682887008
20
18.6831456542456
30
0
41
1
10
16.4389871484495
20
18.712895839337
30
0
41
1
10
16.4564157579734
20
18.7282090985044
30
0
41
1
10
16.4749999999985
20
18.7443335005346
30
0
0
SPLINE
5
1AD
100
AcDbEntity
8
1
62
256
6
ByLayer
370
18
48
1
60
0
100
AcDbSpline
70
4
71
3
72
32
73
28
40
0
40
0
40
0
40
0
40
0.124999999999999
40
0.124999999999999
40
0.249999999999997
40
0.249999999999997
40
0.281249999999996
40
0.281249999999996
40
0.312499999999995
40
0.312499999999995
40
0.374999999999995
40
0.374999999999995
40
0.499999999999996
40
0.499999999999996
40
0.562499999999998
40
0.562499999999998
40
0.593749999999997
40
0.593749999999997
40
0.624999999999997
40
0.624999999999997
40
0.749999999999998
40
0.749999999999998
40
0.874999999999999
40
0.874999999999999
40
0.9375
40
0.9375
40
1
40
1
40
1
40
1
41
1
10
16.475
20
20.6645620078919
30
0
41
1
10
16.4377672832972
20
20.6825762763205
30
0
41
1
10
16.4054458833557
20
20.7055503015506
30
0
41
1
10
16.3497371720989
20
20.7554148490783
30
0
41
1
10
16.3263589167108
20
20.7823848781921
30
0
41
1
10
16.3026811740162
20
20.8158655458003
30
0
41
1
10
16.2982246045873
20
20.8225513043853
30
0
41
1
10
16.2898751420379
20
20.8358361871174
30
0
41
1
10
16.2859775793509
20
20.8424448301431
30
0
41
1
10
16.2752117588023
20
20.8619133159659
30
0
41
1
10
16.2692455251206
20
20.8744452324273
30
0
41
1
10
16.2549085852675
20
20.9100665162477
30
0
41
1
10
16.2500844806922
20
20.9310918455836
30
0
41
1
10
16.249959402438
20
20.9572836126185
30
0
41
1
10
16.2511067668278
20
20.9651444181083
30
0
41
1
10
16.2546467904935
20
20.975685172348
30
0
41
1
10
16.256130194161
20
20.9789919196256
30
0
41
1
10
16.2597125439933
20
20.9852189180294
30
0
41
1
10
16.2618166882445
20
20.9881436882503
30
0
41
1
10
16.2738019113445
20
21.0017962971033
30
0
41
1
10
16.2880676368737
20
21.009661260944
30
0
41
1
10
16.3256687387973
20
21.0234289087932
30
0
41
1
10
16.3490025045264
20
21.0293253474657
30
0
41
1
10
16.3911542178583
20
21.0402675065528
30
0
41
1
10
16.4063682887008
20
21.0442625984731
30
0
41
1
10
16.4389871484495
20
21.0535900863628
30
0
41
1
10
16.4564157579735
20
21.0589246229667
30
0
41
1
10
16.4749999999985
20
21.0653476550605
30
0
0
SPLINE
5
1AE
100
AcDbEntity
8
1
62
256
6
ByLayer
370
18
48
1
60
0
100
AcDbSpline
70
4
71
3
72
52
73
48
40
0
40
0
40
0
40
0
40
0.0624999999999987
40
0.0624999999999987
40
0.124999999999998
40
0.124999999999998
40
0.156249999999996
40
0.156249999999996
40
0.171874999999995
40
0.171874999999995
40
0.187499999999994
40
0.187499999999994
40
0.249999999999991
40
0.312499999999987
40
0.312499999999987
40
0.328124999999986
40
0.328124999999986
40
0.343749999999985
40
0.374999999999984
40
0.374999999999984
40
0.437499999999978
40
0.437499999999978
40
0.468749999999976
40
0.468749999999976
40
0.484374999999977
40
0.484374999999977
40
0.499999999999977
40
0.499999999999977
40
0.562499999999983
40
0.624999999999988
40
0.624999999999988
40
0.656249999999989
40
0.656249999999989
40
0.68749999999999
40
0.68749999999999
40
0.749999999999993
40
0.749999999999993
40
0.781249999999995
40
0.781249999999995
40
0.812499999999996
40
0.812499999999996
40
0.874999999999998
40
0.9375
40
0.9375
40
0.96875
40
0.96875
40
1
40
1
40
1
40
1
41
1
10
19.525
20
17.8472930883974
30
0
41
1
10
19.4868104054562
20
17.8095299951449
30
0
41
1
10
19.4445502520006
20
17.7733361212557
30
0
41
1
10
19.352215822846
20
17.7040830393177
30
0
41
1
10
19.3021405251884
20
17.6710238689347
30
0
41
1
10
19.2210949258721
20
17.6239147806911
30
0
41
1
10
19.193087795318
20
17.608626377194
30
0
41
1
10
19.1495500203492
20
17.5863451421785
30
0
41
1
10
19.1348046812939
20
17.5790389072942
30
0
41
1
10
19.1050206978809
20
17.5647515948317
30
0
41
1
10
19.0899580941142
20
17.5577581323308
30
0
41
1
10
19.0138024594151
20
17.5235377486973
30
0
41
1
10
18.8865823280216
20
17.4735477685477
30
0
41
1
10
18.7487926284898
20
17.4331742434589
30
0
41
1
10
18.6592480030636
20
17.4111264809291
30
0
41
1
10
18.6411492025713
20
17.4068735985782
30
0
41
1
10
18.6048739885988
20
17.3987529457357
30
0
41
1
10
18.5502519137071
20
17.3871257865386
30
0
41
1
10
18.4950110026616
20
17.3771427522904
30
0
41
1
10
18.3837172687539
20
17.3593477508753
30
0
41
1
10
18.3084423617038
20
17.3503708188288
30
0
41
1
10
18.1938999599298
20
17.3413042501134
30
0
41
1
10
18.1554466259752
20
17.3390172641501
30
0
41
1
10
18.0973482218919
20
17.3367180406265
30
0
41
1
10
18.0778753897185
20
17.3361398738039
30
0
41
1
10
18.0390215217699
20
17.3353709908712
30
0
41
1
10
18.0196350308375
20
17.3351791558846
30
0
41
1
10
17.9229019616442
20
17.3351697145129
30
0
41
1
10
17.7693998960767
20
17.3412107188975
30
0
41
1
10
17.6183813435483
20
17.3590522213209
30
0
41
1
10
17.5060760988353
20
17.3769494878113
30
0
41
1
10
17.4687474239673
20
17.3836873144214
30
0
41
1
10
17.3955152887593
20
17.3984701308194
30
0
41
1
10
17.3594751219625
20
17.406533985119
30
0
41
1
10
17.2530484623046
20
17.4326867123512
30
0
41
1
10
17.1843486064406
20
17.452729167186
30
0
41
1
10
17.0846750161424
20
17.4866233517678
30
0
41
1
10
17.0520149847314
20
17.4985617399181
30
0
41
1
10
16.9878463108744
20
17.5237292379595
30
0
41
1
10
16.9562565780677
20
17.5369999704377
30
0
41
1
10
16.8645581624118
20
17.5781797124028
30
0
41
1
10
16.7496782254065
20
17.6369872274412
30
0
41
1
10
16.6491576605513
20
17.7031166133376
30
0
41
1
10
16.5792861112191
20
17.7554273804082
30
0
41
1
10
16.5568714994097
20
17.7733611823703
30
0
41
1
10
16.5142891472882
20
17.809846250183
30
0
41
1
10
16.4940946751969
20
17.8284116624829
30
0
41
1
10
16.475
20
17.8472930883975
30
0
0
SPLINE
5
1AF
100
AcDbEntity
8
1
62
256
6
ByLayer
370
18
48
1
60
0
100
AcDbSpline
70
4
71
3
72
8
73
4
40
0
40
0
40
0
40
0
40
1
40
1
40
1
40
1
41
1
10
60
20
5.31449999999995
30
0
41
1
10
59.9997896559142
20
5.31428965591414
30
0
41
1
10
59.9995793102152
20
5.31407931021516
30
0
41
1
10
59.9993689629031
20
5.31386896290309
30
0
0
SPLINE
5
1B0
100
AcDbEntity
8
1
62
256
6
ByLayer
370
18
48
1
60
0
100
AcDbSpline
70
4
71
3
72
8
73
4
40
0
40
0
40
0
40
0
40
1
40
1
40
1
40
1
41
1
10
59.9993689629032
20
-5.3138689629032
30
0
41
1
10
59.9995793102152
20
-5.31407931021528
30
0
41
1
10
59.9997896559142
20
-5.31428965591425
30
0
41
1
10
60
20
-5.31450000000007
30
0
0
SPLINE
5
1B1
100
AcDbEntity
8
1
62
256
6
ByLayer
370
18
48
1
60
0
100
AcDbSpline
70
4
71
3
72
8
73
4
40
0
40
0
40
0
40
0
40
1
40
1
40
1
40
1
41
1
10
59.3742455839334
20
-5.01450000000006
30
0
41
1
10
59.4151624694725
20
-5.11332472306574
30
0
41
1
10
59.4560787261783
20
-5.2121164717465
30
0
41
1
10
59.4969943632586
20
-5.31087548501361
30
0
0
SPLINE
5
1B2
100
AcDbEntity
8
1
62
256
6
ByLayer
370
18
48
1
60
0
100
AcDbSpline
70
4
71
3
72
8
73
4
40
0
40
0
40
0
40
0
40
1
40
1
40
1
40
1
41
1
10
59.4999999985596
20
-5.31300373052946
30
0
41
1
10
59.666503493561
20
-5.31328617428471
30
0
41
1
10
59.832961729503
20
-5.31357446252301
30
0
41
1
10
59.9993689620136
20
-5.31386896222205
30
0
0
SPLINE
5
1B3
100
AcDbEntity
8
1
62
256
6
ByLayer
370
18
48
1
60
0
100
AcDbSpline
70
4
71
1
72
4
73
2
40
0
40
0
40
1
40
1
41
1
10
59.7000000001267
20
-5.01450000012682
30
0
41
1
10
59.9993689622223
20
-5.31386896222241
30
0
0
SPLINE
5
1B4
100
AcDbEntity
8
1
62
256
6
ByLayer
370
18
48
1
60
0
100
AcDbSpline
70
4
71
3
72
8
73
4
40
0
40
0
40
0
40
0
40
1
40
1
40
1
40
1
41
1
10
59.7000000000494
20
-5.01450000000006
30
0
41
1
10
59.5914357933434
20
-5.01450000000006
30
0
41
1
10
59.4828504564996
20
-5.01450000000006
30
0
41
1
10
59.3742455839334
20
-5.01450000000006
30
0
0
SPLINE
5
1B5
100
AcDbEntity
8
1
62
256
6
ByLayer
370
18
48
1
60
0
100
AcDbSpline
70
4
71
1
72
4
73
2
40
0
40
0
40
1
40
1
41
1
10
59.9993689622223
20
5.3138689622223
30
0
41
1
10
59.7000000001268
20
5.0145000001267
30
0
0
SPLINE
5
1B6
100
AcDbEntity
8
1
62
256
6
ByLayer
370
18
48
1
60
0
100
AcDbSpline
70
4
71
3
72
8
73
4
40
0
40
0
40
0
40
0
40
1
40
1
40
1
40
1
41
1
10
59.9993689622223
20
5.3138689622223
30
0
41
1
10
59.8329617293905
20
5.31357446252272
30
0
41
1
10
59.666503493127
20
5.31328617428383
30
0
41
1
10
59.499999997804
20
5.31300373052804
30
0
0
SPLINE
5
1B7
100
AcDbEntity
8
1
62
256
6
ByLayer
370
18
48
1
60
0
100
AcDbSpline
70
4
71
3
72
8
73
4
40
0
40
0
40
0
40
0
40
1
40
1
40
1
40
1
41
1
10
59.4969943632586
20
5.31087548501347
30
0
41
1
10
59.4560787261783
20
5.21211647174638
30
0
41
1
10
59.4151624694725
20
5.11332472306563
30
0
41
1
10
59.3742455839334
20
5.01449999999994
30
0
0
SPLINE
5
1B8
100
AcDbEntity
8
1
62
256
6
ByLayer
370
18
48
1
60
0
100
AcDbSpline
70
4
71
3
72
8
73
4
40
0
40
0
40
0
40
0
40
1
40
1
40
1
40
1
41
1
10
59.3742455839334
20
5.01449999999994
30
0
41
1
10
59.4828504562614
20
5.01449999999994
30
0
41
1
10
59.5914357928671
20
5.01449999999994
30
0
41
1
10
59.6999999993352
20
5.01449999999994
30
0
0
SPLINE
5
1B9
100
AcDbEntity
8
1
62
256
6
ByLayer
370
18
48
1
60
0
100
AcDbSpline
70
4
71
3
72
8
73
4
40
0
40
0
40
0
40
0
40
1
40
1
40
1
40
1
41
1
10
14.6225009252407
20
-7.01749999999998
30
0
41
1
10
15.1084706372476
20
-7.01749999999998
30
0
41
1
10
15.592843750771
20
-7.01749999999998
30
0
41
1
10
16.075
20
-7.01749999999998
30
0
0
SPLINE
5
1BA
100
AcDbEntity
8
1
62
256
6
ByLayer
370
18
48
1
60
0
100
AcDbSpline
70
4
71
3
72
8
73
4
40
0
40
0
40
0
40
0
40
1
40
1
40
1
40
1
41
1
10
25.95
20
7.01750000000001
30
0
41
1
10
25.7834114491355
20
7.01750000000001
30
0
41
1
10
25.6167431539658
20
7.01750000000001
30
0
41
1
10
25.45
20
7.01750000000001
30
0
0
SPLINE
5
1BB
100
AcDbEntity
8
1
62
256
6
ByLayer
370
18
48
1
60
0
100
AcDbSpline
70
4
71
3
72
8
73
4
40
0
40
0
40
0
40
0
40
1
40
1
40
1
40
1
41
1
10
21.3774990747593
20
7.01750000000001
30
0
41
1
10
20.8915293627524
20
7.01750000000001
30
0
41
1
10
20.407156249229
20
7.01750000000001
30
0
41
1
10
19.925
20
7.01750000000001
30
0
0
SPLINE
5
1BC
100
AcDbEntity
8
1
62
256
6
ByLayer
370
18
48
1
60
0
100
AcDbSpline
70
4
71
3
72
8
73
4
40
0
40
0
40
0
40
0
40
1
40
1
40
1
40
1
41
1
10
16.075
20
7.01750000000001
30
0
41
1
10
15.592843750771
20
7.01750000000001
30
0
41
1
10
15.1084706372476
20
7.01750000000001
30
0
41
1
10
14.6225009252407
20
7.01750000000001
30
0
0
SPLINE
5
1BD
100
AcDbEntity
8
1
62
256
6
ByLayer
370
18
48
1
60
0
100
AcDbSpline
70
4
71
3
72
8
73
4
40
0
40
0
40
0
40
0
40
1
40
1
40
1
40
1
41
1
10
25.45
20
-7.01750000000001
30
0
41
1
10
25.6167431539658
20
-7.01750000000001
30
0
41
1
10
25.7834114491355
20
-7.01750000000001
30
0
41
1
10
25.95
20
-7.01750000000001
30
0
0
SPLINE
5
1BE
100
AcDbEntity
8
1
62
256
6
ByLayer
370
18
48
1
60
0
100
AcDbSpline
70
4
71
3
72
8
73
4
40
0
40
0
40
0
40
0
40
1
40
1
40
1
40
1
41
1
10
19.925
20
-7.01749999999998
30
0
41
1
10
20.407156249229
20
-7.01749999999998
30
0
41
1
10
20.8915293627524
20
-7.01750000000001
30
0
41
1
10
21.3774990747593
20
-7.01750000000001
30
0
0
SPLINE
5
1BF
100
AcDbEntity
8
1
62
256
6
ByLayer
370
18
48
1
60
0
100
AcDbSpline
70
4
71
3
72
8
73
4
40
0
40
0
40
0
40
0
40
1
40
1
40
1
40
1
41
1
10
54.7
20
5.3108754850135
30
0
41
1
10
54.798642899666
20
5.21223258534752
30
0
41
1
10
54.8970447387729
20
5.11344307044098
30
0
41
1
10
54.9951941062891
20
5.01449999999994
30
0
0
SPLINE
5
1C0
100
AcDbEntity
8
1
62
256
6
ByLayer
370
18
48
1
60
0
100
AcDbSpline
70
4
71
3
72
8
73
4
40
0
40
0
40
0
40
0
40
1
40
1
40
1
40
1
41
1
10
54.9951941062891
20
-5.01450000000006
30
0
41
1
10
54.8970447387729
20
-5.11344307044109
30
0
41
1
10
54.798642899666
20
-5.21223258534763
30
0
41
1
10
54.7
20
-5.31087548501358
30
0
0
SPLINE
5
1C1
100
AcDbEntity
8
1
62
256
6
ByLayer
370
18
48
1
60
0
100
AcDbSpline
70
4
71
3
72
8
73
4
40
0
40
0
40
0
40
0
40
1
40
1
40
1
40
1
41
1
10
59.4999999978035
20
5.31300373052804
30
0
41
1
10
59.4989981201498
20
5.31229430841978
30
0
41
1
10
59.4979962419681
20
5.31158489324875
30
0
41
1
10
59.4969943632586
20
5.3108754850135
30
0
0
SPLINE
5
1C2
100
AcDbEntity
8
1
62
256
6
ByLayer
370
18
48
1
60
0
100
AcDbSpline
70
4
71
3
72
8
73
4
40
0
40
0
40
0
40
0
40
1
40
1
40
1
40
1
41
1
10
59.4969943632586
20
-5.31087548501361
30
0
41
1
10
59.4979962419681
20
-5.31158489324886
30
0
41
1
10
59.4989981201498
20
-5.31229430841989
30
0
41
1
10
59.4999999978035
20
-5.31300373052815
30
0
0
SPLINE
5
1C3
100
AcDbEntity
8
1
62
256
6
ByLayer
370
18
48
1
60
0
100
AcDbSpline
70
4
71
3
72
94
73
90
40
0
40
0
40
0
40
0
40
0.030994671960553
40
0.030994671960553
40
0.0622529083489225
40
0.0622529083489225
40
0.0700674674460148
40
0.0700674674460148
40
0.0778820265431072
40
0.0935111447372919
40
0.0935111447372919
40
0.124769381125661
40
0.156027617514031
40
0.156027617514031
40
0.171656735708215
40
0.171656735708215
40
0.1872858539024
40
0.1872858539024
40
0.218544090290769
40
0.249802326679139
40
0.249802326679139
40
0.265431444873324
40
0.273246003970416
40
0.273246003970416
40
0.281060563067508
40
0.281060563067508
40
0.312318799455877
40
0.312318799455877
40
0.343577035844247
40
0.343577035844247
40
0.374835272232616
40
0.374835272232616
40
0.382649831329708
40
0.382649831329708
40
0.3904643904268
40
0.3904643904268
40
0.406093508620985
40
0.406093508620985
40
0.437351745009354
40
0.468609981397723
40
0.468609981397723
40
0.484239099591908
40
0.484239099591908
40
0.492053658689
40
0.492053658689
40
0.499868217786092
40
0.499868217786092
40
0.531126454174461
40
0.531126454174461
40
0.562384690562831
40
0.562384690562831
40
0.5936429269512
40
0.5936429269512
40
0.601457486048292
40
0.601457486048292
40
0.609272045145384
40
0.624901163339569
40
0.624901163339569
40
0.656159399727937
40
0.687417636116306
40
0.687417636116306
40
0.703046754310491
40
0.703046754310491
40
0.710861313407583
40
0.710861313407583
40
0.718675872504675
40
0.718675872504675
40
0.749934108893044
40
0.781192345281414
40
0.781192345281414
40
0.796821463475598
40
0.804636022572691
40
0.804636022572691
40
0.812450581669783
40
0.812450581669783
40
0.843708818058153
40
0.843708818058153
40
0.874967054446522
40
0.906225290834892
40
0.906225290834892
40
0.914039849931984
40
0.914039849931984
40
0.921854409029077
40
0.921854409029077
40
0.937483527223261
40
0.937483527223261
40
0.968741763611631
40
0.968741763611631
40
1
40
1
40
1
40
1
41
1
10
1.97750044066541
20
-24.9749999106016
30
0
41
1
10
1.97756860124783
20
-24.9749861427962
30
0
41
1
10
1.98552626333206
20
-24.9733823138896
30
0
41
1
10
2.01737786158519
20
-24.9670061599513
30
0
41
1
10
2.04140546618204
20
-24.9622069363092
30
0
41
1
10
2.08179522914836
20
-24.9542339936016
30
0
41
1
10
2.0904037963482
20
-24.9525384338413
30
0
41
1
10
2.108572112936
20
-24.9489700076953
30
0
41
1
10
2.13727255753436
20
-24.9433474086832
30
0
41
1
10
2.17026275235803
20
-24.9369391088254
30
0
41
1
10
2.24186669443382
20
-24.9231369864944
30
0
41
1
10
2.35230795709136
20
-24.9021070820102
30
0
41
1
10
2.49234214162105
20
-24.8764602633815
30
0
41
1
10
2.60866534894293
20
-24.8557334039236
30
0
41
1
10
2.64933468582056
20
-24.8485743885821
30
0
41
1
10
2.73448874681537
20
-24.8338065290027
30
0
41
1
10
2.77863687950642
20
-24.826256205876
30
0
41
1
10
2.91569549505321
20
-24.8031963556728
30
0
41
1
10
3.110721784028
20
-24.7713610778004
30
0
41
1
10
3.329841001863
20
-24.7382717294981
30
0
41
1
10
3.50331095303841
20
-24.7133299785027
30
0
41
1
10
3.59233236926114
20
-24.7008279706268
30
0
41
1
10
3.68484216481832
20
-24.6883460818096
30
0
41
1
10
3.74729943196267
20
-24.6800369077591
30
0
41
1
10
3.77896282735959
20
-24.6758829224288
30
0
41
1
10
3.93851136587799
20
-24.6552593161973
30
0
41
1
10
4.07033234495189
20
-24.6391932178007
30
0
41
1
10
4.34211617344344
20
-24.608357041675
30
0
41
1
10
4.48207964471616
20
-24.5935862779447
30
0
41
1
10
4.77017124160474
20
-24.5657627479165
30
0
41
1
10
4.91829881115855
20
-24.5527093019582
30
0
41
1
10
5.10872583605837
20
-24.537738183877
30
0
41
1
10
5.14707524499158
20
-24.534811305547
30
0
41
1
10
5.22430880080894
20
-24.5290993492619
30
0
41
1
10
5.26322148864541
20
-24.5263125544415
30
0
41
1
10
5.38011011669526
20
-24.5182201365971
30
0
41
1
10
5.45843882722988
20
-24.5131669528011
30
0
41
1
10
5.69461377218997
20
-24.4990703860327
30
0
41
1
10
6.0126783937005
20
-24.4831101832722
30
0
41
1
10
6.336997233532
20
-24.473207576813
30
0
41
1
10
6.58261957638805
20
-24.468196185822
30
0
41
1
10
6.66489157605541
20
-24.4669283234727
30
0
41
1
10
6.78890763106347
20
-24.4656487760546
30
0
41
1
10
6.83034770567052
20
-24.4653259717255
30
0
41
1
10
6.91343309565035
20
-24.4648909016726
30
0
41
1
10
6.95501688024264
20
-24.4647792481366
30
0
41
1
10
7.16229513808597
20
-24.4647493615951
30
0
41
1
10
7.32686935342517
20
-24.4664113683309
30
0
41
1
10
7.65359732342098
20
-24.4729571390825
30
0
41
1
10
7.81575089804956
20
-24.4778411146813
30
0
41
1
10
8.13764443544437
20
-24.4906817171228
30
0
41
1
10
8.29738455019373
20
-24.4986385533305
30
0
41
1
10
8.49551294521184
20
-24.5104082598781
30
0
41
1
10
8.53511621222333
20
-24.5128569739183
30
0
41
1
10
8.61385397468588
20
-24.5179138367878
30
0
41
1
10
8.7312263012975
20
-24.5257353580082
30
0
41
1
10
8.84642578033869
20
-24.5342350319323
30
0
41
1
10
9.07398351685551
20
-24.5520600589311
30
0
41
1
10
9.3698306930946
20
-24.5780273497577
30
0
41
1
10
9.65080684939646
20
-24.6075891036933
30
0
41
1
10
9.85589469049347
20
-24.6308067200719
30
0
41
1
10
9.92331489905496
20
-24.6387202717171
30
0
41
1
10
10.0230070083505
20
-24.6508134164424
30
0
41
1
10
10.0559393334021
20
-24.6548746229367
30
0
41
1
10
10.1209895156361
20
-24.6630219766354
30
0
41
1
10
10.1531415403398
20
-24.667112254909
30
0
41
1
10
10.3120567648819
20
-24.6876273774874
30
0
41
1
10
10.5545423955077
20
-24.7208568484757
30
0
41
1
10
10.7740497433438
20
-24.7539496482059
30
0
41
1
10
10.9300212133504
20
-24.7783685647392
30
0
41
1
10
11.0058385703297
20
-24.7904778703892
30
0
41
1
10
11.0783569921542
20
-24.8023701173097
30
0
41
1
10
11.1259621564172
20
-24.8102424695277
30
0
41
1
10
11.1494148124644
20
-24.8141541571373
30
0
41
1
10
11.2645773213796
20
-24.8335154670541
30
0
41
1
10
11.349196990713
20
-24.8482361301193
30
0
41
1
10
11.5039113444094
20
-24.8757822331769
30
0
41
1
10
11.6440972241979
20
-24.9014337604239
30
0
41
1
10
11.7553367333272
20
-24.922602388328
30
0
41
1
10
11.8155785161532
20
-24.9342089391427
30
0
41
1
10
11.8271616215592
20
-24.9364490100091
30
0
41
1
10
11.8493868226947
20
-24.9407608637799
30
0
41
1
10
11.8600412059609
20
-24.9428350492999
30
0
41
1
10
11.8904730045369
20
-24.9487765040671
30
0
41
1
10
11.9087083717188
20
-24.9523602908579
30
0
41
1
10
11.9573396551244
20
-24.9619575560703
30
0
41
1
10
11.9816753335343
20
-24.9668170408067
30
0
41
1
10
12.0142551347001
20
-24.9733381544446
30
0
41
1
10
12.0225078430698
20
-24.9750015808407
30
0
41
1
10
12.0225015318489
20
-24.9750003087614
30
0
0
SPLINE
5
1C4
100
AcDbEntity
8
1
62
256
6
ByLayer
370
18
48
1
60
0
100
AcDbSpline
70
2053
71
3
72
137
73
133
40
0
40
0
40
0
40
0
40
0.0312500000000029
40
0.0312500000000029
40
0.0468750000000041
40
0.0468750000000041
40
0.0546875000000045
40
0.0546875000000045
40
0.0625000000000048
40
0.0625000000000048
40
0.093750000000005
40
0.093750000000005
40
0.101562500000005
40
0.101562500000005
40
0.109375000000005
40
0.109375000000005
40
0.125000000000005
40
0.125000000000005
40
0.156250000000005
40
0.156250000000005
40
0.164062500000005
40
0.164062500000005
40
0.171875000000005
40
0.171875000000005
40
0.187500000000005
40
0.203125000000005
40
0.203125000000005
40
0.210937500000005
40
0.210937500000005
40
0.218750000000005
40
0.218750000000005
40
0.250000000000004
40
0.250000000000004
40
0.265625000000004
40
0.265625000000004
40
0.273437500000004
40
0.273437500000004
40
0.281250000000004
40
0.281250000000004
40
0.312500000000003
40
0.312500000000003
40
0.320312500000002
40
0.320312500000002
40
0.328125000000002
40
0.328125000000002
40
0.343750000000002
40
0.343750000000002
40
0.375000000000001
40
0.375000000000001
40
0.3828125
40
0.3828125
40
0.390625
40
0.390625
40
0.40625
40
0.421874999999999
40
0.421874999999999
40
0.429687499999999
40
0.429687499999999
40
0.437499999999999
40
0.437499999999999
40
0.468749999999998
40
0.468749999999998
40
0.476562499999997
40
0.476562499999997
40
0.484374999999997
40
0.484374999999997
40
0.499999999999997
40
0.499999999999997
40
0.531249999999996
40
0.531249999999996
40
0.539062499999996
40
0.539062499999996
40
0.546874999999996
40
0.546874999999996
40
0.562499999999996
40
0.578124999999996
40
0.578124999999996
40
0.585937499999996
40
0.585937499999996
40
0.593749999999996
40
0.593749999999996
40
0.624999999999996
40
0.624999999999996
40
0.640624999999996
40
0.640624999999996
40
0.648437499999996
40
0.648437499999996
40
0.656249999999996
40
0.656249999999996
40
0.687499999999996
40
0.687499999999996
40
0.695312499999996
40
0.695312499999996
40
0.703124999999996
40
0.703124999999996
40
0.718749999999997
40
0.718749999999997
40
0.749999999999997
40
0.749999999999997
40
0.757812499999997
40
0.757812499999997
40
0.765624999999997
40
0.765624999999997
40
0.781249999999997
40
0.796874999999997
40
0.796874999999997
40
0.804687499999997
40
0.804687499999997
40
0.812499999999997
40
0.812499999999997
40
0.843749999999997
40
0.843749999999997
40
0.851562499999998
40
0.851562499999998
40
0.859374999999998
40
0.859374999999998
40
0.874999999999998
40
0.874999999999998
40
0.906249999999999
40
0.906249999999999
40
0.914062499999999
40
0.914062499999999
40
0.921874999999999
40
0.921874999999999
40
0.937499999999999
40
0.953124999999999
40
0.953124999999999
40
0.960937499999999
40
0.960937499999999
40
0.968749999999999
40
0.968749999999999
40
1
40
1
40
1
40
1
41
1
10
7.5
20
24.9713319763564
30
0
41
1
10
7.61565140529309
20
24.9713319763563
30
0
41
1
10
7.72936309469512
20
24.971144293573
30
0
41
1
10
7.89714168106582
20
24.9705262575007
30
0
41
1
10
7.95259960487498
20
24.9702624953412
30
0
41
1
10
8.03506837244878
20
24.9697575589408
30
0
41
1
10
8.06248810750927
20
24.9695705282698
30
0
41
1
10
8.11685620783003
20
24.9691562609777
30
0
41
1
10
8.14368906602486
20
24.9689299743622
30
0
41
1
10
8.27613354081166
20
24.9676924771814
30
0
41
1
10
8.37663471201877
20
24.9663703409255
30
0
41
1
10
8.49551140039041
20
24.9640682938833
30
0
41
1
10
8.51894620481268
20
24.9635749403461
30
0
41
1
10
8.56512402153695
20
24.9625143936584
30
0
41
1
10
8.58792727241527
20
24.9619455042307
30
0
41
1
10
8.65478539008316
20
24.9601282576952
30
0
41
1
10
8.69721021491542
20
24.9587730427622
30
0
41
1
10
8.81824410371428
20
24.9542041966302
30
0
41
1
10
8.89067198212568
20
24.9504928349058
30
0
41
1
10
8.9706298948678
20
24.944716212026
30
0
41
1
10
8.98612618580493
20
24.9435000104131
30
0
41
1
10
9.01574954297314
20
24.9409680784046
30
0
41
1
10
9.029897107366
20
24.9396514494606
30
0
41
1
10
9.07038370992646
20
24.935543117586
30
0
41
1
10
9.11915891478782
20
24.9296427178268
30
0
41
1
10
9.15767201711026
20
24.9228222970621
30
0
41
1
10
9.18265367388715
20
24.9173296461994
30
0
41
1
10
9.19032920841148
20
24.9154358257755
30
0
41
1
10
9.20435311978797
20
24.9115162366619
30
0
41
1
10
9.21070911754408
20
24.9094861968992
30
0
41
1
10
9.23881317622426
20
24.8991046203312
30
0
41
1
10
9.24993825761604
20
24.8899906370376
30
0
41
1
10
9.25003049046379
20
24.8750717527207
30
0
41
1
10
9.24727544299641
20
24.8698907310973
30
0
41
1
10
9.23883529948387
20
24.8618017470769
30
0
41
1
10
9.23529660442476
20
24.8590516084565
30
0
41
1
10
9.22685852141183
20
24.8535086050879
30
0
41
1
10
9.22195259071307
20
24.850708202469
30
0
41
1
10
9.19404526679845
20
24.836570099057
30
0
41
1
10
9.16100738695425
20
24.8248217313427
30
0
41
1
10
9.10623987021943
20
24.8097441367602
30
0
41
1
10
9.09460680176889
20
24.8067091766833
30
0
41
1
10
9.06995439592433
20
24.8006050411452
30
0
41
1
10
9.05696420522726
20
24.7975439421885
30
0
41
1
10
9.01634041058021
20
24.7884164677486
30
0
41
1
10
8.9869422776065
20
24.7823766883025
30
0
41
1
10
8.89196368011302
20
24.7644645865474
30
0
41
1
10
8.81966573904656
20
24.7527941811935
30
0
41
1
10
8.71761300337941
20
24.738845511783
30
0
41
1
10
8.69674175925348
20
24.7361060197329
30
0
41
1
10
8.65421970131767
20
24.7307493127356
30
0
41
1
10
8.63254893933903
20
24.728129365146
30
0
41
1
10
8.56632489288592
20
24.7204527551463
30
0
41
1
10
8.47479982377395
20
24.7107058120016
30
0
41
1
10
8.37686557680055
20
24.7020368332249
30
0
41
1
10
8.30095719344513
20
24.6959867870874
30
0
41
1
10
8.27522047209408
20
24.6940438181229
30
0
41
1
10
8.22300663002991
20
24.6903250304491
30
0
41
1
10
8.19670131002377
20
24.6885612657312
30
0
41
1
10
8.06420301550054
20
24.6802242087022
30
0
41
1
10
7.95512257365657
20
24.6750880154698
30
0
41
1
10
7.81495677584773
20
24.6707241826871
30
0
41
1
10
7.78673113951498
20
24.6699547602263
30
0
41
1
10
7.72988884634117
20
24.668628323743
30
0
41
1
10
7.70120793710691
20
24.6680703693399
30
0
41
1
10
7.61502209987168
20
24.666732019603
30
0
41
1
10
7.55774111463984
20
24.6662901287289
30
0
41
1
10
7.38640984965704
20
24.6662804263344
30
0
41
1
10
7.27286645545951
20
24.6680218269888
30
0
41
1
10
7.13180221257082
20
24.6723743088337
30
0
41
1
10
7.10355441013392
20
24.6733573756568
30
0
41
1
10
7.04760600958082
20
24.6755257313486
30
0
41
1
10
7.01991177470538
20
24.6767099482257
30
0
41
1
10
6.93765286126748
20
24.6805514702491
30
0
41
1
10
6.83016707064988
20
24.6864425435358
30
0
41
1
10
6.72699414187787
20
24.6937751149756
30
0
41
1
10
6.65125130114548
20
24.6997884538768
30
0
41
1
10
6.62627697981669
20
24.7018786474608
30
0
41
1
10
6.57688427098961
20
24.7062272093563
30
0
41
1
10
6.55240976661938
20
24.7084914125929
30
0
41
1
10
6.43266998689906
20
24.7201052763334
30
0
41
1
10
6.34450952748712
20
24.7303808525653
30
0
41
1
10
6.22338653149583
20
24.7468970305248
30
0
41
1
10
6.18487858268784
20
24.7525877691754
30
0
41
1
10
6.12999877567488
20
24.76136651129
30
0
41
1
10
6.1121712822542
20
24.764336673865
30
0
41
1
10
6.07787359864508
20
24.7702858334654
30
0
41
1
10
6.06135273877516
20
24.7732726166735
30
0
41
1
10
5.98183544502201
20
24.7882496477105
30
0
41
1
10
5.92801170011852
20
24.8003649816831
30
0
41
1
10
5.87302905510106
20
24.81543970982
30
0
41
1
10
5.86265291554764
20
24.8184514266813
30
0
41
1
10
5.84316584970864
20
24.8244633416041
30
0
41
1
10
5.83406798210309
20
24.8274608044837
30
0
41
1
10
5.80897301705137
20
24.8363294743365
30
0
41
1
10
5.79505774932912
20
24.8421102867565
30
0
41
1
10
5.76154994226813
20
24.8590272946288
30
0
41
1
10
5.75011507112211
20
24.869737321023
30
0
41
1
10
5.74997230179353
20
24.8823302918183
30
0
41
1
10
5.75066114690822
20
24.8847996257769
30
0
41
1
10
5.75344353367306
20
24.8896084029273
30
0
41
1
10
5.75553674169433
20
24.8919530479688
30
0
41
1
10
5.76389039502752
20
24.8988119964185
30
0
41
1
10
5.78055049459019
20
24.9074909725173
30
0
41
1
10
5.80815729265251
20
24.915277850621
30
0
41
1
10
5.83305098490148
20
24.9207970333304
30
0
41
1
10
5.84204822986828
20
24.922583249644
30
0
41
1
10
5.86147138119064
20
24.9260507648344
30
0
41
1
10
5.87182153929156
20
24.9277184524617
30
0
41
1
10
5.92665416341836
20
24.9357382263838
30
0
41
1
10
5.98033910388227
20
24.9411473445566
30
0
41
1
10
6.0595565208462
20
24.946903273497
30
0
41
1
10
6.07601105394876
20
24.9480039075553
30
0
41
1
10
6.11016047463129
20
24.9501094206951
30
0
41
1
10
6.12788658588333
20
24.9511159141435
30
0
41
1
10
6.182758597456
20
24.9539885449074
30
0
41
1
10
6.2212477352839
20
24.9556913933097
30
0
41
1
10
6.34225124134817
20
24.9602696609735
30
0
41
1
10
6.43024939905757
20
24.9626191781529
30
0
41
1
10
6.54960240849651
20
24.964944603707
30
0
41
1
10
6.57401084765246
20
24.9653797890086
30
0
41
1
10
6.62345197336209
20
24.9661881575714
30
0
41
1
10
6.64844370342365
20
24.9665609214652
30
0
41
1
10
6.72421694649904
20
24.967596060853
30
0
41
1
10
6.82737216124335
20
24.9687557888479
30
0
41
1
10
6.93470724251037
20
24.9695696620942
30
0
41
1
10
7.01679559683511
20
24.9700764165117
30
0
41
1
10
7.0444233564409
20
24.970227963652
30
0
41
1
10
7.10021798577566
20
24.9704995298824
30
0
41
1
10
7.12845000439272
20
24.9706197617278
30
0
41
1
10
7.26993368880909
20
24.971144635477
30
0
41
1
10
7.38434859470692
20
24.9713319763564
30
0
41
1
10
7.5
20
24.9713319763564
30
0
0
SPLINE
5
1C5
100
AcDbEntity
8
1
62
256
6
ByLayer
370
18
48
1
60
0
100
AcDbSpline
70
4
71
3
72
50
73
46
40
0
40
0
40
0
40
0
40
0.0625000000000011
40
0.0625000000000011
40
0.125000000000002
40
0.187500000000003
40
0.187500000000003
40
0.203125000000003
40
0.203125000000003
40
0.218750000000004
40
0.218750000000004
40
0.250000000000004
40
0.250000000000004
40
0.312500000000006
40
0.312500000000006
40
0.375000000000007
40
0.375000000000007
40
0.406250000000007
40
0.406250000000007
40
0.421875000000007
40
0.421875000000007
40
0.437500000000007
40
0.437500000000007
40
0.500000000000007
40
0.500000000000007
40
0.562500000000006
40
0.562500000000006
40
0.625000000000006
40
0.625000000000006
40
0.640625000000006
40
0.640625000000006
40
0.656250000000006
40
0.687500000000006
40
0.687500000000006
40
0.750000000000005
40
0.812500000000004
40
0.812500000000004
40
0.843750000000003
40
0.843750000000003
40
0.859375000000003
40
0.859375000000003
40
0.875000000000003
40
0.875000000000003
40
0.937500000000002
40
1
40
1
40
1
40
1
41
1
10
6.95
20
-1.01749999999998
30
0
41
1
10
6.95
20
-1.21673287185305
30
0
41
1
10
6.9598969143109
20
-1.41411442671353
30
0
41
1
10
6.99870024947134
20
-1.80532565331217
30
0
41
1
10
7.05651814051829
20
-2.19298411314941
30
0
41
1
10
7.15196029270535
20
-2.57364040770673
30
0
41
1
10
7.22359176908515
20
-2.80933596107513
30
0
41
1
10
7.2385184745585
20
-2.85636410515997
30
0
41
1
10
7.26958405009533
20
-2.95019683312563
30
0
41
1
10
7.28574474381364
20
-2.99705920954446
30
0
41
1
10
7.33580840789546
20
-3.13660874011964
30
0
41
1
10
7.37133522472415
20
-3.22841020358794
30
0
41
1
10
7.48423015338236
20
-3.50021190369264
30
0
41
1
10
7.56789693133143
20
-3.67661809875065
30
0
41
1
10
7.75170331703265
20
-4.02010788327837
30
0
41
1
10
7.85184328677472
20
-4.18719111913248
30
0
41
1
10
8.01453686497982
20
-4.43081796917377
30
0
41
1
10
8.07085255004446
20
-4.51085848676169
30
0
41
1
10
8.15850552028002
20
-4.62914629908195
30
0
41
1
10
8.18825334799614
20
-4.66827993531749
30
0
41
1
10
8.24882143060316
20
-4.74595080061823
30
0
41
1
10
8.27955989466345
20
-4.78438184757451
30
0
41
1
10
8.43520309783337
20
-4.9741605907171
30
0
41
1
10
8.56624781674192
20
-5.11878696346466
30
0
41
1
10
8.84110125796001
20
-5.39411845362002
30
0
41
1
10
8.98491069087076
20
-5.52482253724477
30
0
41
1
10
9.28539508486669
20
-5.77234600172355
30
0
41
1
10
9.44206879419755
20
-5.88916648316976
30
0
41
1
10
9.6462656315325
20
-6.02626820703949
30
0
41
1
10
9.6875512265337
20
-6.05325864176592
30
0
41
1
10
9.77085401748921
20
-6.10625897636129
30
0
41
1
10
9.89655167895688
20
-6.18406577461687
30
0
41
1
10
10.0244590951926
20
-6.25685056547792
30
0
41
1
10
10.283186569687
20
-6.3958307691702
30
0
41
1
10
10.6359100762189
20
-6.56359801841452
30
0
41
1
10
11.0041252726342
20
-6.69660826621893
30
0
41
1
10
11.286259611493
20
-6.78305658268653
30
0
41
1
10
11.381301653283
20
-6.80965032728343
30
0
41
1
10
11.525398199773
20
-6.84613317511068
30
0
41
1
10
11.5737236134529
20
-6.85773431149431
30
0
41
1
10
11.6707261532097
20
-6.87974632118446
30
0
41
1
10
11.7193030412582
20
-6.89013549012284
30
0
41
1
10
11.9625634802826
20
-6.93901760828567
30
0
41
1
10
12.3541814636026
20
-6.99766593310596
30
0
41
1
10
12.750578854957
20
-7.01749999999998
30
0
41
1
10
12.95
20
-7.01749999999998
30
0
0
SPLINE
5
1C6
100
AcDbEntity
8
1
62
256
6
ByLayer
370
18
48
1
60
0
100
AcDbSpline
70
4
71
3
72
52
73
48
40
0
40
0
40
0
40
0
40
0.0624999999999999
40
0.0624999999999999
40
0.125
40
0.1875
40
0.1875
40
0.203125
40
0.203125
40
0.21875
40
0.21875
40
0.25
40
0.25
40
0.312499999999999
40
0.312499999999999
40
0.374999999999999
40
0.374999999999999
40
0.406249999999999
40
0.406249999999999
40
0.421874999999998
40
0.421874999999998
40
0.437499999999998
40
0.437499999999998
40
0.499999999999998
40
0.499999999999998
40
0.562499999999997
40
0.562499999999997
40
0.624999999999997
40
0.624999999999997
40
0.640624999999997
40
0.640624999999997
40
0.656249999999996
40
0.687499999999997
40
0.687499999999997
40
0.749999999999997
40
0.749999999999997
40
0.812499999999997
40
0.812499999999997
40
0.843749999999997
40
0.843749999999997
40
0.859374999999997
40
0.859374999999997
40
0.874999999999998
40
0.874999999999998
40
0.937499999999999
40
0.937499999999999
40
1
40
1
40
1
40
1
41
1
10
12.95
20
7.01750000000001
30
0
41
1
10
12.7505933118185
20
7.01750000000001
30
0
41
1
10
12.5529708334105
20
7.0075856432195
30
0
41
1
10
12.1611562728397
20
6.96867498871836
30
0
41
1
10
11.7727729514136
20
6.91067747868891
30
0
41
1
10
11.3911715183358
20
6.81483729990606
30
0
41
1
10
11.1548235687371
20
6.74286315056926
30
0
41
1
10
11.1076618628503
20
6.72786319962367
30
0
41
1
10
11.0135560348933
20
6.69664099606749
30
0
41
1
10
10.9666051505592
20
6.68041396381727
30
0
41
1
10
10.8268784361012
20
6.63017793361132
30
0
41
1
10
10.7349579581442
20
6.59452832562582
30
0
41
1
10
10.4627974413743
20
6.4812393971942
30
0
41
1
10
10.2861495907543
20
6.39727586679069
30
0
41
1
10
9.94217798043192
20
6.21279537931608
30
0
41
1
10
9.77485453488774
20
6.11227808124306
30
0
41
1
10
9.53087548182889
20
5.94894660669419
30
0
41
1
10
9.45071894234459
20
5.89240628124563
30
0
41
1
10
9.33226033969589
20
5.80439665055675
30
0
41
1
10
9.29301823718781
20
5.77448530321649
30
0
41
1
10
9.21543471450408
20
5.71382270153231
30
0
41
1
10
9.17709738530461
20
5.68307735555584
30
0
41
1
10
8.98765364034489
20
5.52730160722641
30
0
41
1
10
8.84325806550603
20
5.39614024697872
30
0
41
1
10
8.56833318196952
20
5.12101259590654
30
0
41
1
10
8.43780485368772
20
4.97704564778522
30
0
41
1
10
8.19059747422088
20
4.67618752053335
30
0
41
1
10
8.07391726873166
20
4.51929765269668
30
0
41
1
10
7.93698211507197
20
4.3147829398695
30
0
41
1
10
7.91004130102854
20
4.27345372653883
30
0
41
1
10
7.85734952384109
20
4.19040552717516
30
0
41
1
10
7.77998219463979
20
4.06507982472169
30
0
41
1
10
7.70757178609118
20
3.93751254419178
30
0
41
1
10
7.56926570462002
20
3.67941768982811
30
0
41
1
10
7.48573193325839
20
3.50341433448855
30
0
41
1
10
7.33590248623536
20
3.14350674730099
30
0
41
1
10
7.26960612918468
20
2.95960293119296
30
0
41
1
10
7.1834056717223
20
2.67763536611071
30
0
41
1
10
7.15688366183869
20
2.58262572820445
30
0
41
1
10
7.12049742309205
20
2.4385396085132
30
0
41
1
10
7.10893771470583
20
2.39025086711203
30
0
41
1
10
7.08706969416663
20
2.29362765536342
30
0
41
1
10
7.07674577980487
20
2.24523338765337
30
0
41
1
10
7.02815948000537
20
2.00285037166009
30
0
41
1
10
6.9989745271879
20
1.80762928918352
30
0
41
1
10
6.95989523543759
20
1.41455589184758
30
0
41
1
10
6.95
20
1.21670370558985
30
0
41
1
10
6.95
20
1.01750000000001
30
0
0
SPLINE
5
1C7
100
AcDbEntity
8
SK1
62
256
6
ByLayer
370
18
48
1
60
0
100
AcDbSpline
70
4
71
3
72
36
73
32
40
0
40
0
40
0
40
0
40
0.125000000000004
40
0.125000000000004
40
0.187500000000007
40
0.187500000000007
40
0.218750000000008
40
0.218750000000008
40
0.250000000000009
40
0.250000000000009
40
0.375000000000007
40
0.375000000000007
40
0.437500000000006
40
0.437500000000006
40
0.468750000000004
40
0.468750000000004
40
0.500000000000001
40
0.500000000000001
40
0.625000000000001
40
0.625000000000001
40
0.687500000000001
40
0.687500000000001
40
0.75
40
0.75
40
0.875000000000004
40
0.875000000000004
40
0.906250000000004
40
0.906250000000004
40
0.937500000000004
40
0.937500000000004
40
1
40
1
40
1
40
1
41
1
10
-20.3
20
3.87000000000001
30
0
41
1
10
-20.3
20
3.96118977576734
30
0
41
1
10
-20.30882208391
20
4.05061614628184
30
0
41
1
10
-20.3345393757406
20
4.18227684868657
30
0
41
1
10
-20.3452082327601
20
4.22574799647836
30
0
41
1
10
-20.3643999389725
20
4.29032941769296
30
0
41
1
10
-20.3713295162811
20
4.31175218990313
30
0
41
1
10
-20.3862726030675
20
4.35438680632217
30
0
41
1
10
-20.3942925989778
20
4.37560524928099
30
0
41
1
10
-20.4366938916661
20
4.480076585028
30
0
41
1
10
-20.4782037391461
20
4.55939903855074
30
0
41
1
10
-20.551736913194
20
4.67218836181254
30
0
41
1
10
-20.5781395927977
20
4.70874522514103
30
0
41
1
10
-20.6206974168929
20
4.76197646582446
30
0
41
1
10
-20.6354186813982
20
4.7794988622413
30
0
41
1
10
-20.665649984077
20
4.81373810397491
30
0
41
1
10
-20.6811436946862
20
4.83044215506021
30
0
41
1
10
-20.7604837334318
20
4.91191460799297
30
0
41
1
10
-20.8298871292417
20
4.97060176857735
30
0
41
1
10
-20.9432173554411
20
5.04872184764182
30
0
41
1
10
-20.9825425249249
20
5.07309826480306
30
0
41
1
10
-21.0644981929068
20
5.11833013121313
30
0
41
1
10
-21.1064225634471
20
5.13879008593349
30
0
41
1
10
-21.2346776033884
20
5.19367854428597
30
0
41
1
10
-21.323601552963
20
5.22176016870216
30
0
41
1
10
-21.4392801514148
20
5.24571195007994
30
0
41
1
10
-21.46266183959
20
5.24994200277064
30
0
41
1
10
-21.5098237273789
20
5.25722828645084
30
0
41
1
10
-21.533461394504
20
5.26026336047619
30
0
41
1
10
-21.6045438318593
20
5.26755407565375
30
0
41
1
10
-21.6521576130972
20
5.27000000000001
30
0
41
1
10
-21.7
20
5.27000000000001
30
0
0
SPLINE
5
1C8
100
AcDbEntity
8
SK1
62
256
6
ByLayer
370
18
48
1
60
0
100
AcDbSpline
70
4
71
3
72
32
73
28
40
0
40
0
40
0
40
0
40
0.124999999999997
40
0.124999999999997
40
0.187499999999995
40
0.187499999999995
40
0.218749999999995
40
0.218749999999995
40
0.249999999999994
40
0.249999999999994
40
0.374999999999994
40
0.374999999999994
40
0.406249999999994
40
0.406249999999994
40
0.437499999999994
40
0.499999999999994
40
0.562499999999994
40
0.562499999999994
40
0.624999999999994
40
0.624999999999994
40
0.749999999999994
40
0.749999999999994
40
0.812499999999995
40
0.812499999999995
40
0.874999999999997
40
0.874999999999997
40
1
40
1
40
1
40
1
41
1
10
-21.7
20
-5.27000000000001
30
0
41
1
10
-21.6044471828156
20
-5.27000000000001
30
0
41
1
10
-21.5107417248832
20
-5.26032132248494
30
0
41
1
10
-21.3728027231981
20
-5.23203706288322
30
0
41
1
10
-21.3272629711677
20
-5.2202959989786
30
0
41
1
10
-21.2596239084849
20
-5.19914519237065
30
0
41
1
10
-21.2372194588815
20
-5.19150880766222
30
0
41
1
10
-21.1931631238264
20
-5.17524623689067
30
0
41
1
10
-21.1714445714189
20
-5.1665999992824
30
0
41
1
10
-21.0643586904691
20
-5.12085511277823
30
0
41
1
10
-20.9834669865257
20
-5.07629253729056
30
0
41
1
10
-20.8881397139861
20
-5.01079706950932
30
0
41
1
10
-20.8693276791297
20
-4.99717143848139
30
0
41
1
10
-20.8326495551215
20
-4.96919750825654
30
0
41
1
10
-20.7789440434787
20
-4.92608552791282
30
0
41
1
10
-20.6957904332246
20
-4.84862670073136
30
0
41
1
10
-20.6358256710967
20
-4.78081722138126
30
0
41
1
10
-20.5791317848702
20
-4.71006515067185
30
0
41
1
10
-20.5523338624776
20
-4.67305786034964
30
0
41
1
10
-20.4782792652474
20
-4.55960597982872
30
0
41
1
10
-20.4368459480343
20
-4.48029613269395
30
0
41
1
10
-20.3862485219824
20
-4.3558620546529
30
0
41
1
10
-20.3713224920777
20
-4.3134662480783
30
0
41
1
10
-20.3454661368266
20
-4.22676917854503
30
0
41
1
10
-20.334695762075
20
-4.18299117297974
30
0
41
1
10
-20.3088043639753
20
-4.05069656372714
30
0
41
1
10
-20.3
20
-3.96108877560107
30
0
41
1
10
-20.3
20
-3.87000000000001
30
0
0
SPLINE
5
1C9
100
AcDbEntity
8
SK1
62
256
6
ByLayer
370
18
48
1
60
0
100
AcDbSpline
70
4
71
3
72
81
73
77
40
0
40
0
40
0
40
0
40
0.0625000000000007
40
0.0625000000000007
40
0.125000000000001
40
0.125000000000001
40
0.187500000000002
40
0.187500000000002
40
0.250000000000003
40
0.250000000000003
40
0.281250000000003
40
0.281250000000003
40
0.312500000000004
40
0.312500000000004
40
0.328125000000004
40
0.328125000000004
40
0.343750000000005
40
0.343750000000005
40
0.359375000000005
40
0.359375000000005
40
0.375000000000005
40
0.375000000000005
40
0.382812500000005
40
0.382812500000005
40
0.390625000000005
40
0.390625000000005
40
0.406250000000005
40
0.406250000000005
40
0.414062500000004
40
0.414062500000004
40
0.421875000000003
40
0.421875000000003
40
0.425781250000003
40
0.425781250000003
40
0.429687500000002
40
0.429687500000002
40
0.437500000000001
40
0.437500000000001
40
0.441406250000001
40
0.441406250000001
40
0.4453125
40
0.4453125
40
0.449218749999999
40
0.449218749999999
40
0.453124999999998
40
0.457031249999998
40
0.457031249999998
40
0.460937499999997
40
0.460937499999997
40
0.468749999999997
40
0.468749999999997
40
0.476562499999997
40
0.476562499999997
40
0.484374999999997
40
0.484374999999997
40
0.499999999999998
40
0.499999999999998
40
0.515624999999998
40
0.515624999999998
40
0.531249999999998
40
0.531249999999998
40
0.562499999999998
40
0.562499999999998
40
0.593749999999998
40
0.593749999999998
40
0.624999999999998
40
0.624999999999998
40
0.687499999999999
40
0.687499999999999
40
0.749999999999999
40
0.749999999999999
40
0.812499999999999
40
0.812499999999999
40
0.875
40
0.875
40
1
40
1
40
1
40
1
41
1
10
-23.9500374420152
20
9.45055326065835
30
0
41
1
10
-23.9606620586124
20
9.55839727994487
30
0
41
1
10
-23.9728270739485
20
9.66505652577766
30
0
41
1
10
-24.0005611580657
20
9.87575684329462
30
0
41
1
10
-24.0161267119432
20
9.97980061841162
30
0
41
1
10
-24.0511798774424
20
10.1848715796404
30
0
41
1
10
-24.0706590627833
20
10.2859052466936
30
0
41
1
10
-24.1144188199045
20
10.484279669964
30
0
41
1
10
-24.1386746366064
20
10.5816394661602
30
0
41
1
10
-24.1799157250323
20
10.723943195841
30
0
41
1
10
-24.1944797076731
20
10.7707494257278
30
0
41
1
10
-24.225640049462
20
10.8627987150877
30
0
41
1
10
-24.2422292645621
20
10.908047269293
30
0
41
1
10
-24.2691375999449
20
10.9743629784858
30
0
41
1
10
-24.2784470846841
20
10.9962066787663
30
0
41
1
10
-24.2978847679476
20
11.0392643785008
30
0
41
1
10
-24.3080064869061
20
11.0604598051085
30
0
41
1
10
-24.3290792245871
20
11.1017221059534
30
0
41
1
10
-24.3400457967433
20
11.1218295711624
30
0
41
1
10
-24.3630645174859
20
11.1607230326282
30
0
41
1
10
-24.3751131276998
20
11.1795133361354
30
0
41
1
10
-24.3942754882365
20
11.2063726129829
30
0
41
1
10
-24.4008459009856
20
11.2151029895318
30
0
41
1
10
-24.4144262619457
20
11.2320286974225
30
0
41
1
10
-24.4214508274556
20
11.2402406953814
30
0
41
1
10
-24.4432295165923
20
11.2637640935223
30
0
41
1
10
-24.4585949561636
20
11.2779488131597
30
0
41
1
10
-24.4836778407934
20
11.2956254604631
30
0
41
1
10
-24.4923824351905
20
11.3009096202971
30
0
41
1
10
-24.5107400569475
20
11.3097996944646
30
0
41
1
10
-24.5204440452936
20
11.3134117769418
30
0
41
1
10
-24.535580738801
20
11.3168724524724
30
0
41
1
10
-24.5407358351061
20
11.3177053155296
30
0
41
1
10
-24.551307965277
20
11.318604121146
30
0
41
1
10
-24.5567575739651
20
11.3186659176547
30
0
41
1
10
-24.5732501173825
20
11.3174780421228
30
0
41
1
10
-24.5844674179815
20
11.3148939120964
30
0
41
1
10
-24.6017225260839
20
11.3075573517435
30
0
41
1
10
-24.6075581169866
20
11.3045086945697
30
0
41
1
10
-24.6189019752593
20
11.2974316498926
30
0
41
1
10
-24.6244700390271
20
11.2933824851511
30
0
41
1
10
-24.6354052894546
20
11.2842965659592
30
0
41
1
10
-24.6408001629985
20
11.2792303234599
30
0
41
1
10
-24.6512714182484
20
11.2682689488551
30
0
41
1
10
-24.6612763341614
20
11.2566515359804
30
0
41
1
10
-24.6704951847432
20
11.2439282997301
30
0
41
1
10
-24.6793762900279
20
11.2307299291242
30
0
41
1
10
-24.6836657164348
20
11.2238601526885
30
0
41
1
10
-24.6958933032137
20
11.2029794495973
30
0
41
1
10
-24.7032512427595
20
11.1886454210813
30
0
41
1
10
-24.7168746113641
20
11.1594081690895
30
0
41
1
10
-24.7231343858132
20
11.1445019995776
30
0
41
1
10
-24.7348316690624
20
11.1142612624116
30
0
41
1
10
-24.740202463895
20
11.0990948820205
30
0
41
1
10
-24.7552060172061
20
11.0536603606833
30
0
41
1
10
-24.7637830762773
20
11.0233695534538
30
0
41
1
10
-24.7791845146702
20
10.9627865539557
30
0
41
1
10
-24.7859909254068
20
10.9324943474875
30
0
41
1
10
-24.7983623527351
20
10.8719089535509
30
0
41
1
10
-24.8039274142816
20
10.8415808143759
30
0
41
1
10
-24.8191849215418
20
10.7508283423757
30
0
41
1
10
-24.8274170353091
20
10.6909988532166
30
0
41
1
10
-24.8415900503159
20
10.5721339006321
30
0
41
1
10
-24.8475041511443
20
10.5131077249598
30
0
41
1
10
-24.8577713908465
20
10.3955963290901
30
0
41
1
10
-24.8621161718796
20
10.3371140053245
30
0
41
1
10
-24.8734705867385
20
10.1622492175822
30
0
41
1
10
-24.8788337863979
20
10.0464373297006
30
0
41
1
10
-24.887137876639
20
9.81565301152554
30
0
41
1
10
-24.890050564859
20
9.70069035483488
30
0
41
1
10
-24.8944456220845
20
9.471260722343
30
0
41
1
10
-24.8959180225497
20
9.35681514062671
30
0
41
1
10
-24.8980393133416
20
9.12833428614516
30
0
41
1
10
-24.898684504212
20
9.01427925713921
30
0
41
1
10
-24.8999684062332
20
8.67240498071479
30
0
41
1
10
-24.9
20
8.44485666184426
30
0
41
1
10
-24.9
20
8.21732244181786
30
0
0
SPLINE
5
1CA
100
AcDbEntity
8
SK1
62
256
6
ByLayer
370
18
48
1
60
0
100
AcDbSpline
70
4
71
3
72
81
73
77
40
0
40
0
40
0
40
0
40
0.0624999999999884
40
0.0624999999999884
40
0.124999999999977
40
0.124999999999977
40
0.187499999999965
40
0.187499999999965
40
0.249999999999954
40
0.249999999999954
40
0.281249999999948
40
0.281249999999948
40
0.312499999999941
40
0.312499999999941
40
0.328124999999938
40
0.328124999999938
40
0.343749999999935
40
0.343749999999935
40
0.359374999999932
40
0.359374999999932
40
0.374999999999929
40
0.374999999999929
40
0.382812499999927
40
0.382812499999927
40
0.390624999999926
40
0.390624999999926
40
0.406249999999922
40
0.406249999999922
40
0.414062499999921
40
0.414062499999921
40
0.42187499999992
40
0.42187499999992
40
0.42578124999992
40
0.42578124999992
40
0.42968749999992
40
0.42968749999992
40
0.43749999999992
40
0.43749999999992
40
0.44140624999992
40
0.44140624999992
40
0.44531249999992
40
0.44531249999992
40
0.44921874999992
40
0.44921874999992
40
0.453124999999921
40
0.457031249999921
40
0.457031249999921
40
0.460937499999921
40
0.460937499999921
40
0.468749999999922
40
0.468749999999922
40
0.476562499999923
40
0.476562499999923
40
0.484374999999924
40
0.484374999999924
40
0.499999999999926
40
0.499999999999926
40
0.515624999999929
40
0.515624999999929
40
0.531249999999932
40
0.531249999999932
40
0.562499999999937
40
0.562499999999937
40
0.593749999999941
40
0.593749999999941
40
0.624999999999946
40
0.624999999999946
40
0.687499999999955
40
0.687499999999955
40
0.749999999999964
40
0.749999999999964
40
0.812499999999972
40
0.812499999999972
40
0.874999999999981
40
0.874999999999981
40
1
40
1
40
1
40
1
41
1
10
-23.9500374420152
20
-9.4505532606583
30
0
41
1
10
-23.9606620586124
20
-9.55839727994484
30
0
41
1
10
-23.9728270739485
20
-9.66505652577763
30
0
41
1
10
-24.0005611580657
20
-9.87575684329462
30
0
41
1
10
-24.0161267119432
20
-9.97980061841164
30
0
41
1
10
-24.0511798774424
20
-10.1848715796405
30
0
41
1
10
-24.0706590627833
20
-10.2859052466937
30
0
41
1
10
-24.1144188199045
20
-10.4842796699641
30
0
41
1
10
-24.1386746366065
20
-10.5816394661604
30
0
41
1
10
-24.1799157250323
20
-10.7239431958412
30
0
41
1
10
-24.1944797076732
20
-10.7707494257279
30
0
41
1
10
-24.2256400494621
20
-10.8627987150879
30
0
41
1
10
-24.2422292645621
20
-10.9080472692932
30
0
41
1
10
-24.269137599945
20
-10.974362978486
30
0
41
1
10
-24.2784470846841
20
-10.9962066787665
30
0
41
1
10
-24.2978847679477
20
-11.039264378501
30
0
41
1
10
-24.3080064869062
20
-11.0604598051087
30
0
41
1
10
-24.3290792245872
20
-11.1017221059536
30
0
41
1
10
-24.3400457967434
20
-11.1218295711626
30
0
41
1
10
-24.363064517486
20
-11.1607230326284
30
0
41
1
10
-24.3751131276999
20
-11.1795133361356
30
0
41
1
10
-24.3942754882367
20
-11.2063726129831
30
0
41
1
10
-24.4008459009858
20
-11.215102989532
30
0
41
1
10
-24.4144262619459
20
-11.2320286974227
30
0
41
1
10
-24.4214508274558
20
-11.2402406953816
30
0
41
1
10
-24.4432295165924
20
-11.2637640935225
30
0
41
1
10
-24.4585949561638
20
-11.2779488131598
30
0
41
1
10
-24.4836778407937
20
-11.2956254604632
30
0
41
1
10
-24.4923824351907
20
-11.3009096202973
30
0
41
1
10
-24.5107400569478
20
-11.3097996944647
30
0
41
1
10
-24.5204440452939
20
-11.3134117769419
30
0
41
1
10
-24.5355807388013
20
-11.3168724524725
30
0
41
1
10
-24.5407358351064
20
-11.3177053155296
30
0
41
1
10
-24.5513079652773
20
-11.318604121146
30
0
41
1
10
-24.5567575739654
20
-11.3186659176547
30
0
41
1
10
-24.5732501173828
20
-11.3174780421227
30
0
41
1
10
-24.5844674179818
20
-11.3148939120963
30
0
41
1
10
-24.6017225260842
20
-11.3075573517434
30
0
41
1
10
-24.6075581169869
20
-11.3045086945696
30
0
41
1
10
-24.6189019752596
20
-11.2974316498924
30
0
41
1
10
-24.6244700390273
20
-11.2933824851509
30
0
41
1
10
-24.6354052894549
20
-11.284296565959
30
0
41
1
10
-24.6408001629988
20
-11.2792303234596
30
0
41
1
10
-24.6512714182487
20
-11.2682689488548
30
0
41
1
10
-24.6612763341616
20
-11.2566515359802
30
0
41
1
10
-24.6704951847434
20
-11.2439282997298
30
0
41
1
10
-24.6793762900281
20
-11.2307299291239
30
0
41
1
10
-24.683665716435
20
-11.2238601526881
30
0
41
1
10
-24.6958933032139
20
-11.202979449597
30
0
41
1
10
-24.7032512427597
20
-11.188645421081
30
0
41
1
10
-24.7168746113643
20
-11.1594081690892
30
0
41
1
10
-24.7231343858134
20
-11.1445019995773
30
0
41
1
10
-24.7348316690625
20
-11.1142612624112
30
0
41
1
10
-24.7402024638952
20
-11.0990948820202
30
0
41
1
10
-24.7552060172062
20
-11.053660360683
30
0
41
1
10
-24.7637830762773
20
-11.0233695534535
30
0
41
1
10
-24.7791845146702
20
-10.9627865539553
30
0
41
1
10
-24.7859909254069
20
-10.9324943474872
30
0
41
1
10
-24.7983623527352
20
-10.8719089535506
30
0
41
1
10
-24.8039274142816
20
-10.8415808143755
30
0
41
1
10
-24.8191849215418
20
-10.7508283423754
30
0
41
1
10
-24.8274170353092
20
-10.6909988532163
30
0
41
1
10
-24.841590050316
20
-10.5721339006319
30
0
41
1
10
-24.8475041511444
20
-10.5131077249595
30
0
41
1
10
-24.8577713908466
20
-10.3955963290899
30
0
41
1
10
-24.8621161718796
20
-10.3371140053243
30
0
41
1
10
-24.8734705867385
20
-10.1622492175821
30
0
41
1
10
-24.8788337863979
20
-10.0464373297004
30
0
41
1
10
-24.887137876639
20
-9.8156530115254
30
0
41
1
10
-24.890050564859
20
-9.70069035483473
30
0
41
1
10
-24.8944456220845
20
-9.47126072234286
30
0
41
1
10
-24.8959180225497
20
-9.35681514062659
30
0
41
1
10
-24.8980393133416
20
-9.12833428614508
30
0
41
1
10
-24.898684504212
20
-9.01427925713912
30
0
41
1
10
-24.8999684062332
20
-8.67240498071476
30
0
41
1
10
-24.9
20
-8.44485666184423
30
0
41
1
10
-24.9
20
-8.21732244181786
30
0
0
SPLINE
5
1CB
100
AcDbEntity
8
SK1
62
256
6
ByLayer
370
18
48
1
60
0
100
AcDbSpline
70
4
71
3
72
10
73
6
40
0
40
0
40
0
40
0
40
0.5
40
0.5
40
1
40
1
40
1
40
1
41
1
10
-23.8978773747949
20
8.6633624660968
30
0
41
1
10
-23.8937327167666
20
8.54490774614041
30
0
41
1
10
-23.8782856244679
20
8.42771437777753
30
0
41
1
10
-23.8278350927541
20
8.19542919882966
30
0
41
1
10
-23.7928669093361
20
8.08033131085611
30
0
41
1
10
-23.75
20
7.96599739570104
30
0
0
SPLINE
5
1CC
100
AcDbEntity
8
SK1
62
256
6
ByLayer
370
18
48
1
60
0
100
AcDbSpline
70
4
71
3
72
36
73
32
40
0
40
0
40
0
40
0
40
0.0156250000000029
40
0.0156250000000029
40
0.0312500000000059
40
0.0312500000000059
40
0.0468750000000088
40
0.0468750000000088
40
0.0625000000000118
40
0.0625000000000118
40
0.093750000000013
40
0.093750000000013
40
0.125000000000014
40
0.125000000000014
40
0.156250000000016
40
0.156250000000016
40
0.187500000000017
40
0.187500000000017
40
0.250000000000015
40
0.250000000000015
40
0.312500000000013
40
0.312500000000013
40
0.375000000000012
40
0.375000000000012
40
0.500000000000009
40
0.500000000000009
40
0.625000000000006
40
0.625000000000006
40
0.750000000000003
40
0.750000000000003
40
1
40
1
40
1
40
1
41
1
10
-20.9474880448666
20
8.73049738938013
30
0
41
1
10
-20.9553991718167
20
8.71827818652628
30
0
41
1
10
-20.964615631378
20
8.70708239553943
30
0
41
1
10
-20.9846800228142
20
8.68596994278531
30
0
41
1
10
-20.9955430437315
20
8.67606511105819
30
0
41
1
10
-21.0184333083169
20
8.65716825232226
30
0
41
1
10
-21.0305126772596
20
8.64814828620055
30
0
41
1
10
-21.0553240830416
20
8.63095568439954
30
0
41
1
10
-21.0680070070546
20
8.62281190298381
30
0
41
1
10
-21.1066689532192
20
8.59938148422984
30
0
41
1
10
-21.1332504432891
20
8.58507829696887
30
0
41
1
10
-21.1874178144502
20
8.55811152334442
30
0
41
1
10
-21.2150132196391
20
8.54546348291638
30
0
41
1
10
-21.270919686304
20
8.52133571413393
30
0
41
1
10
-21.299233908803
20
8.50986114542562
30
0
41
1
10
-21.356403961913
20
8.48779623009861
30
0
41
1
10
-21.3852362879774
20
8.47721869096347
30
0
41
1
10
-21.471933851682
20
8.44667811008785
30
0
41
1
10
-21.5301581907167
20
8.42782513178258
30
0
41
1
10
-21.647164938522
20
8.3920942543316
30
0
41
1
10
-21.7059512576867
20
8.37523019120204
30
0
41
1
10
-21.823931832804
20
8.34294593762982
30
0
41
1
10
-21.8831275110369
20
8.32753077958776
30
0
41
1
10
-22.0611863741387
20
8.28295549035187
30
0
41
1
10
-22.1805140917979
20
8.25543973041115
30
0
41
1
10
-22.4199832085386
20
8.20328919999594
30
0
41
1
10
-22.5401304200468
20
8.17867499535424
30
0
41
1
10
-22.7810202920882
20
8.13155542590917
30
0
41
1
10
-22.9017861261827
20
8.10905373096847
30
0
41
1
10
-23.2646237238944
20
8.0440197941281
30
0
41
1
10
-23.5071156184626
20
8.00393767703082
30
0
41
1
10
-23.7499999999995
20
7.9659973956982
30
0
0
SPLINE
5
1CD
100
AcDbEntity
8
SK1
62
256
6
ByLayer
370
18
48
1
60
0
100
AcDbSpline
70
4
71
3
72
30
73
26
40
0
40
0
40
0
40
0
40
0.249999999999997
40
0.249999999999997
40
0.374999999999997
40
0.374999999999997
40
0.499999999999997
40
0.499999999999997
40
0.562499999999996
40
0.562499999999996
40
0.593749999999994
40
0.593749999999994
40
0.624999999999993
40
0.624999999999993
40
0.749999999999994
40
0.749999999999994
40
0.812499999999996
40
0.812499999999996
40
0.874999999999998
40
0.874999999999998
40
0.906249999999999
40
0.906249999999999
40
0.937499999999999
40
0.937499999999999
40
1
40
1
40
1
40
1
41
1
10
-18.7000000000009
20
10.1284213641378
30
0
41
1
10
-18.9104648830572
20
10.046276818558
30
0
41
1
10
-19.1187102404712
20
9.959761789271
30
0
41
1
10
-19.4262197380244
20
9.8204222625377
30
0
41
1
10
-19.5279050656717
20
9.77236534261053
30
0
41
1
10
-19.7292180277456
20
9.67219968442012
30
0
41
1
10
-19.8288498114015
20
9.62009911643364
30
0
41
1
10
-19.9762819453228
20
9.53797944724707
30
0
41
1
10
-20.0250880729859
20
9.50994082946477
30
0
41
1
10
-20.0977050623732
20
9.46671679341529
30
0
41
1
10
-20.1218118069211
20
9.45211400011809
30
0
41
1
10
-20.1698100923298
20
9.42248465441446
30
0
41
1
10
-20.1937041114522
20
9.40745580231373
30
0
41
1
10
-20.3121219664701
20
9.33145905521206
30
0
41
1
10
-20.4038956020694
20
9.26775975408182
30
0
41
1
10
-20.5353857749591
20
9.16616295212523
30
0
41
1
10
-20.578179105853
20
9.13128119539195
30
0
41
1
10
-20.6612468080895
20
9.05904870338276
30
0
41
1
10
-20.701524150403
20
9.02170088012778
30
0
41
1
10
-20.7595830055929
20
8.96336875752482
30
0
41
1
10
-20.7785414216038
20
8.94353800928656
30
0
41
1
10
-20.8155638678338
20
8.9029998733547
30
0
41
1
10
-20.833660265823
20
8.88225008994144
30
0
41
1
10
-20.885947784494
20
8.81907845293892
30
0
41
1
10
-20.9182759264365
20
8.77561723174341
30
0
41
1
10
-20.9474880448674
20
8.73049738938053
30
0
0
SPLINE
5
1CE
100
AcDbEntity
8
SK1
62
256
6
ByLayer
370
18
48
1
60
0
100
AcDbSpline
70
4
71
3
72
39
73
35
40
0
40
0
40
0
40
0
40
0.0312500000000087
40
0.0312500000000087
40
0.0390625000000124
40
0.0390625000000124
40
0.0468750000000161
40
0.0625000000000177
40
0.0625000000000177
40
0.0781250000000192
40
0.0781250000000192
40
0.0937500000000208
40
0.0937500000000208
40
0.125000000000019
40
0.125000000000019
40
0.156250000000017
40
0.156250000000017
40
0.187500000000015
40
0.187500000000015
40
0.250000000000014
40
0.250000000000014
40
0.312500000000014
40
0.312500000000014
40
0.375000000000013
40
0.375000000000013
40
0.437500000000012
40
0.437500000000012
40
0.500000000000012
40
0.500000000000012
40
0.625000000000009
40
0.625000000000009
40
0.750000000000006
40
0.750000000000006
40
1
40
1
40
1
40
1
41
1
10
-18.7
20
10.128421364136
30
0
41
1
10
-18.6820440222674
20
10.1354295909236
30
0
41
1
10
-18.6634283861029
20
10.1401649117902
30
0
41
1
10
-18.6391314104119
20
10.1425481010193
30
0
41
1
10
-18.6342064668433
20
10.142844506002
30
0
41
1
10
-18.6244778406186
20
10.1430603486351
30
0
41
1
10
-18.6099858819897
20
10.1428297950055
30
0
41
1
10
-18.59578508879
20
10.1410008428902
30
0
41
1
10
-18.5770925231284
20
10.1372335461529
30
0
41
1
10
-18.5678293525888
20
10.1346609771054
30
0
41
1
10
-18.5501491731322
20
10.1285187434906
30
0
41
1
10
-18.5416451084125
20
10.1249379522407
30
0
41
1
10
-18.5169656337067
20
10.1129298826914
30
0
41
1
10
-18.5015392111158
20
10.1031669338435
30
0
41
1
10
-18.4732466352074
20
10.0819806701589
30
0
41
1
10
-18.4602195669883
20
10.0704832335658
30
0
41
1
10
-18.4357259059745
20
10.0462156942385
30
0
41
1
10
-18.4242205395344
20
10.0333790911759
30
0
41
1
10
-18.391903774889
20
9.99391374188741
30
0
41
1
10
-18.3731919736298
20
9.96637349224602
30
0
41
1
10
-18.3390923269234
20
9.90979279877774
30
0
41
1
10
-18.3237523508855
20
9.88073258085112
30
0
41
1
10
-18.2954393737103
20
9.82150112817351
30
0
41
1
10
-18.2824796065762
20
9.79132443791377
30
0
41
1
10
-18.2583747418296
20
9.73008308126532
30
0
41
1
10
-18.2473035288644
20
9.69919321019569
30
0
41
1
10
-18.2267297759206
20
9.63709962096777
30
0
41
1
10
-18.2172207948505
20
9.60587054167544
30
0
41
1
10
-18.1905909818538
20
9.51170395500418
30
0
41
1
10
-18.1753446345617
20
9.4482906467272
30
0
41
1
10
-18.1485084562817
20
9.32040053309655
30
0
41
1
10
-18.1369348028272
20
9.25592119343099
30
0
41
1
10
-18.1066378443835
20
9.06104654799083
30
0
41
1
10
-18.0922710710638
20
8.92922540417075
30
0
41
1
10
-18.0823713351947
20
8.79569153222246
30
0
0
SPLINE
5
1CF
100
AcDbEntity
8
SK1
62
256
6
ByLayer
370
18
48
1
60
0
100
AcDbSpline
70
4
71
3
72
31
73
27
40
0
40
0
40
0
40
0
40
0.0625000000000002
40
0.0625000000000002
40
0.125
40
0.125
40
0.187500000000001
40
0.187500000000001
40
0.250000000000001
40
0.250000000000001
40
0.312500000000001
40
0.312500000000001
40
0.375000000000001
40
0.375000000000001
40
0.500000000000002
40
0.500000000000002
40
0.625000000000003
40
0.625000000000003
40
0.750000000000003
40
0.750000000000003
40
0.875000000000004
40
0.875000000000004
40
0.906250000000003
40
0.906250000000003
40
0.937500000000002
40
1
40
1
40
1
40
1
41
1
10
-18.0823713351946
20
8.79569153222246
30
0
41
1
10
-18.0783020778438
20
8.74080282638306
30
0
41
1
10
-18.0697459893949
20
8.68654515234999
30
0
41
1
10
-18.0456449229558
20
8.5789640336732
30
0
41
1
10
-18.03013215698
20
8.52563496026917
30
0
41
1
10
-17.9944577941104
20
8.41951332088021
30
0
41
1
10
-17.9742989417623
20
8.36670867170389
30
0
41
1
10
-17.9315006525418
20
8.26180648893506
30
0
41
1
10
-17.9088306804815
20
8.2096217475484
30
0
41
1
10
-17.86232031799
20
8.10537352783427
30
0
41
1
10
-17.8384747471624
20
8.05331154608186
30
0
41
1
10
-17.7905708868126
20
7.94901778201225
30
0
41
1
10
-17.7665087484756
20
7.89678712584347
30
0
41
1
10
-17.6950436125687
20
7.73951932947259
30
0
41
1
10
-17.6484077459544
20
7.63389327752932
30
0
41
1
10
-17.560934436845
20
7.41987733123412
30
0
41
1
10
-17.5200597371561
20
7.31149860727172
30
0
41
1
10
-17.4467006194157
20
7.09111033314088
30
0
41
1
10
-17.4141943281769
20
6.97910759960953
30
0
41
1
10
-17.3599255470604
20
6.75065034133112
30
0
41
1
10
-17.3381408686687
20
6.63420310428796
30
0
41
1
10
-17.3193245074037
20
6.48525619729492
30
0
41
1
10
-17.3159949756278
20
6.45537601452526
30
0
41
1
10
-17.3102551341246
20
6.39562615221442
30
0
41
1
10
-17.3030134721262
20
6.30592808861164
30
0
41
1
10
-17.2999999999996
20
6.21601169403763
30
0
41
1
10
-17.2999999999996
20
6.15597183131283
30
0
0
SPLINE
5
1D0
100
AcDbEntity
8
SK1
62
256
6
ByLayer
370
18
48
1
60
0
100
AcDbSpline
70
4
71
3
72
32
73
28
40
0
40
0
40
0
40
0
40
0.125
40
0.125
40
0.1875
40
0.1875
40
0.25
40
0.25
40
0.374999999999999
40
0.374999999999999
40
0.499999999999999
40
0.499999999999999
40
0.624999999999997
40
0.624999999999997
40
0.687499999999998
40
0.687499999999998
40
0.749999999999999
40
0.749999999999999
40
0.8125
40
0.8125
40
0.875000000000001
40
0.875000000000001
40
0.937500000000002
40
0.937500000000002
40
0.968750000000001
40
0.968750000000001
40
1
40
1
40
1
40
1
41
1
10
-17.3
20
-6.15597183131283
30
0
41
1
10
-17.3
20
-6.27502776327353
30
0
41
1
10
-17.3078741066293
20
-6.39317376927599
30
0
41
1
10
-17.3298349343494
20
-6.56913509753153
30
0
41
1
10
-17.338852950186
20
-6.62757886576412
30
0
41
1
10
-17.360053670523
20
-6.74406116386893
30
0
41
1
10
-17.3722620916982
20
-6.80217912549824
30
0
41
1
10
-17.412889446554
20
-6.97437041549932
30
0
41
1
10
-17.4453829281947
20
-7.08679791303072
30
0
41
1
10
-17.5187269028777
20
-7.30783568361554
30
0
41
1
10
-17.5595995351164
20
-7.41643854619159
30
0
41
1
10
-17.6470629135881
20
-7.63077050503912
30
0
41
1
10
-17.6936906243355
20
-7.73648772750977
30
0
41
1
10
-17.7651614108109
20
-7.89384810606222
30
0
41
1
10
-17.7892288178818
20
-7.94610235364593
30
0
41
1
10
-17.8371590473876
20
-8.05044097473535
30
0
41
1
10
-17.8610257567701
20
-8.10252413094344
30
0
41
1
10
-17.907606657008
20
-8.20682875371077
30
0
41
1
10
-17.9303338041198
20
-8.25906933920427
30
0
41
1
10
-17.9732144837194
20
-8.36393398635323
30
0
41
1
10
-17.9933767384672
20
-8.41656861016386
30
0
41
1
10
-18.0292425601515
20
-8.52273206306538
30
0
41
1
10
-18.0449394397662
20
-8.57626277854644
30
0
41
1
10
-18.0633287990945
20
-8.65768989352443
30
0
41
1
10
-18.0685956162589
20
-8.68502162917503
30
0
41
1
10
-18.0770925399396
20
-8.74014156861173
30
0
41
1
10
-18.0803193920911
20
-8.76801363139904
30
0
41
1
10
-18.0823713351942
20
-8.79569153222243
30
0
0
SPLINE
5
1D1
100
AcDbEntity
8
SK1
62
256
6
ByLayer
370
18
48
1
60
0
100
AcDbSpline
70
4
71
3
72
44
73
40
40
0
40
0
40
0
40
0
40
0.250000000000008
40
0.250000000000008
40
0.375000000000012
40
0.375000000000012
40
0.500000000000016
40
0.500000000000016
40
0.625000000000021
40
0.625000000000021
40
0.687500000000022
40
0.687500000000022
40
0.71875000000002
40
0.71875000000002
40
0.750000000000018
40
0.750000000000018
40
0.781250000000016
40
0.781250000000016
40
0.812500000000015
40
0.812500000000015
40
0.843750000000013
40
0.843750000000013
40
0.875000000000011
40
0.875000000000011
40
0.89062500000001
40
0.89062500000001
40
0.906250000000009
40
0.906250000000009
40
0.921875000000008
40
0.921875000000008
40
0.929687500000005
40
0.929687500000005
40
0.937500000000002
40
0.937500000000002
40
0.953125000000002
40
0.953125000000002
40
0.968750000000001
40
0.968750000000001
40
1
40
1
40
1
40
1
41
1
10
-18.0823713351947
20
-8.79569153222246
30
0
41
1
10
-18.0922533898239
20
-8.92898690847167
30
0
41
1
10
-18.1065794782109
20
-9.06043602707186
30
0
41
1
10
-18.1366988754119
20
-9.25451967863566
30
0
41
1
10
-18.1481934712295
20
-9.31869614710934
30
0
41
1
10
-18.174799439498
20
-9.44588930886161
30
0
41
1
10
-18.1898960022118
20
-9.5089087209769
30
0
41
1
10
-18.2249615363993
20
-9.63356337470694
30
0
41
1
10
-18.2448808834581
20
-9.69520776669142
30
0
41
1
10
-18.2803898916892
20
-9.78627774991367
30
0
41
1
10
-18.2931766278555
20
-9.81639942612836
30
0
41
1
10
-18.3143152538039
20
-9.86113191064382
30
0
41
1
10
-18.3216905807385
20
-9.87596723596553
30
0
41
1
10
-18.337242006617
20
-9.90546069534372
30
0
41
1
10
-18.3454407962293
20
-9.92015723279647
30
0
41
1
10
-18.3626991750313
20
-9.94909619591479
30
0
41
1
10
-18.3717562676914
20
-9.96334193790574
30
0
41
1
10
-18.3909420666303
20
-9.99128291021097
30
0
41
1
10
-18.4010930884227
20
-10.0050095197448
30
0
41
1
10
-18.4226858483357
20
-10.0316141768852
30
0
41
1
10
-18.4340744712301
20
-10.0444351717895
30
0
41
1
10
-18.4584150861938
20
-10.0688206224588
30
0
41
1
10
-18.4713593687557
20
-10.0803911263443
30
0
41
1
10
-18.4924384968394
20
-10.0964228186144
30
0
41
1
10
-18.4997446715019
20
-10.1015439395833
30
0
41
1
10
-18.5150572778963
20
-10.1112307937945
30
0
41
1
10
-18.5231247137963
20
-10.1158258591856
30
0
41
1
10
-18.5397955632996
20
-10.1241176426374
30
0
41
1
10
-18.5483931939083
20
-10.1278202776483
30
0
41
1
10
-18.5617578438591
20
-10.1325844355969
30
0
41
1
10
-18.5662910000495
20
-10.1340404533974
30
0
41
1
10
-18.5755299984447
20
-10.1366614346388
30
0
41
1
10
-18.5802558331786
20
-10.1378295980841
30
0
41
1
10
-18.5944777526538
20
-10.1408038955408
30
0
41
1
10
-18.604064948198
20
-10.1420994102856
30
0
41
1
10
-18.6234634214234
20
-10.1432376588888
30
0
41
1
10
-18.6333220060997
20
-10.1430758022863
30
0
41
1
10
-18.6629543097212
20
-10.1402907831888
30
0
41
1
10
-18.6818267924415
20
-10.1355143758297
30
0
41
1
10
-18.7
20
-10.1284213641361
30
0
0
SPLINE
5
1D2
100
AcDbEntity
8
SK1
62
256
6
ByLayer
370
18
48
1
60
0
100
AcDbSpline
70
4
71
3
72
30
73
26
40
0
40
0
40
0
40
0
40
0.0624999999999981
40
0.0624999999999981
40
0.0937499999999972
40
0.0937499999999972
40
0.124999999999996
40
0.124999999999996
40
0.187499999999993
40
0.187499999999993
40
0.24999999999999
40
0.24999999999999
40
0.312499999999987
40
0.312499999999987
40
0.343749999999988
40
0.343749999999988
40
0.374999999999989
40
0.374999999999989
40
0.499999999999991
40
0.499999999999991
40
0.624999999999993
40
0.624999999999993
40
0.749999999999996
40
0.749999999999996
40
1
40
1
40
1
40
1
41
1
10
-20.9474880448685
20
-8.73049738937726
30
0
41
1
10
-20.9184106099225
20
-8.77540920514261
30
0
41
1
10
-20.8861926667939
20
-8.8187563370422
30
0
41
1
10
-20.8340009243336
20
-8.88185147593757
30
0
41
1
10
-20.8159424998054
20
-8.9025710244409
30
0
41
1
10
-20.77900593491
20
-8.94304332521293
30
0
41
1
10
-20.7600850783983
20
-8.96284969172703
30
0
41
1
10
-20.7021220726998
20
-9.02112880525806
30
0
41
1
10
-20.6618861033702
20
-9.05846784912211
30
0
41
1
10
-20.5788563057592
20
-9.13071688354984
30
0
41
1
10
-20.5360595836299
20
-9.1656241259906
30
0
41
1
10
-20.4483503801182
20
-9.233429394534
30
0
41
1
10
-20.4034362752858
20
-9.26632587893843
30
0
41
1
10
-20.3347246706949
20
-9.31439765887285
30
0
41
1
10
-20.3115966423228
20
-9.33020871333682
30
0
41
1
10
-20.2649260341018
20
-9.36143714628344
30
0
41
1
10
-20.241362305831
20
-9.37686774328893
30
0
41
1
10
-20.122977746175
20
-9.45285590311616
30
0
41
1
10
-20.0263041834765
20
-9.51009209431078
30
0
41
1
10
-19.8301120494025
20
-9.61942075543305
30
0
41
1
10
-19.7305840537215
20
-9.67149618639652
30
0
41
1
10
-19.5293329681742
20
-9.77167836002604
30
0
41
1
10
-19.4276056635007
20
-9.81977748240092
30
0
41
1
10
-19.1197867731998
20
-9.95930724685269
30
0
41
1
10
-18.9110923088394
20
-10.0460319339697
30
0
41
1
10
-18.7
20
-10.1284213641361
30
0
0
SPLINE
5
1D3
100
AcDbEntity
8
SK1
62
256
6
ByLayer
370
18
48
1
60
0
100
AcDbSpline
70
4
71
3
72
34
73
30
40
0
40
0
40
0
40
0
40
0.250000000000001
40
0.250000000000001
40
0.375000000000001
40
0.375000000000001
40
0.500000000000002
40
0.500000000000002
40
0.625000000000002
40
0.625000000000002
40
0.687500000000002
40
0.687500000000002
40
0.750000000000003
40
0.750000000000003
40
0.812500000000003
40
0.812500000000003
40
0.875000000000003
40
0.875000000000003
40
0.906250000000002
40
0.906250000000002
40
0.9375
40
0.9375
40
0.953125
40
0.953125
40
0.96875
40
0.96875
40
0.984375
40
0.984375
40
1
40
1
40
1
40
1
41
1
10
-23.7499999999985
20
-7.96599739569317
30
0
41
1
10
-23.5070144314103
20
-8.00395348316826
30
0
41
1
10
-23.2644431885852
20
-8.04404999086688
30
0
41
1
10
-22.9015361828541
20
-8.10909961252935
30
0
41
1
10
-22.7807273574082
20
-8.13160992782926
30
0
41
1
10
-22.5395290342444
20
-8.17879543852112
30
0
41
1
10
-22.4191381348598
20
-8.2034637221644
30
0
41
1
10
-22.1791814184785
20
-8.25573955512473
30
0
41
1
10
-22.0595853284587
20
-8.28333061738766
30
0
41
1
10
-21.8810704642003
20
-8.32805889123603
30
0
41
1
10
-21.8216922797898
20
-8.34353797241673
30
0
41
1
10
-21.7034596728075
20
-8.37593363556206
30
0
41
1
10
-21.64460215186
20
-8.39284531233932
30
0
41
1
10
-21.5276014253044
20
-8.42863886453966
30
0
41
1
10
-21.4694535414507
20
-8.44750784028818
30
0
41
1
10
-21.3542248711607
20
-8.4881887356658
30
0
41
1
10
-21.297305525128
20
-8.50990525756552
30
0
41
1
10
-21.2139743383642
20
-8.54593405900633
30
0
41
1
10
-21.186534278048
20
-8.55853110541665
30
0
41
1
10
-21.1326219090111
20
-8.58541206305114
30
0
41
1
10
-21.1061402351056
20
-8.59967965153803
30
0
41
1
10
-21.0675694510006
20
-8.62308850939851
30
0
41
1
10
-21.054863793291
20
-8.63126216864669
30
0
41
1
10
-21.0302470903407
20
-8.64834515748575
30
0
41
1
10
-21.0183337827493
20
-8.65724864956866
30
0
41
1
10
-20.995578661765
20
-8.67603747708466
30
0
41
1
10
-20.9847311687383
20
-8.68591760828866
30
0
41
1
10
-20.964593161846
20
-8.70710455784618
30
0
41
1
10
-20.9552985266547
20
-8.71843363892413
30
0
41
1
10
-20.9474880448687
20
-8.73049738937686
30
0
0
SPLINE
5
1D4
100
AcDbEntity
8
SK1
62
256
6
ByLayer
370
18
48
1
60
0
100
AcDbSpline
70
4
71
3
72
10
73
6
40
0
40
0
40
0
40
0
40
0.5
40
0.5
40
1
40
1
40
1
40
1
41
1
10
-23.8978773747949
20
-8.6633624660968
30
0
41
1
10
-23.8937327167666
20
-8.54490774614041
30
0
41
1
10
-23.8782856244679
20
-8.42771437777753
30
0
41
1
10
-23.8278350927541
20
-8.19542919882966
30
0
41
1
10
-23.7928669093361
20
-8.08033131085611
30
0
41
1
10
-23.75
20
-7.96599739570104
30
0
0
SPLINE
5
1D5
100
AcDbEntity
8
SK1
62
256
6
ByLayer
370
18
48
1
60
0
100
AcDbSpline
70
2053
71
3
72
172
73
168
40
0
40
0
40
0
40
0
40
0.0156249999999998
40
0.0312499999999997
40
0.0312499999999997
40
0.0390624999999996
40
0.0429687499999996
40
0.0429687499999996
40
0.0468749999999995
40
0.0468749999999995
40
0.0624999999999992
40
0.0781249999999988
40
0.0781249999999988
40
0.0937499999999984
40
0.0937499999999984
40
0.101562499999998
40
0.101562499999998
40
0.109374999999998
40
0.109374999999998
40
0.124999999999998
40
0.140624999999997
40
0.140624999999997
40
0.144531249999997
40
0.144531249999997
40
0.148437499999997
40
0.148437499999997
40
0.156249999999997
40
0.156249999999997
40
0.171874999999997
40
0.187499999999996
40
0.187499999999996
40
0.191406249999996
40
0.191406249999996
40
0.195312499999996
40
0.195312499999996
40
0.203124999999996
40
0.203124999999996
40
0.218749999999996
40
0.218749999999996
40
0.234374999999996
40
0.234374999999996
40
0.238281249999996
40
0.238281249999996
40
0.242187499999996
40
0.242187499999996
40
0.249999999999996
40
0.249999999999996
40
0.265624999999996
40
0.265624999999996
40
0.281249999999996
40
0.281249999999996
40
0.289062499999996
40
0.289062499999996
40
0.296874999999995
40
0.296874999999995
40
0.312499999999996
40
0.312499999999996
40
0.328124999999996
40
0.343749999999996
40
0.343749999999996
40
0.351562499999995
40
0.351562499999995
40
0.359374999999995
40
0.359374999999995
40
0.374999999999995
40
0.390624999999995
40
0.390624999999995
40
0.406249999999994
40
0.406249999999994
40
0.421874999999994
40
0.421874999999994
40
0.437499999999994
40
0.453124999999993
40
0.453124999999993
40
0.460937499999993
40
0.464843749999993
40
0.464843749999993
40
0.468749999999993
40
0.468749999999993
40
0.484374999999993
40
0.499999999999993
40
0.499999999999993
40
0.515624999999994
40
0.515624999999994
40
0.523437499999994
40
0.523437499999994
40
0.527343749999994
40
0.527343749999994
40
0.531249999999994
40
0.546874999999994
40
0.562499999999994
40
0.562499999999994
40
0.578124999999995
40
0.578124999999995
40
0.585937499999995
40
0.585937499999995
40
0.593749999999995
40
0.593749999999995
40
0.609374999999995
40
0.609374999999995
40
0.624999999999995
40
0.624999999999995
40
0.628906249999996
40
0.628906249999996
40
0.632812499999996
40
0.632812499999996
40
0.640624999999996
40
0.640624999999996
40
0.656249999999996
40
0.671874999999996
40
0.671874999999996
40
0.675781249999996
40
0.675781249999996
40
0.679687499999996
40
0.679687499999996
40
0.687499999999997
40
0.687499999999997
40
0.703124999999997
40
0.703124999999997
40
0.718749999999997
40
0.718749999999997
40
0.726562499999997
40
0.726562499999997
40
0.734374999999997
40
0.734374999999997
40
0.749999999999998
40
0.749999999999998
40
0.765624999999998
40
0.765624999999998
40
0.773437499999998
40
0.773437499999998
40
0.781249999999998
40
0.781249999999998
40
0.796874999999999
40
0.796874999999999
40
0.812499999999999
40
0.828124999999999
40
0.828124999999999
40
0.835937499999999
40
0.835937499999999
40
0.843749999999999
40
0.843749999999999
40
0.859374999999999
40
0.874999999999999
40
0.874999999999999
40
0.8828125
40
0.886718749999999
40
0.886718749999999
40
0.890624999999999
40
0.890624999999999
40
0.906249999999999
40
0.921874999999999
40
0.921874999999999
40
0.937499999999999
40
0.937499999999999
40
0.945312499999999
40
0.945312499999999
40
0.949218749999999
40
0.949218749999999
40
0.953124999999999
40
0.968749999999999
40
0.984375
40
0.984375
40
0.9921875
40
0.99609375
40
0.99609375
40
1
40
1
40
1
40
1
41
1
10
-9.93163308032153
20
-2.37925994233717
30
0
41
1
10
-10.0173099524268
20
-2.3000023001963
30
0
41
1
10
-10.17959374099
20
-2.13420158315969
30
0
41
1
10
-10.3238426795789
20
-1.95387565340633
30
0
41
1
10
-10.4250943326349
20
-1.8130313638537
30
0
41
1
10
-10.4739834024198
20
-1.74120684920288
30
0
41
1
10
-10.5202015462674
20
-1.66722305879529
30
0
41
1
10
-10.550410776985
20
-1.61741287238436
30
0
41
1
10
-10.5652342792838
20
-1.59222733080497
30
0
41
1
10
-10.6374721041501
20
-1.46567442093243
30
0
41
1
10
-10.741294146008
20
-1.2588795884067
30
0
41
1
10
-10.8219598912144
20
-1.04357872868164
30
0
41
1
10
-10.890864384874
20
-0.823950232384135
30
0
41
1
10
-10.9194379156819
20
-0.711972874373743
30
0
41
1
10
-10.9530497550672
20
-0.540599659801387
30
0
41
1
10
-10.9627200188781
20
-0.48276247575609
30
0
41
1
10
-10.9786831430826
20
-0.367416598417293
30
0
41
1
10
-10.9850139264204
20
-0.309755874095544
30
0
41
1
10
-10.9991363658727
20
-0.136809744376564
30
0
41
1
10
-11.0050022547276
20
0.0936891427462854
30
0
41
1
10
-10.9851934847114
20
0.323997974872469
30
0
41
1
10
-10.9646136186956
20
0.467880326146911
30
0
41
1
10
-10.9600866505125
20
0.496653755508191
30
0
41
1
10
-10.9502020904739
20
0.554194469775325
30
0
41
1
10
-10.944840561323
20
0.582973628561746
30
0
41
1
10
-10.927614286273
20
0.668751041564718
30
0
41
1
10
-10.9145796292126
20
0.725372486644346
30
0
41
1
10
-10.8709455721722
20
0.893591339272746
30
0
41
1
10
-10.8007145680353
20
1.11350529999871
30
0
41
1
10
-10.7070542031182
20
1.3249214652144
30
0
41
1
10
-10.6411746630754
20
1.45439890954845
30
0
41
1
10
-10.6276307668859
20
1.48016119476637
30
0
41
1
10
-10.5998028596312
20
1.53141800756279
30
0
41
1
10
-10.5855170752836
20
1.55691267549133
30
0
41
1
10
-10.5418002509849
20
1.6325613291653
30
0
41
1
10
-10.5114315531135
20
1.68202902150063
30
0
41
1
10
-10.4167610539869
20
1.82762622204197
30
0
41
1
10
-10.3489041463105
20
1.92095715231389
30
0
41
1
10
-10.2040330533056
20
2.10042828958348
30
0
41
1
10
-10.1270179228523
20
2.18656772352028
30
0
41
1
10
-10.0250496701939
20
2.28977845400689
30
0
41
1
10
-10.0043703750122
20
2.31019689231968
30
0
41
1
10
-9.96243840601623
20
2.35058502117641
30
0
41
1
10
-9.94115757972909
20
2.37058007710195
30
0
41
1
10
-9.87670644648256
20
2.42965663025902
30
0
41
1
10
-9.83292661479004
20
2.46783828085472
30
0
41
1
10
-9.69922082798446
20
2.57888387098347
30
0
41
1
10
-9.60693443668622
20
2.64825716144071
30
0
41
1
10
-9.41628526027037
20
2.77803689796852
30
0
41
1
10
-9.31792177630848
20
2.83844227958593
30
0
41
1
10
-9.16584918365133
20
2.92238270341707
30
0
41
1
10
-9.1144024191519
20
2.94924958185277
30
0
41
1
10
-9.00998618280603
20
3.00074283626989
30
0
41
1
10
-8.95694285857788
20
3.02539476779074
30
0
41
1
10
-8.7970533610428
20
3.09530420255487
30
0
41
1
10
-8.68899178592193
20
3.13676793842245
30
0
41
1
10
-8.47004632801865
20
3.20981119553596
30
0
41
1
10
-8.24827785800058
20
3.27296777136448
30
0
41
1
10
-8.02093368846572
20
3.31659531137697
30
0
41
1
10
-7.84830521520423
20
3.34188887560541
30
0
41
1
10
-7.7902845904257
20
3.34908894485236
30
0
41
1
10
-7.67453942409595
20
3.36087848648006
30
0
41
1
10
-7.6167326279637
20
3.36548566875217
30
0
41
1
10
-7.44350618316147
20
3.37552005064046
30
0
41
1
10
-7.21305405819069
20
3.3788176488174
30
0
41
1
10
-6.98361522189501
20
3.36234271063756
30
0
41
1
10
-6.75468362582563
20
3.33591789593831
30
0
41
1
10
-6.64047140922683
20
3.31773153195269
30
0
41
1
10
-6.41256563275986
20
3.27107586015293
30
0
41
1
10
-6.30048448797591
20
3.24293308485284
30
0
41
1
10
-6.08017888768758
20
3.17733099353021
30
0
41
1
10
-5.86365300317512
20
3.10239259133939
30
0
41
1
10
-5.65464247114811
20
3.00879283852851
30
0
41
1
10
-5.50076420594763
20
2.93139770194969
30
0
41
1
10
-5.42454609097972
20
2.89089843071304
30
0
41
1
10
-5.34943350241353
20
2.84762712866277
30
0
41
1
10
-5.29960753566472
20
2.8181539025359
30
0
41
1
10
-5.27480675205837
20
2.80309562140258
30
0
41
1
10
-5.1520877548252
20
2.72663069694798
30
0
41
1
10
-4.96291167370521
20
2.59619806571428
30
0
41
1
10
-4.78788090526112
20
2.44972474602775
30
0
41
1
10
-4.62003293980146
20
2.29505749432528
30
0
41
1
10
-4.53969915940053
20
2.21362836209329
30
0
41
1
10
-4.42483921762297
20
2.08501221978423
30
0
41
1
10
-4.38749458461946
20
2.04105924510753
30
0
41
1
10
-4.33294190855568
20
1.97344484270394
30
0
41
1
10
-4.31497397804753
20
1.95058863708428
30
0
41
1
10
-4.27970319809451
20
1.9045225917535
30
0
41
1
10
-4.19319275470876
20
1.78847811984039
30
0
41
1
10
-4.05231553134219
20
1.57175600318462
30
0
41
1
10
-3.94816470032579
20
1.36793031717028
30
0
41
1
10
-3.85486933342671
20
1.15832166053241
30
0
41
1
10
-3.81364678557331
20
1.05062725415897
30
0
41
1
10
-3.76047502673735
20
0.88445718389346
30
0
41
1
10
-3.744174783698
20
0.828163297810562
30
0
41
1
10
-3.7149697653759
20
0.715549895976181
30
0
41
1
10
-3.70200338969674
20
0.659062219847613
30
0
41
1
10
-3.6679527790908
20
0.489062396719078
30
0
41
1
10
-3.65170477443722
20
0.375014776062159
30
0
41
1
10
-3.63209796225364
20
0.14549079127147
30
0
41
1
10
-3.62873825643038
20
0.0300145266991763
30
0
41
1
10
-3.63283759972033
20
-0.115250946948436
30
0
41
1
10
-3.63407346418025
20
-0.144350161614938
30
0
41
1
10
-3.63738764428919
20
-0.202641982238958
30
0
41
1
10
-3.6394707788845
20
-0.231882132220875
30
0
41
1
10
-3.64695348945702
20
-0.31922611134226
30
0
41
1
10
-3.65358434904586
20
-0.377039999956622
30
0
41
1
10
-3.67827454186134
20
-0.549268709337412
30
0
41
1
10
-3.72395903701055
20
-0.775679762459419
30
0
41
1
10
-3.79444265955166
20
-0.995830990963015
30
0
41
1
10
-3.84626042251287
20
-1.13147027439538
30
0
41
1
10
-3.85701319695907
20
-1.15850013718182
30
0
41
1
10
-3.87930142059207
20
-1.21236295912343
30
0
41
1
10
-3.89083186074372
20
-1.23918010457706
30
0
41
1
10
-3.92638435508249
20
-1.31886517262285
30
0
41
1
10
-3.95143069142938
20
-1.37112450361371
30
0
41
1
10
-4.03047626557712
20
-1.5253969307872
30
0
41
1
10
-4.08837158717513
20
-1.62491110485038
30
0
41
1
10
-4.21415864584624
20
-1.81755513871516
30
0
41
1
10
-4.28205152432888
20
-1.91068421983127
30
0
41
1
10
-4.39133346038483
20
-2.0456473852048
30
0
41
1
10
-4.42909663162348
20
-2.08994237629202
30
0
41
1
10
-4.50640821487542
20
-2.1761667158095
30
0
41
1
10
-4.54600274004312
20
-2.21816428077633
30
0
41
1
10
-4.66752063681851
20
-2.34091994266746
30
0
41
1
10
-4.75217127513336
20
-2.41844941644467
30
0
41
1
10
-4.92850106695934
20
-2.5652378463956
30
0
41
1
10
-5.02018099666461
20
-2.63449579747851
30
0
41
1
10
-5.16295064524257
20
-2.73224222515569
30
0
41
1
10
-5.21142456520141
20
-2.76380363528574
30
0
41
1
10
-5.31011133397037
20
-2.82484474523986
30
0
41
1
10
-5.35998525780607
20
-2.85411543676386
30
0
41
1
10
-5.51115861614184
20
-2.9382849445868
30
0
41
1
10
-5.61400598368324
20
-2.98955006671488
30
0
41
1
10
-5.8237142038961
20
-3.08271960339613
30
0
41
1
10
-6.03743716277022
20
-3.16652554329332
30
0
41
1
10
-6.25918162488794
20
-3.23172766643529
30
0
41
1
10
-6.42857746061087
20
-3.27350141881578
30
0
41
1
10
-6.48527622515411
20
-3.28616357041031
30
0
41
1
10
-6.5987700638793
20
-3.3089276670045
30
0
41
1
10
-6.65562358560896
20
-3.31904409346905
30
0
41
1
10
-6.8265004622248
20
-3.34565261087721
30
0
41
1
10
-7.05517865720856
20
-3.37117107220919
30
0
41
1
10
-7.28553386510002
20
-3.37696298287031
30
0
41
1
10
-7.45894055673627
20
-3.37378630672183
30
0
41
1
10
-7.54580417597116
20
-3.37031505725491
30
0
41
1
10
-7.63291254170913
20
-3.36396640609308
30
0
41
1
10
-7.69103978368794
20
-3.35908691410211
30
0
41
1
10
-7.72012682293617
20
-3.35632291792101
30
0
41
1
10
-7.86496265295932
20
-3.34095305631308
30
0
41
1
10
-8.09405278942144
20
-3.30637482841121
30
0
41
1
10
-8.31795709928417
20
-3.25223633348602
30
0
41
1
10
-8.5392539630259
20
-3.1882653719008
30
0
41
1
10
-8.64859890527234
20
-3.15136453211213
30
0
41
1
10
-8.81059656483677
20
-3.08839949287929
30
0
41
1
10
-8.86425858336148
20
-3.06614002013384
30
0
41
1
10
-8.9442320435522
20
-3.03079261220191
30
0
41
1
10
-8.97083710932964
20
-3.01866742248237
30
0
41
1
10
-9.02367683309393
20
-2.99384656812089
30
0
41
1
10
-9.15482409964369
20
-2.93037930982962
30
0
41
1
10
-9.38240967787662
20
-2.80352870234756
30
0
41
1
10
-9.57270851186959
20
-2.67289488213555
30
0
41
1
10
-9.71082419501408
20
-2.56803931250059
30
0
41
1
10
-9.77872806174946
20
-2.51388867729474
30
0
41
1
10
-9.84485968359897
20
-2.45708930817517
30
0
41
1
10
-9.88854775557201
20
-2.41862540002958
30
0
41
1
10
-9.91021386229519
20
-2.39907435287239
30
0
41
1
10
-9.93163308032153
20
-2.37925994233717
30
0
0
LINE
5
8F
100
AcDbEntity
8
80
62
256
6
ByLayer
370
18
48
1
60
0
100
AcDbLine
10
0
20
0
30
0
11
-5
21
0
31
0
39
0
210
0
220
0
230
1
0
LINE
5
90
100
AcDbEntity
8
4
62
256
6
ByLayer
370
18
48
0.05
60
0
100
AcDbLine
10
0
20
0
30
0
11
60
21
0
31
0
39
0
210
0
220
0
230
1
0
LINE
5
92
100
AcDbEntity
8
81
62
256
6
ByLayer
370
18
48
1
60
0
100
AcDbLine
10
60
20
0
30
0
11
65
21
0
31
0
39
0
210
0
220
0
230
1
0
LINE
5
93
100
AcDbEntity
8
SK4
62
256
6
ByLayer
370
18
48
0.05
60
0
100
AcDbLine
10
0
20
0
30
0
11
60
21
0
31
0
39
0
210
0
220
0
230
1
0
LINE
5
95
100
AcDbEntity
8
1
62
256
6
ByLayer
370
18
48
1
60
0
100
AcDbLine
10
19.525
20
21.475
30
0
11
16.475
21
21.475
31
0
39
0
210
0
220
0
230
1
0
LINE
5
96
100
AcDbEntity
8
1
62
256
6
ByLayer
370
18
48
1
60
0
100
AcDbLine
10
61.214791
20
10.64675
30
0
11
60.375
21
10.64675
31
0
39
0
210
0
220
0
230
1
0
LINE
5
97
100
AcDbEntity
8
1
62
256
6
ByLayer
370
18
48
1
60
0
100
AcDbLine
10
60.375
20
-10.64675
30
0
11
61.214791
21
-10.64675
31
0
39
0
210
0
220
0
230
1
0
LINE
5
98
100
AcDbEntity
8
1
62
256
6
ByLayer
370
18
48
1
60
0
100
AcDbLine
10
75
20
10.99675
30
0
11
62.6
21
10.99675
31
0
39
0
210
0
220
0
230
1
0
LINE
5
99
100
AcDbEntity
8
1
62
256
6
ByLayer
370
18
48
1
60
0
100
AcDbLine
10
62.6
20
-10.99675
30
0
11
75
21
-10.99675
31
0
39
0
210
0
220
0
230
1
0
LINE
5
9A
100
AcDbEntity
8
1
62
256
6
ByLayer
370
18
48
1
60
0
100
AcDbLine
10
61.370082
20
-10.667195
30
0
11
62.6
21
-10.99675
31
0
39
0
210
0
220
0
230
1
0
LINE
5
9B
100
AcDbEntity
8
1
62
256
6
ByLayer
370
18
48
1
60
0
100
AcDbLine
10
62.6
20
10.99675
30
0
11
61.370082
21
10.667195
31
0
39
0
210
0
220
0
230
1
0
LINE
5
9C
100
AcDbEntity
8
1
62
256
6
ByLayer
370
18
48
1
60
0
100
AcDbLine
10
76
20
10.4194
30
0
11
75
21
10.99675
31
0
39
0
210
0
220
0
230
1
0
LINE
5
9D
100
AcDbEntity
8
1
62
256
6
ByLayer
370
18
48
1
60
0
100
AcDbLine
10
75
20
-10.99675
30
0
11
76
21
-10.4194
31
0
39
0
210
0
220
0
230
1
0
LINE
5
9E
100
AcDbEntity
8
1
62
256
6
ByLayer
370
18
48
1
60
0
100
AcDbLine
10
26.95
20
-20.75
30
0
11
41.399449
21
-20.75
31
0
39
0
210
0
220
0
230
1
0
LINE
5
9F
100
AcDbEntity
8
1
62
256
6
ByLayer
370
18
48
1
60
0
100
AcDbLine
10
41.399449
20
20.75
30
0
11
26.95
21
20.75
31
0
39
0
210
0
220
0
230
1
0
LINE
5
A0
100
AcDbEntity
8
1
62
256
6
ByLayer
370
18
48
1
60
0
100
AcDbLine
10
16.475
20
-21.475
30
0
11
19.525
21
-21.475
31
0
39
0
210
0
220
0
230
1
0
LINE
5
A1
100
AcDbEntity
8
1
62
256
6
ByLayer
370
18
48
1
60
0
100
AcDbLine
10
60
20
23.5
30
0
11
59.5
21
24
31
0
39
0
210
0
220
0
230
1
0
LINE
5
A2
100
AcDbEntity
8
1
62
256
6
ByLayer
370
18
48
1
60
0
100
AcDbLine
10
59.5
20
-24
30
0
11
60
21
-23.5
31
0
39
0
210
0
220
0
230
1
0
LINE
5
A3
100
AcDbEntity
8
1
62
256
6
ByLayer
370
18
48
1
60
0
100
AcDbLine
10
14.622501
20
-24.975
30
0
11
16.075
21
-22.459198
31
0
39
0
210
0
220
0
230
1
0
LINE
5
A4
100
AcDbEntity
8
1
62
256
6
ByLayer
370
18
48
1
60
0
100
AcDbLine
10
25.95
20
24.475
30
0
11
25.45
21
24.975
31
0
39
0
210
0
220
0
230
1
0
LINE
5
A5
100
AcDbEntity
8
1
62
256
6
ByLayer
370
18
48
1
60
0
100
AcDbLine
10
25.45
20
24.975
30
0
11
21.377499
21
24.975
31
0
39
0
210
0
220
0
230
1
0
LINE
5
A6
100
AcDbEntity
8
1
62
256
6
ByLayer
370
18
48
1
60
0
100
AcDbLine
10
21.377499
20
24.975
30
0
11
19.925
21
22.459198
31
0
39
0
210
0
220
0
230
1
0
LINE
5
A7
100
AcDbEntity
8
1
62
256
6
ByLayer
370
18
48
1
60
0
100
AcDbLine
10
16.075
20
22.459198
30
0
11
14.622501
21
24.975
31
0
39
0
210
0
220
0
230
1
0
LINE
5
A8
100
AcDbEntity
8
1
62
256
6
ByLayer
370
18
48
1
60
0
100
AcDbLine
10
25.45
20
-24.975
30
0
11
25.95
21
-24.475
31
0
39
0
210
0
220
0
230
1
0
LINE
5
A9
100
AcDbEntity
8
1
62
256
6
ByLayer
370
18
48
1
60
0
100
AcDbLine
10
19.925
20
-22.459198
30
0
11
21.377499
21
-24.975
31
0
39
0
210
0
220
0
230
1
0
LINE
5
AA
100
AcDbEntity
8
1
62
256
6
ByLayer
370
18
48
1
60
0
100
AcDbLine
10
21.377499
20
-24.975
30
0
11
25.45
21
-24.975
31
0
39
0
210
0
220
0
230
1
0
LINE
5
AB
100
AcDbEntity
8
1
62
256
6
ByLayer
370
18
48
1
60
0
100
AcDbLine
10
43.399449
20
-24
30
0
11
59.5
21
-24
31
0
39
0
210
0
220
0
230
1
0
LINE
5
AC
100
AcDbEntity
8
1
62
256
6
ByLayer
370
18
48
1
60
0
100
AcDbLine
10
59.5
20
24
30
0
11
43.399449
21
24
31
0
39
0
210
0
220
0
230
1
0
LINE
5
AD
100
AcDbEntity
8
1
62
256
6
ByLayer
370
18
48
1
60
0
100
AcDbLine
10
0
20
-24.475
30
0
11
0.5
21
-24.975
31
0
39
0
210
0
220
0
230
1
0
LINE
5
AE
100
AcDbEntity
8
1
62
256
6
ByLayer
370
18
48
1
60
0
100
AcDbLine
10
0.5
20
24.975
30
0
11
0
21
24.475
31
0
39
0
210
0
220
0
230
1
0
LINE
5
AF
100
AcDbEntity
8
1
62
256
6
ByLayer
370
18
48
1
60
0
100
AcDbLine
10
14.622501
20
24.975
30
0
11
0.5
21
24.975
31
0
39
0
210
0
220
0
230
1
0
LINE
5
B0
100
AcDbEntity
8
1
62
256
6
ByLayer
370
18
48
1
60
0
100
AcDbLine
10
0.5
20
-24.975
30
0
11
1.989938
21
-24.975
31
0
39
0
210
0
220
0
230
1
0
LINE
5
B1
100
AcDbEntity
8
1
62
256
6
ByLayer
370
18
48
1
60
0
100
AcDbLine
10
12.0225
20
-24.975
30
0
11
14.622501
21
-24.975
31
0
39
0
210
0
220
0
230
1
0
LINE
5
B2
100
AcDbEntity
8
SK2
62
256
6
ByLayer
370
18
48
1
60
0
100
AcDbLine
10
84
20
13
30
0
11
83
21
14
31
0
39
0
210
0
220
0
230
1
0
LINE
5
B4
100
AcDbEntity
8
SK2
62
256
6
ByLayer
370
18
48
1
60
0
100
AcDbLine
10
83
20
-14
30
0
11
84
21
-13
31
0
39
0
210
0
220
0
230
1
0
LINE
5
B5
100
AcDbEntity
8
SK2
62
256
6
ByLayer
370
18
48
1
60
0
100
AcDbLine
10
83
20
14
30
0
11
79
21
14
31
0
39
0
210
0
220
0
230
1
0
LINE
5
B6
100
AcDbEntity
8
SK2
62
256
6
ByLayer
370
18
48
1
60
0
100
AcDbLine
10
79
20
-14
30
0
11
83
21
-14
31
0
39
0
210
0
220
0
230
1
0
LINE
5
B7
100
AcDbEntity
8
SK2
62
256
6
ByLayer
370
18
48
1
60
0
100
AcDbLine
10
78.999469
20
5
30
0
11
75.999516
21
5
31
0
39
0
210
0
220
0
230
1
0
LINE
5
B8
100
AcDbEntity
8
SK2
62
256
6
ByLayer
370
18
48
1
60
0
100
AcDbLine
10
75.999516
20
-5
30
0
11
78.999469
21
-5
31
0
39
0
210
0
220
0
230
1
0
LINE
5
B9
100
AcDbEntity
8
SK2
62
256
6
ByLayer
370
18
48
1
60
0
100
AcDbLine
10
89.5
20
8
30
0
11
84
21
8
31
0
39
0
210
0
220
0
230
1
0
LINE
5
BA
100
AcDbEntity
8
SK2
62
256
6
ByLayer
370
18
48
1
60
0
100
AcDbLine
10
84
20
-8
30
0
11
89.5
21
-8
31
0
39
0
210
0
220
0
230
1
0
LINE
5
BB
100
AcDbEntity
8
SK1
62
256
6
ByLayer
370
18
48
1
60
0
100
AcDbLine
10
-0.45
20
18.904801
30
0
11
-1.566987
21
18.904801
31
0
39
0
210
0
220
0
230
1
0
LINE
5
BD
100
AcDbEntity
8
SK1
62
256
6
ByLayer
370
18
48
1
60
0
100
AcDbLine
10
-1.566987
20
-18.904801
30
0
11
-0.45
21
-18.904801
31
0
39
0
210
0
220
0
230
1
0
LINE
5
BE
100
AcDbEntity
8
SK1
62
256
6
ByLayer
370
18
48
1
60
0
100
AcDbLine
10
-1.566987
20
18.904801
30
0
11
-2
21
19.154801
31
0
39
0
210
0
220
0
230
1
0
LINE
5
BF
100
AcDbEntity
8
SK1
62
256
6
ByLayer
370
18
48
1
60
0
100
AcDbLine
10
-2
20
-19.154801
30
0
11
-1.566987
21
-18.904801
31
0
39
0
210
0
220
0
230
1
0
LINE
5
C0
100
AcDbEntity
8
SK1
62
256
6
ByLayer
370
18
48
1
60
0
100
AcDbLine
10
-23.950037
20
-18.055099
30
0
11
-2
21
-19.154801
31
0
39
0
210
0
220
0
230
1
0
LINE
5
C1
100
AcDbEntity
8
SK1
62
256
6
ByLayer
370
18
48
1
60
0
100
AcDbLine
10
-2
20
19.154801
30
0
11
-23.950037
21
18.055099
31
0
39
0
210
0
220
0
230
1
0
LINE
5
C2
100
AcDbEntity
8
1
62
256
6
ByLayer
370
13
48
1
60
0
100
AcDbLine
10
61.214791
20
10.64675
30
0
11
61.214791
21
4.991167
31
0
39
0
210
0
220
0
230
1
0
LINE
5
C3
100
AcDbEntity
8
1
62
256
6
ByLayer
370
13
48
1
60
0
100
AcDbLine
10
61.214791
20
-4.991167
30
0
11
61.214791
21
-10.64675
31
0
39
0
210
0
220
0
230
1
0
LINE
5
C4
100
AcDbEntity
8
1
62
256
6
ByLayer
370
13
48
1
60
0
100
AcDbLine
10
61.370082
20
-10.667195
30
0
11
61.370082
21
-4.991498
31
0
39
0
210
0
220
0
230
1
0
LINE
5
C5
100
AcDbEntity
8
1
62
256
6
ByLayer
370
13
48
1
60
0
100
AcDbLine
10
61.370082
20
4.991498
30
0
11
61.370082
21
10.667195
31
0
39
0
210
0
220
0
230
1
0
LINE
5
C6
100
AcDbEntity
8
1
62
256
6
ByLayer
370
18
48
1
60
0
100
AcDbLine
10
62.6
20
-10.99675
30
0
11
62.6
21
-4.990496
31
0
39
0
210
0
220
0
230
1
0
LINE
5
C7
100
AcDbEntity
8
1
62
256
6
ByLayer
370
18
48
1
60
0
100
AcDbLine
10
62.6
20
4.990496
30
0
11
62.6
21
10.99675
31
0
39
0
210
0
220
0
230
1
0
LINE
5
C8
100
AcDbEntity
8
1
62
256
6
ByLayer
370
18
48
1
60
0
100
AcDbLine
10
75
20
10.99675
30
0
11
75
21
0
31
0
39
0
210
0
220
0
230
1
0
LINE
5
C9
100
AcDbEntity
8
1
62
256
6
ByLayer
370
18
48
1
60
0
100
AcDbLine
10
75
20
0
30
0
11
75
21
-10.99675
31
0
39
0
210
0
220
0
230
1
0
LINE
5
CA
100
AcDbEntity
8
1
62
256
6
ByLayer
370
18
48
1
60
0
100
AcDbLine
10
76
20
10.4194
30
0
11
76
21
0
31
0
39
0
210
0
220
0
230
1
0
LINE
5
CB
100
AcDbEntity
8
1
62
256
6
ByLayer
370
18
48
1
60
0
100
AcDbLine
10
76
20
0
30
0
11
76
21
-10.4194
31
0
39
0
210
0
220
0
230
1
0
LINE
5
CC
100
AcDbEntity
8
1
62
256
6
ByLayer
370
13
48
1
60
0
100
AcDbLine
10
60.375
20
10.64675
30
0
11
60.375
21
4.990244
31
0
39
0
210
0
220
0
230
1
0
LINE
5
CD
100
AcDbEntity
8
1
62
256
6
ByLayer
370
13
48
1
60
0
100
AcDbLine
10
60.375
20
-4.990244
30
0
11
60.375
21
-10.64675
31
0
39
0
210
0
220
0
230
1
0
LINE
5
CE
100
AcDbEntity
8
1
62
256
6
ByLayer
370
18
48
1
60
0
100
AcDbLine
10
60
20
-5.120773
30
0
11
60
21
-5.314509
31
0
39
0
210
0
220
0
230
1
0
LINE
5
CF
100
AcDbEntity
8
1
62
256
6
ByLayer
370
18
48
1
60
0
100
AcDbLine
10
60
20
5.314509
30
0
11
60
21
5.120773
31
0
39
0
210
0
220
0
230
1
0
LINE
5
D0
100
AcDbEntity
8
1
62
256
6
ByLayer
370
18
48
1
60
0
100
AcDbLine
10
59.7
20
-5.023219
30
0
11
59.7
21
-4.990975
31
0
39
0
210
0
220
0
230
1
0
LINE
5
D1
100
AcDbEntity
8
1
62
256
6
ByLayer
370
18
48
1
60
0
100
AcDbLine
10
59.7
20
5.03724
30
0
11
59.7
21
4.990975
31
0
39
0
210
0
220
0
230
1
0
LINE
5
D2
100
AcDbEntity
8
1
62
256
6
ByLayer
370
13
48
1
60
0
100
AcDbLine
10
19.525
20
21.065348
30
0
11
19.525
21
21.475
31
0
39
0
210
0
220
0
230
1
0
LINE
5
D3
100
AcDbEntity
8
1
62
256
6
ByLayer
370
13
48
1
60
0
100
AcDbLine
10
19.525
20
20.664562
30
0
11
19.525
21
18.744334
31
0
39
0
210
0
220
0
230
1
0
LINE
5
D4
100
AcDbEntity
8
1
62
256
6
ByLayer
370
18
48
1
60
0
100
AcDbLine
10
25.95
20
-7.0175
30
0
11
25.95
21
-6.021005
31
0
39
0
210
0
220
0
230
1
0
LINE
5
D5
100
AcDbEntity
8
1
62
256
6
ByLayer
370
18
48
1
60
0
100
AcDbLine
10
25.95
20
6.021005
30
0
11
25.95
21
7.0175
31
0
39
0
210
0
220
0
230
1
0
LINE
5
D6
100
AcDbEntity
8
1
62
256
6
ByLayer
370
18
48
1
60
0
100
AcDbLine
10
16.075
20
-7.0175
30
0
11
16.075
21
-6.457989
31
0
39
0
210
0
220
0
230
1
0
LINE
5
D7
100
AcDbEntity
8
1
62
256
6
ByLayer
370
18
48
1
60
0
100
AcDbLine
10
19.925
20
-6.457989
30
0
11
19.925
21
-7.0175
31
0
39
0
210
0
220
0
230
1
0
LINE
5
D8
100
AcDbEntity
8
1
62
256
6
ByLayer
370
18
48
1
60
0
100
AcDbLine
10
19.925
20
7.0175
30
0
11
19.925
21
6.457989
31
0
39
0
210
0
220
0
230
1
0
LINE
5
D9
100
AcDbEntity
8
1
62
256
6
ByLayer
370
18
48
1
60
0
100
AcDbLine
10
16.075
20
6.457989
30
0
11
16.075
21
7.0175
31
0
39
0
210
0
220
0
230
1
0
LINE
5
DA
100
AcDbEntity
8
1
62
256
6
ByLayer
370
13
48
1
60
0
100
AcDbLine
10
26.95
20
20.75
30
0
11
26.95
21
-20.75
31
0
39
0
210
0
220
0
230
1
0
LINE
5
DB
100
AcDbEntity
8
1
62
256
6
ByLayer
370
13
48
1
60
0
100
AcDbLine
10
19.525
20
-4.936155
30
0
11
19.525
21
-21.475
31
0
39
0
210
0
220
0
230
1
0
LINE
5
DC
100
AcDbEntity
8
1
62
256
6
ByLayer
370
18
48
1
60
0
100
AcDbLine
10
16.475
20
-4.936155
30
0
11
19.525
21
-4.936155
31
0
39
0
210
0
220
0
230
1
0
LINE
5
DD
100
AcDbEntity
8
1
62
256
6
ByLayer
370
13
48
1
60
0
100
AcDbLine
10
16.475
20
-21.475
30
0
11
16.475
21
-4.936155
31
0
39
0
210
0
220
0
230
1
0
LINE
5
DE
100
AcDbEntity
8
1
62
256
6
ByLayer
370
13
48
1
60
0
100
AcDbLine
10
16.475
20
20.664562
30
0
11
16.475
21
18.744334
31
0
39
0
210
0
220
0
230
1
0
LINE
5
DF
100
AcDbEntity
8
1
62
256
6
ByLayer
370
13
48
1
60
0
100
AcDbLine
10
16.475
20
21.065348
30
0
11
16.475
21
21.475
31
0
39
0
210
0
220
0
230
1
0
LINE
5
E0
100
AcDbEntity
8
1
62
256
6
ByLayer
370
18
48
1
60
0
100
AcDbLine
10
19.525
20
4.936155
30
0
11
16.475
21
4.936155
31
0
39
0
210
0
220
0
230
1
0
LINE
5
E1
100
AcDbEntity
8
1
62
256
6
ByLayer
370
13
48
1
60
0
100
AcDbLine
10
19.525
20
17.847293
30
0
11
19.525
21
4.936155
31
0
39
0
210
0
220
0
230
1
0
LINE
5
E2
100
AcDbEntity
8
1
62
256
6
ByLayer
370
13
48
1
60
0
100
AcDbLine
10
16.475
20
17.847293
30
0
11
16.475
21
4.936155
31
0
39
0
210
0
220
0
230
1
0
LINE
5
E3
100
AcDbEntity
8
1
62
256
6
ByLayer
370
13
48
1
60
0
100
AcDbLine
10
41.399449
20
20.75
30
0
11
41.399449
21
-20.75
31
0
39
0
210
0
220
0
230
1
0
LINE
5
E4
100
AcDbEntity
8
1
62
256
6
ByLayer
370
18
48
1
60
0
100
AcDbLine
10
60
20
5.3145
30
0
11
60
21
23.5
31
0
39
0
210
0
220
0
230
1
0
LINE
5
E5
100
AcDbEntity
8
1
62
256
6
ByLayer
370
18
48
1
60
0
100
AcDbLine
10
60
20
-5.3145
30
0
11
60
21
-23.5
31
0
39
0
210
0
220
0
230
1
0
LINE
5
E6
100
AcDbEntity
8
1
62
256
6
ByLayer
370
18
48
1
60
0
100
AcDbLine
10
59.374246
20
-5.0145
30
0
11
54.995194
21
-5.0145
31
0
39
0
210
0
220
0
230
1
0
LINE
5
E7
100
AcDbEntity
8
1
62
256
6
ByLayer
370
18
48
1
60
0
100
AcDbLine
10
54.995194
20
5.0145
30
0
11
59.374246
21
5.0145
31
0
39
0
210
0
220
0
230
1
0
LINE
5
E8
100
AcDbEntity
8
1
62
256
6
ByLayer
370
18
48
1
60
0
100
AcDbLine
10
16.075
20
-22.459198
30
0
11
16.075
21
-7.0175
31
0
39
0
210
0
220
0
230
1
0
LINE
5
E9
100
AcDbEntity
8
1
62
256
6
ByLayer
370
18
48
1
60
0
100
AcDbLine
10
25.95
20
24.475
30
0
11
25.95
21
7.0175
31
0
39
0
210
0
220
0
230
1
0
LINE
5
EA
100
AcDbEntity
8
1
62
256
6
ByLayer
370
18
48
1
60
0
100
AcDbLine
10
25.45
20
7.0175
30
0
11
21.377499
21
7.0175
31
0
39
0
210
0
220
0
230
1
0
LINE
5
EB
100
AcDbEntity
8
1
62
256
6
ByLayer
370
18
48
1
60
0
100
AcDbLine
10
25.45
20
7.0175
30
0
11
25.45
21
24.975
31
0
39
0
210
0
220
0
230
1
0
LINE
5
EC
100
AcDbEntity
8
1
62
256
6
ByLayer
370
18
48
1
60
0
100
AcDbLine
10
21.377499
20
24.975
30
0
11
21.377499
21
7.0175
31
0
39
0
210
0
220
0
230
1
0
LINE
5
ED
100
AcDbEntity
8
1
62
256
6
ByLayer
370
18
48
1
60
0
100
AcDbLine
10
19.925
20
22.459198
30
0
11
19.925
21
7.0175
31
0
39
0
210
0
220
0
230
1
0
LINE
5
EE
100
AcDbEntity
8
1
62
256
6
ByLayer
370
18
48
1
60
0
100
AcDbLine
10
16.075
20
22.459198
30
0
11
16.075
21
7.0175
31
0
39
0
210
0
220
0
230
1
0
LINE
5
EF
100
AcDbEntity
8
1
62
256
6
ByLayer
370
18
48
1
60
0
100
AcDbLine
10
25.95
20
-24.475
30
0
11
25.95
21
-7.0175
31
0
39
0
210
0
220
0
230
1
0
LINE
5
F0
100
AcDbEntity
8
1
62
256
6
ByLayer
370
18
48
1
60
0
100
AcDbLine
10
19.925
20
-22.459198
30
0
11
19.925
21
-7.0175
31
0
39
0
210
0
220
0
230
1
0
LINE
5
F1
100
AcDbEntity
8
1
62
256
6
ByLayer
370
18
48
1
60
0
100
AcDbLine
10
21.377499
20
-24.975
30
0
11
21.377499
21
-7.0175
31
0
39
0
210
0
220
0
230
1
0
LINE
5
F2
100
AcDbEntity
8
1
62
256
6
ByLayer
370
18
48
1
60
0
100
AcDbLine
10
25.45
20
-7.0175
30
0
11
25.45
21
-24.975
31
0
39
0
210
0
220
0
230
1
0
LINE
5
F3
100
AcDbEntity
8
1
62
256
6
ByLayer
370
18
48
1
60
0
100
AcDbLine
10
21.377499
20
-7.0175
30
0
11
25.45
21
-7.0175
31
0
39
0
210
0
220
0
230
1
0
LINE
5
F4
100
AcDbEntity
8
1
62
256
6
ByLayer
370
18
48
1
60
0
100
AcDbLine
10
42.399449
20
23
30
0
11
42.399449
21
-23
31
0
39
0
210
0
220
0
230
1
0
LINE
5
F5
100
AcDbEntity
8
1
62
256
6
ByLayer
370
18
48
1
60
0
100
AcDbLine
10
55
20
-5.0145
30
0
11
55
21
5.0145
31
0
39
0
210
0
220
0
230
1
0
LINE
5
F6
100
AcDbEntity
8
1
62
256
6
ByLayer
370
18
48
1
60
0
100
AcDbLine
10
59.5
20
24
30
0
11
59.5
21
5.313004
31
0
39
0
210
0
220
0
230
1
0
LINE
5
F7
100
AcDbEntity
8
1
62
256
6
ByLayer
370
18
48
1
60
0
100
AcDbLine
10
59.5
20
-24
30
0
11
59.5
21
-5.313004
31
0
39
0
210
0
220
0
230
1
0
LINE
5
F8
100
AcDbEntity
8
1
62
256
6
ByLayer
370
18
48
1
60
0
100
AcDbLine
10
54.7
20
-5.310875
30
0
11
59.496994
21
-5.310875
31
0
39
0
210
0
220
0
230
1
0
LINE
5
F9
100
AcDbEntity
8
1
62
256
6
ByLayer
370
18
48
1
60
0
100
AcDbLine
10
54.7
20
5.310875
30
0
11
54.7
21
-5.310875
31
0
39
0
210
0
220
0
230
1
0
LINE
5
FA
100
AcDbEntity
8
1
62
256
6
ByLayer
370
18
48
1
60
0
100
AcDbLine
10
59.496994
20
5.310875
30
0
11
54.7
21
5.310875
31
0
39
0
210
0
220
0
230
1
0
LINE
5
FB
100
AcDbEntity
8
1
62
256
6
ByLayer
370
13
48
1
60
0
100
AcDbLine
10
43.399449
20
24
30
0
11
43.399449
21
-24
31
0
39
0
210
0
220
0
230
1
0
LINE
5
FC
100
AcDbEntity
8
1
62
256
6
ByLayer
370
18
48
1
60
0
100
AcDbLine
10
0
20
24.475
30
0
11
0
21
0
31
0
39
0
210
0
220
0
230
1
0
LINE
5
FD
100
AcDbEntity
8
1
62
256
6
ByLayer
370
18
48
1
60
0
100
AcDbLine
10
0
20
0
30
0
11
0
21
-24.475
31
0
39
0
210
0
220
0
230
1
0
LINE
5
FE
100
AcDbEntity
8
1
62
256
6
ByLayer
370
18
48
1
60
0
100
AcDbLine
10
0.5
20
-24.975
30
0
11
0.5
21
0
31
0
39
0
210
0
220
0
230
1
0
LINE
5
FF
100
AcDbEntity
8
1
62
256
6
ByLayer
370
18
48
1
60
0
100
AcDbLine
10
0.5
20
0
30
0
11
0.5
21
24.975
31
0
39
0
210
0
220
0
230
1
0
LINE
5
100
100
AcDbEntity
8
1
62
256
6
ByLayer
370
18
48
1
60
0
100
AcDbLine
10
14.622501
20
-7.0175
30
0
11
14.622501
21
-24.975
31
0
39
0
210
0
220
0
230
1
0
LINE
5
101
100
AcDbEntity
8
1
62
256
6
ByLayer
370
18
48
1
60
0
100
AcDbLine
10
12.95
20
-7.0175
30
0
11
14.622501
21
-7.0175
31
0
39
0
210
0
220
0
230
1
0
LINE
5
102
100
AcDbEntity
8
1
62
256
6
ByLayer
370
18
48
1
60
0
100
AcDbLine
10
6.95
20
1.0175
30
0
11
6.95
21
-1.0175
31
0
39
0
210
0
220
0
230
1
0
LINE
5
103
100
AcDbEntity
8
1
62
256
6
ByLayer
370
18
48
1
60
0
100
AcDbLine
10
14.622501
20
7.0175
30
0
11
12.95
21
7.0175
31
0
39
0
210
0
220
0
230
1
0
LINE
5
104
100
AcDbEntity
8
1
62
256
6
ByLayer
370
18
48
1
60
0
100
AcDbLine
10
14.622501
20
7.0175
30
0
11
14.622501
21
24.975
31
0
39
0
210
0
220
0
230
1
0
LINE
5
105
100
AcDbEntity
8
SK2
62
256
6
ByLayer
370
18
48
1
60
0
100
AcDbLine
10
84
20
13
30
0
11
84
21
-13
31
0
39
0
210
0
220
0
230
1
0
LINE
5
106
100
AcDbEntity
8
SK2
62
256
6
ByLayer
370
18
48
1
60
0
100
AcDbLine
10
79
20
14
30
0
11
79
21
-14
31
0
39
0
210
0
220
0
230
1
0
LINE
5
107
100
AcDbEntity
8
SK2
62
256
6
ByLayer
370
18
48
1
60
0
100
AcDbLine
10
83
20
-14
30
0
11
83
21
14
31
0
39
0
210
0
220
0
230
1
0
LINE
5
108
100
AcDbEntity
8
SK2
62
256
6
ByLayer
370
18
48
1
60
0
100
AcDbLine
10
90.5
20
7
30
0
11
90.5
21
-7
31
0
39
0
210
0
220
0
230
1
0
LINE
5
109
100
AcDbEntity
8
SK2
62
256
6
ByLayer
370
13
48
1
60
0
100
AcDbLine
10
89.5
20
-8
30
0
11
89.5
21
8
31
0
39
0
210
0
220
0
230
1
0
LINE
5
10A
100
AcDbEntity
8
1
62
256
6
ByLayer
370
18
48
1
60
0
100
AcDbLine
10
65.1
20
-4.991
30
0
11
55.5
21
-4.991
31
0
39
0
210
0
220
0
230
1
0
LINE
5
10B
100
AcDbEntity
8
1
62
256
6
ByLayer
370
18
48
1
60
0
100
AcDbLine
10
65.1
20
-4.991
30
0
11
65.5
21
-4.591
31
0
39
0
210
0
220
0
230
1
0
LINE
5
10C
100
AcDbEntity
8
1
62
256
6
ByLayer
370
18
48
1
60
0
100
AcDbLine
10
55.1
20
-4.591
30
0
11
55.5
21
-4.991
31
0
39
0
210
0
220
0
230
1
0
LINE
5
10D
100
AcDbEntity
8
1
62
256
6
ByLayer
370
18
48
1
60
0
100
AcDbLine
10
65.5
20
4.591
30
0
11
65.1
21
4.991
31
0
39
0
210
0
220
0
230
1
0
LINE
5
10E
100
AcDbEntity
8
1
62
256
6
ByLayer
370
18
48
1
60
0
100
AcDbLine
10
55.5
20
4.991
30
0
11
65.1
21
4.991
31
0
39
0
210
0
220
0
230
1
0
LINE
5
10F
100
AcDbEntity
8
1
62
256
6
ByLayer
370
18
48
1
60
0
100
AcDbLine
10
55.5
20
4.991
30
0
11
55.1
21
4.591
31
0
39
0
210
0
220
0
230
1
0
LINE
5
110
100
AcDbEntity
8
1
62
256
6
ByLayer
370
18
48
1
60
0
100
AcDbLine
10
55.5
20
-4.191
30
0
11
65.1
21
-4.191
31
0
39
0
210
0
220
0
230
1
0
LINE
5
111
100
AcDbEntity
8
1
62
256
6
ByLayer
370
18
48
1
60
0
100
AcDbLine
10
65.1
20
4.191
30
0
11
55.5
21
4.191
31
0
39
0
210
0
220
0
230
1
0
LINE
5
112
100
AcDbEntity
8
1
62
256
6
ByLayer
370
18
48
1
60
0
100
AcDbLine
10
65.5
20
-4.591
30
0
11
65.6
21
-4.491
31
0
39
0
210
0
220
0
230
1
0
LINE
5
113
100
AcDbEntity
8
1
62
256
6
ByLayer
370
18
48
1
60
0
100
AcDbLine
10
65.6
20
4.491
30
0
11
65.6
21
-4.491
31
0
39
0
210
0
220
0
230
1
0
LINE
5
114
100
AcDbEntity
8
1
62
256
6
ByLayer
370
18
48
1
60
0
100
AcDbLine
10
65.5
20
4.591
30
0
11
65.6
21
4.491
31
0
39
0
210
0
220
0
230
1
0
LINE
5
115
100
AcDbEntity
8
1
62
256
6
ByLayer
370
18
48
1
60
0
100
AcDbLine
10
65.1
20
4.191
30
0
11
65.5
21
4.591
31
0
39
0
210
0
220
0
230
1
0
LINE
5
116
100
AcDbEntity
8
1
62
256
6
ByLayer
370
18
48
1
60
0
100
AcDbLine
10
65.1
20
-4.191
30
0
11
65.1
21
4.191
31
0
39
0
210
0
220
0
230
1
0
LINE
5
117
100
AcDbEntity
8
1
62
256
6
ByLayer
370
18
48
1
60
0
100
AcDbLine
10
65.5
20
-4.591
30
0
11
65.1
21
-4.191
31
0
39
0
210
0
220
0
230
1
0
LINE
5
118
100
AcDbEntity
8
1
62
256
6
ByLayer
370
18
48
1
60
0
100
AcDbLine
10
55.5
20
4.191
30
0
11
55.5
21
-4.191
31
0
39
0
210
0
220
0
230
1
0
LINE
5
119
100
AcDbEntity
8
1
62
256
6
ByLayer
370
18
48
1
60
0
100
AcDbLine
10
55.1
20
4.591
30
0
11
55.5
21
4.191
31
0
39
0
210
0
220
0
230
1
0
LINE
5
11A
100
AcDbEntity
8
1
62
256
6
ByLayer
370
18
48
1
60
0
100
AcDbLine
10
55
20
4.491
30
0
11
55.1
21
4.591
31
0
39
0
210
0
220
0
230
1
0
LINE
5
11B
100
AcDbEntity
8
1
62
256
6
ByLayer
370
18
48
1
60
0
100
AcDbLine
10
55
20
-4.491
30
0
11
55.1
21
-4.591
31
0
39
0
210
0
220
0
230
1
0
LINE
5
11C
100
AcDbEntity
8
1
62
256
6
ByLayer
370
18
48
1
60
0
100
AcDbLine
10
55.5
20
-4.191
30
0
11
55.1
21
-4.591
31
0
39
0
210
0
220
0
230
1
0
LINE
5
11D
100
AcDbEntity
8
SK1
62
256
6
ByLayer
370
18
48
1
60
0
100
AcDbLine
10
-20.3
20
3.87
30
0
11
-20.3
21
-3.87
31
0
39
0
210
0
220
0
230
1
0
LINE
5
11E
100
AcDbEntity
8
SK1
62
256
6
ByLayer
370
18
48
1
60
0
100
AcDbLine
10
-24.9
20
8.217322
30
0
11
-24.9
21
17.056352
31
0
39
0
210
0
220
0
230
1
0
LINE
5
11F
100
AcDbEntity
8
SK1
62
256
6
ByLayer
370
18
48
1
60
0
100
AcDbLine
10
-24.9
20
-8.217322
30
0
11
-24.9
21
-17.056352
31
0
39
0
210
0
220
0
230
1
0
LINE
5
120
100
AcDbEntity
8
SK1
62
256
6
ByLayer
370
18
48
1
60
0
100
AcDbLine
10
-24.9
20
8.208408
30
0
11
-24.9
21
8.217322
31
0
39
0
210
0
220
0
230
1
0
LINE
5
121
100
AcDbEntity
8
SK1
62
256
6
ByLayer
370
18
48
1
60
0
100
AcDbLine
10
-24.9
20
-8.208408
30
0
11
-24.9
21
-8.217322
31
0
39
0
210
0
220
0
230
1
0
LINE
5
122
100
AcDbEntity
8
SK1
62
256
6
ByLayer
370
13
48
1
60
0
100
AcDbLine
10
-24.9
20
8.208408
30
0
11
-23.897877
21
8.663362
31
0
39
0
210
0
220
0
230
1
0
LINE
5
123
100
AcDbEntity
8
SK1
62
256
6
ByLayer
370
18
48
1
60
0
100
AcDbLine
10
-24.9
20
6.42
30
0
11
-24.9
21
8.208408
31
0
39
0
210
0
220
0
230
1
0
LINE
5
124
100
AcDbEntity
8
SK1
62
256
6
ByLayer
370
18
48
1
60
0
100
AcDbLine
10
-24.9
20
6.42
30
0
11
-23.75
21
5.27
31
0
39
0
210
0
220
0
230
1
0
LINE
5
125
100
AcDbEntity
8
SK1
62
256
6
ByLayer
370
18
48
1
60
0
100
AcDbLine
10
-23.75
20
7.965997
30
0
11
-23.75
21
5.27
31
0
39
0
210
0
220
0
230
1
0
LINE
5
126
100
AcDbEntity
8
SK1
62
256
6
ByLayer
370
18
48
1
60
0
100
AcDbLine
10
-18.7
20
5.27
30
0
11
-23.75
21
5.27
31
0
39
0
210
0
220
0
230
1
0
LINE
5
127
100
AcDbEntity
8
SK1
62
256
6
ByLayer
370
13
48
1
60
0
100
AcDbLine
10
-18.7
20
8.730497
30
0
11
-20.947488
21
8.730497
31
0
39
0
210
0
220
0
230
1
0
LINE
5
128
100
AcDbEntity
8
SK1
62
256
6
ByLayer
370
18
48
1
60
0
100
AcDbLine
10
-24.9
20
-6.42
30
0
11
-23.75
21
-5.27
31
0
39
0
210
0
220
0
230
1
0
LINE
5
129
100
AcDbEntity
8
SK1
62
256
6
ByLayer
370
18
48
1
60
0
100
AcDbLine
10
-24.9
20
-6.42
30
0
11
-24.9
21
-8.208408
31
0
39
0
210
0
220
0
230
1
0
LINE
5
12A
100
AcDbEntity
8
SK1
62
256
6
ByLayer
370
13
48
1
60
0
100
AcDbLine
10
-24.9
20
-8.208408
30
0
11
-23.897877
21
-8.663362
31
0
39
0
210
0
220
0
230
1
0
LINE
5
12B
100
AcDbEntity
8
SK1
62
256
6
ByLayer
370
13
48
1
60
0
100
AcDbLine
10
-18.7
20
-8.730497
30
0
11
-20.947488
21
-8.730497
31
0
39
0
210
0
220
0
230
1
0
LINE
5
12C
100
AcDbEntity
8
SK1
62
256
6
ByLayer
370
18
48
1
60
0
100
AcDbLine
10
-18.7
20
-5.27
30
0
11
-23.75
21
-5.27
31
0
39
0
210
0
220
0
230
1
0
LINE
5
12D
100
AcDbEntity
8
SK1
62
256
6
ByLayer
370
18
48
1
60
0
100
AcDbLine
10
-23.75
20
-7.965997
30
0
11
-23.75
21
-5.27
31
0
39
0
210
0
220
0
230
1
0
LINE
5
12E
100
AcDbEntity
8
SK1
62
256
6
ByLayer
370
13
48
1
60
0
100
AcDbLine
10
-18.7
20
8.730497
30
0
11
-18.7
21
10.128421
31
0
39
0
210
0
220
0
230
1
0
LINE
5
12F
100
AcDbEntity
8
SK1
62
256
6
ByLayer
370
13
48
1
60
0
100
AcDbLine
10
-18.7
20
-10.128421
30
0
11
-18.7
21
-8.730497
31
0
39
0
210
0
220
0
230
1
0
LINE
5
130
100
AcDbEntity
8
SK1
62
256
6
ByLayer
370
13
48
1
60
0
100
AcDbLine
10
-18.7
20
5.27
30
0
11
-18.7
21
8.730497
31
0
39
0
210
0
220
0
230
1
0
LINE
5
131
100
AcDbEntity
8
SK1
62
256
6
ByLayer
370
13
48
1
60
0
100
AcDbLine
10
-18.7
20
-8.730497
30
0
11
-18.7
21
-5.27
31
0
39
0
210
0
220
0
230
1
0
LINE
5
132
100
AcDbEntity
8
SK1
62
256
6
ByLayer
370
13
48
1
60
0
100
AcDbLine
10
-0.45
20
18.904801
30
0
11
-0.45
21
0
31
0
39
0
210
0
220
0
230
1
0
LINE
5
133
100
AcDbEntity
8
SK1
62
256
6
ByLayer
370
13
48
1
60
0
100
AcDbLine
10
-0.45
20
0
30
0
11
-0.45
21
-18.904801
31
0
39
0
210
0
220
0
230
1
0
LINE
5
134
100
AcDbEntity
8
SK1
62
256
6
ByLayer
370
18
48
1
60
0
100
AcDbLine
10
-1.566987
20
18.904801
30
0
11
-1.566987
21
0
31
0
39
0
210
0
220
0
230
1
0
LINE
5
135
100
AcDbEntity
8
SK1
62
256
6
ByLayer
370
18
48
1
60
0
100
AcDbLine
10
-1.566987
20
0
30
0
11
-1.566987
21
-18.904801
31
0
39
0
210
0
220
0
230
1
0
LINE
5
136
100
AcDbEntity
8
SK1
62
256
6
ByLayer
370
18
48
1
60
0
100
AcDbLine
10
-2
20
-19.154801
30
0
11
-2
21
0
31
0
39
0
210
0
220
0
230
1
0
LINE
5
137
100
AcDbEntity
8
SK1
62
256
6
ByLayer
370
18
48
1
60
0
100
AcDbLine
10
-2
20
0
30
0
11
-2
21
19.154801
31
0
39
0
210
0
220
0
230
1
0
LINE
5
138
100
AcDbEntity
8
SK1
62
256
6
ByLayer
370
13
48
1
60
0
100
AcDbLine
10
-23.950037
20
9.450553
30
0
11
-23.950037
21
18.055099
31
0
39
0
210
0
220
0
230
1
0
LINE
5
139
100
AcDbEntity
8
SK1
62
256
6
ByLayer
370
18
48
1
60
0
100
AcDbLine
10
-17.3
20
6.155972
30
0
11
-17.3
21
-6.155972
31
0
39
0
210
0
220
0
230
1
0
LINE
5
13A
100
AcDbEntity
8
SK1
62
256
6
ByLayer
370
13
48
1
60
0
100
AcDbLine
10
-23.950037
20
-18.055099
30
0
11
-23.950037
21
-9.450553
31
0
39
0
210
0
220
0
230
1
0
LINE
5
13B
100
AcDbEntity
8
1
62
256
6
ByLayer
370
13
48
0.05
60
0
100
AcDbLine
10
-15.5
20
0
30
0
11
0.5
21
0
31
0
39
0
210
0
220
0
230
1
0
LINE
5
13C
100
AcDbEntity
8
1
62
256
6
ByLayer
370
13
48
0.05
60
0
100
AcDbLine
10
-7.5
20
-8
30
0
11
-7.5
21
8
31
0
39
0
210
0
220
0
230
1
0
LINE
5
13D
100
AcDbEntity
8
SK2
62
256
6
ByLayer
370
18
48
1
60
0
100
AcDbLine
10
-41.875025
20
-24.975
30
0
11
-41.875025
21
24.975
31
0
39
0
210
0
220
0
230
1
0
LINE
5
13E
100
AcDbEntity
8
SK2
62
256
6
ByLayer
370
18
48
1
60
0
100
AcDbLine
10
-1.0875
20
24.975
30
0
11
-43.875025
21
24.975
31
0
39
0
210
0
220
0
230
1
0
LINE
5
13F
100
AcDbEntity
8
SK2
62
256
6
ByLayer
370
18
48
1
60
0
100
AcDbLine
10
-1.0875
20
-24.975
30
0
11
-43.875025
21
-24.975
31
0
39
0
210
0
220
0
230
1
0
LINE
5
140
100
AcDbEntity
8
1
62
256
6
ByLayer
370
18
48
1
60
1
100
AcDbLine
10
-41.875025
20
24.975
30
0
11
-41.414241
21
21.475002
31
0
39
0
210
0
220
0
230
1
0
LINE
5
141
100
AcDbEntity
8
1
62
256
6
ByLayer
370
18
48
1
60
1
100
AcDbLine
10
-41.414241
20
21.475002
30
0
11
-42.335809
21
21.474998
31
0
39
0
210
0
220
0
230
1
0
LINE
5
142
100
AcDbEntity
8
1
62
256
6
ByLayer
370
18
48
1
60
1
100
AcDbLine
10
-42.335809
20
21.474998
30
0
11
-41.875025
21
24.975
31
0
39
0
210
0
220
0
230
1
0
LINE
5
143
100
AcDbEntity
8
1
62
256
6
ByLayer
370
18
48
1
60
1
100
AcDbLine
10
-41.875025
20
-24.975
30
0
11
-42.335809
21
-21.475002
31
0
39
0
210
0
220
0
230
1
0
LINE
5
144
100
AcDbEntity
8
1
62
256
6
ByLayer
370
18
48
1
60
1
100
AcDbLine
10
-42.335809
20
-21.475002
30
0
11
-41.414241
21
-21.474998
31
0
39
0
210
0
220
0
230
1
0
LINE
5
145
100
AcDbEntity
8
1
62
256
6
ByLayer
370
18
48
1
60
1
100
AcDbLine
10
-41.414241
20
-21.474998
30
0
11
-41.875025
21
-24.975
31
0
39
0
210
0
220
0
230
1
0
LINE
5
146
100
AcDbEntity
8
SK2
62
256
6
ByLayer
370
18
48
1
60
0
100
AcDbLine
10
121.225
20
-10.99675
30
0
11
121.225
21
10.99675
31
0
39
0
210
0
220
0
230
1
0
LINE
5
147
100
AcDbEntity
8
SK2
62
256
6
ByLayer
370
18
48
1
60
0
100
AcDbLine
10
76.5875
20
10.99675
30
0
11
123.225
21
10.99675
31
0
39
0
210
0
220
0
230
1
0
LINE
5
148
100
AcDbEntity
8
SK2
62
256
6
ByLayer
370
18
48
1
60
0
100
AcDbLine
10
76.5875
20
-10.99675
30
0
11
123.225
21
-10.99675
31
0
39
0
210
0
220
0
230
1
0
LINE
5
149
100
AcDbEntity
8
1
62
256
6
ByLayer
370
18
48
1
60
1
100
AcDbLine
10
121.225
20
10.99675
30
0
11
121.685784
21
7.496752
31
0
39
0
210
0
220
0
230
1
0
LINE
5
14A
100
AcDbEntity
8
1
62
256
6
ByLayer
370
18
48
1
60
1
100
AcDbLine
10
121.685784
20
7.496752
30
0
11
120.764216
21
7.496748
31
0
39
0
210
0
220
0
230
1
0
LINE
5
14B
100
AcDbEntity
8
1
62
256
6
ByLayer
370
18
48
1
60
1
100
AcDbLine
10
120.764216
20
7.496748
30
0
11
121.225
21
10.99675
31
0
39
0
210
0
220
0
230
1
0
LINE
5
14C
100
AcDbEntity
8
1
62
256
6
ByLayer
370
18
48
1
60
1
100
AcDbLine
10
121.225
20
-10.99675
30
0
11
120.764216
21
-7.496752
31
0
39
0
210
0
220
0
230
1
0
LINE
5
14D
100
AcDbEntity
8
1
62
256
6
ByLayer
370
18
48
1
60
1
100
AcDbLine
10
120.764216
20
-7.496752
30
0
11
121.685784
21
-7.496748
31
0
39
0
210
0
220
0
230
1
0
LINE
5
14E
100
AcDbEntity
8
1
62
256
6
ByLayer
370
18
48
1
60
1
100
AcDbLine
10
121.685784
20
-7.496748
30
0
11
121.225
21
-10.99675
31
0
39
0
210
0
220
0
230
1
0
LINE
5
14F
100
AcDbEntity
8
SK2
62
256
6
ByLayer
370
18
48
1
60
0
100
AcDbLine
10
136.225
20
20.75
30
0
11
136.225
21
-20.75
31
0
39
0
210
0
220
0
230
1
0
LINE
5
150
100
AcDbEntity
8
SK2
62
256
6
ByLayer
370
18
48
1
60
0
100
AcDbLine
10
42.986949
20
-20.75
30
0
11
138.225
21
-20.75
31
0
39
0
210
0
220
0
230
1
0
LINE
5
151
100
AcDbEntity
8
SK2
62
256
6
ByLayer
370
18
48
1
60
0
100
AcDbLine
10
42.986949
20
20.75
30
0
11
138.225
21
20.75
31
0
39
0
210
0
220
0
230
1
0
LINE
5
152
100
AcDbEntity
8
1
62
256
6
ByLayer
370
18
48
1
60
1
100
AcDbLine
10
136.225
20
-20.75
30
0
11
135.764216
21
-17.250002
31
0
39
0
210
0
220
0
230
1
0
LINE
5
153
100
AcDbEntity
8
1
62
256
6
ByLayer
370
18
48
1
60
1
100
AcDbLine
10
135.764216
20
-17.250002
30
0
11
136.685784
21
-17.249998
31
0
39
0
210
0
220
0
230
1
0
LINE
5
154
100
AcDbEntity
8
1
62
256
6
ByLayer
370
18
48
1
60
1
100
AcDbLine
10
136.685784
20
-17.249998
30
0
11
136.225
21
-20.75
31
0
39
0
210
0
220
0
230
1
0
LINE
5
155
100
AcDbEntity
8
1
62
256
6
ByLayer
370
18
48
1
60
1
100
AcDbLine
10
136.225
20
20.75
30
0
11
136.685784
21
17.250002
31
0
39
0
210
0
220
0
230
1
0
LINE
5
156
100
AcDbEntity
8
1
62
256
6
ByLayer
370
18
48
1
60
1
100
AcDbLine
10
136.685784
20
17.250002
30
0
11
135.764216
21
17.249998
31
0
39
0
210
0
220
0
230
1
0
LINE
5
157
100
AcDbEntity
8
1
62
256
6
ByLayer
370
18
48
1
60
1
100
AcDbLine
10
135.764216
20
17.249998
30
0
11
136.225
21
20.75
31
0
39
0
210
0
220
0
230
1
0
LINE
5
158
100
AcDbEntity
8
SK2
62
256
6
ByLayer
370
18
48
1
60
0
100
AcDbLine
10
146.225
20
24
30
0
11
146.225
21
-24
31
0
39
0
210
0
220
0
230
1
0
LINE
5
159
100
AcDbEntity
8
SK2
62
256
6
ByLayer
370
18
48
1
60
0
100
AcDbLine
10
61.0875
20
-24
30
0
11
148.225
21
-24
31
0
39
0
210
0
220
0
230
1
0
LINE
5
15A
100
AcDbEntity
8
SK2
62
256
6
ByLayer
370
18
48
1
60
0
100
AcDbLine
10
61.0875
20
24
30
0
11
148.225
21
24
31
0
39
0
210
0
220
0
230
1
0
LINE
5
15B
100
AcDbEntity
8
1
62
256
6
ByLayer
370
18
48
1
60
1
100
AcDbLine
10
146.225
20
-24
30
0
11
145.764216
21
-20.500002
31
0
39
0
210
0
220
0
230
1
0
LINE
5
15C
100
AcDbEntity
8
1
62
256
6
ByLayer
370
18
48
1
60
1
100
AcDbLine
10
145.764216
20
-20.500002
30
0
11
146.685784
21
-20.499998
31
0
39
0
210
0
220
0
230
1
0
LINE
5
15D
100
AcDbEntity
8
1
62
256
6
ByLayer
370
18
48
1
60
1
100
AcDbLine
10
146.685784
20
-20.499998
30
0
11
146.225
21
-24
31
0
39
0
210
0
220
0
230
1
0
LINE
5
15E
100
AcDbEntity
8
1
62
256
6
ByLayer
370
18
48
1
60
1
100
AcDbLine
10
146.225
20
24
30
0
11
146.685784
21
20.500002
31
0
39
0
210
0
220
0
230
1
0
LINE
5
15F
100
AcDbEntity
8
1
62
256
6
ByLayer
370
18
48
1
60
1
100
AcDbLine
10
146.685784
20
20.500002
30
0
11
145.764216
21
20.499998
31
0
39
0
210
0
220
0
230
1
0
LINE
5
160
100
AcDbEntity
8
1
62
256
6
ByLayer
370
18
48
1
60
1
100
AcDbLine
10
145.764216
20
20.499998
30
0
11
146.225
21
24
31
0
39
0
210
0
220
0
230
1
0
LINE
5
161
100
AcDbEntity
8
SK2
62
256
6
ByLayer
370
18
48
1
60
0
100
AcDbLine
10
-24.9
20
52.975651
30
0
11
0
21
52.975651
31
0
39
0
210
0
220
0
230
1
0
LINE
5
162
100
AcDbEntity
8
SK2
62
256
6
ByLayer
370
18
48
1
60
0
100
AcDbLine
10
0
20
26.0625
30
0
11
0
21
54.975651
31
0
39
0
210
0
220
0
230
1
0
LINE
5
163
100
AcDbEntity
8
SK2
62
256
6
ByLayer
370
18
48
1
60
0
100
AcDbLine
10
-24.9
20
18.643852
30
0
11
-24.9
21
54.975651
31
0
39
0
210
0
220
0
230
1
0
LINE
5
164
100
AcDbEntity
8
1
62
256
6
ByLayer
370
18
48
1
60
1
100
AcDbLine
10
0
20
52.975651
30
0
11
-3.499998
21
52.514867
31
0
39
0
210
0
220
0
230
1
0
LINE
5
165
100
AcDbEntity
8
1
62
256
6
ByLayer
370
18
48
1
60
1
100
AcDbLine
10
-3.499998
20
52.514867
30
0
11
-3.500002
21
53.436435
31
0
39
0
210
0
220
0
230
1
0
LINE
5
166
100
AcDbEntity
8
1
62
256
6
ByLayer
370
18
48
1
60
1
100
AcDbLine
10
-3.500002
20
53.436435
30
0
11
0
21
52.975651
31
0
39
0
210
0
220
0
230
1
0
LINE
5
167
100
AcDbEntity
8
1
62
256
6
ByLayer
370
18
48
1
60
1
100
AcDbLine
10
-24.9
20
52.975651
30
0
11
-21.400002
21
53.436435
31
0
39
0
210
0
220
0
230
1
0
LINE
5
168
100
AcDbEntity
8
1
62
256
6
ByLayer
370
18
48
1
60
1
100
AcDbLine
10
-21.400002
20
53.436435
30
0
11
-21.399998
21
52.514867
31
0
39
0
210
0
220
0
230
1
0
LINE
5
169
100
AcDbEntity
8
1
62
256
6
ByLayer
370
18
48
1
60
1
100
AcDbLine
10
-21.399998
20
52.514867
30
0
11
-24.9
21
52.975651
31
0
39
0
210
0
220
0
230
1
0
LINE
5
16A
100
AcDbEntity
8
SK2
62
256
6
ByLayer
370
18
48
1
60
0
100
AcDbLine
10
0
20
42.975651
30
0
11
42.399449
21
42.975651
31
0
39
0
210
0
220
0
230
1
0
LINE
5
16B
100
AcDbEntity
8
SK2
62
256
6
ByLayer
370
18
48
1
60
0
100
AcDbLine
10
42.399449
20
24.5875
30
0
11
42.399449
21
44.975651
31
0
39
0
210
0
220
0
230
1
0
LINE
5
16C
100
AcDbEntity
8
SK2
62
256
6
ByLayer
370
18
48
1
60
0
100
AcDbLine
10
0
20
26.0625
30
0
11
0
21
44.975651
31
0
39
0
210
0
220
0
230
1
0
LINE
5
16D
100
AcDbEntity
8
1
62
256
6
ByLayer
370
18
48
1
60
1
100
AcDbLine
10
42.399449
20
42.975651
30
0
11
38.899451
21
42.514867
31
0
39
0
210
0
220
0
230
1
0
LINE
5
16E
100
AcDbEntity
8
1
62
256
6
ByLayer
370
18
48
1
60
1
100
AcDbLine
10
38.899451
20
42.514867
30
0
11
38.899447
21
43.436435
31
0
39
0
210
0
220
0
230
1
0
LINE
5
16F
100
AcDbEntity
8
1
62
256
6
ByLayer
370
18
48
1
60
1
100
AcDbLine
10
38.899447
20
43.436435
30
0
11
42.399449
21
42.975651
31
0
39
0
210
0
220
0
230
1
0
LINE
5
170
100
AcDbEntity
8
1
62
256
6
ByLayer
370
18
48
1
60
1
100
AcDbLine
10
0
20
42.975651
30
0
11
3.499998
21
43.436435
31
0
39
0
210
0
220
0
230
1
0
LINE
5
171
100
AcDbEntity
8
1
62
256
6
ByLayer
370
18
48
1
60
1
100
AcDbLine
10
3.499998
20
43.436435
30
0
11
3.500002
21
42.514867
31
0
39
0
210
0
220
0
230
1
0
LINE
5
172
100
AcDbEntity
8
1
62
256
6
ByLayer
370
18
48
1
60
1
100
AcDbLine
10
3.500002
20
42.514867
30
0
11
0
21
42.975651
31
0
39
0
210
0
220
0
230
1
0
LINE
5
173
100
AcDbEntity
8
2
62
256
6
ByLayer
370
18
48
1
60
0
100
AcDbLine
10
0
20
52.975651
30
0
11
60
21
52.975651
31
0
39
0
210
0
220
0
230
1
0
LINE
5
174
100
AcDbEntity
8
2
62
256
6
ByLayer
370
18
48
1
60
0
100
AcDbLine
10
60
20
25.0875
30
0
11
60
21
54.975651
31
0
39
0
210
0
220
0
230
1
0
LINE
5
175
100
AcDbEntity
8
2
62
256
6
ByLayer
370
18
48
1
60
0
100
AcDbLine
10
0
20
26.0625
30
0
11
0
21
54.975651
31
0
39
0
210
0
220
0
230
1
0
LINE
5
176
100
AcDbEntity
8
1
62
256
6
ByLayer
370
18
48
1
60
1
100
AcDbLine
10
60
20
52.975651
30
0
11
56.500002
21
52.514867
31
0
39
0
210
0
220
0
230
1
0
LINE
5
177
100
AcDbEntity
8
1
62
256
6
ByLayer
370
18
48
1
60
1
100
AcDbLine
10
56.500002
20
52.514867
30
0
11
56.499998
21
53.436435
31
0
39
0
210
0
220
0
230
1
0
LINE
5
178
100
AcDbEntity
8
1
62
256
6
ByLayer
370
18
48
1
60
1
100
AcDbLine
10
56.499998
20
53.436435
30
0
11
60
21
52.975651
31
0
39
0
210
0
220
0
230
1
0
LINE
5
179
100
AcDbEntity
8
1
62
256
6
ByLayer
370
18
48
1
60
1
100
AcDbLine
10
0
20
52.975651
30
0
11
3.499998
21
53.436435
31
0
39
0
210
0
220
0
230
1
0
LINE
5
17A
100
AcDbEntity
8
1
62
256
6
ByLayer
370
18
48
1
60
1
100
AcDbLine
10
3.499998
20
53.436435
30
0
11
3.500002
21
52.514867
31
0
39
0
210
0
220
0
230
1
0
LINE
5
17B
100
AcDbEntity
8
1
62
256
6
ByLayer
370
18
48
1
60
1
100
AcDbLine
10
3.500002
20
52.514867
30
0
11
0
21
52.975651
31
0
39
0
210
0
220
0
230
1
0
LINE
5
17C
100
AcDbEntity
8
SK2
62
256
6
ByLayer
370
18
48
1
60
0
100
AcDbLine
10
60
20
35.975651
30
0
11
76
21
35.975651
31
0
39
0
210
0
220
0
230
1
0
LINE
5
17D
100
AcDbEntity
8
SK2
62
256
6
ByLayer
370
18
48
1
60
0
100
AcDbLine
10
76
20
12.0069
30
0
11
76
21
37.975651
31
0
39
0
210
0
220
0
230
1
0
LINE
5
17E
100
AcDbEntity
8
SK2
62
256
6
ByLayer
370
18
48
1
60
0
100
AcDbLine
10
60
20
25.0875
30
0
11
60
21
37.975651
31
0
39
0
210
0
220
0
230
1
0
LINE
5
17F
100
AcDbEntity
8
1
62
256
6
ByLayer
370
18
48
1
60
1
100
AcDbLine
10
76
20
35.975651
30
0
11
72.500002
21
35.514867
31
0
39
0
210
0
220
0
230
1
0
LINE
5
180
100
AcDbEntity
8
1
62
256
6
ByLayer
370
18
48
1
60
1
100
AcDbLine
10
72.500002
20
35.514867
30
0
11
72.499998
21
36.436435
31
0
39
0
210
0
220
0
230
1
0
LINE
5
181
100
AcDbEntity
8
1
62
256
6
ByLayer
370
18
48
1
60
1
100
AcDbLine
10
72.499998
20
36.436435
30
0
11
76
21
35.975651
31
0
39
0
210
0
220
0
230
1
0
LINE
5
182
100
AcDbEntity
8
1
62
256
6
ByLayer
370
18
48
1
60
1
100
AcDbLine
10
60
20
35.975651
30
0
11
63.499998
21
36.436435
31
0
39
0
210
0
220
0
230
1
0
LINE
5
183
100
AcDbEntity
8
1
62
256
6
ByLayer
370
18
48
1
60
1
100
AcDbLine
10
63.499998
20
36.436435
30
0
11
63.500002
21
35.514867
31
0
39
0
210
0
220
0
230
1
0
LINE
5
184
100
AcDbEntity
8
1
62
256
6
ByLayer
370
18
48
1
60
1
100
AcDbLine
10
63.500002
20
35.514867
30
0
11
60
21
35.975651
31
0
39
0
210
0
220
0
230
1
0
LINE
5
1D6
100
AcDbEntity
8
1
62
256
6
ByLayer
370
13
48
0.05
60
0
100
AcDbLine
10
18
20
25.972896
30
0
11
18
21
5.807844
31
0
39
0
210
0
220
0
230
1
0
LINE
5
1D7
100
AcDbEntity
8
1
62
256
6
ByLayer
370
13
48
0.05
60
0
100
AcDbLine
10
18
20
28.158769
30
0
11
18
21
8.069154
31
0
39
0
210
0
220
0
230
1
0
LINE
5
1D8
100
AcDbEntity
8
1
62
256
6
ByLayer
370
13
48
0.05
60
0
100
AcDbLine
10
-30.450037
20
0
30
0
11
82.5
21
0
31
0
39
0
210
0
220
0
230
1
0
LINE
5
1D9
100
AcDbEntity
8
1
62
256
6
ByLayer
370
13
48
0.05
60
0
100
AcDbLine
10
96
20
0
30
0
11
38.5
21
0
31
0
39
0
210
0
220
0
230
1
0
LINE
5
1DA
100
AcDbEntity
8
1
62
256
6
ByLayer
370
13
48
0.05
60
0
100
AcDbLine
10
90.5
20
0
30
0
11
72.5
21
0
31
0
39
0
210
0
220
0
230
1
0
LINE
5
1DF
100
AcDbEntity
8
1
62
256
6
ByLayer
370
18
48
1
60
1
100
AcDbLine
10
-41.875025
20
24.975
30
0
11
-41.414241
21
21.475002
31
0
39
0
210
0
220
0
230
1
0
LINE
5
1E0
100
AcDbEntity
8
1
62
256
6
ByLayer
370
18
48
1
60
1
100
AcDbLine
10
-41.414241
20
21.475002
30
0
11
-42.335809
21
21.474998
31
0
39
0
210
0
220
0
230
1
0
LINE
5
1E1
100
AcDbEntity
8
1
62
256
6
ByLayer
370
18
48
1
60
1
100
AcDbLine
10
-42.335809
20
21.474998
30
0
11
-41.875025
21
24.975
31
0
39
0
210
0
220
0
230
1
0
LINE
5
1E3
100
AcDbEntity
8
1
62
256
6
ByLayer
370
18
48
1
60
1
100
AcDbLine
10
-41.875025
20
-24.975
30
0
11
-42.335809
21
-21.475002
31
0
39
0
210
0
220
0
230
1
0
LINE
5
1E4
100
AcDbEntity
8
1
62
256
6
ByLayer
370
18
48
1
60
1
100
AcDbLine
10
-42.335809
20
-21.475002
30
0
11
-41.414241
21
-21.474998
31
0
39
0
210
0
220
0
230
1
0
LINE
5
1E5
100
AcDbEntity
8
1
62
256
6
ByLayer
370
18
48
1
60
1
100
AcDbLine
10
-41.414241
20
-21.474998
30
0
11
-41.875025
21
-24.975
31
0
39
0
210
0
220
0
230
1
0
LINE
5
1E9
100
AcDbEntity
8
1
62
256
6
ByLayer
370
18
48
1
60
1
100
AcDbLine
10
121.225
20
10.99675
30
0
11
121.685784
21
7.496752
31
0
39
0
210
0
220
0
230
1
0
LINE
5
1EA
100
AcDbEntity
8
1
62
256
6
ByLayer
370
18
48
1
60
1
100
AcDbLine
10
121.685784
20
7.496752
30
0
11
120.764216
21
7.496748
31
0
39
0
210
0
220
0
230
1
0
LINE
5
1EB
100
AcDbEntity
8
1
62
256
6
ByLayer
370
18
48
1
60
1
100
AcDbLine
10
120.764216
20
7.496748
30
0
11
121.225
21
10.99675
31
0
39
0
210
0
220
0
230
1
0
LINE
5
1ED
100
AcDbEntity
8
1
62
256
6
ByLayer
370
18
48
1
60
1
100
AcDbLine
10
121.225
20
-10.99675
30
0
11
120.764216
21
-7.496752
31
0
39
0
210
0
220
0
230
1
0
LINE
5
1EE
100
AcDbEntity
8
1
62
256
6
ByLayer
370
18
48
1
60
1
100
AcDbLine
10
120.764216
20
-7.496752
30
0
11
121.685784
21
-7.496748
31
0
39
0
210
0
220
0
230
1
0
LINE
5
1EF
100
AcDbEntity
8
1
62
256
6
ByLayer
370
18
48
1
60
1
100
AcDbLine
10
121.685784
20
-7.496748
30
0
11
121.225
21
-10.99675
31
0
39
0
210
0
220
0
230
1
0
LINE
5
1F3
100
AcDbEntity
8
1
62
256
6
ByLayer
370
18
48
1
60
1
100
AcDbLine
10
136.225
20
-20.75
30
0
11
135.764216
21
-17.250002
31
0
39
0
210
0
220
0
230
1
0
LINE
5
1F4
100
AcDbEntity
8
1
62
256
6
ByLayer
370
18
48
1
60
1
100
AcDbLine
10
135.764216
20
-17.250002
30
0
11
136.685784
21
-17.249998
31
0
39
0
210
0
220
0
230
1
0
LINE
5
1F5
100
AcDbEntity
8
1
62
256
6
ByLayer
370
18
48
1
60
1
100
AcDbLine
10
136.685784
20
-17.249998
30
0
11
136.225
21
-20.75
31
0
39
0
210
0
220
0
230
1
0
LINE
5
1F7
100
AcDbEntity
8
1
62
256
6
ByLayer
370
18
48
1
60
1
100
AcDbLine
10
136.225
20
20.75
30
0
11
136.685784
21
17.250002
31
0
39
0
210
0
220
0
230
1
0
LINE
5
1F8
100
AcDbEntity
8
1
62
256
6
ByLayer
370
18
48
1
60
1
100
AcDbLine
10
136.685784
20
17.250002
30
0
11
135.764216
21
17.249998
31
0
39
0
210
0
220
0
230
1
0
LINE
5
1F9
100
AcDbEntity
8
1
62
256
6
ByLayer
370
18
48
1
60
1
100
AcDbLine
10
135.764216
20
17.249998
30
0
11
136.225
21
20.75
31
0
39
0
210
0
220
0
230
1
0
LINE
5
1FD
100
AcDbEntity
8
1
62
256
6
ByLayer
370
18
48
1
60
1
100
AcDbLine
10
146.225
20
-24
30
0
11
145.764216
21
-20.500002
31
0
39
0
210
0
220
0
230
1
0
LINE
5
1FE
100
AcDbEntity
8
1
62
256
6
ByLayer
370
18
48
1
60
1
100
AcDbLine
10
145.764216
20
-20.500002
30
0
11
146.685784
21
-20.499998
31
0
39
0
210
0
220
0
230
1
0
LINE
5
1FF
100
AcDbEntity
8
1
62
256
6
ByLayer
370
18
48
1
60
1
100
AcDbLine
10
146.685784
20
-20.499998
30
0
11
146.225
21
-24
31
0
39
0
210
0
220
0
230
1
0
LINE
5
201
100
AcDbEntity
8
1
62
256
6
ByLayer
370
18
48
1
60
1
100
AcDbLine
10
146.225
20
24
30
0
11
146.685784
21
20.500002
31
0
39
0
210
0
220
0
230
1
0
LINE
5
202
100
AcDbEntity
8
1
62
256
6
ByLayer
370
18
48
1
60
1
100
AcDbLine
10
146.685784
20
20.500002
30
0
11
145.764216
21
20.499998
31
0
39
0
210
0
220
0
230
1
0
LINE
5
203
100
AcDbEntity
8
1
62
256
6
ByLayer
370
18
48
1
60
1
100
AcDbLine
10
145.764216
20
20.499998
30
0
11
146.225
21
24
31
0
39
0
210
0
220
0
230
1
0
LINE
5
206
100
AcDbEntity
8
1
62
256
6
ByLayer
370
18
48
1
60
1
100
AcDbLine
10
0
20
52.975651
30
0
11
-3.499998
21
52.514867
31
0
39
0
210
0
220
0
230
1
0
LINE
5
207
100
AcDbEntity
8
1
62
256
6
ByLayer
370
18
48
1
60
1
100
AcDbLine
10
-3.499998
20
52.514867
30
0
11
-3.500002
21
53.436435
31
0
39
0
210
0
220
0
230
1
0
LINE
5
208
100
AcDbEntity
8
1
62
256
6
ByLayer
370
18
48
1
60
1
100
AcDbLine
10
-3.500002
20
53.436435
30
0
11
0
21
52.975651
31
0
39
0
210
0
220
0
230
1
0
LINE
5
20A
100
AcDbEntity
8
1
62
256
6
ByLayer
370
18
48
1
60
1
100
AcDbLine
10
-24.9
20
52.975651
30
0
11
-21.400002
21
53.436435
31
0
39
0
210
0
220
0
230
1
0
LINE
5
20B
100
AcDbEntity
8
1
62
256
6
ByLayer
370
18
48
1
60
1
100
AcDbLine
10
-21.400002
20
53.436435
30
0
11
-21.399998
21
52.514867
31
0
39
0
210
0
220
0
230
1
0
LINE
5
20C
100
AcDbEntity
8
1
62
256
6
ByLayer
370
18
48
1
60
1
100
AcDbLine
10
-21.399998
20
52.514867
30
0
11
-24.9
21
52.975651
31
0
39
0
210
0
220
0
230
1
0
LINE
5
20F
100
AcDbEntity
8
1
62
256
6
ByLayer
370
18
48
1
60
1
100
AcDbLine
10
42.399449
20
42.975651
30
0
11
38.899451
21
42.514867
31
0
39
0
210
0
220
0
230
1
0
LINE
5
210
100
AcDbEntity
8
1
62
256
6
ByLayer
370
18
48
1
60
1
100
AcDbLine
10
38.899451
20
42.514867
30
0
11
38.899447
21
43.436435
31
0
39
0
210
0
220
0
230
1
0
LINE
5
211
100
AcDbEntity
8
1
62
256
6
ByLayer
370
18
48
1
60
1
100
AcDbLine
10
38.899447
20
43.436435
30
0
11
42.399449
21
42.975651
31
0
39
0
210
0
220
0
230
1
0
LINE
5
213
100
AcDbEntity
8
1
62
256
6
ByLayer
370
18
48
1
60
1
100
AcDbLine
10
0
20
42.975651
30
0
11
3.499998
21
43.436435
31
0
39
0
210
0
220
0
230
1
0
LINE
5
214
100
AcDbEntity
8
1
62
256
6
ByLayer
370
18
48
1
60
1
100
AcDbLine
10
3.499998
20
43.436435
30
0
11
3.500002
21
42.514867
31
0
39
0
210
0
220
0
230
1
0
LINE
5
215
100
AcDbEntity
8
1
62
256
6
ByLayer
370
18
48
1
60
1
100
AcDbLine
10
3.500002
20
42.514867
30
0
11
0
21
42.975651
31
0
39
0
210
0
220
0
230
1
0
LINE
5
219
100
AcDbEntity
8
1
62
256
6
ByLayer
370
18
48
1
60
1
100
AcDbLine
10
60
20
52.975651
30
0
11
56.500002
21
52.514867
31
0
39
0
210
0
220
0
230
1
0
LINE
5
21A
100
AcDbEntity
8
1
62
256
6
ByLayer
370
18
48
1
60
1
100
AcDbLine
10
56.500002
20
52.514867
30
0
11
56.499998
21
53.436435
31
0
39
0
210
0
220
0
230
1
0
LINE
5
21B
100
AcDbEntity
8
1
62
256
6
ByLayer
370
18
48
1
60
1
100
AcDbLine
10
56.499998
20
53.436435
30
0
11
60
21
52.975651
31
0
39
0
210
0
220
0
230
1
0
LINE
5
21D
100
AcDbEntity
8
1
62
256
6
ByLayer
370
18
48
1
60
1
100
AcDbLine
10
0
20
52.975651
30
0
11
3.499998
21
53.436435
31
0
39
0
210
0
220
0
230
1
0
LINE
5
21E
100
AcDbEntity
8
1
62
256
6
ByLayer
370
18
48
1
60
1
100
AcDbLine
10
3.499998
20
53.436435
30
0
11
3.500002
21
52.514867
31
0
39
0
210
0
220
0
230
1
0
LINE
5
21F
100
AcDbEntity
8
1
62
256
6
ByLayer
370
18
48
1
60
1
100
AcDbLine
10
3.500002
20
52.514867
30
0
11
0
21
52.975651
31
0
39
0
210
0
220
0
230
1
0
LINE
5
222
100
AcDbEntity
8
1
62
256
6
ByLayer
370
18
48
1
60
1
100
AcDbLine
10
76
20
35.975651
30
0
11
72.500002
21
35.514867
31
0
39
0
210
0
220
0
230
1
0
LINE
5
223
100
AcDbEntity
8
1
62
256
6
ByLayer
370
18
48
1
60
1
100
AcDbLine
10
72.500002
20
35.514867
30
0
11
72.499998
21
36.436435
31
0
39
0
210
0
220
0
230
1
0
LINE
5
224
100
AcDbEntity
8
1
62
256
6
ByLayer
370
18
48
1
60
1
100
AcDbLine
10
72.499998
20
36.436435
30
0
11
76
21
35.975651
31
0
39
0
210
0
220
0
230
1
0
LINE
5
226
100
AcDbEntity
8
1
62
256
6
ByLayer
370
18
48
1
60
1
100
AcDbLine
10
60
20
35.975651
30
0
11
63.499998
21
36.436435
31
0
39
0
210
0
220
0
230
1
0
LINE
5
227
100
AcDbEntity
8
1
62
256
6
ByLayer
370
18
48
1
60
1
100
AcDbLine
10
63.499998
20
36.436435
30
0
11
63.500002
21
35.514867
31
0
39
0
210
0
220
0
230
1
0
LINE
5
228
100
AcDbEntity
8
1
62
256
6
ByLayer
370
18
48
1
60
1
100
AcDbLine
10
63.500002
20
35.514867
30
0
11
60
21
35.975651
31
0
39
0
210
0
220
0
230
1
0
MTEXT
5
1DB
100
AcDbEntity
8
SK2
62
256
6
ByLayer
370
18
48
1
60
0
100
AcDbMText
10
-43.439659
20
-4.530622
30
0
210
0
220
0
230
1
1
%%c
40
3.5
41
0
44
1.084337
50
90
71
7
72
5
7
iso_b_vert
0
MTEXT
5
1DE
100
AcDbEntity
8
SK2
62
256
6
ByLayer
370
18
48
1
60
0
100
AcDbMText
10
-43.439659
20
2.442034
30
0
210
0
220
0
230
1
1
\W0.6740;50
40
3.5
41
0
44
1.084337
50
90
71
7
72
5
7
iso_b_vert
0
MTEXT
5
1E7
100
AcDbEntity
8
SK2
62
256
6
ByLayer
370
18
48
1
60
0
100
AcDbMText
10
119.660366
20
-4.530622
30
0
210
0
220
0
230
1
1
%%c
40
3.5
41
0
44
1.084337
50
90
71
7
72
5
7
iso_b_vert
0
MTEXT
5
1E8
100
AcDbEntity
8
SK2
62
256
6
ByLayer
370
18
48
1
60
0
100
AcDbMText
10
119.660366
20
2.442034
30
0
210
0
220
0
230
1
1
\W0.6740;22
40
3.5
41
0
44
1.084337
50
90
71
7
72
5
7
iso_b_vert
0
MTEXT
5
1F1
100
AcDbEntity
8
SK2
62
256
6
ByLayer
370
18
48
1
60
0
100
AcDbMText
10
134.660366
20
-6.294189
30
0
210
0
220
0
230
1
1
%%c
40
3.5
41
0
44
1.084337
50
90
71
7
72
5
7
iso_b_vert
0
MTEXT
5
1F2
100
AcDbEntity
8
SK2
62
256
6
ByLayer
370
18
48
1
60
0
100
AcDbMText
10
134.660366
20
0.678467
30
0
210
0
220
0
230
1
1
\W0.6856;41.5
40
3.5
41
0
44
1.084337
50
90
71
7
72
5
7
iso_b_vert
0
MTEXT
5
1FB
100
AcDbEntity
8
SK2
62
256
6
ByLayer
370
18
48
1
60
0
100
AcDbMText
10
144.660366
20
-4.714889
30
0
210
0
220
0
230
1
1
%%c
40
3.5
41
0
44
1.084337
50
90
71
7
72
5
7
iso_b_vert
0
MTEXT
5
1FC
100
AcDbEntity
8
SK2
62
256
6
ByLayer
370
18
48
1
60
0
100
AcDbMText
10
144.660366
20
2.257767
30
0
210
0
220
0
230
1
1
\W0.7361;48
40
3.5
41
0
44
1.084337
50
90
71
7
72
5
7
iso_b_vert
0
MTEXT
5
205
100
AcDbEntity
8
SK2
62
256
6
ByLayer
370
18
48
1
60
0
100
AcDbMText
10
-16.555966
20
54.008285
30
0
210
0
220
0
230
1
1
\W0.7756;24.9
40
3.5
41
0
44
1.084337
50
0
71
7
72
5
7
iso_b_vert
0
MTEXT
5
20E
100
AcDbEntity
8
SK2
62
256
6
ByLayer
370
18
48
1
60
0
100
AcDbMText
10
16.909492
20
44.008285
30
0
210
0
220
0
230
1
1
\W0.7865;42.4
40
3.5
41
0
44
1.084337
50
0
71
7
72
5
7
iso_b_vert
0
MTEXT
5
217
100
AcDbEntity
8
2
62
256
6
ByLayer
370
18
48
1
60
0
100
AcDbMText
10
29.388934
20
54.008285
30
0
210
0
220
0
230
1
1
\W0.8277;\W0.4138;%%p\W0.8277;0.1
40
3.5
41
0
44
1.084337
50
0
71
7
72
5
7
iso_b_vert
0
MTEXT
5
218
100
AcDbEntity
8
2
62
256
6
ByLayer
370
18
48
1
60
0
100
AcDbMText
10
21.708001
20
54.008285
30
0
210
0
220
0
230
1
1
\W0.6740;60
40
3.5
41
0
44
1.084337
50
0
71
7
72
5
7
iso_b_vert
0
MTEXT
5
221
100
AcDbEntity
8
SK2
62
256
6
ByLayer
370
18
48
1
60
0
100
AcDbMText
10
66.532467
20
37.008285
30
0
210
0
220
0
230
1
1
\W0.5321;16
40
3.5
41
0
44
1.084337
50
0
71
7
72
5
7
iso_b_vert
0
MTEXT
5
22A
100
AcDbEntity
8
SK6
62
256
6
ByLayer
370
18
48
1
60
0
100
AcDbMText
10
61.929619
20
-92.079556
30
0
210
0
220
0
230
1
1
\W0.7849;HA05-AR22-B048-060
40
3
41
0
44
1.084337
50
0
71
7
72
5
7
iso_b_vert
0
HATCH
5
1E2
100
AcDbEntity
8
SK2
62
256
6
ByLayer
370
13
48
1
60
0
100
AcDbHatch
10
0
20
0
30
0
210
0
220
0
230
1
2
ANSI31
70
0
71
0
91
1
92
5
93
3
72
1
10
-41.875025
20
24.975
11
-41.4142412584472
21
21.4750016925532
72
1
10
-41.4142412584472
20
21.4750016925532
11
-42.3358087415528
21
21.4749983074468
72
1
10
-42.3358087415528
20
21.4749983074468
11
-41.875025
21
24.975
97
0
75
0
76
1
52
0
41
0.0062
77
0
78
1
53
45
43
0
44
0
45
-0.0139193969876572
46
0.0139193969876572
79
0
47
0
98
1
10
0
20
0
0
HATCH
5
1E6
100
AcDbEntity
8
SK2
62
256
6
ByLayer
370
13
48
1
60
0
100
AcDbHatch
10
0
20
0
30
0
210
0
220
0
230
1
2
ANSI31
70
0
71
0
91
1
92
5
93
3
72
1
10
-41.875025
20
-24.975
11
-42.3358087415528
21
-21.4750016925532
72
1
10
-42.3358087415528
20
-21.4750016925532
11
-41.4142412584472
21
-21.4749983074468
72
1
10
-41.4142412584472
20
-21.4749983074468
11
-41.875025
21
-24.975
97
0
75
0
76
1
52
0
41
0.0062
77
0
78
1
53
45
43
0
44
0
45
-0.0139193969876572
46
0.0139193969876572
79
0
47
0
98
1
10
0
20
0
0
HATCH
5
1EC
100
AcDbEntity
8
SK2
62
256
6
ByLayer
370
13
48
1
60
0
100
AcDbHatch
10
0
20
0
30
0
210
0
220
0
230
1
2
ANSI31
70
0
71
0
91
1
92
5
93
3
72
1
10
121.225
20
10.99675
11
121.685783741553
21
7.49675169255318
72
1
10
121.685783741553
20
7.49675169255318
11
120.764216258447
21
7.49674830744681
72
1
10
120.764216258447
20
7.49674830744681
11
121.225
21
10.99675
97
0
75
0
76
1
52
0
41
0.0062
77
0
78
1
53
45
43
0
44
0
45
-0.0139193969876572
46
0.0139193969876572
79
0
47
0
98
1
10
0
20
0
0
HATCH
5
1F0
100
AcDbEntity
8
SK2
62
256
6
ByLayer
370
13
48
1
60
0
100
AcDbHatch
10
0
20
0
30
0
210
0
220
0
230
1
2
ANSI31
70
0
71
0
91
1
92
5
93
3
72
1
10
121.225
20
-10.99675
11
120.764216258447
21
-7.49675169255318
72
1
10
120.764216258447
20
-7.49675169255318
11
121.685783741553
21
-7.49674830744681
72
1
10
121.685783741553
20
-7.49674830744681
11
121.225
21
-10.99675
97
0
75
0
76
1
52
0
41
0.0062
77
0
78
1
53
45
43
0
44
0
45
-0.0139193969876572
46
0.0139193969876572
79
0
47
0
98
1
10
0
20
0
0
HATCH
5
1F6
100
AcDbEntity
8
SK2
62
256
6
ByLayer
370
13
48
1
60
0
100
AcDbHatch
10
0
20
0
30
0
210
0
220
0
230
1
2
ANSI31
70
0
71
0
91
1
92
5
93
3
72
1
10
136.225
20
-20.75
11
135.764216258447
21
-17.2500016925532
72
1
10
135.764216258447
20
-17.2500016925532
11
136.685783741553
21
-17.2499983074468
72
1
10
136.685783741553
20
-17.2499983074468
11
136.225
21
-20.75
97
0
75
0
76
1
52
0
41
0.0062
77
0
78
1
53
45
43
0
44
0
45
-0.0139193969876572
46
0.0139193969876572
79
0
47
0
98
1
10
0
20
0
0
HATCH
5
1FA
100
AcDbEntity
8
SK2
62
256
6
ByLayer
370
13
48
1
60
0
100
AcDbHatch
10
0
20
0
30
0
210
0
220
0
230
1
2
ANSI31
70
0
71
0
91
1
92
5
93
3
72
1
10
136.225
20
20.75
11
136.685783741553
21
17.2500016925532
72
1
10
136.685783741553
20
17.2500016925532
11
135.764216258447
21
17.2499983074468
72
1
10
135.764216258447
20
17.2499983074468
11
136.225
21
20.75
97
0
75
0
76
1
52
0
41
0.0062
77
0
78
1
53
45
43
0
44
0
45
-0.0139193969876572
46
0.0139193969876572
79
0
47
0
98
1
10
0
20
0
0
HATCH
5
200
100
AcDbEntity
8
SK2
62
256
6
ByLayer
370
13
48
1
60
0
100
AcDbHatch
10
0
20
0
30
0
210
0
220
0
230
1
2
ANSI31
70
0
71
0
91
1
92
5
93
3
72
1
10
146.225
20
-24
11
145.764216258447
21
-20.5000016925532
72
1
10
145.764216258447
20
-20.5000016925532
11
146.685783741553
21
-20.4999983074468
72
1
10
146.685783741553
20
-20.4999983074468
11
146.225
21
-24
97
0
75
0
76
1
52
0
41
0.0062
77
0
78
1
53
45
43
0
44
0
45
-0.0139193969876572
46
0.0139193969876572
79
0
47
0
98
1
10
0
20
0
0
HATCH
5
204
100
AcDbEntity
8
SK2
62
256
6
ByLayer
370
13
48
1
60
0
100
AcDbHatch
10
0
20
0
30
0
210
0
220
0
230
1
2
ANSI31
70
0
71
0
91
1
92
5
93
3
72
1
10
146.225
20
24
11
146.685783741553
21
20.5000016925532
72
1
10
146.685783741553
20
20.5000016925532
11
145.764216258447
21
20.4999983074468
72
1
10
145.764216258447
20
20.4999983074468
11
146.225
21
24
97
0
75
0
76
1
52
0
41
0.0062
77
0
78
1
53
45
43
0
44
0
45
-0.0139193969876572
46
0.0139193969876572
79
0
47
0
98
1
10
0
20
0
0
HATCH
5
209
100
AcDbEntity
8
SK2
62
256
6
ByLayer
370
13
48
1
60
0
100
AcDbHatch
10
0
20
0
30
0
210
0
220
0
230
1
2
ANSI31
70
0
71
0
91
1
92
5
93
3
72
1
10
0
20
52.9756511226018
11
-3.4999983074468
21
52.514867381049
72
1
10
-3.4999983074468
20
52.514867381049
11
-3.5000016925532
21
53.4364348641545
72
1
10
-3.5000016925532
20
53.4364348641545
11
0
21
52.9756511226018
97
0
75
0
76
1
52
0
41
0.0062
77
0
78
1
53
45
43
0
44
0
45
-0.0139193969876572
46
0.0139193969876572
79
0
47
0
98
1
10
0
20
0
0
HATCH
5
20D
100
AcDbEntity
8
SK2
62
256
6
ByLayer
370
13
48
1
60
0
100
AcDbHatch
10
0
20
0
30
0
210
0
220
0
230
1
2
ANSI31
70
0
71
0
91
1
92
5
93
3
72
1
10
-24.9
20
52.9756511226018
11
-21.4000016925532
21
53.4364348641545
72
1
10
-21.4000016925532
20
53.4364348641545
11
-21.3999983074468
21
52.514867381049
72
1
10
-21.3999983074468
20
52.514867381049
11
-24.9
21
52.9756511226018
97
0
75
0
76
1
52
0
41
0.0062
77
0
78
1
53
45
43
0
44
0
45
-0.0139193969876572
46
0.0139193969876572
79
0
47
0
98
1
10
0
20
0
0
HATCH
5
212
100
AcDbEntity
8
SK2
62
256
6
ByLayer
370
13
48
1
60
0
100
AcDbHatch
10
0
20
0
30
0
210
0
220
0
230
1
2
ANSI31
70
0
71
0
91
1
92
5
93
3
72
1
10
42.3994491134608
20
42.9756511226018
11
38.899450806014
21
42.514867381049
72
1
10
38.899450806014
20
42.514867381049
11
38.8994474209076
21
43.4364348641545
72
1
10
38.8994474209076
20
43.4364348641545
11
42.3994491134608
21
42.9756511226018
97
0
75
0
76
1
52
0
41
0.0062
77
0
78
1
53
45
43
0
44
0
45
-0.0139193969876572
46
0.0139193969876572
79
0
47
0
98
1
10
0
20
0
0
HATCH
5
216
100
AcDbEntity
8
SK2
62
256
6
ByLayer
370
13
48
1
60
0
100
AcDbHatch
10
0
20
0
30
0
210
0
220
0
230
1
2
ANSI31
70
0
71
0
91
1
92
5
93
3
72
1
10
0
20
42.9756511226018
11
3.4999983074468
21
43.4364348641545
72
1
10
3.4999983074468
20
43.4364348641545
11
3.5000016925532
21
42.514867381049
72
1
10
3.5000016925532
20
42.514867381049
11
0
21
42.9756511226018
97
0
75
0
76
1
52
0
41
0.0062
77
0
78
1
53
45
43
0
44
0
45
-0.0139193969876572
46
0.0139193969876572
79
0
47
0
98
1
10
0
20
0
0
HATCH
5
21C
100
AcDbEntity
8
2
62
256
6
ByLayer
370
13
48
1
60
0
100
AcDbHatch
10
0
20
0
30
0
210
0
220
0
230
1
2
ANSI31
70
0
71
0
91
1
92
5
93
3
72
1
10
60
20
52.9756511226018
11
56.5000016925532
21
52.514867381049
72
1
10
56.5000016925532
20
52.514867381049
11
56.4999983074468
21
53.4364348641545
72
1
10
56.4999983074468
20
53.4364348641545
11
60
21
52.9756511226018
97
0
75
0
76
1
52
0
41
0.0062
77
0
78
1
53
45
43
0
44
0
45
-0.0139193969876572
46
0.0139193969876572
79
0
47
0
98
1
10
0
20
0
0
HATCH
5
220
100
AcDbEntity
8
2
62
256
6
ByLayer
370
13
48
1
60
0
100
AcDbHatch
10
0
20
0
30
0
210
0
220
0
230
1
2
ANSI31
70
0
71
0
91
1
92
5
93
3
72
1
10
0
20
52.9756511226018
11
3.4999983074468
21
53.4364348641545
72
1
10
3.4999983074468
20
53.4364348641545
11
3.5000016925532
21
52.514867381049
72
1
10
3.5000016925532
20
52.514867381049
11
0
21
52.9756511226018
97
0
75
0
76
1
52
0
41
0.0062
77
0
78
1
53
45
43
0
44
0
45
-0.0139193969876572
46
0.0139193969876572
79
0
47
0
98
1
10
0
20
0
0
HATCH
5
225
100
AcDbEntity
8
SK2
62
256
6
ByLayer
370
13
48
1
60
0
100
AcDbHatch
10
0
20
0
30
0
210
0
220
0
230
1
2
ANSI31
70
0
71
0
91
1
92
5
93
3
72
1
10
76
20
35.9756511226018
11
72.5000016925532
21
35.514867381049
72
1
10
72.5000016925532
20
35.514867381049
11
72.4999983074468
21
36.4364348641545
72
1
10
72.4999983074468
20
36.4364348641545
11
76
21
35.9756511226018
97
0
75
0
76
1
52
0
41
0.0062
77
0
78
1
53
45
43
0
44
0
45
-0.0139193969876572
46
0.0139193969876572
79
0
47
0
98
1
10
0
20
0
0
HATCH
5
229
100
AcDbEntity
8
SK2
62
256
6
ByLayer
370
13
48
1
60
0
100
AcDbHatch
10
0
20
0
30
0
210
0
220
0
230
1
2
ANSI31
70
0
71
0
91
1
92
5
93
3
72
1
10
60
20
35.9756511226018
11
63.4999983074468
21
36.4364348641545
72
1
10
63.4999983074468
20
36.4364348641545
11
63.5000016925532
21
35.514867381049
72
1
10
63.5000016925532
20
35.514867381049
11
60
21
35.9756511226018
97
0
75
0
76
1
52
0
41
0.0062
77
0
78
1
53
45
43
0
44
0
45
-0.0139193969876572
46
0.0139193969876572
79
0
47
0
98
1
10
0
20
0
0
ENDSEC
0
SECTION
2
OBJECTS
0
DICTIONARY
5
299
330
0
100
AcDbDictionary
280
0
281
1
3
ACAD_GROUP
350
29a
3
ACAD_MLINESTYLE
350
29b
0
DICTIONARY
5
29a
330
0
100
AcDbDictionary
280
0
281
1
0
DICTIONARY
5
29b
330
0
100
AcDbDictionary
280
0
281
1
3
Standard
350
18
0
MLINESTYLE
5
18
330
29b
100
AcDbMlineStyle
2
Standard
70
0
3

62
256
51
90
52
90
71
2
49
-0.5
62
256
6
ByLayer
49
0.5
62
256
6
ByLayer
0
RASTERVARIABLES
5
287
330

100
AcDbRasterVariables
90
0
70
1
71
1
72
1
0
ENDSEC
0
EOF
