0
SECTION
2
HEADER
9
$ACADVER
1
AC1015
9
$DWGCODEPAGE
3
ANSI_1252
9
$HANDSEED
5
25d
9
$ANGBASE
50
0
9
$ANGDIR
70
0
9
$ATTMODE
70
1
9
$AUNITS
70
0
9
$AUPREC
70
0
9
$CECOLOR
62
256
9
$CELTSCALE
40
1
9
$CELTYPE
6
ByLayer
9
$CELWEIGHT
370
18
9
$CLAYER
8
0
9
$CMLJUST
70
0
9
$CMLSCALE
40
1
9
$CMLSTYLE
2
Standard
9
$DIMSTYLE
2
Standard
9
$TEXTSIZE
40
0.2
9
$TEXTSTYLE
7
Standard
9
$LUNITS
70
2
9
$LUPREC
70
4
9
$EXTNAMES
290
1
9
$INSUNITS
70
4
9
$LTSCALE
40
1
9
$LWDISPLAY
290
1
9
$PDMODE
70
0
9
$PDSIZE
40
0
9
$PLINEGEN
70
0
0
ENDSEC
0
SECTION
2
CLASSES
0
CLASS
1
RASTERVARIABLES
2
AcDbRasterVariables
3
ISM
90
0
280
0
281
0
0
ENDSEC
0
SECTION
2
TABLES
0
TABLE
2
VPORT
5
253
100
AcDbSymbolTable
0
VPORT
5
1
100
AcDbSymbolTableRecord
100
AcDbViewportTableRecord
2
*Active
70
0
10
0
20
0
11
1
21
1
12
-1
22
1
13
0
23
0
14
0.5
24
0.5
15
10
25
10
16
0
26
0
36
1
17
0
27
0
37
0
0
ENDTAB
0
TABLE
2
LTYPE
5
254
100
AcDbSymbolTable
0
LTYPE
5
14
100
AcDbSymbolTableRecord
100
AcDbLinetypeTableRecord
70
0
2
ByBlock
3

72
65
73
0
40
0
0
LTYPE
5
15
100
AcDbSymbolTableRecord
100
AcDbLinetypeTableRecord
70
0
2
ByLayer
3

72
65
73
0
40
0
0
LTYPE
5
16
100
AcDbSymbolTableRecord
100
AcDbLinetypeTableRecord
70
0
2
Continuous
3
Solid line
72
65
73
0
40
0
0
LTYPE
5
6E
100
AcDbSymbolTableRecord
100
AcDbLinetypeTableRecord
70
0
2
CENTER
3
____ _ ____ _ ____ _ ____
72
65
73
4
40
47.5
49
22
74
0
49
-8.5
74
0
49
8.5
74
0
49
-8.5
74
0
0
LTYPE
5
6F
100
AcDbSymbolTableRecord
100
AcDbLinetypeTableRecord
70
0
2
DASHED
3
__ __ __ __ __ __ __ __ __
72
65
73
2
40
25.72
49
12.86
74
0
49
-12.86
74
0
0
ENDTAB
0
TABLE
2
LAYER
5
255
100
AcDbSymbolTable
0
LAYER
5
10
100
AcDbSymbolTableRecord
100
AcDbLayerTableRecord
2
0
70
0
62
7
6
Continuous
290
1
370
-3
390
0
0
LAYER
5
71
100
AcDbSymbolTableRecord
100
AcDbLayerTableRecord
2
2
70
0
62
7
6
Continuous
290
1
370
-3
390
0
0
LAYER
5
85
100
AcDbSymbolTableRecord
100
AcDbLayerTableRecord
2
80
70
0
62
-6
6
Continuous
290
1
370
-3
390
0
0
LAYER
5
87
100
AcDbSymbolTableRecord
100
AcDbLayerTableRecord
2
81
70
0
62
-3
6
Continuous
290
1
370
-3
390
0
0
LAYER
5
89
100
AcDbSymbolTableRecord
100
AcDbLayerTableRecord
2
1
70
0
62
4
6
Continuous
290
1
370
-3
390
0
0
LAYER
5
93
100
AcDbSymbolTableRecord
100
AcDbLayerTableRecord
2
4
70
0
62
-2
6
CENTER
290
1
370
-3
390
0
0
LAYER
5
23f
100
AcDbSymbolTableRecord
100
AcDbLayerTableRecord
2
SK4
70
0
62
2
6
CENTER
290
1
370
-3
390
0
0
LAYER
5
240
100
AcDbSymbolTableRecord
100
AcDbLayerTableRecord
2
SK2
70
0
62
7
6
Continuous
290
1
370
-3
390
0
0
LAYER
5
241
100
AcDbSymbolTableRecord
100
AcDbLayerTableRecord
2
SK1
70
0
62
4
6
Continuous
290
1
370
-3
390
0
0
LAYER
5
242
100
AcDbSymbolTableRecord
100
AcDbLayerTableRecord
2
SK6
70
0
62
5
6
Continuous
290
1
370
-3
390
0
0
ENDTAB
0
TABLE
2
STYLE
5
256
100
AcDbSymbolTable
0
STYLE
5
11
100
AcDbSymbolTableRecord
100
AcDbTextStyleTableRecord
2
Standard
3
txt
70
0
71
0
40
0
41
1
42
0
50
0
0
STYLE
5
19D
100
AcDbSymbolTableRecord
100
AcDbTextStyleTableRecord
2
iso_b_vert
3
simplex.shx
70
0
71
0
40
0
41
1
42
0
50
0
0
STYLE
5
19E
100
AcDbSymbolTableRecord
100
AcDbTextStyleTableRecord
2
DWGDirectTextStyle
3
simplex
70
0
71
0
40
0
41
1
42
0
50
0
0
ENDTAB
0
TABLE
2
DIMSTYLE
5
257
100
AcDbSymbolTable
100
AcDbDimStyleTable
0
DIMSTYLE
105
27
100
AcDbSymbolTableRecord
100
AcDbDimStyleTableRecord
2
Standard
70
0
3
<>
41
0.18
42
0.0625
44
0.18
140
0.18
147
0.09
73
0
74
0
77
1
271
2
275
0
278
52
280
0
340
11
0
ENDTAB
0
TABLE
2
VIEW
5
258
100
AcDbSymbolTable
0
ENDTAB
0
TABLE
2
UCS
5
259
100
AcDbSymbolTable
0
ENDTAB
0
TABLE
2
APPID
5
25a
100
AcDbSymbolTable
0
APPID
5
12
100
AcDbSymbolTableRecord
100
AcDbRegAppTableRecord
2
ACAD
70
0
0
APPID
5
23B
100
AcDbSymbolTableRecord
100
AcDbRegAppTableRecord
2
ACAD_MLEADERVER
70
0
0
ENDTAB
0
TABLE
2
BLOCK_RECORD
5
25b
100
AcDbSymbolTable
0
BLOCK_RECORD
5
1F
100
AcDbSymbolTableRecord
100
AcDbBlockTableRecord
2
*Model_Space
340
0
70
0
0
BLOCK_RECORD
5
1B
100
AcDbSymbolTableRecord
100
AcDbBlockTableRecord
2
*Paper_Space
340
0
70
0
0
BLOCK_RECORD
5
23
100
AcDbSymbolTableRecord
100
AcDbBlockTableRecord
2
*Paper_Space0
340
0
70
0
0
ENDTAB
0
ENDSEC
0
SECTION
2
BLOCKS
0
BLOCK
5
20
100
AcDbEntity
8
0
100
AcDbBlockBegin
2
*Model_Space
70
0
10
0
20
0
30
0
3
*Model_Space
0
ENDBLK
5
21
100
AcDbEntity
8
0
100
AcDbBlockEnd
0
BLOCK
5
1C
100
AcDbEntity
8
0
100
AcDbBlockBegin
2
*Paper_Space
70
0
10
0
20
0
30
0
3
*Paper_Space
0
ENDBLK
5
1D
100
AcDbEntity
8
0
100
AcDbBlockEnd
0
BLOCK
5
24
100
AcDbEntity
8
0
100
AcDbBlockBegin
2
*Paper_Space0
70
0
10
0
20
0
30
0
3
*Paper_Space0
0
ENDBLK
5
25
100
AcDbEntity
8
0
100
AcDbBlockEnd
0
ENDSEC
0
SECTION
2
ENTITIES
0
ARC
5
15F
100
AcDbEntity
8
1
62
256
6
ByLayer
370
18
48
1
60
0
100
AcDbCircle
39
0
10
51.214791
20
13.74675
30
0
40
0.6
210
0
220
0
230
1
100
AcDbArc
50
270
51
285
0
ARC
5
160
100
AcDbEntity
8
1
62
256
6
ByLayer
370
18
48
1
60
0
100
AcDbCircle
39
0
10
51.214791
20
-13.74675
30
0
40
0.6
210
0
220
0
230
1
100
AcDbArc
50
75
51
90
0
ARC
5
161
100
AcDbEntity
8
1
62
256
6
ByLayer
370
18
48
1
60
0
100
AcDbCircle
39
0
10
50.375
20
-13.74675
30
0
40
0.599999999999988
210
0
220
0
230
1
100
AcDbArc
50
90
51
128.68315
0
ARC
5
162
100
AcDbEntity
8
1
62
256
6
ByLayer
370
18
48
1
60
0
100
AcDbCircle
39
0
10
50.375
20
13.74675
30
0
40
0.599999999999988
210
0
220
0
230
1
100
AcDbArc
50
231.31685
51
270
0
ARC
5
163
100
AcDbEntity
8
1
62
256
6
ByLayer
370
18
48
1
60
0
100
AcDbCircle
39
0
10
31.95
20
-34.5
30
0
40
3
210
0
220
0
230
1
100
AcDbArc
50
90
51
180
0
ARC
5
164
100
AcDbEntity
8
1
62
256
6
ByLayer
370
18
48
1
60
0
100
AcDbCircle
39
0
10
31.95
20
34.5
30
0
40
3
210
0
220
0
230
1
100
AcDbArc
50
180
51
270
0
ARC
5
165
100
AcDbEntity
8
1
62
256
6
ByLayer
370
18
48
1
60
0
100
AcDbCircle
39
0
10
21.525
20
-46.375
30
0
40
0.399999999999999
210
0
220
0
230
1
100
AcDbArc
50
0
51
90
0
ARC
5
166
100
AcDbEntity
8
1
62
256
6
ByLayer
370
18
48
1
60
0
100
AcDbCircle
39
0
10
18.475
20
46.375
30
0
40
0.399999999999999
210
0
220
0
230
1
100
AcDbArc
50
180
51
270
0
ARC
5
167
100
AcDbEntity
8
1
62
256
6
ByLayer
370
18
48
1
60
0
100
AcDbCircle
39
0
10
18.475
20
-46.375
30
0
40
0.399999999999999
210
0
220
0
230
1
100
AcDbArc
50
90
51
180
0
ARC
5
168
100
AcDbEntity
8
1
62
256
6
ByLayer
370
18
48
1
60
0
100
AcDbCircle
39
0
10
21.525
20
46.375
30
0
40
0.399999999999999
210
0
220
0
230
1
100
AcDbArc
50
270
51
0
0
ARC
5
169
100
AcDbEntity
8
SK2
62
256
6
ByLayer
370
18
48
1
60
0
100
AcDbCircle
39
0
10
83
20
-8
30
0
40
1
210
0
220
0
230
1
100
AcDbArc
50
270
51
0
0
ARC
5
16A
100
AcDbEntity
8
SK2
62
256
6
ByLayer
370
18
48
1
60
0
100
AcDbCircle
39
0
10
83
20
8
30
0
40
1
210
0
220
0
230
1
100
AcDbArc
50
0
51
90
0
ARC
5
16B
100
AcDbEntity
8
SK1
62
256
6
ByLayer
370
18
48
1
60
0
100
AcDbCircle
39
0
10
-47.9
20
-33.605194
30
0
40
2
210
0
220
0
230
1
100
AcDbArc
50
180
51
267.131868
0
ARC
5
16C
100
AcDbEntity
8
SK1
62
256
6
ByLayer
370
18
48
1
60
0
100
AcDbCircle
39
0
10
-47.9
20
33.605194
30
0
40
2
210
0
220
0
230
1
100
AcDbArc
50
92.868132
51
180
0
ARC
5
16D
100
AcDbEntity
8
SK1
62
256
6
ByLayer
370
18
48
1
60
0
100
AcDbCircle
39
0
10
-0.8
20
38.632252
30
0
40
1
210
0
220
0
230
1
100
AcDbArc
50
270
51
323.130102
0
ARC
5
16E
100
AcDbEntity
8
SK1
62
256
6
ByLayer
370
18
48
1
60
0
100
AcDbCircle
39
0
10
-0.8
20
-38.632252
30
0
40
1
210
0
220
0
230
1
100
AcDbArc
50
36.869898
51
90
0
ARC
5
16F
100
AcDbEntity
8
SK1
62
256
6
ByLayer
370
18
48
1
60
0
100
AcDbCircle
39
0
10
-36.7
20
-8.11
30
0
40
1.9
210
0
220
0
230
1
100
AcDbArc
50
270
51
0
0
ARC
5
170
100
AcDbEntity
8
SK1
62
256
6
ByLayer
370
18
48
1
60
0
100
AcDbCircle
39
0
10
-36.7
20
8.11
30
0
40
1.9
210
0
220
0
230
1
100
AcDbArc
50
0
51
90
0
CIRCLE
5
171
100
AcDbEntity
8
SK1
62
256
6
ByLayer
370
18
48
1
60
0
100
AcDbCircle
10
-15
20
0
30
0
40
5.99999999999999
39
0
210
0
220
0
230
1
0
ELLIPSE
5
172
100
AcDbEntity
8
SK1
62
256
6
ByLayer
370
13
48
1
60
0
100
AcDbEllipse
10
-36.7
20
-17.968056
30
0
11
1.9
21
0
31
0
210
0
220
0
230
1
40
0.45399
41
1.11205041920133
42
1.5707963267949
0
ELLIPSE
5
173
100
AcDbEntity
8
SK1
62
256
6
ByLayer
370
13
48
1
60
0
100
AcDbEllipse
10
-36.7
20
17.968056
30
0
11
1.9
21
0
31
0
210
0
220
0
230
1
40
0.45399
41
-1.5707963267949
42
-1.11205041920185
0
POINT
5
70
100
AcDbEntity
8
2
62
256
6
ByLayer
370
18
48
1
60
0
100
AcDbPoint
10
50
20
0
30
0
39
0
210
0
220
0
230
1
50
360
0
POINT
5
72
100
AcDbEntity
8
2
62
256
6
ByLayer
370
18
48
1
60
0
100
AcDbPoint
10
45
20
0
30
0
39
0
210
0
220
0
230
1
50
360
0
POINT
5
73
100
AcDbEntity
8
2
62
256
6
ByLayer
370
18
48
1
60
0
100
AcDbPoint
10
50
20
0
30
0
39
0
210
0
220
0
230
1
50
360
0
POINT
5
74
100
AcDbEntity
8
2
62
256
6
ByLayer
370
18
48
1
60
0
100
AcDbPoint
10
68
20
0
30
0
39
0
210
0
220
0
230
1
50
360
0
POINT
5
75
100
AcDbEntity
8
2
62
256
6
ByLayer
370
18
48
1
60
0
100
AcDbPoint
10
50
20
0
30
0
39
0
210
0
220
0
230
1
50
360
0
POINT
5
76
100
AcDbEntity
8
2
62
256
6
ByLayer
370
18
48
1
60
0
100
AcDbPoint
10
50
20
4.5175
30
0
39
0
210
0
220
0
230
1
50
360
0
POINT
5
77
100
AcDbEntity
8
2
62
256
6
ByLayer
370
18
48
1
60
0
100
AcDbPoint
10
50
20
0
30
0
39
0
210
0
220
0
230
1
50
360
0
POINT
5
78
100
AcDbEntity
8
2
62
256
6
ByLayer
370
18
48
1
60
0
100
AcDbPoint
10
50
20
4.5175
30
0
39
0
210
0
220
0
230
1
50
360
0
POINT
5
79
100
AcDbEntity
8
2
62
256
6
ByLayer
370
18
48
1
60
0
100
AcDbPoint
10
50
20
0
30
0
39
0
210
0
220
0
230
1
50
360
0
POINT
5
7A
100
AcDbEntity
8
2
62
256
6
ByLayer
370
18
48
1
60
0
100
AcDbPoint
10
50
20
0
30
0
39
0
210
0
220
0
230
1
50
360
0
POINT
5
7B
100
AcDbEntity
8
2
62
256
6
ByLayer
370
18
48
1
60
0
100
AcDbPoint
10
45
20
0
30
0
39
0
210
0
220
0
230
1
50
360
0
POINT
5
7C
100
AcDbEntity
8
2
62
256
6
ByLayer
370
18
48
1
60
0
100
AcDbPoint
10
50
20
-4.5175
30
0
39
0
210
0
220
0
230
1
50
360
0
POINT
5
7D
100
AcDbEntity
8
2
62
256
6
ByLayer
370
18
48
1
60
0
100
AcDbPoint
10
50
20
0
30
0
39
0
210
0
220
0
230
1
50
360
0
POINT
5
7E
100
AcDbEntity
8
2
62
256
6
ByLayer
370
18
48
1
60
0
100
AcDbPoint
10
68
20
0
30
0
39
0
210
0
220
0
230
1
50
360
0
POINT
5
7F
100
AcDbEntity
8
2
62
256
6
ByLayer
370
18
48
1
60
0
100
AcDbPoint
10
0
20
0
30
0
39
0
210
0
220
0
230
1
50
360
0
POINT
5
80
100
AcDbEntity
8
2
62
256
6
ByLayer
370
18
48
1
60
0
100
AcDbPoint
10
50
20
-4.5175
30
0
39
0
210
0
220
0
230
1
50
360
0
POINT
5
81
100
AcDbEntity
8
2
62
256
6
ByLayer
370
18
48
1
60
0
100
AcDbPoint
10
68
20
0
30
0
39
0
210
0
220
0
230
1
50
360
0
POINT
5
82
100
AcDbEntity
8
2
62
256
6
ByLayer
370
18
48
1
60
0
100
AcDbPoint
10
50
20
0
30
0
39
0
210
0
220
0
230
1
50
360
0
POINT
5
83
100
AcDbEntity
8
2
62
256
6
ByLayer
370
18
48
1
60
0
100
AcDbPoint
10
45
20
0
30
0
39
0
210
0
220
0
230
1
50
360
0
POINT
5
84
100
AcDbEntity
8
80
62
256
6
ByLayer
370
18
48
1
60
0
100
AcDbPoint
10
0
20
0
30
0
39
0
210
0
220
0
230
1
50
360
0
POINT
5
86
100
AcDbEntity
8
81
62
256
6
ByLayer
370
18
48
1
60
0
100
AcDbPoint
10
50
20
0
30
0
39
0
210
0
220
0
230
1
50
360
0
POINT
5
88
100
AcDbEntity
8
1
62
256
6
ByLayer
370
13
48
1
60
1
100
AcDbPoint
10
20
20
47.422472
30
0
39
0
210
0
220
0
230
1
50
360
0
POINT
5
8A
100
AcDbEntity
8
1
62
256
6
ByLayer
370
13
48
1
60
1
100
AcDbPoint
10
20
20
41.200875
30
0
39
0
210
0
220
0
230
1
50
360
0
POINT
5
8B
100
AcDbEntity
8
1
62
256
6
ByLayer
370
13
48
1
60
1
100
AcDbPoint
10
-49.75
20
0
30
0
39
0
210
0
220
0
230
1
50
360
0
POINT
5
8C
100
AcDbEntity
8
1
62
256
6
ByLayer
370
13
48
1
60
1
100
AcDbPoint
10
69.5
20
0
30
0
39
0
210
0
220
0
230
1
50
360
0
POINT
5
8D
100
AcDbEntity
8
1
62
256
6
ByLayer
370
13
48
1
60
1
100
AcDbPoint
10
84.5
20
0
30
0
39
0
210
0
220
0
230
1
50
360
0
POINT
5
8E
100
AcDbEntity
8
1
62
256
6
ByLayer
370
13
48
1
60
1
100
AcDbPoint
10
35.75
20
0
30
0
39
0
210
0
220
0
230
1
50
360
0
POINT
5
8F
100
AcDbEntity
8
1
62
256
6
ByLayer
370
13
48
1
60
1
100
AcDbPoint
10
77.5
20
0
30
0
39
0
210
0
220
0
230
1
50
360
0
POINT
5
90
100
AcDbEntity
8
1
62
256
6
ByLayer
370
13
48
1
60
1
100
AcDbPoint
10
69.5
20
0
30
0
39
0
210
0
220
0
230
1
50
360
0
SPLINE
5
174
100
AcDbEntity
8
1
62
256
6
ByLayer
370
18
48
1
60
0
100
AcDbSpline
70
4
71
3
72
52
73
48
40
0
40
0
40
0
40
0
40
0.0625000000000059
40
0.0625000000000059
40
0.125000000000012
40
0.125000000000012
40
0.156250000000015
40
0.156250000000015
40
0.171875000000017
40
0.171875000000017
40
0.187500000000019
40
0.187500000000019
40
0.250000000000023
40
0.312500000000027
40
0.312500000000027
40
0.328125000000026
40
0.328125000000026
40
0.343750000000026
40
0.375000000000026
40
0.375000000000026
40
0.437500000000024
40
0.437500000000024
40
0.468750000000022
40
0.468750000000022
40
0.484375000000019
40
0.484375000000019
40
0.500000000000017
40
0.500000000000017
40
0.56250000000001
40
0.625000000000002
40
0.625000000000002
40
0.65625
40
0.65625
40
0.687499999999998
40
0.687499999999998
40
0.749999999999997
40
0.749999999999997
40
0.781249999999998
40
0.781249999999998
40
0.812499999999998
40
0.812499999999998
40
0.874999999999999
40
0.9375
40
0.9375
40
0.96875
40
0.96875
40
1
40
1
40
1
40
1
41
1
10
18.475
20
45.4177057068927
30
0
41
1
10
18.5131930808128
20
45.4282401035344
30
0
41
1
10
18.5554606478646
20
45.4381136869634
30
0
41
1
10
18.6478179474983
20
45.4566607629005
30
0
41
1
10
18.6979086926173
20
45.4653338936089
30
0
41
1
10
18.7789823714228
20
45.4774884886754
30
0
41
1
10
18.8069996678942
20
45.4813970665735
30
0
41
1
10
18.8505536464379
20
45.4870471981333
30
0
41
1
10
18.8653029438398
20
45.4888917756283
30
0
41
1
10
18.8950955856762
20
45.4924846390733
30
0
41
1
10
18.9101625115515
20
45.4942360168509
30
0
41
1
10
18.9863395554145
20
45.5027733570547
30
0
41
1
10
19.1135926887495
20
45.5150344539884
30
0
41
1
10
19.2514036903976
20
45.5246838080132
30
0
41
1
10
19.3409544661046
20
45.5299076460752
30
0
41
1
10
19.3590520089523
20
45.5309125077375
30
0
41
1
10
19.3953229586329
20
45.5328269057902
30
0
41
1
10
19.4499381667588
20
45.535561256528
30
0
41
1
10
19.5051707053838
20
45.5378933746879
30
0
41
1
10
19.6164454423366
20
45.5420380112817
30
0
41
1
10
19.6917046822207
20
45.5441110444607
30
0
41
1
10
19.8062181220335
20
45.5462007902097
30
0
41
1
10
19.8446608919079
20
45.546726719729
30
0
41
1
10
19.9027419621887
20
45.5472551242484
30
0
41
1
10
19.9222082263656
20
45.547387892317
30
0
41
1
10
19.9610432866323
20
45.5475643683662
30
0
41
1
10
19.9804206757315
20
45.5476083511067
30
0
41
1
10
20.0771097084011
20
45.5476101677026
30
0
41
1
10
20.2305506817672
20
45.5462244066362
30
0
41
1
10
20.3815254793057
20
45.5421044575915
30
0
41
1
10
20.4938039217151
20
45.5379360085788
30
0
41
1
10
20.531126742299
20
45.5363618734393
30
0
41
1
10
20.6043513378543
20
45.5328919449171
30
0
41
1
10
20.6403890093397
20
45.530991817569
30
0
41
1
10
20.7468111863411
20
45.5247960222789
30
0
41
1
10
20.8155120434473
20
45.5200074806351
30
0
41
1
10
20.9151902047722
20
45.5117918402699
30
0
41
1
10
20.9478522755725
20
45.5088805298285
30
0
41
1
10
21.0120256139634
20
45.5026966909818
30
0
41
1
10
21.0436243918519
20
45.4994130173258
30
0
41
1
10
21.1353630867129
20
45.4891382328376
30
0
41
1
10
21.2502848660042
20
45.4742528671883
30
0
41
1
10
21.3508223253872
20
45.4569143091999
30
0
41
1
10
21.4206978904473
20
45.4429109582395
30
0
41
1
10
21.4431137195572
20
45.4380639570225
30
0
41
1
10
21.4857057869268
20
45.4280961070812
30
0
41
1
10
21.5059034870284
20
45.4229728976465
30
0
41
1
10
21.525
20
45.4177057068927
30
0
0
SPLINE
5
175
100
AcDbEntity
8
1
62
256
6
ByLayer
370
18
48
1
60
0
100
AcDbSpline
70
4
71
3
72
52
73
48
40
0
40
0
40
0
40
0
40
0.0625000000000098
40
0.0625000000000098
40
0.12500000000002
40
0.12500000000002
40
0.156250000000024
40
0.156250000000024
40
0.171875000000026
40
0.171875000000026
40
0.187500000000028
40
0.187500000000028
40
0.25000000000004
40
0.312500000000053
40
0.312500000000053
40
0.328125000000055
40
0.328125000000055
40
0.343750000000057
40
0.37500000000006
40
0.37500000000006
40
0.437500000000067
40
0.437500000000067
40
0.468750000000069
40
0.468750000000069
40
0.484375000000069
40
0.484375000000069
40
0.500000000000068
40
0.500000000000068
40
0.562500000000058
40
0.625000000000049
40
0.625000000000049
40
0.656250000000045
40
0.656250000000045
40
0.687500000000042
40
0.687500000000042
40
0.750000000000032
40
0.750000000000032
40
0.781250000000028
40
0.781250000000028
40
0.812500000000024
40
0.812500000000024
40
0.875000000000016
40
0.937500000000007
40
0.937500000000007
40
0.968750000000004
40
0.968750000000004
40
1
40
1
40
1
40
1
41
1
10
21.525
20
45.1195815714781
30
0
41
1
10
21.4868069191872
20
45.1065514886976
30
0
41
1
10
21.4445393521354
20
45.0940088833776
30
0
41
1
10
21.3521820525017
20
45.0699274918839
30
0
41
1
10
21.3020913073827
20
45.058388630909
30
0
41
1
10
21.2210176285772
20
45.0418976939086
30
0
41
1
10
21.1930003321058
20
45.0365373889623
30
0
41
1
10
21.1494463535622
20
45.0287145425449
30
0
41
1
10
21.1346970561602
20
45.0261477798033
30
0
41
1
10
21.1049044143238
20
45.0211250502974
30
0
41
1
10
21.0898374884485
20
45.018664808282
30
0
41
1
10
21.0136604445855
20
45.0066189187686
30
0
41
1
10
20.8864073112505
20
44.9889738319142
30
0
41
1
10
20.7485963096025
20
44.9746669075076
30
0
41
1
10
20.6590455338954
20
44.9668443642354
30
0
41
1
10
20.6409479910478
20
44.9653350596848
30
0
41
1
10
20.6046770413671
20
44.962452270241
30
0
41
1
10
20.5500618332412
20
44.9583231937532
30
0
41
1
10
20.4948292946162
20
44.9547745416958
30
0
41
1
10
20.3835545576634
20
44.9484463392982
30
0
41
1
10
20.3082953177793
20
44.9452502276732
30
0
41
1
10
20.1937818779665
20
44.9420217394222
30
0
41
1
10
20.1553391080921
20
44.9412072085839
30
0
41
1
10
20.0972580378113
20
44.9403884186257
30
0
41
1
10
20.0777917736344
20
44.9401825584009
30
0
41
1
10
20.0389567133677
20
44.9399088928258
30
0
41
1
10
20.0195793242685
20
44.9398406619296
30
0
41
1
10
19.922890291599
20
44.9398378441799
30
0
41
1
10
19.7694493182328
20
44.941991309267
30
0
41
1
10
19.6184745206943
20
44.9483444791322
30
0
41
1
10
19.5061960782849
20
44.9547096445997
30
0
41
1
10
19.468873257701
20
44.9571050212856
30
0
41
1
10
19.3956486621457
20
44.9623571116746
30
0
41
1
10
19.3596109906603
20
44.965220479296
30
0
41
1
10
19.2531888136589
20
44.9744995933726
30
0
41
1
10
19.1844879565527
20
44.98160184958
30
0
41
1
10
19.0848097952278
20
44.9935857902299
30
0
41
1
10
19.0521477244275
20
44.9978028298077
30
0
41
1
10
18.9879743860366
20
45.0066821072471
30
0
41
1
10
18.9563756081481
20
45.0113598577862
30
0
41
1
10
18.8646369132871
20
45.02585836291
30
0
41
1
10
18.7497151339959
20
45.0465128233415
30
0
41
1
10
18.6491776746128
20
45.069594390286
30
0
41
1
10
18.5793021095527
20
45.0877820305388
30
0
41
1
10
18.5568862804428
20
45.0940063501909
30
0
41
1
10
18.5142942130732
20
45.1066468703864
30
0
41
1
10
18.4940965129716
20
45.1130665394476
30
0
41
1
10
18.475
20
45.1195815714781
30
0
0
SPLINE
5
176
100
AcDbEntity
8
1
62
256
6
ByLayer
370
18
48
1
60
0
100
AcDbSpline
70
4
71
3
72
30
73
26
40
0
40
0
40
0
40
0
40
0.124999999999999
40
0.124999999999999
40
0.187500000000006
40
0.187500000000006
40
0.250000000000013
40
0.31250000000002
40
0.31250000000002
40
0.375000000000027
40
0.375000000000027
40
0.500000000000055
40
0.500000000000055
40
0.562500000000051
40
0.562500000000051
40
0.625000000000048
40
0.625000000000048
40
0.750000000000032
40
0.750000000000032
40
0.812500000000024
40
0.812500000000024
40
0.875000000000016
40
0.937500000000008
40
0.937500000000008
40
1
40
1
40
1
40
1
41
1
10
21.5249999999981
20
-11.021
30
0
41
1
10
21.5514658257386
20
-11.021
30
0
41
1
10
21.5778123376984
20
-11.021
30
0
41
1
10
21.617147298598
20
-11.021
30
0
41
1
10
21.6300776915159
20
-11.021
30
0
41
1
10
21.6553616377659
20
-11.021
30
0
41
1
10
21.680143340414
20
-11.021
30
0
41
1
10
21.7039336034373
20
-11.021
30
0
41
1
10
21.7272199704532
20
-11.021
30
0
41
1
10
21.7386238958464
20
-11.021
30
0
41
1
10
21.7713302338265
20
-11.021
30
0
41
1
10
21.7914054108743
20
-11.021
30
0
41
1
10
21.8189753761471
20
-11.021
30
0
41
1
10
21.8277813540115
20
-11.021
30
0
41
1
10
21.844270095332
20
-11.021
30
0
41
1
10
21.851948079214
20
-11.021
30
0
41
1
10
21.8733390297163
20
-11.021
30
0
41
1
10
21.8854242332151
20
-11.021
30
0
41
1
10
21.9002268661625
20
-11.021
30
0
41
1
10
21.9045542912652
20
-11.021
30
0
41
1
10
21.9119490720265
20
-11.021
30
0
41
1
10
21.9181144875677
20
-11.021
30
0
41
1
10
21.9218542195072
20
-11.021
30
0
41
1
10
21.9243633939712
20
-11.021
30
0
41
1
10
21.9250110011
20
-11.021
30
0
41
1
10
21.924995249525
20
-11.021
30
0
0
SPLINE
5
177
100
AcDbEntity
8
1
62
256
6
ByLayer
370
18
48
1
60
0
100
AcDbSpline
70
4
71
3
72
30
73
26
40
0
40
0
40
0
40
0
40
0.124999999999963
40
0.124999999999963
40
0.187499999999956
40
0.187499999999956
40
0.249999999999949
40
0.312499999999942
40
0.312499999999942
40
0.374999999999935
40
0.374999999999935
40
0.499999999999934
40
0.499999999999934
40
0.562499999999951
40
0.562499999999951
40
0.624999999999968
40
0.624999999999968
40
0.749999999999975
40
0.749999999999975
40
0.812499999999981
40
0.812499999999981
40
0.874999999999987
40
0.937499999999994
40
0.937499999999994
40
1
40
1
40
1
40
1
41
1
10
18.475
20
11.021
30
0
41
1
10
18.4485341742595
20
11.021
30
0
41
1
10
18.4221876622999
20
11.021
30
0
41
1
10
18.3828527014004
20
11.021
30
0
41
1
10
18.3699223084826
20
11.021
30
0
41
1
10
18.3446383622326
20
11.021
30
0
41
1
10
18.3198566595847
20
11.021
30
0
41
1
10
18.2960663965615
20
11.021
30
0
41
1
10
18.2727800295457
20
11.021
30
0
41
1
10
18.2613761041526
20
11.021
30
0
41
1
10
18.2286697661727
20
11.021
30
0
41
1
10
18.208594589125
20
11.021
30
0
41
1
10
18.1810246238523
20
11.021
30
0
41
1
10
18.1722186459879
20
11.021
30
0
41
1
10
18.1557299046675
20
11.021
30
0
41
1
10
18.1480519207856
20
11.021
30
0
41
1
10
18.1266609702834
20
11.021
30
0
41
1
10
18.1145757667847
20
11.021
30
0
41
1
10
18.0997731338374
20
11.021
30
0
41
1
10
18.0954457087347
20
11.021
30
0
41
1
10
18.0880509279735
20
11.021
30
0
41
1
10
18.0818855124323
20
11.021
30
0
41
1
10
18.0781457804928
20
11.021
30
0
41
1
10
18.0756366060288
20
11.021
30
0
41
1
10
18.0749889989
20
11.021
30
0
41
1
10
18.075004750475
20
11.021
30
0
0
SPLINE
5
178
100
AcDbEntity
8
1
62
256
6
ByLayer
370
18
48
1
60
0
100
AcDbSpline
70
4
71
3
72
32
73
28
40
0
40
0
40
0
40
0
40
0.125000000000006
40
0.125000000000006
40
0.250000000000011
40
0.250000000000011
40
0.281250000000012
40
0.281250000000012
40
0.312500000000013
40
0.312500000000013
40
0.375000000000012
40
0.375000000000012
40
0.500000000000012
40
0.500000000000012
40
0.562500000000012
40
0.562500000000012
40
0.593750000000012
40
0.593750000000012
40
0.625000000000012
40
0.625000000000012
40
0.750000000000007
40
0.750000000000007
40
0.875000000000002
40
0.875000000000002
40
0.937500000000001
40
0.937500000000001
40
1
40
1
40
1
40
1
41
1
10
18.475
20
45.1195815714781
30
0
41
1
10
18.4377864466611
20
45.1322774752973
30
0
41
1
10
18.4054492427887
20
45.1500575939043
30
0
41
1
10
18.3497108149511
20
45.189719781936
30
0
41
1
10
18.3263174295068
20
45.2116806655758
30
0
41
1
10
18.3026347247877
20
45.2389668848321
30
0
41
1
10
18.2981777768653
20
45.2444170977807
30
0
41
1
10
18.2898288157941
20
45.2552364221601
30
0
41
1
10
18.2859353635673
20
45.2606089114671
30
0
41
1
10
18.2751840579966
20
45.2763970731348
30
0
41
1
10
18.2692244159246
20
45.2865162769308
30
0
41
1
10
18.2549017237893
20
45.3150139016755
30
0
41
1
10
18.250079691989
20
45.3314415856493
30
0
41
1
10
18.2499616171529
20
45.350944389701
30
0
41
1
10
18.251111974268
20
45.3566103770954
30
0
41
1
10
18.2546595041354
20
45.3639119298484
30
0
41
1
10
18.2561459141042
20
45.3661478085099
30
0
41
1
10
18.2597356429362
20
45.3702512724834
30
0
41
1
10
18.261839368491
20
45.3721167479223
30
0
41
1
10
18.2738091220134
20
45.3805615004972
30
0
41
1
10
18.2880551680473
20
45.3845321627458
30
0
41
1
10
18.3256409102619
20
45.3909978487505
30
0
41
1
10
18.3489787734403
20
45.3934875945267
30
0
41
1
10
18.3911622507963
20
45.3996902864256
30
0
41
1
10
18.4063797715671
20
45.4021708108456
30
0
41
1
10
18.4390017274133
20
45.4086176655123
30
0
41
1
10
18.4564279174875
20
45.4125831642876
30
0
41
1
10
18.4749999999984
20
45.4177057068912
30
0
0
SPLINE
5
179
100
AcDbEntity
8
1
62
256
6
ByLayer
370
18
48
1
60
0
100
AcDbSpline
70
4
71
3
72
31
73
27
40
0
40
0
40
0
40
0
40
0.0598617451088085
40
0.0598617451088085
40
0.122537628768221
40
0.122537628768221
40
0.247889396087082
40
0.247889396087082
40
0.310565279746498
40
0.310565279746498
40
0.373241163405913
40
0.373241163405913
40
0.498592930724743
40
0.498592930724743
40
0.561268814384152
40
0.561268814384152
40
0.623944698043561
40
0.68662058170297
40
0.68662058170297
40
0.74929646536238
40
0.74929646536238
40
0.874648232681198
40
0.874648232681198
40
0.937324116340599
40
0.937324116340599
40
1
40
1
40
1
40
1
41
1
10
18.0749999999987
20
-11.0210000000001
30
0
41
1
10
18.0750613850758
20
-11.021
30
0
41
1
10
18.0756748279663
20
-11.021
30
0
41
1
10
18.0781273604823
20
-11.021
30
0
41
1
10
18.0800214434276
20
-11.021
30
0
41
1
10
18.0874930358664
20
-11.021
30
0
41
1
10
18.0948638931352
20
-11.021
30
0
41
1
10
18.1095281633044
20
-11.021
30
0
41
1
10
18.1150473219139
20
-11.021
30
0
41
1
10
18.1272345767072
20
-11.021
30
0
41
1
10
18.133854303181
20
-11.021
30
0
41
1
10
18.1552543785187
20
-11.021
30
0
41
1
10
18.17156072295
20
-11.021
30
0
41
1
10
18.1991984075213
20
-11.021
30
0
41
1
10
18.2089726767831
20
-11.021
30
0
41
1
10
18.229164307973
20
-11.021
30
0
41
1
10
18.2500967411405
20
-11.021
30
0
41
1
10
18.2724948657073
20
-11.021
30
0
41
1
10
18.29563937979
20
-11.021
30
0
41
1
10
18.3076255402956
20
-11.021
30
0
41
1
10
18.3444895086936
20
-11.021
30
0
41
1
10
18.3697382808188
20
-11.021
30
0
41
1
10
18.4085946056628
20
-11.021
30
0
41
1
10
18.4217117815291
20
-11.021
30
0
41
1
10
18.4482868577836
20
-11.021
30
0
41
1
10
18.4617141931376
20
-11.021
30
0
41
1
10
18.475
20
-11.021
30
0
0
SPLINE
5
17A
100
AcDbEntity
8
1
62
256
6
ByLayer
370
18
48
1
60
0
100
AcDbSpline
70
4
71
3
72
31
73
27
40
0
40
0
40
0
40
0
40
0.0598617457990736
40
0.0598617457990736
40
0.122537629412482
40
0.122537629412482
40
0.247889396639295
40
0.247889396639295
40
0.310565280252687
40
0.310565280252687
40
0.373241163866079
40
0.373241163866079
40
0.498592931092889
40
0.498592931092889
40
0.561268814706277
40
0.561268814706277
40
0.623944698319665
40
0.686620581933053
40
0.686620581933053
40
0.749296465546441
40
0.749296465546441
40
0.874648232773232
40
0.874648232773232
40
0.937324116386616
40
0.937324116386616
40
1
40
1
40
1
40
1
41
1
10
21.9250000000036
20
11.021
30
0
41
1
10
21.9249386149393
20
11.021
30
0
41
1
10
21.9243251720485
20
11.021
30
0
41
1
10
21.9218726395178
20
11.021
30
0
41
1
10
21.9199785565725
20
11.021
30
0
41
1
10
21.9125069641339
20
11.021
30
0
41
1
10
21.905136106865
20
11.021
30
0
41
1
10
21.890471836696
20
11.021
30
0
41
1
10
21.8849526780865
20
11.021
30
0
41
1
10
21.8727654232931
20
11.021
30
0
41
1
10
21.8661456968194
20
11.021
30
0
41
1
10
21.8447456214817
20
11.021
30
0
41
1
10
21.8284392770504
20
11.021
30
0
41
1
10
21.8008015924791
20
11.021
30
0
41
1
10
21.7910273232173
20
11.021
30
0
41
1
10
21.7708356920273
20
11.021
30
0
41
1
10
21.7499032588599
20
11.021
30
0
41
1
10
21.727505134293
20
11.021
30
0
41
1
10
21.7043606202103
20
11.021
30
0
41
1
10
21.6923744597047
20
11.021
30
0
41
1
10
21.6555104913066
20
11.021
30
0
41
1
10
21.6302617191814
20
11.021
30
0
41
1
10
21.5914053943374
20
11.021
30
0
41
1
10
21.578288218471
20
11.021
30
0
41
1
10
21.5517131422165
20
11.021
30
0
41
1
10
21.5382858068624
20
11.021
30
0
41
1
10
21.525
20
11.021
30
0
0
SPLINE
5
17B
100
AcDbEntity
8
1
62
256
6
ByLayer
370
18
48
1
60
0
100
AcDbSpline
70
4
71
3
72
32
73
28
40
0
40
0
40
0
40
0
40
0.124999999999996
40
0.124999999999996
40
0.249999999999993
40
0.249999999999993
40
0.281249999999991
40
0.281249999999991
40
0.31249999999999
40
0.31249999999999
40
0.374999999999987
40
0.374999999999987
40
0.499999999999982
40
0.499999999999982
40
0.562499999999982
40
0.562499999999982
40
0.593749999999982
40
0.593749999999982
40
0.624999999999982
40
0.624999999999982
40
0.749999999999988
40
0.749999999999988
40
0.874999999999994
40
0.874999999999994
40
0.937499999999997
40
0.937499999999997
40
1
40
1
40
1
40
1
41
1
10
21.525
20
45.4177057068927
30
0
41
1
10
21.5622135533389
20
45.407441483034
30
0
41
1
10
21.5945507572113
20
45.4018022521571
30
0
41
1
10
21.6502891850489
20
45.3935842298266
30
0
41
1
10
21.6736825704932
20
45.3910862233466
30
0
41
1
10
21.6973652752123
20
45.3870467324895
30
0
41
1
10
21.7018222231347
20
45.386194024833
30
0
41
1
10
21.7101711842059
20
45.3843286087977
30
0
41
1
10
21.7140646364327
20
45.3833146819362
30
0
41
1
10
21.7248159420034
20
45.3799545391366
30
0
41
1
10
21.7307755840754
20
45.3772808340348
30
0
41
1
10
21.7450982762107
20
45.3673113440866
30
0
41
1
10
21.749920308011
20
45.3579756530298
30
0
41
1
10
21.7500383828471
20
45.3386399072617
30
0
41
1
10
21.7488880257321
20
45.3313276433922
30
0
41
1
10
21.7453404958646
20
45.3191136630103
30
0
41
1
10
21.7438540858958
20
45.3148363523192
30
0
41
1
10
21.7402643570638
20
45.3058975686557
30
0
41
1
10
21.738160631509
20
45.3012381872404
30
0
41
1
10
21.7261908779866
20
45.2772881975344
30
0
41
1
10
21.7119448319527
20
45.255858682452
30
0
41
1
10
21.6743590897382
20
45.2123688518471
30
0
41
1
10
21.6510212265597
20
45.1903033128275
30
0
41
1
10
21.6088377492037
20
45.1601933693725
30
0
41
1
10
21.5936202284329
20
45.1507002947949
30
0
41
1
10
21.5609982725867
20
45.1335724616283
30
0
41
1
10
21.5435720825125
20
45.1259176870076
30
0
41
1
10
21.5250000000016
20
45.1195815714763
30
0
0
SPLINE
5
17C
100
AcDbEntity
8
1
62
256
6
ByLayer
370
18
48
1
60
0
100
AcDbSpline
70
4
71
3
72
8
73
4
40
0
40
0
40
0
40
0
40
1
40
1
40
1
40
1
41
1
10
16.7581782385003
20
-11.021
30
0
41
1
10
17.1975280498136
20
-11.021
30
0
41
1
10
17.636488468587
20
-11.021
30
0
41
1
10
18.075
20
-11.021
30
0
0
SPLINE
5
17D
100
AcDbEntity
8
1
62
256
6
ByLayer
370
18
48
1
60
0
100
AcDbSpline
70
4
71
3
72
8
73
4
40
0
40
0
40
0
40
0
40
1
40
1
40
1
40
1
41
1
10
28.95
20
11.021
30
0
41
1
10
28.7167108769179
20
11.021
30
0
41
1
10
28.4833769086861
20
11.021
30
0
41
1
10
28.25
20
11.021
30
0
0
SPLINE
5
17E
100
AcDbEntity
8
1
62
256
6
ByLayer
370
18
48
1
60
0
100
AcDbSpline
70
4
71
3
72
8
73
4
40
0
40
0
40
0
40
0
40
1
40
1
40
1
40
1
41
1
10
23.2418217614998
20
11.021
30
0
41
1
10
22.8024719501864
20
11.021
30
0
41
1
10
22.363511531413
20
11.021
30
0
41
1
10
21.925
20
11.021
30
0
0
SPLINE
5
17F
100
AcDbEntity
8
1
62
256
6
ByLayer
370
18
48
1
60
0
100
AcDbSpline
70
4
71
3
72
8
73
4
40
0
40
0
40
0
40
0
40
1
40
1
40
1
40
1
41
1
10
18.075
20
11.021
30
0
41
1
10
17.636488468587
20
11.021
30
0
41
1
10
17.1975280498136
20
11.021
30
0
41
1
10
16.7581782385003
20
11.021
30
0
0
SPLINE
5
180
100
AcDbEntity
8
1
62
256
6
ByLayer
370
18
48
1
60
0
100
AcDbSpline
70
4
71
3
72
8
73
4
40
0
40
0
40
0
40
0
40
1
40
1
40
1
40
1
41
1
10
28.25
20
-11.021
30
0
41
1
10
28.4833769086861
20
-11.021
30
0
41
1
10
28.7167108769179
20
-11.021
30
0
41
1
10
28.95
20
-11.021
30
0
0
SPLINE
5
181
100
AcDbEntity
8
1
62
256
6
ByLayer
370
18
48
1
60
0
100
AcDbSpline
70
4
71
3
72
8
73
4
40
0
40
0
40
0
40
0
40
1
40
1
40
1
40
1
41
1
10
21.925
20
-11.021
30
0
41
1
10
22.363511531413
20
-11.021
30
0
41
1
10
22.8024719501864
20
-11.021
30
0
41
1
10
23.2418217614998
20
-11.021
30
0
0
SPLINE
5
182
100
AcDbEntity
8
1
62
256
6
ByLayer
370
18
48
1
60
0
100
AcDbSpline
70
4
71
3
72
55
73
51
40
0
40
0
40
0
40
0
40
0.0624999999999992
40
0.0624999999999992
40
0.124999999999998
40
0.124999999999998
40
0.187499999999998
40
0.187499999999998
40
0.203124999999997
40
0.203124999999997
40
0.218749999999997
40
0.218749999999997
40
0.249999999999997
40
0.249999999999997
40
0.312499999999995
40
0.312499999999995
40
0.374999999999994
40
0.374999999999994
40
0.406249999999994
40
0.406249999999994
40
0.421874999999993
40
0.421874999999993
40
0.437499999999993
40
0.437499999999993
40
0.499999999999992
40
0.499999999999992
40
0.562499999999991
40
0.562499999999991
40
0.62499999999999
40
0.62499999999999
40
0.632812499999991
40
0.632812499999991
40
0.640624999999991
40
0.640624999999991
40
0.656249999999991
40
0.687499999999992
40
0.687499999999992
40
0.749999999999993
40
0.749999999999993
40
0.812499999999995
40
0.812499999999995
40
0.843749999999996
40
0.843749999999996
40
0.859374999999996
40
0.859374999999996
40
0.874999999999997
40
0.874999999999997
40
0.937499999999998
40
0.937499999999998
40
1
40
1
40
1
40
1
41
1
10
14.95
20
11.021
30
0
41
1
10
14.6186180770483
20
11.021
30
0
41
1
10
14.2901293667462
20
11.0045711927872
30
0
41
1
10
13.638723291142
20
10.9400562256138
30
0
41
1
10
13.3158065177085
20
10.8919666612244
30
0
41
1
10
12.6754919299054
20
10.7643661638903
30
0
41
1
10
12.358093938917
20
10.6848563818256
30
0
41
1
10
11.9648592282067
20
10.5654062490788
30
0
41
1
10
11.8863883176173
20
10.5405107376267
30
0
41
1
10
11.7298017686215
20
10.4886884493971
30
0
41
1
10
11.6515991381982
20
10.4617283040525
30
0
41
1
10
11.4187515333456
20
10.3782154453684
30
0
41
1
10
11.2655498884332
20
10.3189373489954
30
0
41
1
10
10.811895150555
20
10.1305188971136
30
0
41
1
10
10.517377974707
20
9.99082036436087
30
0
41
1
10
9.94380215106821
20
9.68378237550539
30
0
41
1
10
9.66474394687694
20
9.51644235821485
30
0
41
1
10
9.25780740131535
20
9.24447624315204
30
0
41
1
10
9.1241071697944
20
9.15032179382399
30
0
41
1
10
8.92651453327986
20
9.00375315015796
30
0
41
1
10
8.86114350809254
20
8.95400700659482
30
0
41
1
10
8.73139739917735
20
8.85271470616544
30
0
41
1
10
8.66727138387006
20
8.80136264181385
30
0
41
1
10
8.3504638548728
20
8.54121741057332
30
0
41
1
10
8.10907647024368
20
8.32218372161557
30
0
41
1
10
7.64966054039306
20
7.86282448264086
30
0
41
1
10
7.43163375382827
20
7.62249758266881
30
0
41
1
10
7.01889930623037
20
7.12044613312091
30
0
41
1
10
6.8241899298157
20
6.85872339583085
30
0
41
1
10
6.61863457130426
20
6.55182584493645
30
0
41
1
10
6.59598297197468
20
6.51755262139244
30
0
41
1
10
6.55105770947227
20
6.44865691847392
30
0
41
1
10
6.52877521323913
20
6.41401992754103
30
0
41
1
10
6.46267533310353
20
6.30986409266976
30
0
41
1
10
6.33330054912724
20
6.10032299193614
30
0
41
1
10
6.21230230261042
20
5.88713055580908
30
0
41
1
10
5.98129593649492
20
5.4559405824487
30
0
41
1
10
5.84191861237483
20
5.16208506636173
30
0
41
1
10
5.59213609509965
20
4.56163768660548
30
0
41
1
10
5.48173027698672
20
4.25504620266597
30
0
41
1
10
5.33828630346613
20
3.78537269792633
30
0
41
1
10
5.29417252865377
20
3.62718093132489
30
0
41
1
10
5.23367267386433
20
3.38738523748583
30
0
41
1
10
5.21443098384967
20
3.30693861804855
30
0
41
1
10
5.17800678971312
20
3.14584543715986
30
0
41
1
10
5.16081455682291
20
3.06517189242359
30
0
41
1
10
5.07992001326323
20
2.66117283308185
30
0
41
1
10
5.03138034853976
20
2.33595764841223
30
0
41
1
10
4.96642087804358
20
1.68151292423911
30
0
41
1
10
4.94999999999999
20
1.35228352660408
30
0
41
1
10
4.94999999999999
20
1.02100000000002
30
0
0
SPLINE
5
183
100
AcDbEntity
8
1
62
256
6
ByLayer
370
18
48
1
60
0
100
AcDbSpline
70
4
71
3
72
55
73
51
40
0
40
0
40
0
40
0
40
0.0625000000000003
40
0.0625000000000003
40
0.125000000000001
40
0.125000000000001
40
0.187500000000001
40
0.187500000000001
40
0.203125000000001
40
0.203125000000001
40
0.218750000000001
40
0.218750000000001
40
0.250000000000002
40
0.250000000000002
40
0.312500000000002
40
0.312500000000002
40
0.375000000000003
40
0.375000000000003
40
0.406250000000003
40
0.406250000000003
40
0.421875000000003
40
0.421875000000003
40
0.429687500000003
40
0.429687500000003
40
0.437500000000003
40
0.500000000000004
40
0.500000000000004
40
0.562500000000003
40
0.562500000000003
40
0.625000000000003
40
0.625000000000003
40
0.640625000000003
40
0.640625000000003
40
0.656250000000003
40
0.687500000000003
40
0.687500000000003
40
0.750000000000003
40
0.750000000000003
40
0.812500000000003
40
0.812500000000003
40
0.843750000000003
40
0.843750000000003
40
0.851562500000003
40
0.851562500000003
40
0.859375000000003
40
0.875000000000003
40
0.875000000000003
40
0.937500000000001
40
0.937500000000001
40
1
40
1
40
1
40
1
41
1
10
4.94999999999999
20
-1.02099999999999
30
0
41
1
10
4.94999999999999
20
-1.3523079915542
30
0
41
1
10
4.96642134783585
20
-1.68067409887229
30
0
41
1
10
5.03087929999901
20
-2.33174679457287
30
0
41
1
10
5.07891940867376
20
-2.65445276224668
30
0
41
1
10
5.20635268944537
20
-3.29426572456245
30
0
41
1
10
5.28574480986381
20
-3.61137286765143
30
0
41
1
10
5.40498744242313
20
-4.00419904197594
30
0
41
1
10
5.42983842315942
20
-4.08258599739003
30
0
41
1
10
5.48156509690597
20
-4.23900027259739
30
0
41
1
10
5.50847964164046
20
-4.31713183409292
30
0
41
1
10
5.5918899973689
20
-4.54987293038582
30
0
41
1
10
5.65109467221163
20
-4.70300204372802
30
0
41
1
10
5.83927605334895
20
-5.15643547267669
30
0
41
1
10
5.97879417795303
20
-5.4508001141709
30
0
41
1
10
6.28541740613582
20
-6.02406620255456
30
0
41
1
10
6.4525230892929
20
-6.30296717537195
30
0
41
1
10
6.7240890609533
20
-6.70966961558665
30
0
41
1
10
6.8181020070767
20
-6.84329211848563
30
0
41
1
10
6.96444502625468
20
-7.04076946247642
30
0
41
1
10
7.01411373212787
20
-7.1061022749893
30
0
41
1
10
7.08996329600507
20
-7.20335498416847
30
0
41
1
10
7.11547387776457
20
-7.2356511153352
30
0
41
1
10
7.16680433031482
20
-7.29981781967913
30
0
41
1
10
7.39934135356521
20
-7.58684936765701
30
0
41
1
10
7.64568626465802
20
-7.8585833343617
30
0
41
1
10
8.1048948408974
20
-8.31826526580147
30
0
41
1
10
8.34513155185402
20
-8.53640409494648
30
0
41
1
10
8.84696022030755
20
-8.9493347163918
30
0
41
1
10
9.1085504088683
20
-9.14412818546518
30
0
41
1
10
9.44934766744328
20
-9.37262008050175
30
0
41
1
10
9.51822592407589
20
-9.41758351937679
30
0
41
1
10
9.65727468452178
20
-9.50591857030147
30
0
41
1
10
9.86707016214334
20
-9.63558019202677
30
0
41
1
10
10.0804943122016
20
-9.75682082478644
30
0
41
1
10
10.5121139651924
20
-9.98826112294904
30
0
41
1
10
10.8062109677211
20
-10.127860076892
30
0
41
1
10
11.4070327340522
20
-10.3779904860776
30
0
41
1
10
11.7137572119495
20
-10.488522402293
30
0
41
1
10
12.1835333498157
20
-10.6321120183203
30
0
41
1
10
12.3417431598832
20
-10.6762670868699
30
0
41
1
10
12.5415733527485
20
-10.7267292475236
30
0
41
1
10
12.5816428517718
20
-10.7365849456891
30
0
41
1
10
12.6619901753909
20
-10.7558198473806
30
0
41
1
10
12.7828972503331
20
-10.7839728615934
30
0
41
1
10
12.9040786948306
20
-10.8098209298593
30
0
41
1
10
13.3086235808411
20
-10.8908951560489
30
0
41
1
10
13.6341967826629
20
-10.9395167419546
30
0
41
1
10
14.2891915210968
20
-11.0045687317411
30
0
41
1
10
14.6186129503849
20
-11.021
30
0
41
1
10
14.95
20
-11.021
30
0
0
SPLINE
5
184
100
AcDbEntity
8
1
62
256
6
ByLayer
370
18
48
1
60
0
100
AcDbSpline
70
4
71
3
72
94
73
90
40
0
40
0
40
0
40
0
40
0.0311183948237112
40
0.0311183948237112
40
0.0623726401519787
40
0.0623726401519787
40
0.0701862014840454
40
0.0701862014840454
40
0.0779997628161123
40
0.0779997628161123
40
0.093626885480246
40
0.093626885480246
40
0.124881130808513
40
0.156135376136781
40
0.156135376136781
40
0.171762498800914
40
0.171762498800914
40
0.179576060132981
40
0.179576060132981
40
0.187389621465048
40
0.187389621465048
40
0.218643866793315
40
0.249898112121583
40
0.249898112121583
40
0.28115235744985
40
0.28115235744985
40
0.288965918781917
40
0.288965918781917
40
0.296779480113983
40
0.312406602778117
40
0.312406602778117
40
0.343660848106384
40
0.374915093434651
40
0.374915093434651
40
0.390542216098784
40
0.390542216098784
40
0.39835577743085
40
0.39835577743085
40
0.406169338762917
40
0.406169338762917
40
0.437423584091184
40
0.468677829419451
40
0.468677829419451
40
0.499932074747718
40
0.499932074747718
40
0.507745636079784
40
0.507745636079784
40
0.515559197411851
40
0.531186320075984
40
0.531186320075984
40
0.562440565404251
40
0.593694810732517
40
0.593694810732517
40
0.601508372064584
40
0.601508372064584
40
0.609321933396651
40
0.609321933396651
40
0.624949056060784
40
0.624949056060784
40
0.656203301389052
40
0.68745754671732
40
0.68745754671732
40
0.703084669381454
40
0.703084669381454
40
0.710898230713521
40
0.710898230713521
40
0.718711792045587
40
0.718711792045587
40
0.749966037373855
40
0.749966037373855
40
0.781220282702123
40
0.812474528030391
40
0.812474528030391
40
0.820288089362458
40
0.820288089362458
40
0.828101650694525
40
0.828101650694525
40
0.843728773358659
40
0.843728773358659
40
0.874983018686927
40
0.906237264015195
40
0.906237264015195
40
0.921864386679329
40
0.921864386679329
40
0.937491509343463
40
0.937491509343463
40
0.968745754671732
40
0.968745754671732
40
1
40
1
40
1
40
1
41
1
10
1.97750000736565
20
-49.964999999153
30
0
41
1
10
1.97750930762422
20
-49.9649990480726
30
0
41
1
10
1.9854560979677
20
-49.9641983848837
30
0
41
1
10
2.01724722732342
20
-49.9610177309566
30
0
41
1
10
2.04115992233255
20
-49.9586308152791
30
0
41
1
10
2.08129162068926
20
-49.9546729253147
30
0
41
1
10
2.08983119845442
20
-49.9538326371641
30
0
41
1
10
2.10794835031368
20
-49.9520550811008
30
0
41
1
10
2.11751930921079
20
-49.9511184727661
30
0
41
1
10
2.14762771793312
20
-49.9481815129571
30
0
41
1
10
2.16960599648607
20
-49.9460495083297
30
0
41
1
10
2.24115197110834
20
-49.9391639832848
30
0
41
1
10
2.35148290558954
20
-49.9286784285348
30
0
41
1
10
2.49122428669722
20
-49.9159177578778
30
0
41
1
10
2.60720742921933
20
-49.9056195475719
30
0
41
1
10
2.64773464843901
20
-49.9020655468381
30
0
41
1
10
2.71137475352148
20
-49.8965688059296
30
0
41
1
10
2.73307730245006
20
-49.8947077439422
30
0
41
1
10
2.77738331378703
20
-49.8909382876813
30
0
41
1
10
2.79992333522819
20
-49.8890352780807
30
0
41
1
10
2.91453715737509
20
-49.8794380930142
30
0
41
1
10
3.11013072197537
20
-49.8635617090825
30
0
41
1
10
3.32950267196341
20
-49.8471159052254
30
0
41
1
10
3.56078910500128
20
-49.8306189507428
30
0
41
1
10
3.68238860919033
20
-49.8223445053227
30
0
41
1
10
3.84207090983477
20
-49.8121191993806
30
0
41
1
10
3.87443814538912
20
-49.8100772567124
30
0
41
1
10
3.93965882426463
20
-49.8060272185271
30
0
41
1
10
4.03824212272107
20
-49.800001164638
30
0
41
1
10
4.13905574540769
20
-49.7941370666848
30
0
41
1
10
4.34361047392363
20
-49.7826631778807
30
0
41
1
10
4.62414385817337
20
-49.7680448554114
30
0
41
1
10
4.92011814828717
20
-49.7551864754428
30
0
41
1
10
5.14800327249657
20
-49.7463551339536
30
0
41
1
10
5.22495080454612
20
-49.7435468038677
30
0
41
1
10
5.34188195419261
20
-49.7395572634287
30
0
41
1
10
5.38113273765825
20
-49.738264025278
30
0
41
1
10
5.45970172354154
20
-49.7357687767631
30
0
41
1
10
5.49907237231864
20
-49.7345649128229
30
0
41
1
10
5.69635211383064
20
-49.7287675075731
30
0
41
1
10
6.01472190291227
20
-49.7209134175242
30
0
41
1
10
6.33841570227307
20
-49.7160616455492
30
0
41
1
10
6.66478767023932
20
-49.7127896930666
30
0
41
1
10
6.8293124755898
20
-49.7119434987089
30
0
41
1
10
7.03670161170086
20
-49.7119235732049
30
0
41
1
10
7.07818500894933
20
-49.7119716121354
30
0
41
1
10
7.16089151267801
20
-49.7121704874303
30
0
41
1
10
7.28468511010232
20
-49.7126229641513
30
0
41
1
10
7.40768922605051
20
-49.7135319810613
30
0
41
1
10
7.65266037829241
20
-49.715943396819
30
0
41
1
10
7.97652734228561
20
-49.7207401959277
30
0
41
1
10
8.29491693416145
20
-49.7285395922947
30
0
41
1
10
8.49216312939765
20
-49.7343011878131
30
0
41
1
10
8.53152480372492
20
-49.7354978473571
30
0
41
1
10
8.61007130962133
20
-49.7379785226753
30
0
41
1
10
8.64929678904488
20
-49.7392639286545
30
0
41
1
10
8.76642134246316
20
-49.7432394720436
30
0
41
1
10
8.8434894394633
20
-49.7460389709654
30
0
41
1
10
9.0717136991764
20
-49.7548453350853
30
0
41
1
10
9.36808143142349
20
-49.7676724885507
30
0
41
1
10
9.64891315195442
20
-49.7822647681041
30
0
41
1
10
9.85366457163323
20
-49.7937192494058
30
0
41
1
10
9.92093458026835
20
-49.7976224434852
30
0
41
1
10
10.0203468060376
20
-49.8035854074951
30
0
41
1
10
10.0532352997926
20
-49.805591086346
30
0
41
1
10
10.1185093158849
20
-49.8096351925776
30
0
41
1
10
10.150930159383
20
-49.8116759372703
30
0
41
1
10
10.3109396075499
20
-49.8219000119434
30
0
41
1
10
10.4327775869071
20
-49.8301748316995
30
0
41
1
10
10.6645110074542
20
-49.8466752790785
30
0
41
1
10
10.8842971383039
20
-49.8631257744873
30
0
41
1
10
11.0802740041645
20
-49.8790133403504
30
0
41
1
10
11.1951240327003
20
-49.8886185464077
30
0
41
1
10
11.2177113632257
20
-49.8905233345677
30
0
41
1
10
11.2621120723669
20
-49.894296555528
30
0
41
1
10
11.2839089846801
20
-49.8961636305444
30
0
41
1
10
11.3477792027177
20
-49.9016743524074
30
0
41
1
10
11.3884530168723
20
-49.9052376494133
30
0
41
1
10
11.5048604965918
20
-49.9155640978341
30
0
41
1
10
11.6451268378791
20
-49.9283616954864
30
0
41
1
10
11.7559492883186
20
-49.9388876004249
30
0
41
1
10
11.8278693088857
20
-49.9458053434909
30
0
41
1
10
11.8499731879294
20
-49.9479484513177
30
0
41
1
10
11.8903740459415
20
-49.9518875807618
30
0
41
1
10
11.9086951317471
20
-49.9536860048986
30
0
41
1
10
11.957414776904
20
-49.9584891218553
30
0
41
1
10
11.9817465763237
20
-49.9609172813825
30
0
41
1
10
12.0142890389608
20
-49.9641726761554
30
0
41
1
10
12.0225079604949
20
-49.9650008020737
30
0
41
1
10
12.0225015547839
20
-49.9650001566576
30
0
0
SPLINE
5
185
100
AcDbEntity
8
SK1
62
256
6
ByLayer
370
18
48
1
60
0
100
AcDbSpline
70
4
71
3
72
39
73
35
40
0
40
0
40
0
40
0
40
0.124999999999996
40
0.124999999999996
40
0.187499999999994
40
0.187499999999994
40
0.218749999999992
40
0.218749999999992
40
0.24999999999999
40
0.24999999999999
40
0.374999999999979
40
0.374999999999979
40
0.437499999999974
40
0.437499999999974
40
0.453124999999975
40
0.453124999999975
40
0.468749999999975
40
0.468749999999975
40
0.499999999999977
40
0.499999999999977
40
0.624999999999979
40
0.624999999999979
40
0.687499999999981
40
0.687499999999981
40
0.749999999999982
40
0.749999999999982
40
0.812499999999983
40
0.874999999999984
40
0.874999999999984
40
0.906249999999988
40
0.906249999999988
40
0.937499999999992
40
0.937499999999992
40
1
40
1
40
1
40
1
41
1
10
-39.8
20
8.11000000000001
30
0
41
1
10
-39.8
20
8.23319689559852
30
0
41
1
10
-39.8118667916719
20
8.35417457248445
30
0
41
1
10
-39.8465803825738
20
8.53249589382585
30
0
41
1
10
-39.8609912480162
20
8.59140873386497
30
0
41
1
10
-39.886939380585
20
8.67897985909462
30
0
41
1
10
-39.8963119912342
20
8.70803700905927
30
0
41
1
10
-39.9165318607134
20
8.76588115792384
30
0
41
1
10
-39.9273903818293
20
8.79468376498656
30
0
41
1
10
-39.9848208029507
20
8.9365275467211
30
0
41
1
10
-40.0411076489352
20
9.04432103623853
30
0
41
1
10
-40.1409292539038
20
9.19766645460024
30
0
41
1
10
-40.1767864152033
20
9.2473812207858
30
0
41
1
10
-40.2249698636006
20
9.30771640042951
30
0
41
1
10
-40.2347750725977
20
9.31969280465512
30
0
41
1
10
-40.2547276099737
20
9.34346199298685
30
0
41
1
10
-40.2648863442039
20
9.35526710192224
30
0
41
1
10
-40.2957187398807
20
9.39021856852924
30
0
41
1
10
-40.316788933274
20
9.41295223542141
30
0
41
1
10
-40.4246877217537
20
9.52382343996283
30
0
41
1
10
-40.5190834069945
20
9.60365303760281
30
0
41
1
10
-40.6731649779178
20
9.70984395692813
30
0
41
1
10
-40.7266213756713
20
9.74296612059283
30
0
41
1
10
-40.8379913960702
20
9.80439826016647
30
0
41
1
10
-40.8949278201466
20
9.8321631082388
30
0
41
1
10
-41.0110429545896
20
9.88181409175229
30
0
41
1
10
-41.1294714113666
20
9.92562418530997
30
0
41
1
10
-41.2525709764293
20
9.95767829986937
30
0
41
1
10
-41.346718647878
20
9.97714199887912
30
0
41
1
10
-41.3784484312653
20
9.98287204223303
30
0
41
1
10
-41.4423489104651
20
9.99272701526147
30
0
41
1
10
-41.4743752177866
20
9.99683194797723
30
0
41
1
10
-41.570681250567
20
10.0066923920527
30
0
41
1
10
-41.635187507993
20
10.01
30
0
41
1
10
-41.7
20
10.01
30
0
0
SPLINE
5
186
100
AcDbEntity
8
SK1
62
256
6
ByLayer
370
18
48
1
60
0
100
AcDbSpline
70
4
71
3
72
37
73
33
40
0
40
0
40
0
40
0
40
0.0624999999999969
40
0.124999999999994
40
0.187499999999991
40
0.187499999999991
40
0.218749999999989
40
0.218749999999989
40
0.249999999999987
40
0.249999999999987
40
0.374999999999969
40
0.374999999999969
40
0.406249999999968
40
0.406249999999968
40
0.437499999999968
40
0.437499999999968
40
0.499999999999965
40
0.562499999999963
40
0.562499999999963
40
0.593749999999963
40
0.593749999999963
40
0.624999999999964
40
0.624999999999964
40
0.749999999999974
40
0.749999999999974
40
0.812499999999978
40
0.812499999999978
40
0.843749999999981
40
0.843749999999981
40
0.874999999999983
40
0.874999999999983
40
1
40
1
40
1
40
1
41
1
10
-41.7
20
-10.01
30
0
41
1
10
-41.6352713865231
20
-10.01
30
0
41
1
10
-41.5070511275757
20
-10.0034039248518
30
0
41
1
10
-41.3182811373878
20
-9.97451483205623
30
0
41
1
10
-41.1947809789536
20
-9.94271877100826
30
0
41
1
10
-41.1030519769239
20
-9.91407293254841
30
0
41
1
10
-41.0726322747058
20
-9.903718457195
30
0
41
1
10
-41.0128138632697
20
-9.88166344995557
30
0
41
1
10
-40.9833218989539
20
-9.86993537212496
30
0
41
1
10
-40.8378957516775
20
-9.8078741114214
30
0
41
1
10
-40.7280022830846
20
-9.74738157881811
30
0
41
1
10
-40.5984896327907
20
-9.65843866061974
30
0
41
1
10
-40.5729176066122
20
-9.6399249472407
30
0
41
1
10
-40.5230012181478
20
-9.60186424757501
30
0
41
1
10
-40.4986408544189
20
-9.58231248889066
30
0
41
1
10
-40.4273036120927
20
-9.5221314919886
30
0
41
1
10
-40.3368284332642
20
-9.43782945531143
30
0
41
1
10
-40.2553380819533
20
-9.34561619017506
30
0
41
1
10
-40.1975802767161
20
-9.27347919268325
30
0
41
1
10
-40.1788886982289
20
-9.24893645024335
30
0
41
1
10
-40.1426386042457
20
-9.19884402605831
30
0
41
1
10
-40.1251406286122
20
-9.17337272151832
30
0
41
1
10
-40.0412615511893
20
-9.04471070963828
30
0
41
1
10
-39.9850618711732
20
-8.93689382639147
30
0
41
1
10
-39.9165371244681
20
-8.76799066715
30
0
41
1
10
-39.8963441090146
20
-8.71048496754932
30
0
41
1
10
-39.8701301158719
20
-8.62236256644641
30
0
41
1
10
-39.8621036923976
20
-8.59277283294423
30
0
41
1
10
-39.8475390636706
20
-8.53346301503353
30
0
41
1
10
-39.8409871302113
20
-8.50369744436819
30
0
41
1
10
-39.8118441262851
20
-8.35431913644254
30
0
41
1
10
-39.8
20
-8.23306832906806
30
0
41
1
10
-39.8
20
-8.10999999999999
30
0
0
SPLINE
5
187
100
AcDbEntity
8
SK1
62
256
6
ByLayer
370
18
48
1
60
0
100
AcDbSpline
70
4
71
3
72
70
73
66
40
0
40
0
40
0
40
0
40
0.125000000000023
40
0.125000000000023
40
0.187500000000033
40
0.187500000000033
40
0.250000000000043
40
0.250000000000043
40
0.312500000000054
40
0.312500000000054
40
0.343750000000058
40
0.343750000000058
40
0.375000000000063
40
0.375000000000063
40
0.406250000000067
40
0.406250000000067
40
0.421875000000069
40
0.421875000000069
40
0.43750000000007
40
0.43750000000007
40
0.453125000000071
40
0.453125000000071
40
0.468750000000072
40
0.468750000000072
40
0.484375000000074
40
0.484375000000074
40
0.492187500000072
40
0.492187500000072
40
0.496093750000072
40
0.496093750000072
40
0.500000000000073
40
0.500000000000073
40
0.507812500000076
40
0.507812500000076
40
0.511718750000076
40
0.511718750000076
40
0.515625000000077
40
0.515625000000077
40
0.523437500000077
40
0.523437500000077
40
0.531250000000078
40
0.531250000000078
40
0.539062500000078
40
0.539062500000078
40
0.546875000000078
40
0.546875000000078
40
0.562500000000076
40
0.562500000000076
40
0.578125000000074
40
0.578125000000074
40
0.593750000000071
40
0.593750000000071
40
0.625000000000067
40
0.625000000000067
40
0.656250000000063
40
0.656250000000063
40
0.687500000000058
40
0.687500000000058
40
0.750000000000048
40
0.750000000000048
40
0.812500000000037
40
0.812500000000037
40
0.875000000000026
40
0.875000000000026
40
1
40
1
40
1
40
1
41
1
10
-48.9697166806892
20
-16.778729103192
30
0
41
1
10
-48.9785920072055
20
-16.8947272664673
30
0
41
1
10
-48.9897988429114
20
-17.0095335194142
30
0
41
1
10
-49.0109647633668
20
-17.1786842139505
30
0
41
1
10
-49.018752765391
20
-17.2345717614835
30
0
41
1
10
-49.0360874261683
20
-17.3451562875692
30
0
41
1
10
-49.0456289023845
20
-17.3998567745766
30
0
41
1
10
-49.0669675034832
20
-17.5077307278326
30
0
41
1
10
-49.0787629361651
20
-17.5609484504595
30
0
41
1
10
-49.0987562930164
20
-17.638716784937
30
0
41
1
10
-49.1058105146936
20
-17.6643073324103
30
0
41
1
10
-49.1209098209546
20
-17.7146438380478
30
0
41
1
10
-49.1289512012182
20
-17.7393929536912
30
0
41
1
10
-49.1463779452354
20
-17.7877456036062
30
0
41
1
10
-49.1557499117383
20
-17.8113357245313
30
0
41
1
10
-49.1712062282388
20
-17.8451920882427
30
0
41
1
10
-49.176596709892
20
-17.8562275220111
30
0
41
1
10
-49.1879974293986
20
-17.8776483583252
30
0
41
1
10
-49.194001658857
20
-17.8880224043109
30
0
41
1
10
-49.2067373070764
20
-17.9077047896447
30
0
41
1
10
-49.2134742645563
20
-17.9170376486973
30
0
41
1
10
-49.2280264993181
20
-17.9342184124567
30
0
41
1
10
-49.2358273164289
20
-17.9420862302669
30
0
41
1
10
-49.2532197444641
20
-17.9553557634833
30
0
41
1
10
-49.2626054593639
20
-17.9606299140776
30
0
41
1
10
-49.278375252734
20
-17.9647482635033
30
0
41
1
10
-49.2839152326925
20
-17.9654534966073
30
0
41
1
10
-49.2924720071764
20
-17.9651720746257
30
0
41
1
10
-49.2953766356601
20
-17.9648575854184
30
0
41
1
10
-49.3013049674423
20
-17.9637268408728
30
0
41
1
10
-49.3043370960406
20
-17.9629032134806
30
0
41
1
10
-49.3133471331066
20
-17.9596962321756
30
0
41
1
10
-49.319326158544
20
-17.9565674882153
30
0
41
1
10
-49.3282527570274
20
-17.9503724532964
30
0
41
1
10
-49.3312153507702
20
-17.9480566490367
30
0
41
1
10
-49.3369592386164
20
-17.9430864830727
30
0
41
1
10
-49.3397632723994
20
-17.940417284117
30
0
41
1
10
-49.3479935042775
20
-17.9319166080915
30
0
41
1
10
-49.3532502018273
20
-17.9255636024532
30
0
41
1
10
-49.3630298315463
20
-17.9123053398268
30
0
41
1
10
-49.3676116126613
20
-17.9053425897761
30
0
41
1
10
-49.3763182059836
20
-17.8909221653594
30
0
41
1
10
-49.3804580471831
20
-17.8834279757878
30
0
41
1
10
-49.3882378147303
20
-17.8683359328362
30
0
41
1
10
-49.3918959362052
20
-17.8607111468225
30
0
41
1
10
-49.4023455028557
20
-17.8376584359844
30
0
41
1
10
-49.4086206278603
20
-17.8220550394811
30
0
41
1
10
-49.42027994993
20
-17.79054546415
30
0
41
1
10
-49.4256604855122
20
-17.7746257556677
30
0
41
1
10
-49.4357579429466
20
-17.7426114702321
30
0
41
1
10
-49.4404341462279
20
-17.7266427784732
30
0
41
1
10
-49.453646562731
20
-17.6788209482268
30
0
41
1
10
-49.4613809145854
20
-17.6470505754663
30
0
41
1
10
-49.4755165521723
20
-17.5836474250347
30
0
41
1
10
-49.4819043194362
20
-17.5520160426995
30
0
41
1
10
-49.4937222729305
20
-17.4888521166732
30
0
41
1
10
-49.4991481547123
20
-17.4573200172744
30
0
41
1
10
-49.5143265433229
20
-17.3628371810634
30
0
41
1
10
-49.523006039586
20
-17.2999192237264
30
0
41
1
10
-49.5384114740618
20
-17.174752834463
30
0
41
1
10
-49.5451285655853
20
-17.1124921337724
30
0
41
1
10
-49.5571407002954
20
-16.9884360225781
30
0
41
1
10
-49.5624299764209
20
-16.9266424990404
30
0
41
1
10
-49.5766217121048
20
-16.7418103412072
30
0
41
1
10
-49.5838739667782
20
-16.6193116492747
30
0
41
1
10
-49.589565554979
20
-16.4973236029902
30
0
0
SPLINE
5
188
100
AcDbEntity
8
SK1
62
256
6
ByLayer
370
18
48
1
60
0
100
AcDbSpline
70
4
71
3
72
34
73
30
40
0
40
0
40
0
40
0
40
0.0312500000000012
40
0.0312500000000012
40
0.0625000000000024
40
0.0625000000000024
40
0.125000000000004
40
0.125000000000004
40
0.187500000000006
40
0.187500000000006
40
0.250000000000008
40
0.250000000000008
40
0.31250000000001
40
0.31250000000001
40
0.343750000000008
40
0.343750000000008
40
0.375000000000006
40
0.375000000000006
40
0.500000000000005
40
0.500000000000005
40
0.625000000000003
40
0.625000000000003
40
0.750000000000002
40
0.750000000000002
40
0.875
40
0.875
40
0.9375
40
0.9375
40
1
40
1
40
1
40
1
41
1
10
-49.5895655549782
20
16.4973236029906
30
0
41
1
10
-49.590635128866
20
16.4743993814322
30
0
41
1
10
-49.5921127463331
20
16.451167330654
30
0
41
1
10
-49.5958301509183
20
16.4041104883731
30
0
41
1
10
-49.598073228167
20
16.3802531423937
30
0
41
1
10
-49.6058113389978
20
16.3080481757592
30
0
41
1
10
-49.6122375259955
20
16.2596899330788
30
0
41
1
10
-49.6267759592584
20
16.1625729088504
30
0
41
1
10
-49.6348867534571
20
16.1138139486203
30
0
41
1
10
-49.6521095088273
20
16.0159196237557
30
0
41
1
10
-49.6612224168293
20
15.9667840964405
30
0
41
1
10
-49.6799383965105
20
15.8681478902863
30
0
41
1
10
-49.6895428780525
20
15.8186470970039
30
0
41
1
10
-49.7040332900463
20
15.744123993757
30
0
41
1
10
-49.7088807488956
20
15.7192246785053
30
0
41
1
10
-49.7185317643563
20
15.6695158164663
30
0
41
1
10
-49.7233395403919
20
15.6446847624693
30
0
41
1
10
-49.7472116456447
20
15.5206268127951
30
0
41
1
10
-49.7657471332943
20
15.421683757533
30
0
41
1
10
-49.8002578924658
20
15.2240633882968
30
0
41
1
10
-49.8162473661743
20
15.1253899883471
30
0
41
1
10
-49.844704321635
20
14.928105225062
30
0
41
1
10
-49.8571779360089
20
14.8294955534716
30
0
41
1
10
-49.877780648273
20
14.6321795581412
30
0
41
1
10
-49.8859126744471
20
14.5334740867307
30
0
41
1
10
-49.8942491563155
20
14.385232705322
30
0
41
1
10
-49.8963843030189
20
14.3357884016127
30
0
41
1
10
-49.8992628761556
20
14.2368196537358
30
0
41
1
10
-49.9000000000001
20
14.1874428253589
30
0
41
1
10
-49.9
20
14.1383526170462
30
0
0
SPLINE
5
189
100
AcDbEntity
8
SK1
62
256
6
ByLayer
370
18
48
1
60
0
100
AcDbSpline
70
4
71
3
72
70
73
66
40
0
40
0
40
0
40
0
40
0.124999999999975
40
0.124999999999975
40
0.187499999999964
40
0.187499999999964
40
0.249999999999952
40
0.249999999999952
40
0.31249999999994
40
0.31249999999994
40
0.343749999999934
40
0.343749999999934
40
0.374999999999928
40
0.374999999999928
40
0.406249999999922
40
0.406249999999922
40
0.421874999999918
40
0.421874999999918
40
0.437499999999913
40
0.437499999999913
40
0.453124999999909
40
0.453124999999909
40
0.468749999999905
40
0.468749999999905
40
0.484374999999901
40
0.484374999999901
40
0.492187499999895
40
0.492187499999895
40
0.496093749999895
40
0.496093749999895
40
0.499999999999894
40
0.499999999999894
40
0.507812499999895
40
0.507812499999895
40
0.511718749999894
40
0.511718749999894
40
0.515624999999894
40
0.515624999999894
40
0.523437499999896
40
0.523437499999896
40
0.531249999999899
40
0.531249999999899
40
0.539062499999902
40
0.539062499999902
40
0.546874999999904
40
0.546874999999904
40
0.56249999999991
40
0.56249999999991
40
0.578124999999915
40
0.578124999999915
40
0.593749999999921
40
0.593749999999921
40
0.624999999999926
40
0.624999999999926
40
0.656249999999932
40
0.656249999999932
40
0.687499999999937
40
0.687499999999937
40
0.749999999999949
40
0.749999999999949
40
0.812499999999961
40
0.812499999999961
40
0.874999999999973
40
0.874999999999973
40
1
40
1
40
1
40
1
41
1
10
-48.9697166806892
20
16.778729103192
30
0
41
1
10
-48.9785920072054
20
16.8947272664673
30
0
41
1
10
-48.9897988429114
20
17.0095335194142
30
0
41
1
10
-49.0109647633668
20
17.1786842139506
30
0
41
1
10
-49.018752765391
20
17.2345717614836
30
0
41
1
10
-49.0360874261682
20
17.3451562875693
30
0
41
1
10
-49.0456289023845
20
17.3998567745767
30
0
41
1
10
-49.0669675034832
20
17.5077307278327
30
0
41
1
10
-49.0787629361651
20
17.5609484504596
30
0
41
1
10
-49.0987562930164
20
17.6387167849371
30
0
41
1
10
-49.1058105146936
20
17.6643073324105
30
0
41
1
10
-49.1209098209546
20
17.714643838048
30
0
41
1
10
-49.1289512012183
20
17.7393929536913
30
0
41
1
10
-49.1463779452354
20
17.7877456036063
30
0
41
1
10
-49.1557499117384
20
17.8113357245314
30
0
41
1
10
-49.1712062282388
20
17.8451920882428
30
0
41
1
10
-49.1765967098921
20
17.8562275220112
30
0
41
1
10
-49.1879974293987
20
17.8776483583253
30
0
41
1
10
-49.1940016588571
20
17.888022404311
30
0
41
1
10
-49.2067373070765
20
17.9077047896448
30
0
41
1
10
-49.2134742645564
20
17.9170376486974
30
0
41
1
10
-49.2280264993181
20
17.9342184124568
30
0
41
1
10
-49.235827316429
20
17.942086230267
30
0
41
1
10
-49.2532197444642
20
17.9553557634834
30
0
41
1
10
-49.262605459364
20
17.9606299140777
30
0
41
1
10
-49.2783752527342
20
17.9647482635034
30
0
41
1
10
-49.2839152326926
20
17.9654534966073
30
0
41
1
10
-49.2924720071766
20
17.9651720746258
30
0
41
1
10
-49.2953766356602
20
17.9648575854184
30
0
41
1
10
-49.3013049674424
20
17.9637268408728
30
0
41
1
10
-49.3043370960408
20
17.9629032134806
30
0
41
1
10
-49.3133471331068
20
17.9596962321756
30
0
41
1
10
-49.3193261585442
20
17.9565674882152
30
0
41
1
10
-49.3282527570276
20
17.9503724532963
30
0
41
1
10
-49.3312153507704
20
17.9480566490367
30
0
41
1
10
-49.3369592386165
20
17.9430864830726
30
0
41
1
10
-49.3397632723995
20
17.9404172841169
30
0
41
1
10
-49.3479935042776
20
17.9319166080913
30
0
41
1
10
-49.3532502018274
20
17.925563602453
30
0
41
1
10
-49.3630298315464
20
17.9123053398266
30
0
41
1
10
-49.3676116126615
20
17.9053425897759
30
0
41
1
10
-49.3763182059837
20
17.8909221653592
30
0
41
1
10
-49.3804580471832
20
17.8834279757876
30
0
41
1
10
-49.3882378147304
20
17.868335932836
30
0
41
1
10
-49.3918959362052
20
17.8607111468222
30
0
41
1
10
-49.4023455028558
20
17.8376584359842
30
0
41
1
10
-49.4086206278604
20
17.8220550394808
30
0
41
1
10
-49.4202799499301
20
17.7905454641498
30
0
41
1
10
-49.4256604855123
20
17.7746257556675
30
0
41
1
10
-49.4357579429467
20
17.7426114702319
30
0
41
1
10
-49.4404341462279
20
17.726642778473
30
0
41
1
10
-49.4536465627311
20
17.6788209482266
30
0
41
1
10
-49.4613809145854
20
17.6470505754661
30
0
41
1
10
-49.4755165521723
20
17.5836474250345
30
0
41
1
10
-49.4819043194362
20
17.5520160426993
30
0
41
1
10
-49.4937222729305
20
17.488852116673
30
0
41
1
10
-49.4991481547124
20
17.4573200172742
30
0
41
1
10
-49.5143265433229
20
17.3628371810633
30
0
41
1
10
-49.523006039586
20
17.2999192237263
30
0
41
1
10
-49.5384114740618
20
17.1747528344629
30
0
41
1
10
-49.5451285655853
20
17.1124921337723
30
0
41
1
10
-49.5571407002954
20
16.988436022578
30
0
41
1
10
-49.5624299764209
20
16.9266424990403
30
0
41
1
10
-49.5766217121049
20
16.7418103412072
30
0
41
1
10
-49.5838739667783
20
16.6193116492747
30
0
41
1
10
-49.589565554979
20
16.4973236029902
30
0
0
SPLINE
5
18A
100
AcDbEntity
8
SK1
62
256
6
ByLayer
370
18
48
1
60
0
100
AcDbSpline
70
4
71
3
72
24
73
20
40
0
40
0
40
0
40
0
40
0.249999999999995
40
0.249999999999995
40
0.374999999999997
40
0.374999999999997
40
0.5
40
0.5
40
0.625000000000002
40
0.625000000000002
40
0.750000000000005
40
0.750000000000005
40
0.875000000000007
40
0.875000000000007
40
0.906250000000005
40
0.906250000000005
40
0.937500000000004
40
0.937500000000004
40
1
40
1
40
1
40
1
41
1
10
-48.25
20
15.0769078182756
30
0
41
1
10
-48.3271926111222
20
15.2214679672114
30
0
41
1
10
-48.4027254550249
20
15.3633775486335
30
0
41
1
10
-48.5122536734003
20
15.5732085879267
30
0
41
1
10
-48.5481266401182
20
15.6426517542019
30
0
41
1
10
-48.618201788153
20
15.7808305447835
30
0
41
1
10
-48.6524093294458
20
15.8495616218579
30
0
41
1
10
-48.7185086625097
20
15.9868061596768
30
0
41
1
10
-48.7504115090575
20
16.0553103068737
30
0
41
1
10
-48.8107717948452
20
16.1929883532483
30
0
41
1
10
-48.8392507208948
20
16.2621445046155
30
0
41
1
10
-48.8906789766632
20
16.4028037844914
30
0
41
1
10
-48.9136547790547
20
16.4742868715051
30
0
41
1
10
-48.9365349150509
20
16.5670383373904
30
0
41
1
10
-48.9408137478883
20
16.5857626593417
30
0
41
1
10
-48.9486963493386
20
16.623623978239
30
0
41
1
10
-48.9523012357625
20
16.6427799051925
30
0
41
1
10
-48.961899115855
20
16.7004553530049
30
0
41
1
10
-48.9667024377094
20
16.7393337470113
30
0
41
1
10
-48.9697166806892
20
16.778729103192
30
0
0
SPLINE
5
18B
100
AcDbEntity
8
SK1
62
256
6
ByLayer
370
18
48
1
60
0
100
AcDbSpline
70
4
71
3
72
8
73
4
40
0
40
0
40
0
40
0
40
1
40
1
40
1
40
1
41
1
10
-48.2500000000026
20
15.0769078182842
30
0
41
1
10
-48.1701858378083
20
15.1133675321335
30
0
41
1
10
-48.0872671766728
20
15.1393459745314
30
0
41
1
10
-48.0000748840349
20
15.1509300282123
30
0
0
SPLINE
5
18C
100
AcDbEntity
8
SK1
62
256
6
ByLayer
370
18
48
1
60
0
100
AcDbSpline
70
4
71
3
72
34
73
30
40
0
40
0
40
0
40
0
40
0.0312499999999991
40
0.0312499999999991
40
0.0624999999999983
40
0.0624999999999983
40
0.124999999999999
40
0.124999999999999
40
0.187499999999999
40
0.187499999999999
40
0.25
40
0.25
40
0.3125
40
0.3125
40
0.343749999999999
40
0.343749999999999
40
0.374999999999998
40
0.374999999999998
40
0.499999999999998
40
0.499999999999998
40
0.624999999999998
40
0.624999999999998
40
0.749999999999998
40
0.749999999999998
40
0.874999999999998
40
0.874999999999998
40
0.937499999999999
40
0.937499999999999
40
1
40
1
40
1
40
1
41
1
10
-49.5895655549782
20
-16.4973236029906
30
0
41
1
10
-49.590635128866
20
-16.4743993814322
30
0
41
1
10
-49.5921127463332
20
-16.451167330654
30
0
41
1
10
-49.5958301509184
20
-16.4041104883731
30
0
41
1
10
-49.598073228167
20
-16.3802531423937
30
0
41
1
10
-49.6058113389978
20
-16.3080481757592
30
0
41
1
10
-49.6122375259955
20
-16.2596899330788
30
0
41
1
10
-49.6267759592584
20
-16.1625729088504
30
0
41
1
10
-49.6348867534571
20
-16.1138139486203
30
0
41
1
10
-49.6521095088273
20
-16.0159196237557
30
0
41
1
10
-49.6612224168293
20
-15.9667840964405
30
0
41
1
10
-49.6799383965105
20
-15.8681478902863
30
0
41
1
10
-49.6895428780525
20
-15.8186470970039
30
0
41
1
10
-49.7040332900463
20
-15.744123993757
30
0
41
1
10
-49.7088807488956
20
-15.7192246785053
30
0
41
1
10
-49.7185317643563
20
-15.6695158164663
30
0
41
1
10
-49.7233395403919
20
-15.6446847624693
30
0
41
1
10
-49.7472116456448
20
-15.5206268127951
30
0
41
1
10
-49.7657471332943
20
-15.421683757533
30
0
41
1
10
-49.8002578924658
20
-15.2240633882967
30
0
41
1
10
-49.8162473661743
20
-15.1253899883471
30
0
41
1
10
-49.844704321635
20
-14.928105225062
30
0
41
1
10
-49.8571779360089
20
-14.8294955534716
30
0
41
1
10
-49.877780648273
20
-14.6321795581412
30
0
41
1
10
-49.8859126744471
20
-14.5334740867307
30
0
41
1
10
-49.8942491563155
20
-14.385232705322
30
0
41
1
10
-49.896384303019
20
-14.3357884016127
30
0
41
1
10
-49.8992628761556
20
-14.2368196537358
30
0
41
1
10
-49.9
20
-14.1874428253589
30
0
41
1
10
-49.9
20
-14.1383526170462
30
0
0
SPLINE
5
18D
100
AcDbEntity
8
SK1
62
256
6
ByLayer
370
18
48
1
60
0
100
AcDbSpline
70
4
71
3
72
24
73
20
40
0
40
0
40
0
40
0
40
0.249999999999997
40
0.249999999999997
40
0.374999999999996
40
0.374999999999996
40
0.499999999999995
40
0.499999999999995
40
0.624999999999994
40
0.624999999999994
40
0.749999999999993
40
0.749999999999993
40
0.874999999999992
40
0.874999999999992
40
0.906249999999995
40
0.906249999999995
40
0.937499999999998
40
0.937499999999998
40
1
40
1
40
1
40
1
41
1
10
-48.25
20
-15.0769078182756
30
0
41
1
10
-48.3271926111222
20
-15.2214679672114
30
0
41
1
10
-48.4027254550249
20
-15.3633775486335
30
0
41
1
10
-48.5122536734004
20
-15.5732085879267
30
0
41
1
10
-48.5481266401182
20
-15.6426517542019
30
0
41
1
10
-48.618201788153
20
-15.7808305447834
30
0
41
1
10
-48.6524093294458
20
-15.8495616218579
30
0
41
1
10
-48.7185086625097
20
-15.9868061596768
30
0
41
1
10
-48.7504115090575
20
-16.0553103068738
30
0
41
1
10
-48.8107717948452
20
-16.1929883532483
30
0
41
1
10
-48.8392507208948
20
-16.2621445046155
30
0
41
1
10
-48.8906789766632
20
-16.4028037844914
30
0
41
1
10
-48.9136547790547
20
-16.4742868715051
30
0
41
1
10
-48.9365349150509
20
-16.5670383373904
30
0
41
1
10
-48.9408137478883
20
-16.5857626593417
30
0
41
1
10
-48.9486963493385
20
-16.623623978239
30
0
41
1
10
-48.9523012357625
20
-16.6427799051925
30
0
41
1
10
-48.961899115855
20
-16.7004553530049
30
0
41
1
10
-48.9667024377094
20
-16.7393337470113
30
0
41
1
10
-48.9697166806892
20
-16.778729103192
30
0
0
SPLINE
5
18E
100
AcDbEntity
8
SK1
62
256
6
ByLayer
370
18
48
1
60
0
100
AcDbSpline
70
4
71
3
72
8
73
4
40
0
40
0
40
0
40
0
40
1
40
1
40
1
40
1
41
1
10
-48.0000748840354
20
-15.1509300282122
30
0
41
1
10
-48.0872671766731
20
-15.1393459745313
30
0
41
1
10
-48.1701858378085
20
-15.1133675321334
30
0
41
1
10
-48.2500000000026
20
-15.0769078182842
30
0
0
SPLINE
5
18F
100
AcDbEntity
8
SK1
62
256
6
ByLayer
370
18
48
1
60
0
100
AcDbSpline
70
2053
71
3
72
199
73
195
40
0
40
0
40
0
40
0
40
0.015625
40
0.015625
40
0.0312499999999999
40
0.0312499999999999
40
0.0390624999999999
40
0.0390624999999999
40
0.04296875
40
0.04296875
40
0.0468750000000001
40
0.0468750000000001
40
0.0625000000000005
40
0.078125000000001
40
0.078125000000001
40
0.0937500000000014
40
0.0937500000000014
40
0.0976562500000016
40
0.0976562500000016
40
0.101562500000002
40
0.101562500000002
40
0.109375000000002
40
0.109375000000002
40
0.125000000000003
40
0.125000000000003
40
0.140625000000003
40
0.140625000000003
40
0.144531250000003
40
0.144531250000003
40
0.148437500000003
40
0.148437500000003
40
0.156250000000004
40
0.156250000000004
40
0.171875000000004
40
0.171875000000004
40
0.187500000000005
40
0.187500000000005
40
0.191406250000005
40
0.191406250000005
40
0.195312500000005
40
0.195312500000005
40
0.203125000000005
40
0.203125000000005
40
0.218750000000006
40
0.218750000000006
40
0.234375000000006
40
0.234375000000006
40
0.242187500000006
40
0.242187500000006
40
0.246093750000006
40
0.246093750000006
40
0.250000000000007
40
0.250000000000007
40
0.265625000000007
40
0.265625000000007
40
0.281250000000008
40
0.281250000000008
40
0.289062500000008
40
0.289062500000008
40
0.292968750000008
40
0.292968750000008
40
0.296875000000008
40
0.296875000000008
40
0.312500000000008
40
0.312500000000008
40
0.328125000000009
40
0.343750000000009
40
0.343750000000009
40
0.347656250000009
40
0.347656250000009
40
0.351562500000009
40
0.351562500000009
40
0.359375000000009
40
0.359375000000009
40
0.375000000000009
40
0.390625000000009
40
0.390625000000009
40
0.40625000000001
40
0.40625000000001
40
0.41406250000001
40
0.41406250000001
40
0.42187500000001
40
0.42187500000001
40
0.43750000000001
40
0.43750000000001
40
0.45312500000001
40
0.45312500000001
40
0.46093750000001
40
0.46093750000001
40
0.46484375000001
40
0.46484375000001
40
0.46875000000001
40
0.46875000000001
40
0.48437500000001
40
0.500000000000009
40
0.500000000000009
40
0.515625000000009
40
0.515625000000009
40
0.523437500000009
40
0.523437500000009
40
0.527343750000008
40
0.527343750000008
40
0.531250000000008
40
0.531250000000008
40
0.546875000000008
40
0.546875000000008
40
0.562500000000008
40
0.562500000000008
40
0.578125000000007
40
0.578125000000007
40
0.582031250000007
40
0.582031250000007
40
0.585937500000007
40
0.593750000000007
40
0.593750000000007
40
0.609375000000007
40
0.609375000000007
40
0.625000000000007
40
0.625000000000007
40
0.628906250000007
40
0.628906250000007
40
0.632812500000007
40
0.632812500000007
40
0.640625000000007
40
0.640625000000007
40
0.656250000000007
40
0.656250000000007
40
0.671875000000007
40
0.671875000000007
40
0.675781250000007
40
0.675781250000007
40
0.679687500000007
40
0.679687500000007
40
0.687500000000007
40
0.687500000000007
40
0.703125000000007
40
0.703125000000007
40
0.718750000000007
40
0.718750000000007
40
0.722656250000007
40
0.722656250000007
40
0.726562500000007
40
0.726562500000007
40
0.734375000000007
40
0.734375000000007
40
0.750000000000007
40
0.750000000000007
40
0.765625000000007
40
0.765625000000007
40
0.773437500000007
40
0.773437500000007
40
0.777343750000007
40
0.777343750000007
40
0.781250000000007
40
0.781250000000007
40
0.796875000000007
40
0.796875000000007
40
0.812500000000007
40
0.828125000000007
40
0.828125000000007
40
0.832031250000007
40
0.832031250000007
40
0.835937500000007
40
0.843750000000007
40
0.843750000000007
40
0.859375000000006
40
0.875000000000005
40
0.875000000000005
40
0.882812500000005
40
0.882812500000005
40
0.886718750000005
40
0.886718750000005
40
0.890625000000005
40
0.890625000000005
40
0.906250000000004
40
0.921875000000004
40
0.921875000000004
40
0.937500000000003
40
0.937500000000003
40
0.945312500000003
40
0.945312500000003
40
0.949218750000003
40
0.949218750000003
40
0.953125000000003
40
0.953125000000003
40
0.968750000000002
40
0.968750000000002
40
0.984375000000001
40
0.984375000000001
40
0.9921875
40
0.9921875
40
0.99609375
40
0.99609375
40
1
40
1
40
1
40
1
41
1
10
-19.2409013463648
20
-4.68080028297888
30
0
41
1
10
-19.4079621433098
20
-4.54192515802683
30
0
41
1
10
-19.5670665156176
20
-4.3959088125365
30
0
41
1
10
-19.8694655070935
20
-4.08965357791703
30
0
41
1
10
-20.0127608800019
20
-3.92941542119291
30
0
41
1
10
-20.2155634753265
20
-3.67811209595402
30
0
41
1
10
-20.2811371228696
20
-3.5925165438729
30
0
41
1
10
-20.3763842148996
20
-3.46131312171787
30
0
41
1
10
-20.4076140766386
20
-3.41711005267425
30
0
41
1
10
-20.469019912
20
-3.32775219492208
30
0
41
1
10
-20.4992345528522
20
-3.28253591113366
30
0
41
1
10
-20.6469059096212
20
-3.0551645395735
30
0
41
1
10
-20.8621469588936
20
-2.68225303730964
30
0
41
1
10
-21.0359493662655
20
-2.29134285179632
30
0
41
1
10
-21.1887006096658
20
-1.89127361303633
30
0
41
1
10
-21.2545540746264
20
-1.68666097269678
30
0
41
1
10
-21.3230762842395
20
-1.4248854721009
30
0
41
1
10
-21.3360891245397
20
-1.372229079238
30
0
41
1
10
-21.3607076585596
20
-1.2663031177255
30
0
41
1
10
-21.3722793633372
20
-1.21317185000029
30
0
41
1
10
-21.4046753803779
20
-1.05383589651714
30
0
41
1
10
-21.4232362020401
20
-0.947458959524255
30
0
41
1
10
-21.4699539975404
20
-0.627876369739084
30
0
41
1
10
-21.4891691148553
20
-0.414220069648906
30
0
41
1
10
-21.5039397224734
20
0.0142853874746436
30
0
41
1
10
-21.4994960718303
20
0.229134501321511
30
0
41
1
10
-21.4788146901815
20
0.498458475949832
30
0
41
1
10
-21.4739201863398
20
0.552361493605673
30
0
41
1
10
-21.4625984188042
20
0.660244788432323
30
0
41
1
10
-21.456159678233
20
0.714307581104691
30
0
41
1
10
-21.4346038918093
20
0.875966706582147
30
0
41
1
10
-21.4172853236874
20
0.982846594827464
30
0
41
1
10
-21.3567175465797
20
1.30087888542042
30
0
41
1
10
-21.3048787016907
20
1.50943061979979
30
0
41
1
10
-21.1789309579674
20
1.91979865856709
30
0
41
1
10
-21.1048206678252
20
2.12161452986083
30
0
41
1
10
-20.998226662612
20
2.36966972430028
30
0
41
1
10
-20.9762083560189
20
2.41906952452885
30
0
41
1
10
-20.9307649649809
20
2.51744448695058
30
0
41
1
10
-20.9073116441753
20
2.56647622608861
30
0
41
1
10
-20.8350267778472
20
2.71252631781047
30
0
41
1
10
-20.7844346280646
20
2.80818883827374
30
0
41
1
10
-20.6256720613505
20
3.09022486681877
30
0
41
1
10
-20.5105338999628
20
3.27165981222919
30
0
41
1
10
-20.2623510498034
20
3.62186416748872
30
0
41
1
10
-20.129304333472
20
3.79063209878191
30
0
41
1
10
-19.91638920189
20
4.03436613204042
30
0
41
1
10
-19.8431890827454
20
4.11403818660335
30
0
41
1
10
-19.730018892489
20
4.23117080081329
30
0
41
1
10
-19.6918185387117
20
4.26972937335211
30
0
41
1
10
-19.6146633567857
20
4.34570124507349
30
0
41
1
10
-19.5756796286264
20
4.38314455220441
30
0
41
1
10
-19.3787599051635
20
4.56768879385652
30
0
41
1
10
-19.2148365238777
20
4.70679413172118
30
0
41
1
10
-18.874706095973
20
4.96863291930705
30
0
41
1
10
-18.6984974556378
20
5.09136418851546
30
0
41
1
10
-18.4250584232746
20
5.26332042785435
30
0
41
1
10
-18.3323883185654
20
5.31861205123644
30
0
41
1
10
-18.1910840451221
20
5.39849359616358
30
0
41
1
10
-18.1435992640364
20
5.42461123504353
30
0
41
1
10
-18.0478586633437
20
5.47582211800821
30
0
41
1
10
-17.999653619819
20
5.50088641925819
30
0
41
1
10
-17.7578685588757
20
5.6230644943644
30
0
41
1
10
-17.5611877471659
20
5.71121804724854
30
0
41
1
10
-17.1615918134346
20
5.8691502782554
30
0
41
1
10
-16.7557600995884
20
6.00870330299327
30
0
41
1
10
-16.337639291229
20
6.11204125577314
30
0
41
1
10
-16.0724270604448
20
6.16517491060301
30
0
41
1
10
-16.0191898703303
20
6.17522781030428
30
0
41
1
10
-15.9123231813235
20
6.19417766139989
30
0
41
1
10
-15.8587245631856
20
6.203067400138
30
0
41
1
10
-15.6981171897025
20
6.22788100212605
30
0
41
1
10
-15.591046834799
20
6.24199592509535
30
0
41
1
10
-15.2698405249356
20
6.27720887586469
30
0
41
1
10
-14.8415784063018
20
6.30517583358045
30
0
41
1
10
-14.4133472399135
20
6.29598823689682
30
0
41
1
10
-13.9851301278561
20
6.26814199660083
30
0
41
1
10
-13.7710286107101
20
6.24489117648781
30
0
41
1
10
-13.4498827823393
20
6.19558292923176
30
0
41
1
10
-13.3435218403949
20
6.17684029687007
30
0
41
1
10
-13.1324691999273
20
6.13487617353348
30
0
41
1
10
-13.0277242446182
20
6.11164647440771
30
0
41
1
10
-12.7158020909691
20
6.03529266663705
30
0
41
1
10
-12.5109326313958
20
5.97551883088542
30
0
41
1
10
-12.1073058848507
20
5.83827843950013
30
0
41
1
10
-11.9085482732515
20
5.76081297582147
30
0
41
1
10
-11.6150846181188
20
5.63101285807838
30
0
41
1
10
-11.5180434948078
20
5.5854752238717
30
0
41
1
10
-11.3736757629308
20
5.51368214317216
30
0
41
1
10
-11.3257522711256
20
5.48916972742282
30
0
41
1
10
-11.2303086104432
20
5.43896513930909
30
0
41
1
10
-11.1827930088946
20
5.4132729225787
30
0
41
1
10
-10.947483899805
20
5.28253178013958
30
0
41
1
10
-10.5834454180356
20
5.05773403998504
30
0
41
1
10
-10.2439178705042
20
4.80205373514124
30
0
41
1
10
-9.91680582136416
20
4.53064355144804
30
0
41
1
10
-9.75945564033586
20
4.3870761006535
30
0
41
1
10
-9.53315123438247
20
4.15934037540231
30
0
41
1
10
-9.45933976558806
20
4.08136027368144
30
0
41
1
10
-9.35114147531016
20
3.96117214339367
30
0
41
1
10
-9.3154459822964
20
3.92051324995646
30
0
41
1
10
-9.24528651889089
20
3.83854301172633
30
0
41
1
10
-9.21079474785216
20
3.79720387028814
30
0
41
1
10
-9.04126021025354
20
3.58874534224469
30
0
41
1
10
-8.91496798581713
20
3.41635083929177
30
0
41
1
10
-8.681020496972
20
3.06027753813422
30
0
41
1
10
-8.57336408604839
20
2.87659951523889
30
0
41
1
10
-8.3772359796406
20
2.49758251455469
30
0
41
1
10
-8.28875977321569
20
2.30224633672049
30
0
41
1
10
-8.19090987217126
20
2.05030406807342
30
0
41
1
10
-8.17197900693111
20
1.99952589580772
30
0
41
1
10
-8.13542173547241
20
1.89717238781324
30
0
41
1
10
-8.08283436656745
20
1.743256447974
30
0
41
1
10
-8.03692789472026
20
1.58819780942068
30
0
41
1
10
-7.95392293194837
20
1.27657239565909
30
0
41
1
10
-7.91030798153008
20
1.06681498981709
30
0
41
1
10
-7.84653768425611
20
0.643276893043861
30
0
41
1
10
-7.82638053715212
20
0.429496514254083
30
0
41
1
10
-7.81631631923317
20
0.159674034922233
30
0
41
1
10
-7.81506199719578
20
0.105579369051867
30
0
41
1
10
-7.81409015053269
20
-0.0028737044500815
30
0
41
1
10
-7.81437319675588
20
-0.0572605386668386
30
0
41
1
10
-7.81755880079032
20
-0.220644478088502
30
0
41
1
10
-7.82277525436614
20
-0.328966946848027
30
0
41
1
10
-7.84746296604415
20
-0.652180739570952
30
0
41
1
10
-7.87594923909117
20
-0.865322863127545
30
0
41
1
10
-7.95630800773034
20
-1.28707412641489
30
0
41
1
10
-8.008181841157
20
-1.49568299869586
30
0
41
1
10
-8.08768460032425
20
-1.75360766738268
30
0
41
1
10
-8.10431994992541
20
-1.80505044550239
30
0
41
1
10
-8.13906849712916
20
-1.90765026113797
30
0
41
1
10
-8.15720475983562
20
-1.95886904859859
30
0
41
1
10
-8.21368300526692
20
-2.11165355512418
30
0
41
1
10
-8.25395728953424
20
-2.2120054090054
30
0
41
1
10
-8.38238961887276
20
-2.50870137214946
30
0
41
1
10
-8.4781366646145
20
-2.70069746193477
30
0
41
1
10
-8.68906036100974
20
-3.0735966156966
30
0
41
1
10
-8.80423942718984
20
-3.25449823277162
30
0
41
1
10
-8.96024185584497
20
-3.47378565984053
30
0
41
1
10
-8.99204524157095
20
-3.51730033983827
30
0
41
1
10
-9.05686074403253
20
-3.60364317626261
30
0
41
1
10
-9.08991768817489
20
-3.64652703806885
30
0
41
1
10
-9.19051180539971
20
-3.77364846806404
30
0
41
1
10
-9.25945819389402
20
-3.85635639181203
30
0
41
1
10
-9.47177037849679
20
-4.09856885828645
30
0
41
1
10
-9.6205948104224
20
-4.25217769035021
30
0
41
1
10
-9.93224667064815
20
-4.54435140462192
30
0
41
1
10
-10.0950759132297
20
-4.68291418891747
30
0
41
1
10
-10.3497347334147
20
-4.87962948373189
30
0
41
1
10
-10.4363601056144
20
-4.94334291066102
30
0
41
1
10
-10.5689249705618
20
-5.03611365641081
30
0
41
1
10
-10.6135694470831
20
-5.06658050998942
30
0
41
1
10
-10.7033041255229
20
-5.1262941769383
30
0
41
1
10
-10.7484460371651
20
-5.15557803486215
30
0
41
1
10
-10.9755105570488
20
-5.29917424650947
30
0
41
1
10
-11.1614877435895
20
-5.40503944836129
30
0
41
1
10
-11.5418075549666
20
-5.59944607084668
30
0
41
1
10
-11.9304952583305
20
-5.77652393738069
30
0
41
1
10
-12.3358330572194
20
-5.9193062647613
30
0
41
1
10
-12.5944902635224
20
-5.99763500488751
30
0
41
1
10
-12.6465006823284
20
-6.01275565688368
30
0
41
1
10
-12.7505568730331
20
-6.04176095321793
30
0
41
1
10
-12.9068793539395
20
-6.08347114466181
30
0
41
1
10
-13.0639092621459
20
-6.11985234853935
30
0
41
1
10
-13.3788999335694
20
-6.18562537471328
30
0
41
1
10
-13.8013660213365
20
-6.25471573448982
30
0
41
1
10
-14.2287510066471
20
-6.28705443285702
30
0
41
1
10
-14.5511647728049
20
-6.29733269095115
30
0
41
1
10
-14.6589489955701
20
-6.29842568749291
30
0
41
1
10
-14.8211029615543
20
-6.2965055096202
30
0
41
1
10
-14.875233920426
20
-6.29527191363249
30
0
41
1
10
-14.9836568702168
20
-6.29160441950287
30
0
41
1
10
-15.0379567849357
20
-6.28916817398755
30
0
41
1
10
-15.3084918208501
20
-6.27404245388863
30
0
41
1
10
-15.7373760840781
20
-6.23098839657214
30
0
41
1
10
-16.1584914183471
20
-6.15107122839825
30
0
41
1
10
-16.5757056676582
20
-6.05265688836914
30
0
41
1
10
-16.7823625609795
20
-5.99420257299732
30
0
41
1
10
-17.0893298051161
20
-5.8922253830761
30
0
41
1
10
-17.1911483452332
20
-5.85584634942441
30
0
41
1
10
-17.3431002898168
20
-5.79760514749483
30
0
41
1
10
-17.3936857023474
20
-5.77755215252313
30
0
41
1
10
-17.4942077951299
20
-5.73636257832334
30
0
41
1
10
-17.5441454968067
20
-5.71522786403494
30
0
41
1
10
-17.7922267431611
20
-5.60686963019111
30
0
41
1
10
-17.9855596649833
20
-5.51161088869549
30
0
41
1
10
-18.3620229637573
20
-5.3040289508109
30
0
41
1
10
-18.5451538355531
20
-5.19170662187332
30
0
41
1
10
-18.8120277617516
20
-5.01012005360133
30
0
41
1
10
-18.8996797132134
20
-4.94740348819258
30
0
41
1
10
-19.0291549192911
20
-4.84997125366343
30
0
41
1
10
-19.0719793706082
20
-4.81693400133184
30
0
41
1
10
-19.1569510136826
20
-4.74972367237314
30
0
41
1
10
-19.1991361471285
20
-4.71551906421689
30
0
41
1
10
-19.2409013463648
20
-4.68080028297888
30
0
0
SPLINE
5
190
100
AcDbEntity
8
SK1
62
256
6
ByLayer
370
18
48
1
60
0
100
AcDbSpline
70
4
71
3
72
48
73
44
40
0
40
0
40
0
40
0
40
0.0078125000000006
40
0.0078125000000006
40
0.0156250000000012
40
0.0156250000000012
40
0.0234375000000018
40
0.0234375000000018
40
0.0273437500000028
40
0.0273437500000028
40
0.0312500000000038
40
0.0312500000000038
40
0.0468750000000037
40
0.0468750000000037
40
0.0625000000000035
40
0.0625000000000035
40
0.0781250000000034
40
0.0781250000000034
40
0.0937500000000033
40
0.0937500000000033
40
0.125000000000003
40
0.125000000000003
40
0.156250000000003
40
0.156250000000003
40
0.187500000000002
40
0.187500000000002
40
0.250000000000002
40
0.250000000000002
40
0.312500000000002
40
0.312500000000002
40
0.375000000000002
40
0.375000000000002
40
0.437500000000002
40
0.437500000000002
40
0.500000000000001
40
0.500000000000001
40
0.625000000000001
40
0.625000000000001
40
0.750000000000001
40
0.750000000000001
40
0.875
40
0.875
40
1
40
1
40
1
40
1
41
1
10
-39.7785586500779
20
17.105473638729
30
0
41
1
10
-39.7883868929647
20
17.0869438786506
30
0
41
1
10
-39.7998706288387
20
17.069495743786
30
0
41
1
10
-39.8252016759506
20
17.0361437413231
30
0
41
1
10
-39.8390578213015
20
17.0202456455035
30
0
41
1
10
-39.8685800443003
20
16.9896320052656
30
0
41
1
10
-39.8842499492025
20
16.9749189613823
30
0
41
1
10
-39.9088364476932
20
16.9535561143608
30
0
41
1
10
-39.9172164474952
20
16.9465525074986
30
0
41
1
10
-39.9341558223723
20
16.9328735608677
30
0
41
1
10
-39.9427338921213
20
16.9261816343119
30
0
41
1
10
-39.9860999153234
20
16.8933695664994
30
0
41
1
10
-40.0222836011685
20
16.869149523471
30
0
41
1
10
-40.0965785854909
20
16.8233336825257
30
0
41
1
10
-40.1347044611033
20
16.8017577286132
30
0
41
1
10
-40.2123544869191
20
16.7605094806312
30
0
41
1
10
-40.251883830332
20
16.7408442561198
30
0
41
1
10
-40.3320141072487
20
16.7029727545647
30
0
41
1
10
-40.3726666338482
20
16.6847503656303
30
0
41
1
10
-40.4951266360555
20
16.6321508980582
30
0
41
1
10
-40.5776697606833
20
16.5996849645056
30
0
41
1
10
-40.7439405062895
20
16.5381638369784
30
0
41
1
10
-40.8276763429015
20
16.5091322959036
30
0
41
1
10
-40.9960139224065
20
16.4535627358836
30
0
41
1
10
-41.0806186654916
20
16.4270333545151
30
0
41
1
10
-41.33543416251
20
16.3503287324347
30
0
41
1
10
-41.5066306756242
20
16.3029923646989
30
0
41
1
10
-41.8507484759027
20
16.2132876047812
30
0
41
1
10
-42.0236820904266
20
16.170954703059
30
0
41
1
10
-42.3708095889411
20
16.0899195871644
30
0
41
1
10
-42.5450843964524
20
16.0512144952949
30
0
41
1
10
-42.8940811800661
20
15.9767145093995
30
0
41
1
10
-43.0688393204492
20
15.9409154838723
30
0
41
1
10
-43.4187678624608
20
15.8716205899521
30
0
41
1
10
-43.5939388196759
20
15.8381278238252
30
0
41
1
10
-44.1199599676554
20
15.7404894052305
30
0
41
1
10
-44.4713128141199
20
15.6791522483399
30
0
41
1
10
-45.1749837599867
20
15.5618724537128
30
0
41
1
10
-45.5273054366393
20
15.5059497904819
30
0
41
1
10
-46.2326933029751
20
15.3982664363475
30
0
41
1
10
-46.5857610311105
20
15.3465143357811
30
0
41
1
10
-47.2924944621189
20
15.2463538825006
30
0
41
1
10
-47.6461609228117
20
15.1979497612603
30
0
41
1
10
-48.0000748840304
20
15.1509300281974
30
0
0
SPLINE
5
191
100
AcDbEntity
8
SK1
62
256
6
ByLayer
370
18
48
1
60
0
100
AcDbSpline
70
4
71
3
72
30
73
26
40
0
40
0
40
0
40
0
40
0.125
40
0.125
40
0.249999999999999
40
0.249999999999999
40
0.374999999999999
40
0.374999999999999
40
0.499999999999999
40
0.499999999999999
40
0.624999999999998
40
0.624999999999998
40
0.749999999999998
40
0.749999999999998
40
0.812499999999998
40
0.812499999999998
40
0.874999999999999
40
0.874999999999999
40
0.9375
40
0.9375
40
0.968749999999999
40
0.968749999999999
40
0.984374999999999
40
0.984374999999999
40
1
40
1
40
1
40
1
41
1
10
-36.7000000000012
20
19.4142332470882
30
0
41
1
10
-36.8506709106859
20
19.3435959904744
30
0
41
1
10
-37.0000536735529
20
19.2711551023094
30
0
41
1
10
-37.2957818766289
20
19.1220205446586
30
0
41
1
10
-37.44212940243
20
19.0453297953654
30
0
41
1
10
-37.7311755276814
20
18.8868391636468
30
0
41
1
10
-37.8738777626772
20
18.8050443716191
30
0
41
1
10
-38.1547862550161
20
18.6351596349135
30
0
41
1
10
-38.2929993722038
20
18.5470792952141
30
0
41
1
10
-38.563697833774
20
18.3628987351712
30
0
41
1
10
-38.6962321779394
20
18.2667913617457
30
0
41
1
10
-38.9535199055934
20
18.0639873007414
30
0
41
1
10
-39.0766267398937
20
17.9585872209703
30
0
41
1
10
-39.2504780956699
20
17.79268246577
30
0
41
1
10
-39.3066168755561
20
17.7360727507687
30
0
41
1
10
-39.4146820998372
20
17.6198117757011
30
0
41
1
10
-39.4666107278892
20
17.5601620923591
30
0
41
1
10
-39.5654932840106
20
17.4372707102208
30
0
41
1
10
-39.6124508238218
20
17.3740316193071
30
0
41
1
10
-39.6783892375735
20
17.2759252470181
30
0
41
1
10
-39.6996167056854
20
17.2426801340169
30
0
41
1
10
-39.7302067583249
20
17.1919090636152
30
0
41
1
10
-39.7401947032163
20
17.1748346518554
30
0
41
1
10
-39.7597296975044
20
17.1403674767898
30
0
41
1
10
-39.7692891468386
20
17.1229499743315
30
0
41
1
10
-39.7785586500779
20
17.105473638729
30
0
0
SPLINE
5
192
100
AcDbEntity
8
SK1
62
256
6
ByLayer
370
18
48
1
60
0
100
AcDbSpline
70
4
71
3
72
50
73
46
40
0
40
0
40
0
40
0
40
0.0156250000000041
40
0.0156250000000041
40
0.0234375000000062
40
0.0234375000000062
40
0.0312500000000083
40
0.0312500000000083
40
0.0468750000000125
40
0.0468750000000125
40
0.0546875000000146
40
0.0546875000000146
40
0.0625000000000168
40
0.0625000000000168
40
0.0781250000000201
40
0.0781250000000201
40
0.0937500000000234
40
0.0937500000000234
40
0.109375000000027
40
0.109375000000027
40
0.12500000000003
40
0.12500000000003
40
0.156250000000032
40
0.156250000000032
40
0.187500000000033
40
0.187500000000033
40
0.218750000000035
40
0.218750000000035
40
0.250000000000036
40
0.250000000000036
40
0.312500000000035
40
0.312500000000035
40
0.375000000000033
40
0.375000000000033
40
0.500000000000032
40
0.500000000000032
40
0.562500000000031
40
0.562500000000031
40
0.625000000000028
40
0.625000000000028
40
0.750000000000019
40
0.750000000000019
40
0.875000000000009
40
0.875000000000009
40
1
40
1
40
1
40
1
41
1
10
-36.7
20
19.4142332470865
30
0
41
1
10
-36.6861760057712
20
19.4207141863955
30
0
41
1
10
-36.6719236192518
20
19.4260465909751
30
0
41
1
10
-36.6497726064996
20
19.4319758874597
30
0
41
1
10
-36.6422597446633
20
19.4336062202175
30
0
41
1
10
-36.6269468849827
20
19.4360978205187
30
0
41
1
10
-36.6191045834998
20
19.4369555929309
30
0
41
1
10
-36.5958394754029
20
19.4382285407587
30
0
41
1
10
-36.5804742375449
20
19.4373956603854
30
0
41
1
10
-36.5576335628327
20
19.4337398230236
30
0
41
1
10
-36.5501004416419
20
19.4321227207492
30
0
41
1
10
-36.5354423486815
20
19.4282275866194
30
0
41
1
10
-36.5282751131219
20
19.4259432544896
30
0
41
1
10
-36.5072050500108
20
19.4181913451318
30
0
41
1
10
-36.49368013741
20
19.4117831174059
30
0
41
1
10
-36.4683289496342
20
19.3975183964502
30
0
41
1
10
-36.4563799297748
20
19.3896240797724
30
0
41
1
10
-36.4335727273276
20
19.3726884654723
30
0
41
1
10
-36.4226910078859
20
19.3636198862768
30
0
41
1
10
-36.4019102061098
20
19.3446747870443
30
0
41
1
10
-36.3920943798004
20
19.3348797465123
30
0
41
1
10
-36.3639622379691
20
19.3047526667043
30
0
41
1
10
-36.3469408538926
20
19.2836899489269
30
0
41
1
10
-36.3151727496401
20
19.2402657011629
30
0
41
1
10
-36.3004429011484
20
19.2178948326801
30
0
41
1
10
-36.272663942593
20
19.1721807806508
30
0
41
1
10
-36.25959332707
20
19.1487773381517
30
0
41
1
10
-36.2349763421032
20
19.1016194564547
30
0
41
1
10
-36.2234077468715
20
19.0778312218298
30
0
41
1
10
-36.1904370426651
20
19.0059623753401
30
0
41
1
10
-36.1707455744194
20
18.957383876881
30
0
41
1
10
-36.1344790632362
20
18.8592670628977
30
0
41
1
10
-36.1179231578379
20
18.8097238386195
30
0
41
1
10
-36.0717993238638
20
18.6599407469209
30
0
41
1
10
-36.0457186531499
20
18.5585618780058
30
0
41
1
10
-36.0112013735234
20
18.4048113396307
30
0
41
1
10
-36.000479058284
20
18.3532493149118
30
0
41
1
10
-35.9804074810478
20
18.2497311456199
30
0
41
1
10
-35.9710667512765
20
18.1978199641581
30
0
41
1
10
-35.9448540024586
20
18.0416596179637
30
0
41
1
10
-35.9297771234306
20
17.9369852132964
30
0
41
1
10
-35.9034606976512
20
17.7266028675496
30
0
41
1
10
-35.8922289556274
20
17.6208940794778
30
0
41
1
10
-35.8730490415186
20
17.4085001034913
30
0
41
1
10
-35.8651043543943
20
17.3018145402525
30
0
41
1
10
-35.8586343515166
20
17.1946572418061
30
0
0
SPLINE
5
193
100
AcDbEntity
8
SK1
62
256
6
ByLayer
370
18
48
1
60
0
100
AcDbSpline
70
4
71
3
72
34
73
30
40
0
40
0
40
0
40
0
40
0.0312500000000009
40
0.0312500000000009
40
0.0625000000000018
40
0.0625000000000018
40
0.125000000000003
40
0.125000000000003
40
0.187500000000004
40
0.187500000000004
40
0.250000000000005
40
0.250000000000005
40
0.312500000000006
40
0.312500000000006
40
0.375000000000006
40
0.375000000000006
40
0.500000000000005
40
0.500000000000005
40
0.625000000000004
40
0.625000000000004
40
0.750000000000002
40
0.750000000000002
40
0.875000000000001
40
0.875000000000001
40
0.906250000000001
40
0.906250000000001
40
0.937500000000001
40
0.937500000000001
40
1
40
1
40
1
40
1
41
1
10
-35.8586343515165
20
17.1946572418061
30
0
41
1
10
-35.8559584193055
20
17.1503379931163
30
0
41
1
10
-35.8518135153312
20
17.1057842589036
30
0
41
1
10
-35.8409285844263
20
17.0175175259386
30
0
41
1
10
-35.8341896585342
20
16.9736809217993
30
0
41
1
10
-35.8106132186994
20
16.8429260451309
30
0
41
1
10
-35.7904281681569
20
16.7567598594975
30
0
41
1
10
-35.7439822297338
20
16.5856946103415
30
0
41
1
10
-35.7177324522673
20
16.5007924769466
30
0
41
1
10
-35.6615604551229
20
16.3316255799075
30
0
41
1
10
-35.6316363321779
20
16.2473612214195
30
0
41
1
10
-35.5699034913987
20
16.0789968590794
30
0
41
1
10
-35.538089846345
20
15.9948981021156
30
0
41
1
10
-35.4738846774948
20
15.8265154269156
30
0
41
1
10
-35.4414888109945
20
15.7422326283613
30
0
41
1
10
-35.3448966005916
20
15.4887100961112
30
0
41
1
10
-35.2813492424227
20
15.3187508376936
30
0
41
1
10
-35.1616455253844
20
14.976018263385
30
0
41
1
10
-35.1054245298171
20
14.8032167023364
30
0
41
1
10
-35.0042274646479
20
14.4537942396516
30
0
41
1
10
-34.9592222794926
20
14.2771799291451
30
0
41
1
10
-34.8839372794759
20
13.9192741534024
30
0
41
1
10
-34.8536295063491
20
13.737989274059
30
0
41
1
10
-34.8273626619223
20
13.5078533741244
30
0
41
1
10
-34.8226923405657
20
13.4616491385254
30
0
41
1
10
-34.8145899823544
20
13.3688683612668
30
0
41
1
10
-34.8111615157959
20
13.3223104824079
30
0
41
1
10
-34.8028771809869
20
13.1827286483873
30
0
41
1
10
-34.8
20
13.0895838777266
30
0
41
1
10
-34.8
20
12.9963548261142
30
0
0
SPLINE
5
194
100
AcDbEntity
8
SK1
62
256
6
ByLayer
370
18
48
1
60
0
100
AcDbSpline
70
4
71
3
72
35
73
31
40
0
40
0
40
0
40
0
40
0.125
40
0.125
40
0.15625
40
0.15625
40
0.1875
40
0.1875
40
0.250000000000001
40
0.375000000000002
40
0.375000000000002
40
0.500000000000004
40
0.500000000000004
40
0.625000000000006
40
0.625000000000006
40
0.687500000000005
40
0.687500000000005
40
0.750000000000005
40
0.750000000000005
40
0.812500000000004
40
0.812500000000004
40
0.875000000000003
40
0.875000000000003
40
0.937500000000002
40
0.937500000000002
40
0.968750000000001
40
0.968750000000001
40
0.984375000000001
40
0.984375000000001
40
1
40
1
40
1
40
1
41
1
10
-34.7999999999984
20
-12.9963548261141
30
0
41
1
10
-34.7999999999984
20
-13.1820086008931
30
0
41
1
10
-34.8113752349115
20
-13.366960460405
30
0
41
1
10
-34.8375484982553
20
-13.5972937741035
30
0
41
1
10
-34.843383173842
20
-13.6433175854761
30
0
41
1
10
-34.8562032185263
20
-13.7352799445354
30
0
41
1
10
-34.8631777211468
20
-13.7811356045941
30
0
41
1
10
-34.8856551533141
20
-13.9180652635585
30
0
41
1
10
-34.9368709078829
20
-14.1897354422286
30
0
41
1
10
-35.0046683944265
20
-14.4554797782705
30
0
41
1
10
-35.1061566764919
20
-14.8055797722816
30
0
41
1
10
-35.1624762714222
20
-14.9785090775488
30
0
41
1
10
-35.2822564149997
20
-15.321234345225
30
0
41
1
10
-35.3457663592273
20
-15.4910177031897
30
0
41
1
10
-35.44232896754
20
-15.7444251236173
30
0
41
1
10
-35.4747192528437
20
-15.8286920336189
30
0
41
1
10
-35.5389019557738
20
-15.9970403588482
30
0
41
1
10
-35.5706977654659
20
-16.0811185077804
30
0
41
1
10
-35.6323745094633
20
-16.2494201568426
30
0
41
1
10
-35.6622601976974
20
-16.3336425127288
30
0
41
1
10
-35.7183295371422
20
-16.5026831664858
30
0
41
1
10
-35.7445146828819
20
-16.5875011810116
30
0
41
1
10
-35.7908104605038
20
-16.7583254713381
30
0
41
1
10
-35.8109093910155
20
-16.8443348190529
30
0
41
1
10
-35.8343641126822
20
-16.974767766789
30
0
41
1
10
-35.8410639870567
20
-17.0184825127236
30
0
41
1
10
-35.8491770503114
20
-17.0844733545067
30
0
41
1
10
-35.851560862142
20
-17.1065696696713
30
0
41
1
10
-35.8556241446377
20
-17.150659559987
30
0
41
1
10
-35.8573070264645
20
-17.1726738564148
30
0
41
1
10
-35.8586343515166
20
-17.1946572418061
30
0
0
SPLINE
5
195
100
AcDbEntity
8
SK1
62
256
6
ByLayer
370
18
48
1
60
0
100
AcDbSpline
70
4
71
3
72
53
73
49
40
0
40
0
40
0
40
0
40
0.125000000000009
40
0.125000000000009
40
0.250000000000018
40
0.250000000000018
40
0.375000000000027
40
0.375000000000027
40
0.500000000000036
40
0.500000000000036
40
0.56250000000004
40
0.56250000000004
40
0.625000000000044
40
0.625000000000044
40
0.687500000000048
40
0.687500000000048
40
0.750000000000052
40
0.750000000000052
40
0.781250000000057
40
0.781250000000057
40
0.812500000000061
40
0.812500000000061
40
0.843750000000065
40
0.843750000000065
40
0.859375000000065
40
0.859375000000065
40
0.875000000000064
40
0.875000000000064
40
0.890625000000064
40
0.890625000000064
40
0.906250000000063
40
0.906250000000063
40
0.921875000000063
40
0.921875000000063
40
0.929687500000059
40
0.929687500000059
40
0.937500000000055
40
0.937500000000055
40
0.953125000000041
40
0.953125000000041
40
0.960937500000034
40
0.960937500000034
40
0.968750000000028
40
0.976562500000021
40
0.976562500000021
40
0.984375000000014
40
0.984375000000014
40
1
40
1
40
1
40
1
41
1
10
-35.8586343515166
20
-17.194657241806
30
0
41
1
10
-35.8651125253091
20
-17.3019498683464
30
0
41
1
10
-35.8730706664918
20
-17.4087969537027
30
0
41
1
10
-35.8922952164599
20
-17.6215701935716
30
0
41
1
10
-35.9035580249498
20
-17.7274966815698
30
0
41
1
10
-35.929965916401
20
-17.9383774793526
30
0
41
1
10
-35.9451115784075
20
-18.0433708359859
30
0
41
1
10
-35.9801692490796
20
-18.2518674659164
30
0
41
1
10
-36.0000660624961
20
-18.3554151508125
30
0
41
1
10
-36.0347251698217
20
-18.5094884756946
30
0
41
1
10
-36.0470910668221
20
-18.5606474844105
30
0
41
1
10
-36.0737458436704
20
-18.6623158677291
30
0
41
1
10
-36.0880353040462
20
-18.7128448552097
30
0
41
1
10
-36.1190453147576
20
-18.8131769028973
30
0
41
1
10
-36.1357739919787
20
-18.8630213405454
30
0
41
1
10
-36.1723879566553
20
-18.9615553214735
30
0
41
1
10
-36.1922524083733
20
-19.0102499187499
30
0
41
1
10
-36.2254530127539
20
-19.0821011328217
30
0
41
1
10
-36.237092367644
20
-19.1058445793306
30
0
41
1
10
-36.2617133838334
20
-19.1526348054178
30
0
41
1
10
-36.2747017598709
20
-19.1757047902036
30
0
41
1
10
-36.3024541661226
20
-19.2210072823536
30
0
41
1
10
-36.31721068376
20
-19.2432431629476
30
0
41
1
10
-36.3412050697223
20
-19.2757329958473
30
0
41
1
10
-36.349530580612
20
-19.2864339532835
30
0
41
1
10
-36.3668349878878
20
-19.3073432067548
30
0
41
1
10
-36.3758199488158
20
-19.3175628281677
30
0
41
1
10
-36.39460871507
20
-19.3374265642425
30
0
41
1
10
-36.4044111449382
20
-19.3470716301127
30
0
41
1
10
-36.4250597636567
20
-19.3656313125229
30
0
41
1
10
-36.4359396417665
20
-19.3745668416377
30
0
41
1
10
-36.4586797126456
20
-19.3911833454563
30
0
41
1
10
-36.4705699724762
20
-19.3989001018392
30
0
41
1
10
-36.4894292360814
20
-19.4093140086116
30
0
41
1
10
-36.4958873668756
20
-19.4125905719434
30
0
41
1
10
-36.5092063851307
20
-19.4186873834779
30
0
41
1
10
-36.5160828537312
20
-19.4215097663828
30
0
41
1
10
-36.5369931390842
20
-19.4290231230203
30
0
41
1
10
-36.5514231793388
20
-19.4328275378891
30
0
41
1
10
-36.5739740305013
20
-19.4363092390636
30
0
41
1
10
-36.5816551849831
20
-19.4370904721247
30
0
41
1
10
-36.5968910752274
20
-19.4378204458053
30
0
41
1
10
-36.6121084935618
20
-19.4377392552412
30
0
41
1
10
-36.6272893272114
20
-19.436051353042
30
0
41
1
10
-36.6424519815496
20
-19.433565356369
30
0
41
1
10
-36.6500289138024
20
-19.4319156977797
30
0
41
1
10
-36.672157680472
20
-19.4259666697169
30
0
41
1
10
-36.6863182000225
20
-19.4206475231505
30
0
41
1
10
-36.7
20
-19.4142332470865
30
0
0
SPLINE
5
196
100
AcDbEntity
8
SK1
62
256
6
ByLayer
370
18
48
1
60
0
100
AcDbSpline
70
4
71
3
72
31
73
27
40
0
40
0
40
0
40
0
40
0.0625000000000051
40
0.0625000000000051
40
0.0937500000000083
40
0.0937500000000083
40
0.125000000000011
40
0.125000000000011
40
0.187500000000016
40
0.187500000000016
40
0.25000000000002
40
0.25000000000002
40
0.375000000000026
40
0.375000000000026
40
0.406250000000026
40
0.406250000000026
40
0.437500000000026
40
0.500000000000026
40
0.500000000000026
40
0.625000000000019
40
0.625000000000019
40
0.750000000000013
40
0.750000000000013
40
0.875000000000006
40
0.875000000000006
40
1
40
1
40
1
40
1
41
1
10
-39.7785586500777
20
-17.1054736387291
30
0
41
1
10
-39.7420135132629
20
-17.1743743186386
30
0
41
1
10
-39.7013435112426
20
-17.2417062927019
30
0
41
1
10
-39.6349145568992
20
-17.3406414993284
30
0
41
1
10
-39.6118589355901
20
-17.3732760445122
30
0
41
1
10
-39.5644953741202
20
-17.4373226687696
30
0
41
1
10
-39.5401354226451
20
-17.4688147300907
30
0
41
1
10
-39.4652088568988
20
-17.5618442770611
30
0
41
1
10
-39.4128024228367
20
-17.6219405242557
30
0
41
1
10
-39.3038758546268
20
-17.7389105167545
30
0
41
1
10
-39.2473532114456
20
-17.7957822965859
30
0
41
1
10
-39.0725124281239
20
-17.9622671013032
30
0
41
1
10
-38.9489640172808
20
-18.0677829492253
30
0
41
1
10
-38.7878962133652
20
-18.19448229816
30
0
41
1
10
-38.7554040677724
20
-18.2195145105686
30
0
41
1
10
-38.6900343482127
20
-18.2689091475386
30
0
41
1
10
-38.5913376101883
20
-18.3420450938379
30
0
41
1
10
-38.4908601460203
20
-18.4125299968088
30
0
41
1
10
-38.2878442899952
20
-18.5504316113724
30
0
41
1
10
-38.1497665386202
20
-18.6382960253519
30
0
41
1
10
-37.8693486843642
20
-18.8076793079475
30
0
41
1
10
-37.7270017669673
20
-18.8891880315021
30
0
41
1
10
-37.4388542126726
20
-19.0470637783703
30
0
41
1
10
-37.2930499954405
20
-19.123425471487
30
0
41
1
10
-36.9985709173269
20
-19.2718752074892
30
0
41
1
10
-36.8498940160613
20
-19.3439602127677
30
0
41
1
10
-36.7
20
-19.4142332470865
30
0
0
SPLINE
5
197
100
AcDbEntity
8
SK1
62
256
6
ByLayer
370
18
48
1
60
0
100
AcDbSpline
70
4
71
3
72
48
73
44
40
0
40
0
40
0
40
0
40
0.124999999999999
40
0.124999999999999
40
0.249999999999999
40
0.249999999999999
40
0.374999999999998
40
0.374999999999998
40
0.499999999999997
40
0.499999999999997
40
0.562499999999998
40
0.562499999999998
40
0.624999999999998
40
0.624999999999998
40
0.687499999999999
40
0.687499999999999
40
0.75
40
0.75
40
0.8125
40
0.8125
40
0.84375
40
0.84375
40
0.859375
40
0.859375
40
0.875000000000001
40
0.875000000000001
40
0.906250000000003
40
0.906250000000003
40
0.921875000000003
40
0.921875000000003
40
0.937500000000004
40
0.937500000000004
40
0.953125000000004
40
0.953125000000004
40
0.960937500000004
40
0.960937500000004
40
0.968750000000004
40
0.968750000000004
40
0.984375000000002
40
0.984375000000002
40
0.992187500000001
40
0.992187500000001
40
1
40
1
40
1
40
1
41
1
10
-48.0000748840304
20
-15.1509300281955
30
0
41
1
10
-47.6460405927925
20
-15.1979657478709
30
0
41
1
10
-47.292223842915
20
-15.2463907462232
30
0
41
1
10
-46.5851175689653
20
-15.3466070204281
30
0
41
1
10
-46.2318273716375
20
-15.3983940019915
30
0
41
1
10
-45.5259049550136
20
-15.5061682265971
30
0
41
1
10
-45.1732713653402
20
-15.5621467288276
30
0
41
1
10
-44.4688609753126
20
-15.6795720858172
30
0
41
1
10
-44.1171794574753
20
-15.7409832537297
30
0
41
1
10
-43.5908517639608
20
-15.8387121067675
30
0
41
1
10
-43.415605614749
20
-15.8722322406821
30
0
41
1
10
-43.0655921872912
20
-15.9415733251309
30
0
41
1
10
-42.8908240547219
20
-15.9773912686387
30
0
41
1
10
-42.5418898973667
20
-16.0519153035402
30
0
41
1
10
-42.3678156590378
20
-16.0905957763217
30
0
41
1
10
-42.0206970450963
20
-16.1716746694564
30
0
41
1
10
-41.8476488839358
20
-16.2140594309547
30
0
41
1
10
-41.5029798735418
20
-16.3039809490509
30
0
41
1
10
-41.3312906827041
20
-16.3515015451365
30
0
41
1
10
-41.0759997990782
20
-16.4284624378915
30
0
41
1
10
-40.9912622414464
20
-16.4550783693439
30
0
41
1
10
-40.8648597213934
20
-16.496886587635
30
0
41
1
10
-40.8228435336975
20
-16.5111385418591
30
0
41
1
10
-40.7390862168165
20
-16.5403788353785
30
0
41
1
10
-40.6973198265769
20
-16.5553761976308
30
0
41
1
10
-40.5727061907877
20
-16.6016038697935
30
0
41
1
10
-40.4905868500921
20
-16.6340134924543
30
0
41
1
10
-40.36952332621
20
-16.686147158331
30
0
41
1
10
-40.3295250727082
20
-16.7041176953476
30
0
41
1
10
-40.2504328597638
20
-16.7415630613419
30
0
41
1
10
-40.2113367917097
20
-16.7610343830399
30
0
41
1
10
-40.1343408655784
20
-16.8019668618726
30
0
41
1
10
-40.0964359784363
20
-16.8234196540909
30
0
41
1
10
-40.0408445012794
20
-16.8577044725609
30
0
41
1
10
-40.0225268961627
20
-16.8694868634537
30
0
41
1
10
-39.9864180003869
20
-16.8939271101681
30
0
41
1
10
-39.9685725159329
20
-16.9066249300936
30
0
41
1
10
-39.9164550314443
20
-16.9460779567
30
0
41
1
10
-39.8836877169987
20
-16.9740112926895
30
0
41
1
10
-39.8393708450653
20
-17.0198986815609
30
0
41
1
10
-39.8253912744847
20
-17.0358999806561
30
0
41
1
10
-39.7997740867776
20
-17.0696170033919
30
0
41
1
10
-39.7882930445471
20
-17.0871208165507
30
0
41
1
10
-39.7785586500778
20
-17.1054736387292
30
0
0
LINE
5
91
100
AcDbEntity
8
80
62
256
6
ByLayer
370
18
48
1
60
0
100
AcDbLine
10
0
20
0
30
0
11
-5
21
0
31
0
39
0
210
0
220
0
230
1
0
LINE
5
92
100
AcDbEntity
8
4
62
256
6
ByLayer
370
18
48
0.05
60
0
100
AcDbLine
10
0
20
0
30
0
11
50
21
0
31
0
39
0
210
0
220
0
230
1
0
LINE
5
94
100
AcDbEntity
8
81
62
256
6
ByLayer
370
18
48
1
60
0
100
AcDbLine
10
50
20
0
30
0
11
55
21
0
31
0
39
0
210
0
220
0
230
1
0
LINE
5
95
100
AcDbEntity
8
SK4
62
256
6
ByLayer
370
18
48
0.05
60
0
100
AcDbLine
10
0
20
0
30
0
11
50
21
0
31
0
39
0
210
0
220
0
230
1
0
LINE
5
97
100
AcDbEntity
8
1
62
256
6
ByLayer
370
18
48
1
60
0
100
AcDbLine
10
21.525
20
45.975
30
0
11
18.475
21
45.975
31
0
39
0
210
0
220
0
230
1
0
LINE
5
98
100
AcDbEntity
8
1
62
256
6
ByLayer
370
18
48
1
60
0
100
AcDbLine
10
51.214791
20
13.14675
30
0
11
50.375
21
13.14675
31
0
39
0
210
0
220
0
230
1
0
LINE
5
99
100
AcDbEntity
8
1
62
256
6
ByLayer
370
18
48
1
60
0
100
AcDbLine
10
50.375
20
-13.14675
30
0
11
51.214791
21
-13.14675
31
0
39
0
210
0
220
0
230
1
0
LINE
5
9A
100
AcDbEntity
8
1
62
256
6
ByLayer
370
18
48
1
60
0
100
AcDbLine
10
51.370082
20
-13.167195
30
0
11
52.6
21
-13.49675
31
0
39
0
210
0
220
0
230
1
0
LINE
5
9B
100
AcDbEntity
8
1
62
256
6
ByLayer
370
18
48
1
60
0
100
AcDbLine
10
52.6
20
13.49675
30
0
11
51.370082
21
13.167195
31
0
39
0
210
0
220
0
230
1
0
LINE
5
9C
100
AcDbEntity
8
1
62
256
6
ByLayer
370
18
48
1
60
0
100
AcDbLine
10
67
20
13.49675
30
0
11
52.6
21
13.49675
31
0
39
0
210
0
220
0
230
1
0
LINE
5
9D
100
AcDbEntity
8
1
62
256
6
ByLayer
370
18
48
1
60
0
100
AcDbLine
10
52.6
20
-13.49675
30
0
11
67
21
-13.49675
31
0
39
0
210
0
220
0
230
1
0
LINE
5
9E
100
AcDbEntity
8
1
62
256
6
ByLayer
370
18
48
1
60
0
100
AcDbLine
10
68
20
12.9194
30
0
11
67
21
13.49675
31
0
39
0
210
0
220
0
230
1
0
LINE
5
9F
100
AcDbEntity
8
1
62
256
6
ByLayer
370
18
48
1
60
0
100
AcDbLine
10
67
20
-13.49675
30
0
11
68
21
-12.9194
31
0
39
0
210
0
220
0
230
1
0
LINE
5
A0
100
AcDbEntity
8
1
62
256
6
ByLayer
370
18
48
1
60
0
100
AcDbLine
10
31.95
20
-31.5
30
0
11
49.5
21
-31.5
31
0
39
0
210
0
220
0
230
1
0
LINE
5
A1
100
AcDbEntity
8
1
62
256
6
ByLayer
370
18
48
1
60
0
100
AcDbLine
10
49.5
20
31.5
30
0
11
31.95
21
31.5
31
0
39
0
210
0
220
0
230
1
0
LINE
5
A2
100
AcDbEntity
8
1
62
256
6
ByLayer
370
18
48
1
60
0
100
AcDbLine
10
50
20
31
30
0
11
49.5
21
31.5
31
0
39
0
210
0
220
0
230
1
0
LINE
5
A3
100
AcDbEntity
8
1
62
256
6
ByLayer
370
18
48
1
60
0
100
AcDbLine
10
49.5
20
-31.5
30
0
11
50
21
-31
31
0
39
0
210
0
220
0
230
1
0
LINE
5
A4
100
AcDbEntity
8
1
62
256
6
ByLayer
370
18
48
1
60
0
100
AcDbLine
10
18.475
20
-45.975
30
0
11
21.525
21
-45.975
31
0
39
0
210
0
220
0
230
1
0
LINE
5
A5
100
AcDbEntity
8
1
62
256
6
ByLayer
370
18
48
1
60
0
100
AcDbLine
10
16.758178
20
-49.965
30
0
11
18.075
21
-47.684198
31
0
39
0
210
0
220
0
230
1
0
LINE
5
A6
100
AcDbEntity
8
1
62
256
6
ByLayer
370
18
48
1
60
0
100
AcDbLine
10
28.25
20
49.965
30
0
11
23.241822
21
49.965
31
0
39
0
210
0
220
0
230
1
0
LINE
5
A7
100
AcDbEntity
8
1
62
256
6
ByLayer
370
18
48
1
60
0
100
AcDbLine
10
28.95
20
49.265
30
0
11
28.25
21
49.965
31
0
39
0
210
0
220
0
230
1
0
LINE
5
A8
100
AcDbEntity
8
1
62
256
6
ByLayer
370
18
48
1
60
0
100
AcDbLine
10
23.241822
20
49.965
30
0
11
21.925
21
47.684198
31
0
39
0
210
0
220
0
230
1
0
LINE
5
A9
100
AcDbEntity
8
1
62
256
6
ByLayer
370
18
48
1
60
0
100
AcDbLine
10
18.075
20
47.684198
30
0
11
16.758178
21
49.965
31
0
39
0
210
0
220
0
230
1
0
LINE
5
AA
100
AcDbEntity
8
1
62
256
6
ByLayer
370
18
48
1
60
0
100
AcDbLine
10
28.25
20
-49.965
30
0
11
28.95
21
-49.265
31
0
39
0
210
0
220
0
230
1
0
LINE
5
AB
100
AcDbEntity
8
1
62
256
6
ByLayer
370
18
48
1
60
0
100
AcDbLine
10
23.241822
20
-49.965
30
0
11
28.25
21
-49.965
31
0
39
0
210
0
220
0
230
1
0
LINE
5
AC
100
AcDbEntity
8
1
62
256
6
ByLayer
370
18
48
1
60
0
100
AcDbLine
10
21.925
20
-47.684198
30
0
11
23.241822
21
-49.965
31
0
39
0
210
0
220
0
230
1
0
LINE
5
AD
100
AcDbEntity
8
1
62
256
6
ByLayer
370
18
48
1
60
0
100
AcDbLine
10
0
20
-49.265
30
0
11
0.7
21
-49.965
31
0
39
0
210
0
220
0
230
1
0
LINE
5
AE
100
AcDbEntity
8
1
62
256
6
ByLayer
370
18
48
1
60
0
100
AcDbLine
10
0.7
20
49.965
30
0
11
0
21
49.265
31
0
39
0
210
0
220
0
230
1
0
LINE
5
AF
100
AcDbEntity
8
1
62
256
6
ByLayer
370
18
48
1
60
0
100
AcDbLine
10
16.758178
20
49.965
30
0
11
0.7
21
49.965
31
0
39
0
210
0
220
0
230
1
0
LINE
5
B0
100
AcDbEntity
8
1
62
256
6
ByLayer
370
18
48
1
60
0
100
AcDbLine
10
0.7
20
-49.965
30
0
11
1.992886
21
-49.965
31
0
39
0
210
0
220
0
230
1
0
LINE
5
B1
100
AcDbEntity
8
1
62
256
6
ByLayer
370
18
48
1
60
0
100
AcDbLine
10
12.0225
20
-49.965
30
0
11
16.758178
21
-49.965
31
0
39
0
210
0
220
0
230
1
0
LINE
5
B2
100
AcDbEntity
8
SK2
62
256
6
ByLayer
370
18
48
1
60
0
100
AcDbLine
10
76
20
16
30
0
11
75
21
17
31
0
39
0
210
0
220
0
230
1
0
LINE
5
B4
100
AcDbEntity
8
SK2
62
256
6
ByLayer
370
18
48
1
60
0
100
AcDbLine
10
75
20
-17
30
0
11
76
21
-16
31
0
39
0
210
0
220
0
230
1
0
LINE
5
B5
100
AcDbEntity
8
SK2
62
256
6
ByLayer
370
18
48
1
60
0
100
AcDbLine
10
75
20
17
30
0
11
71
21
17
31
0
39
0
210
0
220
0
230
1
0
LINE
5
B6
100
AcDbEntity
8
SK2
62
256
6
ByLayer
370
18
48
1
60
0
100
AcDbLine
10
71
20
-17
30
0
11
75
21
-17
31
0
39
0
210
0
220
0
230
1
0
LINE
5
B7
100
AcDbEntity
8
SK2
62
256
6
ByLayer
370
18
48
1
60
0
100
AcDbLine
10
70.999434
20
6
30
0
11
67.999941
21
6
31
0
39
0
210
0
220
0
230
1
0
LINE
5
B8
100
AcDbEntity
8
SK2
62
256
6
ByLayer
370
18
48
1
60
0
100
AcDbLine
10
67.999941
20
-6
30
0
11
70.999434
21
-6
31
0
39
0
210
0
220
0
230
1
0
LINE
5
B9
100
AcDbEntity
8
SK2
62
256
6
ByLayer
370
18
48
1
60
0
100
AcDbLine
10
83
20
9
30
0
11
76
21
9
31
0
39
0
210
0
220
0
230
1
0
LINE
5
BA
100
AcDbEntity
8
SK2
62
256
6
ByLayer
370
18
48
1
60
0
100
AcDbLine
10
76
20
-9
30
0
11
83
21
-9
31
0
39
0
210
0
220
0
230
1
0
LINE
5
BB
100
AcDbEntity
8
SK1
62
256
6
ByLayer
370
18
48
1
60
0
100
AcDbLine
10
-0.8
20
37.632252
30
0
11
-2.066987
21
37.632252
31
0
39
0
210
0
220
0
230
1
0
LINE
5
BD
100
AcDbEntity
8
SK1
62
256
6
ByLayer
370
18
48
1
60
0
100
AcDbLine
10
-2.066987
20
-37.632252
30
0
11
-0.8
21
-37.632252
31
0
39
0
210
0
220
0
230
1
0
LINE
5
BE
100
AcDbEntity
8
SK1
62
256
6
ByLayer
370
18
48
1
60
0
100
AcDbLine
10
-2.066987
20
37.632252
30
0
11
-2.5
21
37.882252
31
0
39
0
210
0
220
0
230
1
0
LINE
5
BF
100
AcDbEntity
8
SK1
62
256
6
ByLayer
370
18
48
1
60
0
100
AcDbLine
10
-2.5
20
-37.882252
30
0
11
-2.066987
21
-37.632252
31
0
39
0
210
0
220
0
230
1
0
LINE
5
C0
100
AcDbEntity
8
SK1
62
256
6
ByLayer
370
18
48
1
60
0
100
AcDbLine
10
-48.000075
20
-35.602689
30
0
11
-2.5
21
-37.882252
31
0
39
0
210
0
220
0
230
1
0
LINE
5
C1
100
AcDbEntity
8
SK1
62
256
6
ByLayer
370
18
48
1
60
0
100
AcDbLine
10
-2.5
20
37.882252
30
0
11
-48.000075
21
35.602689
31
0
39
0
210
0
220
0
230
1
0
LINE
5
C2
100
AcDbEntity
8
1
62
256
6
ByLayer
370
13
48
1
60
0
100
AcDbLine
10
51.214791
20
13.14675
30
0
11
51.214791
21
5.990339
31
0
39
0
210
0
220
0
230
1
0
LINE
5
C3
100
AcDbEntity
8
1
62
256
6
ByLayer
370
13
48
1
60
0
100
AcDbLine
10
51.214791
20
-5.990339
30
0
11
51.214791
21
-13.14675
31
0
39
0
210
0
220
0
230
1
0
LINE
5
C4
100
AcDbEntity
8
1
62
256
6
ByLayer
370
13
48
1
60
0
100
AcDbLine
10
51.370082
20
-13.167195
30
0
11
51.370082
21
-5.989296
31
0
39
0
210
0
220
0
230
1
0
LINE
5
C5
100
AcDbEntity
8
1
62
256
6
ByLayer
370
13
48
1
60
0
100
AcDbLine
10
51.370082
20
5.989296
30
0
11
51.370082
21
13.167195
31
0
39
0
210
0
220
0
230
1
0
LINE
5
C6
100
AcDbEntity
8
1
62
256
6
ByLayer
370
18
48
1
60
0
100
AcDbLine
10
52.6
20
-13.49675
30
0
11
52.6
21
-5.988863
31
0
39
0
210
0
220
0
230
1
0
LINE
5
C7
100
AcDbEntity
8
1
62
256
6
ByLayer
370
18
48
1
60
0
100
AcDbLine
10
52.6
20
5.988863
30
0
11
52.6
21
13.49675
31
0
39
0
210
0
220
0
230
1
0
LINE
5
C8
100
AcDbEntity
8
1
62
256
6
ByLayer
370
18
48
1
60
0
100
AcDbLine
10
67
20
13.49675
30
0
11
67
21
0
31
0
39
0
210
0
220
0
230
1
0
LINE
5
C9
100
AcDbEntity
8
1
62
256
6
ByLayer
370
18
48
1
60
0
100
AcDbLine
10
67
20
0
30
0
11
67
21
-13.49675
31
0
39
0
210
0
220
0
230
1
0
LINE
5
CA
100
AcDbEntity
8
1
62
256
6
ByLayer
370
18
48
1
60
0
100
AcDbLine
10
68
20
12.9194
30
0
11
68
21
0
31
0
39
0
210
0
220
0
230
1
0
LINE
5
CB
100
AcDbEntity
8
1
62
256
6
ByLayer
370
18
48
1
60
0
100
AcDbLine
10
68
20
0
30
0
11
68
21
-12.9194
31
0
39
0
210
0
220
0
230
1
0
LINE
5
CC
100
AcDbEntity
8
1
62
256
6
ByLayer
370
13
48
1
60
0
100
AcDbLine
10
50.375
20
13.14675
30
0
11
50.375
21
5.98919
31
0
39
0
210
0
220
0
230
1
0
LINE
5
CD
100
AcDbEntity
8
1
62
256
6
ByLayer
370
13
48
1
60
0
100
AcDbLine
10
50.375
20
-5.98919
30
0
11
50.375
21
-13.14675
31
0
39
0
210
0
220
0
230
1
0
LINE
5
CE
100
AcDbEntity
8
1
62
256
6
ByLayer
370
18
48
1
60
0
100
AcDbLine
10
49.5
20
31.5
30
0
11
49.5
21
0
31
0
39
0
210
0
220
0
230
1
0
LINE
5
CF
100
AcDbEntity
8
1
62
256
6
ByLayer
370
18
48
1
60
0
100
AcDbLine
10
49.5
20
0
30
0
11
49.5
21
-31.5
31
0
39
0
210
0
220
0
230
1
0
LINE
5
D0
100
AcDbEntity
8
1
62
256
6
ByLayer
370
18
48
1
60
0
100
AcDbLine
10
50
20
31
30
0
11
50
21
0
31
0
39
0
210
0
220
0
230
1
0
LINE
5
D1
100
AcDbEntity
8
1
62
256
6
ByLayer
370
18
48
1
60
0
100
AcDbLine
10
50
20
0
30
0
11
50
21
-31
31
0
39
0
210
0
220
0
230
1
0
LINE
5
D2
100
AcDbEntity
8
1
62
256
6
ByLayer
370
13
48
1
60
0
100
AcDbLine
10
31.95
20
31.5
30
0
11
31.95
21
-31.5
31
0
39
0
210
0
220
0
230
1
0
LINE
5
D3
100
AcDbEntity
8
1
62
256
6
ByLayer
370
18
48
1
60
0
100
AcDbLine
10
28.95
20
-11.021
30
0
11
28.95
21
11.021
31
0
39
0
210
0
220
0
230
1
0
LINE
5
D4
100
AcDbEntity
8
1
62
256
6
ByLayer
370
18
48
1
60
0
100
AcDbLine
10
21.525
20
11.021
30
0
11
18.475
21
11.021
31
0
39
0
210
0
220
0
230
1
0
LINE
5
D5
100
AcDbEntity
8
1
62
256
6
ByLayer
370
18
48
1
60
0
100
AcDbLine
10
18.475
20
-11.021
30
0
11
21.525
21
-11.021
31
0
39
0
210
0
220
0
230
1
0
LINE
5
D6
100
AcDbEntity
8
1
62
256
6
ByLayer
370
13
48
1
60
0
100
AcDbLine
10
21.525
20
-45.975
30
0
11
21.525
21
-11.021
31
0
39
0
210
0
220
0
230
1
0
LINE
5
D7
100
AcDbEntity
8
1
62
256
6
ByLayer
370
13
48
1
60
0
100
AcDbLine
10
18.475
20
45.119582
30
0
11
18.475
21
11.021
31
0
39
0
210
0
220
0
230
1
0
LINE
5
D8
100
AcDbEntity
8
1
62
256
6
ByLayer
370
13
48
1
60
0
100
AcDbLine
10
18.475
20
45.417706
30
0
11
18.475
21
45.975
31
0
39
0
210
0
220
0
230
1
0
LINE
5
D9
100
AcDbEntity
8
1
62
256
6
ByLayer
370
13
48
1
60
0
100
AcDbLine
10
18.475
20
-45.975
30
0
11
18.475
21
-11.021
31
0
39
0
210
0
220
0
230
1
0
LINE
5
DA
100
AcDbEntity
8
1
62
256
6
ByLayer
370
13
48
1
60
0
100
AcDbLine
10
21.525
20
45.417706
30
0
11
21.525
21
45.975
31
0
39
0
210
0
220
0
230
1
0
LINE
5
DB
100
AcDbEntity
8
1
62
256
6
ByLayer
370
13
48
1
60
0
100
AcDbLine
10
21.525
20
45.119582
30
0
11
21.525
21
11.021
31
0
39
0
210
0
220
0
230
1
0
LINE
5
DC
100
AcDbEntity
8
1
62
256
6
ByLayer
370
18
48
1
60
0
100
AcDbLine
10
18.075
20
-47.684198
30
0
11
18.075
21
-11.021
31
0
39
0
210
0
220
0
230
1
0
LINE
5
DD
100
AcDbEntity
8
1
62
256
6
ByLayer
370
18
48
1
60
0
100
AcDbLine
10
28.25
20
11.021
30
0
11
23.241822
21
11.021
31
0
39
0
210
0
220
0
230
1
0
LINE
5
DE
100
AcDbEntity
8
1
62
256
6
ByLayer
370
18
48
1
60
0
100
AcDbLine
10
28.95
20
49.265
30
0
11
28.95
21
11.021
31
0
39
0
210
0
220
0
230
1
0
LINE
5
DF
100
AcDbEntity
8
1
62
256
6
ByLayer
370
18
48
1
60
0
100
AcDbLine
10
28.25
20
11.021
30
0
11
28.25
21
49.965
31
0
39
0
210
0
220
0
230
1
0
LINE
5
E0
100
AcDbEntity
8
1
62
256
6
ByLayer
370
18
48
1
60
0
100
AcDbLine
10
23.241822
20
49.965
30
0
11
23.241822
21
11.021
31
0
39
0
210
0
220
0
230
1
0
LINE
5
E1
100
AcDbEntity
8
1
62
256
6
ByLayer
370
18
48
1
60
0
100
AcDbLine
10
21.925
20
47.684198
30
0
11
21.925
21
11.021
31
0
39
0
210
0
220
0
230
1
0
LINE
5
E2
100
AcDbEntity
8
1
62
256
6
ByLayer
370
18
48
1
60
0
100
AcDbLine
10
18.075
20
47.684198
30
0
11
18.075
21
11.021
31
0
39
0
210
0
220
0
230
1
0
LINE
5
E3
100
AcDbEntity
8
1
62
256
6
ByLayer
370
18
48
1
60
0
100
AcDbLine
10
28.95
20
-49.265
30
0
11
28.95
21
-11.021
31
0
39
0
210
0
220
0
230
1
0
LINE
5
E4
100
AcDbEntity
8
1
62
256
6
ByLayer
370
18
48
1
60
0
100
AcDbLine
10
28.25
20
-11.021
30
0
11
28.25
21
-49.965
31
0
39
0
210
0
220
0
230
1
0
LINE
5
E5
100
AcDbEntity
8
1
62
256
6
ByLayer
370
18
48
1
60
0
100
AcDbLine
10
23.241822
20
-11.021
30
0
11
28.25
21
-11.021
31
0
39
0
210
0
220
0
230
1
0
LINE
5
E6
100
AcDbEntity
8
1
62
256
6
ByLayer
370
18
48
1
60
0
100
AcDbLine
10
21.925
20
-47.684198
30
0
11
21.925
21
-11.021
31
0
39
0
210
0
220
0
230
1
0
LINE
5
E7
100
AcDbEntity
8
1
62
256
6
ByLayer
370
18
48
1
60
0
100
AcDbLine
10
23.241822
20
-49.965
30
0
11
23.241822
21
-11.021
31
0
39
0
210
0
220
0
230
1
0
LINE
5
E8
100
AcDbEntity
8
1
62
256
6
ByLayer
370
18
48
1
60
0
100
AcDbLine
10
0
20
49.265
30
0
11
0
21
0
31
0
39
0
210
0
220
0
230
1
0
LINE
5
E9
100
AcDbEntity
8
1
62
256
6
ByLayer
370
18
48
1
60
0
100
AcDbLine
10
0
20
0
30
0
11
0
21
-49.265
31
0
39
0
210
0
220
0
230
1
0
LINE
5
EA
100
AcDbEntity
8
1
62
256
6
ByLayer
370
18
48
1
60
0
100
AcDbLine
10
4.95
20
1.021
30
0
11
4.95
21
-1.021
31
0
39
0
210
0
220
0
230
1
0
LINE
5
EB
100
AcDbEntity
8
1
62
256
6
ByLayer
370
18
48
1
60
0
100
AcDbLine
10
0.7
20
-49.965
30
0
11
0.7
21
0
31
0
39
0
210
0
220
0
230
1
0
LINE
5
EC
100
AcDbEntity
8
1
62
256
6
ByLayer
370
18
48
1
60
0
100
AcDbLine
10
0.7
20
0
30
0
11
0.7
21
49.965
31
0
39
0
210
0
220
0
230
1
0
LINE
5
ED
100
AcDbEntity
8
1
62
256
6
ByLayer
370
18
48
1
60
0
100
AcDbLine
10
16.758178
20
-11.021
30
0
11
16.758178
21
-49.965
31
0
39
0
210
0
220
0
230
1
0
LINE
5
EE
100
AcDbEntity
8
1
62
256
6
ByLayer
370
18
48
1
60
0
100
AcDbLine
10
14.95
20
-11.021
30
0
11
16.758178
21
-11.021
31
0
39
0
210
0
220
0
230
1
0
LINE
5
EF
100
AcDbEntity
8
1
62
256
6
ByLayer
370
18
48
1
60
0
100
AcDbLine
10
16.758178
20
11.021
30
0
11
14.95
21
11.021
31
0
39
0
210
0
220
0
230
1
0
LINE
5
F0
100
AcDbEntity
8
1
62
256
6
ByLayer
370
18
48
1
60
0
100
AcDbLine
10
16.758178
20
11.021
30
0
11
16.758178
21
49.965
31
0
39
0
210
0
220
0
230
1
0
LINE
5
F1
100
AcDbEntity
8
SK2
62
256
6
ByLayer
370
18
48
1
60
0
100
AcDbLine
10
76
20
16
30
0
11
76
21
-16
31
0
39
0
210
0
220
0
230
1
0
LINE
5
F2
100
AcDbEntity
8
SK2
62
256
6
ByLayer
370
18
48
1
60
0
100
AcDbLine
10
71
20
17
30
0
11
71
21
-17
31
0
39
0
210
0
220
0
230
1
0
LINE
5
F3
100
AcDbEntity
8
SK2
62
256
6
ByLayer
370
18
48
1
60
0
100
AcDbLine
10
75
20
-17
30
0
11
75
21
17
31
0
39
0
210
0
220
0
230
1
0
LINE
5
F4
100
AcDbEntity
8
SK2
62
256
6
ByLayer
370
18
48
1
60
0
100
AcDbLine
10
84
20
8
30
0
11
84
21
-8
31
0
39
0
210
0
220
0
230
1
0
LINE
5
F5
100
AcDbEntity
8
SK2
62
256
6
ByLayer
370
13
48
1
60
0
100
AcDbLine
10
83
20
-9
30
0
11
83
21
9
31
0
39
0
210
0
220
0
230
1
0
LINE
5
F6
100
AcDbEntity
8
1
62
256
6
ByLayer
370
18
48
1
60
0
100
AcDbLine
10
55.7
20
-5.98925
30
0
11
50.000128
21
-5.98925
31
0
39
0
210
0
220
0
230
1
0
LINE
5
F7
100
AcDbEntity
8
1
62
256
6
ByLayer
370
18
48
1
60
0
100
AcDbLine
10
55.7
20
-5.98925
30
0
11
56.1
21
-5.58925
31
0
39
0
210
0
220
0
230
1
0
LINE
5
F8
100
AcDbEntity
8
1
62
256
6
ByLayer
370
18
48
1
60
0
100
AcDbLine
10
50.000128
20
-5.18925
30
0
11
55.7
21
-5.18925
31
0
39
0
210
0
220
0
230
1
0
LINE
5
F9
100
AcDbEntity
8
1
62
256
6
ByLayer
370
18
48
1
60
0
100
AcDbLine
10
56.1
20
5.58925
30
0
11
55.7
21
5.98925
31
0
39
0
210
0
220
0
230
1
0
LINE
5
FA
100
AcDbEntity
8
1
62
256
6
ByLayer
370
18
48
1
60
0
100
AcDbLine
10
50.000128
20
5.98925
30
0
11
55.7
21
5.98925
31
0
39
0
210
0
220
0
230
1
0
LINE
5
FB
100
AcDbEntity
8
1
62
256
6
ByLayer
370
18
48
1
60
0
100
AcDbLine
10
55.7
20
5.18925
30
0
11
50.000128
21
5.18925
31
0
39
0
210
0
220
0
230
1
0
LINE
5
FC
100
AcDbEntity
8
1
62
256
6
ByLayer
370
18
48
1
60
0
100
AcDbLine
10
56.1
20
-5.58925
30
0
11
56.3
21
-5.38925
31
0
39
0
210
0
220
0
230
1
0
LINE
5
FD
100
AcDbEntity
8
1
62
256
6
ByLayer
370
18
48
1
60
0
100
AcDbLine
10
56.3
20
5.38925
30
0
11
56.3
21
-5.38925
31
0
39
0
210
0
220
0
230
1
0
LINE
5
FE
100
AcDbEntity
8
1
62
256
6
ByLayer
370
18
48
1
60
0
100
AcDbLine
10
56.1
20
5.58925
30
0
11
56.3
21
5.38925
31
0
39
0
210
0
220
0
230
1
0
LINE
5
FF
100
AcDbEntity
8
1
62
256
6
ByLayer
370
18
48
1
60
0
100
AcDbLine
10
55.7
20
5.18925
30
0
11
56.1
21
5.58925
31
0
39
0
210
0
220
0
230
1
0
LINE
5
100
100
AcDbEntity
8
1
62
256
6
ByLayer
370
18
48
1
60
0
100
AcDbLine
10
55.7
20
-5.18925
30
0
11
55.7
21
5.18925
31
0
39
0
210
0
220
0
230
1
0
LINE
5
101
100
AcDbEntity
8
1
62
256
6
ByLayer
370
18
48
1
60
0
100
AcDbLine
10
56.1
20
-5.58925
30
0
11
55.7
21
-5.18925
31
0
39
0
210
0
220
0
230
1
0
LINE
5
102
100
AcDbEntity
8
SK1
62
256
6
ByLayer
370
18
48
1
60
0
100
AcDbLine
10
-39.8
20
8.11
30
0
11
-39.8
21
-8.11
31
0
39
0
210
0
220
0
230
1
0
LINE
5
103
100
AcDbEntity
8
SK1
62
256
6
ByLayer
370
13
48
1
60
0
100
AcDbLine
10
-36.7
20
-19.414233
30
0
11
-36.7
21
-17.105474
31
0
39
0
210
0
220
0
230
1
0
LINE
5
104
100
AcDbEntity
8
SK1
62
256
6
ByLayer
370
13
48
1
60
0
100
AcDbLine
10
-36.7
20
17.105474
30
0
11
-36.7
21
19.414233
31
0
39
0
210
0
220
0
230
1
0
LINE
5
105
100
AcDbEntity
8
SK1
62
256
6
ByLayer
370
13
48
1
60
0
100
AcDbLine
10
-49.589566
20
16.497324
30
0
11
-48.969717
21
16.778729
31
0
39
0
210
0
220
0
230
1
0
LINE
5
106
100
AcDbEntity
8
SK1
62
256
6
ByLayer
370
18
48
1
60
0
100
AcDbLine
10
-49.9
20
11.66
30
0
11
-49.9
21
14.138353
31
0
39
0
210
0
220
0
230
1
0
LINE
5
107
100
AcDbEntity
8
SK1
62
256
6
ByLayer
370
18
48
1
60
0
100
AcDbLine
10
-49.9
20
11.66
30
0
11
-48.25
21
10.01
31
0
39
0
210
0
220
0
230
1
0
LINE
5
108
100
AcDbEntity
8
SK1
62
256
6
ByLayer
370
18
48
1
60
0
100
AcDbLine
10
-49.9
20
-33.605194
30
0
11
-49.9
21
-14.138353
31
0
39
0
210
0
220
0
230
1
0
LINE
5
109
100
AcDbEntity
8
SK1
62
256
6
ByLayer
370
18
48
1
60
0
100
AcDbLine
10
-48.25
20
15.076908
30
0
11
-48.25
21
10.01
31
0
39
0
210
0
220
0
230
1
0
LINE
5
10A
100
AcDbEntity
8
SK1
62
256
6
ByLayer
370
18
48
1
60
0
100
AcDbLine
10
-36.7
20
10.01
30
0
11
-48.25
21
10.01
31
0
39
0
210
0
220
0
230
1
0
LINE
5
10B
100
AcDbEntity
8
SK1
62
256
6
ByLayer
370
13
48
1
60
0
100
AcDbLine
10
-36.7
20
17.105474
30
0
11
-39.778559
21
17.105474
31
0
39
0
210
0
220
0
230
1
0
LINE
5
10C
100
AcDbEntity
8
SK1
62
256
6
ByLayer
370
18
48
1
60
0
100
AcDbLine
10
-49.9
20
14.138353
30
0
11
-49.9
21
33.605194
31
0
39
0
210
0
220
0
230
1
0
LINE
5
10D
100
AcDbEntity
8
SK1
62
256
6
ByLayer
370
18
48
1
60
0
100
AcDbLine
10
-49.9
20
-11.66
30
0
11
-48.25
21
-10.01
31
0
39
0
210
0
220
0
230
1
0
LINE
5
10E
100
AcDbEntity
8
SK1
62
256
6
ByLayer
370
18
48
1
60
0
100
AcDbLine
10
-49.9
20
-11.66
30
0
11
-49.9
21
-14.138353
31
0
39
0
210
0
220
0
230
1
0
LINE
5
10F
100
AcDbEntity
8
SK1
62
256
6
ByLayer
370
13
48
1
60
0
100
AcDbLine
10
-49.589566
20
-16.497324
30
0
11
-48.969717
21
-16.778729
31
0
39
0
210
0
220
0
230
1
0
LINE
5
110
100
AcDbEntity
8
SK1
62
256
6
ByLayer
370
13
48
1
60
0
100
AcDbLine
10
-36.7
20
-17.105474
30
0
11
-39.778559
21
-17.105474
31
0
39
0
210
0
220
0
230
1
0
LINE
5
111
100
AcDbEntity
8
SK1
62
256
6
ByLayer
370
18
48
1
60
0
100
AcDbLine
10
-36.7
20
-10.01
30
0
11
-48.25
21
-10.01
31
0
39
0
210
0
220
0
230
1
0
LINE
5
112
100
AcDbEntity
8
SK1
62
256
6
ByLayer
370
18
48
1
60
0
100
AcDbLine
10
-48.25
20
-15.076908
30
0
11
-48.25
21
-10.01
31
0
39
0
210
0
220
0
230
1
0
LINE
5
113
100
AcDbEntity
8
SK1
62
256
6
ByLayer
370
13
48
1
60
0
100
AcDbLine
10
-36.7
20
-17.105474
30
0
11
-36.7
21
-10.01
31
0
39
0
210
0
220
0
230
1
0
LINE
5
114
100
AcDbEntity
8
SK1
62
256
6
ByLayer
370
13
48
1
60
0
100
AcDbLine
10
-36.7
20
10.01
30
0
11
-36.7
21
17.105474
31
0
39
0
210
0
220
0
230
1
0
LINE
5
115
100
AcDbEntity
8
SK1
62
256
6
ByLayer
370
18
48
1
60
0
100
AcDbLine
10
-2.066987
20
37.632252
30
0
11
-2.066987
21
0
31
0
39
0
210
0
220
0
230
1
0
LINE
5
116
100
AcDbEntity
8
SK1
62
256
6
ByLayer
370
18
48
1
60
0
100
AcDbLine
10
-2.066987
20
0
30
0
11
-2.066987
21
-37.632252
31
0
39
0
210
0
220
0
230
1
0
LINE
5
117
100
AcDbEntity
8
SK1
62
256
6
ByLayer
370
13
48
1
60
0
100
AcDbLine
10
-0.8
20
37.632252
30
0
11
-0.8
21
0
31
0
39
0
210
0
220
0
230
1
0
LINE
5
118
100
AcDbEntity
8
SK1
62
256
6
ByLayer
370
13
48
1
60
0
100
AcDbLine
10
-0.8
20
0
30
0
11
-0.8
21
-37.632252
31
0
39
0
210
0
220
0
230
1
0
LINE
5
119
100
AcDbEntity
8
SK1
62
256
6
ByLayer
370
13
48
1
60
0
100
AcDbLine
10
-48.000075
20
-15.15093
30
0
11
-48.000075
21
-35.602689
31
0
39
0
210
0
220
0
230
1
0
LINE
5
11A
100
AcDbEntity
8
SK1
62
256
6
ByLayer
370
13
48
1
60
0
100
AcDbLine
10
-48.000075
20
15.15093
30
0
11
-48.000075
21
35.602689
31
0
39
0
210
0
220
0
230
1
0
LINE
5
11B
100
AcDbEntity
8
SK1
62
256
6
ByLayer
370
18
48
1
60
0
100
AcDbLine
10
-34.8
20
12.996355
30
0
11
-34.8
21
-12.996355
31
0
39
0
210
0
220
0
230
1
0
LINE
5
11C
100
AcDbEntity
8
SK1
62
256
6
ByLayer
370
18
48
1
60
0
100
AcDbLine
10
-2.5
20
-37.882252
30
0
11
-2.5
21
0
31
0
39
0
210
0
220
0
230
1
0
LINE
5
11D
100
AcDbEntity
8
SK1
62
256
6
ByLayer
370
18
48
1
60
0
100
AcDbLine
10
-2.5
20
0
30
0
11
-2.5
21
37.882252
31
0
39
0
210
0
220
0
230
1
0
LINE
5
11E
100
AcDbEntity
8
1
62
256
6
ByLayer
370
13
48
0.05
60
0
100
AcDbLine
10
-26
20
0
30
0
11
-4
21
0
31
0
39
0
210
0
220
0
230
1
0
LINE
5
11F
100
AcDbEntity
8
1
62
256
6
ByLayer
370
13
48
0.05
60
0
100
AcDbLine
10
-15
20
-11
30
0
11
-15
21
11
31
0
39
0
210
0
220
0
230
1
0
LINE
5
120
100
AcDbEntity
8
SK2
62
256
6
ByLayer
370
18
48
1
60
0
100
AcDbLine
10
-66.875025
20
-49.965
30
0
11
-66.875025
21
49.965
31
0
39
0
210
0
220
0
230
1
0
LINE
5
121
100
AcDbEntity
8
SK2
62
256
6
ByLayer
370
18
48
1
60
0
100
AcDbLine
10
-0.8875
20
49.965
30
0
11
-68.875025
21
49.965
31
0
39
0
210
0
220
0
230
1
0
LINE
5
122
100
AcDbEntity
8
SK2
62
256
6
ByLayer
370
18
48
1
60
0
100
AcDbLine
10
-0.8875
20
-49.965
30
0
11
-68.875025
21
-49.965
31
0
39
0
210
0
220
0
230
1
0
LINE
5
123
100
AcDbEntity
8
1
62
256
6
ByLayer
370
18
48
1
60
1
100
AcDbLine
10
-66.875025
20
49.965
30
0
11
-66.414241
21
46.465002
31
0
39
0
210
0
220
0
230
1
0
LINE
5
124
100
AcDbEntity
8
1
62
256
6
ByLayer
370
18
48
1
60
1
100
AcDbLine
10
-66.414241
20
46.465002
30
0
11
-67.335809
21
46.464998
31
0
39
0
210
0
220
0
230
1
0
LINE
5
125
100
AcDbEntity
8
1
62
256
6
ByLayer
370
18
48
1
60
1
100
AcDbLine
10
-67.335809
20
46.464998
30
0
11
-66.875025
21
49.965
31
0
39
0
210
0
220
0
230
1
0
LINE
5
126
100
AcDbEntity
8
1
62
256
6
ByLayer
370
18
48
1
60
1
100
AcDbLine
10
-66.875025
20
-49.965
30
0
11
-67.335809
21
-46.465002
31
0
39
0
210
0
220
0
230
1
0
LINE
5
127
100
AcDbEntity
8
1
62
256
6
ByLayer
370
18
48
1
60
1
100
AcDbLine
10
-67.335809
20
-46.465002
30
0
11
-66.414241
21
-46.464998
31
0
39
0
210
0
220
0
230
1
0
LINE
5
128
100
AcDbEntity
8
1
62
256
6
ByLayer
370
18
48
1
60
1
100
AcDbLine
10
-66.414241
20
-46.464998
30
0
11
-66.875025
21
-49.965
31
0
39
0
210
0
220
0
230
1
0
LINE
5
129
100
AcDbEntity
8
SK2
62
256
6
ByLayer
370
18
48
1
60
0
100
AcDbLine
10
114.725
20
-13.49675
30
0
11
114.725
21
13.49675
31
0
39
0
210
0
220
0
230
1
0
LINE
5
12A
100
AcDbEntity
8
SK2
62
256
6
ByLayer
370
18
48
1
60
0
100
AcDbLine
10
68.5875
20
13.49675
30
0
11
116.725
21
13.49675
31
0
39
0
210
0
220
0
230
1
0
LINE
5
12B
100
AcDbEntity
8
SK2
62
256
6
ByLayer
370
18
48
1
60
0
100
AcDbLine
10
68.5875
20
-13.49675
30
0
11
116.725
21
-13.49675
31
0
39
0
210
0
220
0
230
1
0
LINE
5
12C
100
AcDbEntity
8
1
62
256
6
ByLayer
370
18
48
1
60
1
100
AcDbLine
10
114.725
20
13.49675
30
0
11
115.185784
21
9.996752
31
0
39
0
210
0
220
0
230
1
0
LINE
5
12D
100
AcDbEntity
8
1
62
256
6
ByLayer
370
18
48
1
60
1
100
AcDbLine
10
115.185784
20
9.996752
30
0
11
114.264216
21
9.996748
31
0
39
0
210
0
220
0
230
1
0
LINE
5
12E
100
AcDbEntity
8
1
62
256
6
ByLayer
370
18
48
1
60
1
100
AcDbLine
10
114.264216
20
9.996748
30
0
11
114.725
21
13.49675
31
0
39
0
210
0
220
0
230
1
0
LINE
5
12F
100
AcDbEntity
8
1
62
256
6
ByLayer
370
18
48
1
60
1
100
AcDbLine
10
114.725
20
-13.49675
30
0
11
114.264216
21
-9.996752
31
0
39
0
210
0
220
0
230
1
0
LINE
5
130
100
AcDbEntity
8
1
62
256
6
ByLayer
370
18
48
1
60
1
100
AcDbLine
10
114.264216
20
-9.996752
30
0
11
115.185784
21
-9.996748
31
0
39
0
210
0
220
0
230
1
0
LINE
5
131
100
AcDbEntity
8
1
62
256
6
ByLayer
370
18
48
1
60
1
100
AcDbLine
10
115.185784
20
-9.996748
30
0
11
114.725
21
-13.49675
31
0
39
0
210
0
220
0
230
1
0
LINE
5
132
100
AcDbEntity
8
SK2
62
256
6
ByLayer
370
18
48
1
60
0
100
AcDbLine
10
129.725
20
31.5
30
0
11
129.725
21
-31.5
31
0
39
0
210
0
220
0
230
1
0
LINE
5
133
100
AcDbEntity
8
SK2
62
256
6
ByLayer
370
18
48
1
60
0
100
AcDbLine
10
51.0875
20
-31.5
30
0
11
131.725
21
-31.5
31
0
39
0
210
0
220
0
230
1
0
LINE
5
134
100
AcDbEntity
8
SK2
62
256
6
ByLayer
370
18
48
1
60
0
100
AcDbLine
10
51.0875
20
31.5
30
0
11
131.725
21
31.5
31
0
39
0
210
0
220
0
230
1
0
LINE
5
135
100
AcDbEntity
8
1
62
256
6
ByLayer
370
18
48
1
60
1
100
AcDbLine
10
129.725
20
-31.5
30
0
11
129.264216
21
-28.000002
31
0
39
0
210
0
220
0
230
1
0
LINE
5
136
100
AcDbEntity
8
1
62
256
6
ByLayer
370
18
48
1
60
1
100
AcDbLine
10
129.264216
20
-28.000002
30
0
11
130.185784
21
-27.999998
31
0
39
0
210
0
220
0
230
1
0
LINE
5
137
100
AcDbEntity
8
1
62
256
6
ByLayer
370
18
48
1
60
1
100
AcDbLine
10
130.185784
20
-27.999998
30
0
11
129.725
21
-31.5
31
0
39
0
210
0
220
0
230
1
0
LINE
5
138
100
AcDbEntity
8
1
62
256
6
ByLayer
370
18
48
1
60
1
100
AcDbLine
10
129.725
20
31.5
30
0
11
130.185784
21
28.000002
31
0
39
0
210
0
220
0
230
1
0
LINE
5
139
100
AcDbEntity
8
1
62
256
6
ByLayer
370
18
48
1
60
1
100
AcDbLine
10
130.185784
20
28.000002
30
0
11
129.264216
21
27.999998
31
0
39
0
210
0
220
0
230
1
0
LINE
5
13A
100
AcDbEntity
8
1
62
256
6
ByLayer
370
18
48
1
60
1
100
AcDbLine
10
129.264216
20
27.999998
30
0
11
129.725
21
31.5
31
0
39
0
210
0
220
0
230
1
0
LINE
5
13B
100
AcDbEntity
8
SK2
62
256
6
ByLayer
370
18
48
1
60
0
100
AcDbLine
10
-49.9
20
78.167689
30
0
11
0
21
78.167689
31
0
39
0
210
0
220
0
230
1
0
LINE
5
13C
100
AcDbEntity
8
SK2
62
256
6
ByLayer
370
18
48
1
60
0
100
AcDbLine
10
0
20
50.8525
30
0
11
0
21
80.167689
31
0
39
0
210
0
220
0
230
1
0
LINE
5
13D
100
AcDbEntity
8
SK2
62
256
6
ByLayer
370
18
48
1
60
0
100
AcDbLine
10
-49.9
20
35.192694
30
0
11
-49.9
21
80.167689
31
0
39
0
210
0
220
0
230
1
0
LINE
5
13E
100
AcDbEntity
8
1
62
256
6
ByLayer
370
18
48
1
60
1
100
AcDbLine
10
0
20
78.167689
30
0
11
-3.499998
21
77.706905
31
0
39
0
210
0
220
0
230
1
0
LINE
5
13F
100
AcDbEntity
8
1
62
256
6
ByLayer
370
18
48
1
60
1
100
AcDbLine
10
-3.499998
20
77.706905
30
0
11
-3.500002
21
78.628472
31
0
39
0
210
0
220
0
230
1
0
LINE
5
140
100
AcDbEntity
8
1
62
256
6
ByLayer
370
18
48
1
60
1
100
AcDbLine
10
-3.500002
20
78.628472
30
0
11
0
21
78.167689
31
0
39
0
210
0
220
0
230
1
0
LINE
5
141
100
AcDbEntity
8
1
62
256
6
ByLayer
370
18
48
1
60
1
100
AcDbLine
10
-49.9
20
78.167689
30
0
11
-46.400002
21
78.628472
31
0
39
0
210
0
220
0
230
1
0
LINE
5
142
100
AcDbEntity
8
1
62
256
6
ByLayer
370
18
48
1
60
1
100
AcDbLine
10
-46.400002
20
78.628472
30
0
11
-46.399998
21
77.706905
31
0
39
0
210
0
220
0
230
1
0
LINE
5
143
100
AcDbEntity
8
1
62
256
6
ByLayer
370
18
48
1
60
1
100
AcDbLine
10
-46.399998
20
77.706905
30
0
11
-49.9
21
78.167689
31
0
39
0
210
0
220
0
230
1
0
LINE
5
144
100
AcDbEntity
8
SK2
62
256
6
ByLayer
370
18
48
1
60
0
100
AcDbLine
10
28.95
20
68.167689
30
0
11
50
21
68.167689
31
0
39
0
210
0
220
0
230
1
0
LINE
5
145
100
AcDbEntity
8
SK2
62
256
6
ByLayer
370
18
48
1
60
0
100
AcDbLine
10
50
20
32.5875
30
0
11
50
21
70.167689
31
0
39
0
210
0
220
0
230
1
0
LINE
5
146
100
AcDbEntity
8
SK2
62
256
6
ByLayer
370
18
48
1
60
0
100
AcDbLine
10
28.95
20
50.8525
30
0
11
28.95
21
70.167689
31
0
39
0
210
0
220
0
230
1
0
LINE
5
147
100
AcDbEntity
8
1
62
256
6
ByLayer
370
18
48
1
60
1
100
AcDbLine
10
50
20
68.167689
30
0
11
46.500002
21
67.706905
31
0
39
0
210
0
220
0
230
1
0
LINE
5
148
100
AcDbEntity
8
1
62
256
6
ByLayer
370
18
48
1
60
1
100
AcDbLine
10
46.500002
20
67.706905
30
0
11
46.499998
21
68.628472
31
0
39
0
210
0
220
0
230
1
0
LINE
5
149
100
AcDbEntity
8
1
62
256
6
ByLayer
370
18
48
1
60
1
100
AcDbLine
10
46.499998
20
68.628472
30
0
11
50
21
68.167689
31
0
39
0
210
0
220
0
230
1
0
LINE
5
14A
100
AcDbEntity
8
1
62
256
6
ByLayer
370
18
48
1
60
1
100
AcDbLine
10
28.95
20
68.167689
30
0
11
32.449998
21
68.628472
31
0
39
0
210
0
220
0
230
1
0
LINE
5
14B
100
AcDbEntity
8
1
62
256
6
ByLayer
370
18
48
1
60
1
100
AcDbLine
10
32.449998
20
68.628472
30
0
11
32.450002
21
67.706905
31
0
39
0
210
0
220
0
230
1
0
LINE
5
14C
100
AcDbEntity
8
1
62
256
6
ByLayer
370
18
48
1
60
1
100
AcDbLine
10
32.450002
20
67.706905
30
0
11
28.95
21
68.167689
31
0
39
0
210
0
220
0
230
1
0
LINE
5
14D
100
AcDbEntity
8
2
62
256
6
ByLayer
370
18
48
1
60
0
100
AcDbLine
10
0
20
78.167689
30
0
11
50
21
78.167689
31
0
39
0
210
0
220
0
230
1
0
LINE
5
14E
100
AcDbEntity
8
2
62
256
6
ByLayer
370
18
48
1
60
0
100
AcDbLine
10
50
20
32.5875
30
0
11
50
21
80.167689
31
0
39
0
210
0
220
0
230
1
0
LINE
5
14F
100
AcDbEntity
8
2
62
256
6
ByLayer
370
18
48
1
60
0
100
AcDbLine
10
0
20
50.8525
30
0
11
0
21
80.167689
31
0
39
0
210
0
220
0
230
1
0
LINE
5
150
100
AcDbEntity
8
1
62
256
6
ByLayer
370
18
48
1
60
1
100
AcDbLine
10
50
20
78.167689
30
0
11
46.500002
21
77.706905
31
0
39
0
210
0
220
0
230
1
0
LINE
5
151
100
AcDbEntity
8
1
62
256
6
ByLayer
370
18
48
1
60
1
100
AcDbLine
10
46.500002
20
77.706905
30
0
11
46.499998
21
78.628472
31
0
39
0
210
0
220
0
230
1
0
LINE
5
152
100
AcDbEntity
8
1
62
256
6
ByLayer
370
18
48
1
60
1
100
AcDbLine
10
46.499998
20
78.628472
30
0
11
50
21
78.167689
31
0
39
0
210
0
220
0
230
1
0
LINE
5
153
100
AcDbEntity
8
1
62
256
6
ByLayer
370
18
48
1
60
1
100
AcDbLine
10
0
20
78.167689
30
0
11
3.499998
21
78.628472
31
0
39
0
210
0
220
0
230
1
0
LINE
5
154
100
AcDbEntity
8
1
62
256
6
ByLayer
370
18
48
1
60
1
100
AcDbLine
10
3.499998
20
78.628472
30
0
11
3.500002
21
77.706905
31
0
39
0
210
0
220
0
230
1
0
LINE
5
155
100
AcDbEntity
8
1
62
256
6
ByLayer
370
18
48
1
60
1
100
AcDbLine
10
3.500002
20
77.706905
30
0
11
0
21
78.167689
31
0
39
0
210
0
220
0
230
1
0
LINE
5
156
100
AcDbEntity
8
SK2
62
256
6
ByLayer
370
18
48
1
60
0
100
AcDbLine
10
50
20
61.167689
30
0
11
68
21
61.167689
31
0
39
0
210
0
220
0
230
1
0
LINE
5
157
100
AcDbEntity
8
SK2
62
256
6
ByLayer
370
18
48
1
60
0
100
AcDbLine
10
68
20
14.5069
30
0
11
68
21
63.167689
31
0
39
0
210
0
220
0
230
1
0
LINE
5
158
100
AcDbEntity
8
SK2
62
256
6
ByLayer
370
18
48
1
60
0
100
AcDbLine
10
50
20
32.5875
30
0
11
50
21
63.167689
31
0
39
0
210
0
220
0
230
1
0
LINE
5
159
100
AcDbEntity
8
1
62
256
6
ByLayer
370
18
48
1
60
1
100
AcDbLine
10
68
20
61.167689
30
0
11
64.500002
21
60.706905
31
0
39
0
210
0
220
0
230
1
0
LINE
5
15A
100
AcDbEntity
8
1
62
256
6
ByLayer
370
18
48
1
60
1
100
AcDbLine
10
64.500002
20
60.706905
30
0
11
64.499998
21
61.628472
31
0
39
0
210
0
220
0
230
1
0
LINE
5
15B
100
AcDbEntity
8
1
62
256
6
ByLayer
370
18
48
1
60
1
100
AcDbLine
10
64.499998
20
61.628472
30
0
11
68
21
61.167689
31
0
39
0
210
0
220
0
230
1
0
LINE
5
15C
100
AcDbEntity
8
1
62
256
6
ByLayer
370
18
48
1
60
1
100
AcDbLine
10
50
20
61.167689
30
0
11
53.499998
21
61.628472
31
0
39
0
210
0
220
0
230
1
0
LINE
5
15D
100
AcDbEntity
8
1
62
256
6
ByLayer
370
18
48
1
60
1
100
AcDbLine
10
53.499998
20
61.628472
30
0
11
53.500002
21
60.706905
31
0
39
0
210
0
220
0
230
1
0
LINE
5
15E
100
AcDbEntity
8
1
62
256
6
ByLayer
370
18
48
1
60
1
100
AcDbLine
10
53.500002
20
60.706905
30
0
11
50
21
61.167689
31
0
39
0
210
0
220
0
230
1
0
LINE
5
198
100
AcDbEntity
8
1
62
256
6
ByLayer
370
13
48
0.05
60
0
100
AcDbLine
10
20
20
52.422472
30
0
11
20
21
36.200875
31
0
39
0
210
0
220
0
230
1
0
LINE
5
199
100
AcDbEntity
8
1
62
256
6
ByLayer
370
13
48
0.05
60
0
100
AcDbLine
10
-54.75
20
0
30
0
11
74.5
21
0
31
0
39
0
210
0
220
0
230
1
0
LINE
5
19A
100
AcDbEntity
8
1
62
256
6
ByLayer
370
13
48
0.05
60
0
100
AcDbLine
10
89.5
20
0
30
0
11
30.75
21
0
31
0
39
0
210
0
220
0
230
1
0
LINE
5
19B
100
AcDbEntity
8
1
62
256
6
ByLayer
370
13
48
0.05
60
0
100
AcDbLine
10
82.5
20
0
30
0
11
64.5
21
0
31
0
39
0
210
0
220
0
230
1
0
LINE
5
1A0
100
AcDbEntity
8
1
62
256
6
ByLayer
370
18
48
1
60
1
100
AcDbLine
10
-66.875025
20
49.965
30
0
11
-66.414241
21
46.465002
31
0
39
0
210
0
220
0
230
1
0
LINE
5
1A1
100
AcDbEntity
8
1
62
256
6
ByLayer
370
18
48
1
60
1
100
AcDbLine
10
-66.414241
20
46.465002
30
0
11
-67.335809
21
46.464998
31
0
39
0
210
0
220
0
230
1
0
LINE
5
1A2
100
AcDbEntity
8
1
62
256
6
ByLayer
370
18
48
1
60
1
100
AcDbLine
10
-67.335809
20
46.464998
30
0
11
-66.875025
21
49.965
31
0
39
0
210
0
220
0
230
1
0
LINE
5
1A4
100
AcDbEntity
8
1
62
256
6
ByLayer
370
18
48
1
60
1
100
AcDbLine
10
-66.875025
20
-49.965
30
0
11
-67.335809
21
-46.465002
31
0
39
0
210
0
220
0
230
1
0
LINE
5
1A5
100
AcDbEntity
8
1
62
256
6
ByLayer
370
18
48
1
60
1
100
AcDbLine
10
-67.335809
20
-46.465002
30
0
11
-66.414241
21
-46.464998
31
0
39
0
210
0
220
0
230
1
0
LINE
5
1A6
100
AcDbEntity
8
1
62
256
6
ByLayer
370
18
48
1
60
1
100
AcDbLine
10
-66.414241
20
-46.464998
30
0
11
-66.875025
21
-49.965
31
0
39
0
210
0
220
0
230
1
0
LINE
5
1AA
100
AcDbEntity
8
1
62
256
6
ByLayer
370
18
48
1
60
1
100
AcDbLine
10
114.725
20
13.49675
30
0
11
115.185784
21
9.996752
31
0
39
0
210
0
220
0
230
1
0
LINE
5
1AB
100
AcDbEntity
8
1
62
256
6
ByLayer
370
18
48
1
60
1
100
AcDbLine
10
115.185784
20
9.996752
30
0
11
114.264216
21
9.996748
31
0
39
0
210
0
220
0
230
1
0
LINE
5
1AC
100
AcDbEntity
8
1
62
256
6
ByLayer
370
18
48
1
60
1
100
AcDbLine
10
114.264216
20
9.996748
30
0
11
114.725
21
13.49675
31
0
39
0
210
0
220
0
230
1
0
LINE
5
1AE
100
AcDbEntity
8
1
62
256
6
ByLayer
370
18
48
1
60
1
100
AcDbLine
10
114.725
20
-13.49675
30
0
11
114.264216
21
-9.996752
31
0
39
0
210
0
220
0
230
1
0
LINE
5
1AF
100
AcDbEntity
8
1
62
256
6
ByLayer
370
18
48
1
60
1
100
AcDbLine
10
114.264216
20
-9.996752
30
0
11
115.185784
21
-9.996748
31
0
39
0
210
0
220
0
230
1
0
LINE
5
1B0
100
AcDbEntity
8
1
62
256
6
ByLayer
370
18
48
1
60
1
100
AcDbLine
10
115.185784
20
-9.996748
30
0
11
114.725
21
-13.49675
31
0
39
0
210
0
220
0
230
1
0
LINE
5
1B4
100
AcDbEntity
8
1
62
256
6
ByLayer
370
18
48
1
60
1
100
AcDbLine
10
129.725
20
-31.5
30
0
11
129.264216
21
-28.000002
31
0
39
0
210
0
220
0
230
1
0
LINE
5
1B5
100
AcDbEntity
8
1
62
256
6
ByLayer
370
18
48
1
60
1
100
AcDbLine
10
129.264216
20
-28.000002
30
0
11
130.185784
21
-27.999998
31
0
39
0
210
0
220
0
230
1
0
LINE
5
1B6
100
AcDbEntity
8
1
62
256
6
ByLayer
370
18
48
1
60
1
100
AcDbLine
10
130.185784
20
-27.999998
30
0
11
129.725
21
-31.5
31
0
39
0
210
0
220
0
230
1
0
LINE
5
1B8
100
AcDbEntity
8
1
62
256
6
ByLayer
370
18
48
1
60
1
100
AcDbLine
10
129.725
20
31.5
30
0
11
130.185784
21
28.000002
31
0
39
0
210
0
220
0
230
1
0
LINE
5
1B9
100
AcDbEntity
8
1
62
256
6
ByLayer
370
18
48
1
60
1
100
AcDbLine
10
130.185784
20
28.000002
30
0
11
129.264216
21
27.999998
31
0
39
0
210
0
220
0
230
1
0
LINE
5
1BA
100
AcDbEntity
8
1
62
256
6
ByLayer
370
18
48
1
60
1
100
AcDbLine
10
129.264216
20
27.999998
30
0
11
129.725
21
31.5
31
0
39
0
210
0
220
0
230
1
0
LINE
5
1BD
100
AcDbEntity
8
1
62
256
6
ByLayer
370
18
48
1
60
1
100
AcDbLine
10
0
20
78.167689
30
0
11
-3.499998
21
77.706905
31
0
39
0
210
0
220
0
230
1
0
LINE
5
1BE
100
AcDbEntity
8
1
62
256
6
ByLayer
370
18
48
1
60
1
100
AcDbLine
10
-3.499998
20
77.706905
30
0
11
-3.500002
21
78.628472
31
0
39
0
210
0
220
0
230
1
0
LINE
5
1BF
100
AcDbEntity
8
1
62
256
6
ByLayer
370
18
48
1
60
1
100
AcDbLine
10
-3.500002
20
78.628472
30
0
11
0
21
78.167689
31
0
39
0
210
0
220
0
230
1
0
LINE
5
1C1
100
AcDbEntity
8
1
62
256
6
ByLayer
370
18
48
1
60
1
100
AcDbLine
10
-49.9
20
78.167689
30
0
11
-46.400002
21
78.628472
31
0
39
0
210
0
220
0
230
1
0
LINE
5
1C2
100
AcDbEntity
8
1
62
256
6
ByLayer
370
18
48
1
60
1
100
AcDbLine
10
-46.400002
20
78.628472
30
0
11
-46.399998
21
77.706905
31
0
39
0
210
0
220
0
230
1
0
LINE
5
1C3
100
AcDbEntity
8
1
62
256
6
ByLayer
370
18
48
1
60
1
100
AcDbLine
10
-46.399998
20
77.706905
30
0
11
-49.9
21
78.167689
31
0
39
0
210
0
220
0
230
1
0
LINE
5
1C6
100
AcDbEntity
8
1
62
256
6
ByLayer
370
18
48
1
60
1
100
AcDbLine
10
50
20
68.167689
30
0
11
46.500002
21
67.706905
31
0
39
0
210
0
220
0
230
1
0
LINE
5
1C7
100
AcDbEntity
8
1
62
256
6
ByLayer
370
18
48
1
60
1
100
AcDbLine
10
46.500002
20
67.706905
30
0
11
46.499998
21
68.628472
31
0
39
0
210
0
220
0
230
1
0
LINE
5
1C8
100
AcDbEntity
8
1
62
256
6
ByLayer
370
18
48
1
60
1
100
AcDbLine
10
46.499998
20
68.628472
30
0
11
50
21
68.167689
31
0
39
0
210
0
220
0
230
1
0
LINE
5
1CA
100
AcDbEntity
8
1
62
256
6
ByLayer
370
18
48
1
60
1
100
AcDbLine
10
28.95
20
68.167689
30
0
11
32.449998
21
68.628472
31
0
39
0
210
0
220
0
230
1
0
LINE
5
1CB
100
AcDbEntity
8
1
62
256
6
ByLayer
370
18
48
1
60
1
100
AcDbLine
10
32.449998
20
68.628472
30
0
11
32.450002
21
67.706905
31
0
39
0
210
0
220
0
230
1
0
LINE
5
1CC
100
AcDbEntity
8
1
62
256
6
ByLayer
370
18
48
1
60
1
100
AcDbLine
10
32.450002
20
67.706905
30
0
11
28.95
21
68.167689
31
0
39
0
210
0
220
0
230
1
0
LINE
5
1D0
100
AcDbEntity
8
1
62
256
6
ByLayer
370
18
48
1
60
1
100
AcDbLine
10
50
20
78.167689
30
0
11
46.500002
21
77.706905
31
0
39
0
210
0
220
0
230
1
0
LINE
5
1D1
100
AcDbEntity
8
1
62
256
6
ByLayer
370
18
48
1
60
1
100
AcDbLine
10
46.500002
20
77.706905
30
0
11
46.499998
21
78.628472
31
0
39
0
210
0
220
0
230
1
0
LINE
5
1D2
100
AcDbEntity
8
1
62
256
6
ByLayer
370
18
48
1
60
1
100
AcDbLine
10
46.499998
20
78.628472
30
0
11
50
21
78.167689
31
0
39
0
210
0
220
0
230
1
0
LINE
5
1D4
100
AcDbEntity
8
1
62
256
6
ByLayer
370
18
48
1
60
1
100
AcDbLine
10
0
20
78.167689
30
0
11
3.499998
21
78.628472
31
0
39
0
210
0
220
0
230
1
0
LINE
5
1D5
100
AcDbEntity
8
1
62
256
6
ByLayer
370
18
48
1
60
1
100
AcDbLine
10
3.499998
20
78.628472
30
0
11
3.500002
21
77.706905
31
0
39
0
210
0
220
0
230
1
0
LINE
5
1D6
100
AcDbEntity
8
1
62
256
6
ByLayer
370
18
48
1
60
1
100
AcDbLine
10
3.500002
20
77.706905
30
0
11
0
21
78.167689
31
0
39
0
210
0
220
0
230
1
0
LINE
5
1D9
100
AcDbEntity
8
1
62
256
6
ByLayer
370
18
48
1
60
1
100
AcDbLine
10
68
20
61.167689
30
0
11
64.500002
21
60.706905
31
0
39
0
210
0
220
0
230
1
0
LINE
5
1DA
100
AcDbEntity
8
1
62
256
6
ByLayer
370
18
48
1
60
1
100
AcDbLine
10
64.500002
20
60.706905
30
0
11
64.499998
21
61.628472
31
0
39
0
210
0
220
0
230
1
0
LINE
5
1DB
100
AcDbEntity
8
1
62
256
6
ByLayer
370
18
48
1
60
1
100
AcDbLine
10
64.499998
20
61.628472
30
0
11
68
21
61.167689
31
0
39
0
210
0
220
0
230
1
0
LINE
5
1DD
100
AcDbEntity
8
1
62
256
6
ByLayer
370
18
48
1
60
1
100
AcDbLine
10
50
20
61.167689
30
0
11
53.499998
21
61.628472
31
0
39
0
210
0
220
0
230
1
0
LINE
5
1DE
100
AcDbEntity
8
1
62
256
6
ByLayer
370
18
48
1
60
1
100
AcDbLine
10
53.499998
20
61.628472
30
0
11
53.500002
21
60.706905
31
0
39
0
210
0
220
0
230
1
0
LINE
5
1DF
100
AcDbEntity
8
1
62
256
6
ByLayer
370
18
48
1
60
1
100
AcDbLine
10
53.500002
20
60.706905
30
0
11
50
21
61.167689
31
0
39
0
210
0
220
0
230
1
0
MTEXT
5
19C
100
AcDbEntity
8
SK2
62
256
6
ByLayer
370
18
48
1
60
0
100
AcDbMText
10
-68.439659
20
-5.400922
30
0
210
0
220
0
230
1
1
%%c
40
3.5
41
0
44
1.084337
50
90
71
7
72
5
7
iso_b_vert
0
MTEXT
5
19F
100
AcDbEntity
8
SK2
62
256
6
ByLayer
370
18
48
1
60
0
100
AcDbMText
10
-68.439659
20
1.571734
30
0
210
0
220
0
230
1
1
\W0.6217;100
40
3.5
41
0
44
1.084337
50
90
71
7
72
5
7
iso_b_vert
0
MTEXT
5
1A8
100
AcDbEntity
8
SK2
62
256
6
ByLayer
370
18
48
1
60
0
100
AcDbMText
10
113.160366
20
-4.530622
30
0
210
0
220
0
230
1
1
%%c
40
3.5
41
0
44
1.084337
50
90
71
7
72
5
7
iso_b_vert
0
MTEXT
5
1A9
100
AcDbEntity
8
SK2
62
256
6
ByLayer
370
18
48
1
60
0
100
AcDbMText
10
113.160366
20
2.442034
30
0
210
0
220
0
230
1
1
\W0.6740;27
40
3.5
41
0
44
1.084337
50
90
71
7
72
5
7
iso_b_vert
0
MTEXT
5
1B2
100
AcDbEntity
8
SK2
62
256
6
ByLayer
370
18
48
1
60
0
100
AcDbMText
10
128.160366
20
-4.530622
30
0
210
0
220
0
230
1
1
%%c
40
3.5
41
0
44
1.084337
50
90
71
7
72
5
7
iso_b_vert
0
MTEXT
5
1B3
100
AcDbEntity
8
SK2
62
256
6
ByLayer
370
18
48
1
60
0
100
AcDbMText
10
128.160366
20
2.442034
30
0
210
0
220
0
230
1
1
\W0.6740;63
40
3.5
41
0
44
1.084337
50
90
71
7
72
5
7
iso_b_vert
0
MTEXT
5
1BC
100
AcDbEntity
8
SK2
62
256
6
ByLayer
370
18
48
1
60
0
100
AcDbMText
10
-29.055966
20
79.200322
30
0
210
0
220
0
230
1
1
\W0.7756;49.9
40
3.5
41
0
44
1.084337
50
0
71
7
72
5
7
iso_b_vert
0
MTEXT
5
1C5
100
AcDbEntity
8
SK2
62
256
6
ByLayer
370
18
48
1
60
0
100
AcDbMText
10
38.007467
20
69.200322
30
0
210
0
220
0
230
1
1
\W0.6351;21
40
3.5
41
0
44
1.084337
50
0
71
7
72
5
7
iso_b_vert
0
MTEXT
5
1CE
100
AcDbEntity
8
2
62
256
6
ByLayer
370
18
48
1
60
0
100
AcDbMText
10
24.388934
20
79.200322
30
0
210
0
220
0
230
1
1
\W0.8277;\W0.4138;%%p\W0.8277;0.1
40
3.5
41
0
44
1.084337
50
0
71
7
72
5
7
iso_b_vert
0
MTEXT
5
1CF
100
AcDbEntity
8
2
62
256
6
ByLayer
370
18
48
1
60
0
100
AcDbMText
10
16.708001
20
79.200322
30
0
210
0
220
0
230
1
1
\W0.6740;50
40
3.5
41
0
44
1.084337
50
0
71
7
72
5
7
iso_b_vert
0
MTEXT
5
1D8
100
AcDbEntity
8
SK2
62
256
6
ByLayer
370
18
48
1
60
0
100
AcDbMText
10
57.532467
20
62.200322
30
0
210
0
220
0
230
1
1
\W0.5321;18
40
3.5
41
0
44
1.084337
50
0
71
7
72
5
7
iso_b_vert
0
MTEXT
5
1E1
100
AcDbEntity
8
SK6
62
256
6
ByLayer
370
18
48
1
60
0
100
AcDbMText
10
46.712505
20
-91.981086
30
0
210
0
220
0
230
1
1
\W0.7648;HA10-AR27-B063-050
40
3
41
0
44
1.084337
50
0
71
7
72
5
7
iso_b_vert
0
HATCH
5
1A3
100
AcDbEntity
8
SK2
62
256
6
ByLayer
370
13
48
1
60
0
100
AcDbHatch
10
0
20
0
30
0
210
0
220
0
230
1
2
ANSI31
70
0
71
0
91
1
92
5
93
3
72
1
10
-66.875025
20
49.965
11
-66.4142412584472
21
46.4650016925532
72
1
10
-66.4142412584472
20
46.4650016925532
11
-67.3358087415528
21
46.4649983074468
72
1
10
-67.3358087415528
20
46.4649983074468
11
-66.875025
21
49.965
97
0
75
0
76
1
52
0
41
0.0062
77
0
78
1
53
45
43
0
44
0
45
-0.0139193969876572
46
0.0139193969876572
79
0
47
0
98
1
10
0
20
0
0
HATCH
5
1A7
100
AcDbEntity
8
SK2
62
256
6
ByLayer
370
13
48
1
60
0
100
AcDbHatch
10
0
20
0
30
0
210
0
220
0
230
1
2
ANSI31
70
0
71
0
91
1
92
5
93
3
72
1
10
-66.875025
20
-49.965
11
-67.3358087415528
21
-46.4650016925532
72
1
10
-67.3358087415528
20
-46.4650016925532
11
-66.4142412584472
21
-46.4649983074468
72
1
10
-66.4142412584472
20
-46.4649983074468
11
-66.875025
21
-49.965
97
0
75
0
76
1
52
0
41
0.0062
77
0
78
1
53
45
43
0
44
0
45
-0.0139193969876572
46
0.0139193969876572
79
0
47
0
98
1
10
0
20
0
0
HATCH
5
1AD
100
AcDbEntity
8
SK2
62
256
6
ByLayer
370
13
48
1
60
0
100
AcDbHatch
10
0
20
0
30
0
210
0
220
0
230
1
2
ANSI31
70
0
71
0
91
1
92
5
93
3
72
1
10
114.725
20
13.49675
11
115.185783741553
21
9.99675169255318
72
1
10
115.185783741553
20
9.99675169255318
11
114.264216258447
21
9.99674830744681
72
1
10
114.264216258447
20
9.99674830744681
11
114.725
21
13.49675
97
0
75
0
76
1
52
0
41
0.0062
77
0
78
1
53
45
43
0
44
0
45
-0.0139193969876572
46
0.0139193969876572
79
0
47
0
98
1
10
0
20
0
0
HATCH
5
1B1
100
AcDbEntity
8
SK2
62
256
6
ByLayer
370
13
48
1
60
0
100
AcDbHatch
10
0
20
0
30
0
210
0
220
0
230
1
2
ANSI31
70
0
71
0
91
1
92
5
93
3
72
1
10
114.725
20
-13.49675
11
114.264216258447
21
-9.99675169255318
72
1
10
114.264216258447
20
-9.99675169255318
11
115.185783741553
21
-9.99674830744681
72
1
10
115.185783741553
20
-9.99674830744681
11
114.725
21
-13.49675
97
0
75
0
76
1
52
0
41
0.0062
77
0
78
1
53
45
43
0
44
0
45
-0.0139193969876572
46
0.0139193969876572
79
0
47
0
98
1
10
0
20
0
0
HATCH
5
1B7
100
AcDbEntity
8
SK2
62
256
6
ByLayer
370
13
48
1
60
0
100
AcDbHatch
10
0
20
0
30
0
210
0
220
0
230
1
2
ANSI31
70
0
71
0
91
1
92
5
93
3
72
1
10
129.725
20
-31.5
11
129.264216258447
21
-28.0000016925532
72
1
10
129.264216258447
20
-28.0000016925532
11
130.185783741553
21
-27.9999983074468
72
1
10
130.185783741553
20
-27.9999983074468
11
129.725
21
-31.5
97
0
75
0
76
1
52
0
41
0.0062
77
0
78
1
53
45
43
0
44
0
45
-0.0139193969876572
46
0.0139193969876572
79
0
47
0
98
1
10
0
20
0
0
HATCH
5
1BB
100
AcDbEntity
8
SK2
62
256
6
ByLayer
370
13
48
1
60
0
100
AcDbHatch
10
0
20
0
30
0
210
0
220
0
230
1
2
ANSI31
70
0
71
0
91
1
92
5
93
3
72
1
10
129.725
20
31.5
11
130.185783741553
21
28.0000016925532
72
1
10
130.185783741553
20
28.0000016925532
11
129.264216258447
21
27.9999983074468
72
1
10
129.264216258447
20
27.9999983074468
11
129.725
21
31.5
97
0
75
0
76
1
52
0
41
0.0062
77
0
78
1
53
45
43
0
44
0
45
-0.0139193969876572
46
0.0139193969876572
79
0
47
0
98
1
10
0
20
0
0
HATCH
5
1C0
100
AcDbEntity
8
SK2
62
256
6
ByLayer
370
13
48
1
60
0
100
AcDbHatch
10
0
20
0
30
0
210
0
220
0
230
1
2
ANSI31
70
0
71
0
91
1
92
5
93
3
72
1
10
0
20
78.1676887402722
11
-3.49999830744682
21
77.7069049987194
72
1
10
-3.49999830744682
20
77.7069049987194
11
-3.50000169255318
21
78.628472481825
72
1
10
-3.50000169255318
20
78.628472481825
11
0
21
78.1676887402722
97
0
75
0
76
1
52
0
41
0.0062
77
0
78
1
53
45
43
0
44
0
45
-0.0139193969876572
46
0.0139193969876572
79
0
47
0
98
1
10
0
20
0
0
HATCH
5
1C4
100
AcDbEntity
8
SK2
62
256
6
ByLayer
370
13
48
1
60
0
100
AcDbHatch
10
0
20
0
30
0
210
0
220
0
230
1
2
ANSI31
70
0
71
0
91
1
92
5
93
3
72
1
10
-49.9
20
78.1676887402722
11
-46.4000016925532
21
78.628472481825
72
1
10
-46.4000016925532
20
78.628472481825
11
-46.3999983074468
21
77.7069049987194
72
1
10
-46.3999983074468
20
77.7069049987194
11
-49.9
21
78.1676887402722
97
0
75
0
76
1
52
0
41
0.0062
77
0
78
1
53
45
43
0
44
0
45
-0.0139193969876572
46
0.0139193969876572
79
0
47
0
98
1
10
0
20
0
0
HATCH
5
1C9
100
AcDbEntity
8
SK2
62
256
6
ByLayer
370
13
48
1
60
0
100
AcDbHatch
10
0
20
0
30
0
210
0
220
0
230
1
2
ANSI31
70
0
71
0
91
1
92
5
93
3
72
1
10
50
20
68.1676887402722
11
46.5000016925532
21
67.7069049987194
72
1
10
46.5000016925532
20
67.7069049987194
11
46.4999983074468
21
68.6284724818249
72
1
10
46.4999983074468
20
68.6284724818249
11
50
21
68.1676887402722
97
0
75
0
76
1
52
0
41
0.0062
77
0
78
1
53
45
43
0
44
0
45
-0.0139193969876572
46
0.0139193969876572
79
0
47
0
98
1
10
0
20
0
0
HATCH
5
1CD
100
AcDbEntity
8
SK2
62
256
6
ByLayer
370
13
48
1
60
0
100
AcDbHatch
10
0
20
0
30
0
210
0
220
0
230
1
2
ANSI31
70
0
71
0
91
1
92
5
93
3
72
1
10
28.95
20
68.1676887402722
11
32.4499983074468
21
68.6284724818249
72
1
10
32.4499983074468
20
68.6284724818249
11
32.4500016925532
21
67.7069049987194
72
1
10
32.4500016925532
20
67.7069049987194
11
28.95
21
68.1676887402722
97
0
75
0
76
1
52
0
41
0.0062
77
0
78
1
53
45
43
0
44
0
45
-0.0139193969876572
46
0.0139193969876572
79
0
47
0
98
1
10
0
20
0
0
HATCH
5
1D3
100
AcDbEntity
8
2
62
256
6
ByLayer
370
13
48
1
60
0
100
AcDbHatch
10
0
20
0
30
0
210
0
220
0
230
1
2
ANSI31
70
0
71
0
91
1
92
5
93
3
72
1
10
50
20
78.1676887402722
11
46.5000016925532
21
77.7069049987194
72
1
10
46.5000016925532
20
77.7069049987194
11
46.4999983074468
21
78.628472481825
72
1
10
46.4999983074468
20
78.628472481825
11
50
21
78.1676887402722
97
0
75
0
76
1
52
0
41
0.0062
77
0
78
1
53
45
43
0
44
0
45
-0.0139193969876572
46
0.0139193969876572
79
0
47
0
98
1
10
0
20
0
0
HATCH
5
1D7
100
AcDbEntity
8
2
62
256
6
ByLayer
370
13
48
1
60
0
100
AcDbHatch
10
0
20
0
30
0
210
0
220
0
230
1
2
ANSI31
70
0
71
0
91
1
92
5
93
3
72
1
10
0
20
78.1676887402722
11
3.49999830744682
21
78.628472481825
72
1
10
3.49999830744682
20
78.628472481825
11
3.50000169255318
21
77.7069049987194
72
1
10
3.50000169255318
20
77.7069049987194
11
0
21
78.1676887402722
97
0
75
0
76
1
52
0
41
0.0062
77
0
78
1
53
45
43
0
44
0
45
-0.0139193969876572
46
0.0139193969876572
79
0
47
0
98
1
10
0
20
0
0
HATCH
5
1DC
100
AcDbEntity
8
SK2
62
256
6
ByLayer
370
13
48
1
60
0
100
AcDbHatch
10
0
20
0
30
0
210
0
220
0
230
1
2
ANSI31
70
0
71
0
91
1
92
5
93
3
72
1
10
68
20
61.1676887402721
11
64.5000016925532
21
60.7069049987194
72
1
10
64.5000016925532
20
60.7069049987194
11
64.4999983074468
21
61.6284724818249
72
1
10
64.4999983074468
20
61.6284724818249
11
68
21
61.1676887402721
97
0
75
0
76
1
52
0
41
0.0062
77
0
78
1
53
45
43
0
44
0
45
-0.0139193969876572
46
0.0139193969876572
79
0
47
0
98
1
10
0
20
0
0
HATCH
5
1E0
100
AcDbEntity
8
SK2
62
256
6
ByLayer
370
13
48
1
60
0
100
AcDbHatch
10
0
20
0
30
0
210
0
220
0
230
1
2
ANSI31
70
0
71
0
91
1
92
5
93
3
72
1
10
50
20
61.1676887402721
11
53.4999983074468
21
61.6284724818249
72
1
10
53.4999983074468
20
61.6284724818249
11
53.5000016925532
21
60.7069049987194
72
1
10
53.5000016925532
20
60.7069049987194
11
50
21
61.1676887402721
97
0
75
0
76
1
52
0
41
0.0062
77
0
78
1
53
45
43
0
44
0
45
-0.0139193969876572
46
0.0139193969876572
79
0
47
0
98
1
10
0
20
0
0
ENDSEC
0
SECTION
2
OBJECTS
0
DICTIONARY
5
250
330
0
100
AcDbDictionary
280
0
281
1
3
ACAD_GROUP
350
251
3
ACAD_MLINESTYLE
350
252
0
DICTIONARY
5
251
330
0
100
AcDbDictionary
280
0
281
1
0
DICTIONARY
5
252
330
0
100
AcDbDictionary
280
0
281
1
3
Standard
350
18
0
MLINESTYLE
5
18
330
252
100
AcDbMlineStyle
2
Standard
70
0
3

62
256
51
90
52
90
71
2
49
-0.5
62
256
6
ByLayer
49
0.5
62
256
6
ByLayer
0
RASTERVARIABLES
5
23e
330

100
AcDbRasterVariables
90
0
70
1
71
1
72
1
0
ENDSEC
0
EOF
