0
SECTION
2
HEADER
9
$ACADVER
1
AC1015
9
$DWGCODEPAGE
3
ANSI_1252
9
$HANDSEED
5
273
9
$ANGBASE
50
0
9
$ANGDIR
70
0
9
$ATTMODE
70
1
9
$AUNITS
70
0
9
$AUPREC
70
0
9
$CECOLOR
62
256
9
$CELTSCALE
40
1
9
$CELTYPE
6
ByLayer
9
$CELWEIGHT
370
18
9
$CLAYER
8
0
9
$CMLJUST
70
0
9
$CMLSCALE
40
1
9
$CMLSTYLE
2
Standard
9
$DIMSTYLE
2
Standard
9
$TEXTSIZE
40
0.2
9
$TEXTSTYLE
7
Standard
9
$LUNITS
70
2
9
$LUPREC
70
4
9
$EXTNAMES
290
1
9
$INSUNITS
70
4
9
$LTSCALE
40
1
9
$LWDISPLAY
290
1
9
$PDMODE
70
0
9
$PDSIZE
40
0
9
$PLINEGEN
70
0
0
ENDSEC
0
SECTION
2
CLASSES
0
CLASS
1
RASTERVARIABLES
2
AcDbRasterVariables
3
ISM
90
0
280
0
281
0
0
ENDSEC
0
SECTION
2
TABLES
0
TABLE
2
VPORT
5
269
100
AcDbSymbolTable
0
VPORT
5
1
100
AcDbSymbolTableRecord
100
AcDbViewportTableRecord
2
*Active
70
0
10
0
20
0
11
1
21
1
12
-1
22
1
13
0
23
0
14
0.5
24
0.5
15
10
25
10
16
0
26
0
36
1
17
0
27
0
37
0
0
ENDTAB
0
TABLE
2
LTYPE
5
26a
100
AcDbSymbolTable
0
LTYPE
5
14
100
AcDbSymbolTableRecord
100
AcDbLinetypeTableRecord
70
0
2
ByBlock
3

72
65
73
0
40
0
0
LTYPE
5
15
100
AcDbSymbolTableRecord
100
AcDbLinetypeTableRecord
70
0
2
ByLayer
3

72
65
73
0
40
0
0
LTYPE
5
16
100
AcDbSymbolTableRecord
100
AcDbLinetypeTableRecord
70
0
2
Continuous
3
Solid line
72
65
73
0
40
0
0
LTYPE
5
6E
100
AcDbSymbolTableRecord
100
AcDbLinetypeTableRecord
70
0
2
CENTER
3
____ _ ____ _ ____ _ ____
72
65
73
4
40
47.5
49
22
74
0
49
-8.5
74
0
49
8.5
74
0
49
-8.5
74
0
0
LTYPE
5
6F
100
AcDbSymbolTableRecord
100
AcDbLinetypeTableRecord
70
0
2
DASHED
3
__ __ __ __ __ __ __ __ __
72
65
73
2
40
25.72
49
12.86
74
0
49
-12.86
74
0
0
ENDTAB
0
TABLE
2
LAYER
5
26b
100
AcDbSymbolTable
0
LAYER
5
10
100
AcDbSymbolTableRecord
100
AcDbLayerTableRecord
2
0
70
0
62
7
6
Continuous
290
1
370
-3
390
0
0
LAYER
5
71
100
AcDbSymbolTableRecord
100
AcDbLayerTableRecord
2
2
70
0
62
7
6
Continuous
290
1
370
-3
390
0
0
LAYER
5
7A
100
AcDbSymbolTableRecord
100
AcDbLayerTableRecord
2
80
70
0
62
-6
6
Continuous
290
1
370
-3
390
0
0
LAYER
5
7C
100
AcDbSymbolTableRecord
100
AcDbLayerTableRecord
2
81
70
0
62
-3
6
Continuous
290
1
370
-3
390
0
0
LAYER
5
7E
100
AcDbSymbolTableRecord
100
AcDbLayerTableRecord
2
1
70
0
62
4
6
Continuous
290
1
370
-3
390
0
0
LAYER
5
8C
100
AcDbSymbolTableRecord
100
AcDbLayerTableRecord
2
4
70
0
62
-2
6
CENTER
290
1
370
-3
390
0
0
LAYER
5
255
100
AcDbSymbolTableRecord
100
AcDbLayerTableRecord
2
SK4
70
0
62
2
6
CENTER
290
1
370
-3
390
0
0
LAYER
5
256
100
AcDbSymbolTableRecord
100
AcDbLayerTableRecord
2
SK2
70
0
62
7
6
Continuous
290
1
370
-3
390
0
0
LAYER
5
257
100
AcDbSymbolTableRecord
100
AcDbLayerTableRecord
2
SK1
70
0
62
4
6
Continuous
290
1
370
-3
390
0
0
LAYER
5
258
100
AcDbSymbolTableRecord
100
AcDbLayerTableRecord
2
SK6
70
0
62
5
6
Continuous
290
1
370
-3
390
0
0
ENDTAB
0
TABLE
2
STYLE
5
26c
100
AcDbSymbolTable
0
STYLE
5
11
100
AcDbSymbolTableRecord
100
AcDbTextStyleTableRecord
2
Standard
3
txt
70
0
71
0
40
0
41
1
42
0
50
0
0
STYLE
5
1B3
100
AcDbSymbolTableRecord
100
AcDbTextStyleTableRecord
2
iso_b_vert
3
simplex.shx
70
0
71
0
40
0
41
1
42
0
50
0
0
STYLE
5
1B4
100
AcDbSymbolTableRecord
100
AcDbTextStyleTableRecord
2
DWGDirectTextStyle
3
simplex
70
0
71
0
40
0
41
1
42
0
50
0
0
ENDTAB
0
TABLE
2
DIMSTYLE
5
26d
100
AcDbSymbolTable
100
AcDbDimStyleTable
0
DIMSTYLE
105
27
100
AcDbSymbolTableRecord
100
AcDbDimStyleTableRecord
2
Standard
70
0
3
<>
41
0.18
42
0.0625
44
0.18
140
0.18
147
0.09
73
0
74
0
77
1
271
2
275
0
278
52
280
0
340
11
0
ENDTAB
0
TABLE
2
VIEW
5
26e
100
AcDbSymbolTable
0
ENDTAB
0
TABLE
2
UCS
5
26f
100
AcDbSymbolTable
0
ENDTAB
0
TABLE
2
APPID
5
270
100
AcDbSymbolTable
0
APPID
5
12
100
AcDbSymbolTableRecord
100
AcDbRegAppTableRecord
2
ACAD
70
0
0
APPID
5
251
100
AcDbSymbolTableRecord
100
AcDbRegAppTableRecord
2
ACAD_MLEADERVER
70
0
0
ENDTAB
0
TABLE
2
BLOCK_RECORD
5
271
100
AcDbSymbolTable
0
BLOCK_RECORD
5
1F
100
AcDbSymbolTableRecord
100
AcDbBlockTableRecord
2
*Model_Space
340
0
70
0
0
BLOCK_RECORD
5
1B
100
AcDbSymbolTableRecord
100
AcDbBlockTableRecord
2
*Paper_Space
340
0
70
0
0
BLOCK_RECORD
5
23
100
AcDbSymbolTableRecord
100
AcDbBlockTableRecord
2
*Paper_Space0
340
0
70
0
0
ENDTAB
0
ENDSEC
0
SECTION
2
BLOCKS
0
BLOCK
5
20
100
AcDbEntity
8
0
100
AcDbBlockBegin
2
*Model_Space
70
0
10
0
20
0
30
0
3
*Model_Space
0
ENDBLK
5
21
100
AcDbEntity
8
0
100
AcDbBlockEnd
0
BLOCK
5
1C
100
AcDbEntity
8
0
100
AcDbBlockBegin
2
*Paper_Space
70
0
10
0
20
0
30
0
3
*Paper_Space
0
ENDBLK
5
1D
100
AcDbEntity
8
0
100
AcDbBlockEnd
0
BLOCK
5
24
100
AcDbEntity
8
0
100
AcDbBlockBegin
2
*Paper_Space0
70
0
10
0
20
0
30
0
3
*Paper_Space0
0
ENDBLK
5
25
100
AcDbEntity
8
0
100
AcDbBlockEnd
0
ENDSEC
0
SECTION
2
ENTITIES
0
ARC
5
162
100
AcDbEntity
8
1
62
256
6
ByLayer
370
18
48
1
60
0
100
AcDbCircle
39
0
10
20.95
20
-17
30
0
40
1
210
0
220
0
230
1
100
AcDbArc
50
90
51
180
0
ARC
5
163
100
AcDbEntity
8
1
62
256
6
ByLayer
370
18
48
1
60
0
100
AcDbCircle
39
0
10
20.95
20
17
30
0
40
1
210
0
220
0
230
1
100
AcDbArc
50
180
51
270
0
ARC
5
164
100
AcDbEntity
8
1
62
256
6
ByLayer
370
18
48
1
60
0
100
AcDbCircle
39
0
10
16.65
20
-17.775
30
0
40
0.399999999999999
210
0
220
0
230
1
100
AcDbArc
50
0
51
90
0
ARC
5
165
100
AcDbEntity
8
1
62
256
6
ByLayer
370
18
48
1
60
0
100
AcDbCircle
39
0
10
15.35
20
17.775
30
0
40
0.4
210
0
220
0
230
1
100
AcDbArc
50
180
51
270
0
ARC
5
166
100
AcDbEntity
8
1
62
256
6
ByLayer
370
18
48
1
60
0
100
AcDbCircle
39
0
10
16.65
20
17.775
30
0
40
0.399999999999999
210
0
220
0
230
1
100
AcDbArc
50
270
51
0
0
ARC
5
167
100
AcDbEntity
8
1
62
256
6
ByLayer
370
18
48
1
60
0
100
AcDbCircle
39
0
10
15.35
20
-17.775
30
0
40
0.4
210
0
220
0
230
1
100
AcDbArc
50
90
51
180
0
ARC
5
168
100
AcDbEntity
8
SK2
62
256
6
ByLayer
370
18
48
1
60
0
100
AcDbCircle
39
0
10
73.5
20
-6
30
0
40
0.5
210
0
220
0
230
1
100
AcDbArc
50
270
51
0
0
ARC
5
169
100
AcDbEntity
8
SK2
62
256
6
ByLayer
370
18
48
1
60
0
100
AcDbCircle
39
0
10
73.5
20
6
30
0
40
0.5
210
0
220
0
230
1
100
AcDbArc
50
0
51
90
0
ARC
5
16A
100
AcDbEntity
8
SK1
62
256
6
ByLayer
370
18
48
1
60
0
100
AcDbCircle
39
0
10
-19.1
20
-13.445984
30
0
40
0.8
210
0
220
0
230
1
100
AcDbArc
50
180
51
267.131868
0
ARC
5
16B
100
AcDbEntity
8
SK1
62
256
6
ByLayer
370
18
48
1
60
0
100
AcDbCircle
39
0
10
-19.1
20
13.445984
30
0
40
0.8
210
0
220
0
230
1
100
AcDbArc
50
92.868132
51
180
0
ARC
5
16C
100
AcDbEntity
8
SK1
62
256
6
ByLayer
370
18
48
1
60
0
100
AcDbCircle
39
0
10
-0.25
20
15.2537
30
0
40
0.4
210
0
220
0
230
1
100
AcDbArc
50
270
51
308.682187
0
ARC
5
16D
100
AcDbEntity
8
SK1
62
256
6
ByLayer
370
18
48
1
60
0
100
AcDbCircle
39
0
10
-0.25
20
-15.2537
30
0
40
0.4
210
0
220
0
230
1
100
AcDbArc
50
51.317813
51
90
0
ARC
5
16E
100
AcDbEntity
8
SK1
62
256
6
ByLayer
370
18
48
1
60
0
100
AcDbCircle
39
0
10
-14.7
20
3.125
30
0
40
0.9
210
0
220
0
230
1
100
AcDbArc
50
0
51
90
0
ARC
5
16F
100
AcDbEntity
8
SK1
62
256
6
ByLayer
370
18
48
1
60
0
100
AcDbCircle
39
0
10
-14.7
20
-3.125
30
0
40
0.9
210
0
220
0
230
1
100
AcDbArc
50
270
51
0
0
CIRCLE
5
170
100
AcDbEntity
8
SK1
62
256
6
ByLayer
370
18
48
1
60
0
100
AcDbCircle
10
-6
20
0
30
0
40
2.3
39
0
210
0
220
0
230
1
0
ELLIPSE
5
171
100
AcDbEntity
8
SK1
62
256
6
ByLayer
370
13
48
1
60
0
100
AcDbEllipse
10
-14.7
20
7.167094
30
0
11
0.9
21
0
31
0
210
0
220
0
230
1
40
0.45399
41
-1.5707963267949
42
-0.984982557211485
0
ELLIPSE
5
172
100
AcDbEntity
8
SK1
62
256
6
ByLayer
370
13
48
1
60
0
100
AcDbEllipse
10
-14.7
20
-7.167094
30
0
11
0.9
21
0
31
0
210
0
220
0
230
1
40
0.45399
41
0.984982557212411
42
1.57079632679489
0
ELLIPSE
5
173
100
AcDbEntity
8
SK1
62
256
6
ByLayer
370
18
48
1
60
0
100
AcDbEllipse
10
-32.609743
20
0.308653
30
0
11
11.5791761468677
21
11.5537918651439
31
0
210
0
220
0
230
1
40
0.61245
41
-0.527971093048714
42
-0.426808397922591
0
ELLIPSE
5
174
100
AcDbEntity
8
SK1
62
256
6
ByLayer
370
18
48
1
60
0
100
AcDbEllipse
10
-32.609743
20
-0.308653
30
0
11
11.5791761314939
21
-11.5537918593271
31
0
210
0
220
0
230
1
40
0.61245
41
0.426808398357956
42
0.527971093535987
0
POINT
5
70
100
AcDbEntity
8
2
62
256
6
ByLayer
370
18
48
1
60
0
100
AcDbPoint
10
0
20
0
30
0
39
0
210
0
220
0
230
1
50
360
0
POINT
5
72
100
AcDbEntity
8
2
62
256
6
ByLayer
370
18
48
1
60
0
100
AcDbPoint
10
40
20
0
30
0
39
0
210
0
220
0
230
1
50
360
0
POINT
5
73
100
AcDbEntity
8
2
62
256
6
ByLayer
370
18
48
1
60
0
100
AcDbPoint
10
61
20
0
30
0
39
0
210
0
220
0
230
1
50
360
0
POINT
5
74
100
AcDbEntity
8
2
62
256
6
ByLayer
370
18
48
1
60
0
100
AcDbPoint
10
40
20
0
30
0
39
0
210
0
220
0
230
1
50
360
0
POINT
5
75
100
AcDbEntity
8
2
62
256
6
ByLayer
370
18
48
1
60
0
100
AcDbPoint
10
40
20
0
30
0
39
0
210
0
220
0
230
1
50
360
0
POINT
5
76
100
AcDbEntity
8
2
62
256
6
ByLayer
370
18
48
1
60
0
100
AcDbPoint
10
61
20
0
30
0
39
0
210
0
220
0
230
1
50
360
0
POINT
5
77
100
AcDbEntity
8
2
62
256
6
ByLayer
370
18
48
1
60
0
100
AcDbPoint
10
61
20
0
30
0
39
0
210
0
220
0
230
1
50
360
0
POINT
5
78
100
AcDbEntity
8
2
62
256
6
ByLayer
370
18
48
1
60
0
100
AcDbPoint
10
40
20
0
30
0
39
0
210
0
220
0
230
1
50
360
0
POINT
5
79
100
AcDbEntity
8
80
62
256
6
ByLayer
370
18
48
1
60
0
100
AcDbPoint
10
0
20
0
30
0
39
0
210
0
220
0
230
1
50
360
0
POINT
5
7B
100
AcDbEntity
8
81
62
256
6
ByLayer
370
18
48
1
60
0
100
AcDbPoint
10
50
20
0
30
0
39
0
210
0
220
0
230
1
50
360
0
POINT
5
7D
100
AcDbEntity
8
1
62
256
6
ByLayer
370
13
48
1
60
1
100
AcDbPoint
10
16
20
17.137671
30
0
39
0
210
0
220
0
230
1
50
360
0
POINT
5
7F
100
AcDbEntity
8
1
62
256
6
ByLayer
370
13
48
1
60
1
100
AcDbPoint
10
16
20
8.988456
30
0
39
0
210
0
220
0
230
1
50
360
0
POINT
5
80
100
AcDbEntity
8
1
62
256
6
ByLayer
370
13
48
1
60
1
100
AcDbPoint
10
16
20
18.753527
30
0
39
0
210
0
220
0
230
1
50
360
0
POINT
5
81
100
AcDbEntity
8
1
62
256
6
ByLayer
370
13
48
1
60
1
100
AcDbPoint
10
16
20
10.378873
30
0
39
0
210
0
220
0
230
1
50
360
0
POINT
5
82
100
AcDbEntity
8
1
62
256
6
ByLayer
370
13
48
1
60
1
100
AcDbPoint
10
-20.64003
20
0
30
0
39
0
210
0
220
0
230
1
50
360
0
POINT
5
83
100
AcDbEntity
8
1
62
256
6
ByLayer
370
13
48
1
60
1
100
AcDbPoint
10
62.5
20
0
30
0
39
0
210
0
220
0
230
1
50
360
0
POINT
5
84
100
AcDbEntity
8
1
62
256
6
ByLayer
370
13
48
1
60
1
100
AcDbPoint
10
34.1
20
0
30
0
39
0
210
0
220
0
230
1
50
360
0
POINT
5
85
100
AcDbEntity
8
1
62
256
6
ByLayer
370
13
48
1
60
1
100
AcDbPoint
10
55.9
20
0
30
0
39
0
210
0
220
0
230
1
50
360
0
POINT
5
86
100
AcDbEntity
8
1
62
256
6
ByLayer
370
13
48
1
60
1
100
AcDbPoint
10
75
20
0
30
0
39
0
210
0
220
0
230
1
50
360
0
POINT
5
87
100
AcDbEntity
8
1
62
256
6
ByLayer
370
13
48
1
60
1
100
AcDbPoint
10
28
20
0
30
0
39
0
210
0
220
0
230
1
50
360
0
POINT
5
88
100
AcDbEntity
8
1
62
256
6
ByLayer
370
13
48
1
60
1
100
AcDbPoint
10
70.5
20
0
30
0
39
0
210
0
220
0
230
1
50
360
0
POINT
5
89
100
AcDbEntity
8
1
62
256
6
ByLayer
370
13
48
1
60
1
100
AcDbPoint
10
62.5
20
0
30
0
39
0
210
0
220
0
230
1
50
360
0
SPLINE
5
175
100
AcDbEntity
8
1
62
256
6
ByLayer
370
18
48
1
60
0
100
AcDbSpline
70
4
71
3
72
34
73
30
40
0
40
0
40
0
40
0
40
0.124999999999987
40
0.124999999999987
40
0.187499999999981
40
0.187499999999981
40
0.218749999999978
40
0.218749999999978
40
0.249999999999974
40
0.249999999999974
40
0.374999999999981
40
0.374999999999981
40
0.437499999999985
40
0.437499999999985
40
0.468749999999987
40
0.468749999999987
40
0.499999999999988
40
0.499999999999988
40
0.624999999999987
40
0.624999999999987
40
0.68749999999999
40
0.68749999999999
40
0.749999999999993
40
0.749999999999993
40
0.875
40
0.875
40
0.9375
40
0.9375
40
1
40
1
40
1
40
1
41
1
10
15.35
20
16.9635865571446
30
0
41
1
10
15.3952095491983
20
16.9719597088624
30
0
41
1
10
15.4431622557148
20
16.9792174389199
30
0
41
1
10
15.5190372031604
20
16.9886076015806
30
0
41
1
10
15.5449905310688
20
16.9914864151106
30
0
41
1
10
15.5849273389743
20
16.9954344004638
30
0
41
1
10
15.598407653621
20
16.9966885873554
30
0
41
1
10
15.6257098168115
20
16.9990731858583
30
0
41
1
10
15.6395668740135
20
17.0002061292912
30
0
41
1
10
15.7091541298033
20
17.0055167794402
30
0
41
1
10
15.7658888935766
20
17.0086592065016
30
0
41
1
10
15.8525362449542
20
17.011826086987
30
0
41
1
10
15.8816777679593
20
17.0126219389046
30
0
41
1
10
15.9257859035745
20
17.0134226603181
30
0
41
1
10
15.9405546864199
20
17.0136239383202
30
0
41
1
10
15.9702268208031
20
17.0138931584306
30
0
41
1
10
15.9851116262665
20
17.0139605389619
30
0
41
1
10
16.0591316605957
20
17.0139618075002
30
0
41
1
10
16.1176343486612
20
17.012904960365
30
0
41
1
10
16.2043452989088
20
17.0097526687771
30
0
41
1
10
16.2330740832384
20
17.0084388170877
30
0
41
1
10
16.2901740181009
20
17.0052646350944
30
0
41
1
10
16.3186181333313
20
17.0033959648016
30
0
41
1
10
16.4017522017651
20
16.9970554619482
30
0
41
1
10
16.4547903122548
20
16.9918329928831
30
0
41
1
10
16.5308313744467
20
16.9824426280288
30
0
41
1
10
16.5555889903846
20
16.9790513905101
30
0
41
1
10
16.6038935160911
20
16.9717145054689
30
0
41
1
10
16.6273951933081
20
16.9677731389473
30
0
41
1
10
16.65
20
16.9635865571446
30
0
0
SPLINE
5
176
100
AcDbEntity
8
1
62
256
6
ByLayer
370
18
48
1
60
0
100
AcDbSpline
70
4
71
3
72
14
73
10
40
0
40
0
40
0
40
0
40
0.499999999999998
40
0.499999999999998
40
0.624999999999998
40
0.624999999999998
40
0.749999999999997
40
0.749999999999997
40
1
40
1
40
1
40
1
41
1
10
60.9999999999998
20
5.58249421500798
30
0
41
1
10
60.9668558882697
20
5.48985817425984
30
0
41
1
10
60.9493538110703
20
5.38563128413472
30
0
41
1
10
60.9491856067245
20
5.23953501635702
30
0
41
1
10
60.95023547308
20
5.20952471065269
30
0
41
1
10
60.9545469570564
20
5.14788762892945
30
0
41
1
10
60.9577943058671
20
5.11649463370145
30
0
41
1
10
60.9706614155676
20
5.02094456800506
30
0
41
1
10
60.9834143093522
20
4.95528928816094
30
0
41
1
10
61
20
4.88780833857845
30
0
0
SPLINE
5
177
100
AcDbEntity
8
1
62
256
6
ByLayer
370
18
48
1
60
0
100
AcDbSpline
70
4
71
3
72
14
73
10
40
0
40
0
40
0
40
0
40
0.499999999999995
40
0.499999999999995
40
0.624999999999996
40
0.624999999999996
40
0.749999999999998
40
0.749999999999998
40
1
40
1
40
1
40
1
41
1
10
61
20
-4.88780833857851
30
0
41
1
10
60.9668558882698
20
-5.02265928811832
30
0
41
1
10
60.9493538110703
20
-5.14898315386409
30
0
41
1
10
60.9491856067245
20
-5.29529236085139
30
0
41
1
10
60.95023547308
20
-5.32397385733481
30
0
41
1
10
60.9545469570564
20
-5.3801507127489
30
0
41
1
10
60.9577943058671
20
-5.40743032170241
30
0
41
1
10
60.9706614155676
20
-5.48666602911911
30
0
41
1
10
60.9834143093522
20
-5.53613808613736
30
0
41
1
10
61
20
-5.58249421500844
30
0
0
SPLINE
5
178
100
AcDbEntity
8
1
62
256
6
ByLayer
370
18
48
1
60
0
100
AcDbSpline
70
4
71
3
72
34
73
30
40
0
40
0
40
0
40
0
40
0.125000000000009
40
0.125000000000009
40
0.187500000000017
40
0.187500000000017
40
0.218750000000022
40
0.218750000000022
40
0.250000000000027
40
0.250000000000027
40
0.37500000000003
40
0.37500000000003
40
0.437500000000031
40
0.437500000000031
40
0.468750000000032
40
0.468750000000032
40
0.500000000000033
40
0.500000000000033
40
0.625000000000029
40
0.625000000000029
40
0.687500000000023
40
0.687500000000023
40
0.750000000000017
40
0.750000000000017
40
0.875000000000007
40
0.875000000000007
40
0.937500000000004
40
0.937500000000004
40
1
40
1
40
1
40
1
41
1
10
16.65
20
16.5702156652004
30
0
41
1
10
16.6047904508017
20
16.5585720576971
30
0
41
1
10
16.5568377442852
20
16.5481855265898
30
0
41
1
10
16.4809627968395
20
16.5345192249139
30
0
41
1
10
16.4550094689312
20
16.530284362794
30
0
41
1
10
16.4150726610257
20
16.5244315984963
30
0
41
1
10
16.401592346379
20
16.5225640394522
30
0
41
1
10
16.3742901831885
20
16.5190001420415
30
0
41
1
10
16.3604331259864
20
16.5172999795431
30
0
41
1
10
16.2908458701967
20
16.5093043843345
30
0
41
1
10
16.2341111064234
20
16.5044903700457
30
0
41
1
10
16.1474637550458
20
16.4996218467036
30
0
41
1
10
16.1183222320407
20
16.4983930017611
30
0
41
1
10
16.0742140964254
20
16.497155496765
30
0
41
1
10
16.0594453135801
20
16.4968440781974
30
0
41
1
10
16.0297731791969
20
16.4964274430849
30
0
41
1
10
16.0148883737335
20
16.4963230971123
30
0
41
1
10
15.9408683394043
20
16.4963211330844
30
0
41
1
10
15.8823656513388
20
16.4979630302494
30
0
41
1
10
15.7956547010912
20
16.5028094797142
30
0
41
1
10
15.7669259167617
20
16.5048241825603
30
0
41
1
10
15.7098259818991
20
16.5096619048769
30
0
41
1
10
15.6813818666687
20
16.5124973363305
30
0
41
1
10
15.5982477982348
20
16.5220437497927
30
0
41
1
10
15.5452096877451
20
16.5298231872997
30
0
41
1
10
15.4691686255533
20
16.543492539635
30
0
41
1
10
15.4444110096154
20
16.5483841154848
30
0
41
1
10
15.3961064839089
20
16.5588380884382
30
0
41
1
10
15.3726048066919
20
16.5643938531834
30
0
41
1
10
15.35
20
16.5702156652004
30
0
0
SPLINE
5
179
100
AcDbEntity
8
1
62
256
6
ByLayer
370
18
48
1
60
0
100
AcDbSpline
70
4
71
3
72
34
73
30
40
0
40
0
40
0
40
0
40
0.125000000000004
40
0.125000000000004
40
0.187500000000005
40
0.187500000000005
40
0.218750000000006
40
0.218750000000006
40
0.250000000000003
40
0.250000000000003
40
0.375000000000012
40
0.375000000000012
40
0.437500000000016
40
0.437500000000016
40
0.468750000000019
40
0.468750000000019
40
0.500000000000021
40
0.500000000000021
40
0.625000000000023
40
0.625000000000023
40
0.68750000000002
40
0.68750000000002
40
0.750000000000017
40
0.750000000000017
40
0.875000000000012
40
0.875000000000012
40
0.937500000000006
40
0.937500000000006
40
1
40
1
40
1
40
1
41
1
10
15.35
20
15.4127593843838
30
0
41
1
10
15.3952095491983
20
15.430627983854
30
0
41
1
10
15.4431622557148
20
15.4462684282597
30
0
41
1
10
15.5190372031604
20
15.4666223219471
30
0
41
1
10
15.5449905310688
20
15.4728857050247
30
0
41
1
10
15.5849273389743
20
15.4814986131886
30
0
41
1
10
15.598407653621
20
15.4842390209975
30
0
41
1
10
15.6257098168115
20
15.4894561615905
30
0
41
1
10
15.6395668740135
20
15.4919384544273
30
0
41
1
10
15.7091541298033
20
15.5035876725269
30
0
41
1
10
15.7658888935766
20
15.5105236526585
30
0
41
1
10
15.8525362449542
20
15.5175224311165
30
0
41
1
10
15.8816777679593
20
15.5192840326411
30
0
41
1
10
15.9257859035745
20
15.5210570034466
30
0
41
1
10
15.9405546864199
20
15.5215028556396
30
0
41
1
10
15.9702268208031
20
15.5220992565748
30
0
41
1
10
15.9851116262665
20
15.522248560486
30
0
41
1
10
16.0591316605957
20
15.5222513711258
30
0
41
1
10
16.1176343486612
20
15.519906855061
30
0
41
1
10
16.2043452989088
20
15.5129401346995
30
0
41
1
10
16.2330740832384
20
15.5100391808879
30
0
41
1
10
16.2901740181009
20
15.5030460203226
30
0
41
1
10
16.3186181333313
20
15.4989355941284
30
0
41
1
10
16.4017522017652
20
15.485027181768
30
0
41
1
10
16.4547903122548
20
15.4736145620131
30
0
41
1
10
16.5308313744467
20
15.4532588032433
30
0
41
1
10
16.5555889903846
20
15.4459308031701
30
0
41
1
10
16.6038935160911
20
15.4301435062446
30
0
41
1
10
16.6273951933081
20
15.4216936968032
30
0
41
1
10
16.65
20
15.4127593843838
30
0
0
SPLINE
5
17A
100
AcDbEntity
8
1
62
256
6
ByLayer
370
18
48
1
60
0
100
AcDbSpline
70
4
71
3
72
8
73
4
40
0
40
0
40
0
40
0
40
1
40
1
40
1
40
1
41
1
10
39.652862576383
20
-4.236862576383
30
0
41
1
10
39.7694090423956
20
-4.35340904239564
30
0
41
1
10
39.8851352190082
20
-4.46913521900825
30
0
41
1
10
40
20
-4.58400000000003
30
0
0
SPLINE
5
17B
100
AcDbEntity
8
1
62
256
6
ByLayer
370
18
48
1
60
0
100
AcDbSpline
70
4
71
3
72
8
73
4
40
0
40
0
40
0
40
0
40
1
40
1
40
1
40
1
41
1
10
40
20
4.58399999999997
30
0
41
1
10
39.8851352190066
20
4.4691352190066
30
0
41
1
10
39.7694090423923
20
4.35340904239231
30
0
41
1
10
39.6528625763781
20
4.23686257637803
30
0
0
SPLINE
5
17C
100
AcDbEntity
8
1
62
256
6
ByLayer
370
18
48
1
60
0
100
AcDbSpline
70
4
71
3
72
8
73
4
40
0
40
0
40
0
40
0
40
1
40
1
40
1
40
1
41
1
10
39.5
20
-4.37502574612
30
0
41
1
10
39.5510162570277
20
-4.32901041416596
30
0
41
1
10
39.6019711548205
20
-4.28295646833459
30
0
41
1
10
39.652862576383
20
-4.236862576383
30
0
0
SPLINE
5
17D
100
AcDbEntity
8
1
62
256
6
ByLayer
370
18
48
1
60
0
100
AcDbSpline
70
4
71
3
72
8
73
4
40
0
40
0
40
0
40
0
40
1
40
1
40
1
40
1
41
1
10
39.6528625763807
20
4.23686257638497
30
0
41
1
10
39.601971154819
20
4.28295646833587
30
0
41
1
10
39.5510162570269
20
4.32901041416659
30
0
41
1
10
39.5
20
4.37502574611995
30
0
0
SPLINE
5
17E
100
AcDbEntity
8
1
62
256
6
ByLayer
370
13
48
1
60
0
100
AcDbSpline
70
4
71
1
72
4
73
2
40
0
40
0
40
1
40
1
41
1
10
34.084
20
4.37502574611995
30
0
41
1
10
34.084
20
4.08399999999997
30
0
0
SPLINE
5
17F
100
AcDbEntity
8
1
62
256
6
ByLayer
370
13
48
1
60
0
100
AcDbSpline
70
4
71
1
72
4
73
2
40
0
40
0
40
1
40
1
41
1
10
34.084
20
-4.08400000000003
30
0
41
1
10
34.084
20
-4.37502574612
30
0
0
SPLINE
5
180
100
AcDbEntity
8
1
62
256
6
ByLayer
370
18
48
1
60
0
100
AcDbSpline
70
4
71
3
72
80
73
76
40
0
40
0
40
0
40
0
40
0.03125
40
0.03125
40
0.0625
40
0.0625
40
0.09375
40
0.09375
40
0.109375
40
0.109375
40
0.125
40
0.125
40
0.15625
40
0.15625
40
0.1875
40
0.1875
40
0.203125
40
0.203125
40
0.21875
40
0.21875
40
0.25
40
0.25
40
0.28125
40
0.28125
40
0.3125
40
0.3125
40
0.34375
40
0.34375
40
0.375
40
0.375
40
0.40625
40
0.40625
40
0.421875
40
0.421875
40
0.4375
40
0.4375
40
0.46875
40
0.46875
40
0.5
40
0.5
40
0.53125
40
0.53125
40
0.5625
40
0.5625
40
0.59375
40
0.59375
40
0.625
40
0.625
40
0.640625
40
0.640625
40
0.65625
40
0.65625
40
0.6875
40
0.6875
40
0.71875
40
0.71875
40
0.734375
40
0.734375
40
0.75
40
0.75
40
0.78125
40
0.78125
40
0.8125
40
0.8125
40
0.84375
40
0.84375
40
0.875
40
0.875
40
0.90625
40
0.90625
40
0.9375
40
0.9375
40
0.96875
40
0.96875
40
1
40
1
40
1
40
1
41
1
10
34.084
20
-4.08400000000003
30
0
41
1
10
33.948424754117
20
-4.0839961833918
30
0
41
1
10
33.8140571338573
20
-4.07726668867451
30
0
41
1
10
33.5476474035644
20
-4.05083958689957
30
0
41
1
10
33.4156050109886
20
-4.03114377613772
30
0
41
1
10
33.1538174543289
20
-3.97889828777241
30
0
41
1
10
33.0240676755419
20
-3.9463380608268
30
0
41
1
10
32.8312061376734
20
-3.8876877921721
30
0
41
1
10
32.7670498810052
20
-3.86642534701062
30
0
41
1
10
32.6402587629267
20
-3.82088934906707
30
0
41
1
10
32.5776997217807
20
-3.79665864393442
30
0
41
1
10
32.3926473548512
20
-3.71969859107691
30
0
41
1
10
32.2723616609503
20
-3.66260199421669
30
0
41
1
10
32.0382765569549
20
-3.53718856398959
30
0
41
1
10
31.9243359207633
20
-3.46879863765275
30
0
41
1
10
31.7583485913726
20
-3.35780634117253
30
0
41
1
10
31.7037562054381
20
-3.31933217660546
30
0
41
1
10
31.5962259506078
20
-3.23952643377382
30
0
41
1
10
31.5432356392508
20
-3.19813552792527
30
0
41
1
10
31.388333980081
20
-3.07086927024966
30
0
41
1
10
31.2899503205798
20
-2.98159175656949
30
0
41
1
10
31.1026058017046
20
-2.79426073595124
30
0
41
1
10
31.0136523325419
20
-2.69622243884729
30
0
41
1
10
30.8451730973274
20
-2.49131457245352
30
0
41
1
10
30.765737000325
20
-2.38457896496561
30
0
41
1
10
30.6162158584246
20
-2.16138498085806
30
0
41
1
10
30.547228186962
20
-2.04646947112363
30
0
41
1
10
30.4214910146369
20
-1.81184362993139
30
0
41
1
10
30.3645233674336
20
-1.69180689841789
30
0
41
1
10
30.2624058357063
20
-1.44642114249052
30
0
41
1
10
30.2172234329752
20
-1.32095872894305
30
0
41
1
10
30.1585476058948
20
-1.12889536271496
30
0
41
1
10
30.1404948984566
20
-1.06413477547693
30
0
41
1
10
30.107454040113
20
-0.933117132604451
30
0
41
1
10
30.0925487563087
20
-0.867143521595409
30
0
41
1
10
30.0529828731946
20
-0.669301836761321
30
0
41
1
10
30.0332383409943
20
-0.536863182399287
30
0
41
1
10
30.0068176073378
20
-0.271065956174851
30
0
41
1
10
30.0001265098727
20
-0.13768240857658
30
0
41
1
10
29.9998770444469
20
0.130062477386048
30
0
41
1
10
30.0063158963459
20
0.264415707159742
30
0
41
1
10
30.0328164461053
20
0.534167166471349
30
0
41
1
10
30.0526451627348
20
0.667180885355577
30
0
41
1
10
30.1049507598375
20
0.929581625579829
30
0
41
1
10
30.1374305652133
20
1.05897753700836
30
0
41
1
10
30.2149306045559
20
1.31420886009329
30
0
41
1
10
30.2599528976376
20
1.4400288216539
30
0
41
1
10
30.3370800826781
20
1.62609616207564
30
0
41
1
10
30.364474013245
20
1.6878121265386
30
0
41
1
10
30.4220133722898
20
1.80925743560766
30
0
41
1
10
30.4521713952484
20
1.86905261101131
30
0
41
1
10
30.5466228211396
20
2.04541966695183
30
0
41
1
10
30.6150508727956
20
2.15940757387094
30
0
41
1
10
30.7624793055437
20
2.37994740245708
30
0
41
1
10
30.8415677659971
20
2.486629266889
30
0
41
1
10
30.9681204142707
20
2.64098714463216
30
0
41
1
10
31.0117004692788
20
2.69156258025853
30
0
41
1
10
31.1016130000787
20
2.79086343526191
30
0
41
1
10
31.1479048745922
20
2.83952347484788
30
0
41
1
10
31.2894757598336
20
2.98118191170272
30
0
41
1
10
31.3878572462239
20
3.07040980168839
30
0
41
1
10
31.5924910176282
20
3.23867043749391
30
0
41
1
10
31.6987423985245
20
3.31771360798015
30
0
41
1
10
31.9192184005095
20
3.46560175175881
30
0
41
1
10
32.0333056791244
20
3.53437368052528
30
0
41
1
10
32.2703508257077
20
3.66167199410415
30
0
41
1
10
32.3915556055072
20
3.71920278062862
30
0
41
1
10
32.6376595541688
20
3.82163627919431
30
0
41
1
10
32.7628549352706
20
3.86669721758761
30
0
41
1
10
33.0174238135206
20
3.94451339450862
30
0
41
1
10
33.1469133732825
20
3.97728671446822
30
0
41
1
10
33.4098494748801
20
4.03021844260397
30
0
41
1
10
33.544253815563
20
4.05044403788671
30
0
41
1
10
33.8133343831369
20
4.07725285067357
30
0
41
1
10
33.9484187389793
20
4.08399641768466
30
0
41
1
10
34.084
20
4.08399999999997
30
0
0
SPLINE
5
181
100
AcDbEntity
8
1
62
256
6
ByLayer
370
18
48
1
60
0
100
AcDbSpline
70
4
71
3
72
80
73
76
40
0
40
0
40
0
40
0
40
0.03125
40
0.03125
40
0.0625
40
0.0625
40
0.09375
40
0.09375
40
0.125
40
0.125
40
0.15625
40
0.15625
40
0.1875
40
0.1875
40
0.21875
40
0.21875
40
0.25
40
0.25
40
0.265625
40
0.265625
40
0.28125
40
0.28125
40
0.3125
40
0.3125
40
0.34375
40
0.34375
40
0.359375
40
0.359375
40
0.375
40
0.375
40
0.40625
40
0.40625
40
0.4375
40
0.4375
40
0.46875
40
0.46875
40
0.5
40
0.5
40
0.53125
40
0.53125
40
0.5625
40
0.5625
40
0.578125
40
0.578125
40
0.59375
40
0.59375
40
0.625
40
0.625
40
0.65625
40
0.65625
40
0.6875
40
0.6875
40
0.71875
40
0.71875
40
0.75
40
0.75
40
0.78125
40
0.78125
40
0.796875
40
0.796875
40
0.8125
40
0.8125
40
0.84375
40
0.84375
40
0.875
40
0.875
40
0.890625
40
0.890625
40
0.90625
40
0.90625
40
0.9375
40
0.9375
40
0.96875
40
0.96875
40
1
40
1
40
1
40
1
41
1
10
34.084
20
4.37502574611995
30
0
41
1
10
33.9411421055732
20
4.37502190852894
30
0
41
1
10
33.798807785182
20
4.36779779508802
30
0
41
1
10
33.5152856890872
20
4.33907858691748
30
0
41
1
10
33.3736678802103
20
4.31741171618137
30
0
41
1
10
33.096620022993
20
4.26070807431307
30
0
41
1
10
32.9601807708602
20
4.22559932832809
30
0
41
1
10
32.6919492050821
20
4.14223797242769
30
0
41
1
10
32.5600345997648
20
4.09396599260074
30
0
41
1
10
32.3007222755448
20
3.98423308528183
30
0
41
1
10
32.1730124467218
20
3.92260265623241
30
0
41
1
10
31.923245109627
20
3.78623306775364
30
0
41
1
10
31.8030347776018
20
3.71256045292481
30
0
41
1
10
31.5707258495224
20
3.55413380341926
30
0
41
1
10
31.4587719671024
20
3.46945801842179
30
0
41
1
10
31.2431555206153
20
3.2892071335761
30
0
41
1
10
31.1394939091917
20
3.19362086620157
30
0
41
1
10
30.9903249279807
20
3.04186785239256
30
0
41
1
10
30.9415485729574
20
2.98974029950432
30
0
41
1
10
30.8468104451663
20
2.88336326785608
30
0
41
1
10
30.8008914527429
20
2.82918382784874
30
0
41
1
10
30.6675467358542
20
2.66382641128837
30
0
41
1
10
30.5842136052356
20
2.54954239964721
30
0
41
1
10
30.4288727025002
20
2.31328690794652
30
0
41
1
10
30.3567721238051
20
2.19117622539386
30
0
41
1
10
30.2572514988592
20
2.00224125711074
30
0
41
1
10
30.2254748976699
20
1.93818507887889
30
0
41
1
10
30.1648474066885
20
1.80808557987783
30
0
41
1
10
30.1359832464685
20
1.74197173720452
30
0
41
1
10
30.054716652731
20
1.54264524238485
30
0
41
1
10
30.007278017453
20
1.40785935325223
30
0
41
1
10
29.9256185583581
20
1.13444025195381
30
0
41
1
10
29.8913955649108
20
0.995823590848545
30
0
41
1
10
29.8362827313784
20
0.714724179910888
30
0
41
1
10
29.8153898094096
20
0.572231906473206
30
0
41
1
10
29.787466977661
20
0.283257964375565
30
0
41
1
10
29.7806825531917
20
0.139330726533132
30
0
41
1
10
29.7809454074033
20
-0.147493653845146
30
0
41
1
10
29.7879956154342
20
-0.290382109982318
30
0
41
1
10
29.8158343473573
20
-0.575120040434541
30
0
41
1
10
29.836638566729
20
-0.716996270277633
30
0
41
1
10
29.878327947029
20
-0.92893614900396
30
0
41
1
10
29.8940331960013
20
-0.999611038024057
30
0
41
1
10
29.9288473540751
20
-1.13996499511583
30
0
41
1
10
29.9478689486109
20
-1.20934042032294
30
0
41
1
10
30.0096939017497
20
-1.41509021758
30
0
41
1
10
30.0573012397525
20
-1.54949307985612
30
0
41
1
10
30.1648994097112
20
-1.81236501910811
30
0
41
1
10
30.2249245051315
20
-1.94095556535112
30
0
41
1
10
30.357409979557
20
-2.19230083859299
30
0
41
1
10
30.4301002127972
20
-2.31540522490985
30
0
41
1
10
30.5876461401867
20
-2.55450400719388
30
0
41
1
10
30.6713455649734
20
-2.66884559161824
30
0
41
1
10
30.8488670647452
20
-2.88835518786055
30
0
41
1
10
30.9425946581522
20
-2.99337969176264
30
0
41
1
10
31.139993939568
20
-3.194059916604
30
0
41
1
10
31.2436578407332
20
-3.28969934385646
30
0
41
1
10
31.4068730572439
20
-3.42603459212896
30
0
41
1
10
31.46270735358
20
-3.4703750129766
30
0
41
1
10
31.5760087469777
20
-3.55586771120804
30
0
41
1
10
31.6335311010803
20
-3.5970835438566
30
0
41
1
10
31.8084269546845
20
-3.71598514883587
30
0
41
1
10
31.9284827739983
20
-3.78924853974868
30
0
41
1
10
32.1751312033014
20
-3.92359892813178
30
0
41
1
10
32.3018726189638
20
-3.98476422716763
30
0
41
1
10
32.4968567288696
20
-4.0672084516282
30
0
41
1
10
32.5627733078097
20
-4.09316583624974
30
0
41
1
10
32.6963692931575
20
-4.14194672836007
30
0
41
1
10
32.7639688100279
20
-4.16472433487445
30
0
41
1
10
32.9671812083274
20
-4.22755402032675
30
0
41
1
10
33.103894645418
20
-4.26243448829476
30
0
41
1
10
33.379732315391
20
-4.3184029889606
30
0
41
1
10
33.5188614106363
20
-4.33950232274412
30
0
41
1
10
33.799569325863
20
-4.36781261918441
30
0
41
1
10
33.9411484435427
20
-4.37502165754037
30
0
41
1
10
34.084
20
-4.37502574612003
30
0
0
SPLINE
5
182
100
AcDbEntity
8
1
62
256
6
ByLayer
370
18
48
1
60
0
100
AcDbSpline
70
4
71
3
72
54
73
50
40
0
40
0
40
0
40
0
40
0.0625000000000067
40
0.0625000000000067
40
0.0937500000000108
40
0.0937500000000108
40
0.125000000000015
40
0.125000000000015
40
0.187500000000021
40
0.187500000000021
40
0.250000000000028
40
0.250000000000028
40
0.281250000000031
40
0.281250000000031
40
0.312500000000035
40
0.312500000000035
40
0.375000000000044
40
0.375000000000044
40
0.406250000000048
40
0.406250000000048
40
0.421875000000049
40
0.421875000000049
40
0.43750000000005
40
0.43750000000005
40
0.500000000000056
40
0.500000000000056
40
0.515625000000055
40
0.515625000000055
40
0.531250000000055
40
0.531250000000055
40
0.562500000000051
40
0.562500000000051
40
0.625000000000043
40
0.625000000000043
40
0.656250000000041
40
0.656250000000041
40
0.687500000000038
40
0.687500000000038
40
0.750000000000031
40
0.750000000000031
40
0.812500000000023
40
0.812500000000023
40
0.843750000000019
40
0.843750000000019
40
0.875000000000015
40
0.875000000000015
40
0.937500000000008
40
0.937500000000008
40
1
40
1
40
1
40
1
41
1
10
15.35
20
14.6528251767053
30
0
41
1
10
15.3212903763545
20
14.6660344087068
30
0
41
1
10
15.2944792413498
20
14.6824682661025
30
0
41
1
10
15.2567813741655
20
14.710738936517
30
0
41
1
10
15.2446378908296
20
14.7207737351494
30
0
41
1
10
15.2211665659753
20
14.7419309749724
30
0
41
1
10
15.2098038778647
20
14.753093735938
30
0
41
1
10
15.1772772172712
20
14.7876474852822
30
0
41
1
10
15.1575929085007
20
14.8121322051381
30
0
41
1
10
15.1217274288617
20
14.8631441948847
30
0
41
1
10
15.1055498988757
20
14.8896803900109
30
0
41
1
10
15.0837400528628
20
14.9304965751693
30
0
41
1
10
15.0768811957668
20
14.9442709623248
30
0
41
1
10
15.0639755277289
20
14.972061643662
30
0
41
1
10
15.0579211613659
20
14.9861006102629
30
0
41
1
10
15.0411092212709
20
15.028069019503
30
0
41
1
10
15.0316462175394
20
15.055959304592
30
0
41
1
10
15.0200517824382
20
15.0966812434791
30
0
41
1
10
15.0166223822225
20
15.1100652493375
30
0
41
1
10
15.0121536482163
20
15.1296835359309
30
0
41
1
10
15.0107768336673
20
15.1361462661109
30
0
41
1
10
15.0082553081259
20
15.1488847022087
30
0
41
1
10
15.0071088944715
20
15.1551726165752
30
0
41
1
10
15.0020222612871
20
15.1857750198144
30
0
41
1
10
14.999970584751
20
15.2076798017752
30
0
41
1
10
15.0000077504068
20
15.2309478436786
30
0
41
1
10
15.0001457804295
20
15.2354006403068
30
0
41
1
10
15.0006869165771
20
15.2439046612009
30
0
41
1
10
15.0010920334575
20
15.2479683451628
30
0
41
1
10
15.0026956119238
20
15.2594685406361
30
0
41
1
10
15.0042746426487
20
15.2662073005992
30
0
41
1
10
15.0104403954842
20
15.2842083960971
30
0
41
1
10
15.0164441583297
20
15.2932899734401
30
0
41
1
10
15.0281410021712
20
15.3045848161619
30
0
41
1
10
15.0325055557644
20
15.3079628300789
30
0
41
1
10
15.0420614600477
20
15.3141350467994
30
0
41
1
10
15.0472506971885
20
15.3169323956566
30
0
41
1
10
15.0640383813382
20
15.3247930381267
30
0
41
1
10
15.0768504934408
20
15.3293382331687
30
0
41
1
10
15.1058160694044
20
15.3382797712484
30
0
41
1
10
15.1219685158449
20
15.342662131144
30
0
41
1
10
15.1489430283139
20
15.3498235942121
30
0
41
1
10
15.1583939462816
20
15.352307801823
30
0
41
1
10
15.1782814396348
20
15.3575940256152
30
0
41
1
10
15.1887389965282
20
15.360402048604
30
0
41
1
10
15.2212312498626
20
15.3693734338583
30
0
41
1
10
15.2445029345291
20
15.3761054941604
30
0
41
1
10
15.2945187921886
20
15.3921287255136
30
0
41
1
10
15.3212572209425
20
15.401399102856
30
0
41
1
10
15.35
20
15.4127593843838
30
0
0
SPLINE
5
183
100
AcDbEntity
8
1
62
256
6
ByLayer
370
18
48
1
60
0
100
AcDbSpline
70
4
71
3
72
54
73
50
40
0
40
0
40
0
40
0
40
0.0624999999999922
40
0.0624999999999922
40
0.0937499999999888
40
0.0937499999999888
40
0.124999999999985
40
0.124999999999985
40
0.187499999999977
40
0.187499999999977
40
0.249999999999968
40
0.249999999999968
40
0.281249999999967
40
0.281249999999967
40
0.312499999999965
40
0.312499999999965
40
0.374999999999965
40
0.374999999999965
40
0.406249999999964
40
0.406249999999964
40
0.421874999999965
40
0.421874999999965
40
0.437499999999966
40
0.437499999999966
40
0.499999999999971
40
0.499999999999971
40
0.515624999999972
40
0.515624999999972
40
0.531249999999972
40
0.531249999999972
40
0.562499999999973
40
0.562499999999973
40
0.624999999999974
40
0.624999999999974
40
0.656249999999975
40
0.656249999999975
40
0.687499999999977
40
0.687499999999977
40
0.74999999999998
40
0.74999999999998
40
0.812499999999984
40
0.812499999999984
40
0.843749999999986
40
0.843749999999986
40
0.874999999999989
40
0.874999999999989
40
0.937499999999994
40
0.937499999999994
40
1
40
1
40
1
40
1
41
1
10
15.35
20
16.5702156652004
30
0
41
1
10
15.3212903763545
20
16.5776097577146
30
0
41
1
10
15.2944792413498
20
16.5882487520939
30
0
41
1
10
15.2567813741655
20
16.6077237876618
30
0
41
1
10
15.2446378908296
20
16.6148101853998
30
0
41
1
10
15.2211665659753
20
16.6300204374863
30
0
41
1
10
15.2098038778647
20
16.6381745279434
30
0
41
1
10
15.1772772172712
20
16.6637061772476
30
0
41
1
10
15.1575929085007
20
16.6821670494006
30
0
41
1
10
15.1217274288617
20
16.7209718112616
30
0
41
1
10
15.1055498988757
20
16.7413264329188
30
0
41
1
10
15.0837400528628
20
16.7726364940452
30
0
41
1
10
15.0768811957668
20
16.7832029508336
30
0
41
1
10
15.0639755277289
20
16.8044736422658
30
0
41
1
10
15.0579211613659
20
16.8151951388388
30
0
41
1
10
15.0411092212709
20
16.8470883780075
30
0
41
1
10
15.0316462175394
20
16.8680832278367
30
0
41
1
10
15.0200517824382
20
16.8979447903047
30
0
41
1
10
15.0166223822225
20
16.9076211585955
30
0
41
1
10
15.0121536482163
20
16.9215005431548
30
0
41
1
10
15.0107768336673
20
16.9260206083257
30
0
41
1
10
15.0082553081259
20
16.9348051301547
30
0
41
1
10
15.0071088944715
20
16.9390774644563
30
0
41
1
10
15.0020222612871
20
16.9595003954956
30
0
41
1
10
14.999970584751
20
16.9728795834222
30
0
41
1
10
15.0000077504068
20
16.9848881428219
30
0
41
1
10
15.0001457804295
20
16.9870595852805
30
0
41
1
10
15.0006869165771
20
16.9909419445175
30
0
41
1
10
15.0010920334575
20
16.9926574276666
30
0
41
1
10
15.0026956119238
20
16.9970920349752
30
0
41
1
10
15.0042746426487
20
16.9991018158731
30
0
41
1
10
15.0104403954842
20
17.0028801242171
30
0
41
1
10
15.0164441583297
20
17.0024330270646
30
0
41
1
10
15.0281410021712
20
16.9994451411154
30
0
41
1
10
15.0325055557644
20
16.9980508655634
30
0
41
1
10
15.0420614600477
20
16.9947714538033
30
0
41
1
10
15.0472506971885
20
16.9928880695693
30
0
41
1
10
15.0640383813382
20
16.9868416203616
30
0
41
1
10
15.0768504934408
20
16.9822949108664
30
0
41
1
10
15.1058160694044
20
16.9734282516759
30
0
41
1
10
15.121968515845
20
16.9690941446736
30
0
41
1
10
15.1489430283139
20
16.9634926034547
30
0
41
1
10
15.1583939462816
20
16.9617746213497
30
0
41
1
10
15.1782814396348
20
16.9587688082935
30
0
41
1
10
15.1887389965282
20
16.9574810800533
30
0
41
1
10
15.2212312498626
20
16.9545205419803
30
0
41
1
10
15.2445029345291
20
16.9537138896827
30
0
41
1
10
15.2945187921886
20
16.9555967323022
30
0
41
1
10
15.3212572209425
20
16.9582631762636
30
0
41
1
10
15.35
20
16.9635865571446
30
0
0
SPLINE
5
184
100
AcDbEntity
8
1
62
256
6
ByLayer
370
18
48
1
60
0
100
AcDbSpline
70
4
71
3
72
54
73
50
40
0
40
0
40
0
40
0
40
0.0625000000000096
40
0.0625000000000096
40
0.0937500000000124
40
0.0937500000000124
40
0.125000000000015
40
0.125000000000015
40
0.187500000000023
40
0.187500000000023
40
0.25000000000003
40
0.25000000000003
40
0.281250000000032
40
0.281250000000032
40
0.312500000000034
40
0.312500000000034
40
0.375000000000039
40
0.375000000000039
40
0.406250000000041
40
0.406250000000041
40
0.421875000000042
40
0.421875000000042
40
0.437500000000043
40
0.437500000000043
40
0.500000000000048
40
0.500000000000048
40
0.515625000000047
40
0.515625000000047
40
0.531250000000047
40
0.531250000000047
40
0.562500000000042
40
0.562500000000042
40
0.625000000000035
40
0.625000000000035
40
0.656250000000032
40
0.656250000000032
40
0.687500000000029
40
0.687500000000029
40
0.750000000000021
40
0.750000000000021
40
0.812500000000014
40
0.812500000000014
40
0.843750000000012
40
0.843750000000012
40
0.875000000000009
40
0.875000000000009
40
0.937500000000005
40
0.937500000000005
40
1
40
1
40
1
40
1
41
1
10
16.65
20
16.9635865571446
30
0
41
1
10
16.6787096236455
20
16.9582693168977
30
0
41
1
10
16.7055207586502
20
16.9555878155155
30
0
41
1
10
16.7432186258345
20
16.9541798608065
30
0
41
1
10
16.7553621091703
20
16.9541545171479
30
0
41
1
10
16.7788334340247
20
16.954837049928
30
0
41
1
10
16.7901961221353
20
16.9555496411277
30
0
41
1
10
16.8227227827288
20
16.9585506864545
30
0
41
1
10
16.8424070914993
20
16.9616858806119
30
0
41
1
10
16.8782725711383
20
16.9691548648987
30
0
41
1
10
16.8944501011242
20
16.9735007330272
30
0
41
1
10
16.9162599471372
20
16.9801905960625
30
0
41
1
10
16.9231188042332
20
16.9824486202748
30
0
41
1
10
16.9360244722711
20
16.9868737563121
30
0
41
1
10
16.9420788386341
20
16.9890442288543
30
0
41
1
10
16.9588907787291
20
16.9951014379345
30
0
41
1
10
16.9683537824607
20
16.9985805410251
30
0
41
1
10
16.9799482175618
20
17.0014951019458
30
0
41
1
10
16.9833776177775
20
17.0020755179132
30
0
41
1
10
16.9878463517837
20
17.0020950823312
30
0
41
1
10
16.9892231663327
20
17.0019590940531
30
0
41
1
10
16.9917446918741
20
17.0013500851832
30
0
41
1
10
16.9928911055285
20
17.0008750018017
30
0
41
1
10
16.997977738713
20
16.9975521837704
30
0
41
1
10
17.000029415249
20
16.9917880157194
30
0
41
1
10
16.9999922495932
20
16.9796456049218
30
0
41
1
10
16.9998542195705
20
16.9769759535195
30
0
41
1
10
16.9993130834229
20
16.9711542493905
30
0
41
1
10
16.9989079665425
20
16.9679906019361
30
0
41
1
10
16.9973043880762
20
16.9578895027846
30
0
41
1
10
16.9957253573513
20
16.9503620417388
30
0
41
1
10
16.9895596045158
20
16.9259091260154
30
0
41
1
10
16.9835558416702
20
16.9071433736806
30
0
41
1
10
16.9718589978288
20
16.8771603568826
30
0
41
1
10
16.9674944442356
20
16.8668253034668
30
0
41
1
10
16.9579385399523
20
16.8459419768477
30
0
41
1
10
16.9527493028115
20
16.8353924124175
30
0
41
1
10
16.9359616186618
20
16.8036876108306
30
0
41
1
10
16.9231495065592
20
16.7824851269293
30
0
41
1
10
16.8941839305956
20
16.7409872384116
30
0
41
1
10
16.878031484155
20
16.7206801686693
30
0
41
1
10
16.8510569716861
20
16.6915415891958
30
0
41
1
10
16.8416060537184
20
16.6820488542198
30
0
41
1
10
16.8217185603652
20
16.6636246200633
30
0
41
1
10
16.8112610034718
20
16.6546817972334
30
0
41
1
10
16.7787687501374
20
16.6292620713706
30
0
41
1
10
16.7554970654709
20
16.6140529144899
30
0
41
1
10
16.7054812078114
20
16.5882424302195
30
0
41
1
10
16.6787427790575
20
16.5776182968089
30
0
41
1
10
16.65
20
16.5702156652004
30
0
0
SPLINE
5
185
100
AcDbEntity
8
1
62
256
6
ByLayer
370
18
48
1
60
0
100
AcDbSpline
70
4
71
3
72
54
73
50
40
0
40
0
40
0
40
0
40
0.0624999999999973
40
0.0624999999999973
40
0.0937499999999983
40
0.0937499999999983
40
0.124999999999999
40
0.124999999999999
40
0.187500000000003
40
0.187500000000003
40
0.250000000000008
40
0.250000000000008
40
0.281250000000011
40
0.281250000000011
40
0.312500000000014
40
0.312500000000014
40
0.375000000000017
40
0.375000000000017
40
0.406250000000017
40
0.406250000000017
40
0.421875000000017
40
0.421875000000017
40
0.437500000000016
40
0.437500000000016
40
0.500000000000014
40
0.500000000000014
40
0.515625000000014
40
0.515625000000014
40
0.531250000000013
40
0.531250000000013
40
0.562500000000013
40
0.562500000000013
40
0.625000000000011
40
0.625000000000011
40
0.656250000000011
40
0.656250000000011
40
0.687500000000011
40
0.687500000000011
40
0.750000000000009
40
0.750000000000009
40
0.812500000000007
40
0.812500000000007
40
0.843750000000006
40
0.843750000000006
40
0.875000000000006
40
0.875000000000006
40
0.937500000000003
40
0.937500000000003
40
1
40
1
40
1
40
1
41
1
10
16.65
20
15.4127593843838
30
0
41
1
10
16.6787096236455
20
15.4014122071844
30
0
41
1
10
16.7055207586502
20
15.3921128428299
30
0
41
1
10
16.7432186258345
20
15.3800406739672
30
0
41
1
10
16.7553621091703
20
15.3763366432301
30
0
41
1
10
16.7788334340247
20
15.3694284845028
30
0
41
1
10
16.7901961221353
20
15.3662153728303
30
0
41
1
10
16.8227227827288
20
15.3572433376472
30
0
41
1
10
16.8424070914993
20
15.3521211211403
30
0
41
1
10
16.8782725711383
20
15.3425970371953
30
0
41
1
10
16.8944501011242
20
15.3382066953614
30
0
41
1
10
16.9162599471372
20
15.3314603101508
30
0
41
1
10
16.9231188042332
20
15.3291840381037
30
0
41
1
10
16.9360244722711
20
15.3244316054127
30
0
41
1
10
16.9420788386341
20
15.3219512621085
30
0
41
1
10
16.9588907787291
20
15.3140082939261
30
0
41
1
10
16.9683537824607
20
15.3080607547319
30
0
41
1
10
16.9799482175618
20
15.2967250841479
30
0
41
1
10
16.9833776177775
20
15.2925370594787
30
0
41
1
10
16.9878463517837
20
15.2853802296274
30
0
41
1
10
16.9892231663327
20
15.2828481552575
30
0
41
1
10
16.9917446918741
20
15.2774396835512
30
0
41
1
10
16.9928911055285
20
15.2745562912214
30
0
41
1
10
16.997977738713
20
15.2592854298765
30
0
41
1
10
17.000029415249
20
15.2442080879563
30
0
41
1
10
16.9999922495932
20
15.2208200381725
30
0
41
1
10
16.9998542195705
20
15.2159205596253
30
0
41
1
10
16.9993130834229
20
15.205677769669
30
0
41
1
10
16.9989079665425
20
15.2003156971114
30
0
41
1
10
16.9973043880762
20
15.1837350640384
30
0
41
1
10
16.9957253573513
20
15.1720492873916
30
0
41
1
10
16.9895596045158
20
15.1355118460206
30
0
41
1
10
16.9835558416702
20
15.1092044990767
30
0
41
1
10
16.9718589978288
20
15.0683487536565
30
0
41
1
10
16.9674944442356
20
15.054454511082
30
0
41
1
10
16.9579385399523
20
15.0266185757904
30
0
41
1
10
16.9527493028115
20
15.0126741501141
30
0
41
1
10
16.9359616186618
20
14.9709666621378
30
0
41
1
10
16.9231495065592
20
14.9433353718685
30
0
41
1
10
16.8941839305956
20
14.8892382156467
30
0
41
1
10
16.878031484155
20
14.8627631810766
30
0
41
1
10
16.8510569716861
20
14.8244545778956
30
0
41
1
10
16.8416060537184
20
14.8119191163245
30
0
41
1
10
16.8217185603652
20
14.7874192378338
30
0
41
1
10
16.8112610034718
20
14.7754387536888
30
0
41
1
10
16.7787687501374
20
14.7410223198961
30
0
41
1
10
16.7554970654709
20
14.7199308779178
30
0
41
1
10
16.7054812078114
20
14.6824547099535
30
0
41
1
10
16.6787427790575
20
14.6660496634359
30
0
41
1
10
16.65
20
14.6528251767053
30
0
0
SPLINE
5
186
100
AcDbEntity
8
1
62
256
6
ByLayer
370
18
48
1
60
0
100
AcDbSpline
70
4
71
3
72
38
73
34
40
0
40
0
40
0
40
0
40
0.0624999999999998
40
0.0624999999999998
40
0.125
40
0.125
40
0.249999999999999
40
0.249999999999999
40
0.374999999999998
40
0.374999999999998
40
0.499999999999998
40
0.499999999999998
40
0.624999999999997
40
0.624999999999997
40
0.687499999999997
40
0.687499999999997
40
0.749999999999997
40
0.749999999999997
40
0.812499999999997
40
0.812499999999997
40
0.874999999999997
40
0.874999999999997
40
0.906249999999997
40
0.906249999999997
40
0.937499999999998
40
0.937499999999998
40
0.953124999999998
40
0.953124999999998
40
0.968749999999999
40
0.968749999999999
40
0.984374999999999
40
0.984374999999999
40
1
40
1
40
1
40
1
41
1
10
14.95
20
-5.50823247512304
30
0
41
1
10
14.95
20
-5.47518284138749
30
0
41
1
10
14.9503927941874
20
-5.44211130002017
30
0
41
1
10
14.9519353483955
20
-5.37592599841039
30
0
41
1
10
14.9530880405558
20
-5.34275841597923
30
0
41
1
10
14.9576319662784
20
-5.24369275147737
30
0
41
1
10
14.9621138424773
20
-5.17784644447289
30
0
41
1
10
14.9739290827588
20
-5.04654146942482
30
0
41
1
10
14.9812605211092
20
-4.98108253959197
30
0
41
1
10
14.9989404775198
20
-4.85057482988699
30
0
41
1
10
15.0092822581738
20
-4.7855251341137
30
0
41
1
10
15.0334835731282
20
-4.65590395549438
30
0
41
1
10
15.0473288585744
20
-4.59129823381235
30
0
41
1
10
15.0716177549498
20
-4.49496763259418
30
0
41
1
10
15.0802796198175
20
-4.46306693860168
30
0
41
1
10
15.0990007078106
20
-4.39978318335571
30
0
41
1
10
15.109054989522
20
-4.36839829162133
30
0
41
1
10
15.1310197260679
20
-4.30631610274233
30
0
41
1
10
15.1429153621397
20
-4.27561331618455
30
0
41
1
10
15.1694758023181
20
-4.21523354445316
30
0
41
1
10
15.1840757140296
20
-4.18553252075679
30
0
41
1
10
15.2097890483472
20
-4.14239363313445
30
0
41
1
10
15.2189176152693
20
-4.12841863103145
30
0
41
1
10
15.2387879259589
20
-4.10172749599039
30
0
41
1
10
15.2495101016292
20
-4.08898520900786
30
0
41
1
10
15.2676568693557
20
-4.07145353175733
30
0
41
1
10
15.2740003813706
20
-4.06593901350428
30
0
41
1
10
15.2873752188026
20
-4.05586710903245
30
0
41
1
10
15.2944823086308
20
-4.05126219666343
30
0
41
1
10
15.3093612517513
20
-4.04352751956171
30
0
41
1
10
15.3170693114111
20
-4.04041887186179
30
0
41
1
10
15.3331587108822
20
-4.03610341608851
30
0
41
1
10
15.341669828077
20
-4.03492564987275
30
0
41
1
10
15.35
20
-4.03492564987275
30
0
0
SPLINE
5
187
100
AcDbEntity
8
1
62
256
6
ByLayer
370
18
48
1
60
0
100
AcDbSpline
70
4
71
3
72
40
73
36
40
0
40
0
40
0
40
0
40
0.0156249999999981
40
0.0156249999999981
40
0.0312499999999963
40
0.0312499999999963
40
0.0468749999999944
40
0.0468749999999944
40
0.0624999999999926
40
0.0624999999999926
40
0.0937499999999935
40
0.0937499999999935
40
0.124999999999994
40
0.124999999999994
40
0.187499999999996
40
0.187499999999996
40
0.218749999999997
40
0.218749999999997
40
0.249999999999997
40
0.249999999999997
40
0.312499999999997
40
0.312499999999997
40
0.374999999999998
40
0.374999999999998
40
0.499999999999998
40
0.499999999999998
40
0.624999999999999
40
0.624999999999999
40
0.75
40
0.75
40
0.875000000000001
40
0.875000000000001
40
0.9375
40
0.9375
40
1
40
1
40
1
40
1
41
1
10
16.65
20
-4.03492564987269
30
0
41
1
10
16.658360522183
20
-4.03492564987269
30
0
41
1
10
16.6667098578678
20
-4.03606916057464
30
0
41
1
10
16.6830395371637
20
-4.04044707168822
30
0
41
1
10
16.6907848136834
20
-4.04359273215974
30
0
41
1
10
16.7056386257462
20
-4.05133597578288
30
0
41
1
10
16.7127738752999
20
-4.05596916198201
30
0
41
1
10
16.7261300111923
20
-4.0660476438012
30
0
41
1
10
16.7324165231987
20
-4.07152290956756
30
0
41
1
10
16.7504109822148
20
-4.08891203046343
30
0
41
1
10
16.7613125517835
20
-4.1018511715265
30
0
41
1
10
16.78117566283
20
-4.12855533204137
30
0
41
1
10
16.7902212019747
20
-4.14242054448908
30
0
41
1
10
16.8156288085146
20
-4.18501753030478
30
0
41
1
10
16.8302944169575
20
-4.21473179984204
30
0
41
1
10
16.8503973575751
20
-4.26040095780877
30
0
41
1
10
16.8567504024047
20
-4.2757844419078
30
0
41
1
10
16.8688376889875
20
-4.30664085590578
30
0
41
1
10
16.8745833902911
20
-4.32214195754275
30
0
41
1
10
16.8910878476048
20
-4.36882451214214
30
0
41
1
10
16.9011223652594
20
-4.40018315762825
30
0
41
1
10
16.919769264667
20
-4.46324838909217
30
0
41
1
10
16.9283758797578
20
-4.49495638594445
30
0
41
1
10
16.9524771034669
20
-4.59050085532553
30
0
41
1
10
16.966276826492
20
-4.65475199942404
30
0
41
1
10
16.9904732421023
20
-4.78408687477611
30
0
41
1
10
17.0008507119918
20
-4.84917530906418
30
0
41
1
10
17.0186227978476
20
-4.98008196419553
30
0
41
1
10
17.025982725941
20
-5.04569015935451
30
0
41
1
10
17.0378337463631
20
-5.177136733395
30
0
41
1
10
17.0423240475499
20
-5.24298564094232
30
0
41
1
10
17.0468805415029
20
-5.34194972140318
30
0
41
1
10
17.0480475877589
20
-5.37533869065905
30
0
41
1
10
17.0496038164174
20
-5.44182293005108
30
0
41
1
10
17.05
20
-5.47504045754977
30
0
41
1
10
17.05
20
-5.50823247512304
30
0
0
SPLINE
5
188
100
AcDbEntity
8
1
62
256
6
ByLayer
370
18
48
1
60
0
100
AcDbSpline
70
4
71
3
72
21
73
17
40
0
40
0
40
0
40
0
40
0.25
40
0.25
40
0.5
40
0.5
40
0.5078125
40
0.5078125
40
0.515625
40
0.53125
40
0.5625
40
0.625
40
0.625
40
0.75
40
0.75
40
1
40
1
40
1
40
1
41
1
10
19.95
20
-1.84119526395222
30
0
41
1
10
19.95
20
-1.53585375629913
30
0
41
1
10
19.9515435327169
20
-1.23048358529047
30
0
41
1
10
19.9540440765678
20
-0.619754134961084
30
0
41
1
10
19.9549958803774
20
-0.314394952340223
30
0
41
1
10
19.9550128329045
20
0.0004887922349326
30
0
41
1
10
19.9550125338103
20
0.0101309148604969
30
0
41
1
10
19.9550102681561
20
0.029405398932056
30
0
41
1
10
19.9550043853636
20
0.0583171190127416
30
0
41
1
10
19.9549732995144
20
0.125777757089168
30
0
41
1
10
19.9548422796771
20
0.260698866224118
30
0
41
1
10
19.9546151297788
20
0.376345252590511
30
0
41
1
10
19.9540299175319
20
0.607637707744288
30
0
41
1
10
19.9534602747812
20
0.761832242396821
30
0
41
1
10
19.9515723675914
20
1.22441541217148
30
0
41
1
10
19.95
20
1.53280343086774
30
0
41
1
10
19.95
20
1.84119526395222
30
0
0
SPLINE
5
189
100
AcDbEntity
8
1
62
256
6
ByLayer
370
18
48
1
60
0
100
AcDbSpline
70
4
71
3
72
40
73
36
40
0
40
0
40
0
40
0
40
0.125000000000001
40
0.125000000000001
40
0.250000000000003
40
0.250000000000003
40
0.375000000000004
40
0.375000000000004
40
0.500000000000006
40
0.500000000000006
40
0.625000000000007
40
0.625000000000007
40
0.687500000000008
40
0.687500000000008
40
0.75000000000001
40
0.75000000000001
40
0.812500000000011
40
0.812500000000011
40
0.843750000000011
40
0.843750000000011
40
0.87500000000001
40
0.87500000000001
40
0.90625000000001
40
0.90625000000001
40
0.921875000000008
40
0.921875000000008
40
0.937500000000007
40
0.937500000000007
40
0.953125000000005
40
0.953125000000005
40
0.968750000000003
40
0.968750000000003
40
0.984375000000002
40
0.984375000000002
40
1
40
1
40
1
40
1
41
1
10
17.05
20
5.50823247512304
30
0
41
1
10
17.05
20
5.44226871431965
30
0
41
1
10
17.0484353853278
20
5.37606889524079
30
0
41
1
10
17.042386700446
20
5.24400307376544
30
0
41
1
10
17.037906255862
20
5.17808307515187
30
0
41
1
10
17.0260653557489
20
5.04646640576939
30
0
41
1
10
17.018703426302
20
4.98074274385684
30
0
41
1
10
17.0009244600829
20
4.84965222303961
30
0
41
1
10
16.9905258924415
20
4.78436383897352
30
0
41
1
10
16.9662076012453
20
4.65438644193932
30
0
41
1
10
16.9522957172196
20
4.58965384935857
30
0
41
1
10
16.9279905177339
20
4.49349456269013
30
0
41
1
10
16.9193083664681
20
4.46158922881418
30
0
41
1
10
16.9004894234845
20
4.39814888051976
30
0
41
1
10
16.8903688131057
20
4.36665195554252
30
0
41
1
10
16.8682352984305
20
4.30433546100426
30
0
41
1
10
16.8562154094087
20
4.27345989005076
30
0
41
1
10
16.8361414789518
20
4.2281020300513
30
0
41
1
10
16.8291051673711
20
4.21314120121502
30
0
41
1
10
16.8141279716493
20
4.18363501024302
30
0
41
1
10
16.8061885040831
20
4.1690913671228
30
0
41
1
10
16.789199034401
20
4.14081825931103
30
0
41
1
10
16.7801445547338
20
4.12705851406065
30
0
41
1
10
16.7652965161377
20
4.10727135604438
30
0
41
1
10
16.7601336916313
20
4.10081934589297
30
0
41
1
10
16.7492534529618
20
4.08828866389214
30
0
41
1
10
16.7435435867581
20
4.08222205382214
30
0
41
1
10
16.7315738615332
20
4.07077045536906
30
0
41
1
10
16.7252991756775
20
4.06536375438139
30
0
41
1
10
16.7119602652697
20
4.05541964226938
30
0
41
1
10
16.7049565212815
20
4.05093760305937
30
0
41
1
10
16.6903497397527
20
4.04341212679705
30
0
41
1
10
16.6827163387214
20
4.04034025080395
30
0
41
1
10
16.666563791213
20
4.03605076837718
30
0
41
1
10
16.6582946108592
20
4.03492564987266
30
0
41
1
10
16.6500000000001
20
4.03492564987266
30
0
0
SPLINE
5
18A
100
AcDbEntity
8
1
62
256
6
ByLayer
370
18
48
1
60
0
100
AcDbSpline
70
4
71
3
72
38
73
34
40
0
40
0
40
0
40
0
40
0.0078125000000014
40
0.0078125000000014
40
0.0156250000000028
40
0.0156250000000028
40
0.0312500000000025
40
0.0312500000000025
40
0.062500000000002
40
0.062500000000002
40
0.0937500000000014
40
0.0937500000000014
40
0.125000000000001
40
0.125000000000001
40
0.15625
40
0.15625
40
0.1875
40
0.1875
40
0.25
40
0.25
40
0.3125
40
0.3125
40
0.375
40
0.375
40
0.4375
40
0.4375
40
0.5
40
0.5
40
0.625000000000001
40
0.625000000000001
40
0.750000000000001
40
0.750000000000001
40
1
40
1
40
1
40
1
41
1
10
15.35
20
4.03492564987277
30
0
41
1
10
15.3458065553161
20
4.03492564987277
30
0
41
1
10
15.3416076653707
20
4.03520956826867
30
0
41
1
10
15.333198899766
20
4.03635020512993
30
0
41
1
10
15.3290160942068
20
4.03720731365476
30
0
41
1
10
15.3168065563621
20
4.0405042514254
30
0
41
1
10
15.3089849712319
20
4.04368642751021
30
0
41
1
10
15.2864117753615
20
4.0555344630626
30
0
41
1
10
15.2732738462635
20
4.06596554252883
30
0
41
1
10
15.249026580445
20
4.0895161052762
30
0
41
1
10
15.2382596095039
20
4.10237926704829
30
0
41
1
10
15.2184300339488
20
4.12913452584499
30
0
41
1
10
15.2093510221351
20
4.14308820846222
30
0
41
1
10
15.1923077581062
20
4.17176391459501
30
0
41
1
10
15.1843317097449
20
4.18653021361669
30
0
41
1
10
15.1693055377507
20
4.21644393678648
30
0
41
1
10
15.162272588685
20
4.23155464627172
30
0
41
1
10
15.1422537374712
20
4.27723283249466
30
0
41
1
10
15.1303301223309
20
4.3081406926002
30
0
41
1
10
15.1083401417978
20
4.37055152215495
30
0
41
1
10
15.098289752388
20
4.4020596107093
30
0
41
1
10
15.0795927214478
20
4.46552558380279
30
0
41
1
10
15.07095131284
20
4.49748514510139
30
0
41
1
10
15.0548085396908
20
4.56176956637586
30
0
41
1
10
15.0473093222534
20
4.59409511433762
30
0
41
1
10
15.033287991764
20
4.65905929898292
30
0
41
1
10
15.0267781060349
20
4.69165099470726
30
0
41
1
10
15.008635069274
20
4.78935427746552
30
0
41
1
10
14.9983416334868
20
4.85454761127369
30
0
41
1
10
14.9807899794885
20
4.98503165929841
30
0
41
1
10
14.9735393682547
20
5.05032261757341
30
0
41
1
10
14.9560542524228
20
5.24633238364865
30
0
41
1
10
14.95
20
5.37718530857677
30
0
41
1
10
14.95
20
5.50823247512304
30
0
0
SPLINE
5
18B
100
AcDbEntity
8
1
62
256
6
ByLayer
370
18
48
1
60
0
100
AcDbSpline
70
4
71
3
72
34
73
30
40
0
40
0
40
0
40
0
40
0.125000000000013
40
0.125000000000013
40
0.187500000000022
40
0.187500000000022
40
0.218750000000026
40
0.218750000000026
40
0.250000000000029
40
0.250000000000029
40
0.375000000000032
40
0.375000000000032
40
0.437500000000034
40
0.437500000000034
40
0.468750000000034
40
0.468750000000034
40
0.500000000000035
40
0.500000000000035
40
0.62500000000003
40
0.62500000000003
40
0.687500000000025
40
0.687500000000025
40
0.750000000000019
40
0.750000000000019
40
0.875000000000009
40
0.875000000000009
40
0.937500000000004
40
0.937500000000004
40
1
40
1
40
1
40
1
41
1
10
16.65
20
14.6528251767053
30
0
41
1
10
16.6047904508017
20
14.6320243667951
30
0
41
1
10
16.5568377442852
20
14.6135787161108
30
0
41
1
10
16.4809627968395
20
14.5893909410668
30
0
41
1
10
16.4550094689312
20
14.5819117580844
30
0
41
1
10
16.4150726610257
20
14.571591071839
30
0
41
1
10
16.401592346379
20
14.5683007296028
30
0
41
1
10
16.3742901831885
20
14.5620262585347
30
0
41
1
10
16.3604331259864
20
14.5590354109964
30
0
41
1
10
16.2908458701967
20
14.5449789370123
30
0
41
1
10
16.2341111064234
20
14.536544252773
30
0
41
1
10
16.1474637550458
20
14.5280198230674
30
0
41
1
10
16.1183222320407
20
14.525870010617
30
0
41
1
10
16.0742140964254
20
14.5237054303647
30
0
41
1
10
16.0594453135801
20
14.5231608288422
30
0
41
1
10
16.0297731791969
20
14.5224322592318
30
0
41
1
10
16.0148883737335
20
14.5222498130126
30
0
41
1
10
15.9408683394043
20
14.5222463788139
30
0
41
1
10
15.8823656513388
20
14.5251154363854
30
0
41
1
10
15.7956547010912
20
14.5336010971452
30
0
41
1
10
15.7669259167617
20
14.5371304169136
30
0
41
1
10
15.7098259818991
20
14.5456150669298
30
0
41
1
10
15.6813818666687
20
14.5505922674682
30
0
41
1
10
15.5982477982348
20
14.5673750206465
30
0
41
1
10
15.5452096877451
20
14.5810801555894
30
0
41
1
10
15.4691686255533
20
14.6052723495804
30
0
41
1
10
15.4444110096154
20
14.6139455162012
30
0
41
1
10
15.3961064839089
20
14.6325275176934
30
0
41
1
10
15.3726048066919
20
14.6424247569844
30
0
41
1
10
15.35
20
14.6528251767053
30
0
0
SPLINE
5
18C
100
AcDbEntity
8
1
62
256
6
ByLayer
370
18
48
1
60
0
100
AcDbSpline
70
4
71
3
72
8
73
4
40
0
40
0
40
0
40
0
40
1
40
1
40
1
40
1
41
1
10
18.0207259421637
20
5.51750000000001
30
0
41
1
10
17.6962027094097
20
5.51750000000001
30
0
41
1
10
17.3725359619985
20
5.51750000000001
30
0
41
1
10
17.05
20
5.51750000000001
30
0
0
SPLINE
5
18D
100
AcDbEntity
8
1
62
256
6
ByLayer
370
18
48
1
60
0
100
AcDbSpline
70
4
71
3
72
8
73
4
40
0
40
0
40
0
40
0
40
1
40
1
40
1
40
1
41
1
10
19.95
20
5.51750000000001
30
0
41
1
10
19.7834281071158
20
5.51750000000001
30
0
41
1
10
19.6167585932102
20
5.51750000000001
30
0
41
1
10
19.45
20
5.51750000000001
30
0
0
SPLINE
5
18E
100
AcDbEntity
8
1
62
256
6
ByLayer
370
18
48
1
60
0
100
AcDbSpline
70
4
71
3
72
8
73
4
40
0
40
0
40
0
40
0
40
1
40
1
40
1
40
1
41
1
10
14.95
20
5.51750000000001
30
0
41
1
10
14.6274640380016
20
5.51750000000001
30
0
41
1
10
14.3037972905903
20
5.51750000000001
30
0
41
1
10
13.9792740578363
20
5.51750000000001
30
0
0
SPLINE
5
18F
100
AcDbEntity
8
1
62
256
6
ByLayer
370
18
48
1
60
0
100
AcDbSpline
70
4
71
3
72
8
73
4
40
0
40
0
40
0
40
0
40
1
40
1
40
1
40
1
41
1
10
13.9792740578363
20
-5.51750000000001
30
0
41
1
10
14.3037972905903
20
-5.51750000000001
30
0
41
1
10
14.6274640380016
20
-5.51750000000001
30
0
41
1
10
14.95
20
-5.51750000000001
30
0
0
SPLINE
5
190
100
AcDbEntity
8
1
62
256
6
ByLayer
370
18
48
1
60
0
100
AcDbSpline
70
4
71
3
72
8
73
4
40
0
40
0
40
0
40
0
40
1
40
1
40
1
40
1
41
1
10
17.05
20
-5.51750000000001
30
0
41
1
10
17.3725359619985
20
-5.51750000000001
30
0
41
1
10
17.6962027094097
20
-5.51750000000001
30
0
41
1
10
18.0207259421637
20
-5.51750000000001
30
0
0
SPLINE
5
191
100
AcDbEntity
8
1
62
256
6
ByLayer
370
18
48
1
60
0
100
AcDbSpline
70
4
71
3
72
8
73
4
40
0
40
0
40
0
40
0
40
1
40
1
40
1
40
1
41
1
10
19.45
20
-5.51750000000001
30
0
41
1
10
19.6167585932102
20
-5.51750000000001
30
0
41
1
10
19.7834281071158
20
-5.51750000000001
30
0
41
1
10
19.95
20
-5.51750000000001
30
0
0
SPLINE
5
192
100
AcDbEntity
8
1
62
256
6
ByLayer
370
18
48
1
60
0
100
AcDbSpline
70
4
71
3
72
44
73
40
40
0
40
0
40
0
40
0
40
0.0625000000000008
40
0.0625000000000008
40
0.125000000000002
40
0.187500000000002
40
0.187500000000002
40
0.203125000000002
40
0.203125000000002
40
0.218750000000002
40
0.218750000000002
40
0.250000000000002
40
0.250000000000002
40
0.312500000000002
40
0.375000000000003
40
0.375000000000003
40
0.406250000000003
40
0.421875000000003
40
0.421875000000003
40
0.437500000000002
40
0.437500000000002
40
0.500000000000003
40
0.562500000000003
40
0.562500000000003
40
0.625000000000003
40
0.625000000000003
40
0.656250000000003
40
0.656250000000003
40
0.687500000000003
40
0.687500000000003
40
0.750000000000002
40
0.812500000000001
40
0.812500000000001
40
0.843750000000001
40
0.843750000000001
40
0.875
40
0.875
40
0.9375
40
1
40
1
40
1
40
1
41
1
10
7.95
20
-1.01750000000001
30
0
41
1
10
7.95
20
-1.16687459594178
30
0
41
1
10
7.95741770603344
20
-1.31485478440183
30
0
41
1
10
7.98649697236685
20
-1.60814054904668
30
0
41
1
10
8.02982351732452
20
-1.89875107326176
30
0
41
1
10
8.10133519126769
20
-2.18409063415072
30
0
41
1
10
8.15500150980971
20
-2.36076158180853
30
0
41
1
10
8.16618441134413
20
-2.39601228017639
30
0
41
1
10
8.18945791680808
20
-2.46634549264536
30
0
41
1
10
8.20156603609881
20
-2.50147505671879
30
0
41
1
10
8.23908741228813
20
-2.60611815330836
30
0
41
1
10
8.2657142769029
20
-2.67495714203707
30
0
41
1
10
8.35032860566095
20
-2.87877354766945
30
0
41
1
10
8.47574707274283
20
-3.14334048009934
30
0
41
1
10
8.6258615401786
20
-3.39392753852093
30
0
41
1
10
8.74780280677011
20
-3.57662028710499
30
0
41
1
10
8.81111665242229
20
-3.6666524179665
30
0
41
1
10
8.8780042500852
20
-3.75469010166171
30
0
41
1
10
8.92339975181638
20
-3.81293448851076
30
0
41
1
10
8.94646730171372
20
-3.84179021263523
30
0
41
1
10
9.06321453599305
20
-3.98421356742793
30
0
41
1
10
9.25980307944003
20
-4.20127437746737
30
0
41
1
10
9.47552105854136
20
-4.3974100733565
30
0
41
1
10
9.70087042410181
20
-4.5831140638156
30
0
41
1
10
9.8183599027963
20
-4.670751003871
30
0
41
1
10
10.0020918424156
20
-4.79416370976497
30
0
41
1
10
10.0647375081045
20
-4.83403998633838
30
0
41
1
10
10.1912649456489
20
-4.91025873601342
30
0
41
1
10
10.2552615940654
20
-4.94668840964906
30
0
41
1
10
10.4494236162202
20
-5.05102042869285
30
0
41
1
10
10.7140884223904
20
-5.17693517073567
30
0
41
1
10
10.9902884919721
20
-5.27672639810729
30
0
41
1
10
11.2018793073872
20
-5.34157637951998
30
0
41
1
10
11.273151021671
20
-5.36152437704453
30
0
41
1
10
11.4172134362043
20
-5.39801061176598
30
0
41
1
10
11.4901429410217
20
-5.41456962607975
30
0
41
1
10
11.7091929991067
20
-5.45860261854892
30
0
41
1
10
12.0030356353121
20
-5.50261961926407
30
0
41
1
10
12.3004100459084
20
-5.51750000000001
30
0
41
1
10
12.45
20
-5.51750000000001
30
0
0
SPLINE
5
193
100
AcDbEntity
8
1
62
256
6
ByLayer
370
18
48
1
60
0
100
AcDbSpline
70
4
71
3
72
49
73
45
40
0
40
0
40
0
40
0
40
0.0624999999999998
40
0.0624999999999998
40
0.125
40
0.1875
40
0.1875
40
0.203124999999999
40
0.203124999999999
40
0.218749999999999
40
0.218749999999999
40
0.249999999999998
40
0.249999999999998
40
0.312499999999997
40
0.374999999999996
40
0.374999999999996
40
0.406249999999996
40
0.406249999999996
40
0.421874999999996
40
0.421874999999996
40
0.437499999999996
40
0.437499999999996
40
0.499999999999996
40
0.499999999999996
40
0.562499999999996
40
0.562499999999996
40
0.624999999999997
40
0.624999999999997
40
0.640624999999997
40
0.640624999999997
40
0.656249999999997
40
0.687499999999997
40
0.687499999999997
40
0.749999999999998
40
0.812499999999998
40
0.812499999999998
40
0.843749999999998
40
0.843749999999998
40
0.859374999999998
40
0.859374999999998
40
0.874999999999999
40
0.874999999999999
40
0.937499999999999
40
1
40
1
40
1
40
1
41
1
10
12.45
20
5.51750000000001
30
0
41
1
10
12.3004247969709
20
5.51750000000001
30
0
41
1
10
12.1521852377604
20
5.51006221841484
30
0
41
1
10
11.858274574054
20
5.48086979637864
30
0
41
1
10
11.566932998403
20
5.43735682957535
30
0
41
1
10
11.2806710117944
20
5.36544835216137
30
0
41
1
10
11.1033705907995
20
5.31144495848619
30
0
41
1
10
11.0679913508722
20
5.30019018554762
30
0
41
1
10
10.997395942897
20
5.27676338525075
30
0
41
1
10
10.9621732796711
20
5.26458728670599
30
0
41
1
10
10.8573496579385
20
5.22689187655757
30
0
41
1
10
10.788390425288
20
5.20014133726411
30
0
41
1
10
10.5842146235776
20
5.11513159263842
30
0
41
1
10
10.3191719594447
20
4.9891209718308
30
0
41
1
10
10.0681293670106
20
4.83826635768321
30
0
41
1
10
9.88510941210053
20
4.71570592857941
30
0
41
1
10
9.82498135210157
20
4.67327961573932
30
0
41
1
10
9.7361235646499
20
4.60724045981306
30
0
41
1
10
9.70668782787676
20
4.58479634525523
30
0
41
1
10
9.64848750707397
20
4.53927407574224
30
0
41
1
10
9.619728799302
20
4.51620251480233
30
0
41
1
10
9.47762055592223
20
4.39930870922356
30
0
41
1
10
9.36931352533456
20
4.3008905036171
30
0
41
1
10
9.16311836529529
20
4.09446140272681
30
0
41
1
10
9.06523098235924
20
3.9864499935984
30
0
41
1
10
8.87986103582621
20
3.76075229312886
30
0
41
1
10
8.79237762485995
20
3.64306695296423
30
0
41
1
10
8.68971939892471
20
3.48967566227674
30
0
41
1
10
8.6695224306322
20
3.45867786306943
30
0
41
1
10
8.63002107368415
20
3.39639071084321
30
0
41
1
10
8.5720223894926
20
3.30239653620288
30
0
41
1
10
8.51774294945109
20
3.20672617529263
30
0
41
1
10
8.4140715247939
20
3.01317241192857
30
0
41
1
10
8.28885265937809
20
2.74920934791294
30
0
41
1
10
8.1894892037795
20
2.47344044546591
30
0
41
1
10
8.12489596761121
20
2.26204964359724
30
0
41
1
10
8.10502286966549
20
2.19082400646835
30
0
41
1
10
8.07775930121797
20
2.08281222828572
30
0
41
1
10
8.06909801841299
20
2.04661443176417
30
0
41
1
10
8.05271268904356
20
1.97418332840061
30
0
41
1
10
8.04497704807757
20
1.93790555539889
30
0
41
1
10
8.00857119824325
20
1.75620677056906
30
0
41
1
10
7.96483206800009
20
1.46350916262827
30
0
41
1
10
7.95
20
1.166848456449
30
0
41
1
10
7.95
20
1.01750000000001
30
0
0
SPLINE
5
194
100
AcDbEntity
8
1
62
256
6
ByLayer
370
18
48
1
60
0
100
AcDbSpline
70
4
71
3
72
81
73
77
40
0
40
0
40
0
40
0
40
0.0311724841790014
40
0.0311724841790014
40
0.0389820789366117
40
0.0389820789366117
40
0.0467916736942219
40
0.0624108632094426
40
0.0624108632094426
40
0.0936492422398839
40
0.124887621270325
40
0.124887621270325
40
0.140506810785546
40
0.140506810785546
40
0.156126000300767
40
0.156126000300767
40
0.187364379331208
40
0.218602758361649
40
0.218602758361649
40
0.249841137392091
40
0.249841137392091
40
0.281079516422532
40
0.312317895452973
40
0.343556274483415
40
0.343556274483415
40
0.351365869241025
40
0.351365869241025
40
0.359175463998635
40
0.359175463998635
40
0.374794653513856
40
0.374794653513856
40
0.406033032544298
40
0.437271411574739
40
0.437271411574739
40
0.45289060108996
40
0.460700195847571
40
0.460700195847571
40
0.468509790605181
40
0.468509790605181
40
0.499748169635622
40
0.530986548666063
40
0.562224927696504
40
0.562224927696504
40
0.577844117211724
40
0.577844117211724
40
0.593463306726944
40
0.593463306726944
40
0.624701685757385
40
0.655940064787825
40
0.655940064787825
40
0.671559254303046
40
0.671559254303046
40
0.687178443818266
40
0.687178443818266
40
0.718416822848707
40
0.749655201879148
40
0.78089358090959
40
0.78089358090959
40
0.7887031756672
40
0.7887031756672
40
0.79651277042481
40
0.812131959940031
40
0.812131959940031
40
0.843370338970471
40
0.874608718000912
40
0.874608718000912
40
0.890227907516133
40
0.890227907516133
40
0.898037502273743
40
0.898037502273743
40
0.905847097031353
40
0.937085476061794
40
0.968323855092235
40
0.999562234122676
40
0.999562234122676
40
1
40
1
40
1
40
1
41
1
10
9.29999986322785
20
19.9749999842377
30
0
41
1
10
9.30002574786472
20
19.9750029603546
30
0
41
1
10
9.29640130385424
20
19.9745846028419
30
0
41
1
10
9.28716012157294
20
19.973525553572
30
0
41
1
10
9.28506836518038
20
19.9732860872003
30
0
41
1
10
9.28042833773962
20
19.972755760743
30
0
41
1
10
9.27278255135009
20
19.9718831290358
30
0
41
1
10
9.26310463818605
20
19.9707840209391
30
0
41
1
10
9.24108388834775
20
19.9682964807016
30
0
41
1
10
9.20462831195228
20
19.9642089530222
30
0
41
1
10
9.15414194340489
20
19.9587106719936
30
0
41
1
10
9.11092108253517
20
19.9541075373141
30
0
41
1
10
9.09561985011659
20
19.952493266033
30
0
41
1
10
9.06319264925277
20
19.9491134861382
30
0
41
1
10
9.04613600270828
20
19.9473553212748
30
0
41
1
10
8.99276429299404
20
19.9419275614894
30
0
41
1
10
8.91551678641569
20
19.934259604004
30
0
41
1
10
8.82636892569626
20
19.9259630564917
30
0
41
1
10
8.73123188285435
20
19.9174683157307
30
0
41
1
10
8.68064396932785
20
19.913119571515
30
0
41
1
10
8.57336263794683
20
19.9043520451712
30
0
41
1
10
8.46167471473227
20
19.8956548217875
30
0
41
1
10
8.28135161624895
20
19.883182183258
30
0
41
1
10
8.15264577705695
20
19.8754824948121
30
0
41
1
10
8.06948452716223
20
19.8709372287388
30
0
41
1
10
8.05271595500277
20
19.8700415407935
30
0
41
1
10
8.01890318552161
20
19.8682788296422
30
0
41
1
10
8.0018350229556
20
19.8674106345092
30
0
41
1
10
7.95041193933351
20
19.8648618289273
30
0
41
1
10
7.91586453529006
20
19.8632379953063
30
0
41
1
10
7.81144153375571
20
19.8586057292516
30
0
41
1
10
7.67013264042772
20
19.8530680626764
30
0
41
1
10
7.5247359769884
20
19.848943024116
30
0
41
1
10
7.41413726150439
20
19.8464298112691
30
0
41
1
10
7.35844947974529
20
19.8453183525354
30
0
41
1
10
7.30216895649029
20
19.8444344011751
30
0
41
1
10
7.26451537832107
20
19.843896769779
30
0
41
1
10
7.24560377925333
20
19.8436536442572
30
0
41
1
10
7.15122298150841
20
19.8425752882836
30
0
41
1
10
7.00064623841185
20
19.841716573823
30
0
41
1
10
6.77603942290371
20
19.8429852124079
30
0
41
1
10
6.62713795343193
20
19.8455068692293
30
0
41
1
10
6.51578373009572
20
19.8480153502498
30
0
41
1
10
6.4786223884475
20
19.8489574086223
30
0
41
1
10
6.40512484616231
20
19.8510239545502
30
0
41
1
10
6.36874081846919
20
19.85214891977
30
0
41
1
10
6.26066220409176
20
19.8557816578772
30
0
41
1
10
6.11941483085845
20
19.8613119333652
30
0
41
1
10
5.98378946334192
20
19.8680375059643
30
0
41
1
10
5.88420484526846
20
19.8734628386253
30
0
41
1
10
5.85136633744055
20
19.8753347978225
30
0
41
1
10
5.78641438359527
20
19.8791942513552
30
0
41
1
10
5.7542691287636
20
19.8811842354355
30
0
41
1
10
5.65997794085256
20
19.8872410809721
30
0
41
1
10
5.5392585395543
20
19.8955875639696
30
0
41
1
10
5.37277973410552
20
19.9085430620551
30
0
41
1
10
5.27153514976881
20
19.9172267002261
30
0
41
1
10
5.21139574266418
20
19.922589858499
30
0
41
1
10
5.19951209313562
20
19.9236604758359
30
0
41
1
10
5.17618201942112
20
19.9257823339649
30
0
41
1
10
5.14180812971399
20
19.9289391368519
30
0
41
1
10
5.10927572293708
20
19.932010215049
30
0
41
1
10
5.04662731545196
20
19.9380181526025
30
0
41
1
10
4.96952924087957
20
19.9456697130174
30
0
41
1
10
4.90517057482172
20
19.9523960394613
30
0
41
1
10
4.86177191286492
20
19.9570147429756
30
0
41
1
10
4.84811887686867
20
19.9584832810405
30
0
41
1
10
4.82888477886645
20
19.9605692724759
30
0
41
1
10
4.82268356267018
20
19.9612448706583
30
0
41
1
10
4.81076554238788
20
19.9625483080779
30
0
41
1
10
4.78214119986721
20
19.9656926037814
30
0
41
1
10
4.74098078409567
20
19.9703074116988
30
0
41
1
10
4.70773022618307
20
19.9741079160891
30
0
41
1
10
4.70007131774152
20
19.9749917881984
30
0
41
1
10
4.70000062277118
20
19.9749999282918
30
0
41
1
10
4.69999875854883
20
19.9750001430169
30
0
41
1
10
4.70000086833167
20
19.9749998989661
30
0
0
SPLINE
5
195
100
AcDbEntity
8
1
62
256
6
ByLayer
370
18
48
1
60
0
100
AcDbSpline
70
4
71
3
72
96
73
92
40
0
40
0
40
0
40
0
40
0.0310132143755911
40
0.0310132143755911
40
0.0622708526215399
40
0.0622708526215399
40
0.0935284908674889
40
0.0935284908674889
40
0.124786129113438
40
0.156043767359387
40
0.156043767359387
40
0.163858176920874
40
0.163858176920874
40
0.171672586482361
40
0.171672586482361
40
0.187301405605335
40
0.187301405605335
40
0.218559043851284
40
0.218559043851284
40
0.249816682097233
40
0.249816682097233
40
0.265445501220208
40
0.265445501220208
40
0.273259910781695
40
0.273259910781695
40
0.281074320343182
40
0.281074320343182
40
0.312331958589131
40
0.312331958589131
40
0.34358959683508
40
0.34358959683508
40
0.374847235081029
40
0.374847235081029
40
0.382661644642516
40
0.382661644642516
40
0.390476054204003
40
0.406104873326978
40
0.406104873326978
40
0.437362511572927
40
0.468620149818875
40
0.468620149818875
40
0.48424896894185
40
0.48424896894185
40
0.492063378503337
40
0.492063378503337
40
0.499877788064824
40
0.499877788064824
40
0.531135426310774
40
0.562393064556723
40
0.562393064556723
40
0.578021883679698
40
0.578021883679698
40
0.585836293241186
40
0.585836293241186
40
0.593650702802673
40
0.593650702802673
40
0.624908341048621
40
0.624908341048621
40
0.656165979294569
40
0.687423617540517
40
0.687423617540517
40
0.695238027102005
40
0.695238027102005
40
0.703052436663492
40
0.703052436663492
40
0.718681255786466
40
0.718681255786466
40
0.749938894032414
40
0.749938894032414
40
0.781196532278363
40
0.781196532278363
40
0.796825351401337
40
0.796825351401337
40
0.804639760962824
40
0.804639760962824
40
0.812454170524311
40
0.812454170524311
40
0.84371180877026
40
0.84371180877026
40
0.874969447016208
40
0.874969447016208
40
0.906227085262156
40
0.906227085262156
40
0.914041494823643
40
0.914041494823643
40
0.92185590438513
40
0.937484723508104
40
0.937484723508104
40
0.968742361754052
40
0.968742361754052
40
1
40
1
40
1
40
1
41
1
10
1.97750029332653
20
-19.974999925419
30
0
41
1
10
1.97755603296191
20
-19.9749858408602
30
0
41
1
10
1.98552670714669
20
-19.9729773311171
30
0
41
1
10
2.01750021141703
20
-19.9649738654102
30
0
41
1
10
2.04162739328994
20
-19.9589475330805
30
0
41
1
10
2.106600105032
20
-19.9429057625352
30
0
41
1
10
2.14688244571188
20
-19.9330308407128
30
0
41
1
10
2.24244525333469
20
-19.9099789637499
30
0
41
1
10
2.35301172104717
20
-19.8836263816601
30
0
41
1
10
2.49332335617167
20
-19.85143594853
30
0
41
1
10
2.59051307257577
20
-19.8297336018203
30
0
41
1
10
2.61042689548371
20
-19.8253139966004
30
0
41
1
10
2.65121595829538
20
-19.8163227079419
30
0
41
1
10
2.67208459334916
20
-19.8117525954911
30
0
41
1
10
2.73578996049299
20
-19.7979010898207
30
0
41
1
10
2.7798343236112
20
-19.7884544944534
30
0
41
1
10
2.91660255769878
20
-19.7595878042363
30
0
41
1
10
3.0139499701902
20
-19.7396410907665
30
0
41
1
10
3.2208115639001
20
-19.6989111574138
30
0
41
1
10
3.33032575848874
20
-19.6781269187623
30
0
41
1
10
3.50387470054194
20
-19.6467496973428
30
0
41
1
10
3.56327352159617
20
-19.6362572605352
30
0
41
1
10
3.65474215833984
20
-19.6205241180844
30
0
41
1
10
3.68566114958928
20
-19.6152749736048
30
0
41
1
10
3.74813760570952
20
-19.604815207142
30
0
41
1
10
3.77964652478678
20
-19.5996125525972
30
0
41
1
10
3.93853194387424
20
-19.5737573478986
30
0
41
1
10
4.06992066297212
20
-19.5535795884138
30
0
41
1
10
4.34110477654438
20
-19.5147850003137
30
0
41
1
10
4.48090051928452
20
-19.49616730091
30
0
41
1
10
4.76899782223919
20
-19.4610392309482
30
0
41
1
10
4.91729847981873
20
-19.4445279552845
30
0
41
1
10
5.10821377744755
20
-19.4255638348368
30
0
41
1
10
5.14673052558514
20
-19.4218497206534
30
0
41
1
10
5.22400818198584
20
-19.4146281408736
30
0
41
1
10
5.3402614261302
20
-19.4041072548912
30
0
41
1
10
5.45751486141215
20
-19.394541375246
30
0
41
1
10
5.69333883200376
20
-19.3767358528219
30
0
41
1
10
6.0112777138814
20
-19.3565342126008
30
0
41
1
10
6.33620369079655
20
-19.3439598729717
30
0
41
1
10
6.58258170600807
20
-19.3375959364502
30
0
41
1
10
6.66515573074868
20
-19.3359857843081
30
0
41
1
10
6.78970409259323
20
-19.3343637035914
30
0
41
1
10
6.83137872809284
20
-19.3339552371183
30
0
41
1
10
6.9144894262101
20
-19.3334090122716
30
0
41
1
10
6.95597446279452
20
-19.3332703326367
30
0
41
1
10
7.16305182555745
20
-19.333242593247
30
0
41
1
10
7.49215552589651
20
-19.3374562643141
30
0
41
1
10
7.81693395812864
20
-19.3498461582633
30
0
41
1
10
8.05889442327315
20
-19.3620734369092
30
0
41
1
10
8.13927689682482
20
-19.3666382898244
30
0
41
1
10
8.25943968937715
20
-19.3742021537402
30
0
41
1
10
8.29942543719874
20
-19.3768428668327
30
0
41
1
10
8.37925879417203
20
-19.3823602236772
30
0
41
1
10
8.41914223017868
20
-19.3852395814498
30
0
41
1
10
8.61780827053657
20
-19.4001882908889
30
0
41
1
10
8.77292628568789
20
-19.4138010043424
30
0
41
1
10
9.07585884843387
20
-19.4438067309719
30
0
41
1
10
9.37148540515723
20
-19.4765913400497
30
0
41
1
10
9.65271015357293
20
-19.513933869406
30
0
41
1
10
9.82390734400458
20
-19.5383833264024
30
0
41
1
10
9.85791783289774
20
-19.5433287082186
30
0
41
1
10
9.92547701526836
20
-19.5533224395433
30
0
41
1
10
9.95896642233306
20
-19.5583621927348
30
0
41
1
10
10.0582382883463
20
-19.5735449695021
30
0
41
1
10
10.1229618023021
20
-19.5837715635239
30
0
41
1
10
10.3128516053545
20
-19.6146501993714
30
0
41
1
10
10.433747822891
20
-19.6355005016702
30
0
41
1
10
10.6643676490488
20
-19.6771401912798
30
0
41
1
10
10.7740911648806
20
-19.6979306010517
30
0
41
1
10
10.9302058416165
20
-19.7286348610524
30
0
41
1
10
10.9808296511386
20
-19.738789350683
30
0
41
1
10
11.0546072330895
20
-19.753844662671
30
0
41
1
10
11.0788662362925
20
-19.7588391618138
30
0
41
1
10
11.1265307518653
20
-19.7687336796
30
0
41
1
10
11.1499005110054
20
-19.7736261568572
30
0
41
1
10
11.2644624674581
20
-19.7977961683824
30
0
41
1
10
11.348811847046
20
-19.8161957909813
30
0
41
1
10
11.5032741174212
20
-19.8506657047599
30
0
41
1
10
11.5733862514653
20
-19.8667368320665
30
0
41
1
10
11.699303023325
20
-19.8961006092783
30
0
41
1
10
11.7551090416601
20
-19.9093941295385
30
0
41
1
10
11.8156060863862
20
-19.923981601209
30
0
41
1
10
11.8272555184159
20
-19.9268009925643
30
0
41
1
10
11.8495364848536
20
-19.9322102080561
30
0
41
1
10
11.8814166903715
20
-19.9399764215148
30
0
41
1
10
11.9087172522629
20
-19.9466883903346
30
0
41
1
10
11.9572801466808
20
-19.9586763317727
30
0
41
1
10
11.9816189908327
20
-19.9647538760222
30
0
41
1
10
12.0142283715699
20
-19.9729155538838
30
0
41
1
10
12.022507758256
20
-19.9750019550613
30
0
41
1
10
12.0225015152837
20
-19.9750003818507
30
0
0
SPLINE
5
196
100
AcDbEntity
8
1
62
256
6
ByLayer
370
18
48
1
60
0
100
AcDbSpline
70
2053
71
3
72
151
73
147
40
0
40
0
40
0
40
0
40
0.0156249999999994
40
0.0312499999999988
40
0.0468749999999982
40
0.0468749999999982
40
0.050781249999998
40
0.050781249999998
40
0.0546874999999978
40
0.0546874999999978
40
0.0624999999999972
40
0.0624999999999972
40
0.0781249999999966
40
0.0937499999999959
40
0.0937499999999959
40
0.101562499999996
40
0.105468749999995
40
0.105468749999995
40
0.109374999999995
40
0.109374999999995
40
0.124999999999994
40
0.140624999999994
40
0.156249999999993
40
0.156249999999993
40
0.164062499999993
40
0.164062499999993
40
0.171874999999993
40
0.171874999999993
40
0.187499999999993
40
0.203124999999993
40
0.203124999999993
40
0.210937499999993
40
0.210937499999993
40
0.218749999999993
40
0.218749999999993
40
0.234374999999993
40
0.249999999999994
40
0.265624999999994
40
0.265624999999994
40
0.269531249999994
40
0.269531249999994
40
0.273437499999994
40
0.281249999999994
40
0.281249999999994
40
0.296874999999994
40
0.312499999999994
40
0.312499999999994
40
0.320312499999994
40
0.320312499999994
40
0.328124999999994
40
0.328124999999994
40
0.343749999999993
40
0.359374999999992
40
0.359374999999992
40
0.374999999999991
40
0.374999999999991
40
0.390624999999991
40
0.40624999999999
40
0.421874999999989
40
0.421874999999989
40
0.425781249999989
40
0.425781249999989
40
0.429687499999989
40
0.429687499999989
40
0.437499999999989
40
0.437499999999989
40
0.453124999999989
40
0.468749999999989
40
0.468749999999989
40
0.47656249999999
40
0.48046874999999
40
0.48046874999999
40
0.48437499999999
40
0.48437499999999
40
0.49999999999999
40
0.515624999999989
40
0.531249999999989
40
0.531249999999989
40
0.539062499999989
40
0.539062499999989
40
0.546874999999989
40
0.546874999999989
40
0.562499999999988
40
0.578124999999988
40
0.578124999999988
40
0.585937499999988
40
0.585937499999988
40
0.593749999999987
40
0.593749999999987
40
0.609374999999987
40
0.624999999999986
40
0.640624999999985
40
0.640624999999985
40
0.644531249999985
40
0.644531249999985
40
0.648437499999985
40
0.656249999999985
40
0.656249999999985
40
0.671874999999984
40
0.687499999999983
40
0.687499999999983
40
0.695312499999983
40
0.695312499999983
40
0.699218749999983
40
0.699218749999983
40
0.703124999999983
40
0.718749999999984
40
0.734374999999985
40
0.749999999999986
40
0.749999999999986
40
0.765624999999987
40
0.765624999999987
40
0.781249999999988
40
0.796874999999989
40
0.796874999999989
40
0.800781249999989
40
0.800781249999989
40
0.804687499999988
40
0.804687499999988
40
0.812499999999989
40
0.812499999999989
40
0.82812499999999
40
0.843749999999992
40
0.843749999999992
40
0.851562499999992
40
0.855468749999993
40
0.855468749999993
40
0.859374999999993
40
0.859374999999993
40
0.874999999999993
40
0.890624999999994
40
0.906249999999995
40
0.906249999999995
40
0.914062499999995
40
0.914062499999995
40
0.921874999999996
40
0.921874999999996
40
0.937499999999997
40
0.953124999999998
40
0.953124999999998
40
0.960937499999998
40
0.960937499999998
40
0.968749999999998
40
0.968749999999998
40
0.984374999999999
40
1
40
1
40
1
40
1
41
1
10
6.99999993561609
20
18.8994013587638
30
0
41
1
10
7.07604195370276
20
18.8994012277102
30
0
41
1
10
7.22683374941504
20
18.8969524392204
30
0
41
1
10
7.44927985689215
20
18.8861532495816
30
0
41
1
10
7.59510116637425
20
18.874169971155
30
0
41
1
10
7.68544899712579
20
18.8651176145218
30
0
41
1
10
7.70347894848108
20
18.863228769049
30
0
41
1
10
7.73945883109478
20
18.8592916656742
30
0
41
1
10
7.75743382169095
20
18.8572403575169
30
0
41
1
10
7.81101997237259
20
18.850868959823
30
0
41
1
10
7.84628153630651
20
18.8463341120483
30
0
41
1
10
7.95070774360302
20
18.8318709833461
30
0
41
1
10
8.08632702149391
20
18.8103015484823
30
0
41
1
10
8.21485993375261
20
18.7840738281074
30
0
41
1
10
8.30857951745288
20
18.7625632420135
30
0
41
1
10
8.35476820146319
20
18.7513471497664
30
0
41
1
10
8.39993434515948
20
18.7394130196387
30
0
41
1
10
8.42981544207608
20
18.7312938282527
30
0
41
1
10
8.44464478354563
20
18.7271512513491
30
0
41
1
10
8.51780571048907
20
18.7061407927038
30
0
41
1
10
8.62923987132105
20
18.6704475499917
30
0
41
1
10
8.78003683470929
20
18.6105243663324
30
0
41
1
10
8.86969381163702
20
18.5661035942298
30
0
41
1
10
8.93274738855014
20
18.5309805087029
30
0
41
1
10
8.95311185660064
20
18.5189395064041
30
0
41
1
10
8.99202603457395
20
18.4944745179401
30
0
41
1
10
9.0106130916874
20
18.4820333241932
30
0
41
1
10
9.06381056887547
20
18.4440764910089
30
0
41
1
10
9.12791609480423
20
18.3917799863893
30
0
41
1
10
9.17855914092088
20
18.3359821023719
30
0
41
1
10
9.21141541570363
20
18.2927461469254
30
0
41
1
10
9.22151164577552
20
18.2781026180768
30
0
41
1
10
9.23996007690185
20
18.2483362435722
30
0
41
1
10
9.24831927963329
20
18.2331881703405
30
0
41
1
10
9.27049313817129
20
18.1875097388688
30
0
41
1
10
9.29254319304899
20
18.1256838040128
30
0
41
1
10
9.30366518357796
20
18.0301580099315
30
0
41
1
10
9.29641692504099
20
17.9645907150713
30
0
41
1
10
9.28716012157294
20
17.9230109425323
30
0
41
1
10
9.28506836518035
20
17.9146534490396
30
0
41
1
10
9.28042833773962
20
17.8979568950143
30
0
41
1
10
9.27278255135009
20
17.8729285040529
30
0
41
1
10
9.26310463818605
20
17.8479507206606
30
0
41
1
10
9.24108388834775
20
17.7980683450249
30
0
41
1
10
9.20462831195228
20
17.7317528566842
30
0
41
1
10
9.15414194340489
20
17.665922767658
30
0
41
1
10
9.11092108253517
20
17.6167880515069
30
0
41
1
10
9.09561985011659
20
17.6004496624139
30
0
41
1
10
9.06319264925277
20
17.5678646694024
30
0
41
1
10
9.04613600270831
20
17.5516914091623
30
0
41
1
10
8.99276429299404
20
17.5038125057391
30
0
41
1
10
8.91551678641569
20
17.4414507832678
30
0
41
1
10
8.82636892569626
20
17.3821643893106
30
0
41
1
10
8.73123188285435
20
17.3245290475165
30
0
41
1
10
8.68064396932785
20
17.2965237257644
30
0
41
1
10
8.57336263794683
20
17.2423875304954
30
0
41
1
10
8.46167471473224
20
17.1909779821188
30
0
41
1
10
8.28135161624895
20
17.1220968267881
30
0
41
1
10
8.15264577705695
20
17.0818436483926
30
0
41
1
10
8.06948452716223
20
17.0585614293975
30
0
41
1
10
8.05271595500277
20
17.0539989898372
30
0
41
1
10
8.01890318552161
20
17.0450655910238
30
0
41
1
10
8.0018350229556
20
17.0406887672908
30
0
41
1
10
7.95041193933351
20
17.0279004891262
30
0
41
1
10
7.91586453529006
20
17.0198356596209
30
0
41
1
10
7.81144153375568
20
16.9970116852971
30
0
41
1
10
7.67013264042772
20
16.9702292529637
30
0
41
1
10
7.5247359769884
20
16.9507590225889
30
0
41
1
10
7.41413726150439
20
16.9389692354334
30
0
41
1
10
7.35844947974532
20
16.933778493647
30
0
41
1
10
7.30216895649029
20
16.9296674394866
30
0
41
1
10
7.26451537832107
20
16.9271698719752
30
0
41
1
10
7.24560377925333
20
16.926041987801
30
0
41
1
10
7.15122298150841
20
16.9210439478463
30
0
41
1
10
7.00064623841185
20
16.9170866892398
30
0
41
1
10
6.77603942290371
20
16.9229328620243
30
0
41
1
10
6.6271379534319
20
16.9346418718712
30
0
41
1
10
6.51578373009572
20
16.9464061443888
30
0
41
1
10
6.4786223884475
20
16.9508398021991
30
0
41
1
10
6.40512484616231
20
16.9606198496112
30
0
41
1
10
6.36874081846919
20
16.9659683893278
30
0
41
1
10
6.26066220409179
20
16.9833531583356
30
0
41
1
10
6.11941483085845
20
17.0100977468512
30
0
41
1
10
5.98378946334192
20
17.0437228431532
30
0
41
1
10
5.88420484526846
20
17.0714915983811
30
0
41
1
10
5.85136633744055
20
17.0811734864025
30
0
41
1
10
5.78641438359527
20
17.1013915273169
30
0
41
1
10
5.75426912876363
20
17.1119419190763
30
0
41
1
10
5.65997794085256
20
17.1445126524238
30
0
41
1
10
5.5392585395543
20
17.1905931077614
30
0
41
1
10
5.37277973410552
20
17.2671499612096
30
0
41
1
10
5.27153514976881
20
17.3229378747332
30
0
41
1
10
5.21139574266418
20
17.3592671513926
30
0
41
1
10
5.19951209313562
20
17.3666148664768
30
0
41
1
10
5.17618201942112
20
17.3813804116893
30
0
41
1
10
5.14180812971399
20
17.4036541480934
30
0
41
1
10
5.10927572293708
20
17.4262920167953
30
0
41
1
10
5.04662731545196
20
17.4720264731974
30
0
41
1
10
4.96952924087957
20
17.5342254939087
30
0
41
1
10
4.90517057482172
20
17.5986516416617
30
0
41
1
10
4.86177191286491
20
17.6477591352538
30
0
41
1
10
4.84811887686867
20
17.6642599423089
30
0
41
1
10
4.82888477886645
20
17.6892057182812
30
0
41
1
10
4.82268356267018
20
17.6975513091169
30
0
41
1
10
4.81076554238788
20
17.7142122697674
30
0
41
1
10
4.78214119986721
20
17.755848140952
30
0
41
1
10
4.74098078409567
20
17.8306167451349
30
0
41
1
10
4.70773022618307
20
17.9297874257721
30
0
41
1
10
4.70007131774152
20
17.9954876524359
30
0
41
1
10
4.69993065073392
20
18.0609621779017
30
0
41
1
10
4.70362377331324
20
18.093057014844
30
0
41
1
10
4.71826907183682
20
18.1559361596416
30
0
41
1
10
4.74017592303841
20
18.217532575692
30
0
41
1
10
4.77650283975585
20
18.2766450263234
30
0
41
1
10
4.8038136146769
20
18.3128301899155
30
0
41
1
10
4.80950662520787
20
18.3200291809129
30
0
41
1
10
4.82135905929775
20
18.3343513385457
30
0
41
1
10
4.82752742320677
20
18.3414842089796
30
0
41
1
10
4.84666741902403
20
18.3626895119688
30
0
41
1
10
4.86025901282869
20
18.376556762103
30
0
41
1
10
4.90347761199624
20
18.4173805482072
30
0
41
1
10
4.96760672173407
20
18.4697417890835
30
0
41
1
10
5.04450074296393
20
18.5182129092671
30
0
41
1
10
5.10700652400884
20
18.5531683920081
30
0
41
1
10
5.13947019542441
20
18.5702962106791
30
0
41
1
10
5.17378022486643
20
18.5869059337906
30
0
41
1
10
5.19706845213317
20
18.5978644523567
30
0
41
1
10
5.20892473677854
20
18.6032880162108
30
0
41
1
10
5.26891658513354
20
18.6299731590829
30
0
41
1
10
5.3699388795185
20
18.6701538627292
30
0
41
1
10
5.5361433548061
20
18.7234406358766
30
0
41
1
10
5.65671924912714
20
18.7545418562695
30
0
41
1
10
5.75092266880849
20
18.7762465198775
30
0
41
1
10
5.78303717764545
20
18.7832265017249
30
0
41
1
10
5.84790276237563
20
18.7965157453585
30
0
41
1
10
5.88069947291034
20
18.8028377037901
30
0
41
1
10
5.98016279880643
20
18.8208710770288
30
0
41
1
10
6.11563743763672
20
18.842434938019
30
0
41
1
10
6.2567558287417
20
18.8592786783383
30
0
41
1
10
6.36474608271807
20
18.8701690830318
30
0
41
1
10
6.40110204558466
20
18.8735081742495
30
0
41
1
10
6.47454630034052
20
18.8796008710959
30
0
41
1
10
6.51168646240824
20
18.8823565172649
30
0
41
1
10
6.62319894660162
20
18.8896718799635
30
0
41
1
10
6.77273557595846
20
18.8969516101283
30
0
41
1
10
6.92395791752942
20
18.8994014898174
30
0
41
1
10
6.99999993561609
20
18.8994013587638
30
0
0
SPLINE
5
197
100
AcDbEntity
8
SK2
62
256
6
ByLayer
370
18
48
1
60
0
100
AcDbSpline
70
4
71
3
72
8
73
4
40
0
40
0
40
0
40
0
40
1
40
1
40
1
40
1
41
1
10
54.4
20
-8.89170962188936
30
0
41
1
10
54.5949572219802
20
-9.19318840563508
30
0
41
1
10
54.7951811663752
20
-9.48751696560083
30
0
41
1
10
55
20
-9.77560739800859
30
0
0
SPLINE
5
198
100
AcDbEntity
8
SK2
62
256
6
ByLayer
370
18
48
1
60
0
100
AcDbSpline
70
4
71
3
72
8
73
4
40
0
40
0
40
0
40
0
40
1
40
1
40
1
40
1
41
1
10
55
20
-15.0199866844149
30
0
41
1
10
54.8007396244119
20
-15.1791828646311
30
0
41
1
10
54.6007223537976
20
-15.3364545181358
30
0
41
1
10
54.4
20
-15.4919333848297
30
0
0
SPLINE
5
199
100
AcDbEntity
8
SK2
62
256
6
ByLayer
370
18
48
1
60
0
100
AcDbSpline
70
4
71
3
72
8
73
4
40
0
40
0
40
0
40
0
40
1
40
1
40
1
40
1
41
1
10
55
20
9.77560739800859
30
0
41
1
10
54.7951811663752
20
9.48751696560083
30
0
41
1
10
54.5949572219802
20
9.19318840563508
30
0
41
1
10
54.4
20
8.89170962188936
30
0
0
SPLINE
5
19A
100
AcDbEntity
8
SK2
62
256
6
ByLayer
370
18
48
1
60
0
100
AcDbSpline
70
4
71
3
72
8
73
4
40
0
40
0
40
0
40
0
40
1
40
1
40
1
40
1
41
1
10
54.4
20
15.4919333848297
30
0
41
1
10
54.6007223537976
20
15.3364545181358
30
0
41
1
10
54.8007396244119
20
15.1791828646311
30
0
41
1
10
55
20
15.0199866844149
30
0
0
SPLINE
5
19B
100
AcDbEntity
8
SK2
62
256
6
ByLayer
370
18
48
1
60
0
100
AcDbSpline
70
4
71
3
72
8
73
4
40
0
40
0
40
0
40
0
40
1
40
1
40
1
40
1
41
1
10
35.6
20
4
30
0
41
1
10
35.3992776462025
20
3.79927764620246
30
0
41
1
10
35.1992603755881
20
3.59926037558813
30
0
41
1
10
35
20
3.40000000000001
30
0
0
SPLINE
5
19C
100
AcDbEntity
8
SK2
62
256
6
ByLayer
370
18
48
1
60
0
100
AcDbSpline
70
4
71
3
72
8
73
4
40
0
40
0
40
0
40
0
40
1
40
1
40
1
40
1
41
1
10
35
20
-3.40000000000001
30
0
41
1
10
35.1992603755881
20
-3.59926037558813
30
0
41
1
10
35.3992776462025
20
-3.79927764620246
30
0
41
1
10
35.6
20
-4
30
0
0
SPLINE
5
19D
100
AcDbEntity
8
SK1
62
256
6
ByLayer
370
18
48
1
60
0
100
AcDbSpline
70
4
71
3
72
34
73
30
40
0
40
0
40
0
40
0
40
0.124999999999992
40
0.124999999999992
40
0.187499999999988
40
0.187499999999988
40
0.218749999999986
40
0.218749999999986
40
0.249999999999984
40
0.249999999999984
40
0.374999999999982
40
0.374999999999982
40
0.437499999999979
40
0.437499999999979
40
0.468749999999978
40
0.468749999999978
40
0.499999999999976
40
0.499999999999976
40
0.624999999999986
40
0.624999999999986
40
0.687499999999988
40
0.687499999999988
40
0.749999999999989
40
0.749999999999989
40
0.874999999999998
40
0.874999999999998
40
0.937499999999999
40
0.937499999999999
40
1
40
1
40
1
40
1
41
1
10
-16.3
20
3.125
30
0
41
1
10
-16.3
20
3.18349965142877
30
0
41
1
10
-16.3056482764014
20
3.24091621954148
30
0
41
1
10
-16.3221498895004
20
3.32551079113114
30
0
41
1
10
-16.3289985942095
20
3.3534522917351
30
0
41
1
10
-16.341326095031
20
3.39497703522207
30
0
41
1
10
-16.3457782704509
20
3.40875393485456
30
0
41
1
10
-16.3553816823148
20
3.43617672825917
30
0
41
1
10
-16.3605365882375
20
3.44982545178308
30
0
41
1
10
-16.3877951842692
20
3.51703270058383
30
0
41
1
10
-16.4144978335373
20
3.5680859946842
30
0
41
1
10
-16.4618307824502
20
3.64069459887895
30
0
41
1
10
-16.4788302223156
20
3.66423099855481
30
0
41
1
10
-16.5062373125347
20
3.6985044141006
30
0
41
1
10
-16.5157192118565
20
3.70978713938987
30
0
41
1
10
-16.5351870013071
20
3.73182771211188
30
0
41
1
10
-16.545164470524
20
3.74257982316786
30
0
41
1
10
-16.5962567152993
20
3.79501834642451
30
0
41
1
10
-16.6409498008787
20
3.83277833412646
30
0
41
1
10
-16.7139071268768
20
3.88301420999102
30
0
41
1
10
-16.7392234842433
20
3.8986868244798
30
0
41
1
10
-16.7919549282528
20
3.92774872735456
30
0
41
1
10
-16.8188810460745
20
3.94086832902633
30
0
41
1
10
-16.9013096627402
20
3.97609061316976
30
0
41
1
10
-16.9584454875842
20
3.99410013327679
30
0
41
1
10
-17.0476014365541
20
4.01252215966261
30
0
41
1
10
-17.0779840176791
20
4.01721389344385
30
0
41
1
10
-17.1387740490932
20
4.02343470243056
30
0
41
1
10
-17.1693137120282
20
4.02500000000001
30
0
41
1
10
-17.2
20
4.02500000000001
30
0
0
SPLINE
5
19E
100
AcDbEntity
8
SK1
62
256
6
ByLayer
370
18
48
1
60
0
100
AcDbSpline
70
4
71
3
72
32
73
28
40
0
40
0
40
0
40
0
40
0.124999999999997
40
0.124999999999997
40
0.187499999999999
40
0.187499999999999
40
0.218749999999997
40
0.218749999999997
40
0.249999999999995
40
0.249999999999995
40
0.374999999999983
40
0.374999999999983
40
0.406249999999981
40
0.406249999999981
40
0.43749999999998
40
0.499999999999982
40
0.562499999999984
40
0.562499999999984
40
0.624999999999986
40
0.624999999999986
40
0.749999999999989
40
0.749999999999989
40
0.812499999999992
40
0.812499999999992
40
0.874999999999995
40
0.874999999999995
40
1
40
1
40
1
40
1
41
1
10
-17.2
20
-4.02500000000001
30
0
41
1
10
-17.1387056087955
20
-4.02500000000001
30
0
41
1
10
-17.078577377892
20
-4.01880435012328
30
0
41
1
10
-16.9900422713153
20
-4.00068554260662
30
0
41
1
10
-16.9608089252456
20
-3.99316322028861
30
0
41
1
10
-16.9173838367846
20
-3.97960987656089
30
0
41
1
10
-16.9029840047657
20
-3.97471122658064
30
0
41
1
10
-16.8746676646817
20
-3.96427739252203
30
0
41
1
10
-16.8607070422917
20
-3.95872916932444
30
0
41
1
10
-16.7918664216969
20
-3.92937031595128
30
0
41
1
10
-16.7398453241272
20
-3.90075552513284
30
0
41
1
10
-16.6785303858838
20
-3.85868291964911
30
0
41
1
10
-16.6664238114055
20
-3.84992556626324
30
0
41
1
10
-16.6427927777675
20
-3.83192343089556
30
0
41
1
10
-16.6081938608586
20
-3.80417851532093
30
0
41
1
10
-16.5546372972156
20
-3.75432842884419
30
0
41
1
10
-16.5160323834961
20
-3.71069545715241
30
0
41
1
10
-16.4795420339672
20
-3.66517699704335
30
0
41
1
10
-16.4622850943969
20
-3.64135579447324
30
0
41
1
10
-16.4145681221074
20
-3.5682641638237
30
0
41
1
10
-16.3879077548565
20
-3.51720298066553
30
0
41
1
10
-16.355382157813
20
-3.43716974361047
30
0
41
1
10
-16.3457936913917
20
-3.40991444306044
30
0
41
1
10
-16.3291914783157
20
-3.3542098952764
30
0
41
1
10
-16.3222624594041
20
-3.32602495011321
30
0
41
1
10
-16.3056376012167
20
-3.24098613106807
30
0
41
1
10
-16.3
20
-3.18343878860267
30
0
41
1
10
-16.3
20
-3.125
30
0
0
SPLINE
5
19F
100
AcDbEntity
8
SK1
62
256
6
ByLayer
370
18
48
1
60
0
100
AcDbSpline
70
4
71
3
72
72
73
68
40
0
40
0
40
0
40
0
40
0.125000000000047
40
0.125000000000047
40
0.18750000000007
40
0.18750000000007
40
0.218750000000083
40
0.218750000000083
40
0.250000000000095
40
0.250000000000095
40
0.312500000000119
40
0.312500000000119
40
0.34375000000013
40
0.34375000000013
40
0.375000000000142
40
0.375000000000142
40
0.390625000000148
40
0.390625000000148
40
0.406250000000154
40
0.406250000000154
40
0.414062500000157
40
0.414062500000157
40
0.42187500000016
40
0.42187500000016
40
0.437500000000163
40
0.437500000000163
40
0.445312500000163
40
0.445312500000163
40
0.453125000000164
40
0.453125000000164
40
0.460937500000164
40
0.460937500000164
40
0.468750000000164
40
0.468750000000164
40
0.472656250000164
40
0.472656250000164
40
0.476562500000164
40
0.476562500000164
40
0.484375000000162
40
0.484375000000162
40
0.49218750000016
40
0.49218750000016
40
0.500000000000159
40
0.500000000000159
40
0.515625000000154
40
0.515625000000154
40
0.531250000000149
40
0.531250000000149
40
0.546875000000145
40
0.546875000000145
40
0.56250000000014
40
0.56250000000014
40
0.59375000000013
40
0.59375000000013
40
0.62500000000012
40
0.62500000000012
40
0.65625000000011
40
0.65625000000011
40
0.6875000000001
40
0.6875000000001
40
0.75000000000008
40
0.75000000000008
40
0.81250000000006
40
0.81250000000006
40
0.87500000000004
40
0.87500000000004
40
1
40
1
40
1
40
1
41
1
10
-19.1400299536122
20
7.89025040631796
30
0
41
1
10
-19.1602273133704
20
8.02799003813607
30
0
41
1
10
-19.1840825038271
20
8.1629070114779
30
0
41
1
10
-19.2271226606411
20
8.35968213571235
30
0
41
1
10
-19.2426897732683
20
8.4243320958324
30
0
41
1
10
-19.26830892448
20
8.51955650373321
30
0
41
1
10
-19.27722879809
20
8.55100461553099
30
0
41
1
10
-19.2959407273901
20
8.61322779754963
30
0
41
1
10
-19.305743325752
20
8.64403540474189
30
0
41
1
10
-19.33659482699
20
8.73498590022564
30
0
41
1
10
-19.3590223215405
20
8.7937038409685
30
0
41
1
10
-19.3969102654306
20
8.87740641823697
30
0
41
1
10
-19.4102557428478
20
8.90456959074723
30
0
41
1
10
-19.438900326656
20
8.95688359178584
30
0
41
1
10
-19.4542464792104
20
8.98212600860322
30
0
41
1
10
-19.4791095313298
20
9.0171818301128
30
0
41
1
10
-19.4877138292469
20
9.02840893346612
30
0
41
1
10
-19.5057372302041
20
9.04968403943309
30
0
41
1
10
-19.5151531509069
20
9.05973664719249
30
0
41
1
10
-19.5301154585828
20
9.07360227552974
30
0
41
1
10
-19.5352438203945
20
9.07802021839291
30
0
41
1
10
-19.5458449352426
20
9.08635773716478
30
0
41
1
10
-19.5513353916256
20
9.09028922627945
30
0
41
1
10
-19.5683261192544
20
9.10105538643336
30
0
41
1
10
-19.580246757443
20
9.10686344624546
30
0
41
1
10
-19.5995519527882
20
9.11228932180103
30
0
41
1
10
-19.6062782769578
20
9.11354424358683
30
0
41
1
10
-19.6201283118242
20
9.114519678672
30
0
41
1
10
-19.6272175514399
20
9.11424799165829
30
0
41
1
10
-19.6418118235975
20
9.11178188686623
30
0
41
1
10
-19.6493735907347
20
9.1095387044804
30
0
41
1
10
-19.6642376917703
20
9.10296251720595
30
0
41
1
10
-19.6716199606268
20
9.09862950641295
30
0
41
1
10
-19.6826128583953
20
9.09044017930398
30
0
41
1
10
-19.6862531313682
20
9.08743123086566
30
0
41
1
10
-19.6933023372561
20
9.08103618767146
30
0
41
1
10
-19.6967381197959
20
9.07763105914165
30
0
41
1
10
-19.7067998585545
20
9.06684159260001
30
0
41
1
10
-19.7132323583081
20
9.05880187675533
30
0
41
1
10
-19.7251435709125
20
9.04199203138603
30
0
41
1
10
-19.73066631083
20
9.03319420906834
30
0
41
1
10
-19.7410520366695
20
9.01499972582653
30
0
41
1
10
-19.7459362724278
20
9.0055523313726
30
0
41
1
10
-19.759613377423
20
8.97688346430286
30
0
41
1
10
-19.7674403072002
20
8.95742629842405
30
0
41
1
10
-19.7815417458652
20
8.91809764656324
30
0
41
1
10
-19.7878104667923
20
8.89817690347095
30
0
41
1
10
-19.7992000894906
20
8.85823566096013
30
0
41
1
10
-19.8042724194691
20
8.83838491285127
30
0
41
1
10
-19.8135513174357
20
8.79885013907511
30
0
41
1
10
-19.8177538976649
20
8.7791668813428
30
0
41
1
10
-19.8293832168782
20
8.72030552576979
30
0
41
1
10
-19.8358478407123
20
8.68131270539411
30
0
41
1
10
-19.8471587114138
20
8.60363872045841
30
0
41
1
10
-19.8519910608822
20
8.56496023216314
30
0
41
1
10
-19.8605124652823
20
8.48782342330779
30
0
41
1
10
-19.8641967698954
20
8.4493660175311
30
0
41
1
10
-19.8707172357853
20
8.37261453554109
30
0
41
1
10
-19.8735510637863
20
8.3343167010587
30
0
41
1
10
-19.8810590958064
20
8.21995123155634
30
0
41
1
10
-19.8847689570787
20
8.14426798793829
30
0
41
1
10
-19.8906269539656
20
7.99357706979137
30
0
41
1
10
-19.8927632160229
20
7.91857453150922
30
0
41
1
10
-19.8960364524077
20
7.76900172542611
30
0
41
1
10
-19.8971689117494
20
7.6944334107113
30
0
41
1
10
-19.8996124327756
20
7.47114108468634
30
0
41
1
10
-19.9
20
7.32281655731128
30
0
41
1
10
-19.9
20
7.17465968322122
30
0
0
SPLINE
5
1A0
100
AcDbEntity
8
SK1
62
256
6
ByLayer
370
18
48
1
60
0
100
AcDbSpline
70
4
71
3
72
72
73
68
40
0
40
0
40
0
40
0
40
0.125000000000011
40
0.125000000000011
40
0.187500000000018
40
0.187500000000018
40
0.218750000000022
40
0.218750000000022
40
0.250000000000025
40
0.250000000000025
40
0.31250000000003
40
0.31250000000003
40
0.343750000000032
40
0.343750000000032
40
0.375000000000034
40
0.375000000000034
40
0.390625000000036
40
0.390625000000036
40
0.406250000000038
40
0.406250000000038
40
0.414062500000039
40
0.414062500000039
40
0.421875000000039
40
0.421875000000039
40
0.437500000000041
40
0.437500000000041
40
0.445312500000043
40
0.445312500000043
40
0.453125000000044
40
0.453125000000044
40
0.460937500000046
40
0.460937500000046
40
0.468750000000047
40
0.468750000000047
40
0.472656250000048
40
0.472656250000048
40
0.476562500000049
40
0.476562500000049
40
0.484375000000048
40
0.484375000000048
40
0.492187500000048
40
0.492187500000048
40
0.500000000000048
40
0.500000000000048
40
0.515625000000047
40
0.515625000000047
40
0.531250000000046
40
0.531250000000046
40
0.546875000000044
40
0.546875000000044
40
0.562500000000043
40
0.562500000000043
40
0.59375000000004
40
0.59375000000004
40
0.625000000000037
40
0.625000000000037
40
0.656250000000033
40
0.656250000000033
40
0.68750000000003
40
0.68750000000003
40
0.750000000000024
40
0.750000000000024
40
0.812500000000019
40
0.812500000000019
40
0.875000000000012
40
0.875000000000012
40
1
40
1
40
1
40
1
41
1
10
-19.1400299536122
20
-7.89025040631799
30
0
41
1
10
-19.1602273133704
20
-8.0279900381361
30
0
41
1
10
-19.1840825038271
20
-8.16290701147796
30
0
41
1
10
-19.2271226606411
20
-8.3596821357124
30
0
41
1
10
-19.2426897732683
20
-8.42433209583245
30
0
41
1
10
-19.26830892448
20
-8.51955650373324
30
0
41
1
10
-19.27722879809
20
-8.55100461553104
30
0
41
1
10
-19.2959407273901
20
-8.61322779754966
30
0
41
1
10
-19.3057433257521
20
-8.64403540474191
30
0
41
1
10
-19.33659482699
20
-8.73498590022569
30
0
41
1
10
-19.3590223215405
20
-8.79370384096856
30
0
41
1
10
-19.3969102654306
20
-8.877406418237
30
0
41
1
10
-19.4102557428478
20
-8.90456959074729
30
0
41
1
10
-19.438900326656
20
-8.95688359178587
30
0
41
1
10
-19.4542464792104
20
-8.98212600860322
30
0
41
1
10
-19.4791095313298
20
-9.01718183011283
30
0
41
1
10
-19.4877138292469
20
-9.02840893346615
30
0
41
1
10
-19.5057372302042
20
-9.04968403943312
30
0
41
1
10
-19.5151531509069
20
-9.05973664719252
30
0
41
1
10
-19.5301154585828
20
-9.07360227552977
30
0
41
1
10
-19.5352438203946
20
-9.07802021839294
30
0
41
1
10
-19.5458449352426
20
-9.08635773716478
30
0
41
1
10
-19.5513353916256
20
-9.09028922627948
30
0
41
1
10
-19.5683261192544
20
-9.10105538643339
30
0
41
1
10
-19.580246757443
20
-9.10686344624546
30
0
41
1
10
-19.5995519527882
20
-9.11228932180103
30
0
41
1
10
-19.6062782769578
20
-9.11354424358683
30
0
41
1
10
-19.6201283118242
20
-9.114519678672
30
0
41
1
10
-19.6272175514399
20
-9.11424799165826
30
0
41
1
10
-19.6418118235975
20
-9.1117818868662
30
0
41
1
10
-19.6493735907348
20
-9.10953870448037
30
0
41
1
10
-19.6642376917704
20
-9.10296251720592
30
0
41
1
10
-19.6716199606268
20
-9.09862950641295
30
0
41
1
10
-19.6826128583954
20
-9.09044017930395
30
0
41
1
10
-19.6862531313682
20
-9.0874312308656
30
0
41
1
10
-19.6933023372561
20
-9.0810361876714
30
0
41
1
10
-19.6967381197959
20
-9.0776310591416
30
0
41
1
10
-19.7067998585546
20
-9.06684159259996
30
0
41
1
10
-19.7132323583081
20
-9.05880187675527
30
0
41
1
10
-19.7251435709126
20
-9.04199203138597
30
0
41
1
10
-19.73066631083
20
-9.03319420906828
30
0
41
1
10
-19.7410520366695
20
-9.01499972582647
30
0
41
1
10
-19.7459362724278
20
-9.00555233137254
30
0
41
1
10
-19.759613377423
20
-8.9768834643028
30
0
41
1
10
-19.7674403072002
20
-8.957426298424
30
0
41
1
10
-19.7815417458652
20
-8.91809764656318
30
0
41
1
10
-19.7878104667923
20
-8.8981769034709
30
0
41
1
10
-19.7992000894906
20
-8.85823566096005
30
0
41
1
10
-19.8042724194691
20
-8.83838491285121
30
0
41
1
10
-19.8135513174358
20
-8.79885013907506
30
0
41
1
10
-19.8177538976649
20
-8.77916688134275
30
0
41
1
10
-19.8293832168783
20
-8.72030552576973
30
0
41
1
10
-19.8358478407124
20
-8.68131270539405
30
0
41
1
10
-19.8471587114138
20
-8.60363872045838
30
0
41
1
10
-19.8519910608822
20
-8.56496023216309
30
0
41
1
10
-19.8605124652823
20
-8.48782342330773
30
0
41
1
10
-19.8641967698954
20
-8.44936601753108
30
0
41
1
10
-19.8707172357853
20
-8.37261453554106
30
0
41
1
10
-19.8735510637863
20
-8.33431670105864
30
0
41
1
10
-19.8810590958064
20
-8.21995123155631
30
0
41
1
10
-19.8847689570787
20
-8.14426798793826
30
0
41
1
10
-19.8906269539656
20
-7.99357706979134
30
0
41
1
10
-19.8927632160229
20
-7.91857453150922
30
0
41
1
10
-19.8960364524077
20
-7.76900172542608
30
0
41
1
10
-19.8971689117494
20
-7.6944334107113
30
0
41
1
10
-19.8996124327756
20
-7.47114108468634
30
0
41
1
10
-19.9
20
-7.32281655731128
30
0
41
1
10
-19.9
20
-7.17465968322125
30
0
0
SPLINE
5
1A1
100
AcDbEntity
8
SK1
62
256
6
ByLayer
370
18
48
1
60
0
100
AcDbSpline
70
4
71
3
72
10
73
6
40
0
40
0
40
0
40
0
40
0.5
40
0.5
40
1
40
1
40
1
40
1
41
1
10
-19.0424698269217
20
6.71652171657536
30
0
41
1
10
-19.0404756557521
20
6.63119330955024
30
0
41
1
10
-19.0312355583733
20
6.54654110081233
30
0
41
1
10
-18.9998037403087
20
6.37840557304895
30
0
41
1
10
-18.9776285586489
20
6.2949197419307
30
0
41
1
10
-18.95
20
6.21188122149292
30
0
0
SPLINE
5
1A2
100
AcDbEntity
8
SK1
62
256
6
ByLayer
370
18
48
1
60
0
100
AcDbSpline
70
4
71
3
72
32
73
28
40
0
40
0
40
0
40
0
40
0.0156250000000024
40
0.0156250000000024
40
0.0312500000000048
40
0.0312500000000048
40
0.0468750000000071
40
0.0468750000000071
40
0.0625000000000095
40
0.0625000000000095
40
0.0937500000000092
40
0.0937500000000092
40
0.125000000000009
40
0.125000000000009
40
0.187500000000009
40
0.187500000000009
40
0.250000000000009
40
0.250000000000009
40
0.375000000000008
40
0.375000000000008
40
0.500000000000008
40
0.500000000000008
40
0.625000000000007
40
0.625000000000007
40
0.750000000000006
40
0.750000000000006
40
1
40
1
40
1
40
1
41
1
10
-17.1971232180724
20
6.75850213951034
30
0
41
1
10
-17.200759760228
20
6.75015262510144
30
0
41
1
10
-17.2053492075942
20
6.74232800418673
30
0
41
1
10
-17.2158542050583
20
6.72740923262273
30
0
41
1
10
-17.2217758197381
20
6.72031842255228
30
0
41
1
10
-17.2346195073143
20
6.70668790172684
30
0
41
1
10
-17.2415470445082
20
6.70015563955278
30
0
41
1
10
-17.2558382232696
20
6.68779561161315
30
0
41
1
10
-17.2632472081939
20
6.68192076138322
30
0
41
1
10
-17.2860672706421
20
6.66498337926228
30
0
41
1
10
-17.3020616143242
20
6.65459661418828
30
0
41
1
10
-17.3350442596579
20
6.63497470908288
30
0
41
1
10
-17.3520910682996
20
6.62572441342473
30
0
41
1
10
-17.4039062672774
20
6.59941502460606
30
0
41
1
10
-17.4392538378444
20
6.58377563111154
30
0
41
1
10
-17.5108333783554
20
6.55458692392898
30
0
41
1
10
-17.5470809576376
20
6.54107449432527
30
0
41
1
10
-17.6567238560135
20
6.50266468168957
30
0
41
1
10
-17.7310014000672
20
6.47985239441982
30
0
41
1
10
-17.8808459185065
20
6.43727589332431
30
0
41
1
10
-17.9564444620549
20
6.41756853173044
30
0
41
1
10
-18.1079743644256
20
6.38034296163656
30
0
41
1
10
-18.1839969462586
20
6.36281538963942
30
0
41
1
10
-18.3364094181044
20
6.32930769522767
30
0
41
1
10
-18.4128007252729
20
6.31333353997664
30
0
41
1
10
-18.6423970021214
20
6.26719073353965
30
0
41
1
10
-18.7960176562387
20
6.23877365293478
30
0
41
1
10
-18.95
20
6.21188122149294
30
0
0
SPLINE
5
1A3
100
AcDbEntity
8
SK1
62
256
6
ByLayer
370
18
48
1
60
0
100
AcDbSpline
70
4
71
3
72
35
73
31
40
0
40
0
40
0
40
0
40
0.124999999999998
40
0.124999999999998
40
0.249999999999996
40
0.249999999999996
40
0.374999999999994
40
0.374999999999994
40
0.499999999999992
40
0.499999999999992
40
0.562499999999992
40
0.562499999999992
40
0.624999999999992
40
0.624999999999992
40
0.687499999999992
40
0.687499999999992
40
0.749999999999993
40
0.749999999999993
40
0.812499999999993
40
0.812499999999993
40
0.843749999999994
40
0.843749999999994
40
0.874999999999995
40
0.874999999999995
40
0.937499999999999
40
0.937499999999999
40
0.953124999999999
40
0.953124999999999
40
0.968749999999999
40
1
40
1
40
1
40
1
41
1
10
-14.7
20
8.21976735266523
30
0
41
1
10
-14.8190110880058
20
8.17971252339524
30
0
41
1
10
-14.9374210931755
20
8.13848458981576
30
0
41
1
10
-15.1727836540034
20
8.05318428891073
30
0
41
1
10
-15.2897378595231
20
8.00911514154001
30
0
41
1
10
-15.5218329616837
20
7.91743789953102
30
0
41
1
10
-15.6369770638878
20
7.86983606103536
30
0
41
1
10
-15.8649249185242
20
7.77006483654722
30
0
41
1
10
-15.9777356727548
20
7.71790911562587
30
0
41
1
10
-16.1445665814619
20
7.6350204105419
30
0
41
1
10
-16.1998352100732
20
7.60657727333083
30
0
41
1
10
-16.3091277902503
20
7.54796571702431
30
0
41
1
10
-16.3630761266697
20
7.51784118117865
30
0
41
1
10
-16.4693000137064
20
7.45562979264099
30
0
41
1
10
-16.5215771206153
20
7.42354476560846
30
0
41
1
10
-16.6240803326566
20
7.35696871590815
30
0
41
1
10
-16.6743093293287
20
7.32248108525707
30
0
41
1
10
-16.772171542351
20
7.25046075778485
30
0
41
1
10
-16.8198106985839
20
7.21293502894025
30
0
41
1
10
-16.888696146824
20
7.15362775708525
30
0
41
1
10
-16.9112405092235
20
7.13333886272875
30
0
41
1
10
-16.9552532509571
20
7.09162414004854
30
0
41
1
10
-16.9765985995601
20
7.070315422383
30
0
41
1
10
-17.0383601819483
20
7.00483623024002
30
0
41
1
10
-17.0765406552609
20
6.95913914359414
30
0
41
1
10
-17.1191109070423
20
6.89849763871516
30
0
41
1
10
-17.1273809606509
20
6.88616390917724
30
0
41
1
10
-17.1432469296234
20
6.86127116046595
30
0
41
1
10
-17.1660384953807
20
6.82359601416144
30
0
41
1
10
-17.1856441288112
20
6.78485817144556
30
0
41
1
10
-17.1971232180723
20
6.75850213951034
30
0
0
SPLINE
5
1A4
100
AcDbEntity
8
SK1
62
256
6
ByLayer
370
18
48
1
60
0
100
AcDbSpline
70
4
71
3
72
44
73
40
40
0
40
0
40
0
40
0
40
0.015624999999995
40
0.015624999999995
40
0.03124999999999
40
0.03124999999999
40
0.046874999999985
40
0.046874999999985
40
0.0546874999999838
40
0.0546874999999838
40
0.0624999999999826
40
0.0624999999999826
40
0.0937499999999821
40
0.0937499999999821
40
0.124999999999982
40
0.124999999999982
40
0.140624999999981
40
0.140624999999981
40
0.156249999999981
40
0.156249999999981
40
0.187499999999985
40
0.187499999999985
40
0.249999999999989
40
0.249999999999989
40
0.281249999999991
40
0.281249999999991
40
0.312499999999992
40
0.312499999999992
40
0.374999999999994
40
0.374999999999994
40
0.499999999999995
40
0.499999999999995
40
0.624999999999996
40
0.624999999999996
40
0.749999999999998
40
0.749999999999998
40
0.874999999999999
40
0.874999999999999
40
1
40
1
40
1
40
1
41
1
10
-14.7
20
8.21976735266523
30
0
41
1
10
-14.6908190086772
20
8.2228573423975
30
0
41
1
10
-14.6814511412175
20
8.22513311003874
30
0
41
1
10
-14.6622952535089
20
8.22785525646856
30
0
41
1
10
-14.6523697881463
20
8.22827686496325
30
0
41
1
10
-14.6331058878671
20
8.22714766108442
30
0
41
1
10
-14.6236880672556
20
8.22563658059045
30
0
41
1
10
-14.6098484531145
20
8.22209921128456
30
0
41
1
10
-14.6052956866432
20
8.22070824903241
30
0
41
1
10
-14.5964789516213
20
8.2176066957974
30
0
41
1
10
-14.5921871469332
20
8.21588944432298
30
0
41
1
10
-14.5712362319456
20
8.20657653344048
30
0
41
1
10
-14.5559528909893
20
8.19673056163467
30
0
41
1
10
-14.5285240252356
20
8.17507396146411
30
0
41
1
10
-14.5161972726636
20
8.16317495635377
30
0
41
1
10
-14.4990275341242
20
8.14429353336672
30
0
41
1
10
-14.4935196316319
20
8.1378071469301
30
0
41
1
10
-14.4829873724353
20
8.12467004317332
30
0
41
1
10
-14.4779501386978
20
8.11800646435535
30
0
41
1
10
-14.4634029605485
20
8.09777848292728
30
0
41
1
10
-14.4544514035718
20
8.08397924602176
30
0
41
1
10
-14.4292194617681
20
8.04188071039076
30
0
41
1
10
-14.4145336186762
20
8.01289161381325
30
0
41
1
10
-14.3944995941322
20
7.96849202336836
30
0
41
1
10
-14.3881650390788
20
7.95353519065648
30
0
41
1
10
-14.3760699262943
20
7.92335111992401
30
0
41
1
10
-14.3703042923804
20
7.90810680802903
30
0
41
1
10
-14.3538261320708
20
7.86224851224918
30
0
41
1
10
-14.3438955847435
20
7.83144660633062
30
0
41
1
10
-14.3164547375383
20
7.73846831163709
30
0
41
1
10
-14.301256832997
20
7.67572488145984
30
0
41
1
10
-14.2748837676487
20
7.5490297453257
30
0
41
1
10
-14.2637451671122
20
7.48507275850804
30
0
41
1
10
-14.2445163576424
20
7.35608549414485
30
0
41
1
10
-14.2364374930845
20
7.29105358909516
30
0
41
1
10
-14.2227739511957
20
7.15999064969216
30
0
41
1
10
-14.2171936957944
20
7.09395898907013
30
0
41
1
10
-14.2082079276778
20
6.96093627836603
30
0
41
1
10
-14.2048053302798
20
6.89393192234706
30
0
41
1
10
-14.202410115942
20
6.82662967809261
30
0
0
SPLINE
5
1A5
100
AcDbEntity
8
SK1
62
256
6
ByLayer
370
18
48
1
60
0
100
AcDbSpline
70
4
71
3
72
24
73
20
40
0
40
0
40
0
40
0
40
0.0625000000000007
40
0.0625000000000007
40
0.125000000000001
40
0.125000000000001
40
0.250000000000001
40
0.250000000000001
40
0.375000000000001
40
0.375000000000001
40
0.500000000000001
40
0.500000000000001
40
0.625000000000001
40
0.625000000000001
40
0.75
40
0.75
40
0.875
40
0.875
40
1
40
1
40
1
40
1
41
1
10
-14.2024101159421
20
6.82662967809261
30
0
41
1
10
-14.2010699150459
20
6.78897186741401
30
0
41
1
10
-14.197798897012
20
6.75102248225551
30
0
41
1
10
-14.1879553346955
20
6.67602589550256
30
0
41
1
10
-14.1813986162564
20
6.63884156281537
30
0
41
1
10
-14.1579614037961
20
6.52796590183644
30
0
41
1
10
-14.1373752215138
20
6.4549382840512
30
0
41
1
10
-14.0919933144308
20
6.30930204522718
30
0
41
1
10
-14.0672030944229
20
6.23669149332409
30
0
41
1
10
-14.017426943295
20
6.0909087898504
30
0
41
1
10
-13.9924176075841
20
6.01773841924572
30
0
41
1
10
-13.9448388863781
20
5.87018661812328
30
0
41
1
10
-13.9223077828815
20
5.79596936399153
30
0
41
1
10
-13.8817063233609
20
5.64636243718101
30
0
41
1
10
-13.8636236305509
20
5.57097450764422
30
0
41
1
10
-13.8334518343203
20
5.41878946209866
30
0
41
1
10
-13.8213520727619
20
5.34199390558862
30
0
41
1
10
-13.8046330168847
20
5.18675746987117
30
0
41
1
10
-13.8
20
5.10831866698246
30
0
41
1
10
-13.8
20
5.02891375368554
30
0
0
SPLINE
5
1A6
100
AcDbEntity
8
SK1
62
256
6
ByLayer
370
18
48
1
60
0
100
AcDbSpline
70
4
71
3
72
25
73
21
40
0
40
0
40
0
40
0
40
0.0625000000000021
40
0.0937500000000031
40
0.0937500000000031
40
0.125000000000004
40
0.125000000000004
40
0.250000000000004
40
0.250000000000004
40
0.375000000000003
40
0.375000000000003
40
0.500000000000002
40
0.500000000000002
40
0.625000000000002
40
0.625000000000002
40
0.750000000000001
40
0.750000000000001
40
0.875000000000001
40
0.875000000000001
40
1
40
1
40
1
40
1
41
1
10
-13.7999999999999
20
-5.02891375368554
30
0
41
1
10
-13.7999999999999
20
-5.06844781173831
30
0
41
1
10
-13.8017303661449
20
-5.12771499938773
30
0
41
1
10
-13.8058588128972
20
-5.18692335752692
30
0
41
1
10
-13.80912405054
20
-5.22638171060908
30
0
41
1
10
-13.811015150641
20
-5.24611950560211
30
0
41
1
10
-13.8216538942117
20
-5.34436153722118
30
0
41
1
10
-13.833958231904
20
-5.42180952691623
30
0
41
1
10
-13.8644825128823
20
-5.57481945735816
30
0
41
1
10
-13.882714070638
20
-5.65037877997923
30
0
41
1
10
-13.9234860282581
20
-5.79999114834936
30
0
41
1
10
-13.9460388410653
20
-5.87404150863352
30
0
41
1
10
-13.9935380556102
20
-6.02107288367816
30
0
41
1
10
-14.0185049438575
20
-6.09405937086294
30
0
41
1
10
-14.0681464212281
20
-6.2394611698692
30
0
41
1
10
-14.0928444772305
20
-6.31188167726151
30
0
41
1
10
-14.1379798341229
20
-6.45703538056424
30
0
41
1
10
-14.1584069667381
20
-6.52977128704939
30
0
41
1
10
-14.1893479544766
20
-6.67675611356725
30
0
41
1
10
-14.1997198146721
20
-6.75103589496419
30
0
41
1
10
-14.2024101159422
20
-6.82662967809273
30
0
0
SPLINE
5
1A7
100
AcDbEntity
8
SK1
62
256
6
ByLayer
370
18
48
1
60
0
100
AcDbSpline
70
4
71
3
72
40
73
36
40
0
40
0
40
0
40
0
40
0.250000000000002
40
0.250000000000002
40
0.375000000000003
40
0.375000000000003
40
0.500000000000003
40
0.500000000000003
40
0.625000000000004
40
0.625000000000004
40
0.687500000000004
40
0.687500000000004
40
0.750000000000005
40
0.750000000000005
40
0.812500000000005
40
0.812500000000005
40
0.843750000000004
40
0.843750000000004
40
0.875000000000002
40
0.875000000000002
40
0.890625000000001
40
0.890625000000001
40
0.906249999999999
40
0.906249999999999
40
0.937499999999996
40
0.937499999999996
40
0.953124999999996
40
0.953124999999996
40
0.968749999999996
40
0.968749999999996
40
0.984374999999997
40
0.984374999999997
40
0.992187499999998
40
0.992187499999998
40
1
40
1
40
1
40
1
41
1
10
-14.2024101159423
20
-6.82662967809264
30
0
41
1
10
-14.2072040591497
20
-6.96133292013525
30
0
41
1
10
-14.2159333344614
20
-7.09455436526633
30
0
41
1
10
-14.2365516770608
20
-7.29205812165418
30
0
41
1
10
-14.2446973938595
20
-7.3575014552203
30
0
41
1
10
-14.2641001109148
20
-7.48724651028681
30
0
41
1
10
-14.2753485282079
20
-7.55158619083389
30
0
41
1
10
-14.3020209746192
20
-7.67905673923141
30
0
41
1
10
-14.3173868489851
20
-7.74206922216513
30
0
41
1
10
-14.3450505628975
20
-7.83511865237367
30
0
41
1
10
-14.3550570821168
20
-7.86590351525865
30
0
41
1
10
-14.3770736944308
20
-7.9266888375594
30
0
41
1
10
-14.3890811025565
20
-7.95671800883594
30
0
41
1
10
-14.4159494842396
20
-8.0157703636132
30
0
41
1
10
-14.4307177765474
20
-8.0446575635753
30
0
41
1
10
-14.4560799642713
20
-8.08653749349742
30
0
41
1
10
-14.4650760322604
20
-8.1002527648468
30
0
41
1
10
-14.4845631751939
20
-8.12702545467744
30
0
41
1
10
-14.4950204139594
20
-8.14003854480316
30
0
41
1
10
-14.5120943257133
20
-8.15856936116046
30
0
41
1
10
-14.5180247999257
20
-8.16458782433628
30
0
41
1
10
-14.5304843864607
20
-8.17623107077782
30
0
41
1
10
-14.5370402037224
20
-8.18187622192303
30
0
41
1
10
-14.5575874610768
20
-8.19783240993362
30
0
41
1
10
-14.5724459667685
20
-8.20726245202391
30
0
41
1
10
-14.5976674040508
20
-8.21824271121184
30
0
41
1
10
-14.6063656733469
20
-8.22126669174367
30
0
41
1
10
-14.6244697245765
20
-8.22577226885522
30
0
41
1
10
-14.6340058409937
20
-8.22724846210761
30
0
41
1
10
-14.6529957550814
20
-8.22826148706386
30
0
41
1
10
-14.6625018110829
20
-8.22783538397542
30
0
41
1
10
-14.6767775905273
20
-8.22579239476894
30
0
41
1
10
-14.6815416971572
20
-8.22487346297487
30
0
41
1
10
-14.6908747024672
20
-8.22262466691458
30
0
41
1
10
-14.6954700898039
20
-8.22129195665437
30
0
41
1
10
-14.7
20
-8.21976735266534
30
0
0
SPLINE
5
1A8
100
AcDbEntity
8
SK1
62
256
6
ByLayer
370
18
48
1
60
0
100
AcDbSpline
70
4
71
3
72
34
73
30
40
0
40
0
40
0
40
0
40
0.0312499999999978
40
0.0312499999999978
40
0.0624999999999956
40
0.0624999999999956
40
0.124999999999994
40
0.124999999999994
40
0.156249999999995
40
0.156249999999995
40
0.187499999999996
40
0.187499999999996
40
0.249999999999995
40
0.249999999999995
40
0.312499999999995
40
0.312499999999995
40
0.374999999999995
40
0.374999999999995
40
0.499999999999997
40
0.499999999999997
40
0.562499999999999
40
0.562499999999999
40
0.625
40
0.625
40
0.75
40
0.75
40
0.875
40
0.875
40
1
40
1
40
1
40
1
41
1
10
-17.1971232180728
20
-6.75850213951028
30
0
41
1
10
-17.1854907909246
20
-6.78521023580834
30
0
41
1
10
-17.1721947451015
20
-6.81143297745098
30
0
41
1
10
-17.1426991645738
20
-6.86287828135835
30
0
41
1
10
-17.1266967426156
20
-6.88777056337315
30
0
41
1
10
-17.0755576845341
20
-6.96037465283467
30
0
41
1
10
-17.0373204177635
20
-7.00603432777697
30
0
41
1
10
-16.9754194255282
20
-7.07151570015281
30
0
41
1
10
-16.954018916617
20
-7.09283529294456
30
0
41
1
10
-16.9098772456245
20
-7.13458717582719
30
0
41
1
10
-16.8871221477256
20
-7.15502549920174
30
0
41
1
10
-16.8177870742848
20
-7.21458712243924
30
0
41
1
10
-16.7699144066668
20
-7.25220243392167
30
0
41
1
10
-16.6717080622918
20
-7.32431079092822
30
0
41
1
10
-16.62136819281
20
-7.35879597978345
30
0
41
1
10
-16.518752377529
20
-7.42531007032179
30
0
41
1
10
-16.4664734775442
20
-7.4573352240493
30
0
41
1
10
-16.3072768373991
20
-7.55041664477741
30
0
41
1
10
-16.1980271690541
20
-7.60851440996944
30
0
41
1
10
-16.030861340804
20
-7.69148537464869
30
0
41
1
10
-15.9745170307775
20
-7.71846452738777
30
0
41
1
10
-15.8613574268237
20
-7.77098098771495
30
0
41
1
10
-15.8045046319894
20
-7.79653862172293
30
0
41
1
10
-15.6332445021483
20
-7.87141059719116
30
0
41
1
10
-15.5181408834215
20
-7.91893802853906
30
0
41
1
10
-15.2865126336197
20
-8.01034607132195
30
0
41
1
10
-15.1699851768617
20
-8.05421943105574
30
0
41
1
10
-14.9357949800803
20
-8.13905261242172
30
0
41
1
10
-14.8181308200321
20
-8.18000878976852
30
0
41
1
10
-14.7
20
-8.21976735266543
30
0
0
SPLINE
5
1A9
100
AcDbEntity
8
SK1
62
256
6
ByLayer
370
18
48
1
60
0
100
AcDbSpline
70
4
71
3
72
30
73
26
40
0
40
0
40
0
40
0
40
0.249999999999999
40
0.249999999999999
40
0.375000000000001
40
0.375000000000001
40
0.500000000000003
40
0.500000000000003
40
0.625000000000005
40
0.625000000000005
40
0.750000000000007
40
0.750000000000007
40
0.812500000000006
40
0.812500000000006
40
0.875000000000004
40
0.875000000000004
40
0.906250000000003
40
0.906250000000003
40
0.937500000000002
40
0.937500000000002
40
0.968750000000001
40
0.968750000000001
40
0.984375000000001
40
0.984375000000001
40
1
40
1
40
1
40
1
41
1
10
-18.9499999999975
20
-6.21188122148146
30
0
41
1
10
-18.795949549866
20
-6.23878554744167
30
0
41
1
10
-18.6422299069311
20
-6.26722089145926
30
0
41
1
10
-18.4124153418518
20
-6.31341270904895
30
0
41
1
10
-18.3359388249596
20
-6.32940703458323
30
0
41
1
10
-18.1833282531144
20
-6.36296655184077
30
0
41
1
10
-18.1072408487313
20
-6.38051548916437
30
0
41
1
10
-17.9556756773772
20
-6.41776514299281
30
0
41
1
10
-17.8801723210464
20
-6.43745533938315
30
0
41
1
10
-17.7301866647895
20
-6.48009595916446
30
0
41
1
10
-17.6557739953534
20
-6.50296113344331
30
0
41
1
10
-17.5457679120138
20
-6.54155307327991
30
0
41
1
10
-17.5093771424816
20
-6.55514635918678
30
0
41
1
10
-17.4378143630035
20
-6.58439842726037
30
0
41
1
10
-17.4025880590861
20
-6.60003799272027
30
0
41
1
10
-17.3512230676429
20
-6.62618937110773
30
0
41
1
10
-17.3343182451279
20
-6.63538174602948
30
0
41
1
10
-17.3013926157238
20
-6.65502056843849
30
0
41
1
10
-17.2854368928095
20
-6.66541337154842
30
0
41
1
10
-17.255114815283
20
-6.68799609472518
30
0
41
1
10
-17.2406253291659
20
-6.70027883097194
30
0
41
1
10
-17.2216649787119
20
-6.72045416194447
30
0
41
1
10
-17.2157974256512
20
-6.72748244653147
30
0
41
1
10
-17.2053178166176
20
-6.74238006890786
30
0
41
1
10
-17.20070654731
20
-6.75027480216031
30
0
41
1
10
-17.1971232180724
20
-6.75850213951014
30
0
0
SPLINE
5
1AA
100
AcDbEntity
8
SK1
62
256
6
ByLayer
370
18
48
1
60
0
100
AcDbSpline
70
4
71
3
72
10
73
6
40
0
40
0
40
0
40
0
40
0.5
40
0.5
40
1
40
1
40
1
40
1
41
1
10
-19.0424698269217
20
-6.71652171657536
30
0
41
1
10
-19.0404756557521
20
-6.63119330955021
30
0
41
1
10
-19.0312355583733
20
-6.54654110081233
30
0
41
1
10
-18.9998037403087
20
-6.37840557304895
30
0
41
1
10
-18.9776285586489
20
-6.2949197419307
30
0
41
1
10
-18.95
20
-6.21188122149292
30
0
0
SPLINE
5
1AB
100
AcDbEntity
8
SK1
62
256
6
ByLayer
370
18
48
1
60
0
100
AcDbSpline
70
2053
71
3
72
165
73
161
40
0
40
0
40
0
40
0
40
0.0156250000000015
40
0.031250000000003
40
0.031250000000003
40
0.0390625000000036
40
0.0429687500000038
40
0.0429687500000038
40
0.0468750000000041
40
0.0468750000000041
40
0.062500000000005
40
0.0781250000000058
40
0.0781250000000058
40
0.0937500000000067
40
0.0937500000000067
40
0.101562500000007
40
0.101562500000007
40
0.109375000000008
40
0.109375000000008
40
0.125000000000008
40
0.140625000000009
40
0.140625000000009
40
0.14453125000001
40
0.14453125000001
40
0.14843750000001
40
0.14843750000001
40
0.15625000000001
40
0.15625000000001
40
0.171875000000011
40
0.187500000000012
40
0.187500000000012
40
0.191406250000013
40
0.191406250000013
40
0.195312500000013
40
0.195312500000013
40
0.203125000000013
40
0.203125000000013
40
0.218750000000013
40
0.234375000000014
40
0.234375000000014
40
0.238281250000014
40
0.238281250000014
40
0.242187500000013
40
0.242187500000013
40
0.250000000000013
40
0.250000000000013
40
0.265625000000013
40
0.265625000000013
40
0.281250000000012
40
0.281250000000012
40
0.289062500000012
40
0.289062500000012
40
0.296875000000011
40
0.296875000000011
40
0.312500000000011
40
0.312500000000011
40
0.32812500000001
40
0.34375000000001
40
0.34375000000001
40
0.35156250000001
40
0.35156250000001
40
0.359375000000009
40
0.359375000000009
40
0.375000000000009
40
0.390625000000008
40
0.406250000000008
40
0.406250000000008
40
0.421875000000007
40
0.421875000000007
40
0.437500000000007
40
0.453125000000006
40
0.453125000000006
40
0.460937500000006
40
0.464843750000006
40
0.464843750000006
40
0.468750000000006
40
0.468750000000006
40
0.484375000000005
40
0.500000000000005
40
0.500000000000005
40
0.515625000000004
40
0.515625000000004
40
0.523437500000004
40
0.523437500000004
40
0.527343750000004
40
0.527343750000004
40
0.531250000000004
40
0.546875000000004
40
0.562500000000003
40
0.562500000000003
40
0.578125000000003
40
0.578125000000003
40
0.585937500000003
40
0.585937500000003
40
0.593750000000002
40
0.593750000000002
40
0.609375000000002
40
0.625000000000002
40
0.625000000000002
40
0.628906250000002
40
0.628906250000002
40
0.632812500000002
40
0.632812500000002
40
0.640625000000001
40
0.640625000000001
40
0.656250000000001
40
0.671875
40
0.671875
40
0.67578125
40
0.67578125
40
0.6796875
40
0.6796875
40
0.6875
40
0.6875
40
0.703125
40
0.703125
40
0.71875
40
0.71875
40
0.726562499999999
40
0.726562499999999
40
0.734374999999999
40
0.734374999999999
40
0.749999999999999
40
0.765624999999999
40
0.765624999999999
40
0.773437499999999
40
0.773437499999999
40
0.781249999999999
40
0.781249999999999
40
0.796874999999999
40
0.812499999999998
40
0.828124999999998
40
0.828124999999998
40
0.835937499999998
40
0.835937499999998
40
0.843749999999998
40
0.843749999999998
40
0.859374999999998
40
0.874999999999998
40
0.874999999999998
40
0.882812499999998
40
0.886718749999998
40
0.886718749999998
40
0.890624999999998
40
0.890624999999998
40
0.906249999999999
40
0.921874999999999
40
0.937499999999999
40
0.937499999999999
40
0.945312499999999
40
0.945312499999999
40
0.949218749999999
40
0.949218749999999
40
0.953124999999999
40
0.968749999999999
40
0.984375
40
0.984375
40
0.9921875
40
0.9921875
40
1
40
1
40
1
40
1
41
1
10
-7.95187414847099
20
-1.89532621793263
30
0
41
1
10
-8.0202119211212
20
-1.831770613283
30
0
41
1
10
-8.14961435505585
20
-1.69885062739476
30
0
41
1
10
-8.26455116777106
20
-1.55434557847224
30
0
41
1
10
-8.3451895693983
20
-1.44149878143349
30
0
41
1
10
-8.3841153114294
20
-1.38395645465064
30
0
41
1
10
-8.42089770516327
20
-1.32469091703626
30
0
41
1
10
-8.44493547174959
20
-1.28479133885352
30
0
41
1
10
-8.45672867482349
20
-1.26461748369539
30
0
41
1
10
-8.51418851343294
20
-1.16325081021464
30
0
41
1
10
-8.59669672582454
20
-0.997641055716088
30
0
41
1
10
-8.66063637911256
20
-0.825274651436644
30
0
41
1
10
-8.71514318522814
20
-0.649469898260037
30
0
41
1
10
-8.73768170732149
20
-0.55984891405555
30
0
41
1
10
-8.76407029397078
20
-0.422709743657151
30
0
41
1
10
-8.77163513886698
20
-0.37643218198437
30
0
41
1
10
-8.78405962550539
20
-0.284154486470186
30
0
41
1
10
-8.78894958329492
20
-0.238029800026482
30
0
41
1
10
-8.79971871998194
20
-0.0996975281089192
30
0
41
1
10
-8.80369355572027
20
0.0846342568290481
30
0
41
1
10
-8.78710391258824
20
0.268745707856397
30
0
41
1
10
-8.77016795586864
20
0.383745032506368
30
0
41
1
10
-8.76645157061314
20
0.406741372179198
30
0
41
1
10
-8.7583534929236
20
0.452726928391769
30
0
41
1
10
-8.75396995525423
20
0.475718345659686
30
0
41
1
10
-8.73990795382251
20
0.544239490253034
30
0
41
1
10
-8.72929408190262
20
0.589465419356657
30
0
41
1
10
-8.69383190989429
20
0.723815096561651
30
0
41
1
10
-8.63691656248336
20
0.899414538341205
30
0
41
1
10
-8.56127631614588
20
1.06815576329248
30
0
41
1
10
-8.50813345732057
20
1.17147426672585
30
0
41
1
10
-8.4972107820936
20
1.19203047025695
30
0
41
1
10
-8.47477391152263
20
1.23292679537164
30
0
41
1
10
-8.46326449044295
20
1.25325598942305
30
0
41
1
10
-8.42805047660846
20
1.31357685909958
30
0
41
1
10
-8.40359852552837
20
1.35301730418362
30
0
41
1
10
-8.32739995557539
20
1.46908832633179
30
0
41
1
10
-8.21824059813009
20
1.6178642531379
30
0
41
1
10
-8.09447276556031
20
1.75510559654055
30
0
41
1
10
-8.01257178569237
20
1.83730175346793
30
0
41
1
10
-7.99596374466894
20
1.85356157568717
30
0
41
1
10
-7.96229027971198
20
1.88572132037416
30
0
41
1
10
-7.94520339487495
20
1.901640241173
30
0
41
1
10
-7.89348312329351
20
1.9486482041456
30
0
41
1
10
-7.85835678755107
20
1.97902548873506
30
0
41
1
10
-7.75109533014168
20
2.06735973031914
30
0
41
1
10
-7.67708240898021
20
2.1225260310643
30
0
41
1
10
-7.52422067041727
20
2.22568757174375
30
0
41
1
10
-7.44537130465839
20
2.27368197119299
30
0
41
1
10
-7.32349281665437
20
2.34033960635989
30
0
41
1
10
-7.28226484929121
20
2.36166823518531
30
0
41
1
10
-7.19859640385293
20
2.40253287415905
30
0
41
1
10
-7.15611203085879
20
2.42208185969241
30
0
41
1
10
-7.02807773576045
20
2.47749249378097
30
0
41
1
10
-6.94155866892638
20
2.51032737482936
30
0
41
1
10
-6.76628477390693
20
2.56810282356881
30
0
41
1
10
-6.5887745620964
20
2.61798200049657
30
0
41
1
10
-6.40684579637352
20
2.65225818689834
30
0
41
1
10
-6.26871835551246
20
2.67202940891858
30
0
41
1
10
-6.22230355493433
20
2.67763446855895
30
0
41
1
10
-6.12973701565809
20
2.68675980949817
30
0
41
1
10
-6.08350855815003
20
2.69029514492786
30
0
41
1
10
-5.94498477366426
20
2.69787903764652
30
0
41
1
10
-5.76071673856043
20
2.6999450585156
30
0
41
1
10
-5.48558130278757
20
2.67936649020294
30
0
41
1
10
-5.30300318235172
20
2.64975816129066
30
0
41
1
10
-5.12085752892339
20
2.61193554804936
30
0
41
1
10
-5.03133814885328
20
2.58919420694272
30
0
41
1
10
-4.85534623133663
20
2.53626709509251
30
0
41
1
10
-4.68238908291818
20
2.47589161355393
30
0
41
1
10
-4.51546872491394
20
2.4006195831233
30
0
41
1
10
-4.39259216998082
20
2.3384195679721
30
0
41
1
10
-4.33173321308657
20
2.30588076501812
30
0
41
1
10
-4.27176266928342
20
2.27112776302457
30
0
41
1
10
-4.23198249801528
20
2.24745925297432
30
0
41
1
10
-4.21218539353059
20
2.23536964924526
30
0
41
1
10
-4.11423196755682
20
2.17398811441814
30
0
41
1
10
-3.9632548505398
20
2.06932562347373
30
0
41
1
10
-3.82361583055761
20
1.95186185348166
30
0
41
1
10
-3.68973662290009
20
1.82785536182098
30
0
41
1
10
-3.6256759482071
20
1.76258193966697
30
0
41
1
10
-3.53411040748178
20
1.65950059235559
30
0
41
1
10
-3.50434432931712
20
1.62427652154574
30
0
41
1
10
-3.46087031902388
20
1.57009376432404
30
0
41
1
10
-3.44655267638848
20
1.55177846858518
30
0
41
1
10
-3.418452450307
20
1.51486863206048
30
0
41
1
10
-3.34953844316311
20
1.42189317521829
30
0
41
1
10
-3.23738951701823
20
1.24829102193621
30
0
41
1
10
-3.15460181279654
20
1.08506449935982
30
0
41
1
10
-3.08052287417101
20
0.917227170553332
30
0
41
1
10
-3.04783568322199
20
0.831004236418636
30
0
41
1
10
-3.00575703799728
20
0.697977824978409
30
0
41
1
10
-2.99287480939435
20
0.652917091652569
30
0
41
1
10
-2.96983210610232
20
0.562787976587686
30
0
41
1
10
-2.95962216125675
20
0.517582546579121
30
0
41
1
10
-2.93287858875773
20
0.381548406536922
30
0
41
1
10
-2.90756486980925
20
0.199057265776929
30
0
41
1
10
-2.9029120729862
20
0.0143419814444314
30
0
41
1
10
-2.9066567006854
20
-0.101821373124409
30
0
41
1
10
-2.90773909776968
20
-0.125089946984105
30
0
41
1
10
-2.91057923488505
20
-0.171699797855012
30
0
41
1
10
-2.91234087545958
20
-0.195076666229227
30
0
41
1
10
-2.91861057138962
20
-0.26488481382529
30
0
41
1
10
-2.92410406319097
20
-0.311086819279552
30
0
41
1
10
-2.94442122681563
20
-0.448709811791275
30
0
41
1
10
-2.98172137301405
20
-0.629590882599871
30
0
41
1
10
-3.03885458996156
20
-0.805398790378462
30
0
41
1
10
-3.08077327544892
20
-0.913694275436342
30
0
41
1
10
-3.08946829207054
20
-0.935273961256172
30
0
41
1
10
-3.10748426702163
20
-0.978273772083156
30
0
41
1
10
-3.1167946079735
20
-0.999666098498665
30
0
41
1
10
-3.14549568814749
20
-1.06323840641889
30
0
41
1
10
-3.16570239215589
20
-1.10492654217703
30
0
41
1
10
-3.22943901166522
20
-1.22798017476225
30
0
41
1
10
-3.27607706850905
20
-1.30734023103511
30
0
41
1
10
-3.37732922169197
20
-1.46093651465244
30
0
41
1
10
-3.43194422208342
20
-1.5351721201308
30
0
41
1
10
-3.51980624544514
20
-1.642728741024
30
0
41
1
10
-3.55015323353354
20
-1.67801574298969
30
0
41
1
10
-3.61224410288628
20
-1.74667277658682
30
0
41
1
10
-3.64403677363001
20
-1.78011022925045
30
0
41
1
10
-3.74159245482296
20
-1.87783350904075
30
0
41
1
10
-3.8774589462649
20
-2.00124520133355
30
0
41
1
10
-4.02452534511495
20
-2.11142320875595
30
0
41
1
10
-4.13900888969663
20
-2.18914351283161
30
0
41
1
10
-4.17789512932841
20
-2.21424606236795
30
0
41
1
10
-4.25696747822289
20
-2.26273268687439
30
0
41
1
10
-4.2969250622223
20
-2.28597847322058
30
0
41
1
10
-4.41803097700054
20
-2.35280705170106
30
0
41
1
10
-4.58278616256865
20
-2.43417434196249
30
0
41
1
10
-4.83949491498399
20
-2.53378805894067
30
0
41
1
10
-5.01701555014481
20
-2.58533008369173
30
0
41
1
10
-5.15261357203534
20
-2.61828773045411
30
0
41
1
10
-5.19795896182424
20
-2.62825651081363
30
0
41
1
10
-5.28875736420193
20
-2.64615954655972
30
0
41
1
10
-5.33423988047038
20
-2.6541009627212
30
0
41
1
10
-5.4709347285206
20
-2.67493885624424
30
0
41
1
10
-5.6538530832411
20
-2.69477189195538
30
0
41
1
10
-5.83808323594452
20
-2.6988492547386
30
0
41
1
10
-5.97675687678013
20
-2.69589788300985
30
0
41
1
10
-6.04621911081563
20
-2.69291764630145
30
0
41
1
10
-6.11587288314919
20
-2.68763770886056
30
0
41
1
10
-6.16235177512712
20
-2.68360054799459
30
0
41
1
10
-6.18560028079513
20
-2.68132367413543
30
0
41
1
10
-6.30136669222409
20
-2.66870300183908
30
0
41
1
10
-6.48446302726954
20
-2.64053988197074
30
0
41
1
10
-6.75284668738644
20
-2.57487068225407
30
0
41
1
10
-6.92757088153262
20
-2.51538708705454
30
0
41
1
10
-7.0569872536836
20
-2.46469092782627
30
0
41
1
10
-7.09985445153156
20
-2.44677656731559
30
0
41
1
10
-7.16373669444654
20
-2.4183400704155
30
0
41
1
10
-7.18498816555721
20
-2.40858715785583
30
0
41
1
10
-7.22718350511232
20
-2.38863098675748
30
0
41
1
10
-7.33190827722194
20
-2.33761147289391
30
0
41
1
10
-7.51361135621039
20
-2.23571444022156
30
0
41
1
10
-7.66549754752857
20
-2.13086830803761
30
0
41
1
10
-7.77571344629618
20
-2.04673926917883
30
0
41
1
10
-7.8118345166109
20
-2.017778864446
30
0
41
1
10
-7.88281241350033
20
-1.95797793268122
30
0
41
1
10
-7.91770526214589
20
-1.92710402025744
30
0
41
1
10
-7.95187414847099
20
-1.89532621793263
30
0
0
LINE
5
8A
100
AcDbEntity
8
81
62
256
6
ByLayer
370
18
48
1
60
0
100
AcDbLine
10
50
20
0
30
0
11
55
21
0
31
0
39
0
210
0
220
0
230
1
0
LINE
5
8B
100
AcDbEntity
8
4
62
256
6
ByLayer
370
18
48
0.05
60
0
100
AcDbLine
10
0
20
0
30
0
11
50
21
0
31
0
39
0
210
0
220
0
230
1
0
LINE
5
8D
100
AcDbEntity
8
SK4
62
256
6
ByLayer
370
18
48
0.05
60
0
100
AcDbLine
10
0
20
0
30
0
11
50
21
0
31
0
39
0
210
0
220
0
230
1
0
LINE
5
8F
100
AcDbEntity
8
80
62
256
6
ByLayer
370
18
48
1
60
0
100
AcDbLine
10
0
20
0
30
0
11
-5
21
0
31
0
39
0
210
0
220
0
230
1
0
LINE
5
90
100
AcDbEntity
8
1
62
256
6
ByLayer
370
18
48
1
60
0
100
AcDbLine
10
16.65
20
17.375
30
0
11
15.35
21
17.375
31
0
39
0
210
0
220
0
230
1
0
LINE
5
91
100
AcDbEntity
8
1
62
256
6
ByLayer
370
18
48
1
60
0
100
AcDbLine
10
61
20
7.4199
30
0
11
60
21
7.99725
31
0
39
0
210
0
220
0
230
1
0
LINE
5
92
100
AcDbEntity
8
1
62
256
6
ByLayer
370
18
48
1
60
0
100
AcDbLine
10
60
20
-7.99725
30
0
11
61
21
-7.4199
31
0
39
0
210
0
220
0
230
1
0
LINE
5
93
100
AcDbEntity
8
1
62
256
6
ByLayer
370
18
48
1
60
0
100
AcDbLine
10
60
20
7.99725
30
0
11
50.000053
21
7.99725
31
0
39
0
210
0
220
0
230
1
0
LINE
5
94
100
AcDbEntity
8
1
62
256
6
ByLayer
370
18
48
1
60
0
100
AcDbLine
10
50.000053
20
-7.99725
30
0
11
60
21
-7.99725
31
0
39
0
210
0
220
0
230
1
0
LINE
5
95
100
AcDbEntity
8
1
62
256
6
ByLayer
370
18
48
1
60
0
100
AcDbLine
10
39.5
20
-16
30
0
11
40
21
-15.5
31
0
39
0
210
0
220
0
230
1
0
LINE
5
96
100
AcDbEntity
8
1
62
256
6
ByLayer
370
18
48
1
60
0
100
AcDbLine
10
40
20
15.5
30
0
11
39.5
21
16
31
0
39
0
210
0
220
0
230
1
0
LINE
5
97
100
AcDbEntity
8
1
62
256
6
ByLayer
370
18
48
1
60
0
100
AcDbLine
10
20.95
20
-16
30
0
11
39.5
21
-16
31
0
39
0
210
0
220
0
230
1
0
LINE
5
98
100
AcDbEntity
8
1
62
256
6
ByLayer
370
18
48
1
60
0
100
AcDbLine
10
39.5
20
16
30
0
11
20.95
21
16
31
0
39
0
210
0
220
0
230
1
0
LINE
5
99
100
AcDbEntity
8
1
62
256
6
ByLayer
370
18
48
1
60
0
100
AcDbLine
10
15.35
20
-17.375
30
0
11
16.65
21
-17.375
31
0
39
0
210
0
220
0
230
1
0
LINE
5
9A
100
AcDbEntity
8
1
62
256
6
ByLayer
370
18
48
1
60
0
100
AcDbLine
10
18.020726
20
19.975
30
0
11
17.05
21
18.293653
31
0
39
0
210
0
220
0
230
1
0
LINE
5
9B
100
AcDbEntity
8
1
62
256
6
ByLayer
370
18
48
1
60
0
100
AcDbLine
10
19.95
20
19.475
30
0
11
19.45
21
19.975
31
0
39
0
210
0
220
0
230
1
0
LINE
5
9C
100
AcDbEntity
8
1
62
256
6
ByLayer
370
18
48
1
60
0
100
AcDbLine
10
19.45
20
19.975
30
0
11
18.020726
21
19.975
31
0
39
0
210
0
220
0
230
1
0
LINE
5
9D
100
AcDbEntity
8
1
62
256
6
ByLayer
370
18
48
1
60
0
100
AcDbLine
10
18.020726
20
-19.975
30
0
11
19.45
21
-19.975
31
0
39
0
210
0
220
0
230
1
0
LINE
5
9E
100
AcDbEntity
8
1
62
256
6
ByLayer
370
18
48
1
60
0
100
AcDbLine
10
14.95
20
18.293653
30
0
11
13.979274
21
19.975
31
0
39
0
210
0
220
0
230
1
0
LINE
5
9F
100
AcDbEntity
8
1
62
256
6
ByLayer
370
18
48
1
60
0
100
AcDbLine
10
13.979274
20
-19.975
30
0
11
14.95
21
-18.293653
31
0
39
0
210
0
220
0
230
1
0
LINE
5
A0
100
AcDbEntity
8
1
62
256
6
ByLayer
370
18
48
1
60
0
100
AcDbLine
10
17.05
20
-18.293653
30
0
11
18.020726
21
-19.975
31
0
39
0
210
0
220
0
230
1
0
LINE
5
A1
100
AcDbEntity
8
1
62
256
6
ByLayer
370
18
48
1
60
0
100
AcDbLine
10
19.45
20
-19.975
30
0
11
19.95
21
-19.475
31
0
39
0
210
0
220
0
230
1
0
LINE
5
A2
100
AcDbEntity
8
1
62
256
6
ByLayer
370
18
48
1
60
0
100
AcDbLine
10
13.979274
20
19.975
30
0
11
9.292471
21
19.975
31
0
39
0
210
0
220
0
230
1
0
LINE
5
A3
100
AcDbEntity
8
1
62
256
6
ByLayer
370
18
48
1
60
0
100
AcDbLine
10
4.700066
20
19.975
30
0
11
0.5
21
19.975
31
0
39
0
210
0
220
0
230
1
0
LINE
5
A4
100
AcDbEntity
8
1
62
256
6
ByLayer
370
18
48
1
60
0
100
AcDbLine
10
0.5
20
-19.975
30
0
11
1.986995
21
-19.975
31
0
39
0
210
0
220
0
230
1
0
LINE
5
A5
100
AcDbEntity
8
1
62
256
6
ByLayer
370
18
48
1
60
0
100
AcDbLine
10
12.0225
20
-19.975
30
0
11
13.979274
21
-19.975
31
0
39
0
210
0
220
0
230
1
0
LINE
5
A6
100
AcDbEntity
8
1
62
256
6
ByLayer
370
18
48
1
60
0
100
AcDbLine
10
0
20
-19.475
30
0
11
0.5
21
-19.975
31
0
39
0
210
0
220
0
230
1
0
LINE
5
A7
100
AcDbEntity
8
1
62
256
6
ByLayer
370
18
48
1
60
0
100
AcDbLine
10
0.5
20
19.975
30
0
11
0
21
19.475
31
0
39
0
210
0
220
0
230
1
0
LINE
5
A8
100
AcDbEntity
8
SK2
62
256
6
ByLayer
370
18
48
1
60
0
100
AcDbLine
10
68
20
10
30
0
11
64
21
10
31
0
39
0
210
0
220
0
230
1
0
LINE
5
AA
100
AcDbEntity
8
SK2
62
256
6
ByLayer
370
18
48
1
60
0
100
AcDbLine
10
64
20
-10
30
0
11
68
21
-10
31
0
39
0
210
0
220
0
230
1
0
LINE
5
AB
100
AcDbEntity
8
SK2
62
256
6
ByLayer
370
18
48
1
60
0
100
AcDbLine
10
69
20
9
30
0
11
68
21
10
31
0
39
0
210
0
220
0
230
1
0
LINE
5
AC
100
AcDbEntity
8
SK2
62
256
6
ByLayer
370
18
48
1
60
0
100
AcDbLine
10
68
20
-10
30
0
11
69
21
-9
31
0
39
0
210
0
220
0
230
1
0
LINE
5
AD
100
AcDbEntity
8
SK2
62
256
6
ByLayer
370
18
48
1
60
0
100
AcDbLine
10
63.999547
20
3.897
30
0
11
60.999398
21
3.897
31
0
39
0
210
0
220
0
230
1
0
LINE
5
AE
100
AcDbEntity
8
SK2
62
256
6
ByLayer
370
18
48
1
60
0
100
AcDbLine
10
60.999398
20
-3.897
30
0
11
63.999547
21
-3.897
31
0
39
0
210
0
220
0
230
1
0
LINE
5
AF
100
AcDbEntity
8
SK2
62
256
6
ByLayer
370
18
48
1
60
0
100
AcDbLine
10
69
20
-6.5
30
0
11
73.5
21
-6.5
31
0
39
0
210
0
220
0
230
1
0
LINE
5
B0
100
AcDbEntity
8
SK2
62
256
6
ByLayer
370
18
48
1
60
0
100
AcDbLine
10
73.5
20
6.5
30
0
11
69
21
6.5
31
0
39
0
210
0
220
0
230
1
0
LINE
5
B1
100
AcDbEntity
8
SK2
62
256
6
ByLayer
370
18
48
1
60
0
100
AcDbLine
10
55
20
15.4
30
0
11
54.4
21
16
31
0
39
0
210
0
220
0
230
1
0
LINE
5
B2
100
AcDbEntity
8
SK2
62
256
6
ByLayer
370
18
48
1
60
0
100
AcDbLine
10
54.4
20
-16
30
0
11
55
21
-15.4
31
0
39
0
210
0
220
0
230
1
0
LINE
5
B3
100
AcDbEntity
8
SK2
62
256
6
ByLayer
370
18
48
1
60
0
100
AcDbLine
10
40
20
-16
30
0
11
54.4
21
-16
31
0
39
0
210
0
220
0
230
1
0
LINE
5
B4
100
AcDbEntity
8
SK2
62
256
6
ByLayer
370
18
48
1
60
0
100
AcDbLine
10
54.4
20
16
30
0
11
40
21
16
31
0
39
0
210
0
220
0
230
1
0
LINE
5
B5
100
AcDbEntity
8
SK1
62
256
6
ByLayer
370
18
48
1
60
0
100
AcDbLine
10
-0.25
20
14.8537
30
0
11
-1.566987
21
14.8537
31
0
39
0
210
0
220
0
230
1
0
LINE
5
B7
100
AcDbEntity
8
SK1
62
256
6
ByLayer
370
18
48
1
60
0
100
AcDbLine
10
-1.566987
20
-14.8537
30
0
11
-0.25
21
-14.8537
31
0
39
0
210
0
220
0
230
1
0
LINE
5
B8
100
AcDbEntity
8
SK1
62
256
6
ByLayer
370
18
48
1
60
0
100
AcDbLine
10
-1.566987
20
14.8537
30
0
11
-2
21
15.1037
31
0
39
0
210
0
220
0
230
1
0
LINE
5
B9
100
AcDbEntity
8
SK1
62
256
6
ByLayer
370
18
48
1
60
0
100
AcDbLine
10
-2
20
-15.1037
30
0
11
-1.566987
21
-14.8537
31
0
39
0
210
0
220
0
230
1
0
LINE
5
BA
100
AcDbEntity
8
SK1
62
256
6
ByLayer
370
18
48
1
60
0
100
AcDbLine
10
-19.14003
20
-14.244981
30
0
11
-2
21
-15.1037
31
0
39
0
210
0
220
0
230
1
0
LINE
5
BB
100
AcDbEntity
8
SK1
62
256
6
ByLayer
370
18
48
1
60
0
100
AcDbLine
10
-2
20
15.1037
30
0
11
-19.14003
21
14.244981
31
0
39
0
210
0
220
0
230
1
0
LINE
5
BC
100
AcDbEntity
8
1
62
256
6
ByLayer
370
18
48
1
60
0
100
AcDbLine
10
61
20
5.582494
30
0
11
61
21
7.4199
31
0
39
0
210
0
220
0
230
1
0
LINE
5
BD
100
AcDbEntity
8
1
62
256
6
ByLayer
370
18
48
1
60
0
100
AcDbLine
10
61
20
-5.582494
30
0
11
61
21
-7.4199
31
0
39
0
210
0
220
0
230
1
0
LINE
5
BE
100
AcDbEntity
8
1
62
256
6
ByLayer
370
18
48
1
60
0
100
AcDbLine
10
61
20
-4.887808
30
0
11
61
21
4.887808
31
0
39
0
210
0
220
0
230
1
0
LINE
5
BF
100
AcDbEntity
8
1
62
256
6
ByLayer
370
18
48
1
60
0
100
AcDbLine
10
60
20
7.99725
30
0
11
60
21
0
31
0
39
0
210
0
220
0
230
1
0
LINE
5
C0
100
AcDbEntity
8
1
62
256
6
ByLayer
370
18
48
1
60
0
100
AcDbLine
10
60
20
0
30
0
11
60
21
-7.99725
31
0
39
0
210
0
220
0
230
1
0
LINE
5
C1
100
AcDbEntity
8
1
62
256
6
ByLayer
370
18
48
1
60
0
100
AcDbLine
10
39.5
20
-4.084
30
0
11
34.084
21
-4.084
31
0
39
0
210
0
220
0
230
1
0
LINE
5
C2
100
AcDbEntity
8
1
62
256
6
ByLayer
370
18
48
1
60
0
100
AcDbLine
10
39.652863
20
-4.236863
30
0
11
39.5
21
-4.084
31
0
39
0
210
0
220
0
230
1
0
LINE
5
C3
100
AcDbEntity
8
1
62
256
6
ByLayer
370
18
48
1
60
0
100
AcDbLine
10
34.084
20
4.084
30
0
11
39.5
21
4.084
31
0
39
0
210
0
220
0
230
1
0
LINE
5
C4
100
AcDbEntity
8
1
62
256
6
ByLayer
370
18
48
1
60
0
100
AcDbLine
10
39.5
20
4.084
30
0
11
39.652863
21
4.236863
31
0
39
0
210
0
220
0
230
1
0
LINE
5
C5
100
AcDbEntity
8
1
62
256
6
ByLayer
370
18
48
1
60
0
100
AcDbLine
10
34.084
20
-4.375026
30
0
11
39.5
21
-4.375026
31
0
39
0
210
0
220
0
230
1
0
LINE
5
C6
100
AcDbEntity
8
1
62
256
6
ByLayer
370
18
48
1
60
0
100
AcDbLine
10
39.5
20
4.375026
30
0
11
34.084
21
4.375026
31
0
39
0
210
0
220
0
230
1
0
LINE
5
C7
100
AcDbEntity
8
1
62
256
6
ByLayer
370
18
48
1
60
0
100
AcDbLine
10
39.5
20
4.375026
30
0
11
39.5
21
16
31
0
39
0
210
0
220
0
230
1
0
LINE
5
C8
100
AcDbEntity
8
1
62
256
6
ByLayer
370
18
48
1
60
0
100
AcDbLine
10
39.5
20
-4.375026
30
0
11
39.5
21
-16
31
0
39
0
210
0
220
0
230
1
0
LINE
5
C9
100
AcDbEntity
8
1
62
256
6
ByLayer
370
13
48
1
60
0
100
AcDbLine
10
20.95
20
16
30
0
11
20.95
21
-16
31
0
39
0
210
0
220
0
230
1
0
LINE
5
CA
100
AcDbEntity
8
1
62
256
6
ByLayer
370
13
48
1
60
0
100
AcDbLine
10
16.65
20
-17.375
30
0
11
16.65
21
-4.034926
31
0
39
0
210
0
220
0
230
1
0
LINE
5
CB
100
AcDbEntity
8
1
62
256
6
ByLayer
370
13
48
1
60
0
100
AcDbLine
10
15.35
20
16.570216
30
0
11
15.35
21
15.412759
31
0
39
0
210
0
220
0
230
1
0
LINE
5
CC
100
AcDbEntity
8
1
62
256
6
ByLayer
370
13
48
1
60
0
100
AcDbLine
10
15.35
20
16.963587
30
0
11
15.35
21
17.375
31
0
39
0
210
0
220
0
230
1
0
LINE
5
CD
100
AcDbEntity
8
1
62
256
6
ByLayer
370
13
48
1
60
0
100
AcDbLine
10
16.65
20
16.963587
30
0
11
16.65
21
17.375
31
0
39
0
210
0
220
0
230
1
0
LINE
5
CE
100
AcDbEntity
8
1
62
256
6
ByLayer
370
13
48
1
60
0
100
AcDbLine
10
16.65
20
16.570216
30
0
11
16.65
21
15.412759
31
0
39
0
210
0
220
0
230
1
0
LINE
5
CF
100
AcDbEntity
8
1
62
256
6
ByLayer
370
13
48
1
60
0
100
AcDbLine
10
15.35
20
-17.375
30
0
11
15.35
21
-4.034926
31
0
39
0
210
0
220
0
230
1
0
LINE
5
D0
100
AcDbEntity
8
1
62
256
6
ByLayer
370
18
48
1
60
0
100
AcDbLine
10
19.95
20
1.841195
30
0
11
19.95
21
5.5175
31
0
39
0
210
0
220
0
230
1
0
LINE
5
D1
100
AcDbEntity
8
1
62
256
6
ByLayer
370
18
48
1
60
0
100
AcDbLine
10
19.95
20
-5.5175
30
0
11
19.95
21
-1.841195
31
0
39
0
210
0
220
0
230
1
0
LINE
5
D2
100
AcDbEntity
8
1
62
256
6
ByLayer
370
18
48
1
60
0
100
AcDbLine
10
15.35
20
-4.034926
30
0
11
16.65
21
-4.034926
31
0
39
0
210
0
220
0
230
1
0
LINE
5
D3
100
AcDbEntity
8
1
62
256
6
ByLayer
370
18
48
1
60
0
100
AcDbLine
10
16.65
20
4.034926
30
0
11
15.35
21
4.034926
31
0
39
0
210
0
220
0
230
1
0
LINE
5
D4
100
AcDbEntity
8
1
62
256
6
ByLayer
370
13
48
1
60
0
100
AcDbLine
10
16.65
20
14.652825
30
0
11
16.65
21
4.034926
31
0
39
0
210
0
220
0
230
1
0
LINE
5
D5
100
AcDbEntity
8
1
62
256
6
ByLayer
370
13
48
1
60
0
100
AcDbLine
10
15.35
20
14.652825
30
0
11
15.35
21
4.034926
31
0
39
0
210
0
220
0
230
1
0
LINE
5
D6
100
AcDbEntity
8
1
62
256
6
ByLayer
370
18
48
1
60
0
100
AcDbLine
10
17.05
20
18.293653
30
0
11
17.05
21
5.5175
31
0
39
0
210
0
220
0
230
1
0
LINE
5
D7
100
AcDbEntity
8
1
62
256
6
ByLayer
370
18
48
1
60
0
100
AcDbLine
10
19.95
20
19.475
30
0
11
19.95
21
5.5175
31
0
39
0
210
0
220
0
230
1
0
LINE
5
D8
100
AcDbEntity
8
1
62
256
6
ByLayer
370
18
48
1
60
0
100
AcDbLine
10
19.45
20
5.5175
30
0
11
18.020726
21
5.5175
31
0
39
0
210
0
220
0
230
1
0
LINE
5
D9
100
AcDbEntity
8
1
62
256
6
ByLayer
370
18
48
1
60
0
100
AcDbLine
10
19.45
20
5.5175
30
0
11
19.45
21
19.975
31
0
39
0
210
0
220
0
230
1
0
LINE
5
DA
100
AcDbEntity
8
1
62
256
6
ByLayer
370
18
48
1
60
0
100
AcDbLine
10
18.020726
20
19.975
30
0
11
18.020726
21
5.5175
31
0
39
0
210
0
220
0
230
1
0
LINE
5
DB
100
AcDbEntity
8
1
62
256
6
ByLayer
370
18
48
1
60
0
100
AcDbLine
10
18.020726
20
-5.5175
30
0
11
19.45
21
-5.5175
31
0
39
0
210
0
220
0
230
1
0
LINE
5
DC
100
AcDbEntity
8
1
62
256
6
ByLayer
370
18
48
1
60
0
100
AcDbLine
10
14.95
20
18.293653
30
0
11
14.95
21
5.5175
31
0
39
0
210
0
220
0
230
1
0
LINE
5
DD
100
AcDbEntity
8
1
62
256
6
ByLayer
370
18
48
1
60
0
100
AcDbLine
10
14.95
20
-18.293653
30
0
11
14.95
21
-5.5175
31
0
39
0
210
0
220
0
230
1
0
LINE
5
DE
100
AcDbEntity
8
1
62
256
6
ByLayer
370
18
48
1
60
0
100
AcDbLine
10
17.05
20
-18.293653
30
0
11
17.05
21
-5.5175
31
0
39
0
210
0
220
0
230
1
0
LINE
5
DF
100
AcDbEntity
8
1
62
256
6
ByLayer
370
18
48
1
60
0
100
AcDbLine
10
18.020726
20
-19.975
30
0
11
18.020726
21
-5.5175
31
0
39
0
210
0
220
0
230
1
0
LINE
5
E0
100
AcDbEntity
8
1
62
256
6
ByLayer
370
18
48
1
60
0
100
AcDbLine
10
19.45
20
-5.5175
30
0
11
19.45
21
-19.975
31
0
39
0
210
0
220
0
230
1
0
LINE
5
E1
100
AcDbEntity
8
1
62
256
6
ByLayer
370
18
48
1
60
0
100
AcDbLine
10
19.95
20
-19.475
30
0
11
19.95
21
-5.5175
31
0
39
0
210
0
220
0
230
1
0
LINE
5
E2
100
AcDbEntity
8
1
62
256
6
ByLayer
370
18
48
1
60
0
100
AcDbLine
10
13.979274
20
-5.5175
30
0
11
13.979274
21
-19.975
31
0
39
0
210
0
220
0
230
1
0
LINE
5
E3
100
AcDbEntity
8
1
62
256
6
ByLayer
370
18
48
1
60
0
100
AcDbLine
10
12.45
20
-5.5175
30
0
11
13.979274
21
-5.5175
31
0
39
0
210
0
220
0
230
1
0
LINE
5
E4
100
AcDbEntity
8
1
62
256
6
ByLayer
370
18
48
1
60
0
100
AcDbLine
10
7.95
20
1.0175
30
0
11
7.95
21
-1.0175
31
0
39
0
210
0
220
0
230
1
0
LINE
5
E5
100
AcDbEntity
8
1
62
256
6
ByLayer
370
18
48
1
60
0
100
AcDbLine
10
13.979274
20
5.5175
30
0
11
12.45
21
5.5175
31
0
39
0
210
0
220
0
230
1
0
LINE
5
E6
100
AcDbEntity
8
1
62
256
6
ByLayer
370
18
48
1
60
0
100
AcDbLine
10
13.979274
20
5.5175
30
0
11
13.979274
21
19.975
31
0
39
0
210
0
220
0
230
1
0
LINE
5
E7
100
AcDbEntity
8
1
62
256
6
ByLayer
370
18
48
1
60
0
100
AcDbLine
10
0.5
20
-19.975
30
0
11
0.5
21
0
31
0
39
0
210
0
220
0
230
1
0
LINE
5
E8
100
AcDbEntity
8
1
62
256
6
ByLayer
370
18
48
1
60
0
100
AcDbLine
10
0.5
20
0
30
0
11
0.5
21
19.975
31
0
39
0
210
0
220
0
230
1
0
LINE
5
E9
100
AcDbEntity
8
1
62
256
6
ByLayer
370
18
48
1
60
0
100
AcDbLine
10
0
20
19.475
30
0
11
0
21
0
31
0
39
0
210
0
220
0
230
1
0
LINE
5
EA
100
AcDbEntity
8
1
62
256
6
ByLayer
370
18
48
1
60
0
100
AcDbLine
10
0
20
0
30
0
11
0
21
-19.475
31
0
39
0
210
0
220
0
230
1
0
LINE
5
EB
100
AcDbEntity
8
SK2
62
256
6
ByLayer
370
18
48
1
60
0
100
AcDbLine
10
64
20
10
30
0
11
64
21
-10
31
0
39
0
210
0
220
0
230
1
0
LINE
5
EC
100
AcDbEntity
8
SK2
62
256
6
ByLayer
370
18
48
1
60
0
100
AcDbLine
10
68
20
-10
30
0
11
68
21
10
31
0
39
0
210
0
220
0
230
1
0
LINE
5
ED
100
AcDbEntity
8
SK2
62
256
6
ByLayer
370
18
48
1
60
0
100
AcDbLine
10
69
20
9
30
0
11
69
21
-9
31
0
39
0
210
0
220
0
230
1
0
LINE
5
EE
100
AcDbEntity
8
SK2
62
256
6
ByLayer
370
18
48
1
60
0
100
AcDbLine
10
74
20
6
30
0
11
74
21
-6
31
0
39
0
210
0
220
0
230
1
0
LINE
5
EF
100
AcDbEntity
8
SK2
62
256
6
ByLayer
370
13
48
1
60
0
100
AcDbLine
10
73.5
20
-6.5
30
0
11
73.5
21
6.5
31
0
39
0
210
0
220
0
230
1
0
LINE
5
F0
100
AcDbEntity
8
SK2
62
256
6
ByLayer
370
18
48
1
60
0
100
AcDbLine
10
55
20
-9.775607
30
0
11
55
21
-15.019987
31
0
39
0
210
0
220
0
230
1
0
LINE
5
F1
100
AcDbEntity
8
SK2
62
256
6
ByLayer
370
18
48
1
60
0
100
AcDbLine
10
54.4
20
-15.491933
30
0
11
54.4
21
-8.89171
31
0
39
0
210
0
220
0
230
1
0
LINE
5
F2
100
AcDbEntity
8
SK2
62
256
6
ByLayer
370
18
48
1
60
0
100
AcDbLine
10
55
20
15.4
30
0
11
55
21
15.019987
31
0
39
0
210
0
220
0
230
1
0
LINE
5
F3
100
AcDbEntity
8
SK2
62
256
6
ByLayer
370
18
48
1
60
0
100
AcDbLine
10
55
20
-15.019987
30
0
11
55
21
-15.4
31
0
39
0
210
0
220
0
230
1
0
LINE
5
F4
100
AcDbEntity
8
SK2
62
256
6
ByLayer
370
18
48
1
60
0
100
AcDbLine
10
55
20
15.019987
30
0
11
55
21
9.775607
31
0
39
0
210
0
220
0
230
1
0
LINE
5
F5
100
AcDbEntity
8
SK2
62
256
6
ByLayer
370
18
48
1
60
0
100
AcDbLine
10
54.4
20
8.89171
30
0
11
54.4
21
15.491933
31
0
39
0
210
0
220
0
230
1
0
LINE
5
F6
100
AcDbEntity
8
SK2
62
256
6
ByLayer
370
18
48
1
60
0
100
AcDbLine
10
54.4
20
8.89171
30
0
11
50
21
8.89171
31
0
39
0
210
0
220
0
230
1
0
LINE
5
F7
100
AcDbEntity
8
SK2
62
256
6
ByLayer
370
18
48
1
60
0
100
AcDbLine
10
50
20
-8.89171
30
0
11
54.4
21
-8.89171
31
0
39
0
210
0
220
0
230
1
0
LINE
5
F8
100
AcDbEntity
8
SK2
62
256
6
ByLayer
370
18
48
1
60
0
100
AcDbLine
10
40
20
4
30
0
11
40
21
16
31
0
39
0
210
0
220
0
230
1
0
LINE
5
F9
100
AcDbEntity
8
SK2
62
256
6
ByLayer
370
18
48
1
60
0
100
AcDbLine
10
35.6
20
4
30
0
11
40
21
4
31
0
39
0
210
0
220
0
230
1
0
LINE
5
FA
100
AcDbEntity
8
SK2
62
256
6
ByLayer
370
18
48
1
60
0
100
AcDbLine
10
40
20
-4
30
0
11
35.6
21
-4
31
0
39
0
210
0
220
0
230
1
0
LINE
5
FB
100
AcDbEntity
8
SK2
62
256
6
ByLayer
370
18
48
1
60
0
100
AcDbLine
10
40
20
-16
30
0
11
40
21
-4
31
0
39
0
210
0
220
0
230
1
0
LINE
5
FC
100
AcDbEntity
8
SK2
62
256
6
ByLayer
370
18
48
1
60
0
100
AcDbLine
10
54.4
20
-15.491933
30
0
11
54.4
21
-16
31
0
39
0
210
0
220
0
230
1
0
LINE
5
FD
100
AcDbEntity
8
SK2
62
256
6
ByLayer
370
18
48
1
60
0
100
AcDbLine
10
50
20
-15.491933
30
0
11
54.4
21
-15.491933
31
0
39
0
210
0
220
0
230
1
0
LINE
5
FE
100
AcDbEntity
8
SK2
62
256
6
ByLayer
370
18
48
1
60
0
100
AcDbLine
10
50
20
15.491933
30
0
11
50
21
-15.491933
31
0
39
0
210
0
220
0
230
1
0
LINE
5
FF
100
AcDbEntity
8
SK2
62
256
6
ByLayer
370
18
48
1
60
0
100
AcDbLine
10
54.4
20
15.491933
30
0
11
50
21
15.491933
31
0
39
0
210
0
220
0
230
1
0
LINE
5
100
100
AcDbEntity
8
SK2
62
256
6
ByLayer
370
18
48
1
60
0
100
AcDbLine
10
54.4
20
15.491933
30
0
11
54.4
21
16
31
0
39
0
210
0
220
0
230
1
0
LINE
5
101
100
AcDbEntity
8
SK2
62
256
6
ByLayer
370
18
48
1
60
0
100
AcDbLine
10
35.6
20
4
30
0
11
35.6
21
-4
31
0
39
0
210
0
220
0
230
1
0
LINE
5
102
100
AcDbEntity
8
SK2
62
256
6
ByLayer
370
18
48
1
60
0
100
AcDbLine
10
35
20
-3.4
30
0
11
35
21
3.4
31
0
39
0
210
0
220
0
230
1
0
LINE
5
103
100
AcDbEntity
8
SK1
62
256
6
ByLayer
370
18
48
1
60
0
100
AcDbLine
10
-16.3
20
3.125
30
0
11
-16.3
21
-3.125
31
0
39
0
210
0
220
0
230
1
0
LINE
5
104
100
AcDbEntity
8
SK1
62
256
6
ByLayer
370
18
48
1
60
0
100
AcDbLine
10
-19.9
20
-13.445984
30
0
11
-19.9
21
-7.17466
31
0
39
0
210
0
220
0
230
1
0
LINE
5
105
100
AcDbEntity
8
SK1
62
256
6
ByLayer
370
18
48
1
60
0
100
AcDbLine
10
-19.9
20
7.17466
30
0
11
-19.9
21
13.445984
31
0
39
0
210
0
220
0
230
1
0
LINE
5
106
100
AcDbEntity
8
SK1
62
256
6
ByLayer
370
18
48
1
60
0
100
AcDbLine
10
-19.9
20
6.327211
30
0
11
-19.9
21
7.17466
31
0
39
0
210
0
220
0
230
1
0
LINE
5
107
100
AcDbEntity
8
SK1
62
256
6
ByLayer
370
18
48
1
60
0
100
AcDbLine
10
-19.9
20
-6.327211
30
0
11
-19.9
21
-7.17466
31
0
39
0
210
0
220
0
230
1
0
LINE
5
108
100
AcDbEntity
8
SK1
62
256
6
ByLayer
370
18
48
1
60
0
100
AcDbLine
10
-14.7
20
-4.025
30
0
11
-18.95
21
-4.025
31
0
39
0
210
0
220
0
230
1
0
LINE
5
109
100
AcDbEntity
8
SK1
62
256
6
ByLayer
370
18
48
1
60
0
100
AcDbLine
10
-18.95
20
-6.211881
30
0
11
-18.95
21
-4.025
31
0
39
0
210
0
220
0
230
1
0
LINE
5
10A
100
AcDbEntity
8
SK1
62
256
6
ByLayer
370
18
48
1
60
0
100
AcDbLine
10
-19.9
20
-4.975
30
0
11
-18.95
21
-4.025
31
0
39
0
210
0
220
0
230
1
0
LINE
5
10B
100
AcDbEntity
8
SK1
62
256
6
ByLayer
370
18
48
1
60
0
100
AcDbLine
10
-19.9
20
-4.975
30
0
11
-19.9
21
-6.327211
31
0
39
0
210
0
220
0
230
1
0
LINE
5
10C
100
AcDbEntity
8
SK1
62
256
6
ByLayer
370
13
48
1
60
0
100
AcDbLine
10
-19.9
20
-6.327211
30
0
11
-19.04247
21
-6.716522
31
0
39
0
210
0
220
0
230
1
0
LINE
5
10D
100
AcDbEntity
8
SK1
62
256
6
ByLayer
370
18
48
1
60
0
100
AcDbLine
10
-14.7
20
4.025
30
0
11
-18.95
21
4.025
31
0
39
0
210
0
220
0
230
1
0
LINE
5
10E
100
AcDbEntity
8
SK1
62
256
6
ByLayer
370
13
48
1
60
0
100
AcDbLine
10
-14.7
20
6.758502
30
0
11
-17.197123
21
6.758502
31
0
39
0
210
0
220
0
230
1
0
LINE
5
10F
100
AcDbEntity
8
SK1
62
256
6
ByLayer
370
13
48
1
60
0
100
AcDbLine
10
-19.9
20
6.327211
30
0
11
-19.04247
21
6.716522
31
0
39
0
210
0
220
0
230
1
0
LINE
5
110
100
AcDbEntity
8
SK1
62
256
6
ByLayer
370
18
48
1
60
0
100
AcDbLine
10
-19.9
20
4.975
30
0
11
-19.9
21
6.327211
31
0
39
0
210
0
220
0
230
1
0
LINE
5
111
100
AcDbEntity
8
SK1
62
256
6
ByLayer
370
18
48
1
60
0
100
AcDbLine
10
-19.9
20
4.975
30
0
11
-18.95
21
4.025
31
0
39
0
210
0
220
0
230
1
0
LINE
5
112
100
AcDbEntity
8
SK1
62
256
6
ByLayer
370
18
48
1
60
0
100
AcDbLine
10
-18.95
20
6.211881
30
0
11
-18.95
21
4.025
31
0
39
0
210
0
220
0
230
1
0
LINE
5
113
100
AcDbEntity
8
SK1
62
256
6
ByLayer
370
13
48
1
60
0
100
AcDbLine
10
-14.7
20
-8.219767
30
0
11
-14.7
21
-6.758502
31
0
39
0
210
0
220
0
230
1
0
LINE
5
114
100
AcDbEntity
8
SK1
62
256
6
ByLayer
370
13
48
1
60
0
100
AcDbLine
10
-14.7
20
-6.758502
30
0
11
-17.197123
21
-6.758502
31
0
39
0
210
0
220
0
230
1
0
LINE
5
115
100
AcDbEntity
8
SK1
62
256
6
ByLayer
370
13
48
1
60
0
100
AcDbLine
10
-14.7
20
6.758502
30
0
11
-14.7
21
8.219767
31
0
39
0
210
0
220
0
230
1
0
LINE
5
116
100
AcDbEntity
8
SK1
62
256
6
ByLayer
370
13
48
1
60
0
100
AcDbLine
10
-14.7
20
4.025
30
0
11
-14.7
21
6.758502
31
0
39
0
210
0
220
0
230
1
0
LINE
5
117
100
AcDbEntity
8
SK1
62
256
6
ByLayer
370
13
48
1
60
0
100
AcDbLine
10
-14.7
20
-6.758502
30
0
11
-14.7
21
-4.025
31
0
39
0
210
0
220
0
230
1
0
LINE
5
118
100
AcDbEntity
8
SK1
62
256
6
ByLayer
370
13
48
1
60
0
100
AcDbLine
10
-0.25
20
14.8537
30
0
11
-0.25
21
0
31
0
39
0
210
0
220
0
230
1
0
LINE
5
119
100
AcDbEntity
8
SK1
62
256
6
ByLayer
370
13
48
1
60
0
100
AcDbLine
10
-0.25
20
0
30
0
11
-0.25
21
-14.8537
31
0
39
0
210
0
220
0
230
1
0
LINE
5
11A
100
AcDbEntity
8
SK1
62
256
6
ByLayer
370
18
48
1
60
0
100
AcDbLine
10
-1.566987
20
14.8537
30
0
11
-1.566987
21
0
31
0
39
0
210
0
220
0
230
1
0
LINE
5
11B
100
AcDbEntity
8
SK1
62
256
6
ByLayer
370
18
48
1
60
0
100
AcDbLine
10
-1.566987
20
0
30
0
11
-1.566987
21
-14.8537
31
0
39
0
210
0
220
0
230
1
0
LINE
5
11C
100
AcDbEntity
8
SK1
62
256
6
ByLayer
370
18
48
1
60
0
100
AcDbLine
10
-2
20
-15.1037
30
0
11
-2
21
0
31
0
39
0
210
0
220
0
230
1
0
LINE
5
11D
100
AcDbEntity
8
SK1
62
256
6
ByLayer
370
18
48
1
60
0
100
AcDbLine
10
-2
20
0
30
0
11
-2
21
15.1037
31
0
39
0
210
0
220
0
230
1
0
LINE
5
11E
100
AcDbEntity
8
SK1
62
256
6
ByLayer
370
13
48
1
60
0
100
AcDbLine
10
-19.14003
20
14.244981
30
0
11
-19.14003
21
7.89025
31
0
39
0
210
0
220
0
230
1
0
LINE
5
11F
100
AcDbEntity
8
SK1
62
256
6
ByLayer
370
18
48
1
60
0
100
AcDbLine
10
-13.8
20
5.028914
30
0
11
-13.8
21
-5.028914
31
0
39
0
210
0
220
0
230
1
0
LINE
5
120
100
AcDbEntity
8
SK1
62
256
6
ByLayer
370
13
48
1
60
0
100
AcDbLine
10
-19.14003
20
-7.89025
30
0
11
-19.14003
21
-14.244981
31
0
39
0
210
0
220
0
230
1
0
LINE
5
121
100
AcDbEntity
8
1
62
256
6
ByLayer
370
13
48
0.05
60
0
100
AcDbLine
10
-14
20
0
30
0
11
2
21
0
31
0
39
0
210
0
220
0
230
1
0
LINE
5
122
100
AcDbEntity
8
1
62
256
6
ByLayer
370
13
48
0.05
60
0
100
AcDbLine
10
-6
20
-8
30
0
11
-6
21
8
31
0
39
0
210
0
220
0
230
1
0
LINE
5
123
100
AcDbEntity
8
SK2
62
256
6
ByLayer
370
18
48
1
60
0
100
AcDbLine
10
-36.875025
20
-19.975
30
0
11
-36.875025
21
19.975
31
0
39
0
210
0
220
0
230
1
0
LINE
5
124
100
AcDbEntity
8
SK2
62
256
6
ByLayer
370
18
48
1
60
0
100
AcDbLine
10
-1.0875
20
19.975
30
0
11
-38.875025
21
19.975
31
0
39
0
210
0
220
0
230
1
0
LINE
5
125
100
AcDbEntity
8
SK2
62
256
6
ByLayer
370
18
48
1
60
0
100
AcDbLine
10
-1.0875
20
-19.975
30
0
11
-38.875025
21
-19.975
31
0
39
0
210
0
220
0
230
1
0
LINE
5
126
100
AcDbEntity
8
1
62
256
6
ByLayer
370
18
48
1
60
1
100
AcDbLine
10
-36.875025
20
19.975
30
0
11
-36.414241
21
16.475002
31
0
39
0
210
0
220
0
230
1
0
LINE
5
127
100
AcDbEntity
8
1
62
256
6
ByLayer
370
18
48
1
60
1
100
AcDbLine
10
-36.414241
20
16.475002
30
0
11
-37.335809
21
16.474998
31
0
39
0
210
0
220
0
230
1
0
LINE
5
128
100
AcDbEntity
8
1
62
256
6
ByLayer
370
18
48
1
60
1
100
AcDbLine
10
-37.335809
20
16.474998
30
0
11
-36.875025
21
19.975
31
0
39
0
210
0
220
0
230
1
0
LINE
5
129
100
AcDbEntity
8
1
62
256
6
ByLayer
370
18
48
1
60
1
100
AcDbLine
10
-36.875025
20
-19.975
30
0
11
-37.335809
21
-16.475002
31
0
39
0
210
0
220
0
230
1
0
LINE
5
12A
100
AcDbEntity
8
1
62
256
6
ByLayer
370
18
48
1
60
1
100
AcDbLine
10
-37.335809
20
-16.475002
30
0
11
-36.414241
21
-16.474998
31
0
39
0
210
0
220
0
230
1
0
LINE
5
12B
100
AcDbEntity
8
1
62
256
6
ByLayer
370
18
48
1
60
1
100
AcDbLine
10
-36.414241
20
-16.474998
30
0
11
-36.875025
21
-19.975
31
0
39
0
210
0
220
0
230
1
0
LINE
5
12C
100
AcDbEntity
8
SK2
62
256
6
ByLayer
370
18
48
1
60
0
100
AcDbLine
10
104.725
20
-7.99725
30
0
11
104.725
21
7.99725
31
0
39
0
210
0
220
0
230
1
0
LINE
5
12D
100
AcDbEntity
8
SK2
62
256
6
ByLayer
370
18
48
1
60
0
100
AcDbLine
10
61.5875
20
7.99725
30
0
11
106.725
21
7.99725
31
0
39
0
210
0
220
0
230
1
0
LINE
5
12E
100
AcDbEntity
8
SK2
62
256
6
ByLayer
370
18
48
1
60
0
100
AcDbLine
10
61.5875
20
-7.99725
30
0
11
106.725
21
-7.99725
31
0
39
0
210
0
220
0
230
1
0
LINE
5
12F
100
AcDbEntity
8
1
62
256
6
ByLayer
370
18
48
1
60
1
100
AcDbLine
10
104.725
20
7.99725
30
0
11
105.185784
21
4.497252
31
0
39
0
210
0
220
0
230
1
0
LINE
5
130
100
AcDbEntity
8
1
62
256
6
ByLayer
370
18
48
1
60
1
100
AcDbLine
10
105.185784
20
4.497252
30
0
11
104.264216
21
4.497248
31
0
39
0
210
0
220
0
230
1
0
LINE
5
131
100
AcDbEntity
8
1
62
256
6
ByLayer
370
18
48
1
60
1
100
AcDbLine
10
104.264216
20
4.497248
30
0
11
104.725
21
7.99725
31
0
39
0
210
0
220
0
230
1
0
LINE
5
132
100
AcDbEntity
8
1
62
256
6
ByLayer
370
18
48
1
60
1
100
AcDbLine
10
104.725
20
-7.99725
30
0
11
104.264216
21
-4.497252
31
0
39
0
210
0
220
0
230
1
0
LINE
5
133
100
AcDbEntity
8
1
62
256
6
ByLayer
370
18
48
1
60
1
100
AcDbLine
10
104.264216
20
-4.497252
30
0
11
105.185784
21
-4.497248
31
0
39
0
210
0
220
0
230
1
0
LINE
5
134
100
AcDbEntity
8
1
62
256
6
ByLayer
370
18
48
1
60
1
100
AcDbLine
10
105.185784
20
-4.497248
30
0
11
104.725
21
-7.99725
31
0
39
0
210
0
220
0
230
1
0
LINE
5
135
100
AcDbEntity
8
SK2
62
256
6
ByLayer
370
18
48
1
60
0
100
AcDbLine
10
119.725
20
16
30
0
11
119.725
21
-16
31
0
39
0
210
0
220
0
230
1
0
LINE
5
136
100
AcDbEntity
8
SK2
62
256
6
ByLayer
370
18
48
1
60
0
100
AcDbLine
10
41.0875
20
-16
30
0
11
121.725
21
-16
31
0
39
0
210
0
220
0
230
1
0
LINE
5
137
100
AcDbEntity
8
SK2
62
256
6
ByLayer
370
18
48
1
60
0
100
AcDbLine
10
41.0875
20
16
30
0
11
121.725
21
16
31
0
39
0
210
0
220
0
230
1
0
LINE
5
138
100
AcDbEntity
8
1
62
256
6
ByLayer
370
18
48
1
60
1
100
AcDbLine
10
119.725
20
-16
30
0
11
119.264216
21
-12.500002
31
0
39
0
210
0
220
0
230
1
0
LINE
5
139
100
AcDbEntity
8
1
62
256
6
ByLayer
370
18
48
1
60
1
100
AcDbLine
10
119.264216
20
-12.500002
30
0
11
120.185784
21
-12.499998
31
0
39
0
210
0
220
0
230
1
0
LINE
5
13A
100
AcDbEntity
8
1
62
256
6
ByLayer
370
18
48
1
60
1
100
AcDbLine
10
120.185784
20
-12.499998
30
0
11
119.725
21
-16
31
0
39
0
210
0
220
0
230
1
0
LINE
5
13B
100
AcDbEntity
8
1
62
256
6
ByLayer
370
18
48
1
60
1
100
AcDbLine
10
119.725
20
16
30
0
11
120.185784
21
12.500002
31
0
39
0
210
0
220
0
230
1
0
LINE
5
13C
100
AcDbEntity
8
1
62
256
6
ByLayer
370
18
48
1
60
1
100
AcDbLine
10
120.185784
20
12.500002
30
0
11
119.264216
21
12.499998
31
0
39
0
210
0
220
0
230
1
0
LINE
5
13D
100
AcDbEntity
8
1
62
256
6
ByLayer
370
18
48
1
60
1
100
AcDbLine
10
119.264216
20
12.499998
30
0
11
119.725
21
16
31
0
39
0
210
0
220
0
230
1
0
LINE
5
13E
100
AcDbEntity
8
SK2
62
256
6
ByLayer
370
18
48
1
60
0
100
AcDbLine
10
-19.9
20
47.959514
30
0
11
0
21
47.959514
31
0
39
0
210
0
220
0
230
1
0
LINE
5
13F
100
AcDbEntity
8
SK2
62
256
6
ByLayer
370
18
48
1
60
0
100
AcDbLine
10
0
20
21.0625
30
0
11
0
21
49.959514
31
0
39
0
210
0
220
0
230
1
0
LINE
5
140
100
AcDbEntity
8
SK2
62
256
6
ByLayer
370
18
48
1
60
0
100
AcDbLine
10
-19.9
20
15.033484
30
0
11
-19.9
21
49.959514
31
0
39
0
210
0
220
0
230
1
0
LINE
5
141
100
AcDbEntity
8
1
62
256
6
ByLayer
370
18
48
1
60
1
100
AcDbLine
10
0
20
47.959514
30
0
11
-3.499998
21
47.498731
31
0
39
0
210
0
220
0
230
1
0
LINE
5
142
100
AcDbEntity
8
1
62
256
6
ByLayer
370
18
48
1
60
1
100
AcDbLine
10
-3.499998
20
47.498731
30
0
11
-3.500002
21
48.420298
31
0
39
0
210
0
220
0
230
1
0
LINE
5
143
100
AcDbEntity
8
1
62
256
6
ByLayer
370
18
48
1
60
1
100
AcDbLine
10
-3.500002
20
48.420298
30
0
11
0
21
47.959514
31
0
39
0
210
0
220
0
230
1
0
LINE
5
144
100
AcDbEntity
8
1
62
256
6
ByLayer
370
18
48
1
60
1
100
AcDbLine
10
-19.9
20
47.959514
30
0
11
-16.400002
21
48.420298
31
0
39
0
210
0
220
0
230
1
0
LINE
5
145
100
AcDbEntity
8
1
62
256
6
ByLayer
370
18
48
1
60
1
100
AcDbLine
10
-16.400002
20
48.420298
30
0
11
-16.399998
21
47.498731
31
0
39
0
210
0
220
0
230
1
0
LINE
5
146
100
AcDbEntity
8
1
62
256
6
ByLayer
370
18
48
1
60
1
100
AcDbLine
10
-16.399998
20
47.498731
30
0
11
-19.9
21
47.959514
31
0
39
0
210
0
220
0
230
1
0
LINE
5
147
100
AcDbEntity
8
SK2
62
256
6
ByLayer
370
18
48
1
60
0
100
AcDbLine
10
19.95
20
37.959514
30
0
11
50
21
37.959514
31
0
39
0
210
0
220
0
230
1
0
LINE
5
148
100
AcDbEntity
8
SK2
62
256
6
ByLayer
370
18
48
1
60
0
100
AcDbLine
10
50
20
17.079433
30
0
11
50
21
39.959514
31
0
39
0
210
0
220
0
230
1
0
LINE
5
149
100
AcDbEntity
8
SK2
62
256
6
ByLayer
370
18
48
1
60
0
100
AcDbLine
10
19.95
20
21.0625
30
0
11
19.95
21
39.959514
31
0
39
0
210
0
220
0
230
1
0
LINE
5
14A
100
AcDbEntity
8
1
62
256
6
ByLayer
370
18
48
1
60
1
100
AcDbLine
10
50
20
37.959514
30
0
11
46.500002
21
37.498731
31
0
39
0
210
0
220
0
230
1
0
LINE
5
14B
100
AcDbEntity
8
1
62
256
6
ByLayer
370
18
48
1
60
1
100
AcDbLine
10
46.500002
20
37.498731
30
0
11
46.499998
21
38.420298
31
0
39
0
210
0
220
0
230
1
0
LINE
5
14C
100
AcDbEntity
8
1
62
256
6
ByLayer
370
18
48
1
60
1
100
AcDbLine
10
46.499998
20
38.420298
30
0
11
50
21
37.959514
31
0
39
0
210
0
220
0
230
1
0
LINE
5
14D
100
AcDbEntity
8
1
62
256
6
ByLayer
370
18
48
1
60
1
100
AcDbLine
10
19.95
20
37.959514
30
0
11
23.449998
21
38.420298
31
0
39
0
210
0
220
0
230
1
0
LINE
5
14E
100
AcDbEntity
8
1
62
256
6
ByLayer
370
18
48
1
60
1
100
AcDbLine
10
23.449998
20
38.420298
30
0
11
23.450002
21
37.498731
31
0
39
0
210
0
220
0
230
1
0
LINE
5
14F
100
AcDbEntity
8
1
62
256
6
ByLayer
370
18
48
1
60
1
100
AcDbLine
10
23.450002
20
37.498731
30
0
11
19.95
21
37.959514
31
0
39
0
210
0
220
0
230
1
0
LINE
5
150
100
AcDbEntity
8
2
62
256
6
ByLayer
370
18
48
1
60
0
100
AcDbLine
10
0
20
47.959514
30
0
11
50
21
47.959514
31
0
39
0
210
0
220
0
230
1
0
LINE
5
151
100
AcDbEntity
8
2
62
256
6
ByLayer
370
18
48
1
60
0
100
AcDbLine
10
50
20
17.079433
30
0
11
50
21
49.959514
31
0
39
0
210
0
220
0
230
1
0
LINE
5
152
100
AcDbEntity
8
2
62
256
6
ByLayer
370
18
48
1
60
0
100
AcDbLine
10
0
20
21.0625
30
0
11
0
21
49.959514
31
0
39
0
210
0
220
0
230
1
0
LINE
5
153
100
AcDbEntity
8
1
62
256
6
ByLayer
370
18
48
1
60
1
100
AcDbLine
10
50
20
47.959514
30
0
11
46.500002
21
47.498731
31
0
39
0
210
0
220
0
230
1
0
LINE
5
154
100
AcDbEntity
8
1
62
256
6
ByLayer
370
18
48
1
60
1
100
AcDbLine
10
46.500002
20
47.498731
30
0
11
46.499998
21
48.420298
31
0
39
0
210
0
220
0
230
1
0
LINE
5
155
100
AcDbEntity
8
1
62
256
6
ByLayer
370
18
48
1
60
1
100
AcDbLine
10
46.499998
20
48.420298
30
0
11
50
21
47.959514
31
0
39
0
210
0
220
0
230
1
0
LINE
5
156
100
AcDbEntity
8
1
62
256
6
ByLayer
370
18
48
1
60
1
100
AcDbLine
10
0
20
47.959514
30
0
11
3.499998
21
48.420298
31
0
39
0
210
0
220
0
230
1
0
LINE
5
157
100
AcDbEntity
8
1
62
256
6
ByLayer
370
18
48
1
60
1
100
AcDbLine
10
3.499998
20
48.420298
30
0
11
3.500002
21
47.498731
31
0
39
0
210
0
220
0
230
1
0
LINE
5
158
100
AcDbEntity
8
1
62
256
6
ByLayer
370
18
48
1
60
1
100
AcDbLine
10
3.500002
20
47.498731
30
0
11
0
21
47.959514
31
0
39
0
210
0
220
0
230
1
0
LINE
5
159
100
AcDbEntity
8
SK2
62
256
6
ByLayer
370
18
48
1
60
0
100
AcDbLine
10
50
20
30.959514
30
0
11
61
21
30.959514
31
0
39
0
210
0
220
0
230
1
0
LINE
5
15A
100
AcDbEntity
8
SK2
62
256
6
ByLayer
370
18
48
1
60
0
100
AcDbLine
10
61
20
9.0074
30
0
11
61
21
32.959514
31
0
39
0
210
0
220
0
230
1
0
LINE
5
15B
100
AcDbEntity
8
SK2
62
256
6
ByLayer
370
18
48
1
60
0
100
AcDbLine
10
50
20
17.079433
30
0
11
50
21
32.959514
31
0
39
0
210
0
220
0
230
1
0
LINE
5
15C
100
AcDbEntity
8
1
62
256
6
ByLayer
370
18
48
1
60
1
100
AcDbLine
10
61
20
30.959514
30
0
11
57.500002
21
30.498731
31
0
39
0
210
0
220
0
230
1
0
LINE
5
15D
100
AcDbEntity
8
1
62
256
6
ByLayer
370
18
48
1
60
1
100
AcDbLine
10
57.500002
20
30.498731
30
0
11
57.499998
21
31.420298
31
0
39
0
210
0
220
0
230
1
0
LINE
5
15E
100
AcDbEntity
8
1
62
256
6
ByLayer
370
18
48
1
60
1
100
AcDbLine
10
57.499998
20
31.420298
30
0
11
61
21
30.959514
31
0
39
0
210
0
220
0
230
1
0
LINE
5
15F
100
AcDbEntity
8
1
62
256
6
ByLayer
370
18
48
1
60
1
100
AcDbLine
10
50
20
30.959514
30
0
11
53.499998
21
31.420298
31
0
39
0
210
0
220
0
230
1
0
LINE
5
160
100
AcDbEntity
8
1
62
256
6
ByLayer
370
18
48
1
60
1
100
AcDbLine
10
53.499998
20
31.420298
30
0
11
53.500002
21
30.498731
31
0
39
0
210
0
220
0
230
1
0
LINE
5
161
100
AcDbEntity
8
1
62
256
6
ByLayer
370
18
48
1
60
1
100
AcDbLine
10
53.500002
20
30.498731
30
0
11
50
21
30.959514
31
0
39
0
210
0
220
0
230
1
0
LINE
5
1AC
100
AcDbEntity
8
1
62
256
6
ByLayer
370
13
48
0.05
60
0
100
AcDbLine
10
16
20
22.137671
30
0
11
16
21
3.988456
31
0
39
0
210
0
220
0
230
1
0
LINE
5
1AD
100
AcDbEntity
8
1
62
256
6
ByLayer
370
13
48
0.05
60
0
100
AcDbLine
10
16
20
23.753527
30
0
11
16
21
5.378873
31
0
39
0
210
0
220
0
230
1
0
LINE
5
1AE
100
AcDbEntity
8
1
62
256
6
ByLayer
370
13
48
0.05
60
0
100
AcDbLine
10
-25.64003
20
0
30
0
11
67.5
21
0
31
0
39
0
210
0
220
0
230
1
0
LINE
5
1AF
100
AcDbEntity
8
1
62
256
6
ByLayer
370
13
48
0.05
60
0
100
AcDbLine
10
29.1
20
0
30
0
11
60.9
21
0
31
0
39
0
210
0
220
0
230
1
0
LINE
5
1B0
100
AcDbEntity
8
1
62
256
6
ByLayer
370
13
48
0.05
60
0
100
AcDbLine
10
80
20
0
30
0
11
23
21
0
31
0
39
0
210
0
220
0
230
1
0
LINE
5
1B1
100
AcDbEntity
8
1
62
256
6
ByLayer
370
13
48
0.05
60
0
100
AcDbLine
10
75.5
20
0
30
0
11
57.5
21
0
31
0
39
0
210
0
220
0
230
1
0
LINE
5
1B6
100
AcDbEntity
8
1
62
256
6
ByLayer
370
18
48
1
60
1
100
AcDbLine
10
-36.875025
20
19.975
30
0
11
-36.414241
21
16.475002
31
0
39
0
210
0
220
0
230
1
0
LINE
5
1B7
100
AcDbEntity
8
1
62
256
6
ByLayer
370
18
48
1
60
1
100
AcDbLine
10
-36.414241
20
16.475002
30
0
11
-37.335809
21
16.474998
31
0
39
0
210
0
220
0
230
1
0
LINE
5
1B8
100
AcDbEntity
8
1
62
256
6
ByLayer
370
18
48
1
60
1
100
AcDbLine
10
-37.335809
20
16.474998
30
0
11
-36.875025
21
19.975
31
0
39
0
210
0
220
0
230
1
0
LINE
5
1BA
100
AcDbEntity
8
1
62
256
6
ByLayer
370
18
48
1
60
1
100
AcDbLine
10
-36.875025
20
-19.975
30
0
11
-37.335809
21
-16.475002
31
0
39
0
210
0
220
0
230
1
0
LINE
5
1BB
100
AcDbEntity
8
1
62
256
6
ByLayer
370
18
48
1
60
1
100
AcDbLine
10
-37.335809
20
-16.475002
30
0
11
-36.414241
21
-16.474998
31
0
39
0
210
0
220
0
230
1
0
LINE
5
1BC
100
AcDbEntity
8
1
62
256
6
ByLayer
370
18
48
1
60
1
100
AcDbLine
10
-36.414241
20
-16.474998
30
0
11
-36.875025
21
-19.975
31
0
39
0
210
0
220
0
230
1
0
LINE
5
1C0
100
AcDbEntity
8
1
62
256
6
ByLayer
370
18
48
1
60
1
100
AcDbLine
10
104.725
20
7.99725
30
0
11
105.185784
21
4.497252
31
0
39
0
210
0
220
0
230
1
0
LINE
5
1C1
100
AcDbEntity
8
1
62
256
6
ByLayer
370
18
48
1
60
1
100
AcDbLine
10
105.185784
20
4.497252
30
0
11
104.264216
21
4.497248
31
0
39
0
210
0
220
0
230
1
0
LINE
5
1C2
100
AcDbEntity
8
1
62
256
6
ByLayer
370
18
48
1
60
1
100
AcDbLine
10
104.264216
20
4.497248
30
0
11
104.725
21
7.99725
31
0
39
0
210
0
220
0
230
1
0
LINE
5
1C4
100
AcDbEntity
8
1
62
256
6
ByLayer
370
18
48
1
60
1
100
AcDbLine
10
104.725
20
-7.99725
30
0
11
104.264216
21
-4.497252
31
0
39
0
210
0
220
0
230
1
0
LINE
5
1C5
100
AcDbEntity
8
1
62
256
6
ByLayer
370
18
48
1
60
1
100
AcDbLine
10
104.264216
20
-4.497252
30
0
11
105.185784
21
-4.497248
31
0
39
0
210
0
220
0
230
1
0
LINE
5
1C6
100
AcDbEntity
8
1
62
256
6
ByLayer
370
18
48
1
60
1
100
AcDbLine
10
105.185784
20
-4.497248
30
0
11
104.725
21
-7.99725
31
0
39
0
210
0
220
0
230
1
0
LINE
5
1CA
100
AcDbEntity
8
1
62
256
6
ByLayer
370
18
48
1
60
1
100
AcDbLine
10
119.725
20
-16
30
0
11
119.264216
21
-12.500002
31
0
39
0
210
0
220
0
230
1
0
LINE
5
1CB
100
AcDbEntity
8
1
62
256
6
ByLayer
370
18
48
1
60
1
100
AcDbLine
10
119.264216
20
-12.500002
30
0
11
120.185784
21
-12.499998
31
0
39
0
210
0
220
0
230
1
0
LINE
5
1CC
100
AcDbEntity
8
1
62
256
6
ByLayer
370
18
48
1
60
1
100
AcDbLine
10
120.185784
20
-12.499998
30
0
11
119.725
21
-16
31
0
39
0
210
0
220
0
230
1
0
LINE
5
1CE
100
AcDbEntity
8
1
62
256
6
ByLayer
370
18
48
1
60
1
100
AcDbLine
10
119.725
20
16
30
0
11
120.185784
21
12.500002
31
0
39
0
210
0
220
0
230
1
0
LINE
5
1CF
100
AcDbEntity
8
1
62
256
6
ByLayer
370
18
48
1
60
1
100
AcDbLine
10
120.185784
20
12.500002
30
0
11
119.264216
21
12.499998
31
0
39
0
210
0
220
0
230
1
0
LINE
5
1D0
100
AcDbEntity
8
1
62
256
6
ByLayer
370
18
48
1
60
1
100
AcDbLine
10
119.264216
20
12.499998
30
0
11
119.725
21
16
31
0
39
0
210
0
220
0
230
1
0
LINE
5
1D3
100
AcDbEntity
8
1
62
256
6
ByLayer
370
18
48
1
60
1
100
AcDbLine
10
0
20
47.959514
30
0
11
-3.499998
21
47.498731
31
0
39
0
210
0
220
0
230
1
0
LINE
5
1D4
100
AcDbEntity
8
1
62
256
6
ByLayer
370
18
48
1
60
1
100
AcDbLine
10
-3.499998
20
47.498731
30
0
11
-3.500002
21
48.420298
31
0
39
0
210
0
220
0
230
1
0
LINE
5
1D5
100
AcDbEntity
8
1
62
256
6
ByLayer
370
18
48
1
60
1
100
AcDbLine
10
-3.500002
20
48.420298
30
0
11
0
21
47.959514
31
0
39
0
210
0
220
0
230
1
0
LINE
5
1D7
100
AcDbEntity
8
1
62
256
6
ByLayer
370
18
48
1
60
1
100
AcDbLine
10
-19.9
20
47.959514
30
0
11
-16.400002
21
48.420298
31
0
39
0
210
0
220
0
230
1
0
LINE
5
1D8
100
AcDbEntity
8
1
62
256
6
ByLayer
370
18
48
1
60
1
100
AcDbLine
10
-16.400002
20
48.420298
30
0
11
-16.399998
21
47.498731
31
0
39
0
210
0
220
0
230
1
0
LINE
5
1D9
100
AcDbEntity
8
1
62
256
6
ByLayer
370
18
48
1
60
1
100
AcDbLine
10
-16.399998
20
47.498731
30
0
11
-19.9
21
47.959514
31
0
39
0
210
0
220
0
230
1
0
LINE
5
1DC
100
AcDbEntity
8
1
62
256
6
ByLayer
370
18
48
1
60
1
100
AcDbLine
10
50
20
37.959514
30
0
11
46.500002
21
37.498731
31
0
39
0
210
0
220
0
230
1
0
LINE
5
1DD
100
AcDbEntity
8
1
62
256
6
ByLayer
370
18
48
1
60
1
100
AcDbLine
10
46.500002
20
37.498731
30
0
11
46.499998
21
38.420298
31
0
39
0
210
0
220
0
230
1
0
LINE
5
1DE
100
AcDbEntity
8
1
62
256
6
ByLayer
370
18
48
1
60
1
100
AcDbLine
10
46.499998
20
38.420298
30
0
11
50
21
37.959514
31
0
39
0
210
0
220
0
230
1
0
LINE
5
1E0
100
AcDbEntity
8
1
62
256
6
ByLayer
370
18
48
1
60
1
100
AcDbLine
10
19.95
20
37.959514
30
0
11
23.449998
21
38.420298
31
0
39
0
210
0
220
0
230
1
0
LINE
5
1E1
100
AcDbEntity
8
1
62
256
6
ByLayer
370
18
48
1
60
1
100
AcDbLine
10
23.449998
20
38.420298
30
0
11
23.450002
21
37.498731
31
0
39
0
210
0
220
0
230
1
0
LINE
5
1E2
100
AcDbEntity
8
1
62
256
6
ByLayer
370
18
48
1
60
1
100
AcDbLine
10
23.450002
20
37.498731
30
0
11
19.95
21
37.959514
31
0
39
0
210
0
220
0
230
1
0
LINE
5
1E6
100
AcDbEntity
8
1
62
256
6
ByLayer
370
18
48
1
60
1
100
AcDbLine
10
50
20
47.959514
30
0
11
46.500002
21
47.498731
31
0
39
0
210
0
220
0
230
1
0
LINE
5
1E7
100
AcDbEntity
8
1
62
256
6
ByLayer
370
18
48
1
60
1
100
AcDbLine
10
46.500002
20
47.498731
30
0
11
46.499998
21
48.420298
31
0
39
0
210
0
220
0
230
1
0
LINE
5
1E8
100
AcDbEntity
8
1
62
256
6
ByLayer
370
18
48
1
60
1
100
AcDbLine
10
46.499998
20
48.420298
30
0
11
50
21
47.959514
31
0
39
0
210
0
220
0
230
1
0
LINE
5
1EA
100
AcDbEntity
8
1
62
256
6
ByLayer
370
18
48
1
60
1
100
AcDbLine
10
0
20
47.959514
30
0
11
3.499998
21
48.420298
31
0
39
0
210
0
220
0
230
1
0
LINE
5
1EB
100
AcDbEntity
8
1
62
256
6
ByLayer
370
18
48
1
60
1
100
AcDbLine
10
3.499998
20
48.420298
30
0
11
3.500002
21
47.498731
31
0
39
0
210
0
220
0
230
1
0
LINE
5
1EC
100
AcDbEntity
8
1
62
256
6
ByLayer
370
18
48
1
60
1
100
AcDbLine
10
3.500002
20
47.498731
30
0
11
0
21
47.959514
31
0
39
0
210
0
220
0
230
1
0
LINE
5
1EF
100
AcDbEntity
8
1
62
256
6
ByLayer
370
18
48
1
60
1
100
AcDbLine
10
61
20
30.959514
30
0
11
57.500002
21
30.498731
31
0
39
0
210
0
220
0
230
1
0
LINE
5
1F0
100
AcDbEntity
8
1
62
256
6
ByLayer
370
18
48
1
60
1
100
AcDbLine
10
57.500002
20
30.498731
30
0
11
57.499998
21
31.420298
31
0
39
0
210
0
220
0
230
1
0
LINE
5
1F1
100
AcDbEntity
8
1
62
256
6
ByLayer
370
18
48
1
60
1
100
AcDbLine
10
57.499998
20
31.420298
30
0
11
61
21
30.959514
31
0
39
0
210
0
220
0
230
1
0
LINE
5
1F3
100
AcDbEntity
8
1
62
256
6
ByLayer
370
18
48
1
60
1
100
AcDbLine
10
50
20
30.959514
30
0
11
53.499998
21
31.420298
31
0
39
0
210
0
220
0
230
1
0
LINE
5
1F4
100
AcDbEntity
8
1
62
256
6
ByLayer
370
18
48
1
60
1
100
AcDbLine
10
53.499998
20
31.420298
30
0
11
53.500002
21
30.498731
31
0
39
0
210
0
220
0
230
1
0
LINE
5
1F5
100
AcDbEntity
8
1
62
256
6
ByLayer
370
18
48
1
60
1
100
AcDbLine
10
53.500002
20
30.498731
30
0
11
50
21
30.959514
31
0
39
0
210
0
220
0
230
1
0
MTEXT
5
1B2
100
AcDbEntity
8
SK2
62
256
6
ByLayer
370
18
48
1
60
0
100
AcDbMText
10
-38.439659
20
-4.714889
30
0
210
0
220
0
230
1
1
%%c
40
3.5
41
0
44
1.084337
50
90
71
7
72
5
7
iso_b_vert
0
MTEXT
5
1B5
100
AcDbEntity
8
SK2
62
256
6
ByLayer
370
18
48
1
60
0
100
AcDbMText
10
-38.439659
20
2.257767
30
0
210
0
220
0
230
1
1
\W0.7361;40
40
3.5
41
0
44
1.084337
50
90
71
7
72
5
7
iso_b_vert
0
MTEXT
5
1BE
100
AcDbEntity
8
SK2
62
256
6
ByLayer
370
18
48
1
60
0
100
AcDbMText
10
103.160366
20
-4.093189
30
0
210
0
220
0
230
1
1
%%c
40
3.5
41
0
44
1.084337
50
90
71
7
72
5
7
iso_b_vert
0
MTEXT
5
1BF
100
AcDbEntity
8
SK2
62
256
6
ByLayer
370
18
48
1
60
0
100
AcDbMText
10
103.160366
20
2.879467
30
0
210
0
220
0
230
1
1
\W0.5321;16
40
3.5
41
0
44
1.084337
50
90
71
7
72
5
7
iso_b_vert
0
MTEXT
5
1C8
100
AcDbEntity
8
SK2
62
256
6
ByLayer
370
18
48
1
60
0
100
AcDbMText
10
118.160366
20
-4.530622
30
0
210
0
220
0
230
1
1
%%c
40
3.5
41
0
44
1.084337
50
90
71
7
72
5
7
iso_b_vert
0
MTEXT
5
1C9
100
AcDbEntity
8
SK2
62
256
6
ByLayer
370
18
48
1
60
0
100
AcDbMText
10
118.160366
20
2.442034
30
0
210
0
220
0
230
1
1
\W0.6740;32
40
3.5
41
0
44
1.084337
50
90
71
7
72
5
7
iso_b_vert
0
MTEXT
5
1D2
100
AcDbEntity
8
SK2
62
256
6
ByLayer
370
18
48
1
60
0
100
AcDbMText
10
-13.434266
20
48.992148
30
0
210
0
220
0
230
1
1
\W0.6662;19.9
40
3.5
41
0
44
1.084337
50
0
71
7
72
5
7
iso_b_vert
0
MTEXT
5
1DB
100
AcDbEntity
8
SK2
62
256
6
ByLayer
370
18
48
1
60
0
100
AcDbMText
10
33.070034
20
38.992148
30
0
210
0
220
0
230
1
1
\W0.6740;30
40
3.5
41
0
44
1.084337
50
0
71
7
72
5
7
iso_b_vert
0
MTEXT
5
1E4
100
AcDbEntity
8
2
62
256
6
ByLayer
370
18
48
1
60
0
100
AcDbMText
10
24.388934
20
48.992148
30
0
210
0
220
0
230
1
1
\W0.8277;\W0.4138;%%p\W0.8277;0.1
40
3.5
41
0
44
1.084337
50
0
71
7
72
5
7
iso_b_vert
0
MTEXT
5
1E5
100
AcDbEntity
8
2
62
256
6
ByLayer
370
18
48
1
60
0
100
AcDbMText
10
16.708001
20
48.992148
30
0
210
0
220
0
230
1
1
\W0.6740;50
40
3.5
41
0
44
1.084337
50
0
71
7
72
5
7
iso_b_vert
0
MTEXT
5
1EE
100
AcDbEntity
8
SK2
62
256
6
ByLayer
370
18
48
1
60
0
100
AcDbMText
10
54.4699
20
31.992148
30
0
210
0
220
0
230
1
1
\W0.4657;11
40
3.5
41
0
44
1.084337
50
0
71
7
72
5
7
iso_b_vert
0
MTEXT
5
1F7
100
AcDbEntity
8
SK6
62
256
6
ByLayer
370
18
48
1
60
0
100
AcDbMText
10
56.554562
20
-92.087301
30
0
210
0
220
0
230
1
1
\W0.7709;HA04-AR16-B032-050
40
3
41
0
44
1.084337
50
0
71
7
72
5
7
iso_b_vert
0
HATCH
5
1B9
100
AcDbEntity
8
SK2
62
256
6
ByLayer
370
13
48
1
60
0
100
AcDbHatch
10
0
20
0
30
0
210
0
220
0
230
1
2
ANSI31
70
0
71
0
91
1
92
5
93
3
72
1
10
-36.875025
20
19.975
11
-36.4142412584472
21
16.4750016925532
72
1
10
-36.4142412584472
20
16.4750016925532
11
-37.3358087415528
21
16.4749983074468
72
1
10
-37.3358087415528
20
16.4749983074468
11
-36.875025
21
19.975
97
0
75
0
76
1
52
0
41
0.0062
77
0
78
1
53
45
43
0
44
0
45
-0.0139193969876572
46
0.0139193969876572
79
0
47
0
98
1
10
0
20
0
0
HATCH
5
1BD
100
AcDbEntity
8
SK2
62
256
6
ByLayer
370
13
48
1
60
0
100
AcDbHatch
10
0
20
0
30
0
210
0
220
0
230
1
2
ANSI31
70
0
71
0
91
1
92
5
93
3
72
1
10
-36.875025
20
-19.975
11
-37.3358087415528
21
-16.4750016925532
72
1
10
-37.3358087415528
20
-16.4750016925532
11
-36.4142412584472
21
-16.4749983074468
72
1
10
-36.4142412584472
20
-16.4749983074468
11
-36.875025
21
-19.975
97
0
75
0
76
1
52
0
41
0.0062
77
0
78
1
53
45
43
0
44
0
45
-0.0139193969876572
46
0.0139193969876572
79
0
47
0
98
1
10
0
20
0
0
HATCH
5
1C3
100
AcDbEntity
8
SK2
62
256
6
ByLayer
370
13
48
1
60
0
100
AcDbHatch
10
0
20
0
30
0
210
0
220
0
230
1
2
ANSI31
70
0
71
0
91
1
92
5
93
3
72
1
10
104.725
20
7.99725000000001
11
105.185783741553
21
4.49725169255319
72
1
10
105.185783741553
20
4.49725169255319
11
104.264216258447
21
4.49724830744682
72
1
10
104.264216258447
20
4.49724830744682
11
104.725
21
7.99725000000001
97
0
75
0
76
1
52
0
41
0.0062
77
0
78
1
53
45
43
0
44
0
45
-0.0139193969876572
46
0.0139193969876572
79
0
47
0
98
1
10
0
20
0
0
HATCH
5
1C7
100
AcDbEntity
8
SK2
62
256
6
ByLayer
370
13
48
1
60
0
100
AcDbHatch
10
0
20
0
30
0
210
0
220
0
230
1
2
ANSI31
70
0
71
0
91
1
92
5
93
3
72
1
10
104.725
20
-7.99725000000001
11
104.264216258447
21
-4.49725169255319
72
1
10
104.264216258447
20
-4.49725169255319
11
105.185783741553
21
-4.49724830744682
72
1
10
105.185783741553
20
-4.49724830744682
11
104.725
21
-7.99725000000001
97
0
75
0
76
1
52
0
41
0.0062
77
0
78
1
53
45
43
0
44
0
45
-0.0139193969876572
46
0.0139193969876572
79
0
47
0
98
1
10
0
20
0
0
HATCH
5
1CD
100
AcDbEntity
8
SK2
62
256
6
ByLayer
370
13
48
1
60
0
100
AcDbHatch
10
0
20
0
30
0
210
0
220
0
230
1
2
ANSI31
70
0
71
0
91
1
92
5
93
3
72
1
10
119.725
20
-16
11
119.264216258447
21
-12.5000016925532
72
1
10
119.264216258447
20
-12.5000016925532
11
120.185783741553
21
-12.4999983074468
72
1
10
120.185783741553
20
-12.4999983074468
11
119.725
21
-16
97
0
75
0
76
1
52
0
41
0.0062
77
0
78
1
53
45
43
0
44
0
45
-0.0139193969876572
46
0.0139193969876572
79
0
47
0
98
1
10
0
20
0
0
HATCH
5
1D1
100
AcDbEntity
8
SK2
62
256
6
ByLayer
370
13
48
1
60
0
100
AcDbHatch
10
0
20
0
30
0
210
0
220
0
230
1
2
ANSI31
70
0
71
0
91
1
92
5
93
3
72
1
10
119.725
20
16
11
120.185783741553
21
12.5000016925532
72
1
10
120.185783741553
20
12.5000016925532
11
119.264216258447
21
12.4999983074468
72
1
10
119.264216258447
20
12.4999983074468
11
119.725
21
16
97
0
75
0
76
1
52
0
41
0.0062
77
0
78
1
53
45
43
0
44
0
45
-0.0139193969876572
46
0.0139193969876572
79
0
47
0
98
1
10
0
20
0
0
HATCH
5
1D6
100
AcDbEntity
8
SK2
62
256
6
ByLayer
370
13
48
1
60
0
100
AcDbHatch
10
0
20
0
30
0
210
0
220
0
230
1
2
ANSI31
70
0
71
0
91
1
92
5
93
3
72
1
10
0
20
47.9595143685982
11
-3.4999983074468
21
47.4987306270455
72
1
10
-3.4999983074468
20
47.4987306270455
11
-3.5000016925532
21
48.420298110151
72
1
10
-3.5000016925532
20
48.420298110151
11
0
21
47.9595143685982
97
0
75
0
76
1
52
0
41
0.0062
77
0
78
1
53
45
43
0
44
0
45
-0.0139193969876572
46
0.0139193969876572
79
0
47
0
98
1
10
0
20
0
0
HATCH
5
1DA
100
AcDbEntity
8
SK2
62
256
6
ByLayer
370
13
48
1
60
0
100
AcDbHatch
10
0
20
0
30
0
210
0
220
0
230
1
2
ANSI31
70
0
71
0
91
1
92
5
93
3
72
1
10
-19.9
20
47.9595143685982
11
-16.4000016925532
21
48.420298110151
72
1
10
-16.4000016925532
20
48.420298110151
11
-16.3999983074468
21
47.4987306270455
72
1
10
-16.3999983074468
20
47.4987306270455
11
-19.9
21
47.9595143685982
97
0
75
0
76
1
52
0
41
0.0062
77
0
78
1
53
45
43
0
44
0
45
-0.0139193969876572
46
0.0139193969876572
79
0
47
0
98
1
10
0
20
0
0
HATCH
5
1DF
100
AcDbEntity
8
SK2
62
256
6
ByLayer
370
13
48
1
60
0
100
AcDbHatch
10
0
20
0
30
0
210
0
220
0
230
1
2
ANSI31
70
0
71
0
91
1
92
5
93
3
72
1
10
50
20
37.9595143685982
11
46.5000016925532
21
37.4987306270455
72
1
10
46.5000016925532
20
37.4987306270455
11
46.4999983074468
21
38.420298110151
72
1
10
46.4999983074468
20
38.420298110151
11
50
21
37.9595143685982
97
0
75
0
76
1
52
0
41
0.0062
77
0
78
1
53
45
43
0
44
0
45
-0.0139193969876572
46
0.0139193969876572
79
0
47
0
98
1
10
0
20
0
0
HATCH
5
1E3
100
AcDbEntity
8
SK2
62
256
6
ByLayer
370
13
48
1
60
0
100
AcDbHatch
10
0
20
0
30
0
210
0
220
0
230
1
2
ANSI31
70
0
71
0
91
1
92
5
93
3
72
1
10
19.95
20
37.9595143685982
11
23.4499983074468
21
38.420298110151
72
1
10
23.4499983074468
20
38.420298110151
11
23.4500016925532
21
37.4987306270455
72
1
10
23.4500016925532
20
37.4987306270455
11
19.95
21
37.9595143685982
97
0
75
0
76
1
52
0
41
0.0062
77
0
78
1
53
45
43
0
44
0
45
-0.0139193969876572
46
0.0139193969876572
79
0
47
0
98
1
10
0
20
0
0
HATCH
5
1E9
100
AcDbEntity
8
2
62
256
6
ByLayer
370
13
48
1
60
0
100
AcDbHatch
10
0
20
0
30
0
210
0
220
0
230
1
2
ANSI31
70
0
71
0
91
1
92
5
93
3
72
1
10
50
20
47.9595143685982
11
46.5000016925532
21
47.4987306270455
72
1
10
46.5000016925532
20
47.4987306270455
11
46.4999983074468
21
48.420298110151
72
1
10
46.4999983074468
20
48.420298110151
11
50
21
47.9595143685982
97
0
75
0
76
1
52
0
41
0.0062
77
0
78
1
53
45
43
0
44
0
45
-0.0139193969876572
46
0.0139193969876572
79
0
47
0
98
1
10
0
20
0
0
HATCH
5
1ED
100
AcDbEntity
8
2
62
256
6
ByLayer
370
13
48
1
60
0
100
AcDbHatch
10
0
20
0
30
0
210
0
220
0
230
1
2
ANSI31
70
0
71
0
91
1
92
5
93
3
72
1
10
0
20
47.9595143685982
11
3.4999983074468
21
48.420298110151
72
1
10
3.4999983074468
20
48.420298110151
11
3.5000016925532
21
47.4987306270455
72
1
10
3.5000016925532
20
47.4987306270455
11
0
21
47.9595143685982
97
0
75
0
76
1
52
0
41
0.0062
77
0
78
1
53
45
43
0
44
0
45
-0.0139193969876572
46
0.0139193969876572
79
0
47
0
98
1
10
0
20
0
0
HATCH
5
1F2
100
AcDbEntity
8
SK2
62
256
6
ByLayer
370
13
48
1
60
0
100
AcDbHatch
10
0
20
0
30
0
210
0
220
0
230
1
2
ANSI31
70
0
71
0
91
1
92
5
93
3
72
1
10
61
20
30.9595143685982
11
57.5000016925532
21
30.4987306270455
72
1
10
57.5000016925532
20
30.4987306270455
11
57.4999983074468
21
31.420298110151
72
1
10
57.4999983074468
20
31.420298110151
11
61
21
30.9595143685982
97
0
75
0
76
1
52
0
41
0.0062
77
0
78
1
53
45
43
0
44
0
45
-0.0139193969876572
46
0.0139193969876572
79
0
47
0
98
1
10
0
20
0
0
HATCH
5
1F6
100
AcDbEntity
8
SK2
62
256
6
ByLayer
370
13
48
1
60
0
100
AcDbHatch
10
0
20
0
30
0
210
0
220
0
230
1
2
ANSI31
70
0
71
0
91
1
92
5
93
3
72
1
10
50
20
30.9595143685982
11
53.4999983074468
21
31.420298110151
72
1
10
53.4999983074468
20
31.420298110151
11
53.5000016925532
21
30.4987306270455
72
1
10
53.5000016925532
20
30.4987306270455
11
50
21
30.9595143685982
97
0
75
0
76
1
52
0
41
0.0062
77
0
78
1
53
45
43
0
44
0
45
-0.0139193969876572
46
0.0139193969876572
79
0
47
0
98
1
10
0
20
0
0
ENDSEC
0
SECTION
2
OBJECTS
0
DICTIONARY
5
266
330
0
100
AcDbDictionary
280
0
281
1
3
ACAD_GROUP
350
267
3
ACAD_MLINESTYLE
350
268
0
DICTIONARY
5
267
330
0
100
AcDbDictionary
280
0
281
1
0
DICTIONARY
5
268
330
0
100
AcDbDictionary
280
0
281
1
3
Standard
350
18
0
MLINESTYLE
5
18
330
268
100
AcDbMlineStyle
2
Standard
70
0
3

62
256
51
90
52
90
71
2
49
-0.5
62
256
6
ByLayer
49
0.5
62
256
6
ByLayer
0
RASTERVARIABLES
5
254
330

100
AcDbRasterVariables
90
0
70
1
71
1
72
1
0
ENDSEC
0
EOF
