0
SECTION
2
HEADER
9
$ACADVER
1
AC1015
9
$DWGCODEPAGE
3
ANSI_1252
9
$HANDSEED
5
21d
9
$ANGBASE
50
0
9
$ANGDIR
70
0
9
$ATTMODE
70
1
9
$AUNITS
70
0
9
$AUPREC
70
0
9
$CECOLOR
62
256
9
$CELTSCALE
40
1
9
$CELTYPE
6
ByLayer
9
$CELWEIGHT
370
18
9
$CLAYER
8
0
9
$CMLJUST
70
0
9
$CMLSCALE
40
1
9
$CMLSTYLE
2
Standard
9
$DIMSTYLE
2
Standard
9
$TEXTSIZE
40
0.2
9
$TEXTSTYLE
7
Standard
9
$LUNITS
70
2
9
$LUPREC
70
4
9
$EXTNAMES
290
1
9
$INSUNITS
70
4
9
$LTSCALE
40
1
9
$LWDISPLAY
290
1
9
$PDMODE
70
0
9
$PDSIZE
40
0
9
$PLINEGEN
70
0
0
ENDSEC
0
SECTION
2
CLASSES
0
CLASS
1
RASTERVARIABLES
2
AcDbRasterVariables
3
ISM
90
0
280
0
281
0
0
ENDSEC
0
SECTION
2
TABLES
0
TABLE
2
VPORT
5
213
100
AcDbSymbolTable
0
VPORT
5
1
100
AcDbSymbolTableRecord
100
AcDbViewportTableRecord
2
*Active
70
0
10
0
20
0
11
1
21
1
12
-1
22
1
13
0
23
0
14
0.5
24
0.5
15
10
25
10
16
0
26
0
36
1
17
0
27
0
37
0
0
ENDTAB
0
TABLE
2
LTYPE
5
214
100
AcDbSymbolTable
0
LTYPE
5
14
100
AcDbSymbolTableRecord
100
AcDbLinetypeTableRecord
70
0
2
ByBlock
3

72
65
73
0
40
0
0
LTYPE
5
15
100
AcDbSymbolTableRecord
100
AcDbLinetypeTableRecord
70
0
2
ByLayer
3

72
65
73
0
40
0
0
LTYPE
5
16
100
AcDbSymbolTableRecord
100
AcDbLinetypeTableRecord
70
0
2
Continuous
3
Solid line
72
65
73
0
40
0
0
LTYPE
5
6E
100
AcDbSymbolTableRecord
100
AcDbLinetypeTableRecord
70
0
2
CENTER
3
____ _ ____ _ ____ _ ____
72
65
73
4
40
47.5
49
22
74
0
49
-8.5
74
0
49
8.5
74
0
49
-8.5
74
0
0
LTYPE
5
6F
100
AcDbSymbolTableRecord
100
AcDbLinetypeTableRecord
70
0
2
DASHED
3
__ __ __ __ __ __ __ __ __
72
65
73
2
40
25.72
49
12.86
74
0
49
-12.86
74
0
0
ENDTAB
0
TABLE
2
LAYER
5
215
100
AcDbSymbolTable
0
LAYER
5
10
100
AcDbSymbolTableRecord
100
AcDbLayerTableRecord
2
0
70
0
62
7
6
Continuous
290
1
370
-3
390
0
0
LAYER
5
71
100
AcDbSymbolTableRecord
100
AcDbLayerTableRecord
2
80
70
0
62
-6
6
Continuous
290
1
370
-3
390
0
0
LAYER
5
73
100
AcDbSymbolTableRecord
100
AcDbLayerTableRecord
2
81
70
0
62
-3
6
Continuous
290
1
370
-3
390
0
0
LAYER
5
75
100
AcDbSymbolTableRecord
100
AcDbLayerTableRecord
2
2
70
0
62
7
6
Continuous
290
1
370
-3
390
0
0
LAYER
5
7E
100
AcDbSymbolTableRecord
100
AcDbLayerTableRecord
2
1
70
0
62
4
6
Continuous
290
1
370
-3
390
0
0
LAYER
5
132
100
AcDbSymbolTableRecord
100
AcDbLayerTableRecord
2
4
70
0
62
-2
6
CENTER
290
1
370
-3
390
0
0
LAYER
5
1fe
100
AcDbSymbolTableRecord
100
AcDbLayerTableRecord
2
SK2
70
0
62
7
6
Continuous
290
1
370
-3
390
0
0
LAYER
5
1ff
100
AcDbSymbolTableRecord
100
AcDbLayerTableRecord
2
SK3
70
0
62
1
6
DASHED
290
1
370
-3
390
0
0
LAYER
5
200
100
AcDbSymbolTableRecord
100
AcDbLayerTableRecord
2
SK1
70
0
62
4
6
Continuous
290
1
370
-3
390
0
0
LAYER
5
201
100
AcDbSymbolTableRecord
100
AcDbLayerTableRecord
2
SK6
70
0
62
5
6
Continuous
290
1
370
-3
390
0
0
LAYER
5
202
100
AcDbSymbolTableRecord
100
AcDbLayerTableRecord
2
SK4
70
0
62
2
6
CENTER
290
1
370
-3
390
0
0
ENDTAB
0
TABLE
2
STYLE
5
216
100
AcDbSymbolTable
0
STYLE
5
11
100
AcDbSymbolTableRecord
100
AcDbTextStyleTableRecord
2
Standard
3
txt
70
0
71
0
40
0
41
1
42
0
50
0
0
STYLE
5
144
100
AcDbSymbolTableRecord
100
AcDbTextStyleTableRecord
2
Arial
3
Arial
70
0
71
0
40
0
41
1
42
0
50
0
0
ENDTAB
0
TABLE
2
DIMSTYLE
5
217
100
AcDbSymbolTable
100
AcDbDimStyleTable
0
DIMSTYLE
105
27
100
AcDbSymbolTableRecord
100
AcDbDimStyleTableRecord
2
Standard
70
0
3
<>
41
0.18
42
0.0625
44
0.18
140
0.18
147
0.09
73
0
74
0
77
1
271
2
275
0
278
52
280
0
340
11
0
ENDTAB
0
TABLE
2
VIEW
5
218
100
AcDbSymbolTable
0
ENDTAB
0
TABLE
2
UCS
5
219
100
AcDbSymbolTable
0
ENDTAB
0
TABLE
2
APPID
5
21a
100
AcDbSymbolTable
0
APPID
5
12
100
AcDbSymbolTableRecord
100
AcDbRegAppTableRecord
2
ACAD
70
0
0
APPID
5
1FA
100
AcDbSymbolTableRecord
100
AcDbRegAppTableRecord
2
ACAD_MLEADERVER
70
0
0
ENDTAB
0
TABLE
2
BLOCK_RECORD
5
21b
100
AcDbSymbolTable
0
BLOCK_RECORD
5
1F
100
AcDbSymbolTableRecord
100
AcDbBlockTableRecord
2
*Model_Space
340
0
70
0
0
BLOCK_RECORD
5
1B
100
AcDbSymbolTableRecord
100
AcDbBlockTableRecord
2
*Paper_Space
340
0
70
0
0
BLOCK_RECORD
5
23
100
AcDbSymbolTableRecord
100
AcDbBlockTableRecord
2
*Paper_Space0
340
0
70
0
0
BLOCK_RECORD
5
153
100
AcDbSymbolTableRecord
100
AcDbBlockTableRecord
2
ASSORTED_DRAFT1
340
0
70
0
0
BLOCK_RECORD
5
158
100
AcDbSymbolTableRecord
100
AcDbBlockTableRecord
2
ASSORTED_DRAFT2
340
0
70
0
0
BLOCK_RECORD
5
15E
100
AcDbSymbolTableRecord
100
AcDbBlockTableRecord
2
ASSORTED_DRAFT3
340
0
70
0
0
BLOCK_RECORD
5
163
100
AcDbSymbolTableRecord
100
AcDbBlockTableRecord
2
ASSORTED_DRAFT4
340
0
70
0
0
BLOCK_RECORD
5
16A
100
AcDbSymbolTableRecord
100
AcDbBlockTableRecord
2
ASSORTED_DRAFT5
340
0
70
0
0
BLOCK_RECORD
5
16F
100
AcDbSymbolTableRecord
100
AcDbBlockTableRecord
2
ASSORTED_DRAFT6
340
0
70
0
0
BLOCK_RECORD
5
176
100
AcDbSymbolTableRecord
100
AcDbBlockTableRecord
2
ASSORTED_DRAFT7
340
0
70
0
0
BLOCK_RECORD
5
17B
100
AcDbSymbolTableRecord
100
AcDbBlockTableRecord
2
ASSORTED_DRAFT8
340
0
70
0
0
BLOCK_RECORD
5
181
100
AcDbSymbolTableRecord
100
AcDbBlockTableRecord
2
ASSORTED_DRAFT9
340
0
70
0
0
BLOCK_RECORD
5
186
100
AcDbSymbolTableRecord
100
AcDbBlockTableRecord
2
ASSORTED_DRAFT10
340
0
70
0
0
BLOCK_RECORD
5
18C
100
AcDbSymbolTableRecord
100
AcDbBlockTableRecord
2
ASSORTED_DRAFT11
340
0
70
0
0
BLOCK_RECORD
5
191
100
AcDbSymbolTableRecord
100
AcDbBlockTableRecord
2
ASSORTED_DRAFT12
340
0
70
0
0
BLOCK_RECORD
5
198
100
AcDbSymbolTableRecord
100
AcDbBlockTableRecord
2
ASSORTED_DRAFT13
340
0
70
0
0
BLOCK_RECORD
5
19D
100
AcDbSymbolTableRecord
100
AcDbBlockTableRecord
2
ASSORTED_DRAFT14
340
0
70
0
0
ENDTAB
0
ENDSEC
0
SECTION
2
BLOCKS
0
BLOCK
5
20
100
AcDbEntity
8
0
100
AcDbBlockBegin
2
*Model_Space
70
0
10
0
20
0
30
0
3
*Model_Space
0
ENDBLK
5
21
100
AcDbEntity
8
0
100
AcDbBlockEnd
0
BLOCK
5
1C
100
AcDbEntity
8
0
100
AcDbBlockBegin
2
*Paper_Space
70
0
10
0
20
0
30
0
3
*Paper_Space
0
ENDBLK
5
1D
100
AcDbEntity
8
0
100
AcDbBlockEnd
0
BLOCK
5
24
100
AcDbEntity
8
0
100
AcDbBlockBegin
2
*Paper_Space0
70
0
10
0
20
0
30
0
3
*Paper_Space0
0
ENDBLK
5
25
100
AcDbEntity
8
0
100
AcDbBlockEnd
0
BLOCK
5
156
100
AcDbEntity
8
0
100
AcDbBlockBegin
2
ASSORTED_DRAFT1
70
0
10
0
20
0
30
0
3
ASSORTED_DRAFT1
0
SOLID
5
154
100
AcDbEntity
8
0
62
256
6
ByLayer
370
18
48
1
60
0
100
AcDbTrace
10
-49.999987
20
75.331642
30
0
11
-46.999989
21
75.831642
31
0
12
-46.999985
22
74.831642
32
0
13
-49.999987
23
75.331642
33
0
39
0
210
0
220
0
230
1
0
ENDBLK
5
157
100
AcDbEntity
8
0
100
AcDbBlockEnd
0
BLOCK
5
15B
100
AcDbEntity
8
0
100
AcDbBlockBegin
2
ASSORTED_DRAFT2
70
0
10
0
20
0
30
0
3
ASSORTED_DRAFT2
0
SOLID
5
159
100
AcDbEntity
8
0
62
256
6
ByLayer
370
18
48
1
60
0
100
AcDbTrace
10
1.4E-05
20
75.331642
30
0
11
-2.999984
21
74.831642
31
0
12
-2.999988
22
75.831642
32
0
13
1.4E-05
23
75.331642
33
0
39
0
210
0
220
0
230
1
0
ENDBLK
5
15C
100
AcDbEntity
8
0
100
AcDbBlockEnd
0
BLOCK
5
161
100
AcDbEntity
8
0
100
AcDbBlockBegin
2
ASSORTED_DRAFT3
70
0
10
0
20
0
30
0
3
ASSORTED_DRAFT3
0
SOLID
5
15F
100
AcDbEntity
8
0
62
256
6
ByLayer
370
18
48
1
60
0
100
AcDbTrace
10
1.4E-05
20
65.43342
30
0
11
3.000012
21
65.93342
31
0
12
3.000016
22
64.93342
32
0
13
1.4E-05
23
65.43342
33
0
39
0
210
0
220
0
230
1
0
ENDBLK
5
162
100
AcDbEntity
8
0
100
AcDbBlockEnd
0
BLOCK
5
166
100
AcDbEntity
8
0
100
AcDbBlockBegin
2
ASSORTED_DRAFT4
70
0
10
0
20
0
30
0
3
ASSORTED_DRAFT4
0
SOLID
5
164
100
AcDbEntity
8
0
62
256
6
ByLayer
370
18
48
1
60
0
100
AcDbTrace
10
29.000014
20
65.43342
30
0
11
26.000016
21
64.93342
31
0
12
26.000012
22
65.93342
32
0
13
29.000014
23
65.43342
33
0
39
0
210
0
220
0
230
1
0
ENDBLK
5
167
100
AcDbEntity
8
0
100
AcDbBlockEnd
0
BLOCK
5
16D
100
AcDbEntity
8
0
100
AcDbBlockBegin
2
ASSORTED_DRAFT5
70
0
10
0
20
0
30
0
3
ASSORTED_DRAFT5
0
SOLID
5
16B
100
AcDbEntity
8
0
62
256
6
ByLayer
370
18
48
1
60
0
100
AcDbTrace
10
-67.514593
20
-50
30
0
11
-68.014593
21
-47.000002
31
0
12
-67.014593
22
-46.999998
32
0
13
-67.514593
23
-50
33
0
39
0
210
0
220
0
230
1
0
ENDBLK
5
16E
100
AcDbEntity
8
0
100
AcDbBlockEnd
0
BLOCK
5
172
100
AcDbEntity
8
0
100
AcDbBlockBegin
2
ASSORTED_DRAFT6
70
0
10
0
20
0
30
0
3
ASSORTED_DRAFT6
0
SOLID
5
170
100
AcDbEntity
8
0
62
256
6
ByLayer
370
18
48
1
60
0
100
AcDbTrace
10
-67.514593
20
50
30
0
11
-67.014593
21
47.000002
31
0
12
-68.014593
22
46.999998
32
0
13
-67.514593
23
50
33
0
39
0
210
0
220
0
230
1
0
ENDBLK
5
173
100
AcDbEntity
8
0
100
AcDbBlockEnd
0
BLOCK
5
179
100
AcDbEntity
8
0
100
AcDbBlockBegin
2
ASSORTED_DRAFT7
70
0
10
0
20
0
30
0
3
ASSORTED_DRAFT7
0
SOLID
5
177
100
AcDbEntity
8
0
62
256
6
ByLayer
370
18
48
1
60
0
100
AcDbTrace
10
-58.736787
20
-37.5
30
0
11
-59.236787
21
-34.500002
31
0
12
-58.236787
22
-34.499998
32
0
13
-58.736787
23
-37.5
33
0
39
0
210
0
220
0
230
1
0
ENDBLK
5
17A
100
AcDbEntity
8
0
100
AcDbBlockEnd
0
BLOCK
5
17E
100
AcDbEntity
8
0
100
AcDbBlockBegin
2
ASSORTED_DRAFT8
70
0
10
0
20
0
30
0
3
ASSORTED_DRAFT8
0
SOLID
5
17C
100
AcDbEntity
8
0
62
256
6
ByLayer
370
18
48
1
60
0
100
AcDbTrace
10
-58.736787
20
37.5
30
0
11
-58.236787
21
34.500002
31
0
12
-59.236787
22
34.499998
32
0
13
-58.736787
23
37.5
33
0
39
0
210
0
220
0
230
1
0
ENDBLK
5
17F
100
AcDbEntity
8
0
100
AcDbBlockEnd
0
BLOCK
5
184
100
AcDbEntity
8
0
100
AcDbBlockBegin
2
ASSORTED_DRAFT9
70
0
10
0
20
0
30
0
3
ASSORTED_DRAFT9
0
SOLID
5
182
100
AcDbEntity
8
0
62
256
6
ByLayer
370
18
48
1
60
0
100
AcDbTrace
10
1.4E-05
20
75.331642
30
0
11
3.000012
21
75.831642
31
0
12
3.000016
22
74.831642
32
0
13
1.4E-05
23
75.331642
33
0
39
0
210
0
220
0
230
1
0
ENDBLK
5
185
100
AcDbEntity
8
0
100
AcDbBlockEnd
0
BLOCK
5
189
100
AcDbEntity
8
0
100
AcDbBlockBegin
2
ASSORTED_DRAFT10
70
0
10
0
20
0
30
0
3
ASSORTED_DRAFT10
0
SOLID
5
187
100
AcDbEntity
8
0
62
256
6
ByLayer
370
18
48
1
60
0
100
AcDbTrace
10
65
20
75.331642
30
0
11
62.000002
21
74.831642
31
0
12
61.999998
22
75.831642
32
0
13
65
23
75.331642
33
0
39
0
210
0
220
0
230
1
0
ENDBLK
5
18A
100
AcDbEntity
8
0
100
AcDbBlockEnd
0
BLOCK
5
18F
100
AcDbEntity
8
0
100
AcDbBlockBegin
2
ASSORTED_DRAFT11
70
0
10
0
20
0
30
0
3
ASSORTED_DRAFT11
0
SOLID
5
18D
100
AcDbEntity
8
0
62
256
6
ByLayer
370
18
48
1
60
0
100
AcDbTrace
10
1.4E-05
20
83.441753
30
0
11
3.000012
21
83.941753
31
0
12
3.000016
22
82.941753
32
0
13
1.4E-05
23
83.441753
33
0
39
0
210
0
220
0
230
1
0
ENDBLK
5
190
100
AcDbEntity
8
0
100
AcDbBlockEnd
0
BLOCK
5
194
100
AcDbEntity
8
0
100
AcDbBlockBegin
2
ASSORTED_DRAFT12
70
0
10
0
20
0
30
0
3
ASSORTED_DRAFT12
0
SOLID
5
192
100
AcDbEntity
8
0
62
256
6
ByLayer
370
18
48
1
60
0
100
AcDbTrace
10
89.6
20
83.441753
30
0
11
86.600002
21
82.941753
31
0
12
86.599998
22
83.941753
32
0
13
89.6
23
83.441753
33
0
39
0
210
0
220
0
230
1
0
ENDBLK
5
195
100
AcDbEntity
8
0
100
AcDbBlockEnd
0
BLOCK
5
19B
100
AcDbEntity
8
0
100
AcDbBlockBegin
2
ASSORTED_DRAFT13
70
0
10
0
20
0
30
0
3
ASSORTED_DRAFT13
0
SOLID
5
199
100
AcDbEntity
8
0
62
256
6
ByLayer
370
18
48
1
60
0
100
AcDbTrace
10
103.39559
20
-53
30
0
11
102.89559
21
-50.000002
31
0
12
103.89559
22
-49.999998
32
0
13
103.39559
23
-53
33
0
39
0
210
0
220
0
230
1
0
ENDBLK
5
19C
100
AcDbEntity
8
0
100
AcDbBlockEnd
0
BLOCK
5
1A0
100
AcDbEntity
8
0
100
AcDbBlockBegin
2
ASSORTED_DRAFT14
70
0
10
0
20
0
30
0
3
ASSORTED_DRAFT14
0
SOLID
5
19E
100
AcDbEntity
8
0
62
256
6
ByLayer
370
18
48
1
60
0
100
AcDbTrace
10
103.39559
20
53
30
0
11
103.89559
21
50.000002
31
0
12
102.89559
22
49.999998
32
0
13
103.39559
23
53
33
0
39
0
210
0
220
0
230
1
0
ENDBLK
5
1A1
100
AcDbEntity
8
0
100
AcDbBlockEnd
0
ENDSEC
0
SECTION
2
ENTITIES
0
ARC
5
133
100
AcDbEntity
8
SK1
62
256
6
ByLayer
370
18
48
1
60
0
100
AcDbCircle
39
0
10
-47.999987
20
33.597502
30
0
40
2
210
0
220
0
230
1
100
AcDbArc
50
92.862405
51
180
0
ARC
5
134
100
AcDbEntity
8
SK1
62
256
6
ByLayer
370
18
48
1
60
0
100
AcDbCircle
39
0
10
-47.999987
20
-33.597502
30
0
40
2
210
0
220
0
230
1
100
AcDbArc
50
180
51
267.137595
0
ARC
5
135
100
AcDbEntity
8
1
62
256
6
ByLayer
370
18
48
1
60
0
100
AcDbCircle
39
0
10
-21.515062
20
46.375019
30
0
40
0.399999999999999
210
0
220
0
230
-1
100
AcDbArc
50
180
51
270
0
ARC
5
136
100
AcDbEntity
8
1
62
256
6
ByLayer
370
18
48
1
60
0
100
AcDbCircle
39
0
10
-18.485062
20
46.375019
30
0
40
0.399999999999999
210
0
220
0
230
-1
100
AcDbArc
50
270
51
0
0
ARC
5
137
100
AcDbEntity
8
1
62
256
6
ByLayer
370
18
48
1
60
0
100
AcDbCircle
39
0
10
-14.646813
20
41.350019
30
-31.35
40
10
210
0
220
0
230
-1
100
AcDbArc
50
270
51
345.853765
0
ARC
5
138
100
AcDbEntity
8
SK3
62
256
6
ByLayer
370
18
48
0.05
60
0
100
AcDbCircle
39
0
10
-0.874846
20
-38.681918
30
0
40
1
210
0
220
0
230
1
100
AcDbArc
50
352
51
28.971593
0
ARC
5
139
100
AcDbEntity
8
SK1
62
256
6
ByLayer
370
18
48
1
60
0
100
AcDbCircle
39
0
10
-0.874846
20
-38.681918
30
0
40
0.999999999999998
210
0
220
0
230
1
100
AcDbArc
50
28.971593
51
90
0
ARC
5
13A
100
AcDbEntity
8
1
62
256
6
ByLayer
370
18
48
1
60
0
100
AcDbCircle
39
0
10
18.485062
20
-46.375019
30
0
40
0.399999999999999
210
0
220
0
230
1
100
AcDbArc
50
90
51
180
0
ARC
5
13B
100
AcDbEntity
8
1
62
256
6
ByLayer
370
18
48
1
60
0
100
AcDbCircle
39
0
10
21.515062
20
-46.375019
30
0
40
0.399999999999999
210
0
220
0
230
1
100
AcDbArc
50
0
51
90
0
ARC
5
13C
100
AcDbEntity
8
SK1
62
256
6
ByLayer
370
18
48
1
60
0
100
AcDbCircle
39
0
10
0.874846
20
38.681918
30
0
40
1
210
0
220
0
230
-1
100
AcDbArc
50
208.971593
51
270
0
ARC
5
13D
100
AcDbEntity
8
SK3
62
256
6
ByLayer
370
18
48
0.05
60
0
100
AcDbCircle
39
0
10
0.874846
20
38.681918
30
0
40
1
210
0
220
0
230
-1
100
AcDbArc
50
172
51
208.971593
0
POINT
5
70
100
AcDbEntity
8
80
62
256
6
ByLayer
370
18
48
0.05
60
0
100
AcDbPoint
10
0
20
0
30
0
39
0
210
0
220
0
230
1
50
360
0
POINT
5
72
100
AcDbEntity
8
81
62
256
6
ByLayer
370
18
48
0.05
60
0
100
AcDbPoint
10
65
20
0
30
0
39
0
210
0
220
0
230
1
50
360
0
POINT
5
74
100
AcDbEntity
8
2
62
256
6
ByLayer
370
18
48
1
60
1
100
AcDbPoint
10
0
20
0
30
0
39
0
210
0
220
0
230
1
50
360
0
POINT
5
76
100
AcDbEntity
8
2
62
256
6
ByLayer
370
18
48
1
60
1
100
AcDbPoint
10
0
20
0
30
0
39
0
210
0
220
0
230
1
50
360
0
POINT
5
77
100
AcDbEntity
8
2
62
256
6
ByLayer
370
18
48
1
60
1
100
AcDbPoint
10
0
20
0
30
0
39
0
210
0
220
0
230
1
50
360
0
POINT
5
78
100
AcDbEntity
8
2
62
256
6
ByLayer
370
18
48
1
60
1
100
AcDbPoint
10
0
20
0
30
0
39
0
210
0
220
0
230
1
50
360
0
POINT
5
79
100
AcDbEntity
8
2
62
256
6
ByLayer
370
18
48
1
60
1
100
AcDbPoint
10
0
20
0
30
0
39
0
210
0
220
0
230
1
50
360
0
POINT
5
7A
100
AcDbEntity
8
2
62
256
6
ByLayer
370
18
48
1
60
1
100
AcDbPoint
10
0
20
0
30
0
39
0
210
0
220
0
230
1
50
360
0
POINT
5
7B
100
AcDbEntity
8
SK2
62
256
6
ByLayer
370
18
48
1
60
1
100
AcDbPoint
10
0
20
0
30
0
39
0
210
0
220
0
230
1
50
360
0
SPLINE
5
13E
100
AcDbEntity
8
1
62
256
6
ByLayer
370
18
48
1
60
0
100
AcDbSpline
70
4
71
1
72
4
73
2
40
0
40
0
40
1
40
1
41
1
10
21.915062
20
35.906964
30
31.35
41
1
10
23.241884
20
38.906044
30
31.35
0
SPLINE
5
13F
100
AcDbEntity
8
1
62
256
6
ByLayer
370
18
48
1
60
0
100
AcDbSpline
70
4
71
1
72
4
73
2
40
0
40
0
40
1
40
1
41
1
10
21.515062
20
33.628551
30
31.35
41
1
10
18.485062
20
33.628551
30
31.35
0
SPLINE
5
140
100
AcDbEntity
8
1
62
256
6
ByLayer
370
18
48
1
60
0
100
AcDbSpline
70
4
71
3
72
20
73
16
40
0
40
0
40
0
40
0
40
0.327454843616857
40
0.327454843616857
40
0.327454843616857
40
0.493574102772143
40
0.493574102772143
40
0.493574102772143
40
0.652866726940854
40
0.652866726940854
40
0.652866726940854
40
0.813345175489606
40
0.813345175489606
40
0.813345175489606
40
1
40
1
40
1
40
1
41
1
10
21.915062
20
34.173373
30
31.35
41
1
10
21.8989863333333
20
34.0932903333333
30
31.35
41
1
10
21.8829106666667
20
34.0132076666667
30
31.35
41
1
10
21.866835
20
33.933125
30
31.35
41
1
10
21.851676
20
33.8945606666667
30
31.35
41
1
10
21.836517
20
33.8559963333333
30
31.35
41
1
10
21.821358
20
33.817432
30
31.35
41
1
10
21.7983246666667
20
33.7850553333333
30
31.35
41
1
10
21.7752913333333
20
33.7526786666667
30
31.35
41
1
10
21.752258
20
33.720302
30
31.35
41
1
10
21.7190066666667
20
33.6980146666667
30
31.35
41
1
10
21.6857553333333
20
33.6757273333333
30
31.35
41
1
10
21.652504
20
33.65344
30
31.35
41
1
10
21.60669
20
33.6451436666667
30
31.35
41
1
10
21.560876
20
33.6368473333333
30
31.35
41
1
10
21.515062
20
33.628551
30
31.35
0
SPLINE
5
141
100
AcDbEntity
8
1
62
256
6
ByLayer
370
18
48
1
60
0
100
AcDbSpline
70
4
71
3
72
20
73
16
40
0
40
0
40
0
40
0
40
0.327454329729025
40
0.327454329729025
40
0.327454329729025
40
0.493573950489006
40
0.493573950489006
40
0.493573950489006
40
0.652865677961577
40
0.652865677961577
40
0.652865677961577
40
0.813344003557097
40
0.813344003557097
40
0.813344003557097
40
1
40
1
40
1
40
1
41
1
10
18.085062
20
34.173373
30
31.35
41
1
10
18.1011373333333
20
34.0932903333333
30
31.35
41
1
10
18.1172126666667
20
34.0132076666667
30
31.35
41
1
10
18.133288
20
33.933125
30
31.35
41
1
10
18.1484473333333
20
33.8945606666667
30
31.35
41
1
10
18.1636066666667
20
33.8559963333333
30
31.35
41
1
10
18.178766
20
33.817432
30
31.35
41
1
10
18.201799
20
33.7850553333333
30
31.35
41
1
10
18.224832
20
33.7526786666667
30
31.35
41
1
10
18.247865
20
33.720302
30
31.35
41
1
10
18.2811163333333
20
33.6980146666667
30
31.35
41
1
10
18.3143676666667
20
33.6757273333333
30
31.35
41
1
10
18.347619
20
33.65344
30
31.35
41
1
10
18.3934333333333
20
33.6451436666667
30
31.35
41
1
10
18.4392476666667
20
33.6368473333333
30
31.35
41
1
10
18.485062
20
33.628551
30
31.35
0
SPLINE
5
142
100
AcDbEntity
8
1
62
256
6
ByLayer
370
18
48
1
60
0
100
AcDbSpline
70
4
71
1
72
4
73
2
40
0
40
0
40
1
40
1
41
1
10
18.085062
20
35.906964
30
31.35
41
1
10
16.75824
20
38.906044
30
31.35
0
INSERT
5
155
100
AcDbEntity
8
2
62
256
6
ByLayer
370
18
48
1
60
0
100
AcDbBlockReference
2
ASSORTED_DRAFT1
10
0
20
0
30
0
41
1
42
1
43
1
50
0
210
0
220
0
230
1
0
INSERT
5
15A
100
AcDbEntity
8
2
62
256
6
ByLayer
370
18
48
1
60
0
100
AcDbBlockReference
2
ASSORTED_DRAFT2
10
0
20
0
30
0
41
1
42
1
43
1
50
0
210
0
220
0
230
1
0
INSERT
5
160
100
AcDbEntity
8
2
62
256
6
ByLayer
370
18
48
1
60
0
100
AcDbBlockReference
2
ASSORTED_DRAFT3
10
0
20
0
30
0
41
1
42
1
43
1
50
0
210
0
220
0
230
1
0
INSERT
5
165
100
AcDbEntity
8
2
62
256
6
ByLayer
370
18
48
1
60
0
100
AcDbBlockReference
2
ASSORTED_DRAFT4
10
0
20
0
30
0
41
1
42
1
43
1
50
0
210
0
220
0
230
1
0
INSERT
5
16C
100
AcDbEntity
8
2
62
256
6
ByLayer
370
18
48
1
60
0
100
AcDbBlockReference
2
ASSORTED_DRAFT5
10
0
20
0
30
0
41
1
42
1
43
1
50
0
210
0
220
0
230
1
0
INSERT
5
171
100
AcDbEntity
8
2
62
256
6
ByLayer
370
18
48
1
60
0
100
AcDbBlockReference
2
ASSORTED_DRAFT6
10
0
20
0
30
0
41
1
42
1
43
1
50
0
210
0
220
0
230
1
0
INSERT
5
178
100
AcDbEntity
8
2
62
256
6
ByLayer
370
18
48
1
60
0
100
AcDbBlockReference
2
ASSORTED_DRAFT7
10
0
20
0
30
0
41
1
42
1
43
1
50
0
210
0
220
0
230
1
0
INSERT
5
17D
100
AcDbEntity
8
2
62
256
6
ByLayer
370
18
48
1
60
0
100
AcDbBlockReference
2
ASSORTED_DRAFT8
10
0
20
0
30
0
41
1
42
1
43
1
50
0
210
0
220
0
230
1
0
INSERT
5
183
100
AcDbEntity
8
2
62
256
6
ByLayer
370
18
48
1
60
0
100
AcDbBlockReference
2
ASSORTED_DRAFT9
10
0
20
0
30
0
41
1
42
1
43
1
50
0
210
0
220
0
230
1
0
INSERT
5
188
100
AcDbEntity
8
2
62
256
6
ByLayer
370
18
48
1
60
0
100
AcDbBlockReference
2
ASSORTED_DRAFT10
10
0
20
0
30
0
41
1
42
1
43
1
50
0
210
0
220
0
230
1
0
INSERT
5
18E
100
AcDbEntity
8
2
62
256
6
ByLayer
370
18
48
1
60
0
100
AcDbBlockReference
2
ASSORTED_DRAFT11
10
0
20
0
30
0
41
1
42
1
43
1
50
0
210
0
220
0
230
1
0
INSERT
5
193
100
AcDbEntity
8
2
62
256
6
ByLayer
370
18
48
1
60
0
100
AcDbBlockReference
2
ASSORTED_DRAFT12
10
0
20
0
30
0
41
1
42
1
43
1
50
0
210
0
220
0
230
1
0
INSERT
5
19A
100
AcDbEntity
8
SK2
62
256
6
ByLayer
370
18
48
1
60
0
100
AcDbBlockReference
2
ASSORTED_DRAFT13
10
0
20
0
30
0
41
1
42
1
43
1
50
0
210
0
220
0
230
1
0
INSERT
5
19F
100
AcDbEntity
8
SK2
62
256
6
ByLayer
370
18
48
1
60
0
100
AcDbBlockReference
2
ASSORTED_DRAFT14
10
0
20
0
30
0
41
1
42
1
43
1
50
0
210
0
220
0
230
1
0
LINE
5
7D
100
AcDbEntity
8
1
62
256
6
ByLayer
370
18
48
0.05
60
1
100
AcDbLine
10
53.7
20
30
30
0
11
53.7
21
-30
31
0
39
0
210
0
220
0
230
1
0
LINE
5
7F
100
AcDbEntity
8
SK3
62
256
6
ByLayer
370
18
48
0.05
60
0
100
AcDbLine
10
5.000013
20
-44
30
0
11
29.000013
21
-44
31
0
39
0
210
0
220
0
230
1
0
LINE
5
81
100
AcDbEntity
8
SK3
62
256
6
ByLayer
370
18
48
0.05
60
0
100
AcDbLine
10
5.000013
20
44
30
0
11
29.000013
21
44
31
0
39
0
210
0
220
0
230
1
0
LINE
5
82
100
AcDbEntity
8
SK3
62
256
6
ByLayer
370
18
48
0.05
60
0
100
AcDbLine
10
5.000013
20
-50
30
0
11
5.000013
21
-44
31
0
39
0
210
0
220
0
230
1
0
LINE
5
83
100
AcDbEntity
8
SK3
62
256
6
ByLayer
370
18
48
0.05
60
0
100
AcDbLine
10
5.000013
20
50
30
0
11
5.000013
21
44
31
0
39
0
210
0
220
0
230
1
0
LINE
5
84
100
AcDbEntity
8
SK1
62
256
6
ByLayer
370
18
48
1
60
0
100
AcDbLine
10
-49.999987
20
-33.597502
30
0
11
-49.999987
21
0
31
0
39
0
210
0
220
0
230
1
0
LINE
5
86
100
AcDbEntity
8
1
62
256
6
ByLayer
370
18
48
1
60
0
100
AcDbLine
10
1.3E-05
20
-49.264971
30
0
11
1.3E-05
21
0
31
0
39
0
210
0
220
0
230
1
0
LINE
5
87
100
AcDbEntity
8
1
62
256
6
ByLayer
370
18
48
1
60
0
100
AcDbLine
10
1.3E-05
20
49.264971
30
0
11
1.3E-05
21
0
31
0
39
0
210
0
220
0
230
1
0
LINE
5
88
100
AcDbEntity
8
SK1
62
256
6
ByLayer
370
18
48
1
60
0
100
AcDbLine
10
-9.999987
20
-41.40822
30
0
11
-9.999987
21
0
31
0
39
0
210
0
220
0
230
1
0
LINE
5
89
100
AcDbEntity
8
SK1
62
256
6
ByLayer
370
18
48
1
60
0
100
AcDbLine
10
-2.499938
20
-37.875002
30
0
11
-9.999987
21
-37.5
31
0
39
0
210
0
220
0
230
1
0
LINE
5
8A
100
AcDbEntity
8
SK1
62
256
6
ByLayer
370
18
48
1
60
0
100
AcDbLine
10
-9.999987
20
42.086628
30
0
11
-9.999987
21
0
31
0
39
0
210
0
220
0
230
1
0
LINE
5
8B
100
AcDbEntity
8
SK1
62
256
6
ByLayer
370
18
48
1
60
0
100
AcDbLine
10
-2.499938
20
37.875002
30
0
11
-9.999987
21
37.5
31
0
39
0
210
0
220
0
230
1
0
LINE
5
8C
100
AcDbEntity
8
SK1
62
256
6
ByLayer
370
18
48
1
60
0
100
AcDbLine
10
-49.999987
20
33.597502
30
0
11
-49.999987
21
0
31
0
39
0
210
0
220
0
230
1
0
LINE
5
8D
100
AcDbEntity
8
SK1
62
256
6
ByLayer
370
18
48
1
60
0
100
AcDbLine
10
-9.999987
20
37.5
30
0
11
-48.099862
21
35.595006
31
0
39
0
210
0
220
0
230
1
0
LINE
5
8E
100
AcDbEntity
8
SK1
62
256
6
ByLayer
370
18
48
1
60
0
100
AcDbLine
10
-9.999987
20
-37.5
30
0
11
-48.099862
21
-35.595006
31
0
39
0
210
0
220
0
230
1
0
LINE
5
8F
100
AcDbEntity
8
1
62
256
6
ByLayer
370
18
48
1
60
0
100
AcDbLine
10
0.735042
20
50
30
0
11
16.75824
21
50
31
0
39
0
210
0
220
0
230
1
0
LINE
5
90
100
AcDbEntity
8
1
62
256
6
ByLayer
370
18
48
1
60
0
100
AcDbLine
10
29.000013
20
0
30
0
11
29.000013
21
49.215068
31
0
39
0
210
0
220
0
230
1
0
LINE
5
91
100
AcDbEntity
8
1
62
256
6
ByLayer
370
18
48
1
60
0
100
AcDbLine
10
20.000013
20
0
30
0
11
20.000013
21
49.111482
31
0
39
0
210
0
220
0
230
1
0
LINE
5
92
100
AcDbEntity
8
1
62
256
6
ByLayer
370
18
48
1
60
0
100
AcDbLine
10
28.215081
20
50
30
0
11
23.241884
21
50
31
0
39
0
210
0
220
0
230
1
0
LINE
5
93
100
AcDbEntity
8
1
62
256
6
ByLayer
370
18
48
1
60
0
100
AcDbLine
10
20.000013
20
0
30
0
11
20.000013
21
-49.082301
31
0
39
0
210
0
220
0
230
1
0
LINE
5
94
100
AcDbEntity
8
1
62
256
6
ByLayer
370
18
48
1
60
0
100
AcDbLine
10
0.735042
20
-50
30
0
11
16.75824
21
-50
31
0
39
0
210
0
220
0
230
1
0
LINE
5
95
100
AcDbEntity
8
1
62
256
6
ByLayer
370
18
48
1
60
0
100
AcDbLine
10
16.75824
20
49.965019
30
0
11
18.085062
21
47.666897
31
0
39
0
210
0
220
0
230
1
0
LINE
5
96
100
AcDbEntity
8
1
62
256
6
ByLayer
370
18
48
1
60
0
100
AcDbLine
10
18.085062
20
47.666897
30
0
11
18.085062
21
34.173373
31
0
39
0
210
0
220
0
230
1
0
LINE
5
97
100
AcDbEntity
8
1
62
256
6
ByLayer
370
18
48
1
60
0
100
AcDbLine
10
18.485062
20
45.975019
30
0
11
21.515062
21
45.975019
31
0
39
0
210
0
220
0
230
1
0
LINE
5
98
100
AcDbEntity
8
1
62
256
6
ByLayer
370
18
48
1
60
0
100
AcDbLine
10
21.915062
20
34.173373
30
0
11
21.915062
21
47.666897
31
0
39
0
210
0
220
0
230
1
0
LINE
5
99
100
AcDbEntity
8
1
62
256
6
ByLayer
370
18
48
1
60
0
100
AcDbLine
10
21.915062
20
47.666897
30
0
11
23.241884
21
49.965019
31
0
39
0
210
0
220
0
230
1
0
LINE
5
9A
100
AcDbEntity
8
1
62
256
6
ByLayer
370
18
48
1
60
0
100
AcDbLine
10
28.215081
20
50
30
0
11
29.000013
21
49.215068
31
0
39
0
210
0
220
0
230
1
0
LINE
5
9B
100
AcDbEntity
8
1
62
256
6
ByLayer
370
18
48
1
60
0
100
AcDbLine
10
0.735042
20
50
30
0
11
1.3E-05
21
49.264971
31
0
39
0
210
0
220
0
230
1
0
LINE
5
9C
100
AcDbEntity
8
1
62
256
6
ByLayer
370
18
48
1
60
0
100
AcDbLine
10
28.250062
20
38.906044
30
31.35
11
23.241884
21
38.906044
31
31.35
39
0
210
0
220
0
230
1
0
LINE
5
9D
100
AcDbEntity
8
1
62
256
6
ByLayer
370
18
48
1
60
0
100
AcDbLine
10
28.950062
20
31.350019
30
31.35
11
14.646813
21
31.350019
31
31.35
39
0
210
0
220
0
230
1
0
LINE
5
9E
100
AcDbEntity
8
SK1
62
256
6
ByLayer
370
18
48
1
60
0
100
AcDbLine
10
-1.753528
20
-37.681918
30
0
11
-2.499938
21
-37.881918
31
0
39
0
210
0
220
0
230
1
0
LINE
5
9F
100
AcDbEntity
8
SK1
62
256
6
ByLayer
370
18
48
1
60
0
100
AcDbLine
10
-1.753528
20
-37.681918
30
0
11
-0.874846
21
-37.681918
31
0
39
0
210
0
220
0
230
1
0
LINE
5
A0
100
AcDbEntity
8
SK3
62
256
6
ByLayer
370
18
48
0.05
60
0
100
AcDbLine
10
6.2E-05
20
-39.641918
30
0
11
0.115422
21
-38.821091
31
0
39
0
210
0
220
0
230
1
0
LINE
5
A1
100
AcDbEntity
8
SK1
62
256
6
ByLayer
370
18
48
1
60
0
100
AcDbLine
10
-2.499938
20
1.9E-05
30
0
11
-2.499938
21
37.875002
31
0
39
0
210
0
220
0
230
1
0
LINE
5
A2
100
AcDbEntity
8
SK1
62
256
6
ByLayer
370
18
48
1
60
0
100
AcDbLine
10
-1.753528
20
1.9E-05
30
0
11
-1.753528
21
37.681957
31
0
39
0
210
0
220
0
230
1
0
LINE
5
A3
100
AcDbEntity
8
1
62
256
6
ByLayer
370
18
48
1
60
0
100
AcDbLine
10
0.700062
20
1.9E-05
30
0
11
0.700062
21
49.965019
31
0
39
0
210
0
220
0
230
1
0
LINE
5
A4
100
AcDbEntity
8
1
62
256
6
ByLayer
370
18
48
1
60
0
100
AcDbLine
10
23.241884
20
50
30
0
11
23.241884
21
38.906044
31
0
39
0
210
0
220
0
230
1
0
LINE
5
A5
100
AcDbEntity
8
1
62
256
6
ByLayer
370
18
48
1
60
0
100
AcDbLine
10
28.250062
20
49.965019
30
0
11
28.250062
21
38.906044
31
0
39
0
210
0
220
0
230
1
0
LINE
5
A6
100
AcDbEntity
8
1
62
256
6
ByLayer
370
18
48
1
60
0
100
AcDbLine
10
16.75824
20
50
30
0
11
16.75824
21
38.906044
31
0
39
0
210
0
220
0
230
1
0
LINE
5
A7
100
AcDbEntity
8
1
62
256
6
ByLayer
370
18
48
1
60
0
100
AcDbLine
10
4.950062
20
38.906044
30
31.35
11
16.75824
21
38.906044
31
31.35
39
0
210
0
220
0
230
1
0
LINE
5
A8
100
AcDbEntity
8
1
62
256
6
ByLayer
370
18
48
1
60
0
100
AcDbLine
10
28.250062
20
38.906044
30
0
11
28.950062
21
38.206044
31
0
39
0
210
0
220
0
230
1
0
LINE
5
A9
100
AcDbEntity
8
1
62
256
6
ByLayer
370
18
48
1
60
0
100
AcDbLine
10
28.215081
20
-50
30
0
11
29.000013
21
-49.215068
31
0
39
0
210
0
220
0
230
1
0
LINE
5
AA
100
AcDbEntity
8
1
62
256
6
ByLayer
370
18
48
1
60
0
100
AcDbLine
10
21.915062
20
-47.666897
30
0
11
23.241884
21
-49.965019
31
0
39
0
210
0
220
0
230
1
0
LINE
5
AB
100
AcDbEntity
8
1
62
256
6
ByLayer
370
18
48
1
60
0
100
AcDbLine
10
18.485062
20
-45.975019
30
0
11
21.515062
21
-45.975019
31
0
39
0
210
0
220
0
230
1
0
LINE
5
AC
100
AcDbEntity
8
1
62
256
6
ByLayer
370
18
48
1
60
0
100
AcDbLine
10
16.75824
20
-49.965019
30
0
11
18.085062
21
-47.666897
31
0
39
0
210
0
220
0
230
1
0
LINE
5
AD
100
AcDbEntity
8
1
62
256
6
ByLayer
370
18
48
1
60
0
100
AcDbLine
10
28.215081
20
-50
30
0
11
23.241884
21
-50
31
0
39
0
210
0
220
0
230
1
0
LINE
5
AE
100
AcDbEntity
8
1
62
256
6
ByLayer
370
18
48
1
60
0
100
AcDbLine
10
16.75824
20
-50
30
0
11
16.75824
21
31.350019
31
0
39
0
210
0
220
0
230
1
0
LINE
5
AF
100
AcDbEntity
8
1
62
256
6
ByLayer
370
18
48
1
60
0
100
AcDbLine
10
18.085062
20
-47.666897
30
0
11
18.085062
21
31.350019
31
0
39
0
210
0
220
0
230
1
0
LINE
5
B0
100
AcDbEntity
8
1
62
256
6
ByLayer
370
18
48
1
60
0
100
AcDbLine
10
21.915062
20
31.350019
30
0
11
21.915062
21
-47.666897
31
0
39
0
210
0
220
0
230
1
0
LINE
5
B1
100
AcDbEntity
8
1
62
256
6
ByLayer
370
18
48
1
60
0
100
AcDbLine
10
23.241884
20
-50
30
0
11
23.241884
21
31.350019
31
0
39
0
210
0
220
0
230
1
0
LINE
5
B2
100
AcDbEntity
8
1
62
256
6
ByLayer
370
18
48
1
60
0
100
AcDbLine
10
28.250062
20
-49.965019
30
0
11
28.250062
21
31.350019
31
0
39
0
210
0
220
0
230
1
0
LINE
5
B3
100
AcDbEntity
8
1
62
256
6
ByLayer
370
18
48
1
60
0
100
AcDbLine
10
29.000013
20
0
30
0
11
29.000013
21
-49.215068
31
0
39
0
210
0
220
0
230
1
0
LINE
5
B4
100
AcDbEntity
8
1
62
256
6
ByLayer
370
18
48
1
60
0
100
AcDbLine
10
0.735042
20
-50
30
0
11
1.3E-05
21
-49.264971
31
0
39
0
210
0
220
0
230
1
0
LINE
5
B5
100
AcDbEntity
8
1
62
256
6
ByLayer
370
18
48
1
60
0
100
AcDbLine
10
0.700062
20
-1.9E-05
30
0
11
0.700062
21
-49.965019
31
0
39
0
210
0
220
0
230
1
0
LINE
5
B6
100
AcDbEntity
8
SK1
62
256
6
ByLayer
370
18
48
1
60
0
100
AcDbLine
10
-1.753528
20
-1.9E-05
30
0
11
-1.753528
21
-37.681957
31
0
39
0
210
0
220
0
230
1
0
LINE
5
B7
100
AcDbEntity
8
SK1
62
256
6
ByLayer
370
18
48
1
60
0
100
AcDbLine
10
-2.499938
20
-1.9E-05
30
0
11
-2.499938
21
-37.875002
31
0
39
0
210
0
220
0
230
1
0
LINE
5
B8
100
AcDbEntity
8
SK3
62
256
6
ByLayer
370
18
48
0.05
60
0
100
AcDbLine
10
6.2E-05
20
39.641918
30
0
11
0.115422
21
38.821091
31
0
39
0
210
0
220
0
230
1
0
LINE
5
B9
100
AcDbEntity
8
SK1
62
256
6
ByLayer
370
18
48
1
60
0
100
AcDbLine
10
-1.753528
20
37.681918
30
0
11
-0.874846
21
37.681918
31
0
39
0
210
0
220
0
230
1
0
LINE
5
BA
100
AcDbEntity
8
SK1
62
256
6
ByLayer
370
18
48
1
60
0
100
AcDbLine
10
-1.753528
20
37.681918
30
0
11
-2.499938
21
37.881918
31
0
39
0
210
0
220
0
230
1
0
LINE
5
BB
100
AcDbEntity
8
1
62
256
6
ByLayer
370
18
48
1
60
0
100
AcDbLine
10
58
20
-52
30
0
11
58
21
52
31
0
39
0
210
0
220
0
230
1
0
LINE
5
BC
100
AcDbEntity
8
1
62
256
6
ByLayer
370
18
48
1
60
0
100
AcDbLine
10
50
20
-52
30
0
11
50
21
52
31
0
39
0
210
0
220
0
230
1
0
LINE
5
BD
100
AcDbEntity
8
1
62
256
6
ByLayer
370
18
48
1
60
0
100
AcDbLine
10
58
20
52
30
0
11
50
21
52
31
0
39
0
210
0
220
0
230
1
0
LINE
5
BE
100
AcDbEntity
8
1
62
256
6
ByLayer
370
18
48
1
60
0
100
AcDbLine
10
58
20
-52
30
0
11
50
21
-52
31
0
39
0
210
0
220
0
230
1
0
LINE
5
BF
100
AcDbEntity
8
1
62
256
6
ByLayer
370
18
48
1
60
0
100
AcDbLine
10
45
20
40
30
0
11
50
21
52
31
0
39
0
210
0
220
0
230
1
0
LINE
5
C0
100
AcDbEntity
8
1
62
256
6
ByLayer
370
18
48
1
60
0
100
AcDbLine
10
45
20
-40
30
0
11
50
21
-52
31
0
39
0
210
0
220
0
230
1
0
LINE
5
C1
100
AcDbEntity
8
1
62
256
6
ByLayer
370
18
48
1
60
0
100
AcDbLine
10
45
20
40
30
0
11
45
21
-40
31
0
39
0
210
0
220
0
230
1
0
LINE
5
C2
100
AcDbEntity
8
1
62
256
6
ByLayer
370
18
48
1
60
0
100
AcDbLine
10
68.5
20
-52.5
30
0
11
68.5
21
52.5
31
0
39
0
210
0
220
0
230
1
0
LINE
5
C3
100
AcDbEntity
8
1
62
256
6
ByLayer
370
18
48
1
60
0
100
AcDbLine
10
76.9
20
-52.5
30
0
11
76.9
21
52.5
31
0
39
0
210
0
220
0
230
1
0
LINE
5
C4
100
AcDbEntity
8
1
62
256
6
ByLayer
370
18
48
1
60
0
100
AcDbLine
10
58
20
15.636702
30
0
11
61
21
15.636702
31
0
39
0
210
0
220
0
230
1
0
LINE
5
C5
100
AcDbEntity
8
1
62
256
6
ByLayer
370
18
48
1
60
0
100
AcDbLine
10
58
20
17.785047
30
0
11
63
21
17.785047
31
0
39
0
210
0
220
0
230
1
0
LINE
5
C6
100
AcDbEntity
8
1
62
256
6
ByLayer
370
18
48
1
60
0
100
AcDbLine
10
58
20
19.899538
30
0
11
61
21
19.899538
31
0
39
0
210
0
220
0
230
1
0
LINE
5
C7
100
AcDbEntity
8
SK3
62
256
6
ByLayer
370
18
48
0.05
60
0
100
AcDbLine
10
65
20
-50
30
0
11
65
21
50
31
0
39
0
210
0
220
0
230
1
0
LINE
5
C8
100
AcDbEntity
8
SK3
62
256
6
ByLayer
370
18
48
0.05
60
0
100
AcDbLine
10
78
20
50
30
0
11
65
21
50
31
0
39
0
210
0
220
0
230
1
0
LINE
5
C9
100
AcDbEntity
8
SK3
62
256
6
ByLayer
370
18
48
0.05
60
0
100
AcDbLine
10
78
20
-50
30
0
11
65
21
-50
31
0
39
0
210
0
220
0
230
1
0
LINE
5
CA
100
AcDbEntity
8
SK3
62
256
6
ByLayer
370
18
48
0.05
60
0
100
AcDbLine
10
89.6
20
33.5
30
0
11
75
21
33.5
31
0
39
0
210
0
220
0
230
1
0
LINE
5
CB
100
AcDbEntity
8
SK3
62
256
6
ByLayer
370
18
48
0.05
60
0
100
AcDbLine
10
89.6
20
-33.5
30
0
11
75
21
-33.5
31
0
39
0
210
0
220
0
230
1
0
LINE
5
CC
100
AcDbEntity
8
SK3
62
256
6
ByLayer
370
18
48
0.05
60
0
100
AcDbLine
10
75
20
-50
30
0
11
75
21
50
31
0
39
0
210
0
220
0
230
1
0
LINE
5
CD
100
AcDbEntity
8
1
62
256
6
ByLayer
370
18
48
1
60
0
100
AcDbLine
10
58
20
-49.593281
30
0
11
61
21
-49.593281
31
0
39
0
210
0
220
0
230
1
0
LINE
5
CE
100
AcDbEntity
8
1
62
256
6
ByLayer
370
18
48
1
60
0
100
AcDbLine
10
58
20
-48.864016
30
0
11
63
21
-48.864016
31
0
39
0
210
0
220
0
230
1
0
LINE
5
CF
100
AcDbEntity
8
1
62
256
6
ByLayer
370
18
48
1
60
0
100
AcDbLine
10
58
20
-48.041736
30
0
11
61
21
-48.041736
31
0
39
0
210
0
220
0
230
1
0
LINE
5
D0
100
AcDbEntity
8
1
62
256
6
ByLayer
370
18
48
1
60
0
100
AcDbLine
10
58
20
-47.128005
30
0
11
63
21
-47.128005
31
0
39
0
210
0
220
0
230
1
0
LINE
5
D1
100
AcDbEntity
8
1
62
256
6
ByLayer
370
18
48
1
60
0
100
AcDbLine
10
58
20
-46.124563
30
0
11
61
21
-46.124563
31
0
39
0
210
0
220
0
230
1
0
LINE
5
D2
100
AcDbEntity
8
1
62
256
6
ByLayer
370
18
48
1
60
0
100
AcDbLine
10
58
20
-45.033321
30
0
11
63
21
-45.033321
31
0
39
0
210
0
220
0
230
1
0
LINE
5
D3
100
AcDbEntity
8
1
62
256
6
ByLayer
370
18
48
1
60
0
100
AcDbLine
10
58
20
-43.856355
30
0
11
61
21
-43.856355
31
0
39
0
210
0
220
0
230
1
0
LINE
5
D4
100
AcDbEntity
8
1
62
256
6
ByLayer
370
18
48
1
60
0
100
AcDbLine
10
58
20
-42.595906
30
0
11
63
21
-42.595906
31
0
39
0
210
0
220
0
230
1
0
LINE
5
D5
100
AcDbEntity
8
1
62
256
6
ByLayer
370
18
48
1
60
0
100
AcDbLine
10
58
20
-41.254374
30
0
11
61
21
-41.254374
31
0
39
0
210
0
220
0
230
1
0
LINE
5
D6
100
AcDbEntity
8
1
62
256
6
ByLayer
370
18
48
1
60
0
100
AcDbLine
10
58
20
-39.834311
30
0
11
63
21
-39.834311
31
0
39
0
210
0
220
0
230
1
0
LINE
5
D7
100
AcDbEntity
8
1
62
256
6
ByLayer
370
18
48
1
60
0
100
AcDbLine
10
58
20
-38.338422
30
0
11
61
21
-38.338422
31
0
39
0
210
0
220
0
230
1
0
LINE
5
D8
100
AcDbEntity
8
1
62
256
6
ByLayer
370
18
48
1
60
0
100
AcDbLine
10
58
20
-36.769553
30
0
11
63
21
-36.769553
31
0
39
0
210
0
220
0
230
1
0
LINE
5
D9
100
AcDbEntity
8
1
62
256
6
ByLayer
370
18
48
1
60
0
100
AcDbLine
10
58
20
-35.130691
30
0
11
61
21
-35.130691
31
0
39
0
210
0
220
0
230
1
0
LINE
5
DA
100
AcDbEntity
8
1
62
256
6
ByLayer
370
18
48
1
60
0
100
AcDbLine
10
58
20
-33.424956
30
0
11
63
21
-33.424956
31
0
39
0
210
0
220
0
230
1
0
LINE
5
DB
100
AcDbEntity
8
1
62
256
6
ByLayer
370
18
48
1
60
0
100
AcDbLine
10
58
20
-31.655594
30
0
11
61
21
-31.655594
31
0
39
0
210
0
220
0
230
1
0
LINE
5
DC
100
AcDbEntity
8
1
62
256
6
ByLayer
370
18
48
1
60
0
100
AcDbLine
10
58
20
-29.825975
30
0
11
63
21
-29.825975
31
0
39
0
210
0
220
0
230
1
0
LINE
5
DD
100
AcDbEntity
8
1
62
256
6
ByLayer
370
18
48
1
60
0
100
AcDbLine
10
58
20
-27.93958
30
0
11
61
21
-27.93958
31
0
39
0
210
0
220
0
230
1
0
LINE
5
DE
100
AcDbEntity
8
1
62
256
6
ByLayer
370
18
48
1
60
0
100
AcDbLine
10
58
20
-26
30
0
11
63
21
-26
31
0
39
0
210
0
220
0
230
1
0
LINE
5
DF
100
AcDbEntity
8
1
62
256
6
ByLayer
370
18
48
1
60
0
100
AcDbLine
10
58
20
-15.636702
30
0
11
61
21
-15.636702
31
0
39
0
210
0
220
0
230
1
0
LINE
5
E0
100
AcDbEntity
8
1
62
256
6
ByLayer
370
18
48
1
60
0
100
AcDbLine
10
58
20
-13.45859
30
0
11
63
21
-13.45859
31
0
39
0
210
0
220
0
230
1
0
LINE
5
E1
100
AcDbEntity
8
1
62
256
6
ByLayer
370
18
48
1
60
0
100
AcDbLine
10
58
20
-11.25486
30
0
11
61
21
-11.25486
31
0
39
0
210
0
220
0
230
1
0
LINE
5
E2
100
AcDbEntity
8
1
62
256
6
ByLayer
370
18
48
1
60
0
100
AcDbLine
10
58
20
-9.029705
30
0
11
63
21
-9.029705
31
0
39
0
210
0
220
0
230
1
0
LINE
5
E3
100
AcDbEntity
8
1
62
256
6
ByLayer
370
18
48
1
60
0
100
AcDbLine
10
58
20
-6.787362
30
0
11
61
21
-6.787362
31
0
39
0
210
0
220
0
230
1
0
LINE
5
E4
100
AcDbEntity
8
1
62
256
6
ByLayer
370
18
48
1
60
0
100
AcDbLine
10
58
20
-4.532099
30
0
11
63
21
-4.532099
31
0
39
0
210
0
220
0
230
1
0
LINE
5
E5
100
AcDbEntity
8
1
62
256
6
ByLayer
370
18
48
1
60
0
100
AcDbLine
10
58
20
-2.268208
30
0
11
61
21
-2.268208
31
0
39
0
210
0
220
0
230
1
0
LINE
5
E6
100
AcDbEntity
8
1
62
256
6
ByLayer
370
18
48
1
60
0
100
AcDbLine
10
58
20
0
30
0
11
63
21
0
31
0
39
0
210
0
220
0
230
1
0
LINE
5
E7
100
AcDbEntity
8
1
62
256
6
ByLayer
370
18
48
1
60
0
100
AcDbLine
10
58
20
2.268208
30
0
11
61
21
2.268208
31
0
39
0
210
0
220
0
230
1
0
LINE
5
E8
100
AcDbEntity
8
1
62
256
6
ByLayer
370
18
48
1
60
0
100
AcDbLine
10
58
20
4.532099
30
0
11
63
21
4.532099
31
0
39
0
210
0
220
0
230
1
0
LINE
5
E9
100
AcDbEntity
8
1
62
256
6
ByLayer
370
18
48
1
60
0
100
AcDbLine
10
58
20
6.787362
30
0
11
61
21
6.787362
31
0
39
0
210
0
220
0
230
1
0
LINE
5
EA
100
AcDbEntity
8
1
62
256
6
ByLayer
370
18
48
1
60
0
100
AcDbLine
10
58
20
9.029705
30
0
11
63
21
9.029705
31
0
39
0
210
0
220
0
230
1
0
LINE
5
EB
100
AcDbEntity
8
1
62
256
6
ByLayer
370
18
48
1
60
0
100
AcDbLine
10
58
20
11.25486
30
0
11
61
21
11.25486
31
0
39
0
210
0
220
0
230
1
0
LINE
5
EC
100
AcDbEntity
8
1
62
256
6
ByLayer
370
18
48
1
60
0
100
AcDbLine
10
58
20
13.45859
30
0
11
63
21
13.45859
31
0
39
0
210
0
220
0
230
1
0
LINE
5
ED
100
AcDbEntity
8
1
62
256
6
ByLayer
370
18
48
1
60
0
100
AcDbLine
10
84.417836
20
-51.5
30
0
11
89.6
21
-38
31
0
39
0
210
0
220
0
230
1
0
LINE
5
EE
100
AcDbEntity
8
1
62
256
6
ByLayer
370
18
48
1
60
0
100
AcDbLine
10
78.5
20
-51.5
30
0
11
78.5
21
51.5
31
0
39
0
210
0
220
0
230
1
0
LINE
5
EF
100
AcDbEntity
8
1
62
256
6
ByLayer
370
18
48
1
60
0
100
AcDbLine
10
84.417836
20
51.5
30
0
11
84.417836
21
-51.5
31
0
39
0
210
0
220
0
230
1
0
LINE
5
F0
100
AcDbEntity
8
1
62
256
6
ByLayer
370
18
48
1
60
0
100
AcDbLine
10
58
20
-24.010928
30
0
11
61
21
-24.010928
31
0
39
0
210
0
220
0
230
1
0
LINE
5
F1
100
AcDbEntity
8
1
62
256
6
ByLayer
370
18
48
1
60
0
100
AcDbLine
10
58
20
0.1
30
0
11
50
21
0.1
31
0
39
0
210
0
220
0
230
1
0
LINE
5
F2
100
AcDbEntity
8
1
62
256
6
ByLayer
370
18
48
1
60
0
100
AcDbLine
10
58
20
-0.1
30
0
11
50
21
-0.1
31
0
39
0
210
0
220
0
230
1
0
LINE
5
F3
100
AcDbEntity
8
1
62
256
6
ByLayer
370
18
48
1
60
0
100
AcDbLine
10
78
20
-51.4
30
0
11
76.4
21
-53
31
0
39
0
210
0
220
0
230
1
0
LINE
5
F4
100
AcDbEntity
8
1
62
256
6
ByLayer
370
18
48
1
60
0
100
AcDbLine
10
78
20
51.4
30
0
11
76.4
21
53
31
0
39
0
210
0
220
0
230
1
0
LINE
5
F5
100
AcDbEntity
8
1
62
256
6
ByLayer
370
18
48
1
60
0
100
AcDbLine
10
58
20
-52
30
0
11
68
21
-52
31
0
39
0
210
0
220
0
230
1
0
LINE
5
F6
100
AcDbEntity
8
1
62
256
6
ByLayer
370
18
48
1
60
0
100
AcDbLine
10
58
20
52
30
0
11
68
21
52
31
0
39
0
210
0
220
0
230
1
0
LINE
5
F7
100
AcDbEntity
8
1
62
256
6
ByLayer
370
18
48
1
60
0
100
AcDbLine
10
68
20
-52
30
0
11
69
21
-53
31
0
39
0
210
0
220
0
230
1
0
LINE
5
F8
100
AcDbEntity
8
1
62
256
6
ByLayer
370
18
48
1
60
0
100
AcDbLine
10
68
20
52
30
0
11
69
21
53
31
0
39
0
210
0
220
0
230
1
0
LINE
5
F9
100
AcDbEntity
8
1
62
256
6
ByLayer
370
18
48
1
60
0
100
AcDbLine
10
58
20
-52
30
0
11
58
21
52
31
0
39
0
210
0
220
0
230
1
0
LINE
5
FA
100
AcDbEntity
8
1
62
256
6
ByLayer
370
18
48
1
60
0
100
AcDbLine
10
68
20
-52
30
0
11
68
21
52
31
0
39
0
210
0
220
0
230
1
0
LINE
5
FB
100
AcDbEntity
8
1
62
256
6
ByLayer
370
18
48
1
60
0
100
AcDbLine
10
78
20
-51.4
30
0
11
78
21
51.4
31
0
39
0
210
0
220
0
230
1
0
LINE
5
FC
100
AcDbEntity
8
1
62
256
6
ByLayer
370
18
48
1
60
0
100
AcDbLine
10
76.4
20
53
30
0
11
69
21
53
31
0
39
0
210
0
220
0
230
1
0
LINE
5
FD
100
AcDbEntity
8
1
62
256
6
ByLayer
370
18
48
1
60
0
100
AcDbLine
10
76.4
20
-53
30
0
11
69
21
-53
31
0
39
0
210
0
220
0
230
1
0
LINE
5
FE
100
AcDbEntity
8
1
62
256
6
ByLayer
370
18
48
1
60
0
100
AcDbLine
10
58
20
-21.97615
30
0
11
63
21
-21.97615
31
0
39
0
210
0
220
0
230
1
0
LINE
5
FF
100
AcDbEntity
8
1
62
256
6
ByLayer
370
18
48
1
60
0
100
AcDbLine
10
89.6
20
-38
30
0
11
89.6
21
38
31
0
39
0
210
0
220
0
230
1
0
LINE
5
100
100
AcDbEntity
8
1
62
256
6
ByLayer
370
18
48
1
60
0
100
AcDbLine
10
78.5
20
50
30
0
11
78
21
50
31
0
39
0
210
0
220
0
230
1
0
LINE
5
101
100
AcDbEntity
8
1
62
256
6
ByLayer
370
18
48
1
60
0
100
AcDbLine
10
78.5
20
-50
30
0
11
78
21
-50
31
0
39
0
210
0
220
0
230
1
0
LINE
5
102
100
AcDbEntity
8
1
62
256
6
ByLayer
370
18
48
1
60
0
100
AcDbLine
10
84.417836
20
-51.5
30
0
11
78.5
21
-51.5
31
0
39
0
210
0
220
0
230
1
0
LINE
5
103
100
AcDbEntity
8
1
62
256
6
ByLayer
370
18
48
1
60
0
100
AcDbLine
10
84.417836
20
51.5
30
0
11
78.5
21
51.5
31
0
39
0
210
0
220
0
230
1
0
LINE
5
104
100
AcDbEntity
8
1
62
256
6
ByLayer
370
18
48
1
60
0
100
AcDbLine
10
58
20
-17.785047
30
0
11
63
21
-17.785047
31
0
39
0
210
0
220
0
230
1
0
LINE
5
105
100
AcDbEntity
8
1
62
256
6
ByLayer
370
18
48
1
60
0
100
AcDbLine
10
58
20
-19.899538
30
0
11
61
21
-19.899538
31
0
39
0
210
0
220
0
230
1
0
LINE
5
106
100
AcDbEntity
8
1
62
256
6
ByLayer
370
18
48
1
60
0
100
AcDbLine
10
89.6
20
38
30
0
11
84.417836
21
51.5
31
0
39
0
210
0
220
0
230
1
0
LINE
5
107
100
AcDbEntity
8
SK6
62
256
6
ByLayer
370
18
48
1
60
0
100
AcDbLine
10
65.583245
20
3.440038
30
0
11
66.416755
21
3.440038
31
0
39
0
210
0
220
0
230
1
0
LINE
5
109
100
AcDbEntity
8
SK6
62
256
6
ByLayer
370
18
48
1
60
0
100
AcDbLine
10
66
20
5.803572
30
0
11
66.416755
21
3.440038
31
0
39
0
210
0
220
0
230
1
0
LINE
5
10A
100
AcDbEntity
8
SK6
62
256
6
ByLayer
370
18
48
1
60
0
100
AcDbLine
10
66
20
5.803572
30
0
11
65.583245
21
3.440038
31
0
39
0
210
0
220
0
230
1
0
LINE
5
10B
100
AcDbEntity
8
SK6
62
256
6
ByLayer
370
18
48
1
60
0
100
AcDbLine
10
66
20
5.803572
30
0
11
66
21
2.203572
31
0
39
0
210
0
220
0
230
1
0
LINE
5
10C
100
AcDbEntity
8
SK6
62
256
6
ByLayer
370
18
48
1
60
0
100
AcDbLine
10
66.416755
20
-3.440038
30
0
11
65.583245
21
-3.440038
31
0
39
0
210
0
220
0
230
1
0
LINE
5
10D
100
AcDbEntity
8
SK6
62
256
6
ByLayer
370
18
48
1
60
0
100
AcDbLine
10
66
20
-5.803572
30
0
11
65.583245
21
-3.440038
31
0
39
0
210
0
220
0
230
1
0
LINE
5
10E
100
AcDbEntity
8
SK6
62
256
6
ByLayer
370
18
48
1
60
0
100
AcDbLine
10
66
20
-5.803572
30
0
11
66.416755
21
-3.440038
31
0
39
0
210
0
220
0
230
1
0
LINE
5
10F
100
AcDbEntity
8
SK6
62
256
6
ByLayer
370
18
48
1
60
0
100
AcDbLine
10
66
20
-5.803572
30
0
11
66
21
-2.203572
31
0
39
0
210
0
220
0
230
1
0
LINE
5
110
100
AcDbEntity
8
1
62
256
6
ByLayer
370
18
48
1
60
0
100
AcDbLine
10
29.000013
20
40
30
0
11
45
21
40
31
0
39
0
210
0
220
0
230
1
0
LINE
5
111
100
AcDbEntity
8
1
62
256
6
ByLayer
370
18
48
1
60
0
100
AcDbLine
10
29.000013
20
-40
30
0
11
45
21
-40
31
0
39
0
210
0
220
0
230
1
0
LINE
5
112
100
AcDbEntity
8
SK6
62
256
6
ByLayer
370
18
48
1
60
0
100
AcDbLine
10
-38.407489
20
-38.085032
30
0
11
-35.910687
21
-36.348374
31
0
39
0
210
0
220
0
230
1
0
LINE
5
113
100
AcDbEntity
8
SK6
62
256
6
ByLayer
370
18
48
1
60
0
100
AcDbLine
10
-35.910687
20
-36.348374
30
0
11
-37.709286
21
-38.800932
31
0
39
0
210
0
220
0
230
1
0
LINE
5
114
100
AcDbEntity
8
SK6
62
256
6
ByLayer
370
18
48
1
60
0
100
AcDbLine
10
-37.709286
20
-38.800932
30
0
11
-38.407489
21
-38.085032
31
0
39
0
210
0
220
0
230
1
0
LINE
5
115
100
AcDbEntity
8
SK6
62
256
6
ByLayer
370
18
48
1
60
0
100
AcDbLine
10
-35.910687
20
-36.348374
30
0
11
-38.058387
21
-38.442982
31
0
39
0
210
0
220
0
230
1
0
LINE
5
116
100
AcDbEntity
8
SK6
62
256
6
ByLayer
370
18
48
1
60
0
100
AcDbLine
10
-38.058387
20
-38.442982
30
0
11
-69.94862
21
-69.544875
31
0
39
0
210
0
220
0
230
1
0
LINE
5
117
100
AcDbEntity
8
SK6
62
256
6
ByLayer
370
18
48
1
60
0
100
AcDbLine
10
-69.94862
20
-69.544875
30
0
11
-63.94862
21
-69.544875
31
0
39
0
210
0
220
0
230
1
0
LINE
5
118
100
AcDbEntity
8
2
62
256
6
ByLayer
370
18
48
1
60
0
100
AcDbLine
10
-49.999987
20
36.097502
30
0
11
-49.999987
21
77.831642
31
0
39
0
210
0
220
0
230
1
0
LINE
5
119
100
AcDbEntity
8
2
62
256
6
ByLayer
370
18
48
1
60
0
100
AcDbLine
10
1.4E-05
20
51.764971
30
0
11
1.4E-05
21
77.831642
31
0
39
0
210
0
220
0
230
1
0
LINE
5
11A
100
AcDbEntity
8
2
62
256
6
ByLayer
370
18
48
1
60
0
100
AcDbLine
10
-46.999987
20
75.331642
30
0
11
-2.999986
21
75.331642
31
0
39
0
210
0
220
0
230
1
0
LINE
5
11B
100
AcDbEntity
8
2
62
256
6
ByLayer
370
18
48
1
60
0
100
AcDbLine
10
1.4E-05
20
51.764971
30
0
11
1.4E-05
21
67.93342
31
0
39
0
210
0
220
0
230
1
0
LINE
5
11C
100
AcDbEntity
8
2
62
256
6
ByLayer
370
18
48
1
60
0
100
AcDbLine
10
29.000014
20
51.715068
30
0
11
29.000014
21
67.93342
31
0
39
0
210
0
220
0
230
1
0
LINE
5
11D
100
AcDbEntity
8
2
62
256
6
ByLayer
370
18
48
1
60
0
100
AcDbLine
10
3.000014
20
65.43342
30
0
11
26.000014
21
65.43342
31
0
39
0
210
0
220
0
230
1
0
LINE
5
11E
100
AcDbEntity
8
2
62
256
6
ByLayer
370
18
48
1
60
0
100
AcDbLine
10
-1.764957
20
-50
30
0
11
-70.014593
21
-50
31
0
39
0
210
0
220
0
230
1
0
LINE
5
11F
100
AcDbEntity
8
2
62
256
6
ByLayer
370
18
48
1
60
0
100
AcDbLine
10
-1.764957
20
50
30
0
11
-70.014593
21
50
31
0
39
0
210
0
220
0
230
1
0
LINE
5
120
100
AcDbEntity
8
2
62
256
6
ByLayer
370
18
48
1
60
0
100
AcDbLine
10
-67.514593
20
-47
30
0
11
-67.514593
21
47
31
0
39
0
210
0
220
0
230
1
0
LINE
5
121
100
AcDbEntity
8
2
62
256
6
ByLayer
370
18
48
1
60
0
100
AcDbLine
10
-12.499987
20
-37.5
30
0
11
-61.236787
21
-37.5
31
0
39
0
210
0
220
0
230
1
0
LINE
5
122
100
AcDbEntity
8
2
62
256
6
ByLayer
370
18
48
1
60
0
100
AcDbLine
10
-12.499987
20
37.5
30
0
11
-61.236787
21
37.5
31
0
39
0
210
0
220
0
230
1
0
LINE
5
123
100
AcDbEntity
8
2
62
256
6
ByLayer
370
18
48
1
60
0
100
AcDbLine
10
-58.736787
20
-34.5
30
0
11
-58.736787
21
34.5
31
0
39
0
210
0
220
0
230
1
0
LINE
5
124
100
AcDbEntity
8
2
62
256
6
ByLayer
370
18
48
1
60
0
100
AcDbLine
10
1.4E-05
20
51.764971
30
0
11
1.4E-05
21
77.831642
31
0
39
0
210
0
220
0
230
1
0
LINE
5
125
100
AcDbEntity
8
2
62
256
6
ByLayer
370
18
48
1
60
0
100
AcDbLine
10
65
20
52.5
30
0
11
65
21
77.831642
31
0
39
0
210
0
220
0
230
1
0
LINE
5
126
100
AcDbEntity
8
2
62
256
6
ByLayer
370
18
48
1
60
0
100
AcDbLine
10
3.000014
20
75.331642
30
0
11
62
21
75.331642
31
0
39
0
210
0
220
0
230
1
0
LINE
5
127
100
AcDbEntity
8
2
62
256
6
ByLayer
370
18
48
1
60
0
100
AcDbLine
10
1.4E-05
20
51.764971
30
0
11
1.4E-05
21
85.941753
31
0
39
0
210
0
220
0
230
1
0
LINE
5
128
100
AcDbEntity
8
2
62
256
6
ByLayer
370
18
48
1
60
0
100
AcDbLine
10
89.6
20
40.5
30
0
11
89.6
21
85.941753
31
0
39
0
210
0
220
0
230
1
0
LINE
5
129
100
AcDbEntity
8
2
62
256
6
ByLayer
370
18
48
1
60
0
100
AcDbLine
10
3.000014
20
83.441753
30
0
11
86.6
21
83.441753
31
0
39
0
210
0
220
0
230
1
0
LINE
5
12A
100
AcDbEntity
8
SK2
62
256
6
ByLayer
370
18
48
1
60
0
100
AcDbLine
10
78.9
20
-53
30
0
11
105.89559
21
-53
31
0
39
0
210
0
220
0
230
1
0
LINE
5
12B
100
AcDbEntity
8
SK2
62
256
6
ByLayer
370
18
48
1
60
0
100
AcDbLine
10
78.9
20
53
30
0
11
105.89559
21
53
31
0
39
0
210
0
220
0
230
1
0
LINE
5
12C
100
AcDbEntity
8
SK2
62
256
6
ByLayer
370
18
48
1
60
0
100
AcDbLine
10
103.39559
20
-50
30
0
11
103.39559
21
50
31
0
39
0
210
0
220
0
230
1
0
LINE
5
12D
100
AcDbEntity
8
80
62
256
6
ByLayer
370
18
48
0.05
60
0
100
AcDbLine
10
0
20
0
30
0
11
-53
21
0
31
0
39
0
210
0
220
0
230
1
0
LINE
5
12E
100
AcDbEntity
8
81
62
256
6
ByLayer
370
18
48
0.05
60
0
100
AcDbLine
10
0
20
0
30
0
11
92
21
0
31
0
39
0
210
0
220
0
230
1
0
LINE
5
12F
100
AcDbEntity
8
SK4
62
256
6
ByLayer
370
18
48
0.05
60
0
100
AcDbLine
10
94.933173
20
0
30
0
11
-55.066827
21
0
31
0
39
0
210
0
220
0
230
1
0
LINE
5
131
100
AcDbEntity
8
4
62
256
6
ByLayer
370
18
48
0.05
60
0
100
AcDbLine
10
0
20
0
30
0
11
95
21
0
31
0
39
0
210
0
220
0
230
1
0
MTEXT
5
143
100
AcDbEntity
8
SK6
62
256
6
ByLayer
370
13
48
1
60
0
100
AcDbMText
10
6.849558
20
-21.382659
30
0
210
0
220
0
230
1
1
\fArial|b0|i0;\W1.0021;392.410277-100 02 065B
40
3
41
0
44
1.047437
50
89.999998754938
71
7
72
5
7
Arial
0
MTEXT
5
145
100
AcDbEntity
8
SK6
62
256
6
ByLayer
370
13
48
1
60
0
100
AcDbMText
10
-62.28962
20
-71.797991
30
0
210
0
220
0
230
1
1
\fArial|b0|i0;\W0.9869;DIN 69893-HSK-A 100
40
3
41
0
44
1.047437
50
0
71
7
72
5
7
Arial
0
MTEXT
5
146
100
AcDbEntity
8
SK6
62
256
6
ByLayer
370
13
48
1
60
0
100
AcDbMText
10
68.035479
20
17.298864
30
0
210
0
220
0
230
1
1
\fArial|b0|i0;\W0.5654;4
40
2.999994
41
0
44
1.047437
50
89.9999979999999
71
7
72
5
7
Arial
0
MTEXT
5
147
100
AcDbEntity
8
SK6
62
256
6
ByLayer
370
13
48
1
60
0
100
AcDbMText
10
68.047114
20
-13.82359
30
0
210
0
220
0
230
1
1
\fArial|b0|i0;\W0.5357;+
40
2.999994
41
0
44
1.047437
50
89.9999979999999
71
7
72
5
7
Arial
0
MTEXT
5
148
100
AcDbEntity
8
SK6
62
256
6
ByLayer
370
13
48
1
60
0
100
AcDbMText
10
68.047114
20
13.09359
30
0
210
0
220
0
230
1
1
\fArial|b0|i0;\W1.0500;-
40
2.999994
41
0
44
1.047437
50
89.9999979999999
71
7
72
5
7
Arial
0
MTEXT
5
149
100
AcDbEntity
8
SK6
62
256
6
ByLayer
370
13
48
1
60
0
100
AcDbMText
10
68.047114
20
-0.515
30
0
210
0
220
0
230
1
1
\fArial|b0|i0;\W0.4406;0
40
2.999994
41
0
44
1.047437
50
89.9999979999999
71
7
72
5
7
Arial
0
MTEXT
5
14A
100
AcDbEntity
8
SK6
62
256
6
ByLayer
370
13
48
1
60
0
100
AcDbMText
10
68.047114
20
-18.300024
30
0
210
0
220
0
230
1
1
\fArial|b0|i0;\W0.5654;4
40
2.999994
41
0
44
1.047437
50
89.9999979999999
71
7
72
5
7
Arial
0
MTEXT
5
14B
100
AcDbEntity
8
SK6
62
256
6
ByLayer
370
13
48
1
60
0
100
AcDbMText
10
68.047114
20
-26.514954
30
0
210
0
220
0
230
1
1
\fArial|b0|i0;\W0.3722;6
40
2.999994
41
0
44
1.047437
50
89.9999979999999
71
7
72
5
7
Arial
0
MTEXT
5
14C
100
AcDbEntity
8
SK6
62
256
6
ByLayer
370
13
48
1
60
0
100
AcDbMText
10
68.047114
20
-33.939956
30
0
210
0
220
0
230
1
1
\fArial|b0|i0;\W0.3623;8
40
2.999994
41
0
44
1.047437
50
89.9999979999999
71
7
72
5
7
Arial
0
MTEXT
5
14D
100
AcDbEntity
8
SK6
62
256
6
ByLayer
370
13
48
1
60
0
100
AcDbMText
10
68.047114
20
-41.496305
30
0
210
0
220
0
230
1
1
\fArial|b0|i0;\W0.5385;10
40
2.999994
41
0
44
1.047437
50
89.9999999999999
71
7
72
5
7
Arial
0
MTEXT
5
14E
100
AcDbEntity
8
SK6
62
256
6
ByLayer
370
13
48
1
60
0
100
AcDbMText
10
68.047114
20
-46.429742
30
0
210
0
220
0
230
1
1
\fArial|b0|i0;\W0.4771;12
40
2.999994
41
0
44
1.047437
50
89.9999999999999
71
7
72
5
7
Arial
0
MTEXT
5
14F
100
AcDbEntity
8
SK6
62
256
6
ByLayer
370
13
48
1
60
0
100
AcDbMText
10
68.047114
20
-49.968071
30
0
210
0
220
0
230
1
1
\fArial|b0|i0;\W0.4389;14
40
2.999994
41
0
44
1.047437
50
89.9999999999999
71
7
72
5
7
Arial
0
MTEXT
5
150
100
AcDbEntity
8
SK6
62
256
6
ByLayer
370
13
48
1
60
0
100
AcDbMText
10
68.047114
20
8.514705
30
0
210
0
220
0
230
1
1
\fArial|b0|i0;\W0.4406;2
40
2.999994
41
0
44
1.047437
50
89.9999979999999
71
7
72
5
7
Arial
0
MTEXT
5
151
100
AcDbEntity
8
SK6
62
256
6
ByLayer
370
13
48
1
60
0
100
AcDbMText
10
68.047114
20
-9.544705
30
0
210
0
220
0
230
1
1
\fArial|b0|i0;\W0.4406;2
40
2.999994
41
0
44
1.047437
50
89.9999979999999
71
7
72
5
7
Arial
0
MTEXT
5
152
100
AcDbEntity
8
2
62
256
6
ByLayer
370
13
48
1
60
0
100
AcDbMText
10
-27.269558
20
76.078526
30
0
210
0
220
0
230
1
1
\fArial|b0|i0;\W1.0467;50
40
3
41
0
44
1.047437
50
0
71
7
72
5
7
Arial
0
MTEXT
5
15D
100
AcDbEntity
8
2
62
256
6
ByLayer
370
13
48
1
60
0
100
AcDbMText
10
12.30187
20
66.180304
30
0
210
0
220
0
230
1
1
\fArial|b0|i0;\W1.1613;29
40
3
41
0
44
1.047437
50
0
71
7
72
5
7
Arial
0
MTEXT
5
168
100
AcDbEntity
8
2
62
256
6
ByLayer
370
13
48
1
60
0
100
AcDbMText
10
-67.813011
20
-5.323408
30
0
210
0
220
0
230
1
1
\fArial|b0|i0;\W0.6340;{\W1.0000;%%c}
40
3
41
0
44
1.047437
50
89.9999979999999
71
7
72
5
7
Arial
0
MTEXT
5
169
100
AcDbEntity
8
2
62
256
6
ByLayer
370
13
48
1
60
0
100
AcDbMText
10
-67.967477
20
-3.436429
30
0
210
0
220
0
230
1
1
\fArial|b0|i0;\W1.4249; 100
40
3
41
0
44
1.047437
50
89.9999979999999
71
7
72
5
7
Arial
0
MTEXT
5
174
100
AcDbEntity
8
2
62
256
6
ByLayer
370
13
48
1
60
0
100
AcDbMText
10
-59.035205
20
-4.180551
30
0
210
0
220
0
230
1
1
\fArial|b0|i0;\W0.6340;{\W1.0000;%%c}
40
3
41
0
44
1.047437
50
89.9999979999999
71
7
72
5
7
Arial
0
MTEXT
5
175
100
AcDbEntity
8
2
62
256
6
ByLayer
370
13
48
1
60
0
100
AcDbMText
10
-59.189671
20
-2.293572
30
0
210
0
220
0
230
1
1
\fArial|b0|i0;\W1.9561; 75
40
3
41
0
44
1.047437
50
89.9999979999999
71
7
72
5
7
Arial
0
MTEXT
5
180
100
AcDbEntity
8
2
62
256
6
ByLayer
370
13
48
1
60
0
100
AcDbMText
10
30.230436
20
76.078526
30
0
210
0
220
0
230
1
1
\fArial|b0|i0;\W1.1611;65
40
3
41
0
44
1.047437
50
0
71
7
72
5
7
Arial
0
MTEXT
5
18B
100
AcDbEntity
8
2
62
256
6
ByLayer
370
13
48
1
60
0
100
AcDbMText
10
40.459007
20
84.188637
30
0
210
0
220
0
230
1
1
\fArial|b0|i0;\W1.1537;89.6
40
3
41
0
44
1.047437
50
0
71
7
72
5
7
Arial
0
MTEXT
5
196
100
AcDbEntity
8
SK2
62
256
6
ByLayer
370
13
48
1
60
0
100
AcDbMText
10
103.097172
20
-5.25198
30
0
210
0
220
0
230
1
1
\fArial|b0|i0;\W0.6340;{\W1.0000;%%c}
40
3
41
0
44
1.047437
50
89.9999979999999
71
7
72
5
7
Arial
0
MTEXT
5
197
100
AcDbEntity
8
SK2
62
256
6
ByLayer
370
13
48
1
60
0
100
AcDbMText
10
102.942706
20
-3.365
30
0
210
0
220
0
230
1
1
\fArial|b0|i0;\W1.4996; 106
40
3
41
0
44
1.047437
50
89.9999979999999
71
7
72
5
7
Arial
0
ENDSEC
0
SECTION
2
OBJECTS
0
DICTIONARY
5
210
330
0
100
AcDbDictionary
280
0
281
1
3
ACAD_GROUP
350
211
3
ACAD_MLINESTYLE
350
212
0
DICTIONARY
5
211
330
0
100
AcDbDictionary
280
0
281
1
0
DICTIONARY
5
212
330
0
100
AcDbDictionary
280
0
281
1
3
Standard
350
18
0
MLINESTYLE
5
18
330
212
100
AcDbMlineStyle
2
Standard
70
0
3

62
256
51
90
52
90
71
2
49
-0.5
62
256
6
ByLayer
49
0.5
62
256
6
ByLayer
0
RASTERVARIABLES
5
1fd
330

100
AcDbRasterVariables
90
0
70
1
71
1
72
1
0
ENDSEC
0
EOF
