0
SECTION
2
HEADER
9
$ACADVER
1
AC1015
9
$DWGCODEPAGE
3
ANSI_1252
9
$HANDSEED
5
15c
9
$ANGBASE
50
0
9
$ANGDIR
70
0
9
$ATTMODE
70
1
9
$AUNITS
70
0
9
$AUPREC
70
0
9
$CECOLOR
62
256
9
$CELTSCALE
40
1
9
$CELTYPE
6
ByLayer
9
$CELWEIGHT
370
18
9
$CLAYER
8
0
9
$CMLJUST
70
0
9
$CMLSCALE
40
1
9
$CMLSTYLE
2
Standard
9
$DIMSTYLE
2
Standard
9
$TEXTSIZE
40
0.2
9
$TEXTSTYLE
7
Standard
9
$LUNITS
70
2
9
$LUPREC
70
4
9
$EXTNAMES
290
1
9
$INSUNITS
70
4
9
$LTSCALE
40
1
9
$LWDISPLAY
290
1
9
$PDMODE
70
0
9
$PDSIZE
40
0
9
$PLINEGEN
70
0
0
ENDSEC
0
SECTION
2
CLASSES
0
CLASS
1
RASTERVARIABLES
2
AcDbRasterVariables
3
ISM
90
0
280
0
281
0
0
ENDSEC
0
SECTION
2
TABLES
0
TABLE
2
VPORT
5
152
100
AcDbSymbolTable
0
VPORT
5
1
100
AcDbSymbolTableRecord
100
AcDbViewportTableRecord
2
*Active
70
0
10
0
20
0
11
1
21
1
12
-1
22
1
13
0
23
0
14
0.5
24
0.5
15
10
25
10
16
0
26
0
36
1
17
0
27
0
37
0
0
ENDTAB
0
TABLE
2
LTYPE
5
153
100
AcDbSymbolTable
0
LTYPE
5
14
100
AcDbSymbolTableRecord
100
AcDbLinetypeTableRecord
70
0
2
ByBlock
3

72
65
73
0
40
0
0
LTYPE
5
15
100
AcDbSymbolTableRecord
100
AcDbLinetypeTableRecord
70
0
2
ByLayer
3

72
65
73
0
40
0
0
LTYPE
5
16
100
AcDbSymbolTableRecord
100
AcDbLinetypeTableRecord
70
0
2
Continuous
3
Solid line
72
65
73
0
40
0
0
LTYPE
5
6E
100
AcDbSymbolTableRecord
100
AcDbLinetypeTableRecord
70
0
2
CENTER
3
____ _ ____ _ ____ _ ____
72
65
73
4
40
47.5
49
22
74
0
49
-8.5
74
0
49
8.5
74
0
49
-8.5
74
0
0
LTYPE
5
6F
100
AcDbSymbolTableRecord
100
AcDbLinetypeTableRecord
70
0
2
DASHED
3
__ __ __ __ __ __ __ __ __
72
65
73
2
40
25.72
49
12.86
74
0
49
-12.86
74
0
0
ENDTAB
0
TABLE
2
LAYER
5
154
100
AcDbSymbolTable
0
LAYER
5
10
100
AcDbSymbolTableRecord
100
AcDbLayerTableRecord
2
0
70
0
62
7
6
Continuous
290
1
370
-3
390
0
0
LAYER
5
71
100
AcDbSymbolTableRecord
100
AcDbLayerTableRecord
2
80
70
0
62
-6
6
Continuous
290
1
370
-3
390
0
0
LAYER
5
73
100
AcDbSymbolTableRecord
100
AcDbLayerTableRecord
2
81
70
0
62
-3
6
Continuous
290
1
370
-3
390
0
0
LAYER
5
75
100
AcDbSymbolTableRecord
100
AcDbLayerTableRecord
2
6
70
0
62
5
6
Continuous
290
1
370
-3
390
0
0
LAYER
5
78
100
AcDbSymbolTableRecord
100
AcDbLayerTableRecord
2
2
70
0
62
7
6
Continuous
290
1
370
-3
390
0
0
LAYER
5
7A
100
AcDbSymbolTableRecord
100
AcDbLayerTableRecord
2
1
70
0
62
4
6
Continuous
290
1
370
-3
390
0
0
LAYER
5
81
100
AcDbSymbolTableRecord
100
AcDbLayerTableRecord
2
5
70
0
62
-7
6
Continuous
290
1
370
-3
390
0
0
LAYER
5
141
100
AcDbSymbolTableRecord
100
AcDbLayerTableRecord
2
SK6
70
0
62
5
6
Continuous
290
1
370
-3
390
0
0
ENDTAB
0
TABLE
2
STYLE
5
155
100
AcDbSymbolTable
0
STYLE
5
11
100
AcDbSymbolTableRecord
100
AcDbTextStyleTableRecord
2
Standard
3
txt
70
0
71
0
40
0
41
1
42
0
50
0
0
STYLE
5
C2
100
AcDbSymbolTableRecord
100
AcDbTextStyleTableRecord
2
Arial
3
Arial
70
0
71
0
40
0
41
1
42
0
50
0
0
ENDTAB
0
TABLE
2
DIMSTYLE
5
156
100
AcDbSymbolTable
100
AcDbDimStyleTable
0
DIMSTYLE
105
27
100
AcDbSymbolTableRecord
100
AcDbDimStyleTableRecord
2
Standard
70
0
3
<>
41
0.18
42
0.0625
44
0.18
140
0.18
147
0.09
73
0
74
0
77
1
271
2
275
0
278
52
280
0
340
11
0
ENDTAB
0
TABLE
2
VIEW
5
157
100
AcDbSymbolTable
0
ENDTAB
0
TABLE
2
UCS
5
158
100
AcDbSymbolTable
0
ENDTAB
0
TABLE
2
APPID
5
159
100
AcDbSymbolTable
0
APPID
5
12
100
AcDbSymbolTableRecord
100
AcDbRegAppTableRecord
2
ACAD
70
0
0
APPID
5
13D
100
AcDbSymbolTableRecord
100
AcDbRegAppTableRecord
2
ACAD_MLEADERVER
70
0
0
ENDTAB
0
TABLE
2
BLOCK_RECORD
5
15a
100
AcDbSymbolTable
0
BLOCK_RECORD
5
1F
100
AcDbSymbolTableRecord
100
AcDbBlockTableRecord
2
*Model_Space
340
0
70
0
0
BLOCK_RECORD
5
1B
100
AcDbSymbolTableRecord
100
AcDbBlockTableRecord
2
*Paper_Space
340
0
70
0
0
BLOCK_RECORD
5
23
100
AcDbSymbolTableRecord
100
AcDbBlockTableRecord
2
*Paper_Space0
340
0
70
0
0
BLOCK_RECORD
5
C3
100
AcDbSymbolTableRecord
100
AcDbBlockTableRecord
2
ASSORTED_DRAFT1
340
0
70
0
0
BLOCK_RECORD
5
C8
100
AcDbSymbolTableRecord
100
AcDbBlockTableRecord
2
ASSORTED_DRAFT2
340
0
70
0
0
BLOCK_RECORD
5
CE
100
AcDbSymbolTableRecord
100
AcDbBlockTableRecord
2
ASSORTED_DRAFT3
340
0
70
0
0
BLOCK_RECORD
5
D3
100
AcDbSymbolTableRecord
100
AcDbBlockTableRecord
2
ASSORTED_DRAFT4
340
0
70
0
0
BLOCK_RECORD
5
D9
100
AcDbSymbolTableRecord
100
AcDbBlockTableRecord
2
ASSORTED_DRAFT5
340
0
70
0
0
BLOCK_RECORD
5
DE
100
AcDbSymbolTableRecord
100
AcDbBlockTableRecord
2
ASSORTED_DRAFT6
340
0
70
0
0
ENDTAB
0
ENDSEC
0
SECTION
2
BLOCKS
0
BLOCK
5
20
100
AcDbEntity
8
0
100
AcDbBlockBegin
2
*Model_Space
70
0
10
0
20
0
30
0
3
*Model_Space
0
ENDBLK
5
21
100
AcDbEntity
8
0
100
AcDbBlockEnd
0
BLOCK
5
1C
100
AcDbEntity
8
0
100
AcDbBlockBegin
2
*Paper_Space
70
0
10
0
20
0
30
0
3
*Paper_Space
0
ENDBLK
5
1D
100
AcDbEntity
8
0
100
AcDbBlockEnd
0
BLOCK
5
24
100
AcDbEntity
8
0
100
AcDbBlockBegin
2
*Paper_Space0
70
0
10
0
20
0
30
0
3
*Paper_Space0
0
ENDBLK
5
25
100
AcDbEntity
8
0
100
AcDbBlockEnd
0
BLOCK
5
C6
100
AcDbEntity
8
0
100
AcDbBlockBegin
2
ASSORTED_DRAFT1
70
0
10
0
20
0
30
0
3
ASSORTED_DRAFT1
0
SOLID
5
C4
100
AcDbEntity
8
0
62
256
6
ByLayer
370
18
48
1
60
0
100
AcDbTrace
10
114.767277
20
-52.9971
30
0
11
114.267277
21
-49.997102
31
0
12
115.267277
22
-49.997098
32
0
13
114.767277
23
-52.9971
33
0
39
0
210
0
220
0
230
1
0
ENDBLK
5
C7
100
AcDbEntity
8
0
100
AcDbBlockEnd
0
BLOCK
5
CB
100
AcDbEntity
8
0
100
AcDbBlockBegin
2
ASSORTED_DRAFT2
70
0
10
0
20
0
30
0
3
ASSORTED_DRAFT2
0
SOLID
5
C9
100
AcDbEntity
8
0
62
256
6
ByLayer
370
18
48
1
60
0
100
AcDbTrace
10
114.767277
20
52.9971
30
0
11
115.267277
21
49.997102
31
0
12
114.267277
22
49.997098
32
0
13
114.767277
23
52.9971
33
0
39
0
210
0
220
0
230
1
0
ENDBLK
5
CC
100
AcDbEntity
8
0
100
AcDbBlockEnd
0
BLOCK
5
D1
100
AcDbEntity
8
0
100
AcDbBlockBegin
2
ASSORTED_DRAFT3
70
0
10
0
20
0
30
0
3
ASSORTED_DRAFT3
0
SOLID
5
CF
100
AcDbEntity
8
0
62
256
6
ByLayer
370
18
48
1
60
0
100
AcDbTrace
10
55
20
69.830549
30
0
11
52.000002
21
69.330549
31
0
12
51.999998
22
70.330549
32
0
13
55
23
69.830549
33
0
39
0
210
0
220
0
230
1
0
ENDBLK
5
D2
100
AcDbEntity
8
0
100
AcDbBlockEnd
0
BLOCK
5
D6
100
AcDbEntity
8
0
100
AcDbBlockBegin
2
ASSORTED_DRAFT4
70
0
10
0
20
0
30
0
3
ASSORTED_DRAFT4
0
SOLID
5
D4
100
AcDbEntity
8
0
62
256
6
ByLayer
370
18
48
1
60
0
100
AcDbTrace
10
0
20
69.830549
30
0
11
2.999998
21
70.330549
31
0
12
3.000002
22
69.330549
32
0
13
0
23
69.830549
33
0
39
0
210
0
220
0
230
1
0
ENDBLK
5
D7
100
AcDbEntity
8
0
100
AcDbBlockEnd
0
BLOCK
5
DC
100
AcDbEntity
8
0
100
AcDbBlockBegin
2
ASSORTED_DRAFT5
70
0
10
0
20
0
30
0
3
ASSORTED_DRAFT5
0
SOLID
5
DA
100
AcDbEntity
8
0
62
256
6
ByLayer
370
18
48
1
60
0
100
AcDbTrace
10
0
20
84.465017
30
0
11
2.999998
21
84.965017
31
0
12
3.000002
22
83.965017
32
0
13
0
23
84.465017
33
0
39
0
210
0
220
0
230
1
0
ENDBLK
5
DD
100
AcDbEntity
8
0
100
AcDbBlockEnd
0
BLOCK
5
E1
100
AcDbEntity
8
0
100
AcDbBlockBegin
2
ASSORTED_DRAFT6
70
0
10
0
20
0
30
0
3
ASSORTED_DRAFT6
0
SOLID
5
DF
100
AcDbEntity
8
0
62
256
6
ByLayer
370
18
48
1
60
0
100
AcDbTrace
10
79.6036
20
84.465017
30
0
11
76.603602
21
83.965017
31
0
12
76.603598
22
84.965017
32
0
13
79.6036
23
84.465017
33
0
39
0
210
0
220
0
230
1
0
ENDBLK
5
E2
100
AcDbEntity
8
0
100
AcDbBlockEnd
0
ENDSEC
0
SECTION
2
ENTITIES
0
POINT
5
70
100
AcDbEntity
8
80
62
256
6
ByLayer
370
18
48
0.05
60
0
100
AcDbPoint
10
0
20
0
30
0
39
0
210
0
220
0
230
1
50
360
0
POINT
5
72
100
AcDbEntity
8
81
62
256
6
ByLayer
370
18
48
0.05
60
0
100
AcDbPoint
10
55
20
0
30
0
39
0
210
0
220
0
230
1
50
360
0
POINT
5
74
100
AcDbEntity
8
6
62
256
6
ByLayer
370
18
48
1
60
0
100
AcDbPoint
10
0
20
0
30
0
39
0
210
0
220
0
230
1
50
360
0
POINT
5
76
100
AcDbEntity
8
6
62
256
6
ByLayer
370
18
48
1
60
0
100
AcDbPoint
10
0
20
0
30
0
39
0
210
0
220
0
230
1
50
360
0
POINT
5
77
100
AcDbEntity
8
2
62
256
6
ByLayer
370
18
48
1
60
0
100
AcDbPoint
10
0
20
0
30
0
39
0
210
0
220
0
230
1
50
360
0
SPLINE
5
BB
100
AcDbEntity
8
1
62
256
6
ByLayer
370
18
48
1
60
0
100
AcDbSpline
70
4
71
3
72
16
73
12
40
0
40
0
40
0
40
0
40
0.200000141236674
40
0.200000141236674
40
0.400000259886995
40
0.400000259886995
40
0.599999999207281
40
0.599999999207281
40
0.800000118275756
40
0.800000118275756
40
1
40
1
40
1
40
1
41
1
10
12.061637
20
-43.778055
30
0
41
1
10
12.2304986666667
20
-44.0825793333333
30
0
41
1
10
12.3993603333333
20
-44.3871036666667
30
0
41
1
10
12.7370836475968
20
-44.9961522989429
30
0
41
1
10
12.906308
20
-45.3004753333333
30
0
41
1
10
13.2443936793847
20
-45.9093220892818
30
0
41
1
10
13.413799
20
-46.2135436666667
30
0
41
1
10
13.752247321313
20
-46.8221889111634
30
0
41
1
10
13.9218343333333
20
-47.12631
30
0
41
1
10
14.2606454656295
20
-47.7347536389735
30
0
41
1
10
14.4304133333333
20
-48.0387733333333
30
0
41
1
10
14.6
20
-48.342894
30
0
0
SPLINE
5
BC
100
AcDbEntity
8
1
62
256
6
ByLayer
370
18
48
1
60
0
100
AcDbSpline
70
4
71
3
72
16
73
12
40
0
40
0
40
0
40
0
40
0.199999881724244
40
0.199999881724244
40
0.40000000079272
40
0.40000000079272
40
0.599999740113004
40
0.599999740113004
40
0.799999858763326
40
0.799999858763326
40
1
40
1
40
1
40
1
41
1
10
7.6
20
-48.342894
30
0
41
1
10
7.76958666666667
20
-48.0387733333333
30
0
41
1
10
7.93917333333333
20
-47.7346526666667
30
0
41
1
10
8.27834686791887
20
-47.1264109724267
30
0
41
1
10
8.44757133333333
20
-46.822088
30
0
41
1
10
8.78638234500938
20
-46.2136445776384
30
0
41
1
10
8.955425
20
-45.9092213333333
30
0
41
1
10
9.29387332095915
20
-45.3005760894729
30
0
41
1
10
9.462735
20
-44.9960516666667
30
0
41
1
10
9.80082101909031
20
-44.3872042989543
30
0
41
1
10
9.96950133333333
20
-44.0825793333333
30
0
41
1
10
10.138363
20
-43.778055
30
0
0
SPLINE
5
BD
100
AcDbEntity
8
1
62
256
6
ByLayer
370
18
48
1
60
0
100
AcDbSpline
70
4
71
3
72
16
73
12
40
0
40
0
40
0
40
0
40
0.200009152060253
40
0.200009152060253
40
0.400009413197495
40
0.400009413197495
40
0.60000521810655
40
0.60000521810655
40
0.800000722230793
40
0.800000722230793
40
1
40
1
40
1
40
1
41
1
10
7.6
20
40.026965
30
0
41
1
10
7.77269066666666
20
39.651713
30
0
41
1
10
7.94538133333333
20
39.276461
30
0
41
1
10
8.29075499012083
20
38.5259736809199
30
0
41
1
10
8.45998666666666
20
38.1491596666667
30
0
41
1
10
8.80189752421387
20
37.397118711581
30
0
41
1
10
8.96939266666666
20
37.0195396666667
30
0
41
1
10
9.30784107882745
20
36.2659449000203
30
0
41
1
10
9.473599
20
35.8876006666667
30
0
41
1
10
9.80858416032889
20
35.132452209085
30
0
41
1
10
9.97260533333333
20
34.7533433333333
30
0
41
1
10
10.138363
20
34.375
30
0
0
SPLINE
5
BE
100
AcDbEntity
8
1
62
256
6
ByLayer
370
18
48
1
60
0
100
AcDbSpline
70
4
71
3
72
16
73
12
40
0
40
0
40
0
40
0
40
0.199999277769206
40
0.199999277769206
40
0.399994781893448
40
0.399994781893448
40
0.599990586802506
40
0.599990586802506
40
0.799990847939748
40
0.799990847939748
40
1
40
1
40
1
40
1
41
1
10
12.061637
20
34.375
30
0
41
1
10
12.2273946666667
20
34.7533433333333
30
0
41
1
10
12.3931523333333
20
35.1316866666667
30
0
41
1
10
12.7246645391025
20
35.8883661946405
30
0
41
1
10
12.893892
20
36.2651713333333
30
0
41
1
10
13.2288742518994
20
37.020313234517
30
0
41
1
10
13.3998316666667
20
37.3963373333333
30
0
41
1
10
13.7382841039236
20
38.1499410623247
30
0
41
1
10
13.9109706666667
20
38.5251843333333
30
0
41
1
10
14.2528929331658
20
39.2772503826767
30
0
41
1
10
14.4273093333333
20
39.651713
30
0
41
1
10
14.6
20
40.026965
30
0
0
SPLINE
5
BF
100
AcDbEntity
8
1
62
256
6
ByLayer
370
18
48
1
60
0
100
AcDbSpline
70
4
71
3
72
16
73
12
40
0
40
0
40
0
40
0
40
0.200000285217343
40
0.200000285217343
40
0.400000254075888
40
0.400000254075888
40
0.600000152820839
40
0.600000152820839
40
0.800000078982999
40
0.800000078982999
40
1
40
1
40
1
40
1
41
1
10
14.6
20
48.342894
30
0
41
1
10
14.4303933333333
20
48.0387836666667
30
0
41
1
10
14.2607866666667
20
47.7346733333333
30
0
41
1
10
13.9215736016158
20
47.1264531477059
30
0
41
1
10
13.7523493333333
20
46.8221303333333
30
0
41
1
10
13.4135187260582
20
46.2136977733152
30
0
41
1
10
13.244486
20
45.9092686666667
30
0
41
1
10
12.9060379768017
20
45.3006232916149
30
0
41
1
10
12.7371953333333
20
44.9960886666667
30
0
41
1
10
12.3991286710152
20
44.387231341165
30
0
41
1
10
12.2304786666667
20
44.08259
30
0
41
1
10
12.061637
20
43.778055
30
0
0
SPLINE
5
C0
100
AcDbEntity
8
1
62
256
6
ByLayer
370
18
48
1
60
0
100
AcDbSpline
70
4
71
3
72
16
73
12
40
0
40
0
40
0
40
0
40
0.199999921016997
40
0.199999921016997
40
0.399999847179152
40
0.399999847179152
40
0.599999745924105
40
0.599999745924105
40
0.799999714782649
40
0.799999714782649
40
1
40
1
40
1
40
1
41
1
10
10.138363
20
43.778055
30
0
41
1
10
9.96952133333333
20
44.08259
30
0
41
1
10
9.80067966666667
20
44.387125
30
0
41
1
10
9.46299632898974
20
44.9961950078344
30
0
41
1
10
9.29377133333333
20
45.3005173333334
30
0
41
1
10
8.95570468983878
20
45.9093746249337
30
0
41
1
10
8.78629
20
46.2135913333333
30
0
41
1
10
8.44784194067546
20
46.8222367733525
30
0
41
1
10
8.27823533333333
20
47.1263466666667
30
0
41
1
10
7.93940439868646
20
47.734779814541
30
0
41
1
10
7.76960666666666
20
48.0387836666667
30
0
41
1
10
7.6
20
48.342894
30
0
0
INSERT
5
C5
100
AcDbEntity
8
6
62
256
6
ByLayer
370
18
48
1
60
0
100
AcDbBlockReference
2
ASSORTED_DRAFT1
10
0
20
0
30
0
41
1
42
1
43
1
50
0
210
0
220
0
230
1
0
INSERT
5
CA
100
AcDbEntity
8
6
62
256
6
ByLayer
370
18
48
1
60
0
100
AcDbBlockReference
2
ASSORTED_DRAFT2
10
0
20
0
30
0
41
1
42
1
43
1
50
0
210
0
220
0
230
1
0
INSERT
5
D0
100
AcDbEntity
8
6
62
256
6
ByLayer
370
18
48
1
60
0
100
AcDbBlockReference
2
ASSORTED_DRAFT3
10
0
20
0
30
0
41
1
42
1
43
1
50
0
210
0
220
0
230
1
0
INSERT
5
D5
100
AcDbEntity
8
6
62
256
6
ByLayer
370
18
48
1
60
0
100
AcDbBlockReference
2
ASSORTED_DRAFT4
10
0
20
0
30
0
41
1
42
1
43
1
50
0
210
0
220
0
230
1
0
INSERT
5
DB
100
AcDbEntity
8
2
62
256
6
ByLayer
370
18
48
1
60
0
100
AcDbBlockReference
2
ASSORTED_DRAFT5
10
0
20
0
30
0
41
1
42
1
43
1
50
0
210
0
220
0
230
1
0
INSERT
5
E0
100
AcDbEntity
8
2
62
256
6
ByLayer
370
18
48
1
60
0
100
AcDbBlockReference
2
ASSORTED_DRAFT6
10
0
20
0
30
0
41
1
42
1
43
1
50
0
210
0
220
0
230
1
0
LINE
5
79
100
AcDbEntity
8
1
62
256
6
ByLayer
370
18
48
1
60
0
100
AcDbLine
10
42
20
52
30
0
11
39.178768
21
36
31
0
39
0
210
0
220
0
230
1
0
LINE
5
7B
100
AcDbEntity
8
1
62
256
6
ByLayer
370
18
48
1
60
0
100
AcDbLine
10
39.178768
20
-36
30
0
11
42
21
-52
31
0
39
0
210
0
220
0
230
1
0
LINE
5
7C
100
AcDbEntity
8
1
62
256
6
ByLayer
370
18
48
1
60
0
100
AcDbLine
10
50
20
52
30
0
11
42
21
52
31
0
39
0
210
0
220
0
230
1
0
LINE
5
7D
100
AcDbEntity
8
1
62
256
6
ByLayer
370
18
48
1
60
0
100
AcDbLine
10
42
20
-52
30
0
11
50
21
-52
31
0
39
0
210
0
220
0
230
1
0
LINE
5
7E
100
AcDbEntity
8
1
62
256
6
ByLayer
370
18
48
1
60
0
100
AcDbLine
10
39.178768
20
36
30
0
11
19.1
21
36
31
0
39
0
210
0
220
0
230
1
0
LINE
5
7F
100
AcDbEntity
8
1
62
256
6
ByLayer
370
18
48
1
60
0
100
AcDbLine
10
19.1
20
-36
30
0
11
39.178768
21
-36
31
0
39
0
210
0
220
0
230
1
0
LINE
5
80
100
AcDbEntity
8
5
62
256
6
ByLayer
370
18
48
1
60
0
100
AcDbLine
10
0
20
34.925
30
0
11
-101.6
21
30
31
0
39
0
210
0
220
0
230
1
0
LINE
5
82
100
AcDbEntity
8
5
62
256
6
ByLayer
370
18
48
1
60
0
100
AcDbLine
10
-101.6
20
-30
30
0
11
0
21
-34.925
31
0
39
0
210
0
220
0
230
1
0
LINE
5
83
100
AcDbEntity
8
1
62
256
6
ByLayer
370
18
48
1
60
0
100
AcDbLine
10
3.2
20
34.925
30
0
11
0
21
34.925
31
0
39
0
210
0
220
0
230
1
0
LINE
5
84
100
AcDbEntity
8
1
62
256
6
ByLayer
370
18
48
1
60
0
100
AcDbLine
10
0
20
-34.925
30
0
11
3.2
21
-34.925
31
0
39
0
210
0
220
0
230
1
0
LINE
5
85
100
AcDbEntity
8
1
62
256
6
ByLayer
370
18
48
1
60
0
100
AcDbLine
10
14.6
20
40.026965
30
0
11
19.1
21
40.026965
31
0
39
0
210
0
220
0
230
1
0
LINE
5
86
100
AcDbEntity
8
1
62
256
6
ByLayer
370
18
48
1
60
0
100
AcDbLine
10
3.2
20
40.026965
30
0
11
7.6
21
40.026965
31
0
39
0
210
0
220
0
230
1
0
LINE
5
87
100
AcDbEntity
8
1
62
256
6
ByLayer
370
18
48
1
60
0
100
AcDbLine
10
10.138363
20
34.375
30
0
11
12.061637
21
34.375
31
0
39
0
210
0
220
0
230
1
0
LINE
5
88
100
AcDbEntity
8
1
62
256
6
ByLayer
370
18
48
1
60
0
100
AcDbLine
10
64.75
20
52.9971
30
0
11
57.75
21
52.9971
31
0
39
0
210
0
220
0
230
1
0
LINE
5
89
100
AcDbEntity
8
1
62
256
6
ByLayer
370
18
48
1
60
0
100
AcDbLine
10
57.75
20
-52.9971
30
0
11
64.75
21
-52.9971
31
0
39
0
210
0
220
0
230
1
0
LINE
5
8A
100
AcDbEntity
8
1
62
256
6
ByLayer
370
18
48
1
60
0
100
AcDbLine
10
57.75
20
52.9971
30
0
11
57
21
52.2471
31
0
39
0
210
0
220
0
230
1
0
LINE
5
8B
100
AcDbEntity
8
1
62
256
6
ByLayer
370
18
48
1
60
0
100
AcDbLine
10
57
20
-52.2471
30
0
11
57.75
21
-52.9971
31
0
39
0
210
0
220
0
230
1
0
LINE
5
8C
100
AcDbEntity
8
1
62
256
6
ByLayer
370
18
48
1
60
0
100
AcDbLine
10
64.75
20
-52.9971
30
0
11
65.5
21
-52.2471
31
0
39
0
210
0
220
0
230
1
0
LINE
5
8D
100
AcDbEntity
8
1
62
256
6
ByLayer
370
18
48
1
60
0
100
AcDbLine
10
65.5
20
52.2471
30
0
11
64.75
21
52.9971
31
0
39
0
210
0
220
0
230
1
0
LINE
5
8E
100
AcDbEntity
8
1
62
256
6
ByLayer
370
18
48
1
60
0
100
AcDbLine
10
72.5
20
52.2471
30
0
11
65.5
21
52.2471
31
0
39
0
210
0
220
0
230
1
0
LINE
5
8F
100
AcDbEntity
8
1
62
256
6
ByLayer
370
18
48
1
60
0
100
AcDbLine
10
65.5
20
-52.2471
30
0
11
72.5
21
-52.2471
31
0
39
0
210
0
220
0
230
1
0
LINE
5
90
100
AcDbEntity
8
1
62
256
6
ByLayer
370
18
48
1
60
0
100
AcDbLine
10
57
20
52.2471
30
0
11
50
21
52.2471
31
0
39
0
210
0
220
0
230
1
0
LINE
5
91
100
AcDbEntity
8
1
62
256
6
ByLayer
370
18
48
1
60
0
100
AcDbLine
10
50
20
-52.2471
30
0
11
57
21
-52.2471
31
0
39
0
210
0
220
0
230
1
0
LINE
5
92
100
AcDbEntity
8
1
62
256
6
ByLayer
370
18
48
1
60
0
100
AcDbLine
10
72.5
20
-52.2471
30
0
11
79.6036
21
-34.665073
31
0
39
0
210
0
220
0
230
1
0
LINE
5
93
100
AcDbEntity
8
1
62
256
6
ByLayer
370
18
48
1
60
0
100
AcDbLine
10
79.6036
20
34.665073
30
0
11
72.5
21
52.2471
31
0
39
0
210
0
220
0
230
1
0
LINE
5
94
100
AcDbEntity
8
1
62
256
6
ByLayer
370
18
48
1
60
0
100
AcDbLine
10
79.6036
20
-34.665073
30
0
11
79.6036
21
34.665073
31
0
39
0
210
0
220
0
230
1
0
LINE
5
95
100
AcDbEntity
8
1
62
256
6
ByLayer
370
18
48
1
60
0
100
AcDbLine
10
72.5
20
-52.2471
30
0
11
72.5
21
52.2471
31
0
39
0
210
0
220
0
230
1
0
LINE
5
96
100
AcDbEntity
8
1
62
256
6
ByLayer
370
18
48
1
60
0
100
AcDbLine
10
65.5
20
-52.2471
30
0
11
65.5
21
52.2471
31
0
39
0
210
0
220
0
230
1
0
LINE
5
97
100
AcDbEntity
8
1
62
256
6
ByLayer
370
18
48
1
60
0
100
AcDbLine
10
57
20
-52.2471
30
0
11
57
21
52.2471
31
0
39
0
210
0
220
0
230
1
0
LINE
5
98
100
AcDbEntity
8
1
62
256
6
ByLayer
370
18
48
1
60
0
100
AcDbLine
10
57.75
20
-52.9971
30
0
11
57.75
21
52.9971
31
0
39
0
210
0
220
0
230
1
0
LINE
5
99
100
AcDbEntity
8
1
62
256
6
ByLayer
370
18
48
1
60
0
100
AcDbLine
10
64.75
20
-52.9971
30
0
11
64.75
21
52.9971
31
0
39
0
210
0
220
0
230
1
0
LINE
5
9A
100
AcDbEntity
8
1
62
256
6
ByLayer
370
18
48
1
60
0
100
AcDbLine
10
12.061637
20
-43.778055
30
0
11
12.061637
21
30
31
0
39
0
210
0
220
0
230
1
0
LINE
5
9B
100
AcDbEntity
8
1
62
256
6
ByLayer
370
18
48
1
60
0
100
AcDbLine
10
7.6
20
-48.342894
30
0
11
7.6
21
30
31
0
39
0
210
0
220
0
230
1
0
LINE
5
9C
100
AcDbEntity
8
1
62
256
6
ByLayer
370
18
48
1
60
0
100
AcDbLine
10
10.138363
20
-43.778055
30
0
11
10.138363
21
30
31
0
39
0
210
0
220
0
230
1
0
LINE
5
9D
100
AcDbEntity
8
1
62
256
6
ByLayer
370
18
48
1
60
0
100
AcDbLine
10
19.1
20
-48.342894
30
0
11
19.1
21
48.342894
31
0
39
0
210
0
220
0
230
1
0
LINE
5
9E
100
AcDbEntity
8
1
62
256
6
ByLayer
370
18
48
1
60
0
100
AcDbLine
10
14.6
20
-48.342894
30
0
11
14.6
21
30
31
0
39
0
210
0
220
0
230
1
0
LINE
5
9F
100
AcDbEntity
8
1
62
256
6
ByLayer
370
18
48
1
60
0
100
AcDbLine
10
3.2
20
-48.342894
30
0
11
3.2
21
48.342894
31
0
39
0
210
0
220
0
230
1
0
LINE
5
A0
100
AcDbEntity
8
5
62
256
6
ByLayer
370
18
48
1
60
0
100
AcDbLine
10
-101.6
20
-30
30
0
11
-101.6
21
30
31
0
39
0
210
0
220
0
230
1
0
LINE
5
A1
100
AcDbEntity
8
5
62
256
6
ByLayer
370
18
48
1
60
0
100
AcDbLine
10
0
20
-34.925
30
0
11
0
21
34.925
31
0
39
0
210
0
220
0
230
1
0
LINE
5
A2
100
AcDbEntity
8
1
62
256
6
ByLayer
370
18
48
1
60
0
100
AcDbLine
10
39.178768
20
-36
30
0
11
39.178768
21
36
31
0
39
0
210
0
220
0
230
1
0
LINE
5
A3
100
AcDbEntity
8
1
62
256
6
ByLayer
370
18
48
1
60
0
100
AcDbLine
10
42
20
-52
30
0
11
42
21
52
31
0
39
0
210
0
220
0
230
1
0
LINE
5
A4
100
AcDbEntity
8
1
62
256
6
ByLayer
370
18
48
1
60
0
100
AcDbLine
10
50
20
-52.2471
30
0
11
50
21
52.2471
31
0
39
0
210
0
220
0
230
1
0
LINE
5
A5
100
AcDbEntity
8
1
62
256
6
ByLayer
370
18
48
1
60
0
100
AcDbLine
10
12.061637
20
-43.778055
30
0
11
10.138363
21
-43.778055
31
0
39
0
210
0
220
0
230
1
0
LINE
5
A6
100
AcDbEntity
8
1
62
256
6
ByLayer
370
18
48
1
60
0
100
AcDbLine
10
19.1
20
-48.342894
30
0
11
14.6
21
-48.342894
31
0
39
0
210
0
220
0
230
1
0
LINE
5
A7
100
AcDbEntity
8
1
62
256
6
ByLayer
370
18
48
1
60
0
100
AcDbLine
10
7.6
20
-48.342894
30
0
11
3.2
21
-48.342894
31
0
39
0
210
0
220
0
230
1
0
LINE
5
A8
100
AcDbEntity
8
1
62
256
6
ByLayer
370
18
48
1
60
0
100
AcDbLine
10
19.1
20
30
30
0
11
3.2
21
30
31
0
39
0
210
0
220
0
230
1
0
LINE
5
A9
100
AcDbEntity
8
1
62
256
6
ByLayer
370
18
48
1
60
0
100
AcDbLine
10
12.061637
20
43.778055
30
0
11
10.138363
21
43.778055
31
0
39
0
210
0
220
0
230
1
0
LINE
5
AA
100
AcDbEntity
8
1
62
256
6
ByLayer
370
18
48
1
60
0
100
AcDbLine
10
7.6
20
48.342894
30
0
11
3.2
21
48.342894
31
0
39
0
210
0
220
0
230
1
0
LINE
5
AB
100
AcDbEntity
8
1
62
256
6
ByLayer
370
18
48
1
60
0
100
AcDbLine
10
19.1
20
48.342894
30
0
11
14.6
21
48.342894
31
0
39
0
210
0
220
0
230
1
0
LINE
5
AC
100
AcDbEntity
8
1
62
256
6
ByLayer
370
18
48
1
60
0
100
AcDbLine
10
14.6
20
40.026965
30
0
11
14.6
21
48.342894
31
0
39
0
210
0
220
0
230
1
0
LINE
5
AD
100
AcDbEntity
8
1
62
256
6
ByLayer
370
18
48
1
60
0
100
AcDbLine
10
7.6
20
40.026965
30
0
11
7.6
21
48.342894
31
0
39
0
210
0
220
0
230
1
0
LINE
5
AE
100
AcDbEntity
8
1
62
256
6
ByLayer
370
18
48
1
60
0
100
AcDbLine
10
12.061637
20
34.375
30
0
11
12.061637
21
43.778055
31
0
39
0
210
0
220
0
230
1
0
LINE
5
AF
100
AcDbEntity
8
1
62
256
6
ByLayer
370
18
48
1
60
0
100
AcDbLine
10
10.138363
20
34.375
30
0
11
10.138363
21
43.778055
31
0
39
0
210
0
220
0
230
1
0
LINE
5
B0
100
AcDbEntity
8
80
62
256
6
ByLayer
370
18
48
0.05
60
0
100
AcDbLine
10
0
20
0
30
0
11
-114.524482
21
0
31
0
39
0
210
0
220
0
230
1
0
LINE
5
B1
100
AcDbEntity
8
81
62
256
6
ByLayer
370
18
48
0.05
60
0
100
AcDbLine
10
0
20
0
30
0
11
92.656508
21
0
31
0
39
0
210
0
220
0
230
1
0
LINE
5
B2
100
AcDbEntity
8
6
62
256
6
ByLayer
370
18
48
1
60
0
100
AcDbLine
10
69.25
20
-52.9971
30
0
11
117.267277
21
-52.9971
31
0
39
0
210
0
220
0
230
1
0
LINE
5
B3
100
AcDbEntity
8
6
62
256
6
ByLayer
370
18
48
1
60
0
100
AcDbLine
10
69.25
20
52.9971
30
0
11
117.267277
21
52.9971
31
0
39
0
210
0
220
0
230
1
0
LINE
5
B4
100
AcDbEntity
8
6
62
256
6
ByLayer
370
18
48
1
60
0
100
AcDbLine
10
114.767277
20
-49.9971
30
0
11
114.767277
21
49.9971
31
0
39
0
210
0
220
0
230
1
0
LINE
5
B5
100
AcDbEntity
8
6
62
256
6
ByLayer
370
18
48
1
60
0
100
AcDbLine
10
55
20
42
30
0
11
55
21
72.330549
31
0
39
0
210
0
220
0
230
1
0
LINE
5
B6
100
AcDbEntity
8
6
62
256
6
ByLayer
370
18
48
1
60
0
100
AcDbLine
10
0
20
39.425
30
0
11
0
21
72.330549
31
0
39
0
210
0
220
0
230
1
0
LINE
5
B7
100
AcDbEntity
8
6
62
256
6
ByLayer
370
18
48
1
60
0
100
AcDbLine
10
52
20
69.830549
30
0
11
3
21
69.830549
31
0
39
0
210
0
220
0
230
1
0
LINE
5
B8
100
AcDbEntity
8
2
62
256
6
ByLayer
370
18
48
1
60
0
100
AcDbLine
10
0
20
39.425
30
0
11
0
21
86.965017
31
0
39
0
210
0
220
0
230
1
0
LINE
5
B9
100
AcDbEntity
8
2
62
256
6
ByLayer
370
18
48
1
60
0
100
AcDbLine
10
79.6036
20
39.165073
30
0
11
79.6036
21
86.965017
31
0
39
0
210
0
220
0
230
1
0
LINE
5
BA
100
AcDbEntity
8
2
62
256
6
ByLayer
370
18
48
1
60
0
100
AcDbLine
10
3
20
84.465017
30
0
11
76.6036
21
84.465017
31
0
39
0
210
0
220
0
230
1
0
MTEXT
5
C1
100
AcDbEntity
8
6
62
256
6
ByLayer
370
13
48
1
60
0
100
AcDbMText
10
112.346471
20
-13.025688
30
0
210
0
220
0
230
1
1
\fArial|b0|i0;\W1.1034;{\W1.0000;%%c} 106
40
3
41
0
44
1
50
89.9999999999999
71
7
72
5
7
Arial
0
MTEXT
5
CD
100
AcDbEntity
8
6
62
256
6
ByLayer
370
13
48
1
60
0
100
AcDbMText
10
20.591054
20
70.851453
30
0
210
0
220
0
230
1
1
\fArial|b0|i0;\W0.9234;55 
40
3
41
0
44
1
50
0
71
7
72
5
7
Arial
0
MTEXT
5
D8
100
AcDbEntity
8
2
62
256
6
ByLayer
370
13
48
1
60
0
100
AcDbMText
10
34.29868
20
85.507088
30
0
210
0
220
0
230
1
1
\fArial|b0|i0;\W1.0473;80
40
3
41
0
44
1
50
0
71
7
72
5
7
Arial
0
MTEXT
5
E3
100
AcDbEntity
8
SK6
62
256
6
ByLayer
370
13
48
1
60
0
100
AcDbMText
10
-62.578587
20
-75.442737
30
0
210
0
220
0
230
1
1
\fArial|b0|i0;\W1.2773;392B.140277-50 02 055
40
5
41
0
44
1.047437
50
0
71
7
72
5
7
Arial
0
ENDSEC
0
SECTION
2
OBJECTS
0
DICTIONARY
5
14f
330
0
100
AcDbDictionary
280
0
281
1
3
ACAD_GROUP
350
150
3
ACAD_MLINESTYLE
350
151
0
DICTIONARY
5
150
330
0
100
AcDbDictionary
280
0
281
1
0
DICTIONARY
5
151
330
0
100
AcDbDictionary
280
0
281
1
3
Standard
350
18
0
MLINESTYLE
5
18
330
151
100
AcDbMlineStyle
2
Standard
70
0
3

62
256
51
90
52
90
71
2
49
-0.5
62
256
6
ByLayer
49
0.5
62
256
6
ByLayer
0
RASTERVARIABLES
5
140
330

100
AcDbRasterVariables
90
0
70
1
71
1
72
1
0
ENDSEC
0
EOF
