  0
SECTION
  2
HEADER
  9
$ACADVER
  1
AC1018
  9
$ACADMAINTVER
 70
     0
  9
$DWGCODEPAGE
  3
ANSI_1252
  9
$INSBASE
 10
0.0
 20
0.0
 30
0.0
  9
$EXTMIN
 10
-0.5
 20
-0.5
 30
-0.5
  9
$EXTMAX
 10
5.0
 20
5.0
 30
5.0
  9
$LIMMIN
 10
-0.5
 20
-0.5
  9
$LIMMAX
 10
5.0
 20
5.0
  9
$ORTHOMODE
 70
     0
  9
$REGENMODE
 70
     1
  9
$FILLMODE
 70
     1
  9
$QTEXTMODE
 70
     0
  9
$MIRRTEXT
 70
     1
  9
$LTSCALE
 40
1.0
  9
$ATTMODE
 70
     1
  9
$TEXTSIZE
 40
0.2
  9
$TRACEWID
 40
0.05
  9
$TEXTSTYLE
  7
Standard
  9
$CLAYER
  8
0
  9
$CELTYPE
  6
ByLayer
  9
$CECOLOR
 62
   256
  9
$CELTSCALE
 40
1.0
  9
$DISPSILH
 70
     0
  9
$DIMSCALE
 40
1.0
  9
$DIMASZ
 40
0.18
  9
$DIMEXO
 40
0.0625
  9
$DIMDLI
 40
0.38
  9
$DIMRND
 40
0.0
  9
$DIMDLE
 40
0.0
  9
$DIMEXE
 40
0.18
  9
$DIMTP
 40
0.0
  9
$DIMTM
 40
0.0
  9
$DIMTXT
 40
0.18
  9
$DIMCEN
 40
0.09
  9
$DIMTSZ
 40
0.0
  9
$DIMTOL
 70
     0
  9
$DIMLIM
 70
     0
  9
$DIMTIH
 70
     1
  9
$DIMTOH
 70
     1
  9
$DIMSE1
 70
     0
  9
$DIMSE2
 70
     0
  9
$DIMTAD
 70
     0
  9
$DIMZIN
 70
     0
  9
$DIMBLK
  1

  9
$DIMASO
 70
     1
  9
$DIMSHO
 70
     1
  9
$DIMPOST
  1

  9
$DIMAPOST
  1

  9
$DIMALT
 70
     0
  9
$DIMALTD
 70
     2
  9
$DIMALTF
 40
25.4
  9
$DIMLFAC
 40
1.0
  9
$DIMTOFL
 70
     0
  9
$DIMTVP
 40
0.0
  9
$DIMTIX
 70
     0
  9
$DIMSOXD
 70
     0
  9
$DIMSAH
 70
     0
  9
$DIMBLK1
  1

  9
$DIMBLK2
  1

  9
$DIMSTYLE
  2
Standard
  9
$DIMCLRD
 70
     0
  9
$DIMCLRE
 70
     0
  9
$DIMCLRT
 70
     0
  9
$DIMTFAC
 40
1.0
  9
$DIMGAP
 40
0.09
  9
$DIMJUST
 70
     0
  9
$DIMSD1
 70
     0
  9
$DIMSD2
 70
     0
  9
$DIMTOLJ
 70
     1
  9
$DIMTZIN
 70
     0
  9
$DIMALTZ
 70
     0
  9
$DIMALTTZ
 70
     0
  9
$DIMUPT
 70
     0
  9
$DIMDEC
 70
     4
  9
$DIMTDEC
 70
     4
  9
$DIMALTU
 70
     2
  9
$DIMALTTD
 70
     2
  9
$DIMTXSTY
  7
Standard
  9
$DIMAUNIT
 70
     0
  9
$DIMADEC
 70
     0
  9
$DIMALTRND
 40
0.0
  9
$DIMAZIN
 70
     0
  9
$DIMDSEP
 70
    46
  9
$DIMATFIT
 70
     3
  9
$DIMFRAC
 70
     0
  9
$DIMLDRBLK
  1

  9
$DIMLUNIT
 70
     2
  9
$DIMLWD
 70
    -2
  9
$DIMLWE
 70
    -2
  9
$DIMTMOVE
 70
     0
  9
$LUNITS
 70
     2
  9
$LUPREC
 70
     4
  9
$SKETCHINC
 40
0.1
  9
$FILLETRAD
 40
0.5
  9
$AUNITS
 70
     0
  9
$AUPREC
 70
     0
  9
$MENU
  1
.
  9
$ELEVATION
 40
0.0
  9
$PELEVATION
 40
0.0
  9
$THICKNESS
 40
0.0
  9
$LIMCHECK
 70
     0
  9
$CHAMFERA
 40
0.0
  9
$CHAMFERB
 40
0.0
  9
$CHAMFERC
 40
0.0
  9
$CHAMFERD
 40
0.0
  9
$SKPOLY
 70
     0
  9
$TDCREATE
 40
2458159.577818495
  9
$TDUCREATE
 40
2458159.536151829
  9
$TDUPDATE
 40
2458159.577821852
  9
$TDUUPDATE
 40
2458159.536155185
  9
$TDINDWG
 40
0.0000000116
  9
$TDUSRTIMER
 40
0.0000000116
  9
$USRTIMER
 70
     1
  9
$ANGBASE
 50
0.0
  9
$ANGDIR
 70
     0
  9
$PDMODE
 70
     0
  9
$PDSIZE
 40
0.0
  9
$PLINEWID
 40
0.0
  9
$SPLFRAME
 70
     0
  9
$SPLINETYPE
 70
     6
  9
$SPLINESEGS
 70
     8
  9
$HANDSEED
  5
313
  9
$SURFTAB1
 70
     6
  9
$SURFTAB2
 70
     6
  9
$SURFTYPE
 70
     6
  9
$SURFU
 70
     6
  9
$SURFV
 70
     6
  9
$UCSBASE
  2

  9
$UCSNAME
  2

  9
$UCSORG
 10
0.0
 20
0.0
 30
0.0
  9
$UCSXDIR
 10
1.0
 20
0.0
 30
0.0
  9
$UCSYDIR
 10
0.0
 20
1.0
 30
0.0
  9
$UCSORTHOREF
  2

  9
$UCSORTHOVIEW
 70
     0
  9
$UCSORGTOP
 10
0.0
 20
0.0
 30
0.0
  9
$UCSORGBOTTOM
 10
0.0
 20
0.0
 30
0.0
  9
$UCSORGLEFT
 10
0.0
 20
0.0
 30
0.0
  9
$UCSORGRIGHT
 10
0.0
 20
0.0
 30
0.0
  9
$UCSORGFRONT
 10
0.0
 20
0.0
 30
0.0
  9
$UCSORGBACK
 10
0.0
 20
0.0
 30
0.0
  9
$PUCSBASE
  2

  9
$PUCSNAME
  2

  9
$PUCSORG
 10
0.0
 20
0.0
 30
0.0
  9
$PUCSXDIR
 10
1.0
 20
0.0
 30
0.0
  9
$PUCSYDIR
 10
0.0
 20
1.0
 30
0.0
  9
$PUCSORTHOREF
  2

  9
$PUCSORTHOVIEW
 70
     0
  9
$PUCSORGTOP
 10
0.0
 20
0.0
 30
0.0
  9
$PUCSORGBOTTOM
 10
0.0
 20
0.0
 30
0.0
  9
$PUCSORGLEFT
 10
0.0
 20
0.0
 30
0.0
  9
$PUCSORGRIGHT
 10
0.0
 20
0.0
 30
0.0
  9
$PUCSORGFRONT
 10
0.0
 20
0.0
 30
0.0
  9
$PUCSORGBACK
 10
0.0
 20
0.0
 30
0.0
  9
$USERI1
 70
     0
  9
$USERI2
 70
     0
  9
$USERI3
 70
     0
  9
$USERI4
 70
     0
  9
$USERI5
 70
     0
  9
$USERR1
 40
0.0
  9
$USERR2
 40
0.0
  9
$USERR3
 40
0.0
  9
$USERR4
 40
0.0
  9
$USERR5
 40
0.0
  9
$WORLDVIEW
 70
     1
  9
$SHADEDGE
 70
     3
  9
$SHADEDIF
 70
    70
  9
$TILEMODE
 70
     1
  9
$MAXACTVP
 70
    64
  9
$PINSBASE
 10
0.0
 20
0.0
 30
0.0
  9
$PLIMCHECK
 70
     0
  9
$PEXTMIN
 10
0.0
 20
0.0
 30
0.0
  9
$PEXTMAX
 10
360.579931
 20
215.693633
 30
0.0
  9
$PLIMMIN
 10
0.0
 20
0.0
  9
$PLIMMAX
 10
360.579931
 20
215.693633
  9
$UNITMODE
 70
     0
  9
$VISRETAIN
 70
     1
  9
$PLINEGEN
 70
     0
  9
$PSLTSCALE
 70
     1
  9
$TREEDEPTH
 70
  3020
  9
$CMLSTYLE
  2
Standard
  9
$CMLJUST
 70
     0
  9
$CMLSCALE
 40
1.0
  9
$PROXYGRAPHICS
 70
     1
  9
$MEASUREMENT
 70
     1
  9
$CELWEIGHT
370
    18
  9
$ENDCAPS
280
     0
  9
$JOINSTYLE
280
     0
  9
$LWDISPLAY
290
     0
  9
$INSUNITS
 70
     4
  9
$HYPERLINKBASE
  1

  9
$STYLESHEET
  1

  9
$XEDIT
290
     1
  9
$CEPSNTYPE
380
     0
  9
$PSTYLEMODE
290
     1
  9
$FINGERPRINTGUID
  2
{345C0B40-F901-4DCF-8E2A-FCB7E31A9610}
  9
$VERSIONGUID
  2
{FAEB1C32-E019-11D5-929B-00C0DF256EC4}
  9
$EXTNAMES
290
     1
  9
$PSVPSCALE
 40
0.0
  9
$OLESTARTUP
290
     0
  9
$SORTENTS
280
   127
  9
$INDEXCTL
280
     0
  9
$HIDETEXT
280
     1
  9
$XCLIPFRAME
290
     0
  9
$HALOGAP
280
     0
  9
$OBSCOLOR
 70
   257
  9
$OBSLTYPE
280
     0
  9
$INTERSECTIONDISPLAY
280
     0
  9
$INTERSECTIONCOLOR
 70
   257
  9
$DIMASSOC
280
     2
  9
$PROJECTNAME
  1

  0
ENDSEC
  0
SECTION
  2
CLASSES
  0
CLASS
  1
ACDBDICTIONARYWDFLT
  2
AcDbDictionaryWithDefault
  3
ObjectDBX Classes
 90
        0
 91
        4
280
     0
281
     0
  0
CLASS
  1
VISUALSTYLE
  2
AcDbVisualStyle
  3
ObjectDBX Classes
 90
     4095
 91
        4
280
     0
281
     0
  0
CLASS
  1
MATERIAL
  2
AcDbMaterial
  3
ObjectDBX Classes
 90
     1153
 91
        4
280
     0
281
     0
  0
CLASS
  1
SCALE
  2
AcDbScale
  3
ObjectDBX Classes
 90
     1153
 91
        4
280
     0
281
     0
  0
CLASS
  1
SUN
  2
AcDbSun
  3
SCENEOE
 90
     1153
 91
        4
280
     0
281
     0
  0
CLASS
  1
DICTIONARYVAR
  2
AcDbDictionaryVar
  3
ObjectDBX Classes
 90
        0
 91
        4
280
     0
281
     0
  0
ENDSEC
  0
SECTION
  2
TABLES
  0
TABLE
  2
VPORT
  5
8
330
0
100
AcDbSymbolTable
 70
    18
  0
VPORT
  5
29
330
8
100
AcDbSymbolTableRecord
100
AcDbViewportTableRecord
  2
DUMMY
 70
     0
 10
0.0
 20
0.0
 11
1.0
 21
1.0
 12
10.429907
 22
4.5
 13
0.0
 23
0.0
 14
0.5
 24
0.5
 15
0.5
 25
0.5
 16
0.0
 26
0.0
 36
1.0
 17
0.0
 27
0.0
 37
0.0
 40
9.0
 41
1.972973
 42
50.0
 43
0.0
 44
0.0
 50
0.0
 51
0.0
 71
     0
 72
   100
 73
     1
 74
     3
 75
     0
 76
     0
 77
     0
 78
     0
281
     0
 65
     1
110
0.0
120
0.0
130
0.0
111
1.0
121
0.0
131
0.0
112
0.0
122
1.0
132
0.0
 79
     0
146
0.0
  0
VPORT
  5
2C4
330
8
100
AcDbSymbolTableRecord
100
AcDbViewportTableRecord
  2
*ACTIVE
 70
     0
 10
0.0
 20
0.0
 11
1.0
 21
1.0
 12
33.740192
 22
-4.985012
 13
0.0
 23
0.0
 14
0.5
 24
0.5
 15
0.5
 25
0.5
 16
0.7188730927569434
 26
-0.5850486126764431
 36
0.3754192287502549
 17
0.0
 27
0.0
 37
0.0
 40
736.918381
 41
0.024096
 42
50.0
 43
222.317178
 44
-222.317178
 50
0.0
 51
0.0
 71
     0
 72
   100
 73
     1
 74
     3
 75
     0
 76
     0
 77
     0
 78
     0
281
     0
 65
     1
110
0.0
120
0.0
130
0.0
111
1.0
121
0.0
131
0.0
112
0.0
122
1.0
132
0.0
 79
     0
146
0.0
  0
VPORT
  5
2C6
330
8
100
AcDbSymbolTableRecord
100
AcDbViewportTableRecord
  2
L1
 70
     0
 10
0.0
 20
0.0
 11
1.0
 21
1.0
 12
33.740192
 22
-4.985012
 13
0.0
 23
0.0
 14
0.5
 24
0.5
 15
0.5
 25
0.5
 16
0.7188730927569434
 26
-0.5850486126764431
 36
0.3754192287502549
 17
0.0
 27
0.0
 37
0.0
 40
736.918381
 41
0.024096
 42
50.0
 43
222.317178
 44
-222.317178
 50
0.0
 51
0.0
 71
     0
 72
   100
 73
     1
 74
     3
 75
     0
 76
     0
 77
     0
 78
     0
281
     0
 65
     1
110
0.0
120
0.0
130
0.0
111
1.0
121
0.0
131
0.0
112
0.0
122
1.0
132
0.0
 79
     0
146
0.0
  0
VPORT
  5
2C7
330
8
100
AcDbSymbolTableRecord
100
AcDbViewportTableRecord
  2
L2
 70
     0
 10
0.0
 20
0.0
 11
0.5
 21
1.0
 12
0.0
 22
0.0
 13
0.0
 23
0.0
 14
0.5
 24
0.5
 15
0.5
 25
0.5
 16
0.0
 26
-1.0
 36
0.0
 17
0.0
 27
0.0
 37
0.0
 40
709.544593
 41
0.025026
 42
50.0
 43
370.346108
 44
-370.346108
 50
0.0
 51
0.0
 71
     0
 72
   100
 73
     1
 74
     3
 75
     0
 76
     0
 77
     0
 78
     0
281
     0
 65
     1
110
0.0
120
0.0
130
0.0
111
1.0
121
0.0
131
0.0
112
0.0
122
1.0
132
0.0
 79
     0
146
0.0
  0
VPORT
  5
2C8
330
8
100
AcDbSymbolTableRecord
100
AcDbViewportTableRecord
  2
L2
 70
     0
 10
0.5
 20
0.0
 11
1.0
 21
1.0
 12
0.0
 22
0.0
 13
0.0
 23
0.0
 14
0.5
 24
0.5
 15
0.5
 25
0.5
 16
1.0
 26
0.0
 36
0.0
 17
0.0
 27
0.0
 37
0.0
 40
709.544593
 41
0.025026
 42
50.0
 43
356.664217
 44
-356.664217
 50
0.0
 51
0.0
 71
     0
 72
   100
 73
     1
 74
     3
 75
     0
 76
     0
 77
     0
 78
     0
281
     0
 65
     1
110
0.0
120
0.0
130
0.0
111
1.0
121
0.0
131
0.0
112
0.0
122
1.0
132
0.0
 79
     0
146
0.0
  0
VPORT
  5
2C9
330
8
100
AcDbSymbolTableRecord
100
AcDbViewportTableRecord
  2
L3
 70
     0
 10
0.0
 20
0.5
 11
1.0
 21
1.0
 12
0.0
 22
0.0
 13
0.0
 23
0.0
 14
0.5
 24
0.5
 15
0.5
 25
0.5
 16
0.0
 26
0.0
 36
1.0
 17
0.0
 27
0.0
 37
0.0
 40
73.375238
 41
0.241999
 42
50.0
 43
354.772296
 44
-354.772296
 50
0.0
 51
0.0
 71
     0
 72
   100
 73
     1
 74
     3
 75
     0
 76
     0
 77
     0
 78
     0
281
     0
 65
     1
110
0.0
120
0.0
130
0.0
111
1.0
121
0.0
131
0.0
112
0.0
122
1.0
132
0.0
 79
     0
146
0.0
  0
VPORT
  5
2CA
330
8
100
AcDbSymbolTableRecord
100
AcDbViewportTableRecord
  2
L3
 70
     0
 10
0.0
 20
0.0
 11
1.0
 21
0.5
 12
0.0
 22
0.0
 13
0.0
 23
0.0
 14
0.5
 24
0.5
 15
0.5
 25
0.5
 16
0.0
 26
-1.0
 36
0.0
 17
0.0
 27
0.0
 37
0.0
 40
709.544593
 41
0.025026
 42
50.0
 43
370.346108
 44
-370.346108
 50
0.0
 51
0.0
 71
     0
 72
   100
 73
     1
 74
     3
 75
     0
 76
     0
 77
     0
 78
     0
281
     0
 65
     1
110
0.0
120
0.0
130
0.0
111
1.0
121
0.0
131
0.0
112
0.0
122
1.0
132
0.0
 79
     0
146
0.0
  0
VPORT
  5
2CB
330
8
100
AcDbSymbolTableRecord
100
AcDbViewportTableRecord
  2
L4
 70
     0
 10
0.0
 20
0.5
 11
0.5
 21
1.0
 12
0.0
 22
0.0
 13
0.0
 23
0.0
 14
0.5
 24
0.5
 15
0.5
 25
0.5
 16
0.0
 26
0.0
 36
1.0
 17
0.0
 27
0.0
 37
0.0
 40
73.375238
 41
0.241999
 42
50.0
 43
354.772296
 44
-354.772296
 50
0.0
 51
0.0
 71
     0
 72
   100
 73
     1
 74
     3
 75
     0
 76
     0
 77
     0
 78
     0
281
     0
 65
     1
110
0.0
120
0.0
130
0.0
111
1.0
121
0.0
131
0.0
112
0.0
122
1.0
132
0.0
 79
     0
146
0.0
  0
VPORT
  5
2CC
330
8
100
AcDbSymbolTableRecord
100
AcDbViewportTableRecord
  2
L4
 70
     0
 10
0.0
 20
0.0
 11
0.5
 21
0.5
 12
0.0
 22
0.0
 13
0.0
 23
0.0
 14
0.5
 24
0.5
 15
0.5
 25
0.5
 16
0.0
 26
-1.0
 36
0.0
 17
0.0
 27
0.0
 37
0.0
 40
709.544593
 41
0.025026
 42
50.0
 43
370.346108
 44
-370.346108
 50
0.0
 51
0.0
 71
     0
 72
   100
 73
     1
 74
     3
 75
     0
 76
     0
 77
     0
 78
     0
281
     0
 65
     1
110
0.0
120
0.0
130
0.0
111
1.0
121
0.0
131
0.0
112
0.0
122
1.0
132
0.0
 79
     0
146
0.0
  0
VPORT
  5
2CD
330
8
100
AcDbSymbolTableRecord
100
AcDbViewportTableRecord
  2
L4
 70
     0
 10
0.5
 20
0.0
 11
1.0
 21
0.5
 12
0.0
 22
0.0
 13
0.0
 23
0.0
 14
0.5
 24
0.5
 15
0.5
 25
0.5
 16
1.0
 26
0.0
 36
0.0
 17
0.0
 27
0.0
 37
0.0
 40
709.544593
 41
0.025026
 42
50.0
 43
356.664217
 44
-356.664217
 50
0.0
 51
0.0
 71
     0
 72
   100
 73
     1
 74
     3
 75
     0
 76
     0
 77
     0
 78
     0
281
     0
 65
     1
110
0.0
120
0.0
130
0.0
111
1.0
121
0.0
131
0.0
112
0.0
122
1.0
132
0.0
 79
     0
146
0.0
  0
VPORT
  5
2CE
330
8
100
AcDbSymbolTableRecord
100
AcDbViewportTableRecord
  2
L4
 70
     0
 10
0.5
 20
0.5
 11
1.0
 21
1.0
 12
0.0
 22
0.0
 13
0.0
 23
0.0
 14
0.5
 24
0.5
 15
0.5
 25
0.5
 16
0.5773502691896258
 26
-0.5773502691896258
 36
0.5773502691896258
 17
0.0
 27
0.0
 37
0.0
 40
696.063391
 41
0.02551
 42
50.0
 43
362.414397
 44
-362.414397
 50
0.0
 51
0.0
 71
     0
 72
   100
 73
     1
 74
     3
 75
     0
 76
     0
 77
     0
 78
     0
281
     0
 65
     1
110
0.0
120
0.0
130
0.0
111
1.0
121
0.0
131
0.0
112
0.0
122
1.0
132
0.0
 79
     0
146
0.0
  0
VPORT
  5
2CF
330
8
100
AcDbSymbolTableRecord
100
AcDbViewportTableRecord
  2
L6
 70
     0
 10
0.0
 20
0.5
 11
0.333333
 21
1.0
 12
33.740192
 22
-4.985012
 13
0.0
 23
0.0
 14
0.5
 24
0.5
 15
0.5
 25
0.5
 16
0.7188730927569434
 26
-0.5850486126764431
 36
0.3754192287502549
 17
0.0
 27
0.0
 37
0.0
 40
736.918381
 41
0.024096
 42
50.0
 43
222.317178
 44
-222.317178
 50
0.0
 51
0.0
 71
     0
 72
   100
 73
     1
 74
     3
 75
     0
 76
     0
 77
     0
 78
     0
281
     0
 65
     1
110
0.0
120
0.0
130
0.0
111
1.0
121
0.0
131
0.0
112
0.0
122
1.0
132
0.0
 79
     0
146
0.0
  0
VPORT
  5
2D0
330
8
100
AcDbSymbolTableRecord
100
AcDbViewportTableRecord
  2
L6
 70
     0
 10
0.0
 20
0.0
 11
0.333333
 21
0.5
 12
0.0
 22
0.0
 13
0.0
 23
0.0
 14
0.5
 24
0.5
 15
0.5
 25
0.5
 16
-1.0
 26
0.0
 36
0.0
 17
0.0
 27
0.0
 37
0.0
 40
709.544593
 41
0.025026
 42
50.0
 43
356.664217
 44
-356.664217
 50
0.0
 51
0.0
 71
     0
 72
   100
 73
     1
 74
     3
 75
     0
 76
     0
 77
     0
 78
     0
281
     0
 65
     1
110
0.0
120
0.0
130
0.0
111
1.0
121
0.0
131
0.0
112
0.0
122
1.0
132
0.0
 79
     0
146
0.0
  0
VPORT
  5
2D1
330
8
100
AcDbSymbolTableRecord
100
AcDbViewportTableRecord
  2
L6
 70
     0
 10
0.333333
 20
0.5
 11
0.666667
 21
1.0
 12
0.0
 22
0.0
 13
0.0
 23
0.0
 14
0.5
 24
0.5
 15
0.5
 25
0.5
 16
0.0
 26
0.0
 36
1.0
 17
0.0
 27
0.0
 37
0.0
 40
73.375238
 41
0.241999
 42
50.0
 43
354.772296
 44
-354.772296
 50
0.0
 51
0.0
 71
     0
 72
   100
 73
     1
 74
     3
 75
     0
 76
     0
 77
     0
 78
     0
281
     0
 65
     1
110
0.0
120
0.0
130
0.0
111
1.0
121
0.0
131
0.0
112
0.0
122
1.0
132
0.0
 79
     0
146
0.0
  0
VPORT
  5
2D2
330
8
100
AcDbSymbolTableRecord
100
AcDbViewportTableRecord
  2
L6
 70
     0
 10
0.333333
 20
0.0
 11
0.666667
 21
0.5
 12
0.0
 22
0.0
 13
0.0
 23
0.0
 14
0.5
 24
0.5
 15
0.5
 25
0.5
 16
0.0
 26
-1.0
 36
0.0
 17
0.0
 27
0.0
 37
0.0
 40
709.544593
 41
0.025026
 42
50.0
 43
370.346108
 44
-370.346108
 50
0.0
 51
0.0
 71
     0
 72
   100
 73
     1
 74
     3
 75
     0
 76
     0
 77
     0
 78
     0
281
     0
 65
     1
110
0.0
120
0.0
130
0.0
111
1.0
121
0.0
131
0.0
112
0.0
122
1.0
132
0.0
 79
     0
146
0.0
  0
VPORT
  5
2D3
330
8
100
AcDbSymbolTableRecord
100
AcDbViewportTableRecord
  2
L6
 70
     0
 10
0.666667
 20
0.5
 11
1.0
 21
1.0
 12
0.0
 22
0.0
 13
0.0
 23
0.0
 14
0.5
 24
0.5
 15
0.5
 25
0.5
 16
0.5773502691896258
 26
-0.5773502691896258
 36
0.5773502691896258
 17
0.0
 27
0.0
 37
0.0
 40
696.063391
 41
0.02551
 42
50.0
 43
362.414397
 44
-362.414397
 50
0.0
 51
0.0
 71
     0
 72
   100
 73
     1
 74
     3
 75
     0
 76
     0
 77
     0
 78
     0
281
     0
 65
     1
110
0.0
120
0.0
130
0.0
111
1.0
121
0.0
131
0.0
112
0.0
122
1.0
132
0.0
 79
     0
146
0.0
  0
VPORT
  5
2D4
330
8
100
AcDbSymbolTableRecord
100
AcDbViewportTableRecord
  2
L6
 70
     0
 10
0.666667
 20
0.0
 11
1.0
 21
0.5
 12
0.0
 22
0.0
 13
0.0
 23
0.0
 14
0.5
 24
0.5
 15
0.5
 25
0.5
 16
1.0
 26
0.0
 36
0.0
 17
0.0
 27
0.0
 37
0.0
 40
709.544593
 41
0.025026
 42
50.0
 43
356.664217
 44
-356.664217
 50
0.0
 51
0.0
 71
     0
 72
   100
 73
     1
 74
     3
 75
     0
 76
     0
 77
     0
 78
     0
281
     0
 65
     1
110
0.0
120
0.0
130
0.0
111
1.0
121
0.0
131
0.0
112
0.0
122
1.0
132
0.0
 79
     0
146
0.0
  0
VPORT
  5
2D5
330
8
100
AcDbSymbolTableRecord
100
AcDbViewportTableRecord
  2
#ACTIVE
 70
     0
 10
0.0
 20
0.0
 11
1.0
 21
1.0
 12
13.935541
 22
-17.561797
 13
0.0
 23
0.0
 14
0.5
 24
0.5
 15
0.5
 25
0.5
 16
0.0
 26
0.0
 36
1.0
 17
0.0
 27
0.0
 37
0.0
 40
90.385313
 41
0.196456
 42
50.0
 43
3225.462044
 44
-3225.462044
 50
0.0
 51
0.0
 71
     0
 72
   100
 73
     1
 74
     3
 75
     0
 76
     0
 77
     0
 78
     0
281
     0
 65
     1
110
0.0
120
0.0
130
0.0
111
1.0
121
0.0
131
0.0
112
0.0
122
1.0
132
0.0
 79
     0
146
0.0
  0
ENDTAB
  0
TABLE
  2
LTYPE
  5
5
330
0
100
AcDbSymbolTable
 70
     6
  0
LTYPE
  5
14
330
5
100
AcDbSymbolTableRecord
100
AcDbLinetypeTableRecord
  2
BYBLOCK
 70
     0
  3

 72
    65
 73
     0
 40
0.0
  0
LTYPE
  5
15
330
5
100
AcDbSymbolTableRecord
100
AcDbLinetypeTableRecord
  2
BYLAYER
 70
     0
  3

 72
    65
 73
     0
 40
0.0
  0
LTYPE
  5
16
330
5
100
AcDbSymbolTableRecord
100
AcDbLinetypeTableRecord
  2
CONTINUOUS
 70
     0
  3
Solid line
 72
    65
 73
     0
 40
0.0
  0
LTYPE
  5
6A
330
5
100
AcDbSymbolTableRecord
100
AcDbLinetypeTableRecord
  2
CENTER
 70
     0
  3
____ _ ____ _ ____ _ ____
 72
    65
 73
     4
 40
47.4
 49
22.0
 74
     4
 75
     0
340
0
 46
0.0
 50
0.0
 44
0.0
 45
0.0
 49
-8.5
 74
     4
 75
     0
340
0
 46
0.0
 50
0.0
 44
0.0
 45
0.0
 49
8.5
 74
     4
 75
     0
340
0
 46
0.0
 50
0.0
 44
0.0
 45
0.0
 49
-8.5
 74
     4
 75
     0
340
0
 46
0.0
 50
0.0
 44
0.0
 45
0.0
  0
LTYPE
  5
6B
330
5
100
AcDbSymbolTableRecord
100
AcDbLinetypeTableRecord
  2
DASHDOT
 70
     0
  3
_._._._._._._._._._._._._._._._.
 72
    65
 73
     4
 40
70.0
 49
31.0
 74
     4
 75
     0
340
0
 46
0.0
 50
0.0
 44
0.0
 45
0.0
 49
-13.0
 74
     4
 75
     0
340
0
 46
0.0
 50
0.0
 44
0.0
 45
0.0
 49
13.0
 74
     4
 75
     0
340
0
 46
0.0
 50
0.0
 44
0.0
 45
0.0
 49
-13.0
 74
     4
 75
     0
340
0
 46
0.0
 50
0.0
 44
0.0
 45
0.0
  0
LTYPE
  5
6C
330
5
100
AcDbSymbolTableRecord
100
AcDbLinetypeTableRecord
  2
DASHED
 70
     0
  3
__ __ __ __ __ __ __ __ __
 72
    65
 73
     2
 40
25.72
 49
12.86
 74
     4
 75
     0
340
0
 46
0.0
 50
0.0
 44
0.0
 45
0.0
 49
-12.86
 74
     4
 75
     0
340
0
 46
0.0
 50
0.0
 44
0.0
 45
0.0
  0
LTYPE
  5
6D
330
5
100
AcDbSymbolTableRecord
100
AcDbLinetypeTableRecord
  2
DOT
 70
     0
  3
.........................
 72
    65
 73
     2
 40
10.0
 49
0.0
 74
     4
 75
     0
340
0
 46
0.0
 50
0.0
 44
0.0
 45
0.0
 49
-10.0
 74
     4
 75
     0
340
0
 46
0.0
 50
0.0
 44
0.0
 45
0.0
  0
LTYPE
  5
6E
330
5
100
AcDbSymbolTableRecord
100
AcDbLinetypeTableRecord
  2
PHANTOM
 70
     0
  3
____ _ _ ____ _ _ _____ _ _ ____
 72
    65
 73
     6
 40
50.5
 49
18.0
 74
     4
 75
     0
340
0
 46
0.0
 50
0.0
 44
0.0
 45
0.0
 49
-6.5
 74
     4
 75
     0
340
0
 46
0.0
 50
0.0
 44
0.0
 45
0.0
 49
6.5
 74
     4
 75
     0
340
0
 46
0.0
 50
0.0
 44
0.0
 45
0.0
 49
-6.5
 74
     4
 75
     0
340
0
 46
0.0
 50
0.0
 44
0.0
 45
0.0
 49
6.5
 74
     4
 75
     0
340
0
 46
0.0
 50
0.0
 44
0.0
 45
0.0
 49
-6.5
 74
     4
 75
     0
340
0
 46
0.0
 50
0.0
 44
0.0
 45
0.0
  0
ENDTAB
  0
TABLE
  2
LAYER
  5
2
330
0
100
AcDbSymbolTable
 70
    10
  0
LAYER
  5
10
330
2
100
AcDbSymbolTableRecord
100
AcDbLayerTableRecord
  2
0
 70
     0
 62
     7
  6
CONTINUOUS
370
    -3
390
F
  0
LAYER
  5
6F
330
2
100
AcDbSymbolTableRecord
100
AcDbLayerTableRecord
  2
EXTRAVIEW1$1
 70
     0
 62
     7
420
 16777215
  6
CONTINUOUS
370
    -3
390
F
  0
LAYER
  5
71
330
2
100
AcDbSymbolTableRecord
100
AcDbLayerTableRecord
  2
80
 70
     0
 62
     7
420
 16777215
  6
CONTINUOUS
370
    -3
390
F
  0
LAYER
  5
73
330
2
100
AcDbSymbolTableRecord
100
AcDbLayerTableRecord
  2
81
 70
     0
 62
     7
420
 16777215
  6
CONTINUOUS
370
    -3
390
F
  0
LAYER
  5
75
330
2
100
AcDbSymbolTableRecord
100
AcDbLayerTableRecord
  2
1
 70
     0
 62
     7
420
 16777215
  6
CONTINUOUS
370
    -3
390
F
  0
LAYER
  5
B8
330
2
100
AcDbSymbolTableRecord
100
AcDbLayerTableRecord
  2
11
 70
     0
 62
     7
420
 16777215
  6
CONTINUOUS
370
    -3
390
F
  0
LAYER
  5
273
330
2
100
AcDbSymbolTableRecord
100
AcDbLayerTableRecord
  2
4
 70
     0
 62
     7
420
 16777215
  6
CONTINUOUS
370
    -3
390
F
  0
LAYER
  5
292
330
2
100
AcDbSymbolTableRecord
100
AcDbLayerTableRecord
  2
12
 70
     0
 62
     7
420
 16777215
  6
CONTINUOUS
370
    -3
390
F
  0
LAYER
  5
29D
330
2
100
AcDbSymbolTableRecord
100
AcDbLayerTableRecord
  2
2
 70
     0
 62
     7
420
 16777215
  6
CONTINUOUS
370
    -3
390
F
  0
LAYER
  5
2AC
330
2
100
AcDbSymbolTableRecord
100
AcDbLayerTableRecord
  2
16
 70
     0
 62
     7
420
 16777215
  6
CONTINUOUS
370
    -3
390
F
  0
ENDTAB
  0
TABLE
  2
STYLE
  5
3
330
0
100
AcDbSymbolTable
 70
     2
  0
STYLE
  5
11
330
3
100
AcDbSymbolTableRecord
100
AcDbTextStyleTableRecord
  2
Standard
 70
     0
 40
0.0
 41
1.0
 50
0.0
 71
     0
 42
0.2
  3
txt
  4

  0
STYLE
  5
291
330
3
100
AcDbSymbolTableRecord
100
AcDbTextStyleTableRecord
  2
Arial Unicode MS
 70
     0
 40
0.0
 41
1.0
 50
0.0
 71
     0
 42
0.2
  3
Arial Unicode MS
  4

1001
ACAD
1000
Arial Unicode MS
1071
        0
  0
ENDTAB
  0
TABLE
  2
VIEW
  5
6
330
0
100
AcDbSymbolTable
 70
    16
  0
VIEW
  5
2AD
330
6
100
AcDbSymbolTableRecord
100
AcDbViewTableRecord
  2
Top
 70
     0
 40
73.375238
 10
0.0
 20
0.0
 41
212.535714
 11
0.0
 21
0.0
 31
1.0
 12
0.0
 22
0.0
 32
0.0
 42
50.0
 43
354.772296
 44
-354.772296
 50
0.0
 71
     0
281
     0
 72
     0
  0
VIEW
  5
2AE
330
6
100
AcDbSymbolTableRecord
100
AcDbViewTableRecord
  2
Front
 70
     0
 40
709.544593
 10
0.0
 20
0.0
 41
212.535714
 11
0.0
 21
-1.0
 31
0.0
 12
0.0
 22
0.0
 32
0.0
 42
50.0
 43
370.346108
 44
-370.346108
 50
0.0
 71
     0
281
     0
 72
     0
  0
VIEW
  5
2AF
330
6
100
AcDbSymbolTableRecord
100
AcDbViewTableRecord
  2
Right
 70
     0
 40
709.544593
 10
0.0
 20
0.0
 41
73.375238
 11
1.0
 21
0.0
 31
0.0
 12
0.0
 22
0.0
 32
0.0
 42
50.0
 43
356.664217
 44
-356.664217
 50
0.0
 71
     0
281
     0
 72
     0
  0
VIEW
  5
2B0
330
6
100
AcDbSymbolTableRecord
100
AcDbViewTableRecord
  2
Back
 70
     0
 40
709.544593
 10
0.0
 20
0.0
 41
212.535714
 11
0.0
 21
1.0
 31
0.0
 12
0.0
 22
0.0
 32
0.0
 42
50.0
 43
370.346108
 44
-370.346108
 50
0.0
 71
     0
281
     0
 72
     0
  0
VIEW
  5
2B1
330
6
100
AcDbSymbolTableRecord
100
AcDbViewTableRecord
  2
Bottom
 70
     0
 40
73.375238
 10
0.0
 20
0.0
 41
212.535714
 11
0.0
 21
0.0
 31
-1.0
 12
0.0
 22
0.0
 32
0.0
 42
50.0
 43
354.772296
 44
-354.772296
 50
180.0
 71
     0
281
     0
 72
     0
  0
VIEW
  5
2B2
330
6
100
AcDbSymbolTableRecord
100
AcDbViewTableRecord
  2
Left
 70
     0
 40
709.544593
 10
0.0
 20
0.0
 41
73.375238
 11
-1.0
 21
0.0
 31
0.0
 12
0.0
 22
0.0
 32
0.0
 42
50.0
 43
356.664217
 44
-356.664217
 50
0.0
 71
     0
281
     0
 72
     0
  0
VIEW
  5
2B3
330
6
100
AcDbSymbolTableRecord
100
AcDbViewTableRecord
  2
Isometric
 70
     0
 40
696.063391
 10
0.0
 20
0.0
 41
202.169573
 11
0.5773502691896258
 21
-0.5773502691896258
 31
0.5773502691896258
 12
0.0
 22
0.0
 32
0.0
 42
50.0
 43
362.414397
 44
-362.414397
 50
0.0
 71
     0
281
     0
 72
     0
  0
VIEW
  5
2B4
330
6
100
AcDbSymbolTableRecord
100
AcDbViewTableRecord
  2
Trimetric
 70
     0
 40
736.918381
 10
33.740192
 20
-4.985012
 41
191.066766
 11
0.0
 21
0.0
 31
1.0
 12
0.0
 22
0.0
 32
0.0
 42
50.0
 43
222.317178
 44
-222.317178
 50
0.0
 71
     0
281
     0
 72
     0
  0
VIEW
  5
2B5
330
6
100
AcDbSymbolTableRecord
100
AcDbViewTableRecord
  2
AM_VIEW1
 70
     0
 40
243.945833
 10
121.031836
 20
219.614757
 41
359.56875
 11
0.0
 21
0.0
 31
1.0
 12
0.0
 22
0.0
 32
0.0
 42
50.0
 43
3225.462044
 44
-3225.462044
 50
0.0
 71
     0
281
     0
 72
     0
  0
VIEW
  5
2B6
330
6
100
AcDbSymbolTableRecord
100
AcDbViewTableRecord
  2
AM_VIEW2
 70
     0
 40
243.945833
 10
292.43786
 20
219.614757
 41
359.56875
 11
0.0
 21
0.0
 31
1.0
 12
0.0
 22
0.0
 32
0.0
 42
50.0
 43
3225.462044
 44
-3225.462044
 50
0.0
 71
     0
281
     0
 72
     0
  0
VIEW
  5
2B7
330
6
100
AcDbSymbolTableRecord
100
AcDbViewTableRecord
  2
AM_VIEW3
 70
     0
 40
243.945833
 10
121.031836
 20
71.088252
 41
359.56875
 11
0.0
 21
0.0
 31
1.0
 12
0.0
 22
0.0
 32
0.0
 42
50.0
 43
3225.462044
 44
-3225.462044
 50
0.0
 71
     0
281
     0
 72
     0
  0
VIEW
  5
2B8
330
6
100
AcDbSymbolTableRecord
100
AcDbViewTableRecord
  2
AM_VIEW4
 70
     0
 40
243.945833
 10
292.43786
 20
71.088252
 41
359.56875
 11
0.0
 21
0.0
 31
1.0
 12
0.0
 22
0.0
 32
0.0
 42
50.0
 43
3225.462044
 44
-3225.462044
 50
0.0
 71
     0
281
     0
 72
     0
  0
VIEW
  5
2B9
330
6
100
AcDbSymbolTableRecord
100
AcDbViewTableRecord
  2
AM_VIEW5
 70
     0
 40
243.945833
 10
206.734848
 20
145.351505
 41
359.56875
 11
0.0
 21
0.0
 31
1.0
 12
0.0
 22
0.0
 32
0.0
 42
50.0
 43
3225.462044
 44
-3225.462044
 50
0.0
 71
     0
281
     0
 72
     0
  0
VIEW
  5
2BA
330
6
100
AcDbSymbolTableRecord
100
AcDbViewTableRecord
  2
AM_VIEW6
 70
     0
 40
243.945833
 10
206.734848
 20
145.351505
 41
359.56875
 11
0.0
 21
0.0
 31
1.0
 12
0.0
 22
0.0
 32
0.0
 42
50.0
 43
3225.462044
 44
-3225.462044
 50
0.0
 71
     0
281
     0
 72
     0
  0
VIEW
  5
2BB
330
6
100
AcDbSymbolTableRecord
100
AcDbViewTableRecord
  2
_ACTIVE1
 70
     0
 40
90.385313
 10
13.935541
 20
-17.561797
 41
170.497425
 11
0.0
 21
0.0
 31
1.0
 12
0.0
 22
0.0
 32
0.0
 42
50.0
 43
3225.462044
 44
-3225.462044
 50
0.0
 71
     0
281
     0
 72
     0
  0
VIEW
  5
2BC
330
6
100
AcDbSymbolTableRecord
100
AcDbViewTableRecord
  2
EXTRAVIEW1
 70
     0
 40
243.945833
 10
0.321216
 20
-0.051985
 41
359.56875
 11
0.0
 21
0.0
 31
1.0
 12
0.0
 22
0.0
 32
0.0
 42
50.0
 43
380.642618
 44
-380.642618
 50
0.0
 71
     0
281
     0
 72
     0
  0
ENDTAB
  0
TABLE
  2
UCS
  5
7
330
0
100
AcDbSymbolTable
 70
     0
  0
ENDTAB
  0
TABLE
  2
APPID
  5
9
330
0
100
AcDbSymbolTable
 70
     1
  0
APPID
  5
12
330
9
100
AcDbSymbolTableRecord
100
AcDbRegAppTableRecord
  2
ACAD
 70
     0
  0
ENDTAB
  0
TABLE
  2
DIMSTYLE
  5
A
330
0
100
AcDbSymbolTable
 70
     1
100
AcDbDimStyleTable
  0
DIMSTYLE
105
27
330
A
100
AcDbSymbolTableRecord
100
AcDbDimStyleTableRecord
  2
Standard
 70
     0
178
     0
340
11
  0
ENDTAB
  0
TABLE
  2
BLOCK_RECORD
  5
1
330
0
100
AcDbSymbolTable
 70
     5
  0
BLOCK_RECORD
  5
1F
330
1
100
AcDbSymbolTableRecord
100
AcDbBlockTableRecord
  2
*Model_Space
340
22
  0
BLOCK_RECORD
  5
2BD
330
1
100
AcDbSymbolTableRecord
100
AcDbBlockTableRecord
  2
*PAPER_SPACE
340
2C2
  0
BLOCK_RECORD
  5
28A
330
1
100
AcDbSymbolTableRecord
100
AcDbBlockTableRecord
  2
ASSORTED_DRAFT1
340
0
102
{BLKREFS
331
293
102
}
  0
BLOCK_RECORD
  5
296
330
1
100
AcDbSymbolTableRecord
100
AcDbBlockTableRecord
  2
ASSORTED_DRAFT2
340
0
102
{BLKREFS
331
29E
102
}
  0
BLOCK_RECORD
  5
2A1
330
1
100
AcDbSymbolTableRecord
100
AcDbBlockTableRecord
  2
ASSORTED_DRAFT3
340
0
102
{BLKREFS
331
2A8
102
}
  0
ENDTAB
  0
ENDSEC
  0
SECTION
  2
BLOCKS
  0
BLOCK
  5
20
330
1F
100
AcDbEntity
  8
0
100
AcDbBlockBegin
  2
*Model_Space
 70
     0
 10
0.0
 20
0.0
 30
0.0
  3
*Model_Space
  1
*Model_Space
  0
ENDBLK
  5
21
330
1F
100
AcDbEntity
  8
0
100
AcDbBlockEnd
  0
BLOCK
  5
2BE
330
2BD
100
AcDbEntity
 67
     1
  8
0
100
AcDbBlockBegin
  2
*PAPER_SPACE
 70
     0
 10
0.0
 20
0.0
 30
0.0
  3
*PAPER_SPACE
  1
*PAPER_SPACE
  0
ENDBLK
  5
2BF
330
2BD
100
AcDbEntity
 67
     1
  8
0
100
AcDbBlockEnd
  0
BLOCK
  5
294
330
28A
100
AcDbEntity
  8
0
100
AcDbBlockBegin
  2
ASSORTED_DRAFT1
 70
     0
 10
0.0
 20
0.0
 30
0.0
  3
ASSORTED_DRAFT1
  1
ASSORTED_DRAFT1
  0
LINE
  5
28B
330
28A
100
AcDbEntity
  8
0
  6
Continuous
 62
     7
370
    13
100
AcDbLine
 10
-0.9
 20
-24.727167
 30
0.0
 11
-39.512354
 21
-24.727167
 31
0.0
  0
LINE
  5
28C
330
28A
100
AcDbEntity
  8
0
  6
Continuous
 62
     7
370
    13
100
AcDbLine
 10
-1.0
 20
25.172833
 30
0.0
 11
-39.512354
 21
25.172833
 31
0.0
  0
LINE
  5
28D
330
28A
100
AcDbEntity
  8
0
  6
Continuous
 62
     7
370
    13
100
AcDbLine
 10
-37.512354
 20
-22.227167
 30
0.0
 11
-37.512354
 21
22.672833
 31
0.0
  0
SOLID
  5
28E
330
28A
100
AcDbEntity
  8
0
 62
     7
370
    18
100
AcDbTrace
 10
-37.512354
 20
-24.727167
 30
0.0
 11
-37.929021
 21
-22.227169
 31
0.0
 12
-37.095687
 22
-22.227165
 32
0.0
 13
-37.512354
 23
-24.727167
 33
0.0
  0
SOLID
  5
28F
330
28A
100
AcDbEntity
  8
0
 62
     7
370
    18
100
AcDbTrace
 10
-37.512354
 20
25.172833
 30
0.0
 11
-37.095687
 21
22.672835
 31
0.0
 12
-37.929021
 22
22.672831
 32
0.0
 13
-37.512354
 23
25.172833
 33
0.0
  0
MTEXT
  5
290
330
28A
100
AcDbEntity
  8
12
  6
Continuous
 62
     7
370
    25
100
AcDbMText
 10
-37.300524
 20
0.222833
 30
0.0
 40
3.5
 41
0.0
 71
     8
 72
     5
  1
\W1.0000;%%c50
  7
Arial Unicode MS
 11
1.171455364582524E-15
 21
1.0
 31
0.0
 73
     2
 44
1.069626
  0
ENDBLK
  5
295
330
28A
100
AcDbEntity
  8
0
100
AcDbBlockEnd
  0
BLOCK
  5
29F
330
296
100
AcDbEntity
  8
0
100
AcDbBlockBegin
  2
ASSORTED_DRAFT2
 70
     0
 10
0.0
 20
0.0
 30
0.0
  3
ASSORTED_DRAFT2
  1
ASSORTED_DRAFT2
  0
LINE
  5
297
330
296
100
AcDbEntity
  8
0
  6
Continuous
 62
     7
370
    13
100
AcDbLine
 10
60.139358
 20
-35.875296
 30
0.0
 11
60.139358
 21
-45.79026
 31
0.0
  0
LINE
  5
298
330
296
100
AcDbEntity
  8
0
  6
Continuous
 62
     7
370
    13
100
AcDbLine
 10
0.0
 20
-25.727167
 30
0.0
 11
0.0
 21
-45.79026
 31
0.0
  0
LINE
  5
299
330
296
100
AcDbEntity
  8
0
  6
Continuous
 62
     7
370
    13
100
AcDbLine
 10
57.639358
 20
-43.79026
 30
0.0
 11
2.5
 21
-43.79026
 31
0.0
  0
SOLID
  5
29A
330
296
100
AcDbEntity
  8
0
 62
     7
370
    18
100
AcDbTrace
 10
60.139358
 20
-43.79026
 30
0.0
 11
57.639359
 21
-44.206927
 31
0.0
 12
57.639356
 22
-43.373593
 32
0.0
 13
60.139358
 23
-43.79026
 33
0.0
  0
SOLID
  5
29B
330
296
100
AcDbEntity
  8
0
 62
     7
370
    18
100
AcDbTrace
 10
0.0
 20
-43.79026
 30
0.0
 11
2.499998
 21
-43.373593
 31
0.0
 12
2.500002
 22
-44.206927
 32
0.0
 13
0.0
 23
-43.79026
 33
0.0
  0
MTEXT
  5
29C
330
296
100
AcDbEntity
  8
2
  6
Continuous
 62
     7
370
    25
100
AcDbMText
 10
29.901645
 20
-44.053741
 30
0.0
 40
3.5
 41
0.0
 71
     8
 72
     5
  1
\W1.0000;60
  7
Arial Unicode MS
 73
     2
 44
1.069626
  0
ENDBLK
  5
2A0
330
296
100
AcDbEntity
  8
0
100
AcDbBlockEnd
  0
BLOCK
  5
2A9
330
2A1
100
AcDbEntity
  8
0
100
AcDbBlockBegin
  2
ASSORTED_DRAFT3
 70
     0
 10
0.0
 20
0.0
 30
0.0
  3
ASSORTED_DRAFT3
  1
ASSORTED_DRAFT3
  0
LINE
  5
2A2
330
2A1
100
AcDbEntity
  8
0
  6
Continuous
 62
     7
370
    13
100
AcDbLine
 10
61.139358
 20
-34.875296
 30
0.0
 11
71.415805
 21
-34.875296
 31
0.0
  0
LINE
  5
2A3
330
2A1
100
AcDbEntity
  8
0
  6
Continuous
 62
     7
370
    13
100
AcDbLine
 10
65.144757
 20
0.0
 30
0.0
 11
71.415805
 21
0.0
 31
0.0
  0
LINE
  5
2A4
330
2A1
100
AcDbEntity
  8
0
  6
Continuous
 62
     7
370
    13
100
AcDbLine
 10
69.415805
 20
-32.375296
 30
0.0
 11
69.415805
 21
-2.5
 31
0.0
  0
SOLID
  5
2A5
330
2A1
100
AcDbEntity
  8
0
 62
     7
370
    18
100
AcDbTrace
 10
69.415805
 20
-34.875296
 30
0.0
 11
68.999139
 21
-32.375298
 31
0.0
 12
69.832472
 22
-32.375294
 32
0.0
 13
69.415805
 23
-34.875296
 33
0.0
  0
SOLID
  5
2A6
330
2A1
100
AcDbEntity
  8
0
 62
     7
370
    18
100
AcDbTrace
 10
69.415805
 20
0.0
 30
0.0
 11
69.832472
 21
-2.499998
 31
0.0
 12
68.999139
 22
-2.500002
 32
0.0
 13
69.415805
 23
0.0
 33
0.0
  0
MTEXT
  5
2A7
330
2A1
100
AcDbEntity
  8
2
  6
Continuous
 62
     7
370
    25
100
AcDbMText
 10
69.679286
 20
-17.429233
 30
0.0
 40
3.5
 41
0.0
 71
     8
 72
     5
  1
\W1.0000;35
  7
Arial Unicode MS
 11
1.171455364582524E-15
 21
1.0
 31
0.0
 73
     2
 44
1.069626
  0
ENDBLK
  5
2AA
330
2A1
100
AcDbEntity
  8
0
100
AcDbBlockEnd
  0
ENDSEC
  0
SECTION
  2
ENTITIES
  0
POINT
  5
70
330
1F
100
AcDbEntity
  8
80
  6
Continuous
 62
     6
370
    18
100
AcDbPoint
 10
0.0
 20
0.0
 30
0.0
  0
POINT
  5
72
330
1F
100
AcDbEntity
  8
81
  6
Continuous
 62
     3
370
    18
100
AcDbPoint
 10
60.118503
 20
-28.970365
 30
0.0
  0
LINE
  5
74
330
1F
100
AcDbEntity
  8
1
  6
Continuous
 62
     4
370
    50
100
AcDbLine
 10
52.714245
 20
-34.565929
 30
0.0
 11
21.629215
 21
-30.640509
 31
0.0
  0
LINE
  5
76
330
1F
100
AcDbEntity
  8
1
  6
Continuous
 62
     4
370
    50
100
AcDbLine
 10
59.838762
 20
-27.441412
 30
0.0
 11
56.373458
 21
0.0
 31
0.0
  0
LINE
  5
77
330
1F
100
AcDbEntity
  8
1
  6
Continuous
 62
     4
370
    50
100
AcDbLine
 10
56.373458
 20
0.0
 30
0.0
 11
44.936413
 21
11.437045
 31
0.0
  0
LINE
  5
78
330
1F
100
AcDbEntity
  8
1
  6
Continuous
 62
     4
370
    50
100
AcDbLine
 10
44.936413
 20
11.437045
 30
0.0
 11
29.030625
 21
27.342833
 31
0.0
  0
LINE
  5
79
330
1F
100
AcDbEntity
  8
1
  6
Continuous
 62
     4
370
    50
100
AcDbLine
 10
19.3
 20
-14.199368
 30
0.0
 11
19.3
 21
-24.727167
 31
0.0
  0
LINE
  5
7A
330
1F
100
AcDbEntity
  8
1
  6
Continuous
 62
     4
370
    50
100
AcDbLine
 10
19.3
 20
-14.199368
 30
0.0
 11
44.936413
 21
11.437045
 31
0.0
  0
LINE
  5
7B
330
1F
100
AcDbEntity
  8
1
  6
Continuous
 62
     4
370
    50
100
AcDbLine
 10
0.1
 20
-24.727167
 30
0.0
 11
0.0
 21
-24.727167
 31
0.0
  0
LINE
  5
7C
330
1F
100
AcDbEntity
  8
1
  6
Continuous
 62
     4
370
    50
100
AcDbLine
 10
0.1
 20
25.272833
 30
0.0
 11
0.0
 21
25.272833
 31
0.0
  0
LINE
  5
7D
330
1F
100
AcDbEntity
  8
1
  6
Continuous
 62
     4
370
    50
100
AcDbLine
 10
0.0
 20
25.272833
 30
0.0
 11
0.0
 21
25.172833
 31
0.0
  0
LINE
  5
7E
330
1F
100
AcDbEntity
  8
1
  6
Continuous
 62
     4
370
    50
100
AcDbLine
 10
53.930659
 20
-19.677571
 30
0.0
 11
44.188561
 21
-9.935473
 31
0.0
  0
LINE
  5
7F
330
1F
100
AcDbEntity
  8
1
  6
Continuous
 62
     4
370
    50
100
AcDbLine
 10
35.208305
 20
-18.915729
 30
0.0
 11
44.950403
 21
-28.657827
 31
0.0
  0
LINE
  5
80
330
1F
100
AcDbEntity
  8
1
  6
Continuous
 62
     4
370
    50
100
AcDbLine
 10
35.364709
 20
-14.829492
 30
0.0
 11
40.102325
 21
-10.091877
 31
0.0
  0
LINE
  5
81
330
1F
100
AcDbEntity
  8
1
  6
Continuous
 62
     4
370
    50
100
AcDbLine
 10
34.756937
 20
-14.221694
 30
0.0
 11
39.49454
 21
-9.484091
 31
0.0
  0
LINE
  5
82
330
1F
100
AcDbEntity
  8
1
  6
Continuous
 62
     4
370
    50
100
AcDbLine
 10
34.60052
 20
-18.307943
 30
0.0
 11
36.144383
 21
-19.851806
 31
0.0
  0
LINE
  5
83
330
1F
100
AcDbEntity
  8
1
  6
Continuous
 62
     4
370
    50
100
AcDbLine
 10
44.950403
 20
-28.657827
 30
0.0
 11
44.528732
 21
-28.236155
 31
0.0
  0
LINE
  5
84
330
1F
100
AcDbEntity
  8
1
  6
Continuous
 62
     4
370
    50
100
AcDbLine
 10
55.146396
 20
-23.348469
 30
0.0
 11
54.923275
 21
-23.125347
 31
0.0
  0
LINE
  5
85
330
1F
100
AcDbEntity
  8
1
  6
Continuous
 62
     4
370
    50
100
AcDbLine
 10
54.824098
 20
-24.318495
 30
0.0
 11
54.719906
 21
-24.214303
 31
0.0
  0
LINE
  5
86
330
1F
100
AcDbEntity
  8
1
  6
Continuous
 62
     4
370
    50
100
AcDbLine
 10
49.591328
 20
-29.551265
 30
0.0
 11
49.487136
 21
-29.447073
 31
0.0
  0
LINE
  5
87
330
1F
100
AcDbEntity
  8
1
  6
Continuous
 62
     4
370
    50
100
AcDbLine
 10
48.617796
 20
-29.870057
 30
0.0
 11
48.395554
 21
-29.647816
 31
0.0
  0
LINE
  5
88
330
1F
100
AcDbEntity
  8
1
  6
Continuous
 62
     4
370
    50
100
AcDbLine
 10
49.591328
 20
-29.551265
 30
0.0
 11
54.824098
 21
-24.318495
 31
0.0
  0
LINE
  5
89
330
1F
100
AcDbEntity
  8
1
  6
Continuous
 62
     4
370
    50
100
AcDbLine
 10
54.806284
 20
-22.682539
 30
0.0
 11
54.928147
 21
-22.560676
 31
0.0
  0
LINE
  5
8A
330
1F
100
AcDbEntity
  8
1
  6
Continuous
 62
     4
370
    50
100
AcDbLine
 10
52.207713
 20
-26.93488
 30
0.0
 11
52.103521
 21
-26.830688
 31
0.0
  0
LINE
  5
8B
330
1F
100
AcDbEntity
  8
1
  6
Continuous
 62
     4
370
    50
100
AcDbLine
 10
54.719906
 20
-24.214303
 30
0.0
 11
49.487136
 21
-29.447073
 31
0.0
  0
LINE
  5
8C
330
1F
100
AcDbEntity
  8
1
  6
Continuous
 62
     4
370
    50
100
AcDbLine
 10
48.11701
 20
-29.549613
 30
0.0
 11
47.42469
 21
-29.325601
 31
0.0
  0
LINE
  5
8D
330
1F
100
AcDbEntity
  8
1
  6
Continuous
 62
     4
370
    50
100
AcDbLine
 10
47.104704
 20
-29.211396
 30
0.0
 11
44.528732
 21
-28.236155
 31
0.0
  0
LINE
  5
8E
330
1F
100
AcDbEntity
  8
1
  6
Continuous
 62
     4
370
    50
100
AcDbLine
 10
54.822446
 20
-22.844177
 30
0.0
 11
54.598434
 21
-22.151857
 31
0.0
  0
LINE
  5
8F
330
1F
100
AcDbEntity
  8
1
  6
Continuous
 62
     4
370
    50
100
AcDbLine
 10
54.484229
 20
-21.831871
 30
0.0
 11
53.508988
 21
-19.255899
 31
0.0
  0
LINE
  5
90
330
1F
100
AcDbEntity
  8
1
  6
Continuous
 62
     4
370
    50
100
AcDbLine
 10
38.610712
 20
-13.337879
 30
0.0
 11
38.680173
 21
-13.407341
 31
0.0
  0
LINE
  5
91
330
1F
100
AcDbEntity
  8
1
  6
Continuous
 62
     4
370
    50
100
AcDbLine
 10
40.653414
 20
-15.380582
 30
0.0
 11
43.06154
 21
-14.726846
 31
0.0
  0
LINE
  5
92
330
1F
100
AcDbEntity
  8
1
  6
Continuous
 62
     4
370
    50
100
AcDbLine
 10
43.06154
 20
-14.726846
 30
0.0
 11
44.81593
 21
-16.481235
 31
0.0
  0
LINE
  5
93
330
1F
100
AcDbEntity
  8
1
  6
Continuous
 62
     4
370
    50
100
AcDbLine
 10
44.81593
 20
-16.481235
 30
0.0
 11
44.162193
 21
-18.889361
 31
0.0
  0
LINE
  5
94
330
1F
100
AcDbEntity
  8
1
  6
Continuous
 62
     4
370
    50
100
AcDbLine
 10
44.162193
 20
-18.889361
 30
0.0
 11
41.754067
 21
-19.543097
 31
0.0
  0
LINE
  5
95
330
1F
100
AcDbEntity
  8
1
  6
Continuous
 62
     4
370
    50
100
AcDbLine
 10
41.754067
 20
-19.543097
 30
0.0
 11
39.999678
 21
-17.788708
 31
0.0
  0
LINE
  5
96
330
1F
100
AcDbEntity
  8
1
  6
Continuous
 62
     4
370
    50
100
AcDbLine
 10
39.999678
 20
-17.788708
 30
0.0
 11
40.653414
 21
-15.380582
 31
0.0
  0
LINE
  5
97
330
1F
100
AcDbEntity
  8
1
  6
Continuous
 62
     4
370
    50
100
AcDbLine
 10
44.328912
 20
-10.075824
 30
0.0
 11
43.721127
 21
-9.468038
 31
0.0
  0
LINE
  5
98
330
1F
100
AcDbEntity
  8
1
  6
Continuous
 62
     4
370
    50
100
AcDbLine
 10
38.24965
 20
-21.957073
 30
0.0
 11
36.144383
 21
-19.851806
 31
0.0
  0
LINE
  5
99
330
1F
100
AcDbEntity
  8
1
  6
Continuous
 62
     4
370
    50
100
AcDbLine
 10
47.244451
 20
-29.961925
 30
0.0
 11
47.611774
 21
-29.594602
 31
0.0
  0
LINE
  5
9A
330
1F
100
AcDbEntity
  8
1
  6
Continuous
 62
     4
370
    50
100
AcDbLine
 10
46.996997
 20
-30.20937
 30
0.0
 11
47.611582
 21
-29.594785
 31
0.0
  0
LINE
  5
9B
330
1F
100
AcDbEntity
  8
1
  6
Continuous
 62
     4
370
    50
100
AcDbLine
 10
47.068767
 20
-29.786241
 30
0.0
 11
47.342685
 21
-29.512323
 31
0.0
  0
LINE
  5
9C
330
1F
100
AcDbEntity
  8
1
  6
Continuous
 62
     4
370
    50
100
AcDbLine
 10
47.068767
 20
-29.786241
 30
0.0
 11
46.996997
 21
-30.20937
 31
0.0
  0
LINE
  5
9D
330
1F
100
AcDbEntity
  8
1
  6
Continuous
 62
     4
370
    50
100
AcDbLine
 10
55.234758
 20
-21.971618
 30
0.0
 11
54.86762
 21
-22.338756
 31
0.0
  0
LINE
  5
9E
330
1F
100
AcDbEntity
  8
1
  6
Continuous
 62
     4
370
    50
100
AcDbLine
 10
55.482203
 20
-21.724164
 30
0.0
 11
54.867618
 21
-22.338749
 31
0.0
  0
LINE
  5
9F
330
1F
100
AcDbEntity
  8
1
  6
Continuous
 62
     4
370
    50
100
AcDbLine
 10
55.059074
 20
-21.795935
 30
0.0
 11
54.785156
 21
-22.069853
 31
0.0
  0
LINE
  5
A0
330
1F
100
AcDbEntity
  8
1
  6
Continuous
 62
     4
370
    50
100
AcDbLine
 10
55.059074
 20
-21.795935
 30
0.0
 11
55.482203
 21
-21.724164
 31
0.0
  0
LINE
  5
A1
330
1F
100
AcDbEntity
  8
1
  6
Continuous
 62
     4
370
    50
100
AcDbLine
 10
56.545126
 20
-24.226585
 30
0.0
 11
49.499425
 21
-31.272285
 31
0.0
  0
LINE
  5
A2
330
1F
100
AcDbEntity
  8
1
  6
Continuous
 62
     4
370
    50
100
AcDbLine
 10
47.713064
 20
-31.279066
 30
0.0
 11
48.668081
 21
-32.234082
 31
0.0
  0
LINE
  5
A3
330
1F
100
AcDbEntity
  8
1
  6
Continuous
 62
     4
370
    50
100
AcDbLine
 10
56.551899
 20
-22.440231
 30
0.0
 11
57.506916
 21
-23.395248
 31
0.0
  0
LINE
  5
A4
330
1F
100
AcDbEntity
  8
1
  6
Continuous
 62
     4
370
    50
100
AcDbLine
 10
57.463508
 20
-23.35184
 30
0.0
 11
56.267159
 21
-22.155491
 31
0.0
  0
LINE
  5
A5
330
1F
100
AcDbEntity
  8
1
  6
Continuous
 62
     4
370
    50
100
AcDbLine
 10
57.500111
 20
-25.181593
 30
0.0
 11
50.454427
 21
-32.227277
 31
0.0
  0
LINE
  5
A6
330
1F
100
AcDbEntity
  8
1
  6
Continuous
 62
     4
370
    50
100
AcDbLine
 10
50.411013
 20
-32.183864
 30
0.0
 11
57.456697
 21
-25.13818
 31
0.0
  0
LINE
  5
A7
330
1F
100
AcDbEntity
  8
1
  6
Continuous
 62
     4
370
    50
100
AcDbLine
 10
48.668061
 20
-32.234062
 30
0.0
 11
48.624647
 21
-32.190649
 31
0.0
  0
LINE
  5
A8
330
1F
100
AcDbEntity
  8
1
  6
Continuous
 62
     4
370
    50
100
AcDbLine
 10
48.624647
 20
-32.190649
 30
0.0
 11
47.428324
 21
-30.994326
 31
0.0
  0
LINE
  5
A9
330
1F
100
AcDbEntity
  8
1
  6
Continuous
 62
     4
370
    50
100
AcDbLine
 10
50.454427
 20
-32.227277
 30
0.0
 11
50.411013
 21
-32.183864
 31
0.0
  0
LINE
  5
AA
330
1F
100
AcDbEntity
  8
1
  6
Continuous
 62
     4
370
    50
100
AcDbLine
 10
57.500111
 20
-25.181593
 30
0.0
 11
57.456697
 21
-25.13818
 31
0.0
  0
LINE
  5
AB
330
1F
100
AcDbEntity
  8
1
  6
Continuous
 62
     4
370
    50
100
AcDbLine
 10
49.499425
 20
-31.272285
 30
0.0
 11
50.454427
 21
-32.227277
 31
0.0
  0
LINE
  5
AC
330
1F
100
AcDbEntity
  8
1
  6
Continuous
 62
     4
370
    50
100
AcDbLine
 10
57.500111
 20
-25.181593
 30
0.0
 11
56.545126
 21
-24.226585
 31
0.0
  0
LINE
  5
AD
330
1F
100
AcDbEntity
  8
1
  6
Continuous
 62
     4
370
    50
100
AcDbLine
 10
53.002981
 20
-29.614204
 30
0.0
 11
53.003029
 21
-29.614228
 31
0.0
  0
LINE
  5
AE
330
1F
100
AcDbEntity
  8
1
  6
Continuous
 62
     4
370
    50
100
AcDbLine
 10
0.0
 20
6.270091
 30
0.0
 11
0.0
 21
-5.724425
 31
0.0
  0
LINE
  5
AF
330
1F
100
AcDbEntity
  8
1
  6
Continuous
 62
     4
370
    50
100
AcDbLine
 10
8.538675
 20
-7.256834
 30
0.0
 11
8.538675
 21
-23.566297
 31
0.0
  0
LINE
  5
B0
330
1F
100
AcDbEntity
  8
1
  6
Continuous
 62
     4
370
    50
100
AcDbLine
 10
11.461325
 20
-7.256834
 30
0.0
 11
11.461325
 21
-23.566297
 31
0.0
  0
LINE
  5
B1
330
1F
100
AcDbEntity
  8
1
  6
Continuous
 62
     4
370
    50
100
AcDbLine
 10
8.105662
 20
-7.783015
 30
0.0
 11
8.105675
 21
-23.393715
 31
0.0
  0
LINE
  5
B2
330
1F
100
AcDbEntity
  8
1
  6
Continuous
 62
     4
370
    50
100
AcDbLine
 10
11.894338
 20
-7.783015
 30
0.0
 11
11.894325
 21
-23.393715
 31
0.0
  0
LINE
  5
B3
330
1F
100
AcDbEntity
  8
1
  6
Continuous
 62
     4
370
    50
100
AcDbLine
 10
8.538675
 20
24.111963
 30
0.0
 11
8.538675
 21
7.8025
 31
0.0
  0
LINE
  5
B4
330
1F
100
AcDbEntity
  8
1
  6
Continuous
 62
     4
370
    50
100
AcDbLine
 10
11.461325
 20
24.111963
 30
0.0
 11
11.461325
 21
7.8025
 31
0.0
  0
LINE
  5
B5
330
1F
100
AcDbEntity
  8
1
  6
Continuous
 62
     4
370
    50
100
AcDbLine
 10
8.105662
 20
23.939335
 30
0.0
 11
8.105675
 21
8.328604
 31
0.0
  0
LINE
  5
B6
330
1F
100
AcDbEntity
  8
1
  6
Continuous
 62
     4
370
    50
100
AcDbLine
 10
11.894338
 20
23.939335
 30
0.0
 11
11.894325
 21
8.328604
 31
0.0
  0
LINE
  5
B7
330
1F
100
AcDbEntity
  8
11
  6
Continuous
 62
     4
370
    50
100
AcDbLine
 10
-30.0
 20
16.194245
 30
0.0
 11
-30.0
 21
-15.648579
 31
0.0
  0
LINE
  5
B9
330
1F
100
AcDbEntity
  8
11
  6
Continuous
 62
     4
370
    50
100
AcDbLine
 10
0.0
 20
-17.227167
 30
0.0
 11
-28.5
 21
-16.514604
 31
0.0
  0
LINE
  5
BA
330
1F
100
AcDbEntity
  8
11
  6
Continuous
 62
     4
370
    50
100
AcDbLine
 10
0.0
 20
17.772833
 30
0.0
 11
-28.5
 21
17.06027
 31
0.0
  0
LINE
  5
BB
330
1F
100
AcDbEntity
  8
1
  6
Continuous
 62
     4
370
    50
100
AcDbLine
 10
20.078271
 20
-24.727167
 30
0.0
 11
0.0
 21
-24.727167
 31
0.0
  0
LINE
  5
BC
330
1F
100
AcDbEntity
  8
1
  6
Continuous
 62
     4
370
    50
100
AcDbLine
 10
20.13286
 20
25.272833
 30
0.0
 11
0.0
 21
25.272833
 31
0.0
  0
LINE
  5
BD
330
1F
100
AcDbEntity
  8
11
  6
Continuous
 62
     4
370
    50
100
AcDbLine
 10
-28.5
 20
17.06027
 30
0.0
 11
-28.5
 21
-16.514604
 31
0.0
  0
LINE
  5
BE
330
1F
100
AcDbEntity
  8
11
  6
Continuous
 62
     4
370
    50
100
AcDbLine
 10
-28.5
 20
17.06027
 30
0.0
 11
-30.0
 21
16.194245
 31
0.0
  0
LINE
  5
BF
330
1F
100
AcDbEntity
  8
11
  6
Continuous
 62
     4
370
    50
100
AcDbLine
 10
-28.5
 20
-16.514604
 30
0.0
 11
-30.0
 21
-15.648579
 31
0.0
  0
LINE
  5
C0
330
1F
100
AcDbEntity
  8
1
  6
Continuous
 62
     4
370
    50
100
AcDbLine
 10
47.156257
 20
-30.722259
 30
0.0
 11
47.713064
 21
-31.279066
 31
0.0
  0
LINE
  5
C1
330
1F
100
AcDbEntity
  8
1
  6
Continuous
 62
     4
370
    50
100
AcDbLine
 10
54.043066
 20
-19.931398
 30
0.0
 11
56.267159
 21
-22.155491
 31
0.0
  0
LINE
  5
C2
330
1F
100
AcDbEntity
  8
1
  6
Continuous
 62
     4
370
    50
100
AcDbLine
 10
45.20423
 20
-28.770233
 30
0.0
 11
47.428323
 21
-30.994326
 31
0.0
  0
LINE
  5
C3
330
1F
100
AcDbEntity
  8
1
  6
Continuous
 62
     4
370
    50
100
AcDbLine
 10
55.995092
 20
-21.883424
 30
0.0
 11
56.551899
 21
-22.440231
 31
0.0
  0
LINE
  5
C4
330
1F
100
AcDbEntity
  8
1
  6
Continuous
 62
     4
370
    50
100
AcDbLine
 10
0.0
 20
-24.727167
 30
0.0
 11
0.0
 21
25.272833
 31
0.0
  0
LINE
  5
C5
330
1F
100
AcDbEntity
  8
1
  6
Continuous
 62
     4
370
    50
100
AcDbLine
 10
59.838762
 20
-27.441412
 30
0.0
 11
59.873714
 21
-27.800952
 31
0.0
  0
LINE
  5
C6
330
1F
100
AcDbEntity
  8
1
  6
Continuous
 62
     4
370
    50
100
AcDbLine
 10
59.873714
 20
-27.800952
 30
0.0
 11
59.888007
 21
-28.162127
 31
0.0
  0
LINE
  5
C7
330
1F
100
AcDbEntity
  8
1
  6
Continuous
 62
     4
370
    50
100
AcDbLine
 10
59.888007
 20
-28.162127
 30
0.0
 11
59.881594
 21
-28.523755
 31
0.0
  0
LINE
  5
C8
330
1F
100
AcDbEntity
  8
1
  6
Continuous
 62
     4
370
    50
100
AcDbLine
 10
59.881594
 20
-28.523755
 30
0.0
 11
59.854495
 21
-28.884648
 31
0.0
  0
LINE
  5
C9
330
1F
100
AcDbEntity
  8
1
  6
Continuous
 62
     4
370
    50
100
AcDbLine
 10
59.854495
 20
-28.884648
 30
0.0
 11
59.8068
 21
-29.243625
 31
0.0
  0
LINE
  5
CA
330
1F
100
AcDbEntity
  8
1
  6
Continuous
 62
     4
370
    50
100
AcDbLine
 10
59.8068
 20
-29.243625
 30
0.0
 11
59.738665
 21
-29.599507
 31
0.0
  0
LINE
  5
CB
330
1F
100
AcDbEntity
  8
1
  6
Continuous
 62
     4
370
    50
100
AcDbLine
 10
59.738665
 20
-29.599507
 30
0.0
 11
59.650313
 21
-29.951128
 31
0.0
  0
LINE
  5
CC
330
1F
100
AcDbEntity
  8
1
  6
Continuous
 62
     4
370
    50
100
AcDbLine
 10
59.650313
 20
-29.951128
 30
0.0
 11
59.542035
 21
-30.297336
 31
0.0
  0
LINE
  5
CD
330
1F
100
AcDbEntity
  8
1
  6
Continuous
 62
     4
370
    50
100
AcDbLine
 10
59.542035
 20
-30.297336
 30
0.0
 11
59.414184
 21
-30.636995
 31
0.0
  0
LINE
  5
CE
330
1F
100
AcDbEntity
  8
1
  6
Continuous
 62
     4
370
    50
100
AcDbLine
 10
59.414184
 20
-30.636995
 30
0.0
 11
59.267181
 21
-30.968991
 31
0.0
  0
LINE
  5
CF
330
1F
100
AcDbEntity
  8
1
  6
Continuous
 62
     4
370
    50
100
AcDbLine
 10
59.267181
 20
-30.968991
 30
0.0
 11
59.101507
 21
-31.292235
 31
0.0
  0
LINE
  5
D0
330
1F
100
AcDbEntity
  8
1
  6
Continuous
 62
     4
370
    50
100
AcDbLine
 10
59.101507
 20
-31.292235
 30
0.0
 11
58.917705
 21
-31.605669
 31
0.0
  0
LINE
  5
D1
330
1F
100
AcDbEntity
  8
1
  6
Continuous
 62
     4
370
    50
100
AcDbLine
 10
58.917705
 20
-31.605669
 30
0.0
 11
58.716378
 21
-31.908264
 31
0.0
  0
LINE
  5
D2
330
1F
100
AcDbEntity
  8
1
  6
Continuous
 62
     4
370
    50
100
AcDbLine
 10
58.716378
 20
-31.908264
 30
0.0
 11
58.498187
 21
-32.199028
 31
0.0
  0
LINE
  5
D3
330
1F
100
AcDbEntity
  8
1
  6
Continuous
 62
     4
370
    50
100
AcDbLine
 10
58.498187
 20
-32.199028
 30
0.0
 11
58.263846
 21
-32.477007
 31
0.0
  0
LINE
  5
D4
330
1F
100
AcDbEntity
  8
1
  6
Continuous
 62
     4
370
    50
100
AcDbLine
 10
58.263846
 20
-32.477007
 30
0.0
 11
58.014124
 21
-32.741291
 31
0.0
  0
LINE
  5
D5
330
1F
100
AcDbEntity
  8
1
  6
Continuous
 62
     4
370
    50
100
AcDbLine
 10
58.014124
 20
-32.741291
 30
0.0
 11
57.74984
 21
-32.991013
 31
0.0
  0
LINE
  5
D6
330
1F
100
AcDbEntity
  8
1
  6
Continuous
 62
     4
370
    50
100
AcDbLine
 10
57.74984
 20
-32.991013
 30
0.0
 11
57.471861
 21
-33.225354
 31
0.0
  0
LINE
  5
D7
330
1F
100
AcDbEntity
  8
1
  6
Continuous
 62
     4
370
    50
100
AcDbLine
 10
57.471861
 20
-33.225354
 30
0.0
 11
57.181097
 21
-33.443545
 31
0.0
  0
LINE
  5
D8
330
1F
100
AcDbEntity
  8
1
  6
Continuous
 62
     4
370
    50
100
AcDbLine
 10
57.181097
 20
-33.443545
 30
0.0
 11
56.878502
 21
-33.644872
 31
0.0
  0
LINE
  5
D9
330
1F
100
AcDbEntity
  8
1
  6
Continuous
 62
     4
370
    50
100
AcDbLine
 10
56.878502
 20
-33.644872
 30
0.0
 11
56.565068
 21
-33.828674
 31
0.0
  0
LINE
  5
DA
330
1F
100
AcDbEntity
  8
1
  6
Continuous
 62
     4
370
    50
100
AcDbLine
 10
56.565068
 20
-33.828674
 30
0.0
 11
56.241824
 21
-33.994348
 31
0.0
  0
LINE
  5
DB
330
1F
100
AcDbEntity
  8
1
  6
Continuous
 62
     4
370
    50
100
AcDbLine
 10
56.241824
 20
-33.994348
 30
0.0
 11
55.909828
 21
-34.141351
 31
0.0
  0
LINE
  5
DC
330
1F
100
AcDbEntity
  8
1
  6
Continuous
 62
     4
370
    50
100
AcDbLine
 10
55.909828
 20
-34.141351
 30
0.0
 11
55.570169
 21
-34.269202
 31
0.0
  0
LINE
  5
DD
330
1F
100
AcDbEntity
  8
1
  6
Continuous
 62
     4
370
    50
100
AcDbLine
 10
55.570169
 20
-34.269202
 30
0.0
 11
55.223961
 21
-34.37748
 31
0.0
  0
LINE
  5
DE
330
1F
100
AcDbEntity
  8
1
  6
Continuous
 62
     4
370
    50
100
AcDbLine
 10
55.223961
 20
-34.37748
 30
0.0
 11
54.87234
 21
-34.465832
 31
0.0
  0
LINE
  5
DF
330
1F
100
AcDbEntity
  8
1
  6
Continuous
 62
     4
370
    50
100
AcDbLine
 10
54.87234
 20
-34.465832
 30
0.0
 11
54.516458
 21
-34.533967
 31
0.0
  0
LINE
  5
E0
330
1F
100
AcDbEntity
  8
1
  6
Continuous
 62
     4
370
    50
100
AcDbLine
 10
54.516458
 20
-34.533967
 30
0.0
 11
54.157481
 21
-34.581662
 31
0.0
  0
LINE
  5
E1
330
1F
100
AcDbEntity
  8
1
  6
Continuous
 62
     4
370
    50
100
AcDbLine
 10
54.157481
 20
-34.581662
 30
0.0
 11
53.796588
 21
-34.608761
 31
0.0
  0
LINE
  5
E2
330
1F
100
AcDbEntity
  8
1
  6
Continuous
 62
     4
370
    50
100
AcDbLine
 10
53.796588
 20
-34.608761
 30
0.0
 11
53.43496
 21
-34.615174
 31
0.0
  0
LINE
  5
E3
330
1F
100
AcDbEntity
  8
1
  6
Continuous
 62
     4
370
    50
100
AcDbLine
 10
53.43496
 20
-34.615174
 30
0.0
 11
53.073785
 21
-34.600881
 31
0.0
  0
LINE
  5
E4
330
1F
100
AcDbEntity
  8
1
  6
Continuous
 62
     4
370
    50
100
AcDbLine
 10
53.073785
 20
-34.600881
 30
0.0
 11
52.714245
 21
-34.565929
 31
0.0
  0
LINE
  5
E5
330
1F
100
AcDbEntity
  8
1
  6
Continuous
 62
     4
370
    50
100
AcDbLine
 10
40.102326
 20
-10.091876
 30
0.0
 11
40.320389
 21
-9.894088
 31
0.0
  0
LINE
  5
E6
330
1F
100
AcDbEntity
  8
1
  6
Continuous
 62
     4
370
    50
100
AcDbLine
 10
40.320389
 20
-9.894088
 30
0.0
 11
40.556627
 21
-9.718479
 31
0.0
  0
LINE
  5
E7
330
1F
100
AcDbEntity
  8
1
  6
Continuous
 62
     4
370
    50
100
AcDbLine
 10
40.556627
 20
-9.718479
 30
0.0
 11
40.808765
 21
-9.566742
 31
0.0
  0
LINE
  5
E8
330
1F
100
AcDbEntity
  8
1
  6
Continuous
 62
     4
370
    50
100
AcDbLine
 10
40.808765
 20
-9.566742
 30
0.0
 11
41.074374
 21
-9.440336
 31
0.0
  0
LINE
  5
E9
330
1F
100
AcDbEntity
  8
1
  6
Continuous
 62
     4
370
    50
100
AcDbLine
 10
41.074374
 20
-9.440336
 30
0.0
 11
41.350896
 21
-9.34048
 31
0.0
  0
LINE
  5
EA
330
1F
100
AcDbEntity
  8
1
  6
Continuous
 62
     4
370
    50
100
AcDbLine
 10
41.350896
 20
-9.34048
 30
0.0
 11
41.63567
 21
-9.268136
 31
0.0
  0
LINE
  5
EB
330
1F
100
AcDbEntity
  8
1
  6
Continuous
 62
     4
370
    50
100
AcDbLine
 10
41.63567
 20
-9.268136
 30
0.0
 11
41.925951
 21
-9.223999
 31
0.0
  0
LINE
  5
EC
330
1F
100
AcDbEntity
  8
1
  6
Continuous
 62
     4
370
    50
100
AcDbLine
 10
41.925951
 20
-9.223999
 30
0.0
 11
42.218944
 21
-9.208495
 31
0.0
  0
LINE
  5
ED
330
1F
100
AcDbEntity
  8
1
  6
Continuous
 62
     4
370
    50
100
AcDbLine
 10
42.218944
 20
-9.208495
 30
0.0
 11
42.511828
 21
-9.221774
 31
0.0
  0
LINE
  5
EE
330
1F
100
AcDbEntity
  8
1
  6
Continuous
 62
     4
370
    50
100
AcDbLine
 10
42.511828
 20
-9.221774
 30
0.0
 11
42.801782
 21
-9.263707
 31
0.0
  0
LINE
  5
EF
330
1F
100
AcDbEntity
  8
1
  6
Continuous
 62
     4
370
    50
100
AcDbLine
 10
42.801782
 20
-9.263707
 30
0.0
 11
43.086014
 21
-9.333891
 31
0.0
  0
LINE
  5
F0
330
1F
100
AcDbEntity
  8
1
  6
Continuous
 62
     4
370
    50
100
AcDbLine
 10
43.086014
 20
-9.333891
 30
0.0
 11
43.361786
 21
-9.431649
 31
0.0
  0
LINE
  5
F1
330
1F
100
AcDbEntity
  8
1
  6
Continuous
 62
     4
370
    50
100
AcDbLine
 10
43.361786
 20
-9.431649
 30
0.0
 11
43.626442
 21
-9.55604
 31
0.0
  0
LINE
  5
F2
330
1F
100
AcDbEntity
  8
1
  6
Continuous
 62
     4
370
    50
100
AcDbLine
 10
43.626442
 20
-9.55604
 30
0.0
 11
43.877435
 21
-9.705867
 31
0.0
  0
LINE
  5
F3
330
1F
100
AcDbEntity
  8
1
  6
Continuous
 62
     4
370
    50
100
AcDbLine
 10
43.877435
 20
-9.705867
 30
0.0
 11
44.112345
 21
-9.879686
 31
0.0
  0
LINE
  5
F4
330
1F
100
AcDbEntity
  8
1
  6
Continuous
 62
     4
370
    50
100
AcDbLine
 10
44.112345
 20
-9.879686
 30
0.0
 11
44.328912
 21
-10.075824
 31
0.0
  0
LINE
  5
F5
330
1F
100
AcDbEntity
  8
1
  6
Continuous
 62
     4
370
    50
100
AcDbLine
 10
35.348656
 20
-19.05608
 30
0.0
 11
35.152519
 21
-18.839513
 31
0.0
  0
LINE
  5
F6
330
1F
100
AcDbEntity
  8
1
  6
Continuous
 62
     4
370
    50
100
AcDbLine
 10
35.152519
 20
-18.839513
 30
0.0
 11
34.978699
 21
-18.604602
 31
0.0
  0
LINE
  5
F7
330
1F
100
AcDbEntity
  8
1
  6
Continuous
 62
     4
370
    50
100
AcDbLine
 10
34.978699
 20
-18.604602
 30
0.0
 11
34.828873
 21
-18.35361
 31
0.0
  0
LINE
  5
F8
330
1F
100
AcDbEntity
  8
1
  6
Continuous
 62
     4
370
    50
100
AcDbLine
 10
34.828873
 20
-18.35361
 30
0.0
 11
34.704481
 21
-18.088953
 31
0.0
  0
LINE
  5
F9
330
1F
100
AcDbEntity
  8
1
  6
Continuous
 62
     4
370
    50
100
AcDbLine
 10
34.704481
 20
-18.088953
 30
0.0
 11
34.606723
 21
-17.813181
 31
0.0
  0
LINE
  5
FA
330
1F
100
AcDbEntity
  8
1
  6
Continuous
 62
     4
370
    50
100
AcDbLine
 10
34.606723
 20
-17.813181
 30
0.0
 11
34.536539
 21
-17.528949
 31
0.0
  0
LINE
  5
FB
330
1F
100
AcDbEntity
  8
1
  6
Continuous
 62
     4
370
    50
100
AcDbLine
 10
34.536539
 20
-17.528949
 30
0.0
 11
34.494606
 21
-17.238994
 31
0.0
  0
LINE
  5
FC
330
1F
100
AcDbEntity
  8
1
  6
Continuous
 62
     4
370
    50
100
AcDbLine
 10
34.494606
 20
-17.238994
 30
0.0
 11
34.481328
 21
-16.94611
 31
0.0
  0
LINE
  5
FD
330
1F
100
AcDbEntity
  8
1
  6
Continuous
 62
     4
370
    50
100
AcDbLine
 10
34.481328
 20
-16.94611
 30
0.0
 11
34.496832
 21
-16.653117
 31
0.0
  0
LINE
  5
FE
330
1F
100
AcDbEntity
  8
1
  6
Continuous
 62
     4
370
    50
100
AcDbLine
 10
34.496832
 20
-16.653117
 30
0.0
 11
34.540968
 21
-16.362835
 31
0.0
  0
LINE
  5
FF
330
1F
100
AcDbEntity
  8
1
  6
Continuous
 62
     4
370
    50
100
AcDbLine
 10
34.540968
 20
-16.362835
 30
0.0
 11
34.613313
 21
-16.078062
 31
0.0
  0
LINE
  5
100
330
1F
100
AcDbEntity
  8
1
  6
Continuous
 62
     4
370
    50
100
AcDbLine
 10
34.613313
 20
-16.078062
 30
0.0
 11
34.713169
 21
-15.801539
 31
0.0
  0
LINE
  5
101
330
1F
100
AcDbEntity
  8
1
  6
Continuous
 62
     4
370
    50
100
AcDbLine
 10
34.713169
 20
-15.801539
 30
0.0
 11
34.839575
 21
-15.53593
 31
0.0
  0
LINE
  5
102
330
1F
100
AcDbEntity
  8
1
  6
Continuous
 62
     4
370
    50
100
AcDbLine
 10
34.839575
 20
-15.53593
 30
0.0
 11
34.991313
 21
-15.283792
 31
0.0
  0
LINE
  5
103
330
1F
100
AcDbEntity
  8
1
  6
Continuous
 62
     4
370
    50
100
AcDbLine
 10
34.991313
 20
-15.283792
 30
0.0
 11
35.166922
 21
-15.047554
 31
0.0
  0
LINE
  5
104
330
1F
100
AcDbEntity
  8
1
  6
Continuous
 62
     4
370
    50
100
AcDbLine
 10
35.166922
 20
-15.047554
 30
0.0
 11
35.36471
 21
-14.829491
 31
0.0
  0
LINE
  5
105
330
1F
100
AcDbEntity
  8
1
  6
Continuous
 62
     4
370
    50
100
AcDbLine
 10
39.494541
 20
-9.48409
 30
0.0
 11
39.712604
 21
-9.286302
 31
0.0
  0
LINE
  5
106
330
1F
100
AcDbEntity
  8
1
  6
Continuous
 62
     4
370
    50
100
AcDbLine
 10
39.712604
 20
-9.286302
 30
0.0
 11
39.948842
 21
-9.110693
 31
0.0
  0
LINE
  5
107
330
1F
100
AcDbEntity
  8
1
  6
Continuous
 62
     4
370
    50
100
AcDbLine
 10
39.948842
 20
-9.110693
 30
0.0
 11
40.200979
 21
-8.958956
 31
0.0
  0
LINE
  5
108
330
1F
100
AcDbEntity
  8
1
  6
Continuous
 62
     4
370
    50
100
AcDbLine
 10
40.200979
 20
-8.958956
 30
0.0
 11
40.466589
 21
-8.83255
 31
0.0
  0
LINE
  5
109
330
1F
100
AcDbEntity
  8
1
  6
Continuous
 62
     4
370
    50
100
AcDbLine
 10
40.466589
 20
-8.83255
 30
0.0
 11
40.743111
 21
-8.732695
 31
0.0
  0
LINE
  5
10A
330
1F
100
AcDbEntity
  8
1
  6
Continuous
 62
     4
370
    50
100
AcDbLine
 10
40.743111
 20
-8.732695
 30
0.0
 11
41.027884
 21
-8.66035
 31
0.0
  0
LINE
  5
10B
330
1F
100
AcDbEntity
  8
1
  6
Continuous
 62
     4
370
    50
100
AcDbLine
 10
41.027884
 20
-8.66035
 30
0.0
 11
41.318165
 21
-8.616213
 31
0.0
  0
LINE
  5
10C
330
1F
100
AcDbEntity
  8
1
  6
Continuous
 62
     4
370
    50
100
AcDbLine
 10
41.318165
 20
-8.616213
 30
0.0
 11
41.611159
 21
-8.60071
 31
0.0
  0
LINE
  5
10D
330
1F
100
AcDbEntity
  8
1
  6
Continuous
 62
     4
370
    50
100
AcDbLine
 10
41.611159
 20
-8.60071
 30
0.0
 11
41.904043
 21
-8.613988
 31
0.0
  0
LINE
  5
10E
330
1F
100
AcDbEntity
  8
1
  6
Continuous
 62
     4
370
    50
100
AcDbLine
 10
41.904043
 20
-8.613988
 30
0.0
 11
42.193997
 21
-8.655921
 31
0.0
  0
LINE
  5
10F
330
1F
100
AcDbEntity
  8
1
  6
Continuous
 62
     4
370
    50
100
AcDbLine
 10
42.193997
 20
-8.655921
 30
0.0
 11
42.478229
 21
-8.726105
 31
0.0
  0
LINE
  5
110
330
1F
100
AcDbEntity
  8
1
  6
Continuous
 62
     4
370
    50
100
AcDbLine
 10
42.478229
 20
-8.726105
 30
0.0
 11
42.754001
 21
-8.823863
 31
0.0
  0
LINE
  5
111
330
1F
100
AcDbEntity
  8
1
  6
Continuous
 62
     4
370
    50
100
AcDbLine
 10
42.754001
 20
-8.823863
 30
0.0
 11
43.018657
 21
-8.948255
 31
0.0
  0
LINE
  5
112
330
1F
100
AcDbEntity
  8
1
  6
Continuous
 62
     4
370
    50
100
AcDbLine
 10
43.018657
 20
-8.948255
 30
0.0
 11
43.269649
 21
-9.098081
 31
0.0
  0
LINE
  5
113
330
1F
100
AcDbEntity
  8
1
  6
Continuous
 62
     4
370
    50
100
AcDbLine
 10
43.269649
 20
-9.098081
 30
0.0
 11
43.50456
 21
-9.271901
 31
0.0
  0
LINE
  5
114
330
1F
100
AcDbEntity
  8
1
  6
Continuous
 62
     4
370
    50
100
AcDbLine
 10
43.50456
 20
-9.271901
 30
0.0
 11
43.721127
 21
-9.468038
 31
0.0
  0
LINE
  5
115
330
1F
100
AcDbEntity
  8
1
  6
Continuous
 62
     4
370
    50
100
AcDbLine
 10
34.740871
 20
-18.448294
 30
0.0
 11
34.544733
 21
-18.231727
 31
0.0
  0
LINE
  5
116
330
1F
100
AcDbEntity
  8
1
  6
Continuous
 62
     4
370
    50
100
AcDbLine
 10
34.544733
 20
-18.231727
 30
0.0
 11
34.370914
 21
-17.996816
 31
0.0
  0
LINE
  5
117
330
1F
100
AcDbEntity
  8
1
  6
Continuous
 62
     4
370
    50
100
AcDbLine
 10
34.370914
 20
-17.996816
 30
0.0
 11
34.221087
 21
-17.745824
 31
0.0
  0
LINE
  5
118
330
1F
100
AcDbEntity
  8
1
  6
Continuous
 62
     4
370
    50
100
AcDbLine
 10
34.221087
 20
-17.745824
 30
0.0
 11
34.096696
 21
-17.481167
 31
0.0
  0
LINE
  5
119
330
1F
100
AcDbEntity
  8
1
  6
Continuous
 62
     4
370
    50
100
AcDbLine
 10
34.096696
 20
-17.481167
 30
0.0
 11
33.998938
 21
-17.205395
 31
0.0
  0
LINE
  5
11A
330
1F
100
AcDbEntity
  8
1
  6
Continuous
 62
     4
370
    50
100
AcDbLine
 10
33.998938
 20
-17.205395
 30
0.0
 11
33.928754
 21
-16.921163
 31
0.0
  0
LINE
  5
11B
330
1F
100
AcDbEntity
  8
1
  6
Continuous
 62
     4
370
    50
100
AcDbLine
 10
33.928754
 20
-16.921163
 30
0.0
 11
33.886821
 21
-16.631209
 31
0.0
  0
LINE
  5
11C
330
1F
100
AcDbEntity
  8
1
  6
Continuous
 62
     4
370
    50
100
AcDbLine
 10
33.886821
 20
-16.631209
 30
0.0
 11
33.873543
 21
-16.338324
 31
0.0
  0
LINE
  5
11D
330
1F
100
AcDbEntity
  8
1
  6
Continuous
 62
     4
370
    50
100
AcDbLine
 10
33.873543
 20
-16.338324
 30
0.0
 11
33.889046
 21
-16.045331
 31
0.0
  0
LINE
  5
11E
330
1F
100
AcDbEntity
  8
1
  6
Continuous
 62
     4
370
    50
100
AcDbLine
 10
33.889046
 20
-16.045331
 30
0.0
 11
33.933183
 21
-15.75505
 31
0.0
  0
LINE
  5
11F
330
1F
100
AcDbEntity
  8
1
  6
Continuous
 62
     4
370
    50
100
AcDbLine
 10
33.933183
 20
-15.75505
 30
0.0
 11
34.005528
 21
-15.470276
 31
0.0
  0
LINE
  5
120
330
1F
100
AcDbEntity
  8
1
  6
Continuous
 62
     4
370
    50
100
AcDbLine
 10
34.005528
 20
-15.470276
 30
0.0
 11
34.105384
 21
-15.193754
 31
0.0
  0
LINE
  5
121
330
1F
100
AcDbEntity
  8
1
  6
Continuous
 62
     4
370
    50
100
AcDbLine
 10
34.105384
 20
-15.193754
 30
0.0
 11
34.23179
 21
-14.928144
 31
0.0
  0
LINE
  5
122
330
1F
100
AcDbEntity
  8
1
  6
Continuous
 62
     4
370
    50
100
AcDbLine
 10
34.23179
 20
-14.928144
 30
0.0
 11
34.383528
 21
-14.676007
 31
0.0
  0
LINE
  5
123
330
1F
100
AcDbEntity
  8
1
  6
Continuous
 62
     4
370
    50
100
AcDbLine
 10
34.383528
 20
-14.676007
 30
0.0
 11
34.559137
 21
-14.439769
 31
0.0
  0
LINE
  5
124
330
1F
100
AcDbEntity
  8
1
  6
Continuous
 62
     4
370
    50
100
AcDbLine
 10
34.559137
 20
-14.439769
 30
0.0
 11
34.756925
 21
-14.221705
 31
0.0
  0
LINE
  5
125
330
1F
100
AcDbEntity
  8
1
  6
Continuous
 62
     4
370
    50
100
AcDbLine
 10
38.610714
 20
-13.337877
 30
0.0
 11
38.992324
 21
-12.991748
 31
0.0
  0
LINE
  5
126
330
1F
100
AcDbEntity
  8
1
  6
Continuous
 62
     4
370
    50
100
AcDbLine
 10
38.992324
 20
-12.991748
 30
0.0
 11
39.405741
 21
-12.684433
 31
0.0
  0
LINE
  5
127
330
1F
100
AcDbEntity
  8
1
  6
Continuous
 62
     4
370
    50
100
AcDbLine
 10
39.405741
 20
-12.684433
 30
0.0
 11
39.846982
 21
-12.418892
 31
0.0
  0
LINE
  5
128
330
1F
100
AcDbEntity
  8
1
  6
Continuous
 62
     4
370
    50
100
AcDbLine
 10
39.846982
 20
-12.418892
 30
0.0
 11
40.311798
 21
-12.197683
 31
0.0
  0
LINE
  5
129
330
1F
100
AcDbEntity
  8
1
  6
Continuous
 62
     4
370
    50
100
AcDbLine
 10
40.311798
 20
-12.197683
 30
0.0
 11
40.795713
 21
-12.022935
 31
0.0
  0
LINE
  5
12A
330
1F
100
AcDbEntity
  8
1
  6
Continuous
 62
     4
370
    50
100
AcDbLine
 10
40.795713
 20
-12.022935
 30
0.0
 11
41.294066
 21
-11.896332
 31
0.0
  0
LINE
  5
12B
330
1F
100
AcDbEntity
  8
1
  6
Continuous
 62
     4
370
    50
100
AcDbLine
 10
41.294066
 20
-11.896332
 30
0.0
 11
41.802058
 21
-11.819093
 31
0.0
  0
LINE
  5
12C
330
1F
100
AcDbEntity
  8
1
  6
Continuous
 62
     4
370
    50
100
AcDbLine
 10
41.802058
 20
-11.819093
 30
0.0
 11
42.314796
 21
-11.791962
 31
0.0
  0
LINE
  5
12D
330
1F
100
AcDbEntity
  8
1
  6
Continuous
 62
     4
370
    50
100
AcDbLine
 10
42.314796
 20
-11.791962
 30
0.0
 11
42.827344
 21
-11.815199
 31
0.0
  0
LINE
  5
12E
330
1F
100
AcDbEntity
  8
1
  6
Continuous
 62
     4
370
    50
100
AcDbLine
 10
42.827344
 20
-11.815199
 30
0.0
 11
43.334763
 21
-11.888582
 31
0.0
  0
LINE
  5
12F
330
1F
100
AcDbEntity
  8
1
  6
Continuous
 62
     4
370
    50
100
AcDbLine
 10
43.334763
 20
-11.888582
 30
0.0
 11
43.832169
 21
-12.011404
 31
0.0
  0
LINE
  5
130
330
1F
100
AcDbEntity
  8
1
  6
Continuous
 62
     4
370
    50
100
AcDbLine
 10
43.832169
 20
-12.011404
 30
0.0
 11
44.31477
 21
-12.182481
 31
0.0
  0
LINE
  5
131
330
1F
100
AcDbEntity
  8
1
  6
Continuous
 62
     4
370
    50
100
AcDbLine
 10
44.31477
 20
-12.182481
 30
0.0
 11
44.777919
 21
-12.400166
 31
0.0
  0
LINE
  5
132
330
1F
100
AcDbEntity
  8
1
  6
Continuous
 62
     4
370
    50
100
AcDbLine
 10
44.777919
 20
-12.400166
 30
0.0
 11
45.217156
 21
-12.662363
 31
0.0
  0
LINE
  5
133
330
1F
100
AcDbEntity
  8
1
  6
Continuous
 62
     4
370
    50
100
AcDbLine
 10
45.217156
 20
-12.662363
 30
0.0
 11
45.628249
 21
-12.966547
 31
0.0
  0
LINE
  5
134
330
1F
100
AcDbEntity
  8
1
  6
Continuous
 62
     4
370
    50
100
AcDbLine
 10
45.628249
 20
-12.966547
 30
0.0
 11
46.007241
 21
-13.309788
 31
0.0
  0
LINE
  5
135
330
1F
100
AcDbEntity
  8
1
  6
Continuous
 62
     4
370
    50
100
AcDbLine
 10
46.007241
 20
-13.309788
 30
0.0
 11
46.350482
 21
-13.68878
 31
0.0
  0
LINE
  5
136
330
1F
100
AcDbEntity
  8
1
  6
Continuous
 62
     4
370
    50
100
AcDbLine
 10
46.350482
 20
-13.68878
 30
0.0
 11
46.654665
 21
-14.099874
 31
0.0
  0
LINE
  5
137
330
1F
100
AcDbEntity
  8
1
  6
Continuous
 62
     4
370
    50
100
AcDbLine
 10
46.654665
 20
-14.099874
 30
0.0
 11
46.916862
 21
-14.539111
 31
0.0
  0
LINE
  5
138
330
1F
100
AcDbEntity
  8
1
  6
Continuous
 62
     4
370
    50
100
AcDbLine
 10
46.916862
 20
-14.539111
 30
0.0
 11
47.134547
 21
-15.00226
 31
0.0
  0
LINE
  5
139
330
1F
100
AcDbEntity
  8
1
  6
Continuous
 62
     4
370
    50
100
AcDbLine
 10
47.134547
 20
-15.00226
 30
0.0
 11
47.305624
 21
-15.484861
 31
0.0
  0
LINE
  5
13A
330
1F
100
AcDbEntity
  8
1
  6
Continuous
 62
     4
370
    50
100
AcDbLine
 10
47.305624
 20
-15.484861
 30
0.0
 11
47.428445
 21
-15.982267
 31
0.0
  0
LINE
  5
13B
330
1F
100
AcDbEntity
  8
1
  6
Continuous
 62
     4
370
    50
100
AcDbLine
 10
47.428445
 20
-15.982267
 30
0.0
 11
47.501828
 21
-16.489687
 31
0.0
  0
LINE
  5
13C
330
1F
100
AcDbEntity
  8
1
  6
Continuous
 62
     4
370
    50
100
AcDbLine
 10
47.501828
 20
-16.489687
 30
0.0
 11
47.525065
 21
-17.002234
 31
0.0
  0
LINE
  5
13D
330
1F
100
AcDbEntity
  8
1
  6
Continuous
 62
     4
370
    50
100
AcDbLine
 10
47.525065
 20
-17.002234
 30
0.0
 11
47.497933
 21
-17.514973
 31
0.0
  0
LINE
  5
13E
330
1F
100
AcDbEntity
  8
1
  6
Continuous
 62
     4
370
    50
100
AcDbLine
 10
47.497933
 20
-17.514973
 30
0.0
 11
47.420694
 21
-18.022964
 31
0.0
  0
LINE
  5
13F
330
1F
100
AcDbEntity
  8
1
  6
Continuous
 62
     4
370
    50
100
AcDbLine
 10
47.420694
 20
-18.022964
 30
0.0
 11
47.29409
 21
-18.521317
 31
0.0
  0
LINE
  5
140
330
1F
100
AcDbEntity
  8
1
  6
Continuous
 62
     4
370
    50
100
AcDbLine
 10
47.29409
 20
-18.521317
 30
0.0
 11
47.119342
 21
-19.005232
 31
0.0
  0
LINE
  5
141
330
1F
100
AcDbEntity
  8
1
  6
Continuous
 62
     4
370
    50
100
AcDbLine
 10
47.119342
 20
-19.005232
 30
0.0
 11
46.898132
 21
-19.470048
 31
0.0
  0
LINE
  5
142
330
1F
100
AcDbEntity
  8
1
  6
Continuous
 62
     4
370
    50
100
AcDbLine
 10
46.898132
 20
-19.470048
 30
0.0
 11
46.632591
 21
-19.911289
 31
0.0
  0
LINE
  5
143
330
1F
100
AcDbEntity
  8
1
  6
Continuous
 62
     4
370
    50
100
AcDbLine
 10
46.632591
 20
-19.911289
 30
0.0
 11
46.325276
 21
-20.324705
 31
0.0
  0
LINE
  5
144
330
1F
100
AcDbEntity
  8
1
  6
Continuous
 62
     4
370
    50
100
AcDbLine
 10
46.325276
 20
-20.324705
 30
0.0
 11
45.979146
 21
-20.706316
 31
0.0
  0
LINE
  5
145
330
1F
100
AcDbEntity
  8
1
  6
Continuous
 62
     4
370
    50
100
AcDbLine
 10
45.979146
 20
-20.706316
 30
0.0
 11
45.597536
 21
-21.052445
 31
0.0
  0
LINE
  5
146
330
1F
100
AcDbEntity
  8
1
  6
Continuous
 62
     4
370
    50
100
AcDbLine
 10
45.597536
 20
-21.052445
 30
0.0
 11
45.184119
 21
-21.35976
 31
0.0
  0
LINE
  5
147
330
1F
100
AcDbEntity
  8
1
  6
Continuous
 62
     4
370
    50
100
AcDbLine
 10
45.184119
 20
-21.35976
 30
0.0
 11
44.742878
 21
-21.625301
 31
0.0
  0
LINE
  5
148
330
1F
100
AcDbEntity
  8
1
  6
Continuous
 62
     4
370
    50
100
AcDbLine
 10
44.742878
 20
-21.625301
 30
0.0
 11
44.278062
 21
-21.846511
 31
0.0
  0
LINE
  5
149
330
1F
100
AcDbEntity
  8
1
  6
Continuous
 62
     4
370
    50
100
AcDbLine
 10
44.278062
 20
-21.846511
 30
0.0
 11
43.794147
 21
-22.021259
 31
0.0
  0
LINE
  5
14A
330
1F
100
AcDbEntity
  8
1
  6
Continuous
 62
     4
370
    50
100
AcDbLine
 10
43.794147
 20
-22.021259
 30
0.0
 11
43.295794
 21
-22.147862
 31
0.0
  0
LINE
  5
14B
330
1F
100
AcDbEntity
  8
1
  6
Continuous
 62
     4
370
    50
100
AcDbLine
 10
43.295794
 20
-22.147862
 30
0.0
 11
42.787802
 21
-22.225101
 31
0.0
  0
LINE
  5
14C
330
1F
100
AcDbEntity
  8
1
  6
Continuous
 62
     4
370
    50
100
AcDbLine
 10
42.787802
 20
-22.225101
 30
0.0
 11
42.275064
 21
-22.252232
 31
0.0
  0
LINE
  5
14D
330
1F
100
AcDbEntity
  8
1
  6
Continuous
 62
     4
370
    50
100
AcDbLine
 10
42.275064
 20
-22.252232
 30
0.0
 11
41.762517
 21
-22.228995
 31
0.0
  0
LINE
  5
14E
330
1F
100
AcDbEntity
  8
1
  6
Continuous
 62
     4
370
    50
100
AcDbLine
 10
41.762517
 20
-22.228995
 30
0.0
 11
41.255097
 21
-22.155612
 31
0.0
  0
LINE
  5
14F
330
1F
100
AcDbEntity
  8
1
  6
Continuous
 62
     4
370
    50
100
AcDbLine
 10
41.255097
 20
-22.155612
 30
0.0
 11
40.757691
 21
-22.032791
 31
0.0
  0
LINE
  5
150
330
1F
100
AcDbEntity
  8
1
  6
Continuous
 62
     4
370
    50
100
AcDbLine
 10
40.757691
 20
-22.032791
 30
0.0
 11
40.27509
 21
-21.861714
 31
0.0
  0
LINE
  5
151
330
1F
100
AcDbEntity
  8
1
  6
Continuous
 62
     4
370
    50
100
AcDbLine
 10
40.27509
 20
-21.861714
 30
0.0
 11
39.811941
 21
-21.644028
 31
0.0
  0
LINE
  5
152
330
1F
100
AcDbEntity
  8
1
  6
Continuous
 62
     4
370
    50
100
AcDbLine
 10
39.811941
 20
-21.644028
 30
0.0
 11
39.372705
 21
-21.381831
 31
0.0
  0
LINE
  5
153
330
1F
100
AcDbEntity
  8
1
  6
Continuous
 62
     4
370
    50
100
AcDbLine
 10
39.372705
 20
-21.381831
 30
0.0
 11
38.961611
 21
-21.077648
 31
0.0
  0
LINE
  5
154
330
1F
100
AcDbEntity
  8
1
  6
Continuous
 62
     4
370
    50
100
AcDbLine
 10
38.961611
 20
-21.077648
 30
0.0
 11
38.582618
 21
-20.734407
 31
0.0
  0
LINE
  5
155
330
1F
100
AcDbEntity
  8
1
  6
Continuous
 62
     4
370
    50
100
AcDbLine
 10
38.582618
 20
-20.734407
 30
0.0
 11
38.239378
 21
-20.355415
 31
0.0
  0
LINE
  5
156
330
1F
100
AcDbEntity
  8
1
  6
Continuous
 62
     4
370
    50
100
AcDbLine
 10
38.239378
 20
-20.355415
 30
0.0
 11
37.935194
 21
-19.944321
 31
0.0
  0
LINE
  5
157
330
1F
100
AcDbEntity
  8
1
  6
Continuous
 62
     4
370
    50
100
AcDbLine
 10
37.935194
 20
-19.944321
 30
0.0
 11
37.672997
 21
-19.505084
 31
0.0
  0
LINE
  5
158
330
1F
100
AcDbEntity
  8
1
  6
Continuous
 62
     4
370
    50
100
AcDbLine
 10
37.672997
 20
-19.505084
 30
0.0
 11
37.455312
 21
-19.041935
 31
0.0
  0
LINE
  5
159
330
1F
100
AcDbEntity
  8
1
  6
Continuous
 62
     4
370
    50
100
AcDbLine
 10
37.455312
 20
-19.041935
 30
0.0
 11
37.284235
 21
-18.559334
 31
0.0
  0
LINE
  5
15A
330
1F
100
AcDbEntity
  8
1
  6
Continuous
 62
     4
370
    50
100
AcDbLine
 10
37.284235
 20
-18.559334
 30
0.0
 11
37.161414
 21
-18.061928
 31
0.0
  0
LINE
  5
15B
330
1F
100
AcDbEntity
  8
1
  6
Continuous
 62
     4
370
    50
100
AcDbLine
 10
37.161414
 20
-18.061928
 30
0.0
 11
37.088032
 21
-17.554509
 31
0.0
  0
LINE
  5
15C
330
1F
100
AcDbEntity
  8
1
  6
Continuous
 62
     4
370
    50
100
AcDbLine
 10
37.088032
 20
-17.554509
 30
0.0
 11
37.064794
 21
-17.041961
 31
0.0
  0
LINE
  5
15D
330
1F
100
AcDbEntity
  8
1
  6
Continuous
 62
     4
370
    50
100
AcDbLine
 10
37.064794
 20
-17.041961
 30
0.0
 11
37.091926
 21
-16.529223
 31
0.0
  0
LINE
  5
15E
330
1F
100
AcDbEntity
  8
1
  6
Continuous
 62
     4
370
    50
100
AcDbLine
 10
37.091926
 20
-16.529223
 30
0.0
 11
37.169165
 21
-16.021231
 31
0.0
  0
LINE
  5
15F
330
1F
100
AcDbEntity
  8
1
  6
Continuous
 62
     4
370
    50
100
AcDbLine
 10
37.169165
 20
-16.021231
 30
0.0
 11
37.295768
 21
-15.522878
 31
0.0
  0
LINE
  5
160
330
1F
100
AcDbEntity
  8
1
  6
Continuous
 62
     4
370
    50
100
AcDbLine
 10
37.295768
 20
-15.522878
 30
0.0
 11
37.470516
 21
-15.038963
 31
0.0
  0
LINE
  5
161
330
1F
100
AcDbEntity
  8
1
  6
Continuous
 62
     4
370
    50
100
AcDbLine
 10
37.470516
 20
-15.038963
 30
0.0
 11
37.691726
 21
-14.574147
 31
0.0
  0
LINE
  5
162
330
1F
100
AcDbEntity
  8
1
  6
Continuous
 62
     4
370
    50
100
AcDbLine
 10
37.691726
 20
-14.574147
 30
0.0
 11
37.957267
 21
-14.132906
 31
0.0
  0
LINE
  5
163
330
1F
100
AcDbEntity
  8
1
  6
Continuous
 62
     4
370
    50
100
AcDbLine
 10
37.957267
 20
-14.132906
 30
0.0
 11
38.264582
 21
-13.71949
 31
0.0
  0
LINE
  5
164
330
1F
100
AcDbEntity
  8
1
  6
Continuous
 62
     4
370
    50
100
AcDbLine
 10
38.264582
 20
-13.71949
 30
0.0
 11
38.610712
 21
-13.337879
 31
0.0
  0
LINE
  5
165
330
1F
100
AcDbEntity
  8
1
  6
Continuous
 62
     4
370
    50
100
AcDbLine
 10
38.680175
 20
-13.407339
 30
0.0
 11
39.061785
 21
-13.061209
 31
0.0
  0
LINE
  5
166
330
1F
100
AcDbEntity
  8
1
  6
Continuous
 62
     4
370
    50
100
AcDbLine
 10
39.061785
 20
-13.061209
 30
0.0
 11
39.475202
 21
-12.753894
 31
0.0
  0
LINE
  5
167
330
1F
100
AcDbEntity
  8
1
  6
Continuous
 62
     4
370
    50
100
AcDbLine
 10
39.475202
 20
-12.753894
 30
0.0
 11
39.916443
 21
-12.488354
 31
0.0
  0
LINE
  5
168
330
1F
100
AcDbEntity
  8
1
  6
Continuous
 62
     4
370
    50
100
AcDbLine
 10
39.916443
 20
-12.488354
 30
0.0
 11
40.381259
 21
-12.267144
 31
0.0
  0
LINE
  5
169
330
1F
100
AcDbEntity
  8
1
  6
Continuous
 62
     4
370
    50
100
AcDbLine
 10
40.381259
 20
-12.267144
 30
0.0
 11
40.865174
 21
-12.092397
 31
0.0
  0
LINE
  5
16A
330
1F
100
AcDbEntity
  8
1
  6
Continuous
 62
     4
370
    50
100
AcDbLine
 10
40.865174
 20
-12.092397
 30
0.0
 11
41.363527
 21
-11.965793
 31
0.0
  0
LINE
  5
16B
330
1F
100
AcDbEntity
  8
1
  6
Continuous
 62
     4
370
    50
100
AcDbLine
 10
41.363527
 20
-11.965793
 30
0.0
 11
41.871519
 21
-11.888554
 31
0.0
  0
LINE
  5
16C
330
1F
100
AcDbEntity
  8
1
  6
Continuous
 62
     4
370
    50
100
AcDbLine
 10
41.871519
 20
-11.888554
 30
0.0
 11
42.384258
 21
-11.861423
 31
0.0
  0
LINE
  5
16D
330
1F
100
AcDbEntity
  8
1
  6
Continuous
 62
     4
370
    50
100
AcDbLine
 10
42.384258
 20
-11.861423
 30
0.0
 11
42.896805
 21
-11.884661
 31
0.0
  0
LINE
  5
16E
330
1F
100
AcDbEntity
  8
1
  6
Continuous
 62
     4
370
    50
100
AcDbLine
 10
42.896805
 20
-11.884661
 30
0.0
 11
43.404225
 21
-11.958044
 31
0.0
  0
LINE
  5
16F
330
1F
100
AcDbEntity
  8
1
  6
Continuous
 62
     4
370
    50
100
AcDbLine
 10
43.404225
 20
-11.958044
 30
0.0
 11
43.90163
 21
-12.080865
 31
0.0
  0
LINE
  5
170
330
1F
100
AcDbEntity
  8
1
  6
Continuous
 62
     4
370
    50
100
AcDbLine
 10
43.90163
 20
-12.080865
 30
0.0
 11
44.384231
 21
-12.251942
 31
0.0
  0
LINE
  5
171
330
1F
100
AcDbEntity
  8
1
  6
Continuous
 62
     4
370
    50
100
AcDbLine
 10
44.384231
 20
-12.251942
 30
0.0
 11
44.84738
 21
-12.469628
 31
0.0
  0
LINE
  5
172
330
1F
100
AcDbEntity
  8
1
  6
Continuous
 62
     4
370
    50
100
AcDbLine
 10
44.84738
 20
-12.469628
 30
0.0
 11
45.286617
 21
-12.731825
 31
0.0
  0
LINE
  5
173
330
1F
100
AcDbEntity
  8
1
  6
Continuous
 62
     4
370
    50
100
AcDbLine
 10
45.286617
 20
-12.731825
 30
0.0
 11
45.697711
 21
-13.036008
 31
0.0
  0
LINE
  5
174
330
1F
100
AcDbEntity
  8
1
  6
Continuous
 62
     4
370
    50
100
AcDbLine
 10
45.697711
 20
-13.036008
 30
0.0
 11
46.076703
 21
-13.379249
 31
0.0
  0
LINE
  5
175
330
1F
100
AcDbEntity
  8
1
  6
Continuous
 62
     4
370
    50
100
AcDbLine
 10
46.076703
 20
-13.379249
 30
0.0
 11
46.419943
 21
-13.758241
 31
0.0
  0
LINE
  5
176
330
1F
100
AcDbEntity
  8
1
  6
Continuous
 62
     4
370
    50
100
AcDbLine
 10
46.419943
 20
-13.758241
 30
0.0
 11
46.724127
 21
-14.169336
 31
0.0
  0
LINE
  5
177
330
1F
100
AcDbEntity
  8
1
  6
Continuous
 62
     4
370
    50
100
AcDbLine
 10
46.724127
 20
-14.169336
 30
0.0
 11
46.986323
 21
-14.608572
 31
0.0
  0
LINE
  5
178
330
1F
100
AcDbEntity
  8
1
  6
Continuous
 62
     4
370
    50
100
AcDbLine
 10
46.986323
 20
-14.608572
 30
0.0
 11
47.204008
 21
-15.071721
 31
0.0
  0
LINE
  5
179
330
1F
100
AcDbEntity
  8
1
  6
Continuous
 62
     4
370
    50
100
AcDbLine
 10
47.204008
 20
-15.071721
 30
0.0
 11
47.375085
 21
-15.554323
 31
0.0
  0
LINE
  5
17A
330
1F
100
AcDbEntity
  8
1
  6
Continuous
 62
     4
370
    50
100
AcDbLine
 10
47.375085
 20
-15.554323
 30
0.0
 11
47.497906
 21
-16.051728
 31
0.0
  0
LINE
  5
17B
330
1F
100
AcDbEntity
  8
1
  6
Continuous
 62
     4
370
    50
100
AcDbLine
 10
47.497906
 20
-16.051728
 30
0.0
 11
47.571289
 21
-16.559148
 31
0.0
  0
LINE
  5
17C
330
1F
100
AcDbEntity
  8
1
  6
Continuous
 62
     4
370
    50
100
AcDbLine
 10
47.571289
 20
-16.559148
 30
0.0
 11
47.594526
 21
-17.071695
 31
0.0
  0
LINE
  5
17D
330
1F
100
AcDbEntity
  8
1
  6
Continuous
 62
     4
370
    50
100
AcDbLine
 10
47.594526
 20
-17.071695
 30
0.0
 11
47.567394
 21
-17.584434
 31
0.0
  0
LINE
  5
17E
330
1F
100
AcDbEntity
  8
1
  6
Continuous
 62
     4
370
    50
100
AcDbLine
 10
47.567394
 20
-17.584434
 30
0.0
 11
47.490155
 21
-18.092426
 31
0.0
  0
LINE
  5
17F
330
1F
100
AcDbEntity
  8
1
  6
Continuous
 62
     4
370
    50
100
AcDbLine
 10
47.490155
 20
-18.092426
 30
0.0
 11
47.363551
 21
-18.590779
 31
0.0
  0
LINE
  5
180
330
1F
100
AcDbEntity
  8
1
  6
Continuous
 62
     4
370
    50
100
AcDbLine
 10
47.363551
 20
-18.590779
 30
0.0
 11
47.188803
 21
-19.074693
 31
0.0
  0
LINE
  5
181
330
1F
100
AcDbEntity
  8
1
  6
Continuous
 62
     4
370
    50
100
AcDbLine
 10
47.188803
 20
-19.074693
 30
0.0
 11
46.967593
 21
-19.539509
 31
0.0
  0
LINE
  5
182
330
1F
100
AcDbEntity
  8
1
  6
Continuous
 62
     4
370
    50
100
AcDbLine
 10
46.967593
 20
-19.539509
 30
0.0
 11
46.702052
 21
-19.98075
 31
0.0
  0
LINE
  5
183
330
1F
100
AcDbEntity
  8
1
  6
Continuous
 62
     4
370
    50
100
AcDbLine
 10
46.702052
 20
-19.98075
 30
0.0
 11
46.394737
 21
-20.394167
 31
0.0
  0
LINE
  5
184
330
1F
100
AcDbEntity
  8
1
  6
Continuous
 62
     4
370
    50
100
AcDbLine
 10
46.394737
 20
-20.394167
 30
0.0
 11
46.048608
 21
-20.775777
 31
0.0
  0
LINE
  5
185
330
1F
100
AcDbEntity
  8
1
  6
Continuous
 62
     4
370
    50
100
AcDbLine
 10
46.048608
 20
-20.775777
 30
0.0
 11
45.666997
 21
-21.121906
 31
0.0
  0
LINE
  5
186
330
1F
100
AcDbEntity
  8
1
  6
Continuous
 62
     4
370
    50
100
AcDbLine
 10
45.666997
 20
-21.121906
 30
0.0
 11
45.25358
 21
-21.429221
 31
0.0
  0
LINE
  5
187
330
1F
100
AcDbEntity
  8
1
  6
Continuous
 62
     4
370
    50
100
AcDbLine
 10
45.25358
 20
-21.429221
 30
0.0
 11
44.812339
 21
-21.694762
 31
0.0
  0
LINE
  5
188
330
1F
100
AcDbEntity
  8
1
  6
Continuous
 62
     4
370
    50
100
AcDbLine
 10
44.812339
 20
-21.694762
 30
0.0
 11
44.347523
 21
-21.915972
 31
0.0
  0
LINE
  5
189
330
1F
100
AcDbEntity
  8
1
  6
Continuous
 62
     4
370
    50
100
AcDbLine
 10
44.347523
 20
-21.915972
 30
0.0
 11
43.863609
 21
-22.09072
 31
0.0
  0
LINE
  5
18A
330
1F
100
AcDbEntity
  8
1
  6
Continuous
 62
     4
370
    50
100
AcDbLine
 10
43.863609
 20
-22.09072
 30
0.0
 11
43.365255
 21
-22.217323
 31
0.0
  0
LINE
  5
18B
330
1F
100
AcDbEntity
  8
1
  6
Continuous
 62
     4
370
    50
100
AcDbLine
 10
43.365255
 20
-22.217323
 30
0.0
 11
42.857264
 21
-22.294562
 31
0.0
  0
LINE
  5
18C
330
1F
100
AcDbEntity
  8
1
  6
Continuous
 62
     4
370
    50
100
AcDbLine
 10
42.857264
 20
-22.294562
 30
0.0
 11
42.344525
 21
-22.321694
 31
0.0
  0
LINE
  5
18D
330
1F
100
AcDbEntity
  8
1
  6
Continuous
 62
     4
370
    50
100
AcDbLine
 10
42.344525
 20
-22.321694
 30
0.0
 11
41.831978
 21
-22.298456
 31
0.0
  0
LINE
  5
18E
330
1F
100
AcDbEntity
  8
1
  6
Continuous
 62
     4
370
    50
100
AcDbLine
 10
41.831978
 20
-22.298456
 30
0.0
 11
41.324558
 21
-22.225073
 31
0.0
  0
LINE
  5
18F
330
1F
100
AcDbEntity
  8
1
  6
Continuous
 62
     4
370
    50
100
AcDbLine
 10
41.324558
 20
-22.225073
 30
0.0
 11
40.827152
 21
-22.102252
 31
0.0
  0
LINE
  5
190
330
1F
100
AcDbEntity
  8
1
  6
Continuous
 62
     4
370
    50
100
AcDbLine
 10
40.827152
 20
-22.102252
 30
0.0
 11
40.344551
 21
-21.931175
 31
0.0
  0
LINE
  5
191
330
1F
100
AcDbEntity
  8
1
  6
Continuous
 62
     4
370
    50
100
AcDbLine
 10
40.344551
 20
-21.931175
 30
0.0
 11
39.881402
 21
-21.71349
 31
0.0
  0
LINE
  5
192
330
1F
100
AcDbEntity
  8
1
  6
Continuous
 62
     4
370
    50
100
AcDbLine
 10
39.881402
 20
-21.71349
 30
0.0
 11
39.442166
 21
-21.451293
 31
0.0
  0
LINE
  5
193
330
1F
100
AcDbEntity
  8
1
  6
Continuous
 62
     4
370
    50
100
AcDbLine
 10
39.442166
 20
-21.451293
 30
0.0
 11
39.031072
 21
-21.147109
 31
0.0
  0
LINE
  5
194
330
1F
100
AcDbEntity
  8
1
  6
Continuous
 62
     4
370
    50
100
AcDbLine
 10
39.031072
 20
-21.147109
 30
0.0
 11
38.65208
 21
-20.803868
 31
0.0
  0
LINE
  5
195
330
1F
100
AcDbEntity
  8
1
  6
Continuous
 62
     4
370
    50
100
AcDbLine
 10
38.65208
 20
-20.803868
 30
0.0
 11
38.308839
 21
-20.424876
 31
0.0
  0
LINE
  5
196
330
1F
100
AcDbEntity
  8
1
  6
Continuous
 62
     4
370
    50
100
AcDbLine
 10
38.308839
 20
-20.424876
 30
0.0
 11
38.004655
 21
-20.013782
 31
0.0
  0
LINE
  5
197
330
1F
100
AcDbEntity
  8
1
  6
Continuous
 62
     4
370
    50
100
AcDbLine
 10
38.004655
 20
-20.013782
 30
0.0
 11
37.742459
 21
-19.574546
 31
0.0
  0
LINE
  5
198
330
1F
100
AcDbEntity
  8
1
  6
Continuous
 62
     4
370
    50
100
AcDbLine
 10
37.742459
 20
-19.574546
 30
0.0
 11
37.524774
 21
-19.111397
 31
0.0
  0
LINE
  5
199
330
1F
100
AcDbEntity
  8
1
  6
Continuous
 62
     4
370
    50
100
AcDbLine
 10
37.524774
 20
-19.111397
 30
0.0
 11
37.353697
 21
-18.628795
 31
0.0
  0
LINE
  5
19A
330
1F
100
AcDbEntity
  8
1
  6
Continuous
 62
     4
370
    50
100
AcDbLine
 10
37.353697
 20
-18.628795
 30
0.0
 11
37.230875
 21
-18.13139
 31
0.0
  0
LINE
  5
19B
330
1F
100
AcDbEntity
  8
1
  6
Continuous
 62
     4
370
    50
100
AcDbLine
 10
37.230875
 20
-18.13139
 30
0.0
 11
37.157493
 21
-17.62397
 31
0.0
  0
LINE
  5
19C
330
1F
100
AcDbEntity
  8
1
  6
Continuous
 62
     4
370
    50
100
AcDbLine
 10
37.157493
 20
-17.62397
 30
0.0
 11
37.134255
 21
-17.111423
 31
0.0
  0
LINE
  5
19D
330
1F
100
AcDbEntity
  8
1
  6
Continuous
 62
     4
370
    50
100
AcDbLine
 10
37.134255
 20
-17.111423
 30
0.0
 11
37.161387
 21
-16.598684
 31
0.0
  0
LINE
  5
19E
330
1F
100
AcDbEntity
  8
1
  6
Continuous
 62
     4
370
    50
100
AcDbLine
 10
37.161387
 20
-16.598684
 30
0.0
 11
37.238626
 21
-16.090692
 31
0.0
  0
LINE
  5
19F
330
1F
100
AcDbEntity
  8
1
  6
Continuous
 62
     4
370
    50
100
AcDbLine
 10
37.238626
 20
-16.090692
 30
0.0
 11
37.36523
 21
-15.592339
 31
0.0
  0
LINE
  5
1A0
330
1F
100
AcDbEntity
  8
1
  6
Continuous
 62
     4
370
    50
100
AcDbLine
 10
37.36523
 20
-15.592339
 30
0.0
 11
37.539978
 21
-15.108425
 31
0.0
  0
LINE
  5
1A1
330
1F
100
AcDbEntity
  8
1
  6
Continuous
 62
     4
370
    50
100
AcDbLine
 10
37.539978
 20
-15.108425
 30
0.0
 11
37.761187
 21
-14.643608
 31
0.0
  0
LINE
  5
1A2
330
1F
100
AcDbEntity
  8
1
  6
Continuous
 62
     4
370
    50
100
AcDbLine
 10
37.761187
 20
-14.643608
 30
0.0
 11
38.026728
 21
-14.202368
 31
0.0
  0
LINE
  5
1A3
330
1F
100
AcDbEntity
  8
1
  6
Continuous
 62
     4
370
    50
100
AcDbLine
 10
38.026728
 20
-14.202368
 30
0.0
 11
38.334043
 21
-13.788951
 31
0.0
  0
LINE
  5
1A4
330
1F
100
AcDbEntity
  8
1
  6
Continuous
 62
     4
370
    50
100
AcDbLine
 10
38.334043
 20
-13.788951
 30
0.0
 11
38.680173
 21
-13.407341
 31
0.0
  0
LINE
  5
1A5
330
1F
100
AcDbEntity
  8
1
  6
Continuous
 62
     4
370
    50
100
AcDbLine
 10
40.653415
 20
-15.380581
 30
0.0
 11
40.835135
 21
-15.215758
 31
0.0
  0
LINE
  5
1A6
330
1F
100
AcDbEntity
  8
1
  6
Continuous
 62
     4
370
    50
100
AcDbLine
 10
40.835135
 20
-15.215758
 30
0.0
 11
41.032
 21
-15.069417
 31
0.0
  0
LINE
  5
1A7
330
1F
100
AcDbEntity
  8
1
  6
Continuous
 62
     4
370
    50
100
AcDbLine
 10
41.032
 20
-15.069417
 30
0.0
 11
41.242115
 21
-14.942969
 31
0.0
  0
LINE
  5
1A8
330
1F
100
AcDbEntity
  8
1
  6
Continuous
 62
     4
370
    50
100
AcDbLine
 10
41.242115
 20
-14.942969
 30
0.0
 11
41.463456
 21
-14.837632
 31
0.0
  0
LINE
  5
1A9
330
1F
100
AcDbEntity
  8
1
  6
Continuous
 62
     4
370
    50
100
AcDbLine
 10
41.463456
 20
-14.837632
 30
0.0
 11
41.693891
 21
-14.754418
 31
0.0
  0
LINE
  5
1AA
330
1F
100
AcDbEntity
  8
1
  6
Continuous
 62
     4
370
    50
100
AcDbLine
 10
41.693891
 20
-14.754418
 30
0.0
 11
41.931202
 21
-14.694131
 31
0.0
  0
LINE
  5
1AB
330
1F
100
AcDbEntity
  8
1
  6
Continuous
 62
     4
370
    50
100
AcDbLine
 10
41.931202
 20
-14.694131
 30
0.0
 11
42.173103
 21
-14.657351
 31
0.0
  0
LINE
  5
1AC
330
1F
100
AcDbEntity
  8
1
  6
Continuous
 62
     4
370
    50
100
AcDbLine
 10
42.173103
 20
-14.657351
 30
0.0
 11
42.417264
 21
-14.644431
 31
0.0
  0
LINE
  5
1AD
330
1F
100
AcDbEntity
  8
1
  6
Continuous
 62
     4
370
    50
100
AcDbLine
 10
42.417264
 20
-14.644431
 30
0.0
 11
42.661334
 21
-14.655496
 31
0.0
  0
LINE
  5
1AE
330
1F
100
AcDbEntity
  8
1
  6
Continuous
 62
     4
370
    50
100
AcDbLine
 10
42.661334
 20
-14.655496
 30
0.0
 11
42.902963
 21
-14.690441
 31
0.0
  0
LINE
  5
1AF
330
1F
100
AcDbEntity
  8
1
  6
Continuous
 62
     4
370
    50
100
AcDbLine
 10
42.902963
 20
-14.690441
 30
0.0
 11
43.139823
 21
-14.748927
 31
0.0
  0
LINE
  5
1B0
330
1F
100
AcDbEntity
  8
1
  6
Continuous
 62
     4
370
    50
100
AcDbLine
 10
43.139823
 20
-14.748927
 30
0.0
 11
43.369633
 21
-14.830393
 31
0.0
  0
LINE
  5
1B1
330
1F
100
AcDbEntity
  8
1
  6
Continuous
 62
     4
370
    50
100
AcDbLine
 10
43.369633
 20
-14.830393
 30
0.0
 11
43.59018
 21
-14.934052
 31
0.0
  0
LINE
  5
1B2
330
1F
100
AcDbEntity
  8
1
  6
Continuous
 62
     4
370
    50
100
AcDbLine
 10
43.59018
 20
-14.934052
 30
0.0
 11
43.79934
 21
-15.058908
 31
0.0
  0
LINE
  5
1B3
330
1F
100
AcDbEntity
  8
1
  6
Continuous
 62
     4
370
    50
100
AcDbLine
 10
43.79934
 20
-15.058908
 30
0.0
 11
43.995099
 21
-15.203757
 31
0.0
  0
LINE
  5
1B4
330
1F
100
AcDbEntity
  8
1
  6
Continuous
 62
     4
370
    50
100
AcDbLine
 10
43.995099
 20
-15.203757
 30
0.0
 11
44.175571
 21
-15.367205
 31
0.0
  0
LINE
  5
1B5
330
1F
100
AcDbEntity
  8
1
  6
Continuous
 62
     4
370
    50
100
AcDbLine
 10
44.175571
 20
-15.367205
 30
0.0
 11
44.339019
 21
-15.547678
 31
0.0
  0
LINE
  5
1B6
330
1F
100
AcDbEntity
  8
1
  6
Continuous
 62
     4
370
    50
100
AcDbLine
 10
44.339019
 20
-15.547678
 30
0.0
 11
44.483869
 21
-15.743437
 31
0.0
  0
LINE
  5
1B7
330
1F
100
AcDbEntity
  8
1
  6
Continuous
 62
     4
370
    50
100
AcDbLine
 10
44.483869
 20
-15.743437
 30
0.0
 11
44.608724
 21
-15.952597
 31
0.0
  0
LINE
  5
1B8
330
1F
100
AcDbEntity
  8
1
  6
Continuous
 62
     4
370
    50
100
AcDbLine
 10
44.608724
 20
-15.952597
 30
0.0
 11
44.712384
 21
-16.173144
 31
0.0
  0
LINE
  5
1B9
330
1F
100
AcDbEntity
  8
1
  6
Continuous
 62
     4
370
    50
100
AcDbLine
 10
44.712384
 20
-16.173144
 30
0.0
 11
44.793849
 21
-16.402955
 31
0.0
  0
LINE
  5
1BA
330
1F
100
AcDbEntity
  8
1
  6
Continuous
 62
     4
370
    50
100
AcDbLine
 10
44.793849
 20
-16.402955
 30
0.0
 11
44.852335
 21
-16.639814
 31
0.0
  0
LINE
  5
1BB
330
1F
100
AcDbEntity
  8
1
  6
Continuous
 62
     4
370
    50
100
AcDbLine
 10
44.852335
 20
-16.639814
 30
0.0
 11
44.887279
 21
-16.881443
 31
0.0
  0
LINE
  5
1BC
330
1F
100
AcDbEntity
  8
1
  6
Continuous
 62
     4
370
    50
100
AcDbLine
 10
44.887279
 20
-16.881443
 30
0.0
 11
44.898345
 21
-17.125513
 31
0.0
  0
LINE
  5
1BD
330
1F
100
AcDbEntity
  8
1
  6
Continuous
 62
     4
370
    50
100
AcDbLine
 10
44.898345
 20
-17.125513
 30
0.0
 11
44.885425
 21
-17.369674
 31
0.0
  0
LINE
  5
1BE
330
1F
100
AcDbEntity
  8
1
  6
Continuous
 62
     4
370
    50
100
AcDbLine
 10
44.885425
 20
-17.369674
 30
0.0
 11
44.848644
 21
-17.611575
 31
0.0
  0
LINE
  5
1BF
330
1F
100
AcDbEntity
  8
1
  6
Continuous
 62
     4
370
    50
100
AcDbLine
 10
44.848644
 20
-17.611575
 30
0.0
 11
44.788357
 21
-17.848886
 31
0.0
  0
LINE
  5
1C0
330
1F
100
AcDbEntity
  8
1
  6
Continuous
 62
     4
370
    50
100
AcDbLine
 10
44.788357
 20
-17.848886
 30
0.0
 11
44.705143
 21
-18.079322
 31
0.0
  0
LINE
  5
1C1
330
1F
100
AcDbEntity
  8
1
  6
Continuous
 62
     4
370
    50
100
AcDbLine
 10
44.705143
 20
-18.079322
 30
0.0
 11
44.599805
 21
-18.300663
 31
0.0
  0
LINE
  5
1C2
330
1F
100
AcDbEntity
  8
1
  6
Continuous
 62
     4
370
    50
100
AcDbLine
 10
44.599805
 20
-18.300663
 30
0.0
 11
44.473357
 21
-18.510777
 31
0.0
  0
LINE
  5
1C3
330
1F
100
AcDbEntity
  8
1
  6
Continuous
 62
     4
370
    50
100
AcDbLine
 10
44.473357
 20
-18.510777
 30
0.0
 11
44.327016
 21
-18.707642
 31
0.0
  0
LINE
  5
1C4
330
1F
100
AcDbEntity
  8
1
  6
Continuous
 62
     4
370
    50
100
AcDbLine
 10
44.327016
 20
-18.707642
 30
0.0
 11
44.162193
 21
-18.889361
 31
0.0
  0
LINE
  5
1C5
330
1F
100
AcDbEntity
  8
1
  6
Continuous
 62
     4
370
    50
100
AcDbLine
 10
44.162193
 20
-18.889361
 30
0.0
 11
43.980474
 21
-19.054185
 31
0.0
  0
LINE
  5
1C6
330
1F
100
AcDbEntity
  8
1
  6
Continuous
 62
     4
370
    50
100
AcDbLine
 10
43.980474
 20
-19.054185
 30
0.0
 11
43.783608
 21
-19.200525
 31
0.0
  0
LINE
  5
1C7
330
1F
100
AcDbEntity
  8
1
  6
Continuous
 62
     4
370
    50
100
AcDbLine
 10
43.783608
 20
-19.200525
 30
0.0
 11
43.573494
 21
-19.326974
 31
0.0
  0
LINE
  5
1C8
330
1F
100
AcDbEntity
  8
1
  6
Continuous
 62
     4
370
    50
100
AcDbLine
 10
43.573494
 20
-19.326974
 30
0.0
 11
43.352153
 21
-19.432311
 31
0.0
  0
LINE
  5
1C9
330
1F
100
AcDbEntity
  8
1
  6
Continuous
 62
     4
370
    50
100
AcDbLine
 10
43.352153
 20
-19.432311
 30
0.0
 11
43.121717
 21
-19.515525
 31
0.0
  0
LINE
  5
1CA
330
1F
100
AcDbEntity
  8
1
  6
Continuous
 62
     4
370
    50
100
AcDbLine
 10
43.121717
 20
-19.515525
 30
0.0
 11
42.884406
 21
-19.575812
 31
0.0
  0
LINE
  5
1CB
330
1F
100
AcDbEntity
  8
1
  6
Continuous
 62
     4
370
    50
100
AcDbLine
 10
42.884406
 20
-19.575812
 30
0.0
 11
42.642505
 21
-19.612592
 31
0.0
  0
LINE
  5
1CC
330
1F
100
AcDbEntity
  8
1
  6
Continuous
 62
     4
370
    50
100
AcDbLine
 10
42.642505
 20
-19.612592
 30
0.0
 11
42.398344
 21
-19.625512
 31
0.0
  0
LINE
  5
1CD
330
1F
100
AcDbEntity
  8
1
  6
Continuous
 62
     4
370
    50
100
AcDbLine
 10
42.398344
 20
-19.625512
 30
0.0
 11
42.154274
 21
-19.614447
 31
0.0
  0
LINE
  5
1CE
330
1F
100
AcDbEntity
  8
1
  6
Continuous
 62
     4
370
    50
100
AcDbLine
 10
42.154274
 20
-19.614447
 30
0.0
 11
41.912645
 21
-19.579503
 31
0.0
  0
LINE
  5
1CF
330
1F
100
AcDbEntity
  8
1
  6
Continuous
 62
     4
370
    50
100
AcDbLine
 10
41.912645
 20
-19.579503
 30
0.0
 11
41.675786
 21
-19.521016
 31
0.0
  0
LINE
  5
1D0
330
1F
100
AcDbEntity
  8
1
  6
Continuous
 62
     4
370
    50
100
AcDbLine
 10
41.675786
 20
-19.521016
 30
0.0
 11
41.445976
 21
-19.439551
 31
0.0
  0
LINE
  5
1D1
330
1F
100
AcDbEntity
  8
1
  6
Continuous
 62
     4
370
    50
100
AcDbLine
 10
41.445976
 20
-19.439551
 30
0.0
 11
41.225428
 21
-19.335891
 31
0.0
  0
LINE
  5
1D2
330
1F
100
AcDbEntity
  8
1
  6
Continuous
 62
     4
370
    50
100
AcDbLine
 10
41.225428
 20
-19.335891
 30
0.0
 11
41.016268
 21
-19.211036
 31
0.0
  0
LINE
  5
1D3
330
1F
100
AcDbEntity
  8
1
  6
Continuous
 62
     4
370
    50
100
AcDbLine
 10
41.016268
 20
-19.211036
 30
0.0
 11
40.820509
 21
-19.066186
 31
0.0
  0
LINE
  5
1D4
330
1F
100
AcDbEntity
  8
1
  6
Continuous
 62
     4
370
    50
100
AcDbLine
 10
40.820509
 20
-19.066186
 30
0.0
 11
40.640037
 21
-18.902738
 31
0.0
  0
LINE
  5
1D5
330
1F
100
AcDbEntity
  8
1
  6
Continuous
 62
     4
370
    50
100
AcDbLine
 10
40.640037
 20
-18.902738
 30
0.0
 11
40.476589
 21
-18.722266
 31
0.0
  0
LINE
  5
1D6
330
1F
100
AcDbEntity
  8
1
  6
Continuous
 62
     4
370
    50
100
AcDbLine
 10
40.476589
 20
-18.722266
 30
0.0
 11
40.33174
 21
-18.526507
 31
0.0
  0
LINE
  5
1D7
330
1F
100
AcDbEntity
  8
1
  6
Continuous
 62
     4
370
    50
100
AcDbLine
 10
40.33174
 20
-18.526507
 30
0.0
 11
40.206884
 21
-18.317346
 31
0.0
  0
LINE
  5
1D8
330
1F
100
AcDbEntity
  8
1
  6
Continuous
 62
     4
370
    50
100
AcDbLine
 10
40.206884
 20
-18.317346
 30
0.0
 11
40.103224
 21
-18.096799
 31
0.0
  0
LINE
  5
1D9
330
1F
100
AcDbEntity
  8
1
  6
Continuous
 62
     4
370
    50
100
AcDbLine
 10
40.103224
 20
-18.096799
 30
0.0
 11
40.021759
 21
-17.866989
 31
0.0
  0
LINE
  5
1DA
330
1F
100
AcDbEntity
  8
1
  6
Continuous
 62
     4
370
    50
100
AcDbLine
 10
40.021759
 20
-17.866989
 30
0.0
 11
39.963273
 21
-17.630129
 31
0.0
  0
LINE
  5
1DB
330
1F
100
AcDbEntity
  8
1
  6
Continuous
 62
     4
370
    50
100
AcDbLine
 10
39.963273
 20
-17.630129
 30
0.0
 11
39.928329
 21
-17.388501
 31
0.0
  0
LINE
  5
1DC
330
1F
100
AcDbEntity
  8
1
  6
Continuous
 62
     4
370
    50
100
AcDbLine
 10
39.928329
 20
-17.388501
 30
0.0
 11
39.917263
 21
-17.144431
 31
0.0
  0
LINE
  5
1DD
330
1F
100
AcDbEntity
  8
1
  6
Continuous
 62
     4
370
    50
100
AcDbLine
 10
39.917263
 20
-17.144431
 30
0.0
 11
39.930183
 21
-16.90027
 31
0.0
  0
LINE
  5
1DE
330
1F
100
AcDbEntity
  8
1
  6
Continuous
 62
     4
370
    50
100
AcDbLine
 10
39.930183
 20
-16.90027
 30
0.0
 11
39.966964
 21
-16.658369
 31
0.0
  0
LINE
  5
1DF
330
1F
100
AcDbEntity
  8
1
  6
Continuous
 62
     4
370
    50
100
AcDbLine
 10
39.966964
 20
-16.658369
 30
0.0
 11
40.027251
 21
-16.421058
 31
0.0
  0
LINE
  5
1E0
330
1F
100
AcDbEntity
  8
1
  6
Continuous
 62
     4
370
    50
100
AcDbLine
 10
40.027251
 20
-16.421058
 30
0.0
 11
40.110464
 21
-16.190622
 31
0.0
  0
LINE
  5
1E1
330
1F
100
AcDbEntity
  8
1
  6
Continuous
 62
     4
370
    50
100
AcDbLine
 10
40.110464
 20
-16.190622
 30
0.0
 11
40.215802
 21
-15.969281
 31
0.0
  0
LINE
  5
1E2
330
1F
100
AcDbEntity
  8
1
  6
Continuous
 62
     4
370
    50
100
AcDbLine
 10
40.215802
 20
-15.969281
 30
0.0
 11
40.34225
 21
-15.759166
 31
0.0
  0
LINE
  5
1E3
330
1F
100
AcDbEntity
  8
1
  6
Continuous
 62
     4
370
    50
100
AcDbLine
 10
40.34225
 20
-15.759166
 30
0.0
 11
40.488591
 21
-15.562301
 31
0.0
  0
LINE
  5
1E4
330
1F
100
AcDbEntity
  8
1
  6
Continuous
 62
     4
370
    50
100
AcDbLine
 10
40.488591
 20
-15.562301
 30
0.0
 11
40.653414
 21
-15.380582
 31
0.0
  0
LINE
  5
1E5
330
1F
100
AcDbEntity
  8
1
  6
Continuous
 62
     4
370
    50
100
AcDbLine
 10
49.49943
 20
-31.272281
 30
0.0
 11
49.30742
 21
-31.430097
 31
0.0
  0
LINE
  5
1E6
330
1F
100
AcDbEntity
  8
1
  6
Continuous
 62
     4
370
    50
100
AcDbLine
 10
49.30742
 20
-31.430097
 30
0.0
 11
49.088594
 21
-31.547654
 31
0.0
  0
LINE
  5
1E7
330
1F
100
AcDbEntity
  8
1
  6
Continuous
 62
     4
370
    50
100
AcDbLine
 10
49.088594
 20
-31.547654
 30
0.0
 11
48.851362
 21
-31.620435
 31
0.0
  0
LINE
  5
1E8
330
1F
100
AcDbEntity
  8
1
  6
Continuous
 62
     4
370
    50
100
AcDbLine
 10
48.851362
 20
-31.620435
 30
0.0
 11
48.604842
 21
-31.645642
 31
0.0
  0
LINE
  5
1E9
330
1F
100
AcDbEntity
  8
1
  6
Continuous
 62
     4
370
    50
100
AcDbLine
 10
48.604842
 20
-31.645642
 30
0.0
 11
48.358505
 21
-31.622307
 31
0.0
  0
LINE
  5
1EA
330
1F
100
AcDbEntity
  8
1
  6
Continuous
 62
     4
370
    50
100
AcDbLine
 10
48.358505
 20
-31.622307
 30
0.0
 11
48.12182
 21
-31.551326
 31
0.0
  0
LINE
  5
1EB
330
1F
100
AcDbEntity
  8
1
  6
Continuous
 62
     4
370
    50
100
AcDbLine
 10
48.12182
 20
-31.551326
 30
0.0
 11
47.903881
 21
-31.435428
 31
0.0
  0
LINE
  5
1EC
330
1F
100
AcDbEntity
  8
1
  6
Continuous
 62
     4
370
    50
100
AcDbLine
 10
47.903881
 20
-31.435428
 30
0.0
 11
47.713064
 21
-31.279066
 31
0.0
  0
LINE
  5
1ED
330
1F
100
AcDbEntity
  8
1
  6
Continuous
 62
     4
370
    50
100
AcDbLine
 10
56.551899
 20
-22.440231
 30
0.0
 11
56.708261
 21
-22.631048
 31
0.0
  0
LINE
  5
1EE
330
1F
100
AcDbEntity
  8
1
  6
Continuous
 62
     4
370
    50
100
AcDbLine
 10
56.708261
 20
-22.631048
 30
0.0
 11
56.824159
 21
-22.848987
 31
0.0
  0
LINE
  5
1EF
330
1F
100
AcDbEntity
  8
1
  6
Continuous
 62
     4
370
    50
100
AcDbLine
 10
56.824159
 20
-22.848987
 30
0.0
 11
56.89514
 21
-23.085672
 31
0.0
  0
LINE
  5
1F0
330
1F
100
AcDbEntity
  8
1
  6
Continuous
 62
     4
370
    50
100
AcDbLine
 10
56.89514
 20
-23.085672
 30
0.0
 11
56.918475
 21
-23.332009
 31
0.0
  0
LINE
  5
1F1
330
1F
100
AcDbEntity
  8
1
  6
Continuous
 62
     4
370
    50
100
AcDbLine
 10
56.918475
 20
-23.332009
 30
0.0
 11
56.893268
 21
-23.57853
 31
0.0
  0
LINE
  5
1F2
330
1F
100
AcDbEntity
  8
1
  6
Continuous
 62
     4
370
    50
100
AcDbLine
 10
56.893268
 20
-23.57853
 30
0.0
 11
56.820487
 21
-23.815761
 31
0.0
  0
LINE
  5
1F3
330
1F
100
AcDbEntity
  8
1
  6
Continuous
 62
     4
370
    50
100
AcDbLine
 10
56.820487
 20
-23.815761
 30
0.0
 11
56.70293
 21
-24.034587
 31
0.0
  0
LINE
  5
1F4
330
1F
100
AcDbEntity
  8
1
  6
Continuous
 62
     4
370
    50
100
AcDbLine
 10
56.70293
 20
-24.034587
 30
0.0
 11
56.545114
 21
-24.226597
 31
0.0
  0
LINE
  5
1F5
330
1F
100
AcDbEntity
  8
1
  6
Continuous
 62
     4
370
    50
100
AcDbLine
 10
50.454427
 20
-32.227277
 30
0.0
 11
50.262416
 21
-32.385093
 31
0.0
  0
LINE
  5
1F6
330
1F
100
AcDbEntity
  8
1
  6
Continuous
 62
     4
370
    50
100
AcDbLine
 10
50.262416
 20
-32.385093
 30
0.0
 11
50.043591
 21
-32.502651
 31
0.0
  0
LINE
  5
1F7
330
1F
100
AcDbEntity
  8
1
  6
Continuous
 62
     4
370
    50
100
AcDbLine
 10
50.043591
 20
-32.502651
 30
0.0
 11
49.806359
 21
-32.575431
 31
0.0
  0
LINE
  5
1F8
330
1F
100
AcDbEntity
  8
1
  6
Continuous
 62
     4
370
    50
100
AcDbLine
 10
49.806359
 20
-32.575431
 30
0.0
 11
49.559838
 21
-32.600638
 31
0.0
  0
LINE
  5
1F9
330
1F
100
AcDbEntity
  8
1
  6
Continuous
 62
     4
370
    50
100
AcDbLine
 10
49.559838
 20
-32.600638
 30
0.0
 11
49.313502
 21
-32.577303
 31
0.0
  0
LINE
  5
1FA
330
1F
100
AcDbEntity
  8
1
  6
Continuous
 62
     4
370
    50
100
AcDbLine
 10
49.313502
 20
-32.577303
 30
0.0
 11
49.076816
 21
-32.506323
 31
0.0
  0
LINE
  5
1FB
330
1F
100
AcDbEntity
  8
1
  6
Continuous
 62
     4
370
    50
100
AcDbLine
 10
49.076816
 20
-32.506323
 30
0.0
 11
48.858878
 21
-32.390424
 31
0.0
  0
LINE
  5
1FC
330
1F
100
AcDbEntity
  8
1
  6
Continuous
 62
     4
370
    50
100
AcDbLine
 10
48.858878
 20
-32.390424
 30
0.0
 11
48.668061
 21
-32.234062
 31
0.0
  0
LINE
  5
1FD
330
1F
100
AcDbEntity
  8
1
  6
Continuous
 62
     4
370
    50
100
AcDbLine
 10
57.463482
 20
-23.351814
 30
0.0
 11
57.619844
 21
-23.542631
 31
0.0
  0
LINE
  5
1FE
330
1F
100
AcDbEntity
  8
1
  6
Continuous
 62
     4
370
    50
100
AcDbLine
 10
57.619844
 20
-23.542631
 30
0.0
 11
57.735743
 21
-23.76057
 31
0.0
  0
LINE
  5
1FF
330
1F
100
AcDbEntity
  8
1
  6
Continuous
 62
     4
370
    50
100
AcDbLine
 10
57.735743
 20
-23.76057
 30
0.0
 11
57.806723
 21
-23.997256
 31
0.0
  0
LINE
  5
200
330
1F
100
AcDbEntity
  8
1
  6
Continuous
 62
     4
370
    50
100
AcDbLine
 10
57.806723
 20
-23.997256
 30
0.0
 11
57.830058
 21
-24.243592
 31
0.0
  0
LINE
  5
201
330
1F
100
AcDbEntity
  8
1
  6
Continuous
 62
     4
370
    50
100
AcDbLine
 10
57.830058
 20
-24.243592
 30
0.0
 11
57.804851
 21
-24.490113
 31
0.0
  0
LINE
  5
202
330
1F
100
AcDbEntity
  8
1
  6
Continuous
 62
     4
370
    50
100
AcDbLine
 10
57.804851
 20
-24.490113
 30
0.0
 11
57.732071
 21
-24.727344
 31
0.0
  0
LINE
  5
203
330
1F
100
AcDbEntity
  8
1
  6
Continuous
 62
     4
370
    50
100
AcDbLine
 10
57.732071
 20
-24.727344
 30
0.0
 11
57.614513
 21
-24.94617
 31
0.0
  0
LINE
  5
204
330
1F
100
AcDbEntity
  8
1
  6
Continuous
 62
     4
370
    50
100
AcDbLine
 10
57.614513
 20
-24.94617
 30
0.0
 11
57.456697
 21
-25.13818
 31
0.0
  0
LINE
  5
205
330
1F
100
AcDbEntity
  8
1
  6
Continuous
 62
     4
370
    50
100
AcDbLine
 10
50.411013
 20
-32.183864
 30
0.0
 11
50.219003
 21
-32.34168
 31
0.0
  0
LINE
  5
206
330
1F
100
AcDbEntity
  8
1
  6
Continuous
 62
     4
370
    50
100
AcDbLine
 10
50.219003
 20
-32.34168
 30
0.0
 11
50.000178
 21
-32.459237
 31
0.0
  0
LINE
  5
207
330
1F
100
AcDbEntity
  8
1
  6
Continuous
 62
     4
370
    50
100
AcDbLine
 10
50.000178
 20
-32.459237
 30
0.0
 11
49.762946
 21
-32.532018
 31
0.0
  0
LINE
  5
208
330
1F
100
AcDbEntity
  8
1
  6
Continuous
 62
     4
370
    50
100
AcDbLine
 10
49.762946
 20
-32.532018
 30
0.0
 11
49.516425
 21
-32.557225
 31
0.0
  0
LINE
  5
209
330
1F
100
AcDbEntity
  8
1
  6
Continuous
 62
     4
370
    50
100
AcDbLine
 10
49.516425
 20
-32.557225
 30
0.0
 11
49.270089
 21
-32.53389
 31
0.0
  0
LINE
  5
20A
330
1F
100
AcDbEntity
  8
1
  6
Continuous
 62
     4
370
    50
100
AcDbLine
 10
49.270089
 20
-32.53389
 30
0.0
 11
49.033403
 21
-32.462909
 31
0.0
  0
LINE
  5
20B
330
1F
100
AcDbEntity
  8
1
  6
Continuous
 62
     4
370
    50
100
AcDbLine
 10
49.033403
 20
-32.462909
 30
0.0
 11
48.815464
 21
-32.347011
 31
0.0
  0
LINE
  5
20C
330
1F
100
AcDbEntity
  8
1
  6
Continuous
 62
     4
370
    50
100
AcDbLine
 10
48.815464
 20
-32.347011
 30
0.0
 11
48.624647
 21
-32.190649
 31
0.0
  0
LINE
  5
20D
330
1F
100
AcDbEntity
  8
1
  6
Continuous
 62
     4
370
    50
100
AcDbLine
 10
57.506895
 20
-23.395227
 30
0.0
 11
57.663257
 21
-23.586044
 31
0.0
  0
LINE
  5
20E
330
1F
100
AcDbEntity
  8
1
  6
Continuous
 62
     4
370
    50
100
AcDbLine
 10
57.663257
 20
-23.586044
 30
0.0
 11
57.779156
 21
-23.803983
 31
0.0
  0
LINE
  5
20F
330
1F
100
AcDbEntity
  8
1
  6
Continuous
 62
     4
370
    50
100
AcDbLine
 10
57.779156
 20
-23.803983
 30
0.0
 11
57.850136
 21
-24.040669
 31
0.0
  0
LINE
  5
210
330
1F
100
AcDbEntity
  8
1
  6
Continuous
 62
     4
370
    50
100
AcDbLine
 10
57.850136
 20
-24.040669
 30
0.0
 11
57.873471
 21
-24.287005
 31
0.0
  0
LINE
  5
211
330
1F
100
AcDbEntity
  8
1
  6
Continuous
 62
     4
370
    50
100
AcDbLine
 10
57.873471
 20
-24.287005
 30
0.0
 11
57.848264
 21
-24.533526
 31
0.0
  0
LINE
  5
212
330
1F
100
AcDbEntity
  8
1
  6
Continuous
 62
     4
370
    50
100
AcDbLine
 10
57.848264
 20
-24.533526
 30
0.0
 11
57.775484
 21
-24.770758
 31
0.0
  0
LINE
  5
213
330
1F
100
AcDbEntity
  8
1
  6
Continuous
 62
     4
370
    50
100
AcDbLine
 10
57.775484
 20
-24.770758
 30
0.0
 11
57.657927
 21
-24.989583
 31
0.0
  0
LINE
  5
214
330
1F
100
AcDbEntity
  8
1
  6
Continuous
 62
     4
370
    50
100
AcDbLine
 10
57.657927
 20
-24.989583
 30
0.0
 11
57.500111
 21
-25.181594
 31
0.0
  0
LINE
  5
215
330
1F
100
AcDbEntity
  8
1
  6
Continuous
 62
     4
370
    50
100
AcDbLine
 10
56.855108
 20
-22.74344
 30
0.0
 11
57.175172
 21
-22.932443
 31
0.0
  0
LINE
  5
216
330
1F
100
AcDbEntity
  8
1
  6
Continuous
 62
     4
370
    50
100
AcDbLine
 10
57.175172
 20
-22.932443
 30
0.0
 11
57.483585
 21
-23.139735
 31
0.0
  0
LINE
  5
217
330
1F
100
AcDbEntity
  8
1
  6
Continuous
 62
     4
370
    50
100
AcDbLine
 10
57.483585
 20
-23.139735
 30
0.0
 11
57.779316
 21
-23.364624
 31
0.0
  0
LINE
  5
218
330
1F
100
AcDbEntity
  8
1
  6
Continuous
 62
     4
370
    50
100
AcDbLine
 10
57.779316
 20
-23.364624
 30
0.0
 11
58.061379
 21
-23.606359
 31
0.0
  0
LINE
  5
219
330
1F
100
AcDbEntity
  8
1
  6
Continuous
 62
     4
370
    50
100
AcDbLine
 10
58.061379
 20
-23.606359
 30
0.0
 11
58.328832
 21
-23.864134
 31
0.0
  0
LINE
  5
21A
330
1F
100
AcDbEntity
  8
1
  6
Continuous
 62
     4
370
    50
100
AcDbLine
 10
58.328832
 20
-23.864134
 30
0.0
 11
58.580783
 21
-24.137087
 31
0.0
  0
LINE
  5
21B
330
1F
100
AcDbEntity
  8
1
  6
Continuous
 62
     4
370
    50
100
AcDbLine
 10
58.580783
 20
-24.137087
 30
0.0
 11
58.816389
 21
-24.424309
 31
0.0
  0
LINE
  5
21C
330
1F
100
AcDbEntity
  8
1
  6
Continuous
 62
     4
370
    50
100
AcDbLine
 10
58.816389
 20
-24.424309
 30
0.0
 11
59.034866
 21
-24.724839
 31
0.0
  0
LINE
  5
21D
330
1F
100
AcDbEntity
  8
1
  6
Continuous
 62
     4
370
    50
100
AcDbLine
 10
59.034866
 20
-24.724839
 30
0.0
 11
59.235484
 21
-25.037675
 31
0.0
  0
LINE
  5
21E
330
1F
100
AcDbEntity
  8
1
  6
Continuous
 62
     4
370
    50
100
AcDbLine
 10
59.235484
 20
-25.037675
 30
0.0
 11
59.417572
 21
-25.361773
 31
0.0
  0
LINE
  5
21F
330
1F
100
AcDbEntity
  8
1
  6
Continuous
 62
     4
370
    50
100
AcDbLine
 10
59.417572
 20
-25.361773
 30
0.0
 11
59.580524
 21
-25.696051
 31
0.0
  0
LINE
  5
220
330
1F
100
AcDbEntity
  8
1
  6
Continuous
 62
     4
370
    50
100
AcDbLine
 10
59.580524
 20
-25.696051
 30
0.0
 11
59.723795
 21
-26.039393
 31
0.0
  0
LINE
  5
221
330
1F
100
AcDbEntity
  8
1
  6
Continuous
 62
     4
370
    50
100
AcDbLine
 10
59.723795
 20
-26.039393
 30
0.0
 11
59.846908
 21
-26.390654
 31
0.0
  0
LINE
  5
222
330
1F
100
AcDbEntity
  8
1
  6
Continuous
 62
     4
370
    50
100
AcDbLine
 10
59.846908
 20
-26.390654
 30
0.0
 11
59.94945
 21
-26.748659
 31
0.0
  0
LINE
  5
223
330
1F
100
AcDbEntity
  8
1
  6
Continuous
 62
     4
370
    50
100
AcDbLine
 10
59.94945
 20
-26.748659
 30
0.0
 11
60.031081
 21
-27.112216
 31
0.0
  0
LINE
  5
224
330
1F
100
AcDbEntity
  8
1
  6
Continuous
 62
     4
370
    50
100
AcDbLine
 10
60.031081
 20
-27.112216
 30
0.0
 11
60.091527
 21
-27.48011
 31
0.0
  0
LINE
  5
225
330
1F
100
AcDbEntity
  8
1
  6
Continuous
 62
     4
370
    50
100
AcDbLine
 10
60.091527
 20
-27.48011
 30
0.0
 11
60.130586
 21
-27.851112
 31
0.0
  0
LINE
  5
226
330
1F
100
AcDbEntity
  8
1
  6
Continuous
 62
     4
370
    50
100
AcDbLine
 10
60.130586
 20
-27.851112
 30
0.0
 11
60.148129
 21
-28.223986
 31
0.0
  0
LINE
  5
227
330
1F
100
AcDbEntity
  8
1
  6
Continuous
 62
     4
370
    50
100
AcDbLine
 10
60.148129
 20
-28.223986
 30
0.0
 11
60.144097
 21
-28.597486
 31
0.0
  0
LINE
  5
228
330
1F
100
AcDbEntity
  8
1
  6
Continuous
 62
     4
370
    50
100
AcDbLine
 10
60.144097
 20
-28.597486
 30
0.0
 11
60.118503
 21
-28.970365
 31
0.0
  0
LINE
  5
229
330
1F
100
AcDbEntity
  8
1
  6
Continuous
 62
     4
370
    50
100
AcDbLine
 10
60.118503
 20
-28.970365
 30
0.0
 11
60.071432
 21
-29.341379
 31
0.0
  0
LINE
  5
22A
330
1F
100
AcDbEntity
  8
1
  6
Continuous
 62
     4
370
    50
100
AcDbLine
 10
60.071432
 20
-29.341379
 30
0.0
 11
60.003042
 21
-29.709289
 31
0.0
  0
LINE
  5
22B
330
1F
100
AcDbEntity
  8
1
  6
Continuous
 62
     4
370
    50
100
AcDbLine
 10
60.003042
 20
-29.709289
 30
0.0
 11
59.913562
 21
-30.072868
 31
0.0
  0
LINE
  5
22C
330
1F
100
AcDbEntity
  8
1
  6
Continuous
 62
     4
370
    50
100
AcDbLine
 10
59.913562
 20
-30.072868
 30
0.0
 11
59.803289
 21
-30.430902
 31
0.0
  0
LINE
  5
22D
330
1F
100
AcDbEntity
  8
1
  6
Continuous
 62
     4
370
    50
100
AcDbLine
 10
59.803289
 20
-30.430902
 30
0.0
 11
59.672592
 21
-30.782195
 31
0.0
  0
LINE
  5
22E
330
1F
100
AcDbEntity
  8
1
  6
Continuous
 62
     4
370
    50
100
AcDbLine
 10
59.672592
 20
-30.782195
 30
0.0
 11
59.521906
 21
-31.125575
 31
0.0
  0
LINE
  5
22F
330
1F
100
AcDbEntity
  8
1
  6
Continuous
 62
     4
370
    50
100
AcDbLine
 10
59.521906
 20
-31.125575
 30
0.0
 11
59.351736
 21
-31.459896
 31
0.0
  0
LINE
  5
230
330
1F
100
AcDbEntity
  8
1
  6
Continuous
 62
     4
370
    50
100
AcDbLine
 10
59.351736
 20
-31.459896
 30
0.0
 11
59.162649
 21
-31.784043
 31
0.0
  0
LINE
  5
231
330
1F
100
AcDbEntity
  8
1
  6
Continuous
 62
     4
370
    50
100
AcDbLine
 10
59.162649
 20
-31.784043
 30
0.0
 11
58.955276
 21
-32.096932
 31
0.0
  0
LINE
  5
232
330
1F
100
AcDbEntity
  8
1
  6
Continuous
 62
     4
370
    50
100
AcDbLine
 10
58.955276
 20
-32.096932
 30
0.0
 11
58.73031
 21
-32.39752
 31
0.0
  0
LINE
  5
233
330
1F
100
AcDbEntity
  8
1
  6
Continuous
 62
     4
370
    50
100
AcDbLine
 10
58.73031
 20
-32.39752
 30
0.0
 11
58.4885
 21
-32.684803
 31
0.0
  0
LINE
  5
234
330
1F
100
AcDbEntity
  8
1
  6
Continuous
 62
     4
370
    50
100
AcDbLine
 10
58.4885
 20
-32.684803
 30
0.0
 11
58.230656
 21
-32.957823
 31
0.0
  0
LINE
  5
235
330
1F
100
AcDbEntity
  8
1
  6
Continuous
 62
     4
370
    50
100
AcDbLine
 10
58.230656
 20
-32.957823
 30
0.0
 11
57.957636
 21
-33.215668
 31
0.0
  0
LINE
  5
236
330
1F
100
AcDbEntity
  8
1
  6
Continuous
 62
     4
370
    50
100
AcDbLine
 10
57.957636
 20
-33.215668
 30
0.0
 11
57.670353
 21
-33.457477
 31
0.0
  0
LINE
  5
237
330
1F
100
AcDbEntity
  8
1
  6
Continuous
 62
     4
370
    50
100
AcDbLine
 10
57.670353
 20
-33.457477
 30
0.0
 11
57.369765
 21
-33.682444
 31
0.0
  0
LINE
  5
238
330
1F
100
AcDbEntity
  8
1
  6
Continuous
 62
     4
370
    50
100
AcDbLine
 10
57.369765
 20
-33.682444
 30
0.0
 11
57.056875
 21
-33.889817
 31
0.0
  0
LINE
  5
239
330
1F
100
AcDbEntity
  8
1
  6
Continuous
 62
     4
370
    50
100
AcDbLine
 10
57.056875
 20
-33.889817
 30
0.0
 11
56.732729
 21
-34.078904
 31
0.0
  0
LINE
  5
23A
330
1F
100
AcDbEntity
  8
1
  6
Continuous
 62
     4
370
    50
100
AcDbLine
 10
56.732729
 20
-34.078904
 30
0.0
 11
56.398408
 21
-34.249074
 31
0.0
  0
LINE
  5
23B
330
1F
100
AcDbEntity
  8
1
  6
Continuous
 62
     4
370
    50
100
AcDbLine
 10
56.398408
 20
-34.249074
 30
0.0
 11
56.055027
 21
-34.399759
 31
0.0
  0
LINE
  5
23C
330
1F
100
AcDbEntity
  8
1
  6
Continuous
 62
     4
370
    50
100
AcDbLine
 10
56.055027
 20
-34.399759
 30
0.0
 11
55.703734
 21
-34.530456
 31
0.0
  0
LINE
  5
23D
330
1F
100
AcDbEntity
  8
1
  6
Continuous
 62
     4
370
    50
100
AcDbLine
 10
55.703734
 20
-34.530456
 30
0.0
 11
55.3457
 21
-34.640729
 31
0.0
  0
LINE
  5
23E
330
1F
100
AcDbEntity
  8
1
  6
Continuous
 62
     4
370
    50
100
AcDbLine
 10
55.3457
 20
-34.640729
 30
0.0
 11
54.982122
 21
-34.73021
 31
0.0
  0
LINE
  5
23F
330
1F
100
AcDbEntity
  8
1
  6
Continuous
 62
     4
370
    50
100
AcDbLine
 10
54.982122
 20
-34.73021
 30
0.0
 11
54.614211
 21
-34.798599
 31
0.0
  0
LINE
  5
240
330
1F
100
AcDbEntity
  8
1
  6
Continuous
 62
     4
370
    50
100
AcDbLine
 10
54.614211
 20
-34.798599
 30
0.0
 11
54.243197
 21
-34.84567
 31
0.0
  0
LINE
  5
241
330
1F
100
AcDbEntity
  8
1
  6
Continuous
 62
     4
370
    50
100
AcDbLine
 10
54.243197
 20
-34.84567
 30
0.0
 11
53.870318
 21
-34.871264
 31
0.0
  0
LINE
  5
242
330
1F
100
AcDbEntity
  8
1
  6
Continuous
 62
     4
370
    50
100
AcDbLine
 10
53.870318
 20
-34.871264
 30
0.0
 11
53.496818
 21
-34.875296
 31
0.0
  0
LINE
  5
243
330
1F
100
AcDbEntity
  8
1
  6
Continuous
 62
     4
370
    50
100
AcDbLine
 10
53.496818
 20
-34.875296
 30
0.0
 11
53.123945
 21
-34.857753
 31
0.0
  0
LINE
  5
244
330
1F
100
AcDbEntity
  8
1
  6
Continuous
 62
     4
370
    50
100
AcDbLine
 10
53.123945
 20
-34.857753
 30
0.0
 11
52.752942
 21
-34.818694
 31
0.0
  0
LINE
  5
245
330
1F
100
AcDbEntity
  8
1
  6
Continuous
 62
     4
370
    50
100
AcDbLine
 10
52.752942
 20
-34.818694
 30
0.0
 11
52.385048
 21
-34.758248
 31
0.0
  0
LINE
  5
246
330
1F
100
AcDbEntity
  8
1
  6
Continuous
 62
     4
370
    50
100
AcDbLine
 10
52.385048
 20
-34.758248
 30
0.0
 11
52.021492
 21
-34.676617
 31
0.0
  0
LINE
  5
247
330
1F
100
AcDbEntity
  8
1
  6
Continuous
 62
     4
370
    50
100
AcDbLine
 10
52.021492
 20
-34.676617
 30
0.0
 11
51.663486
 21
-34.574074
 31
0.0
  0
LINE
  5
248
330
1F
100
AcDbEntity
  8
1
  6
Continuous
 62
     4
370
    50
100
AcDbLine
 10
51.663486
 20
-34.574074
 30
0.0
 11
51.312226
 21
-34.450962
 31
0.0
  0
LINE
  5
249
330
1F
100
AcDbEntity
  8
1
  6
Continuous
 62
     4
370
    50
100
AcDbLine
 10
51.312226
 20
-34.450962
 30
0.0
 11
50.968884
 21
-34.307691
 31
0.0
  0
LINE
  5
24A
330
1F
100
AcDbEntity
  8
1
  6
Continuous
 62
     4
370
    50
100
AcDbLine
 10
50.968884
 20
-34.307691
 30
0.0
 11
50.634606
 21
-34.144739
 31
0.0
  0
LINE
  5
24B
330
1F
100
AcDbEntity
  8
1
  6
Continuous
 62
     4
370
    50
100
AcDbLine
 10
50.634606
 20
-34.144739
 30
0.0
 11
50.310508
 21
-33.96265
 31
0.0
  0
LINE
  5
24C
330
1F
100
AcDbEntity
  8
1
  6
Continuous
 62
     4
370
    50
100
AcDbLine
 10
50.310508
 20
-33.96265
 30
0.0
 11
49.997671
 21
-33.762033
 31
0.0
  0
LINE
  5
24D
330
1F
100
AcDbEntity
  8
1
  6
Continuous
 62
     4
370
    50
100
AcDbLine
 10
49.997671
 20
-33.762033
 30
0.0
 11
49.697141
 21
-33.543556
 31
0.0
  0
LINE
  5
24E
330
1F
100
AcDbEntity
  8
1
  6
Continuous
 62
     4
370
    50
100
AcDbLine
 10
49.697141
 20
-33.543556
 30
0.0
 11
49.40992
 21
-33.307949
 31
0.0
  0
LINE
  5
24F
330
1F
100
AcDbEntity
  8
1
  6
Continuous
 62
     4
370
    50
100
AcDbLine
 10
49.40992
 20
-33.307949
 30
0.0
 11
49.136966
 21
-33.055999
 31
0.0
  0
LINE
  5
250
330
1F
100
AcDbEntity
  8
1
  6
Continuous
 62
     4
370
    50
100
AcDbLine
 10
49.136966
 20
-33.055999
 30
0.0
 11
48.879192
 21
-32.788546
 31
0.0
  0
LINE
  5
251
330
1F
100
AcDbEntity
  8
1
  6
Continuous
 62
     4
370
    50
100
AcDbLine
 10
48.879192
 20
-32.788546
 30
0.0
 11
48.637457
 21
-32.506483
 31
0.0
  0
LINE
  5
252
330
1F
100
AcDbEntity
  8
1
  6
Continuous
 62
     4
370
    50
100
AcDbLine
 10
48.637457
 20
-32.506483
 30
0.0
 11
48.412568
 21
-32.210751
 31
0.0
  0
LINE
  5
253
330
1F
100
AcDbEntity
  8
1
  6
Continuous
 62
     4
370
    50
100
AcDbLine
 10
48.412568
 20
-32.210751
 30
0.0
 11
48.205276
 21
-31.902339
 31
0.0
  0
LINE
  5
254
330
1F
100
AcDbEntity
  8
1
  6
Continuous
 62
     4
370
    50
100
AcDbLine
 10
48.205276
 20
-31.902339
 30
0.0
 11
48.016272
 21
-31.582274
 31
0.0
  0
LINE
  5
255
330
1F
100
AcDbEntity
  8
1
  6
Continuous
 62
     4
370
    50
100
AcDbLine
 10
17.650456
 20
-11.88819
 30
0.0
 11
17.58525
 21
-12.473115
 31
0.0
  0
LINE
  5
256
330
1F
100
AcDbEntity
  8
1
  6
Continuous
 62
     4
370
    50
100
AcDbLine
 10
17.58525
 20
-12.473115
 30
0.0
 11
17.511626
 21
-12.899751
 31
0.0
  0
LINE
  5
257
330
1F
100
AcDbEntity
  8
1
  6
Continuous
 62
     4
370
    50
100
AcDbLine
 10
17.511626
 20
-12.899751
 30
0.0
 11
17.432218
 21
-13.152841
 31
0.0
  0
LINE
  5
258
330
1F
100
AcDbEntity
  8
1
  6
Continuous
 62
     4
370
    50
100
AcDbLine
 10
17.432218
 20
-13.152841
 30
0.0
 11
17.391226
 21
-13.211225
 31
0.0
  0
LINE
  5
259
330
1F
100
AcDbEntity
  8
1
  6
Continuous
 62
     4
370
    50
100
AcDbLine
 10
17.391226
 20
-13.211225
 30
0.0
 11
17.349864
 21
-13.223334
 31
0.0
  0
LINE
  5
25A
330
1F
100
AcDbEntity
  8
1
  6
Continuous
 62
     4
370
    50
100
AcDbLine
 10
17.349864
 20
-13.223334
 30
0.0
 11
17.296694
 21
-13.170707
 31
0.0
  0
LINE
  5
25B
330
1F
100
AcDbEntity
  8
1
  6
Continuous
 62
     4
370
    50
100
AcDbLine
 10
17.296694
 20
-13.170707
 30
0.0
 11
17.244312
 21
-13.042102
 31
0.0
  0
LINE
  5
25C
330
1F
100
AcDbEntity
  8
1
  6
Continuous
 62
     4
370
    50
100
AcDbLine
 10
17.244312
 20
-13.042102
 30
0.0
 11
17.144998
 21
-12.565682
 31
0.0
  0
LINE
  5
25D
330
1F
100
AcDbEntity
  8
1
  6
Continuous
 62
     4
370
    50
100
AcDbLine
 10
17.144998
 20
-12.565682
 30
0.0
 11
17.057791
 21
-11.822227
 31
0.0
  0
LINE
  5
25E
330
1F
100
AcDbEntity
  8
1
  6
Continuous
 62
     4
370
    50
100
AcDbLine
 10
17.057791
 20
-11.822227
 30
0.0
 11
16.987843
 21
-10.855673
 31
0.0
  0
LINE
  5
25F
330
1F
100
AcDbEntity
  8
1
  6
Continuous
 62
     4
370
    50
100
AcDbLine
 10
16.987843
 20
-10.855673
 30
0.0
 11
16.939289
 21
-9.723137
 31
0.0
  0
LINE
  5
260
330
1F
100
AcDbEntity
  8
1
  6
Continuous
 62
     4
370
    50
100
AcDbLine
 10
16.939289
 20
-9.723137
 30
0.0
 11
16.914998
 21
-8.491546
 31
0.0
  0
LINE
  5
261
330
1F
100
AcDbEntity
  8
1
  6
Continuous
 62
     4
370
    50
100
AcDbLine
 10
16.914998
 20
-8.491546
 30
0.0
 11
16.92678
 21
-6.618188
 31
0.0
  0
LINE
  5
262
330
1F
100
AcDbEntity
  8
1
  6
Continuous
 62
     4
370
    50
100
AcDbLine
 10
16.92678
 20
-6.618188
 30
0.0
 11
16.966104
 21
-5.459571
 31
0.0
  0
LINE
  5
263
330
1F
100
AcDbEntity
  8
1
  6
Continuous
 62
     4
370
    50
100
AcDbLine
 10
16.966104
 20
-5.459571
 30
0.0
 11
17.028105
 21
-4.453856
 31
0.0
  0
LINE
  5
264
330
1F
100
AcDbEntity
  8
1
  6
Continuous
 62
     4
370
    50
100
AcDbLine
 10
17.028105
 20
-4.453856
 30
0.0
 11
17.109122
 21
-3.660475
 31
0.0
  0
LINE
  5
265
330
1F
100
AcDbEntity
  8
1
  6
Continuous
 62
     4
370
    50
100
AcDbLine
 10
17.109122
 20
-3.660475
 30
0.0
 11
17.204364
 21
-3.126312
 31
0.0
  0
LINE
  5
266
330
1F
100
AcDbEntity
  8
1
  6
Continuous
 62
     4
370
    50
100
AcDbLine
 10
17.204364
 20
-3.126312
 30
0.0
 11
17.255586
 21
-2.966959
 31
0.0
  0
LINE
  5
267
330
1F
100
AcDbEntity
  8
1
  6
Continuous
 62
     4
370
    50
100
AcDbLine
 10
17.255586
 20
-2.966959
 30
0.0
 11
17.308205
 21
-2.882936
 31
0.0
  0
LINE
  5
268
330
1F
100
AcDbEntity
  8
1
  6
Continuous
 62
     4
370
    50
100
AcDbLine
 10
17.308205
 20
-2.882936
 30
0.0
 11
17.361443
 21
-2.875488
 31
0.0
  0
LINE
  5
269
330
1F
100
AcDbEntity
  8
1
  6
Continuous
 62
     4
370
    50
100
AcDbLine
 10
17.361443
 20
-2.875488
 30
0.0
 11
17.414508
 21
-2.944727
 31
0.0
  0
LINE
  5
26A
330
1F
100
AcDbEntity
  8
1
  6
Continuous
 62
     4
370
    50
100
AcDbLine
 10
17.414508
 20
-2.944727
 30
0.0
 11
17.466615
 21
-3.089625
 31
0.0
  0
LINE
  5
26B
330
1F
100
AcDbEntity
  8
1
  6
Continuous
 62
     4
370
    50
100
AcDbLine
 10
17.466615
 20
-3.089625
 30
0.0
 11
17.564888
 21
-3.596716
 31
0.0
  0
LINE
  5
26C
330
1F
100
AcDbEntity
  8
1
  6
Continuous
 62
     4
370
    50
100
AcDbLine
 10
17.564888
 20
-3.596716
 30
0.0
 11
17.650455
 21
-4.366793
 31
0.0
  0
LINE
  5
26D
330
1F
100
AcDbEntity
  8
1
  6
Continuous
 62
     4
370
    50
100
AcDbLine
 10
47.833509
 20
-29.655314
 30
0.0
 11
48.617796
 21
-29.870057
 31
0.0
  0
LINE
  5
26E
330
1F
100
AcDbEntity
  8
1
  6
Continuous
 62
     4
370
    50
100
AcDbLine
 10
54.928147
 20
-22.560676
 30
0.0
 11
55.14289
 21
-23.344963
 31
0.0
  0
LINE
  5
26F
330
1F
100
AcDbEntity
  8
1
  6
Continuous
 62
     4
370
    50
100
AcDbLine
 10
8.538675
 20
7.8025
 30
0.0
 11
11.461325
 21
7.8025
 31
0.0
  0
LINE
  5
270
330
1F
100
AcDbEntity
  8
1
  6
Continuous
 62
     4
370
    50
100
AcDbLine
 10
8.538675
 20
-23.566297
 30
0.0
 11
11.461325
 21
-23.566297
 31
0.0
  0
LINE
  5
271
330
1F
100
AcDbEntity
  8
1
  6
Continuous
 62
     4
370
    50
100
AcDbLine
 10
8.538675
 20
-7.256834
 30
0.0
 11
11.461325
 21
-7.256834
 31
0.0
  0
LINE
  5
272
330
1F
100
AcDbEntity
  8
4
  6
Continuous
 62
     2
370
    25
100
AcDbLine
 10
64.144757
 20
0.0
 30
0.0
 11
5.144757
 21
0.0
 31
0.0
  0
LINE
  5
274
330
1F
100
AcDbEntity
  8
80
  6
Continuous
 62
     6
370
    18
100
AcDbLine
 10
0.0
 20
0.0
 30
0.0
 11
-16.0
 21
0.0
 31
0.0
  0
LINE
  5
275
330
1F
100
AcDbEntity
  8
81
  6
Continuous
 62
     3
370
    18
100
AcDbLine
 10
60.118503
 20
-28.970365
 30
0.0
 11
67.718503
 21
-28.970365
 31
0.0
  0
SPLINE
  5
276
330
1F
100
AcDbEntity
  8
1
  6
Continuous
 62
     4
370
    50
100
AcDbSpline
210
0.0
220
0.0
230
1.0
 70
     8
 71
     3
 72
    34
 73
    30
 74
     0
 42
0.000000001
 43
0.0000000001
 40
0.0
 40
0.0
 40
0.0
 40
0.0
 40
0.0769240299357388
 40
0.0769240299357388
 40
0.1538477523674061
 40
0.1538477523674061
 40
0.2307717823031544
 40
0.2307717823031544
 40
0.3076959253999829
 40
0.3076959253999829
 40
0.3846199553357038
 40
0.3846199553357038
 40
0.4615436777673992
 40
0.4615436777673992
 40
0.5384677077030937
 40
0.5384677077030937
 40
0.6153917376388444
 40
0.6153917376388444
 40
0.6153917376388444
 40
0.6923047827112282
 40
0.6923047827112282
 40
0.7692287998287014
 40
0.7692287998287014
 40
0.846152504767756
 40
0.846152504767756
 40
0.9230759422887974
 40
0.9230759422887974
 40
0.9230759422887974
 40
1.0
 40
1.0
 40
1.0
 40
1.0
 10
44.95040300000005
 20
-28.65782699999977
 30
0.0
 10
45.02384300000003
 20
-28.68485266666644
 30
0.0
 10
45.09728300000003
 20
-28.71187833333312
 30
0.0
 10
45.24416270642335
 20
-28.76592955863126
 30
0.0
 10
45.31760233333335
 20
-28.79295533333308
 30
0.0
 10
45.4644819602432
 20
-28.847006774702
 30
0.0
 10
45.53792200000002
 20
-28.87403233333304
 30
0.0
 10
45.68480210803583
 20
-28.92808370642317
 30
0.0
 10
45.758242
 20
-28.95510999999972
 30
0.0
 10
45.90512189196432
 20
-29.00916196024251
 30
0.0
 10
45.97856199999998
 20
-29.03618733333307
 30
0.0
 10
46.12544170642334
 20
-29.09023855863121
 30
0.0
 10
46.19888133333338
 20
-29.11726433333308
 30
0.0
 10
46.34576096024323
 20
-29.17131577470204
 30
0.0
 10
46.41920100000002
 20
-29.19834133333309
 30
0.0
 10
46.56608100000002
 20
-29.25239266666643
 30
0.0
 10
46.63952100000004
 20
-29.2794183333331
 30
0.0
 10
46.71296100000006
 20
-29.30644399999977
 30
0.0
 10
46.7873143333334
 20
-29.33080899999976
 30
0.0
 10
46.86166766666674
 20
-29.35517399999975
 30
0.0
 10
47.01038494022236
 20
-29.40390747579344
 30
0.0
 10
47.08513366666674
 20
-29.42708566666645
 30
0.0
 10
47.23424603076368
 20
-29.47463223685456
 30
0.0
 10
47.30880200000005
 20
-29.49840566666645
 30
0.0
 10
47.45791374081311
 20
-29.54595225068734
 30
0.0
 10
47.53248599999998
 20
-29.56967366666639
 30
0.0
 10
47.60704999999996
 20
-29.5934209999997
 30
0.0
 10
47.68253633333331
 20
-29.6140519999997
 30
0.0
 10
47.75802266666667
 20
-29.63468299999969
 30
0.0
 10
47.83350900000002
 20
-29.65531399999969
 30
0.0
  0
SPLINE
  5
277
330
1F
100
AcDbEntity
  8
1
  6
Continuous
 62
     4
370
    50
100
AcDbSpline
210
0.0
220
0.0
230
1.0
 70
     8
 71
     3
 72
    34
 73
    30
 74
     0
 42
0.000000001
 43
0.0000000001
 40
0.0
 40
0.0
 40
0.0
 40
0.0
 40
0.0769235655220847
 40
0.0769235655220847
 40
0.1538469366094304
 40
0.1538469366094304
 40
0.2307705021315226
 40
0.2307705021315226
 40
0.3076941807447621
 40
0.3076941807447621
 40
0.384617438740512
 40
0.384617438740512
 40
0.4615411173537515
 40
0.4615411173537515
 40
0.5384646828758339
 40
0.5384646828758339
 40
0.5384646828758339
 40
0.6153863287891637
 40
0.6153863287891637
 40
0.6923098237120089
 40
0.6923098237120089
 40
0.7692332129295105
 40
0.7692332129295105
 40
0.8461567078523446
 40
0.8461567078523446
 40
0.8461567078523446
 40
0.9230766201762636
 40
0.9230766201762636
 40
1.0
 40
1.0
 40
1.0
 40
1.0
 10
53.93065900000005
 20
-19.67757099999977
 30
0.0
 10
53.95766833333337
 20
-19.75101733333309
 30
0.0
 10
53.9846776666667
 20
-19.82446366666641
 30
0.0
 10
54.03869626506361
 20
-19.97135614768749
 30
0.0
 10
54.06570633333337
 20
-20.04480199999976
 30
0.0
 10
54.11972573493747
 20
-20.19169418564498
 30
0.0
 10
54.14673466666667
 20
-20.26514066666643
 30
0.0
 10
54.20075337304177
 20
-20.41203344131209
 30
0.0
 10
54.22776333333334
 20
-20.48547966666642
 30
0.0
 10
54.28178251897823
 20
-20.63237193172968
 30
0.0
 10
54.30879166666671
 20
-20.70581799999974
 30
0.0
 10
54.36281048102085
 20
-20.85271040160351
 30
0.0
 10
54.3898203333334
 20
-20.92615666666641
 30
0.0
 10
54.44383962695784
 20
-21.07304922535424
 30
0.0
 10
54.47084866666668
 20
-21.1464956666664
 30
0.0
 10
54.49785799999999
 20
-21.21994199999972
 30
0.0
 10
54.523281
 20
-21.29395033333306
 30
0.0
 10
54.54870400000001
 20
-21.36795866666641
 30
0.0
 10
54.59955061110718
 20
-21.51597711231365
 30
0.0
 10
54.62461833333337
 20
-21.59010899999974
 30
0.0
 10
54.67510963197508
 20
-21.73825089821417
 30
0.0
 10
54.7003546666667
 20
-21.81232199999976
 30
0.0
 10
54.7508453680246
 20
-21.96046410178547
 30
0.0
 10
54.77609133333338
 20
-22.03453499999975
 30
0.0
 10
54.80133700000004
 20
-22.10860599999974
 30
0.0
 10
54.82254033333337
 20
-22.18392999999972
 30
0.0
 10
54.8437436666667
 20
-22.2592539999997
 30
0.0
 10
54.88615128916589
 20
-22.40990539555679
 30
0.0
 10
54.90708033333336
 20
-22.4853099999997
 30
0.0
 10
54.92814700000002
 20
-22.56067599999972
 30
0.0
  0
SPLINE
  5
278
330
1F
100
AcDbEntity
  8
1
  6
Continuous
 62
     4
370
    50
100
AcDbSpline
210
0.0
220
0.0
230
1.0
 70
     8
 71
     3
 72
    60
 73
    56
 74
     0
 42
0.000000001
 43
0.0000000001
 40
0.0
 40
0.0
 40
0.0
 40
0.0
 40
0.0454769697411184
 40
0.0454769697411184
 40
0.0909552571835847
 40
0.0909552571835847
 40
0.1364322269246927
 40
0.1364322269246927
 40
0.181910514367159
 40
0.181910514367159
 40
0.181910514367159
 40
0.2272120970384209
 40
0.2272120970384209
 40
0.2272120970384209
 40
0.2726894462085898
 40
0.2726894462085898
 40
0.3181667953786111
 40
0.3181667953786111
 40
0.3636441445488213
 40
0.3636441445488213
 40
0.3636441445488213
 40
0.4090613592644297
 40
0.4090613592644297
 40
0.4090613592644297
 40
0.4545388960136872
 40
0.4545388960136872
 40
0.5000164327629298
 40
0.5000164327629298
 40
0.5454939695121527
 40
0.5454939695121527
 40
0.5909715062614186
 40
0.5909715062614186
 40
0.5909715062614186
 40
0.6363086837599526
 40
0.6363086837599526
 40
0.6363086837599526
 40
0.6817860931876973
 40
0.6817860931876973
 40
0.7272633489621256
 40
0.7272633489621256
 40
0.7272633489621256
 40
0.7726586435100941
 40
0.7726586435100941
 40
0.7726586435100941
 40
0.818136248976613
 40
0.818136248976613
 40
0.8636138544430436
 40
0.8636138544430436
 40
0.8636138544430436
 40
0.9090449825773275
 40
0.9090449825773275
 40
0.9090449825773275
 40
0.954522571124093
 40
0.954522571124093
 40
1.0
 40
1.0
 40
1.0
 40
1.0
 10
54.82409800000005
 20
-24.31849499999976
 30
0.0
 10
54.83455266666672
 20
-24.30610533333309
 30
0.0
 10
54.84500733333338
 20
-24.29371566666642
 30
0.0
 10
54.86591696959211
 20
-24.26893597434082
 30
0.0
 10
54.87637200000004
 20
-24.25654599999975
 30
0.0
 10
54.89728169707377
 20
-24.23176635899128
 30
0.0
 10
54.90773633333337
 20
-24.21937666666641
 30
0.0
 10
54.9286459695921
 20
-24.1945969743408
 30
0.0
 10
54.93910100000007
 20
-24.18220699999974
 30
0.0
 10
54.94955600000007
 20
-24.16981699999974
 30
0.0
 10
54.9588293333334
 20
-24.15659633333308
 30
0.0
 10
54.96810266666673
 20
-24.14337566666643
 30
0.0
 10
54.97737600000005
 20
-24.13015499999977
 30
0.0
 10
54.98550033333339
 20
-24.11612633333309
 30
0.0
 10
54.99362466666673
 20
-24.10209766666641
 30
0.0
 10
55.0098733333334
 20
-24.0740403333331
 30
0.0
 10
55.01799766666668
 20
-24.06001166666643
 30
0.0
 10
55.03424633333329
 20
-24.03195433333307
 30
0.0
 10
55.04237066666671
 20
-24.01792566666642
 30
0.0
 10
55.05049500000007
 20
-24.00389699999974
 30
0.0
 10
55.05839200000005
 20
-23.98976366666641
 30
0.0
 10
55.06628900000002
 20
-23.97563033333308
 30
0.0
 10
55.074186
 20
-23.96149699999975
 30
0.0
 10
55.07953466666665
 20
-23.94619333333307
 30
0.0
 10
55.08488333333332
 20
-23.9308896666664
 30
0.0
 10
55.09558066666664
 20
-23.90028233333306
 30
0.0
 10
55.10092933333334
 20
-23.88497866666641
 30
0.0
 10
55.11162666666672
 20
-23.85437133333309
 30
0.0
 10
55.11697533333338
 20
-23.83906766666642
 30
0.0
 10
55.12767266666673
 20
-23.80846033333308
 30
0.0
 10
55.13302133333335
 20
-23.79315666666639
 30
0.0
 10
55.13837000000001
 20
-23.77785299999971
 30
0.0
 10
55.14184066666669
 20
-23.76206866666638
 30
0.0
 10
55.14531133333336
 20
-23.74628433333305
 30
0.0
 10
55.14878200000004
 20
-23.73049999999972
 30
0.0
 10
55.15144600000002
 20
-23.71450899999973
 30
0.0
 10
55.15411
 20
-23.69851799999973
 30
0.0
 10
55.15943799099917
 20
-23.66653605402811
 30
0.0
 10
55.16210133333335
 20
-23.65054499999975
 30
0.0
 10
55.16476500000004
 20
-23.63455399999975
 30
0.0
 10
55.16533700000006
 20
-23.61838199999974
 30
0.0
 10
55.16590900000008
 20
-23.60220999999973
 30
0.0
 10
55.1664810000001
 20
-23.58603799999972
 30
0.0
 10
55.1666023333334
 20
-23.56982699999972
 30
0.0
 10
55.16672366666671
 20
-23.55361599999972
 30
0.0
 10
55.16696633333329
 20
-23.52119399999975
 30
0.0
 10
55.1670876666667
 20
-23.50498299999978
 30
0.0
 10
55.16720900000005
 20
-23.48877199999981
 30
0.0
 10
55.16463900000005
 20
-23.47278233333311
 30
0.0
 10
55.16206900000005
 20
-23.45679266666642
 30
0.0
 10
55.15949900000004
 20
-23.44080299999973
 30
0.0
 10
55.1567306666667
 20
-23.4248296666664
 30
0.0
 10
55.15396233333337
 20
-23.40885633333306
 30
0.0
 10
55.14842567638625
 20
-23.37690972274844
 30
0.0
 10
55.14565800000006
 20
-23.3609363333331
 30
0.0
 10
55.14289000000008
 20
-23.34496299999978
 30
0.0
  0
SPLINE
  5
279
330
1F
100
AcDbEntity
  8
1
  6
Continuous
 62
     4
370
    50
100
AcDbSpline
210
0.0
220
0.0
230
1.0
 70
     8
 71
     3
 72
    51
 73
    47
 74
     0
 42
0.000000001
 43
0.0000000001
 40
0.0
 40
0.0
 40
0.0
 40
0.0
 40
0.0526831798606365
 40
0.0526831798606365
 40
0.1053675575296706
 40
0.1053675575296706
 40
0.158050737390412
 40
0.158050737390412
 40
0.2107339172510335
 40
0.2107339172510335
 40
0.2107339172510335
 40
0.2630207945590908
 40
0.2630207945590908
 40
0.2630207945590908
 40
0.3157044701781674
 40
0.3157044701781674
 40
0.3683873371094224
 40
0.3683873371094224
 40
0.4210710127285164
 40
0.4210710127285164
 40
0.4210710127285164
 40
0.4733880466796271
 40
0.4733880466796271
 40
0.4733880466796271
 40
0.5260713583195383
 40
0.5260713583195383
 40
0.5787555258429459
 40
0.5787555258429459
 40
0.6314389166666187
 40
0.6314389166666187
 40
0.6841222283065325
 40
0.6841222283065325
 40
0.6841222283065325
 40
0.7366034715285251
 40
0.7366034715285251
 40
0.7366034715285251
 40
0.7892868141605417
 40
0.7892868141605417
 40
0.8419702679496344
 40
0.8419702679496344
 40
0.8946327375682064
 40
0.8946327375682064
 40
0.8946327375682064
 40
0.9473167783561016
 40
0.9473167783561016
 40
1.0
 40
1.0
 40
1.0
 40
1.0
 10
49.48710000000005
 20
-29.44702099999975
 30
0.0
 10
49.47040366666673
 20
-29.45879599999975
 30
0.0
 10
49.4537073333334
 20
-29.47057099999975
 30
0.0
 10
49.42031428705779
 20
-29.49412126771696
 30
0.0
 10
49.40361766666674
 20
-29.50589666666642
 30
0.0
 10
49.37022471294129
 20
-29.5294470656144
 30
0.0
 10
49.35352833333335
 20
-29.54122199999975
 30
0.0
 10
49.32013566666667
 20
-29.56477199999972
 30
0.0
 10
49.30343933333338
 20
-29.57654699999975
 30
0.0
 10
49.28674300000008
 20
-29.58832199999975
 30
0.0
 10
49.26827533333338
 20
-29.59669499999974
 30
0.0
 10
49.24980766666672
 20
-29.60506799999974
 30
0.0
 10
49.23134000000004
 20
-29.61344099999974
 30
0.0
 10
49.21211766666672
 20
-29.62036399999975
 30
0.0
 10
49.19289533333341
 20
-29.62728699999976
 30
0.0
 10
49.1544509617272
 20
-29.6411328937326
 30
0.0
 10
49.13522900000004
 20
-29.64805599999975
 30
0.0
 10
49.09678470494014
 20
-29.66190210626855
 30
0.0
 10
49.07756233333336
 20
-29.66882499999976
 30
0.0
 10
49.05834000000004
 20
-29.67574799999977
 30
0.0
 10
49.03876000000002
 20
-29.68106399999975
 30
0.0
 10
49.01918000000003
 20
-29.68637999999972
 30
0.0
 10
48.99960000000002
 20
-29.6916959999997
 30
0.0
 10
48.97925600000003
 20
-29.69357799999972
 30
0.0
 10
48.95891200000003
 20
-29.69545999999974
 30
0.0
 10
48.91822366949511
 20
-29.69922403057441
 30
0.0
 10
48.89787933333338
 20
-29.70110599999975
 30
0.0
 10
48.85719096659438
 20
-29.70486997225424
 30
0.0
 10
48.83684700000006
 20
-29.70675266666643
 30
0.0
 10
48.79615903057735
 20
-29.71051733050394
 30
0.0
 10
48.7758150000001
 20
-29.71239899999981
 30
0.0
 10
48.75547100000011
 20
-29.71428099999983
 30
0.0
 10
48.73519500000011
 20
-29.71251799999982
 30
0.0
 10
48.7149190000001
 20
-29.71075499999981
 30
0.0
 10
48.69464300000012
 20
-29.7089919999998
 30
0.0
 10
48.67438366666676
 20
-29.70634999999978
 30
0.0
 10
48.65412433333341
 20
-29.70370799999976
 30
0.0
 10
48.61360562392133
 20
-29.69842399442534
 30
0.0
 10
48.59334633333342
 20
-29.69578133333307
 30
0.0
 10
48.55283573609419
 20
-29.69049771912536
 30
0.0
 10
48.5326090000001
 20
-29.68767166666644
 30
0.0
 10
48.5123700000001
 20
-29.68493799999979
 30
0.0
 10
48.49289900000006
 20
-29.67874833333311
 30
0.0
 10
48.47342800000003
 20
-29.67255866666643
 30
0.0
 10
48.43448630273971
 20
-29.66017942957148
 30
0.0
 10
48.41501566666668
 20
-29.65398966666642
 30
0.0
 10
48.39554500000001
 20
-29.64779999999974
 30
0.0
  0
SPLINE
  5
27A
330
1F
100
AcDbEntity
  8
1
  6
Continuous
 62
     4
370
    50
100
AcDbSpline
210
0.0
220
0.0
230
1.0
 70
     8
 71
     3
 72
    60
 73
    56
 74
     0
 42
0.000000001
 43
0.0000000001
 40
0.0
 40
0.0
 40
0.0
 40
0.0
 40
0.0454904206476636
 40
0.0454904206476636
 40
0.090981500406535
 40
0.090981500406535
 40
0.090981500406535
 40
0.136343391300587
 40
0.136343391300587
 40
0.136343391300587
 40
0.1818339924607077
 40
0.1818339924607077
 40
0.22732459362086
 40
0.22732459362086
 40
0.22732459362086
 40
0.2726920224790854
 40
0.2726920224790854
 40
0.2726920224790854
 40
0.318183150868615
 40
0.318183150868615
 40
0.3636734811384852
 40
0.3636734811384852
 40
0.3636734811384852
 40
0.4090912990417486
 40
0.4090912990417486
 40
0.4090912990417486
 40
0.4545818553893256
 40
0.4545818553893256
 40
0.5000725828883857
 40
0.5000725828883857
 40
0.5455641510868002
 40
0.5455641510868002
 40
0.5455641510868002
 40
0.5908189085664547
 40
0.5908189085664547
 40
0.5908189085664547
 40
0.6363102439611109
 40
0.6363102439611109
 40
0.6818007070428921
 40
0.6818007070428921
 40
0.7272911846145755
 40
0.7272911846145755
 40
0.772782520009278
 40
0.772782520009278
 40
0.772782520009278
 40
0.818037003552232
 40
0.818037003552232
 40
0.818037003552232
 40
0.86352728474576
 40
0.86352728474576
 40
0.9090186047528449
 40
0.9090186047528449
 40
0.9545088859463461
 40
0.9545088859463461
 40
1.0
 40
1.0
 40
1.0
 40
1.0
 10
54.71985400000003
 20
-24.21426699999975
 30
0.0
 10
54.73116833333339
 20
-24.20068899999974
 30
0.0
 10
54.74248266666674
 20
-24.18711099999974
 30
0.0
 10
54.76511149726691
 20
-24.15995480326794
 30
0.0
 10
54.77642566666672
 20
-24.14637633333308
 30
0.0
 10
54.78774000000004
 20
-24.13279799999975
 30
0.0
 10
54.79839633333338
 20
-24.11876033333308
 30
0.0
 10
54.8090526666667
 20
-24.10472266666642
 30
0.0
 10
54.81970900000002
 20
-24.09068499999975
 30
0.0
 10
54.82855766666669
 20
-24.07538533333307
 30
0.0
 10
54.83740633333336
 20
-24.0600856666664
 30
0.0
 10
54.85510366666669
 20
-24.02948633333305
 30
0.0
 10
54.86395233333337
 20
-24.01418666666636
 30
0.0
 10
54.87280100000003
 20
-23.99888699999968
 30
0.0
 10
54.88030700000002
 20
-23.98293866666637
 30
0.0
 10
54.88781300000002
 20
-23.96699033333306
 30
0.0
 10
54.89531900000002
 20
-23.95104199999975
 30
0.0
 10
54.90180333333335
 20
-23.93459999999975
 30
0.0
 10
54.90828766666669
 20
-23.91815799999975
 30
0.0
 10
54.92125621956889
 20
-23.88527428846661
 30
0.0
 10
54.92774066666669
 20
-23.86883266666638
 30
0.0
 10
54.93422500000002
 20
-23.8523909999997
 30
0.0
 10
54.93810400000003
 20
-23.83517666666637
 30
0.0
 10
54.94198300000003
 20
-23.81796233333305
 30
0.0
 10
54.94586200000004
 20
-23.80074799999973
 30
0.0
 10
54.9493876666667
 20
-23.78342899999974
 30
0.0
 10
54.95291333333338
 20
-23.76610999999975
 30
0.0
 10
54.9599646799315
 20
-23.7314719348396
 30
0.0
 10
54.96349100000001
 20
-23.71415299999971
 30
0.0
 10
54.97054306516284
 20
-23.67951467993284
 30
0.0
 10
54.97406899999999
 20
-23.66219533333306
 30
0.0
 10
54.97759499999999
 20
-23.64487599999975
 30
0.0
 10
54.97988633333333
 20
-23.62744333333308
 30
0.0
 10
54.98217766666669
 20
-23.6100106666664
 30
0.0
 10
54.98446900000004
 20
-23.59257799999972
 30
0.0
 10
54.98417033333337
 20
-23.57490599999973
 30
0.0
 10
54.98387166666669
 20
-23.55723399999973
 30
0.0
 10
54.9832743390604
 20
-23.52189033886677
 30
0.0
 10
54.98297633333338
 20
-23.50421866666642
 30
0.0
 10
54.98237966657171
 20
-23.46887532770421
 30
0.0
 10
54.98208066666669
 20
-23.45120366666643
 30
0.0
 10
54.98148332770131
 20
-23.41586000009495
 30
0.0
 10
54.98118466666671
 20
-23.39818799999976
 30
0.0
 10
54.98088600000008
 20
-23.38051599999975
 30
0.0
 10
54.97777266666674
 20
-23.3632113333331
 30
0.0
 10
54.97465933333339
 20
-23.34590666666644
 30
0.0
 10
54.97154600000005
 20
-23.32860199999979
 30
0.0
 10
54.96730333333338
 20
-23.31144466666643
 30
0.0
 10
54.96306066666673
 20
-23.29428733333307
 30
0.0
 10
54.95457523644809
 20
-23.25997227486245
 30
0.0
 10
54.95033200000008
 20
-23.24281466666639
 30
0.0
 10
54.94184609689083
 20
-23.20849972513566
 30
0.0
 10
54.93760366666672
 20
-23.19134233333307
 30
0.0
 10
54.92911825565637
 20
-23.15702735254087
 30
0.0
 10
54.92487566666671
 20
-23.13986966666641
 30
0.0
 10
54.92063300000006
 20
-23.12271199999975
 30
0.0
  0
SPLINE
  5
27B
330
1F
100
AcDbEntity
  8
1
  6
Continuous
 62
     4
370
    50
100
AcDbSpline
210
0.0
220
0.0
230
1.0
 70
     8
 71
     3
 72
    52
 73
    48
 74
     0
 42
0.000000001
 43
0.0000000001
 40
0.0
 40
0.0
 40
0.0
 40
0.0
 40
0.052673723994073
 40
0.052673723994073
 40
0.1053468595406801
 40
0.1053468595406801
 40
0.1580198554183413
 40
0.1580198554183413
 40
0.2106929909649481
 40
0.2106929909649481
 40
0.2106929909649481
 40
0.2631130271480922
 40
0.2631130271480922
 40
0.2631130271480922
 40
0.3157868048276557
 40
0.3157868048276557
 40
0.3684601886292022
 40
0.3684601886292022
 40
0.4211331373598468
 40
0.4211331373598468
 40
0.4738065211615132
 40
0.4738065211615132
 40
0.4738065211615132
 40
0.5263716492847953
 40
0.5263716492847953
 40
0.5263716492847953
 40
0.5790457762471879
 40
0.5790457762471879
 40
0.6317189933503108
 40
0.6317189933503108
 40
0.6843922104534771
 40
0.6843922104534771
 40
0.6843922104534771
 40
0.736769245744972
 40
0.736769245744972
 40
0.736769245744972
 40
0.7894426082070896
 40
0.7894426082070896
 40
0.8421159706691471
 40
0.8421159706691471
 40
0.8947883969519568
 40
0.8947883969519568
 40
0.8947883969519568
 40
0.9473269763433221
 40
0.9473269763433221
 40
0.9473269763433221
 40
1.0
 40
1.0
 40
1.0
 40
1.0
 10
49.59132800000001
 20
-29.55126499999977
 30
0.0
 10
49.57674133333335
 20
-29.56305366666643
 30
0.0
 10
49.56215466666669
 20
-29.57484233333309
 30
0.0
 10
49.5329814962891
 20
-29.59841953496867
 30
0.0
 10
49.5183946666667
 20
-29.61020766666641
 30
0.0
 10
49.48922137201163
 20
-29.63378430207493
 30
0.0
 10
49.4746353333334
 20
-29.64557333333308
 30
0.0
 10
49.44546262798931
 20
-29.66915069792552
 30
0.0
 10
49.43087566666674
 20
-29.68093866666637
 30
0.0
 10
49.41628900000007
 20
-29.69272699999968
 30
0.0
 10
49.40073800000003
 20
-29.70304833333304
 30
0.0
 10
49.38518699999999
 20
-29.7133696666664
 30
0.0
 10
49.36963599999995
 20
-29.72369099999975
 30
0.0
 10
49.35302933333327
 20
-29.73240666666642
 30
0.0
 10
49.3364226666666
 20
-29.74112233333308
 30
0.0
 10
49.3032094575127
 20
-29.75855360149339
 30
0.0
 10
49.28660333333338
 20
-29.76726999999976
 30
0.0
 10
49.25339080383159
 20
-29.78470192800746
 30
0.0
 10
49.23678433333338
 20
-29.79341733333304
 30
0.0
 10
49.2035715295007
 20
-29.8108487386565
 30
0.0
 10
49.18696533333335
 20
-29.81956499999973
 30
0.0
 10
49.17035900000001
 20
-29.82828099999975
 30
0.0
 10
49.15225100000001
 20
-29.83301333333308
 30
0.0
 10
49.13414300000002
 20
-29.83774566666642
 30
0.0
 10
49.11603500000001
 20
-29.84247799999975
 30
0.0
 10
49.09780733333334
 20
-29.84689399999975
 30
0.0
 10
49.07957966666667
 20
-29.85130999999975
 30
0.0
 10
49.04312464818642
 20
-29.86014192372058
 30
0.0
 10
49.02489733333334
 20
-29.86455799999975
 30
0.0
 10
48.98844266666669
 20
-29.87338999999975
 30
0.0
 10
48.97021533333336
 20
-29.87780599999975
 30
0.0
 10
48.95198800000002
 20
-29.88222199999976
 30
0.0
 10
48.9336186666667
 20
-29.88544066666642
 30
0.0
 10
48.91524933333338
 20
-29.88865933333308
 30
0.0
 10
48.89688000000006
 20
-29.89187799999974
 30
0.0
 10
48.87812533333338
 20
-29.89184399999975
 30
0.0
 10
48.8593706666667
 20
-29.89180999999975
 30
0.0
 10
48.82186133333335
 20
-29.89174199999976
 30
0.0
 10
48.80310666666668
 20
-29.89170799999975
 30
0.0
 10
48.76559766666558
 20
-29.89164000060402
 30
0.0
 10
48.74684333333335
 20
-29.89160599999976
 30
0.0
 10
48.72808900000001
 20
-29.89157199999977
 30
0.0
 10
48.70967800000002
 20
-29.88825899999976
 30
0.0
 10
48.69126700000002
 20
-29.88494599999975
 30
0.0
 10
48.67285600000002
 20
-29.88163299999974
 30
0.0
 10
48.65450266666669
 20
-29.87777433333308
 30
0.0
 10
48.63614933333337
 20
-29.87391566666642
 30
0.0
 10
48.61779600000005
 20
-29.87005699999975
 30
0.0
  0
SPLINE
  5
27C
330
1F
100
AcDbEntity
  8
1
  6
Continuous
 62
     4
370
    50
100
AcDbSpline
210
0.0
220
0.0
230
1.0
 70
     8
 71
     3
 72
   155
 73
   151
 74
     0
 42
0.000000001
 43
0.0000000001
 40
0.0
 40
0.0
 40
0.0
 40
0.0
 40
0.0163934108752377
 40
0.0163934108752377
 40
0.0163934108752377
 40
0.0327880071095572
 40
0.0327880071095572
 40
0.0327880071095572
 40
0.0491773760705102
 40
0.0491773760705102
 40
0.0491773760705102
 40
0.065557683612808
 40
0.065557683612808
 40
0.065557683612808
 40
0.0819522483973004
 40
0.0819522483973004
 40
0.0983408804977275
 40
0.0983408804977275
 40
0.0983408804977275
 40
0.1147354083245852
 40
0.1147354083245852
 40
0.1311299950075399
 40
0.1311299950075399
 40
0.1311299950075399
 40
0.1475144585738686
 40
0.1475144585738686
 40
0.1475144585738686
 40
0.163908995856193
 40
0.163908995856193
 40
0.163908995856193
 40
0.1802995780561419
 40
0.1802995780561419
 40
0.1802995780561419
 40
0.1966907282763538
 40
0.1966907282763538
 40
0.1966907282763538
 40
0.2130853072313226
 40
0.2130853072313226
 40
0.2294798247859384
 40
0.2294798247859384
 40
0.2294798247859384
 40
0.2458689842618673
 40
0.2458689842618673
 40
0.2458689842618673
 40
0.2622635283450392
 40
0.2622635283450392
 40
0.2786580796590102
 40
0.2786580796590102
 40
0.2786580796590102
 40
0.2950486115961974
 40
0.2950486115961974
 40
0.2950486115961974
 40
0.3114431341221142
 40
0.3114431341221142
 40
0.3278377228494831
 40
0.3278377228494831
 40
0.3278377228494831
 40
0.3442293196539123
 40
0.3442293196539123
 40
0.3442293196539123
 40
0.3606239326555485
 40
0.3606239326555485
 40
0.3770184833130676
 40
0.3770184833130676
 40
0.393411010064137
 40
0.393411010064137
 40
0.393411010064137
 40
0.409805559827575
 40
0.409805559827575
 40
0.4262001719329956
 40
0.4262001719329956
 40
0.4425934607895335
 40
0.4425934607895335
 40
0.4425934607895335
 40
0.4589880183227171
 40
0.4589880183227171
 40
0.4753826413130092
 40
0.4753826413130092
 40
0.4917762447798291
 40
0.4917762447798291
 40
0.4917762447798291
 40
0.5081708357387187
 40
0.5081708357387187
 40
0.5245653645412505
 40
0.5245653645412505
 40
0.540959950533255
 40
0.540959950533255
 40
0.540959950533255
 40
0.5573529689925323
 40
0.5573529689925323
 40
0.5573529689925323
 40
0.573747483907588
 40
0.573747483907588
 40
0.5901420608038047
 40
0.5901420608038047
 40
0.6065356778916928
 40
0.6065356778916928
 40
0.6065356778916928
 40
0.622930266982861
 40
0.622930266982861
 40
0.639324785823825
 40
0.639324785823825
 40
0.6557193749149901
 40
0.6557193749149901
 40
0.6557193749149901
 40
0.672111957611484
 40
0.672111957611484
 40
0.672111957611484
 40
0.6885065708972286
 40
0.6885065708972286
 40
0.7049011121487425
 40
0.7049011121487425
 40
0.7212956639849396
 40
0.7212956639849396
 40
0.7376902666860432
 40
0.7376902666860432
 40
0.7540848185222383
 40
0.7540848185222383
 40
0.7704793597737524
 40
0.7704793597737524
 40
0.7704793597737524
 40
0.7868715812401436
 40
0.7868715812401436
 40
0.7868715812401436
 40
0.8032661424160561
 40
0.8032661424160561
 40
0.8196607645560297
 40
0.8196607645560297
 40
0.8360553257319422
 40
0.8360553257319422
 40
0.852449886907858
 40
0.852449886907858
 40
0.868844448083771
 40
0.868844448083771
 40
0.8852390092596815
 40
0.8852390092596815
 40
0.8852390092596815
 40
0.9016326127559103
 40
0.9016326127559103
 40
0.9180271899160813
 40
0.9180271899160813
 40
0.9344217066174052
 40
0.9344217066174052
 40
0.950816268519494
 40
0.950816268519494
 40
0.9672108456796655
 40
0.9672108456796655
 40
0.9836054228398303
 40
0.9836054228398303
 40
1.0
 40
1.0
 40
1.0
 40
1.0
 10
8.105675000000005
 20
-23.39371499999984
 30
0.0
 10
8.053489666666673
 20
-23.32331133333317
 30
0.0
 10
8.001304333333339
 20
-23.25290766666649
 30
0.0
 10
7.949119000000008
 20
-23.18250399999982
 30
0.0
 10
7.901214333333345
 20
-23.10911299999981
 30
0.0
 10
7.853309666666683
 20
-23.03572199999979
 30
0.0
 10
7.805405000000021
 20
-22.96233099999978
 30
0.0
 10
7.761324000000013
 20
-22.88661399999977
 30
0.0
 10
7.717243000000008
 20
-22.81089699999977
 30
0.0
 10
7.673162000000002
 20
-22.73517999999976
 30
0.0
 10
7.633748000000018
 20
-22.65698633333311
 30
0.0
 10
7.594334000000035
 20
-22.57879266666646
 30
0.0
 10
7.554920000000052
 20
-22.5005989999998
 30
0.0
 10
7.51833833333336
 20
-22.4209569999998
 30
0.0
 10
7.481756666666668
 20
-22.3413149999998
 30
0.0
 10
7.408606571102861
 20
-22.1820598199673
 30
0.0
 10
7.373387666666652
 20
-22.10183366666645
 30
0.0
 10
7.33749399999999
 20
-22.02191399999978
 30
0.0
 10
7.308550666666659
 20
-21.93918966666645
 30
0.0
 10
7.279607333333328
 20
-21.85646533333312
 30
0.0
 10
7.221720562760554
 20
-21.69101636968742
 30
0.0
 10
7.192777333333347
 20
-21.60829166666649
 30
0.0
 10
7.163834000000022
 20
-21.52556699999983
 30
0.0
 10
7.138488333333345
 20
-21.4417266666665
 30
0.0
 10
7.113142666666668
 20
-21.35788633333317
 30
0.0
 10
7.087796999999991
 20
-21.27404599999983
 30
0.0
 10
7.064859333333337
 20
-21.18945933333316
 30
0.0
 10
7.041921666666682
 20
-21.1048726666665
 30
0.0
 10
7.018984000000028
 20
-21.02028599999983
 30
0.0
 10
6.997589666666705
 20
-20.93531766666648
 30
0.0
 10
6.97619533333338
 20
-20.85034933333314
 30
0.0
 10
6.954801000000057
 20
-20.76538099999979
 30
0.0
 10
6.936832666666714
 20
-20.67961966666645
 30
0.0
 10
6.918864333333371
 20
-20.59385833333312
 30
0.0
 10
6.900896000000028
 20
-20.50809699999979
 30
0.0
 10
6.885622666666678
 20
-20.42179633333313
 30
0.0
 10
6.870349333333329
 20
-20.33549566666647
 30
0.0
 10
6.839802723867738
 20
-20.16289465654312
 30
0.0
 10
6.824529333333349
 20
-20.07659433333316
 30
0.0
 10
6.809256000000032
 20
-19.99029399999983
 30
0.0
 10
6.795301333333367
 20
-19.9037996666665
 30
0.0
 10
6.781346666666704
 20
-19.81730533333317
 30
0.0
 10
6.767392000000041
 20
-19.73081099999984
 30
0.0
 10
6.757229000000033
 20
-19.64376066666649
 30
0.0
 10
6.747066000000022
 20
-19.55671033333313
 30
0.0
 10
6.726739995517621
 20
-19.38260962827296
 30
0.0
 10
6.716576333333324
 20
-19.29555933333314
 30
0.0
 10
6.70641299999998
 20
-19.20850899999982
 30
0.0
 10
6.697335666666658
 20
-19.12136033333315
 30
0.0
 10
6.688258333333336
 20
-19.03421166666648
 30
0.0
 10
6.679181000000013
 20
-18.94706299999981
 30
0.0
 10
6.673596000000026
 20
-18.85959966666647
 30
0.0
 10
6.668011000000039
 20
-18.77213633333314
 30
0.0
 10
6.656840977447709
 20
-18.59720931348755
 30
0.0
 10
6.651255333333318
 20
-18.50974566666646
 30
0.0
 10
6.645669999999952
 20
-18.42228199999979
 30
0.0
 10
6.640981999999977
 20
-18.33478166666647
 30
0.0
 10
6.636294000000004
 20
-18.24728133333316
 30
0.0
 10
6.631606000000031
 20
-18.15978099999984
 30
0.0
 10
6.630005333333362
 20
-18.07215366666649
 30
0.0
 10
6.628404666666692
 20
-17.98452633333314
 30
0.0
 10
6.625203339420237
 20
-17.80927199988862
 30
0.0
 10
6.623602666666689
 20
-17.72164499999983
 30
0.0
 10
6.620401530935575
 20
-17.54640181754859
 30
0.0
 10
6.620232666666692
 20
-17.45876533333315
 30
0.0
 10
6.619348000000027
 20
-17.3711389999998
 30
0.0
 10
6.621105000000003
 20
-17.28351499999981
 30
0.0
 10
6.622861999999977
 20
-17.19589099999983
 30
0.0
 10
6.626376006681102
 20
-17.02064266680047
 30
0.0
 10
6.628133000000003
 20
-16.93301833333317
 30
0.0
 10
6.631646858188325
 20
-16.75777673903883
 30
0.0
 10
6.634465999999997
 20
-16.67018399999982
 30
0.0
 10
6.636753999999982
 20
-16.58257899999981
 30
0.0
 10
6.641228999999991
 20
-16.49505166666647
 30
0.0
 10
6.645703999999999
 20
-16.40752433333312
 30
0.0
 10
6.654654017866955
 20
-16.23246931720373
 30
0.0
 10
6.659129666666651
 20
-16.14494166666647
 30
0.0
 10
6.668080055028182
 20
-15.96989177636841
 30
0.0
 10
6.673397666666651
 20
-15.88241466666645
 30
0.0
 10
6.678293999999991
 20
-15.79491499999977
 30
0.0
 10
6.685275333333325
 20
-15.70755166666646
 30
0.0
 10
6.692256666666659
 20
-15.62018833333314
 30
0.0
 10
6.706219306865194
 20
-15.4454619978847
 30
0.0
 10
6.713200666666649
 20
-15.35809899999979
 30
0.0
 10
6.727163357686478
 20
-15.18337269524906
 30
0.0
 10
6.73414399999998
 20
-15.09600933333309
 30
0.0
 10
6.741124999999982
 20
-15.00864599999976
 30
0.0
 10
6.749873333333319
 20
-14.92145033333311
 30
0.0
 10
6.758621666666659
 20
-14.83425466666646
 30
0.0
 10
6.767369999999997
 20
-14.74705899999981
 30
0.0
 10
6.776946333333325
 20
-14.65994233333314
 30
0.0
 10
6.786522666666653
 20
-14.57282566666648
 30
0.0
 10
6.805675369537629
 20
-14.39859200397957
 30
0.0
 10
6.815251666666666
 20
-14.3114749999998
 30
0.0
 10
6.834403772694028
 20
-14.13724610019985
 30
0.0
 10
6.844953333333359
 20
-14.05024399999982
 30
0.0
 10
6.855016000000034
 20
-13.96318699999983
 30
0.0
 10
6.866927000000025
 20
-13.87635833333316
 30
0.0
 10
6.878838000000019
 20
-13.78952966666649
 30
0.0
 10
6.902659948961812
 20
-13.61587270539075
 30
0.0
 10
6.914570333333326
 20
-13.52904433333314
 30
0.0
 10
6.938391717703617
 20
-13.3553872946087
 30
0.0
 10
6.950302999999995
 20
-13.26855866666648
 30
0.0
 10
6.962214000000002
 20
-13.18172999999982
 30
0.0
 10
6.976240000000007
 20
-13.09522866666648
 30
0.0
 10
6.990266000000013
 20
-13.00872733333313
 30
0.0
 10
7.004292000000018
 20
-12.92222599999979
 30
0.0
 10
7.019169333333341
 20
-12.8358559999998
 30
0.0
 10
7.034046666666664
 20
-12.74948599999982
 30
0.0
 10
7.063801267965662
 20
-12.57674637949013
 30
0.0
 10
7.078677999999982
 20
-12.49037666666648
 30
0.0
 10
7.108432009604902
 20
-12.31763727757094
 30
0.0
 10
7.12330966666664
 20
-12.23126766666645
 30
0.0
 10
7.153064379490963
 20
-12.05852806536694
 30
0.0
 10
7.167940999999979
 20
-11.97215799999979
 30
0.0
 10
7.1976949538435
 20
-11.79941826796617
 30
0.0
 10
7.212572666666635
 20
-11.71304866666646
 30
0.0
 10
7.242327323728157
 20
-11.54030938909527
 30
0.0
 10
7.257203999999967
 20
-11.45393966666644
 30
0.0
 10
7.272080999999971
 20
-11.36756999999977
 30
0.0
 10
7.289717666666651
 20
-11.28173399999978
 30
0.0
 10
7.307354333333332
 20
-11.19589799999979
 30
0.0
 10
7.324991000000014
 20
-11.1100619999998
 30
0.0
 10
7.343395999999998
 20
-11.02437466666647
 30
0.0
 10
7.361800999999986
 20
-10.93868733333314
 30
0.0
 10
7.398611068439944
 20
-10.7673123480335
 30
0.0
 10
7.417015999999983
 20
-10.68162466666646
 30
0.0
 10
7.453825931560265
 20
-10.51024965196615
 30
0.0
 10
7.472230999999965
 20
-10.42456233333313
 30
0.0
 10
7.509040999999943
 20
-10.25318766666645
 30
0.0
 10
7.527445999999983
 20
-10.16750033333312
 30
0.0
 10
7.564256000000007
 20
-9.996125666666455
 30
0.0
 10
7.58266099999999
 20
-9.910438333333122
 30
0.0
 10
7.619470999999979
 20
-9.739063666666478
 30
0.0
 10
7.637876000000009
 20
-9.65337633333317
 30
0.0
 10
7.656281000000021
 20
-9.56768899999986
 30
0.0
 10
7.677403333333353
 20
-9.482635999999843
 30
0.0
 10
7.698525666666685
 20
-9.397582999999827
 30
0.0
 10
7.740771587850355
 20
-9.227471948453971
 30
0.0
 10
7.762540000000015
 20
-9.142575333333127
 30
0.0
 10
7.805431920912857
 20
-8.97262098004028
 30
0.0
 10
7.826878000000008
 20
-8.887643999999804
 30
0.0
 10
7.86977005912804
 20
-8.717689765712628
 30
0.0
 10
7.891215333333363
 20
-8.632712333333151
 30
0.0
 10
7.934106686625762
 20
-8.462757587579823
 30
0.0
 10
7.955553000000008
 20
-8.377780333333115
 30
0.0
 10
7.998444999999966
 20
-8.207825666666448
 30
0.0
 10
8.019890999999966
 20
-8.122848333333138
 30
0.0
 10
8.06278299999995
 20
-7.952893666666487
 30
0.0
 10
8.084228999999988
 20
-7.867916333333159
 30
0.0
 10
8.105675000000005
 20
-7.782938999999826
 30
0.0
  0
SPLINE
  5
27D
330
1F
100
AcDbEntity
  8
1
  6
Continuous
 62
     4
370
    50
100
AcDbSpline
210
0.0
220
0.0
230
1.0
 70
     8
 71
     3
 72
    93
 73
    89
 74
     0
 42
0.000000001
 43
0.0000000001
 40
0.0
 40
0.0
 40
0.0
 40
0.0
 40
0.0256389922588338
 40
0.0256389922588338
 40
0.0256389922588338
 40
0.0512802909781293
 40
0.0512802909781293
 40
0.0512802909781293
 40
0.0769190780464988
 40
0.0769190780464988
 40
0.0769190780464988
 40
0.1025579872530653
 40
0.1025579872530653
 40
0.1025579872530653
 40
0.1281992830578875
 40
0.1281992830578875
 40
0.1538405839813364
 40
0.1538405839813364
 40
0.1794806691625094
 40
0.1794806691625094
 40
0.1794806691625094
 40
0.2051219720202846
 40
0.2051219720202846
 40
0.2307632748780586
 40
0.2307632748780586
 40
0.2564043229568988
 40
0.2564043229568988
 40
0.2564043229568988
 40
0.2820456173322251
 40
0.2820456173322251
 40
0.3076869117075516
 40
0.3076869117075516
 40
0.3333282450973883
 40
0.3333282450973883
 40
0.358968767212372
 40
0.358968767212372
 40
0.3846100535744961
 40
0.3846100535744961
 40
0.4102513796546906
 40
0.4102513796546906
 40
0.4358926660168175
 40
0.4358926660168175
 40
0.4358926660168175
 40
0.4615336117482271
 40
0.4615336117482271
 40
0.4871748988014634
 40
0.4871748988014634
 40
0.51281622618373
 40
0.51281622618373
 40
0.5384572942783314
 40
0.5384572942783314
 40
0.5384572942783314
 40
0.5640985900524915
 40
0.5640985900524915
 40
0.5897398858266503
 40
0.5897398858266503
 40
0.6153811800403498
 40
0.6153811800403498
 40
0.6410218918856774
 40
0.6410218918856774
 40
0.6666631981218074
 40
0.6666631981218074
 40
0.6923045033880022
 40
0.6923045033880022
 40
0.7179458096241299
 40
0.7179458096241299
 40
0.7435871158602624
 40
0.7435871158602624
 40
0.7692284211264553
 40
0.7692284211264553
 40
0.7948697273625832
 40
0.7948697273625832
 40
0.820510695934335
 40
0.820510695934335
 40
0.820510695934335
 40
0.8461519967855781
 40
0.8461519967855781
 40
0.8717932972021329
 40
0.8717932972021329
 40
0.8974345976186843
 40
0.8974345976186843
 40
0.9230758980352366
 40
0.9230758980352366
 40
0.9487171318568965
 40
0.9487171318568965
 40
0.9743584686579607
 40
0.9743584686579607
 40
1.0
 40
1.0
 40
1.0
 40
1.0
 10
17.43794400000001
 20
23.76016400000017
 30
0.0
 10
17.39563299999999
 20
23.5632813333335
 30
0.0
 10
17.35332199999998
 20
23.36639866666684
 30
0.0
 10
17.31101099999996
 20
23.16951600000018
 30
0.0
 10
17.27356999999996
 20
22.97163100000018
 30
0.0
 10
17.23612899999996
 20
22.77374600000019
 30
0.0
 10
17.19868799999996
 20
22.5758610000002
 30
0.0
 10
17.16558866666664
 20
22.37722366666688
 30
0.0
 10
17.13248933333331
 20
22.17858633333355
 30
0.0
 10
17.09938999999998
 20
21.97994900000023
 30
0.0
 10
17.06939466666664
 20
21.78081833333357
 30
0.0
 10
17.03939933333331
 20
21.58168766666691
 30
0.0
 10
17.00940399999997
 20
21.38255700000025
 30
0.0
 10
16.98511366666664
 20
21.18263133333356
 30
0.0
 10
16.96082333333331
 20
20.98270566666686
 30
0.0
 10
16.91224266181769
 20
20.58285429342344
 30
0.0
 10
16.88795166666665
 20
20.38292866666688
 30
0.0
 10
16.83937148503739
 20
19.98308681249715
 30
0.0
 10
16.8166803333333
 20
19.78297966666689
 30
0.0
 10
16.79318999999995
 20
19.58296800000022
 30
0.0
 10
16.77453433333329
 20
19.38243800000021
 30
0.0
 10
16.75587866666664
 20
19.18190800000019
 30
0.0
 10
16.71856733333332
 20
18.78084800000018
 30
0.0
 10
16.69991166666664
 20
18.58031800000019
 30
0.0
 10
16.66260051870106
 20
18.17925999252062
 30
0.0
 10
16.64452266666662
 20
17.97867866666686
 30
0.0
 10
16.62615599999994
 20
17.77812400000019
 30
0.0
 10
16.61051199999995
 20
17.57733666666685
 30
0.0
 10
16.59486799999996
 20
17.37654933333351
 30
0.0
 10
16.56357999999997
 20
16.97497466666684
 30
0.0
 10
16.54793599999999
 20
16.7741873333335
 30
0.0
 10
16.5166479761969
 20
16.37261236115886
 30
0.0
 10
16.50100466666666
 20
16.17182466666686
 30
0.0
 10
16.46971782828858
 20
15.77025568612273
 30
0.0
 10
16.45685166666665
 20
15.56926766666685
 30
0.0
 10
16.42834190845554
 20
15.16749234572014
 30
0.0
 10
16.41754899999998
 20
14.96637100000019
 30
0.0
 10
16.39250098060044
 20
14.56435868864413
 30
0.0
 10
16.37997766666664
 20
14.36335233333352
 30
0.0
 10
16.35493035273229
 20
13.96133997802293
 30
0.0
 10
16.34240599999997
 20
13.76033400000017
 30
0.0
 10
16.32988199999997
 20
13.55932800000016
 30
0.0
 10
16.31954533333331
 20
13.3582003333335
 30
0.0
 10
16.30920866666664
 20
13.15707266666684
 30
0.0
 10
16.28853519573581
 20
12.75481465600393
 30
0.0
 10
16.27931799999996
 20
12.55362833333351
 30
0.0
 10
16.25976398462253
 20
12.15131135028177
 30
0.0
 10
16.24998766666666
 20
11.95015266666685
 30
0.0
 10
16.23043443219597
 20
11.54783736747005
 30
0.0
 10
16.22135766666664
 20
11.34664733333353
 30
0.0
 10
16.21193099999996
 20
11.1454740000002
 30
0.0
 10
16.20452566666665
 20
10.94421433333352
 30
0.0
 10
16.19712033333333
 20
10.74295466666685
 30
0.0
 10
16.18230966666671
 20
10.3404353333335
 30
0.0
 10
16.17490433333333
 20
10.13917566666684
 30
0.0
 10
16.16009366711731
 20
9.73665634558162
 30
0.0
 10
16.15268899999997
 20
9.535396666666836
 30
0.0
 10
16.13787916818326
 20
9.132881904368938
 30
0.0
 10
16.13326999999997
 20
8.931533666666875
 30
0.0
 10
16.12125586074855
 20
8.528925666853963
 30
0.0
 10
16.118057
 20
8.327545333333546
 30
0.0
 10
16.10885100017415
 20
7.924858674283089
 30
0.0
 10
16.10424866666666
 20
7.723515333333523
 30
0.0
 10
16.09504333315919
 20
7.320828659050633
 30
0.0
 10
16.09043999999999
 20
7.119485333333536
 30
0.0
 10
16.08123400000001
 20
6.716798666666855
 30
0.0
 10
16.076631
 20
6.515455333333496
 30
0.0
 10
16.06742500017412
 20
6.112768674283042
 30
0.0
 10
16.06282266666664
 20
5.911425333333493
 30
0.0
 10
16.05361733315918
 20
5.508738659050622
 30
0.0
 10
16.04901399999997
 20
5.307395333333527
 30
0.0
 10
16.03980806061582
 20
4.904711318110236
 30
0.0
 10
16.03622233333333
 20
4.703348666666858
 30
0.0
 10
16.032128
 20
4.501997000000186
 30
0.0
 10
16.03006499999999
 20
4.300611666666867
 30
0.0
 10
16.02800199999997
 20
4.099226333333546
 30
0.0
 10
16.02387600003492
 20
3.696455670080926
 30
0.0
 10
16.02181366666663
 20
3.49507033333353
 30
0.0
 10
16.01768833333329
 20
3.092299666666861
 30
0.0
 10
16.01562566666665
 20
2.890914333333541
 30
0.0
 10
16.01150033333333
 20
2.48814366666689
 30
0.0
 10
16.00943766666666
 20
2.286758333333561
 30
0.0
 10
16.00531233869042
 20
1.883988189699448
 30
0.0
 10
16.00362966666667
 20
1.682599666666874
 30
0.0
 10
15.99988432581241
 20
1.279825524531604
 30
0.0
 10
16.00084566666668
 20
1.078421666666846
 30
0.0
 10
15.9999343298762
 20
0.6756288053433726
 30
0.0
 10
16.00012533333334
 20
0.4742306666668317
 30
0.0
 10
15.999993
 20
0.272833000000162
 30
0.0
  0
SPLINE
  5
27E
330
1F
100
AcDbEntity
  8
1
  6
Continuous
 62
     4
370
    50
100
AcDbSpline
210
0.0
220
0.0
230
1.0
 70
     8
 71
     3
 72
    12
 73
     8
 74
     0
 42
0.000000001
 43
0.0000000001
 40
0.0
 40
0.0
 40
0.0
 40
0.0
 40
0.3121880360819203
 40
0.3121880360819203
 40
0.656093879961915
 40
0.656093879961915
 40
1.0
 40
1.0
 40
1.0
 40
1.0
 10
20.02082362602616
 20
24.84689633843661
 30
0.0
 10
20.08914308401743
 20
25.10663022562447
 30
0.0
 10
20.15746254200871
 20
25.36636411281232
 30
0.0
 10
20.30104260623202
 20
25.91222043690911
 30
0.0
 10
20.37630399999999
 20
26.19834266666686
 30
0.0
 10
20.52682606043495
 20
26.77058756309118
 30
0.0
 10
20.60208633333329
 20
27.05671033333353
 30
0.0
 10
20.67734699999994
 20
27.34283300000019
 30
0.0
  0
SPLINE
  5
27F
330
1F
100
AcDbEntity
  8
1
  6
Continuous
 62
     4
370
    50
100
AcDbSpline
210
0.0
220
0.0
230
1.0
 70
    24
 71
     3
 72
    12
 73
     8
 74
     0
 42
0.000000001
 43
0.0000000001
 40
0.0
 40
0.0
 40
0.0
 40
0.0
 40
0.3333333333333265
 40
0.3333333333333265
 40
0.6666666666666645
 40
0.6666666666666645
 40
1.0
 40
1.0
 40
1.0
 40
1.0
 10
29.03062499999993
 20
27.34283300000019
 30
0.0
 10
28.10248299999995
 20
27.34283300000019
 30
0.0
 10
27.17434099999997
 20
27.3428330000002
 30
0.0
 10
25.31805699999998
 20
27.34283300000022
 30
0.0
 10
24.38991499999996
 20
27.34283300000019
 30
0.0
 10
22.53363099999995
 20
27.34283300000019
 30
0.0
 10
21.60548899999995
 20
27.34283300000019
 30
0.0
 10
20.67734699999994
 20
27.34283300000019
 30
0.0
  0
SPLINE
  5
280
330
1F
100
AcDbEntity
  8
1
  6
Continuous
 62
     4
370
    50
100
AcDbSpline
210
0.0
220
0.0
230
1.0
 70
     8
 71
     3
 72
    90
 73
    86
 74
     0
 42
0.000000001
 43
0.0000000001
 40
0.0
 40
0.0
 40
0.0
 40
0.0
 40
0.0270272300197455
 40
0.0270272300197455
 40
0.0540529458175027
 40
0.0540529458175027
 40
0.0540529458175027
 40
0.0810801806570099
 40
0.0810801806570099
 40
0.1081056500511434
 40
0.1081056500511434
 40
0.1081056500511434
 40
0.1351328966014437
 40
0.1351328966014437
 40
0.1621588039087126
 40
0.1621588039087126
 40
0.1621588039087126
 40
0.1891860436478101
 40
0.1891860436478101
 40
0.2162132833869091
 40
0.2162132833869091
 40
0.2162132833869091
 40
0.2432394644920236
 40
0.2432394644920236
 40
0.2702667200730692
 40
0.2702667200730692
 40
0.2972939371173042
 40
0.2972939371173042
 40
0.2972939371173042
 40
0.324321067665516
 40
0.324321067665516
 40
0.3513482847467023
 40
0.3513482847467023
 40
0.3783750753852743
 40
0.3783750753852743
 40
0.3783750753852743
 40
0.4054022996282257
 40
0.4054022996282257
 40
0.4324295661607814
 40
0.4324295661607814
 40
0.4324295661607814
 40
0.4594561575983632
 40
0.4594561575983632
 40
0.486483397423406
 40
0.486483397423406
 40
0.5135106391053184
 40
0.5135106391053184
 40
0.5405378789303622
 40
0.5405378789303622
 40
0.5675651187554056
 40
0.5675651187554056
 40
0.594591861908983
 40
0.594591861908983
 40
0.594591861908983
 40
0.621619128846377
 40
0.621619128846377
 40
0.6486463521590174
 40
0.6486463521590174
 40
0.6756735767550197
 40
0.6756735767550197
 40
0.7027008424090478
 40
0.7027008424090478
 40
0.7297277405089742
 40
0.7297277405089742
 40
0.7297277405089742
 40
0.7567549684644042
 40
0.7567549684644042
 40
0.7837822395127564
 40
0.7837822395127564
 40
0.8108094682067152
 40
0.8108094682067152
 40
0.8378366969006763
 40
0.8378366969006763
 40
0.8648637770485607
 40
0.8648637770485607
 40
0.8648637770485607
 40
0.8918910046001146
 40
0.8918910046001146
 40
0.9189182747485033
 40
0.9189182747485033
 40
0.9459455023000573
 40
0.9459455023000573
 40
0.972972772448447
 40
0.972972772448447
 40
1.0
 40
1.0
 40
1.0
 40
1.0
 10
17.44459
 20
-23.2584759999998
 30
0.0
 10
17.40366366666667
 20
-23.04977633333312
 30
0.0
 10
17.36273733333333
 20
-22.84107666666644
 30
0.0
 10
17.28088695959694
 20
-22.42368902589736
 30
0.0
 10
17.24139033333337
 20
-22.21472366666648
 30
0.0
 10
17.20118000000005
 20
-22.00589699999984
 30
0.0
 10
17.16803900000003
 20
-21.79582033333314
 30
0.0
 10
17.13489800000002
 20
-21.58574366666644
 30
0.0
 10
17.06861816480247
 20
-21.16560405574606
 30
0.0
 10
17.03776433333335
 20
-20.95518699999976
 30
0.0
 10
17.00576800000002
 20
-20.74494699999977
 30
0.0
 10
16.97881266666668
 20
-20.53398733333311
 30
0.0
 10
16.95185733333334
 20
-20.32302766666646
 30
0.0
 10
16.89794800234628
 20
-19.90111878671999
 30
0.0
 10
16.87359533333334
 20
-19.68984533333314
 30
0.0
 10
16.84794200000002
 20
-19.4787339999998
 30
0.0
 10
16.82566366666669
 20
-19.26722933333314
 30
0.0
 10
16.80338533333335
 20
-19.05572466666647
 30
0.0
 10
16.75882866666669
 20
-18.63271533333314
 30
0.0
 10
16.73655033333331
 20
-18.42121066666648
 30
0.0
 10
16.71427199999996
 20
-18.20970599999981
 30
0.0
 10
16.69437933333332
 20
-17.99797199999981
 30
0.0
 10
16.67448666666667
 20
-17.7862379999998
 30
0.0
 10
16.63470054246355
 20
-17.3627615821221
 30
0.0
 10
16.61779200000001
 20
-17.15074933333311
 30
0.0
 10
16.58099002623706
 20
-16.72699496877171
 30
0.0
 10
16.56258833333335
 20
-16.51511799999978
 30
0.0
 10
16.54418700000002
 20
-16.30324099999979
 30
0.0
 10
16.52894500000001
 20
-16.09111399999979
 30
0.0
 10
16.513703
 20
-15.8789869999998
 30
0.0
 10
16.48321895119955
 20
-15.45473232083115
 30
0.0
 10
16.46829366666665
 20
-15.24258199999978
 30
0.0
 10
16.43812657132741
 20
-14.81830734718526
 30
0.0
 10
16.42463266666665
 20
-14.60606166666645
 30
0.0
 10
16.41034399999999
 20
-14.39387099999979
 30
0.0
 10
16.39801566666665
 20
-14.1815539999998
 30
0.0
 10
16.3856873333333
 20
-13.9692369999998
 30
0.0
 10
16.36103064737643
 20
-13.54460266778657
 30
0.0
 10
16.34870233333334
 20
-13.33228533333314
 30
0.0
 10
16.33637400000002
 20
-13.1199679999998
 30
0.0
 10
16.32592233333335
 20
-12.90755533333313
 30
0.0
 10
16.31547066666668
 20
-12.69514266666646
 30
0.0
 10
16.2945670825903
 20
-12.27031223739975
 30
0.0
 10
16.28637433333334
 20
-12.05778933333315
 30
0.0
 10
16.26772966602618
 20
-11.63284865206901
 30
0.0
 10
16.25840666666667
 20
-11.42037833333314
 30
0.0
 10
16.23976133397385
 20
-10.99543768126393
 30
0.0
 10
16.23043933333336
 20
-10.78296733333312
 30
0.0
 10
16.2117946666667
 20
-10.35802666666644
 30
0.0
 10
16.20247233333332
 20
-10.14555633333311
 30
0.0
 10
16.18382783798034
 20
-9.72061957116992
 30
0.0
 10
16.17620466666666
 20
-9.50808199999983
 30
0.0
 10
16.167732
 20
-9.295579999999855
 30
0.0
 10
16.16128866666666
 20
-9.083002666666493
 30
0.0
 10
16.15484533333333
 20
-8.870425333333133
 30
0.0
 10
16.14195867706685
 20
-8.445271009787815
 30
0.0
 10
16.13551599999999
 20
-8.23269399999979
 30
0.0
 10
16.12262999969405
 20
-7.807539989905795
 30
0.0
 10
16.11618633333332
 20
-7.594962999999777
 30
0.0
 10
16.10329965687835
 20
-7.169808677066413
 30
0.0
 10
16.09685700000002
 20
-6.957231333333177
 30
0.0
 10
16.08397108762088
 20
-6.532079557586887
 30
0.0
 10
16.07859933333337
 20
-6.319473999999834
 30
0.0
 10
16.07269200000003
 20
-6.106883999999808
 30
0.0
 10
16.06898433333335
 20
-5.894241666666459
 30
0.0
 10
16.06527666666667
 20
-5.68159933333311
 30
0.0
 10
16.05786132742171
 20
-5.256314327623887
 30
0.0
 10
16.05415299999999
 20
-5.043671666666474
 30
0.0
 10
16.04673700581077
 20
-4.618386666565173
 30
0.0
 10
16.04302900000003
 20
-4.405744333333169
 30
0.0
 10
16.03561300000009
 20
-3.980459666666488
 30
0.0
 10
16.03190500000003
 20
-3.76781733333314
 30
0.0
 10
16.02448902037978
 20
-3.342533835383545
 30
0.0
 10
16.02127566666668
 20
-3.129884333333145
 30
0.0
 10
16.01781500000001
 20
-2.917238999999823
 30
0.0
 10
16.01662700000001
 20
-2.70456766666649
 30
0.0
 10
16.015439
 20
-2.491896333333159
 30
0.0
 10
16.01306299812763
 20
-2.066553331481334
 30
0.0
 10
16.01187433333333
 20
-1.853881666666495
 30
0.0
 10
16.00949766853955
 20
-1.428538668518322
 30
0.0
 10
16.00830999999998
 20
-1.215867333333165
 30
0.0
 10
16.00593399812761
 20
-0.7905243314813303
 30
0.0
 10
16.00474533333331
 20
-0.5778526666664826
 30
0.0
 10
16.00236866853952
 20
-0.152509668518309
 30
0.0
 10
16.00118099999999
 20
0.0601616666668387
 30
0.0
 10
15.999993
 20
0.272833000000162
 30
0.0
  0
SPLINE
  5
281
330
1F
100
AcDbEntity
  8
1
  6
Continuous
 62
     4
370
    50
100
AcDbSpline
210
0.0
220
0.0
230
1.0
 70
     8
 71
     3
 72
    12
 73
     8
 74
     0
 42
0.000000001
 43
0.0000000001
 40
0.0
 40
0.0
 40
0.0
 40
0.0
 40
0.2996887502097633
 40
0.2996887502097633
 40
0.6498443543554016
 40
0.6498443543554016
 40
1.0
 40
1.0
 40
1.0
 40
1.0
 10
20.0782713578333
 20
-24.72716699999975
 30
0.0
 10
20.23320490522221
 20
-25.31788766666641
 30
0.0
 10
20.38813845261112
 20
-25.90860833333307
 30
0.0
 10
20.72409597854582
 20
-27.1895255848672
 30
0.0
 10
20.90511933333336
 20
-27.87972233333313
 30
0.0
 10
21.26716668812085
 20
-29.26011574846572
 30
0.0
 10
21.44819100000002
 20
-29.95031233333313
 30
0.0
 10
21.62921500000002
 20
-30.64050899999978
 30
0.0
  0
SPLINE
  5
282
330
1F
100
AcDbEntity
  8
1
  6
Continuous
 62
     4
370
    50
100
AcDbSpline
210
0.0
220
0.0
230
1.0
 70
    24
 71
     3
 72
    12
 73
     8
 74
     0
 42
0.000000001
 43
0.0000000001
 40
0.0
 40
0.0
 40
0.0
 40
0.0
 40
0.3333334473850784
 40
0.3333334473850784
 40
0.6666665526149071
 40
0.6666665526149071
 40
1.0
 40
1.0
 40
1.0
 40
1.0
 10
11.46132499999996
 20
24.1119630000002
 30
0.0
 10
11.13658599999996
 20
24.11196300000018
 30
0.0
 10
10.81184699999996
 20
24.11196300000016
 30
0.0
 10
10.16236933333331
 20
24.11196300000012
 30
0.0
 10
9.837630666666657
 20
24.11196300000014
 30
0.0
 10
9.188152999999994
 20
24.11196300000014
 30
0.0
 10
8.863413999999983
 20
24.11196300000016
 30
0.0
 10
8.53867499999997
 20
24.11196300000018
 30
0.0
  0
SPLINE
  5
283
330
1F
100
AcDbEntity
  8
1
  6
Continuous
 62
     4
370
    50
100
AcDbSpline
210
0.0
220
0.0
230
1.0
 70
     8
 71
     3
 72
    60
 73
    56
 74
     0
 42
0.000000001
 43
0.0000000001
 40
0.0
 40
0.0
 40
0.0
 40
0.0
 40
0.0489219024145682
 40
0.0489219024145682
 40
0.0489219024145682
 40
0.0979212229898079
 40
0.0979212229898079
 40
0.0979212229898079
 40
0.1469887758415047
 40
0.1469887758415047
 40
0.1469887758415047
 40
0.1957805714231279
 40
0.1957805714231279
 40
0.1957805714231279
 40
0.2448481122770879
 40
0.2448481122770879
 40
0.2938838316846319
 40
0.2938838316846319
 40
0.2938838316846319
 40
0.3429512381686077
 40
0.3429512381686077
 40
0.3920188100079054
 40
0.3920188100079054
 40
0.3920188100079054
 40
0.4409992508218027
 40
0.4409992508218027
 40
0.4409992508218027
 40
0.4900668445767513
 40
0.4900668445767513
 40
0.5391342659344491
 40
0.5391342659344491
 40
0.5881991275866981
 40
0.5881991275866981
 40
0.5881991275866981
 40
0.6372665069511382
 40
0.6372665069511382
 40
0.6863338863156054
 40
0.6863338863156054
 40
0.7354012656800469
 40
0.7354012656800469
 40
0.7354012656800469
 40
0.78443693790791
 40
0.78443693790791
 40
0.78443693790791
 40
0.8335043253188155
 40
0.8335043253188155
 40
0.8825718025161415
 40
0.8825718025161415
 40
0.9316391899270365
 40
0.9316391899270365
 40
0.9316391899270365
 40
0.9806968904640957
 40
0.9806968904640957
 40
0.9806968904640957
 40
1.0
 40
1.0
 40
1.0
 40
1.0
 10
17.43794400000007
 20
-23.2144849999998
 30
0.0
 10
17.45036566666673
 20
-23.24833733333314
 30
0.0
 10
17.4627873333334
 20
-23.28218966666647
 30
0.0
 10
17.47520900000006
 20
-23.31604199999981
 30
0.0
 10
17.49078300000005
 20
-23.34862799999979
 30
0.0
 10
17.50635700000005
 20
-23.38121399999978
 30
0.0
 10
17.52193100000005
 20
-23.41379999999976
 30
0.0
 10
17.54332600000001
 20
-23.44295966666644
 30
0.0
 10
17.56472099999997
 20
-23.47211933333312
 30
0.0
 10
17.58611599999994
 20
-23.50127899999979
 30
0.0
 10
17.61129966666662
 20
-23.52695299999978
 30
0.0
 10
17.6364833333333
 20
-23.55262699999977
 30
0.0
 10
17.66166699999998
 20
-23.57830099999977
 30
0.0
 10
17.68894366666665
 20
-23.60204999999976
 30
0.0
 10
17.71622033333332
 20
-23.62579899999976
 30
0.0
 10
17.77075597711117
 20
-23.67328159821851
 30
0.0
 10
17.79834566666669
 20
-23.69663266666646
 30
0.0
 10
17.82577000000003
 20
-23.72017499999981
 30
0.0
 10
17.85708600000003
 20
-23.73826733333315
 30
0.0
 10
17.88840200000002
 20
-23.75635966666649
 30
0.0
 10
17.95103410553376
 20
-23.79254439430366
 30
0.0
 10
17.98235066666675
 20
-23.8106359999998
 30
0.0
 10
18.01366700000011
 20
-23.82872799999979
 30
0.0
 10
18.04651333333339
 20
-23.84371166666645
 30
0.0
 10
18.07935966666668
 20
-23.85869533333311
 30
0.0
 10
18.11220599999996
 20
-23.87367899999976
 30
0.0
 10
18.14564166666666
 20
-23.88746633333311
 30
0.0
 10
18.17907733333336
 20
-23.90125366666646
 30
0.0
 10
18.24594854919173
 20
-23.92882828489186
 30
0.0
 10
18.27938433333335
 20
-23.9426149999998
 30
0.0
 10
18.34625392242461
 20
-23.97018828077189
 30
0.0
 10
18.37971333333333
 20
-23.98391266666646
 30
0.0
 10
18.41316
 20
-23.99766799999978
 30
0.0
 10
18.44798066666667
 20
-24.00744266666644
 30
0.0
 10
18.48280133333333
 20
-24.01721733333309
 30
0.0
 10
18.55244266666667
 20
-24.03676666666642
 30
0.0
 10
18.58726333333335
 20
-24.04654133333309
 30
0.0
 10
18.65690466666669
 20
-24.06609066666643
 30
0.0
 10
18.69172533333335
 20
-24.07586533333309
 30
0.0
 10
18.72654600000001
 20
-24.08563999999976
 30
0.0
 10
18.76161433333334
 20
-24.09438899999975
 30
0.0
 10
18.79668266666667
 20
-24.10313799999975
 30
0.0
 10
18.831751
 20
-24.11188699999974
 30
0.0
 10
18.86719766666666
 20
-24.1190673333331
 30
0.0
 10
18.90264433333332
 20
-24.12624766666645
 30
0.0
 10
18.97353773152905
 20
-24.14060834647217
 30
0.0
 10
19.00898433333337
 20
-24.14778933333313
 30
0.0
 10
19.07987760180445
 20
-24.16215065352686
 30
0.0
 10
19.11532433333337
 20
-24.16933066666645
 30
0.0
 10
19.15077100000002
 20
-24.17651099999978
 30
0.0
 10
19.18645033333335
 20
-24.18238399999978
 30
0.0
 10
19.22212966666668
 20
-24.18825699999977
 30
0.0
 10
19.25780900000001
 20
-24.19412999999976
 30
0.0
 10
19.27187266666667
 20
-24.19628583354289
 30
0.0
 10
19.28593633333332
 20
-24.19844166708603
 30
0.0
 10
19.29999999999998
 20
-24.20059750062916
 30
0.0
  0
SPLINE
  5
284
330
1F
100
AcDbEntity
  8
1
  6
Continuous
 62
     4
370
    50
100
AcDbSpline
210
0.0
220
0.0
230
1.0
 70
     8
 71
     3
 72
    73
 73
    69
 74
     0
 42
0.000000001
 43
0.0000000001
 40
0.0
 40
0.0
 40
0.0
 40
0.0
 40
0.0398520186071467
 40
0.0398520186071467
 40
0.0398520186071467
 40
0.0796678055650612
 40
0.0796678055650612
 40
0.0796678055650612
 40
0.1194005979189274
 40
0.1194005979189274
 40
0.1194005979189274
 40
0.1592524798911026
 40
0.1592524798911026
 40
0.1991046103865858
 40
0.1991046103865858
 40
0.1991046103865858
 40
0.2388444458878522
 40
0.2388444458878522
 40
0.2388444458878522
 40
0.2786965663713615
 40
0.2786965663713615
 40
0.2786965663713615
 40
0.3184654407984268
 40
0.3184654407984268
 40
0.3184654407984268
 40
0.3583177383412394
 40
0.3583177383412394
 40
0.3583177383412394
 40
0.3981358195331646
 40
0.3981358195331646
 40
0.3981358195331646
 40
0.4379877159419863
 40
0.4379877159419863
 40
0.4778399343008842
 40
0.4778399343008842
 40
0.4778399343008842
 40
0.5176649613524719
 40
0.5176649613524719
 40
0.5176649613524719
 40
0.5575168047397322
 40
0.5575168047397322
 40
0.5973690627080055
 40
0.5973690627080055
 40
0.5973690627080055
 40
0.6372015976487614
 40
0.6372015976487614
 40
0.6372015976487614
 40
0.6770537564178366
 40
0.6770537564178366
 40
0.7169058558655897
 40
0.7169058558655897
 40
0.7567579553133267
 40
0.7567579553133267
 40
0.7966097791453557
 40
0.7966097791453557
 40
0.7966097791453557
 40
0.8364546991770101
 40
0.8364546991770101
 40
0.8364546991770101
 40
0.8763070037587978
 40
0.8763070037587978
 40
0.9161590139478123
 40
0.9161590139478123
 40
0.9560109811114409
 40
0.9560109811114409
 40
0.9958629913004569
 40
0.9958629913004569
 40
1.0
 40
1.0
 40
1.0
 40
1.0
 10
17.43794399999996
 20
23.76015100000018
 30
0.0
 10
17.44993999999996
 20
23.79731633333353
 30
0.0
 10
17.46193599999996
 20
23.83448166666687
 30
0.0
 10
17.47393199999996
 20
23.87164700000022
 30
0.0
 10
17.49464299999997
 20
23.90471433333353
 30
0.0
 10
17.51535399999997
 20
23.93778166666685
 30
0.0
 10
17.53606499999998
 20
23.97084900000018
 30
0.0
 10
17.5578363333333
 20
24.00313000000018
 30
0.0
 10
17.57960766666663
 20
24.03541100000017
 30
0.0
 10
17.60137899999995
 20
24.06769200000018
 30
0.0
 10
17.62991233333328
 20
24.09435666666684
 30
0.0
 10
17.65844566666662
 20
24.12102133333352
 30
0.0
 10
17.71551251127214
 20
24.17435083295239
 30
0.0
 10
17.74404633333328
 20
24.20101533333353
 30
0.0
 10
17.77257999999995
 20
24.22768000000019
 30
0.0
 10
17.80518499999996
 20
24.24897566666686
 30
0.0
 10
17.83778999999997
 20
24.27027133333353
 30
0.0
 10
17.87039499999997
 20
24.2915670000002
 30
0.0
 10
17.90376966666664
 20
24.31184766666687
 30
0.0
 10
17.9371443333333
 20
24.33212833333353
 30
0.0
 10
17.97051899999997
 20
24.3524090000002
 30
0.0
 10
18.00534499999996
 20
24.36990066666687
 30
0.0
 10
18.04017099999995
 20
24.38739233333354
 30
0.0
 10
18.07499699999994
 20
24.40488400000021
 30
0.0
 10
18.11075499999994
 20
24.4205860000002
 30
0.0
 10
18.14651299999995
 20
24.4362880000002
 30
0.0
 10
18.18227099999996
 20
24.4519900000002
 30
0.0
 10
18.21848666666664
 20
24.46651566666688
 30
0.0
 10
18.25470233333331
 20
24.48104133333355
 30
0.0
 10
18.29091799999998
 20
24.49556700000022
 30
0.0
 10
18.32788166666665
 20
24.50817033333355
 30
0.0
 10
18.36484533333331
 20
24.52077366666687
 30
0.0
 10
18.43877296528368
 20
24.54598043515162
 30
0.0
 10
18.47573699999997
 20
24.55858366666689
 30
0.0
 10
18.51270099999996
 20
24.57118700000024
 30
0.0
 10
18.5501623333333
 20
24.58213000000022
 30
0.0
 10
18.58762366666664
 20
24.59307300000019
 30
0.0
 10
18.62508499999998
 20
24.60401600000017
 30
0.0
 10
18.66289033333331
 20
24.61380933333352
 30
0.0
 10
18.70069566666665
 20
24.62360266666686
 30
0.0
 10
18.77630672662437
 20
24.64318943521418
 30
0.0
 10
18.81411233333329
 20
24.65298333333352
 30
0.0
 10
18.85191799999995
 20
24.66277700000018
 30
0.0
 10
18.89024333333329
 20
24.67018266666687
 30
0.0
 10
18.92856866666663
 20
24.67758833333356
 30
0.0
 10
18.96689399999997
 20
24.68499400000025
 30
0.0
 10
19.00534899999997
 20
24.69180500000023
 30
0.0
 10
19.04380399999997
 20
24.69861600000021
 30
0.0
 10
19.12071394275835
 20
24.71223798986176
 30
0.0
 10
19.15916899999998
 20
24.71904833333355
 30
0.0
 10
19.23607899999999
 20
24.7326696666669
 30
0.0
 10
19.27453399999999
 20
24.73948033333351
 30
0.0
 10
19.35144373404658
 20
24.75310161956448
 30
0.0
 10
19.3898983333333
 20
24.75991300000017
 30
0.0
 10
19.42835299999996
 20
24.76672400000018
 30
0.0
 10
19.46686266666662
 20
24.77317600000019
 30
0.0
 10
19.50537233333328
 20
24.77962800000019
 30
0.0
 10
19.54388199999994
 20
24.7860800000002
 30
0.0
 10
19.58262199999995
 20
24.79101966666688
 30
0.0
 10
19.62136199999995
 20
24.79595933333356
 30
0.0
 10
19.6988417138239
 20
24.80583863017713
 30
0.0
 10
19.7375813333333
 20
24.81077900000023
 30
0.0
 10
19.81506062484218
 20
24.82065899466686
 30
0.0
 10
19.85380033333328
 20
24.82559833333352
 30
0.0
 10
19.93127970849111
 20
24.83547767199982
 30
0.0
 10
19.97001933333329
 20
24.84041800000017
 30
0.0
 10
20.01278053711334
 20
24.84587081787006
 30
0.0
 10
20.01680208401743
 20
24.8463835589578
 30
0.0
 10
20.02082362602616
 20
24.84689633843661
 30
0.0
  0
SPLINE
  5
285
330
1F
100
AcDbEntity
  8
1
  6
Continuous
 62
     4
370
    50
100
AcDbSpline
210
0.0
220
0.0
230
1.0
 70
     8
 71
     3
 72
    72
 73
    68
 74
     0
 42
0.000000001
 43
0.0000000001
 40
0.0
 40
0.0
 40
0.0
 40
0.0
 40
0.0357157725825963
 40
0.0357157725825963
 40
0.0714315633204681
 40
0.0714315633204681
 40
0.1071473359030647
 40
0.1071473359030647
 40
0.1428631084856606
 40
0.1428631084856606
 40
0.1785788810682545
 40
0.1785788810682545
 40
0.2142945409167125
 40
0.2142945409167125
 40
0.2142945409167125
 40
0.2500081535361876
 40
0.2500081535361876
 40
0.2857239238277651
 40
0.2857239238277651
 40
0.3214396790084706
 40
0.3214396790084706
 40
0.3214396790084706
 40
0.3571438029690256
 40
0.3571438029690256
 40
0.3571438029690256
 40
0.3928596870905093
 40
0.3928596870905093
 40
0.4285754322777232
 40
0.4285754322777232
 40
0.464291177464933
 40
0.464291177464933
 40
0.464291177464933
 40
0.4999973107745437
 40
0.4999973107745437
 40
0.4999973107745437
 40
0.5357105371306919
 40
0.5357105371306919
 40
0.5357105371306919
 40
0.571426302095147
 40
0.571426302095147
 40
0.571426302095147
 40
0.607131795241388
 40
0.607131795241388
 40
0.607131795241388
 40
0.6428475928755268
 40
0.6428475928755268
 40
0.6785634034957344
 40
0.6785634034957344
 40
0.7142763457400357
 40
0.7142763457400357
 40
0.7142763457400357
 40
0.749992028082153
 40
0.749992028082153
 40
0.7857078240207637
 40
0.7857078240207637
 40
0.821423637355383
 40
0.821423637355383
 40
0.8571393023014403
 40
0.8571393023014403
 40
0.8928551156360565
 40
0.8928551156360565
 40
0.9285709289706688
 40
0.9285709289706688
 40
0.964284202485878
 40
0.964284202485878
 40
0.964284202485878
 40
1.0
 40
1.0
 40
1.0
 40
1.0
 10
17.65045599999998
 20
-11.88818999999984
 30
0.0
 10
17.662834
 20
-11.79895033333316
 30
0.0
 10
17.67521200000001
 20
-11.70971066666649
 30
0.0
 10
17.69996800629211
 20
-11.53123128797024
 30
0.0
 10
17.7123466666667
 20
-11.4419916666665
 30
0.0
 10
17.73710332704113
 20
-11.26351237869605
 30
0.0
 10
17.74948100000001
 20
-11.17427266666649
 30
0.0
 10
17.774237
 20
-10.99579333333313
 30
0.0
 10
17.78661499999998
 20
-10.90655366666645
 30
0.0
 10
17.81137099999994
 20
-10.72807433333311
 30
0.0
 10
17.82374900000001
 20
-10.63883466666645
 30
0.0
 10
17.84850496092983
 20
-10.46035561501138
 30
0.0
 10
17.86088366666666
 20
-10.37111633333311
 30
0.0
 10
17.87326199999998
 20
-10.28187699999978
 30
0.0
 10
17.88431733333332
 20
-10.19246933333312
 30
0.0
 10
17.89537266666666
 20
-10.10306166666646
 30
0.0
 10
17.91748400125189
 20
-9.92424093168335
 30
0.0
 10
17.92703333333331
 20
-9.834647999999804
 30
0.0
 10
17.94763866230769
 20
-9.65564203786735
 30
0.0
 10
17.95794066666667
 20
-9.566138999999813
 30
0.0
 10
17.96824300000003
 20
-9.476635999999814
 30
0.0
 10
17.97734366666669
 20
-9.387032333333138
 30
0.0
 10
17.98644433333336
 20
-9.297428666666463
 30
0.0
 10
17.99554500000002
 20
-9.207824999999787
 30
0.0
 10
18.00030133333334
 20
-9.117856333333132
 30
0.0
 10
18.00505766666666
 20
-9.027887666666478
 30
0.0
 10
18.01457031483122
 20
-8.847950683309973
 30
0.0
 10
18.019326
 20
-8.75798233333314
 30
0.0
 10
18.02883800000004
 20
-8.57804566666647
 30
0.0
 10
18.03359400000001
 20
-8.488077333333138
 30
0.0
 10
18.03835000000001
 20
-8.398108999999806
 30
0.0
 10
18.03900400000002
 20
-8.308041666666478
 30
0.0
 10
18.03965800000004
 20
-8.217974333333151
 30
0.0
 10
18.04031200000006
 20
-8.127906999999823
 30
0.0
 10
18.03958500000005
 20
-8.037822333333148
 30
0.0
 10
18.03885800000003
 20
-7.947737666666474
 30
0.0
 10
18.03813100000002
 20
-7.8576529999998
 30
0.0
 10
18.033755
 20
-7.767665333333137
 30
0.0
 10
18.02937899999999
 20
-7.677677666666472
 30
0.0
 10
18.02500299999997
 20
-7.587689999999808
 30
0.0
 10
18.01900766666664
 20
-7.497821666666462
 30
0.0
 10
18.01301233333332
 20
-7.407953333333116
 30
0.0
 10
18.00701699999999
 20
-7.318084999999769
 30
0.0
 10
17.99816333333331
 20
-7.228426999999773
 30
0.0
 10
17.98930966666662
 20
-7.138768999999776
 30
0.0
 10
17.97160233011411
 20
-6.959452967400623
 30
0.0
 10
17.96274799999997
 20
-6.869794999999791
 30
0.0
 10
17.94504071107445
 20
-6.690486200532076
 30
0.0
 10
17.93516799999998
 20
-6.600938999999793
 30
0.0
 10
17.92580499999997
 20
-6.51133999999979
 30
0.0
 10
17.91394433333332
 20
-6.422030333333129
 30
0.0
 10
17.90208366666667
 20
-6.332720666666468
 30
0.0
 10
17.8783622956096
 20
-6.154101049276836
 30
0.0
 10
17.86650233333335
 20
-6.064790999999822
 30
0.0
 10
17.84278166088989
 20
-5.886170956499824
 30
0.0
 10
17.83092066666667
 20
-5.796860999999807
 30
0.0
 10
17.80719938261088
 20
-5.618241371056223
 30
0.0
 10
17.7953393333333
 20
-5.528931666666456
 30
0.0
 10
17.77161861739022
 20
-5.350311962276529
 30
0.0
 10
17.75975766666662
 20
-5.26100199999978
 30
0.0
 10
17.7360363333333
 20
-5.082381999999785
 30
0.0
 10
17.72417566666665
 20
-4.993071999999791
 30
0.0
 10
17.70045517676789
 20
-4.814458351003736
 30
0.0
 10
17.68965900000001
 20
-4.725016666666495
 30
0.0
 10
17.67833100000001
 20
-4.635643999999842
 30
0.0
 10
17.66903933333333
 20
-4.546030333333154
 30
0.0
 10
17.65974766666664
 20
-4.456416666666466
 30
0.0
 10
17.65045599999996
 20
-4.366802999999777
 30
0.0
  0
SPLINE
  5
286
330
1F
100
AcDbEntity
  8
1
  6
Continuous
 62
     4
370
    50
100
AcDbSpline
210
0.0
220
0.0
230
1.0
 70
     8
 71
     3
 72
   151
 73
   147
 74
     0
 42
0.000000001
 43
0.0000000001
 40
0.0
 40
0.0
 40
0.0
 40
0.0
 40
0.0172427365339238
 40
0.0172427365339238
 40
0.0172427365339238
 40
0.0344753280802921
 40
0.0344753280802921
 40
0.0344753280802921
 40
0.0517054374802173
 40
0.0517054374802173
 40
0.0517054374802173
 40
0.0689482182882007
 40
0.0689482182882007
 40
0.0689482182882007
 40
0.0861803423604409
 40
0.0861803423604409
 40
0.0861803423604409
 40
0.103423077190952
 40
0.103423077190952
 40
0.120665789665483
 40
0.120665789665483
 40
0.120665789665483
 40
0.1379016909347057
 40
0.1379016909347057
 40
0.1379016909347057
 40
0.1551443837062143
 40
0.1551443837062143
 40
0.1551443837062143
 40
0.1723783292614208
 40
0.1723783292614208
 40
0.1723783292614208
 40
0.189621059478246
 40
0.189621059478246
 40
0.189621059478246
 40
0.2068594796403688
 40
0.2068594796403688
 40
0.2068594796403688
 40
0.2241021709912387
 40
0.2241021709912387
 40
0.2413449340950924
 40
0.2413449340950924
 40
0.2413449340950924
 40
0.2585843761781813
 40
0.2585843761781813
 40
0.2585843761781813
 40
0.2758270871153778
 40
0.2758270871153778
 40
0.2758270871153778
 40
0.2930657033203602
 40
0.2930657033203602
 40
0.2930657033203602
 40
0.3103084563615003
 40
0.3103084563615003
 40
0.3275505722453321
 40
0.3275505722453321
 40
0.3275505722453321
 40
0.3447932896723599
 40
0.3447932896723599
 40
0.3620360050587443
 40
0.3620360050587443
 40
0.3620360050587443
 40
0.3792752734979313
 40
0.3792752734979313
 40
0.3792752734979313
 40
0.3965179994551002
 40
0.3965179994551002
 40
0.4137607248015059
 40
0.4137607248015059
 40
0.4310034507586762
 40
0.4310034507586762
 40
0.4310034507586762
 40
0.4482420077974034
 40
0.4482420077974034
 40
0.4482420077974034
 40
0.4654847284693506
 40
0.4654847284693506
 40
0.4827274491412941
 40
0.4827274491412941
 40
0.499970235471369
 40
0.499970235471369
 40
0.499970235471369
 40
0.5172102131050262
 40
0.5172102131050262
 40
0.5172102131050262
 40
0.5344529388498884
 40
0.5344529388498884
 40
0.551695664594751
 40
0.551695664594751
 40
0.5689383961816978
 40
0.5689383961816978
 40
0.5861811840077154
 40
0.5861811840077154
 40
0.5861811840077154
 40
0.6034227999215722
 40
0.6034227999215722
 40
0.620665553888828
 40
0.620665553888828
 40
0.6379082377904642
 40
0.6379082377904642
 40
0.6551509917577224
 40
0.6551509917577224
 40
0.6723925703955698
 40
0.6723925703955698
 40
0.6723925703955698
 40
0.6896352686033933
 40
0.6896352686033933
 40
0.7068780282849826
 40
0.7068780282849826
 40
0.7241207264928019
 40
0.7241207264928019
 40
0.7413634966231548
 40
0.7413634966231548
 40
0.7413634966231548
 40
0.7586042218724389
 40
0.7586042218724389
 40
0.7586042218724389
 40
0.7758469833960041
 40
0.7758469833960041
 40
0.7930897325207031
 40
0.7930897325207031
 40
0.8103324329340075
 40
0.8103324329340075
 40
0.8275751944575745
 40
0.8275751944575745
 40
0.8275751944575745
 40
0.8448162543274704
 40
0.8448162543274704
 40
0.8448162543274704
 40
0.8620589846203974
 40
0.8620589846203974
 40
0.8793017008085414
 40
0.8793017008085414
 40
0.8965444311014682
 40
0.8965444311014682
 40
0.9137871613943973
 40
0.9137871613943973
 40
0.9137871613943973
 40
0.9310290588582412
 40
0.9310290588582412
 40
0.9482717829397167
 40
0.9482717829397167
 40
0.9655145518370487
 40
0.9655145518370487
 40
0.982757275918523
 40
0.982757275918523
 40
1.0
 40
1.0
 40
1.0
 40
1.0
 10
11.89432500000004
 20
-23.39371499999984
 30
0.0
 10
11.94764666666671
 20
-23.31852899999982
 30
0.0
 10
12.00096833333338
 20
-23.2433429999998
 30
0.0
 10
12.05429000000004
 20
-23.16815699999978
 30
0.0
 10
12.1058836666667
 20
-23.09184033333311
 30
0.0
 10
12.15747733333336
 20
-23.01552366666645
 30
0.0
 10
12.20907100000002
 20
-22.93920699999978
 30
0.0
 10
12.25382966666669
 20
-22.85870633333312
 30
0.0
 10
12.29858833333336
 20
-22.77820566666645
 30
0.0
 10
12.34334700000004
 20
-22.69770499999979
 30
0.0
 10
12.38470100000004
 20
-22.61532766666647
 30
0.0
 10
12.42605500000003
 20
-22.53295033333316
 30
0.0
 10
12.46740900000003
 20
-22.45057299999985
 30
0.0
 10
12.50752633333335
 20
-22.36764966666649
 30
0.0
 10
12.54764366666668
 20
-22.28472633333314
 30
0.0
 10
12.587761
 20
-22.20180299999979
 30
0.0
 10
12.62080800000001
 20
-22.11575633333312
 30
0.0
 10
12.65385500000002
 20
-22.02970966666646
 30
0.0
 10
12.71994895715312
 20
-21.85761644489649
 30
0.0
 10
12.75299533333333
 20
-21.77156966666644
 30
0.0
 10
12.78604199999998
 20
-21.68552299999976
 30
0.0
 10
12.81309566666665
 20
-21.5974463333331
 30
0.0
 10
12.84014933333332
 20
-21.50936966666644
 30
0.0
 10
12.86720299999999
 20
-21.42129299999979
 30
0.0
 10
12.89324699999998
 20
-21.33287466666646
 30
0.0
 10
12.91929099999998
 20
-21.24445633333313
 30
0.0
 10
12.94533499999997
 20
-21.1560379999998
 30
0.0
 10
12.96812299999999
 20
-21.06677333333313
 30
0.0
 10
12.99091100000001
 20
-20.97750866666646
 30
0.0
 10
13.01369900000003
 20
-20.88824399999979
 30
0.0
 10
13.03398400000002
 20
-20.79832933333312
 30
0.0
 10
13.05426900000001
 20
-20.70841466666645
 30
0.0
 10
13.074554
 20
-20.61849999999978
 30
0.0
 10
13.09385399999999
 20
-20.52839233333312
 30
0.0
 10
13.11315399999998
 20
-20.43828466666646
 30
0.0
 10
13.13245399999997
 20
-20.3481769999998
 30
0.0
 10
13.14759799999997
 20
-20.25725533333313
 30
0.0
 10
13.16274199999997
 20
-20.16633366666647
 30
0.0
 10
13.19303006301956
 20
-19.98448995497568
 30
0.0
 10
13.20817466666664
 20
-19.89356799999981
 30
0.0
 10
13.22331899999997
 20
-19.80264599999981
 30
0.0
 10
13.23470333333332
 20
-19.71119499999979
 30
0.0
 10
13.24608766666667
 20
-19.61974399999978
 30
0.0
 10
13.25747200000002
 20
-19.52829299999976
 30
0.0
 10
13.26801266666668
 20
-19.43672333333309
 30
0.0
 10
13.27855333333333
 20
-19.34515366666642
 30
0.0
 10
13.28909399999999
 20
-19.25358399999976
 30
0.0
 10
13.29786599999999
 20
-19.16184999999978
 30
0.0
 10
13.306638
 20
-19.0701159999998
 30
0.0
 10
13.31541
 20
-18.97838199999981
 30
0.0
 10
13.32190666666668
 20
-18.88643666666648
 30
0.0
 10
13.32840333333335
 20
-18.79449133333314
 30
0.0
 10
13.34139642660071
 20
-18.61060406424695
 30
0.0
 10
13.34752733333335
 20
-18.51863666666642
 30
0.0
 10
13.35384100000001
 20
-18.42668199999973
 30
0.0
 10
13.35685766666668
 20
-18.33455699999974
 30
0.0
 10
13.35987433333335
 20
-18.24243199999976
 30
0.0
 10
13.36590766630967
 20
-18.05818201090261
 30
0.0
 10
13.36892366666664
 20
-17.96605699999979
 30
0.0
 10
13.37193999999995
 20
-17.8739319999998
 30
0.0
 10
13.37235633333329
 20
-17.7817769999998
 30
0.0
 10
13.37277266666664
 20
-17.68962199999979
 30
0.0
 10
13.37318899999998
 20
-17.59746699999979
 30
0.0
 10
13.37228599999999
 20
-17.50529699999979
 30
0.0
 10
13.37138299999999
 20
-17.41312699999979
 30
0.0
 10
13.36957700003199
 20
-17.22878700326459
 30
0.0
 10
13.36867466666667
 20
-17.13661699999981
 30
0.0
 10
13.36686933330136
 20
-16.95227699673502
 30
0.0
 10
13.36596599999999
 20
-16.8601069999998
 30
0.0
 10
13.36506299999999
 20
-16.76793699999979
 30
0.0
 10
13.36243533333334
 20
-16.67582233333313
 30
0.0
 10
13.35980766666668
 20
-16.58370766666646
 30
0.0
 10
13.35718000000003
 20
-16.49159299999979
 30
0.0
 10
13.35216133333335
 20
-16.39955533333312
 30
0.0
 10
13.34714266666666
 20
-16.30751766666645
 30
0.0
 10
13.33710533333329
 20
-16.12344233333313
 30
0.0
 10
13.33208666666669
 20
-16.03140466666648
 30
0.0
 10
13.32204931422293
 20
-15.84732898286521
 30
0.0
 10
13.31703000000002
 20
-15.75529099999981
 30
0.0
 10
13.31201100000001
 20
-15.6632529999998
 30
0.0
 10
13.30440100000001
 20
-15.57140799999981
 30
0.0
 10
13.296791
 20
-15.47956299999982
 30
0.0
 10
13.289181
 20
-15.38771799999983
 30
0.0
 10
13.28054533333333
 20
-15.29594899999982
 30
0.0
 10
13.27190966666665
 20
-15.20417999999982
 30
0.0
 10
13.25463833333331
 20
-15.0206419999998
 30
0.0
 10
13.24600266666664
 20
-14.92887299999979
 30
0.0
 10
13.22873133040741
 20
-14.74533496890711
 30
0.0
 10
13.22009499999997
 20
-14.65356599999978
 30
0.0
 10
13.20282297183269
 20
-14.47002770068507
 30
0.0
 10
13.19418766666665
 20
-14.37825833333314
 30
0.0
 10
13.185552
 20
-14.28648899999982
 30
0.0
 10
13.17366699999999
 20
-14.1950899999998
 30
0.0
 10
13.16178199999999
 20
-14.10369099999979
 30
0.0
 10
13.13801121551639
 20
-13.92088696709987
 30
0.0
 10
13.12547766666663
 20
-13.8295673333331
 30
0.0
 10
13.10105838294705
 20
-13.64684303791563
 30
0.0
 10
13.08884933333333
 20
-13.5554809999998
 30
0.0
 10
13.06443061705408
 20
-13.37275662875047
 30
0.0
 10
13.05222066666668
 20
-13.28139433333313
 30
0.0
 10
13.02780216558906
 20
-13.0986758942585
 30
0.0
 10
13.0148016666667
 20
-13.00742733333313
 30
0.0
 10
13.00219700000004
 20
-12.91612499999979
 30
0.0
 10
12.98675166666669
 20
-12.82525399999978
 30
0.0
 10
12.97130633333335
 20
-12.73438299999977
 30
0.0
 10
12.94041561160086
 20
-12.55264067602594
 30
0.0
 10
12.92497033333333
 20
-12.46176933333311
 30
0.0
 10
12.89407972173226
 20
-12.28002699064031
 30
0.0
 10
12.87863433333333
 20
-12.18915599999979
 30
0.0
 10
12.84774360224127
 20
-12.0074136209598
 30
0.0
 10
12.83229766666665
 20
-11.91654233333311
 30
0.0
 10
12.81685199999998
 20
-11.82567099999977
 30
0.0
 10
12.80041233333331
 20
-11.73498533333311
 30
0.0
 10
12.78397266666664
 20
-11.64429966666644
 30
0.0
 10
12.76753299999997
 20
-11.55361399999978
 30
0.0
 10
12.74920466666664
 20
-11.46327999999978
 30
0.0
 10
12.7308763333333
 20
-11.37294599999979
 30
0.0
 10
12.69421967984611
 20
-11.19227806495687
 30
0.0
 10
12.675892
 20
-11.10194399999977
 30
0.0
 10
12.63923605177729
 20
-10.92127625519659
 30
0.0
 10
12.62090733333333
 20
-10.83094266666646
 30
0.0
 10
12.58425060170877
 20
-10.65027501317947
 30
0.0
 10
12.56592233333331
 20
-10.5599409999998
 30
0.0
 10
12.54759399999997
 20
-10.4696069999998
 30
0.0
 10
12.52782933333333
 20
-10.37958566666647
 30
0.0
 10
12.50806466666668
 20
-10.28956433333313
 30
0.0
 10
12.48830000000004
 20
-10.1995429999998
 30
0.0
 10
12.46745000000003
 20
-10.10975766666647
 30
0.0
 10
12.44660000000003
 20
-10.01997233333315
 30
0.0
 10
12.40490001705559
 20
-9.840401740112089
 30
0.0
 10
12.38405066666667
 20
-9.750616333333141
 30
0.0
 10
12.34235131627801
 20
-9.571045593220806
 30
0.0
 10
12.321501
 20
-9.481260333333145
 30
0.0
 10
12.279801
 20
-9.301689666666476
 30
0.0
 10
12.258951
 20
-9.211904333333138
 30
0.0
 10
12.238101
 20
-9.122118999999797
 30
0.0
 10
12.21554600000001
 20
-9.03275133333314
 30
0.0
 10
12.19299100000001
 20
-8.943383666666485
 30
0.0
 10
12.1478799186596
 20
-8.764644048834374
 30
0.0
 10
12.12441733333335
 20
-8.675503333333154
 30
0.0
 10
12.07839860686274
 20
-8.496990434678828
 30
0.0
 10
12.05539000000001
 20
-8.407733666666473
 30
0.0
 10
12.00937205980292
 20
-8.22922056532105
 30
0.0
 10
11.98636233333332
 20
-8.139964333333145
 30
0.0
 10
11.94034366666663
 20
-7.961451666666473
 30
0.0
 10
11.91733433333333
 20
-7.872195333333117
 30
0.0
 10
11.89432500000001
 20
-7.782938999999768
 30
0.0
  0
SPLINE
  5
287
330
1F
100
AcDbEntity
  8
1
  6
Continuous
 62
     4
370
    50
100
AcDbSpline
210
0.0
220
0.0
230
1.0
 70
    24
 71
     3
 72
    12
 73
     8
 74
     0
 42
0.000000001
 43
0.0000000001
 40
0.0
 40
0.0
 40
0.0
 40
0.0
 40
0.3333334473850534
 40
0.3333334473850534
 40
0.6666665526149138
 40
0.6666665526149138
 40
1.0
 40
1.0
 40
1.0
 40
1.0
 10
11.46132499999997
 20
-7.256833999999796
 30
0.0
 10
11.136586
 20
-7.256833999999807
 30
0.0
 10
10.81184700000003
 20
-7.256833999999817
 30
0.0
 10
10.16236933333338
 20
-7.256833999999837
 30
0.0
 10
9.837630666666703
 20
-7.256833999999846
 30
0.0
 10
9.188153000000021
 20
-7.256833999999864
 30
0.0
 10
8.863414000000018
 20
-7.256833999999837
 30
0.0
 10
8.538675000000014
 20
-7.256833999999827
 30
0.0
  0
SPLINE
  5
288
330
1F
100
AcDbEntity
  8
1
  6
Continuous
 62
     4
370
    50
100
AcDbSpline
210
0.0
220
0.0
230
1.0
 70
     8
 71
     3
 72
   157
 73
   153
 74
     0
 42
0.000000001
 43
0.0000000001
 40
0.0
 40
0.0
 40
0.0
 40
0.0
 40
0.0163946118851
 40
0.0163946118851
 40
0.0327892392950805
 40
0.0327892392950805
 40
0.0491839115717307
 40
0.0491839115717307
 40
0.06557852345683
 40
0.06557852345683
 40
0.0819728240305936
 40
0.0819728240305936
 40
0.0819728240305936
 40
0.0983674625877058
 40
0.0983674625877058
 40
0.114762087100538
 40
0.114762087100538
 40
0.1311567256576512
 40
0.1311567256576512
 40
0.1475513501704804
 40
0.1475513501704804
 40
0.163945284739132
 40
0.163945284739132
 40
0.163945284739132
 40
0.1803398820415721
 40
0.1803398820415721
 40
0.1967345404504084
 40
0.1967345404504084
 40
0.2131291988592498
 40
0.2131291988592498
 40
0.2295237837454752
 40
0.2295237837454752
 40
0.245916772930196
 40
0.245916772930196
 40
0.245916772930196
 40
0.2623114308719492
 40
0.2623114308719492
 40
0.2787060888137033
 40
0.2787060888137033
 40
0.2951006852510922
 40
0.2951006852510922
 40
0.3114953431928454
 40
0.3114953431928454
 40
0.3278899396302393
 40
0.3278899396302393
 40
0.3442845975719918
 40
0.3442845975719918
 40
0.3442845975719918
 40
0.360676988836682
 40
0.360676988836682
 40
0.360676988836682
 40
0.3770716614082353
 40
0.3770716614082353
 40
0.3934662801989747
 40
0.3934662801989747
 40
0.4098608989897106
 40
0.4098608989897106
 40
0.4098608989897106
 40
0.4262547298054375
 40
0.4262547298054375
 40
0.4426493534246447
 40
0.4426493534246447
 40
0.4590439770438542
 40
0.4590439770438542
 40
0.4590439770438542
 40
0.475436751525933
 40
0.475436751525933
 40
0.475436751525933
 40
0.4918313310822034
 40
0.4918313310822034
 40
0.5082259728370675
 40
0.5082259728370675
 40
0.5246206145919308
 40
0.5246206145919308
 40
0.5246206145919308
 40
0.5410148039341311
 40
0.5410148039341311
 40
0.5574094439573718
 40
0.5574094439573718
 40
0.5738040816684143
 40
0.5738040816684143
 40
0.5738040816684143
 40
0.5901944288815352
 40
0.5901944288815352
 40
0.5901944288815352
 40
0.6065890776237314
 40
0.6065890776237314
 40
0.6229836640132043
 40
0.6229836640132043
 40
0.6393783127553976
 40
0.6393783127553976
 40
0.6557729614975948
 40
0.6557729614975948
 40
0.6557729614975948
 40
0.6721627878052449
 40
0.6721627878052449
 40
0.6721627878052449
 40
0.6885574332509141
 40
0.6885574332509141
 40
0.7049498047246985
 40
0.7049498047246985
 40
0.7049498047246985
 40
0.7213444283531577
 40
0.7213444283531577
 40
0.7377390582140767
 40
0.7377390582140767
 40
0.7377390582140767
 40
0.7541305101640533
 40
0.7541305101640533
 40
0.7541305101640533
 40
0.7705251454592673
 40
0.7705251454592673
 40
0.7705251454592673
 40
0.7869148174405299
 40
0.7869148174405299
 40
0.7869148174405299
 40
0.80330947096008
 40
0.80330947096008
 40
0.8197040756881382
 40
0.8197040756881382
 40
0.8197040756881382
 40
0.8360965306464455
 40
0.8360965306464455
 40
0.8360965306464455
 40
0.8524899219690093
 40
0.8524899219690093
 40
0.8524899219690093
 40
0.868884541112998
 40
0.868884541112998
 40
0.868884541112998
 40
0.8852733263476885
 40
0.8852733263476885
 40
0.8852733263476885
 40
0.9016679305555325
 40
0.9016679305555325
 40
0.9016679305555325
 40
0.9180536951164557
 40
0.9180536951164557
 40
0.9180536951164557
 40
0.9344483295916817
 40
0.9344483295916817
 40
0.9344483295916817
 40
0.9508287012956859
 40
0.9508287012956859
 40
0.9508287012956859
 40
0.9672232930173674
 40
0.9672232930173674
 40
0.9672232930173674
 40
0.9836053783448376
 40
0.9836053783448376
 40
0.9836053783448376
 40
1.0
 40
1.0
 40
1.0
 40
1.0
 10
8.105674999999977
 20
8.328604000000153
 30
0.0
 10
8.083854666666639
 20
8.413485333333503
 30
0.0
 10
8.062034333333301
 20
8.498366666666849
 30
0.0
 10
8.018393646003858
 20
8.668129413711936
 30
0.0
 10
7.99657266666667
 20
8.753010666666833
 30
0.0
 10
7.952931273617429
 20
8.922773565625592
 30
0.0
 10
7.931111333333338
 20
9.007655333333494
 30
0.0
 10
7.887470747044215
 20
9.177418353996025
 30
0.0
 10
7.865650333333318
 20
9.262299666666857
 30
0.0
 10
7.822010081005033
 20
9.432060721552713
 30
0.0
 10
7.800475999999995
 20
9.517013666666871
 30
0.0
 10
7.778799000000003
 20
9.601930000000207
 30
0.0
 10
7.759059333333332
 20
9.68731933333353
 30
0.0
 10
7.739319666666661
 20
9.772708666666855
 30
0.0
 10
7.699840350243081
 20
9.943487260185707
 30
0.0
 10
7.680101333333334
 20
10.02887666666687
 30
0.0
 10
7.640622649757189
 20
10.19965540648142
 30
0.0
 10
7.620882666666634
 20
10.28504466666686
 30
0.0
 10
7.581403350243026
 20
10.4558232601857
 30
0.0
 10
7.561664333333327
 20
10.54121266666686
 30
0.0
 10
7.522186497368142
 20
10.71198773984632
 30
0.0
 10
7.503084333333361
 20
10.7975193333335
 30
0.0
 10
7.483664000000032
 20
10.88297800000015
 30
0.0
 10
7.466212666666677
 20
10.96886400000018
 30
0.0
 10
7.448761333333322
 20
11.0547500000002
 30
0.0
 10
7.41385860162152
 20
11.22652232011693
 30
0.0
 10
7.396407333333314
 20
11.31240866666685
 30
0.0
 10
7.361504666666655
 20
11.4841813333335
 30
0.0
 10
7.344053333333325
 20
11.57006766666684
 30
0.0
 10
7.309150744927988
 20
11.74183994817222
 30
0.0
 10
7.291699999999987
 20
11.82772600000017
 30
0.0
 10
7.256799698523432
 20
11.99948964062904
 30
0.0
 10
7.240566999999973
 20
12.08561000000018
 30
0.0
 10
7.223725999999968
 20
12.17160900000019
 30
0.0
 10
7.209298333333305
 20
12.25805466666686
 30
0.0
 10
7.194870666666643
 20
12.34450033333352
 30
0.0
 10
7.166015333333316
 20
12.51739166666685
 30
0.0
 10
7.151587666666626
 20
12.60383733333352
 30
0.0
 10
7.122732387458493
 20
12.77672834236696
 30
0.0
 10
7.108304666666654
 20
12.86317366666685
 30
0.0
 10
7.079449279207935
 20
13.03606465763336
 30
0.0
 10
7.065021666666681
 20
13.12251033333351
 30
0.0
 10
7.036166387458571
 20
13.29540134236697
 30
0.0
 10
7.021738666666654
 20
13.38184666666687
 30
0.0
 10
6.992883279207872
 20
13.5547376576334
 30
0.0
 10
6.978455666666655
 20
13.64118333333354
 30
0.0
 10
6.964027999999996
 20
13.7276290000002
 30
0.0
 10
6.950518666666665
 20
13.81421066666687
 30
0.0
 10
6.937009333333333
 20
13.90079233333354
 30
0.0
 10
6.923500000000002
 20
13.98737400000021
 30
0.0
 10
6.912182666666657
 20
14.07428166666686
 30
0.0
 10
6.90086533333331
 20
14.16118933333352
 30
0.0
 10
6.87823070379181
 20
14.33500438157635
 30
0.0
 10
6.866912666666631
 20
14.42191166666685
 30
0.0
 10
6.8442773333333
 20
14.59572633333351
 30
0.0
 10
6.832959666666653
 20
14.68263366666685
 30
0.0
 10
6.821641999999997
 20
14.76954100000017
 30
0.0
 10
6.812372333333329
 20
14.85668633333351
 30
0.0
 10
6.803102666666661
 20
14.94383166666684
 30
0.0
 10
6.784562885053473
 20
15.11812654767026
 30
0.0
 10
6.776043666666664
 20
15.2053543333335
 30
0.0
 10
6.758254333333337
 20
15.37973166666683
 30
0.0
 10
6.749359666666675
 20
15.4669203333335
 30
0.0
 10
6.740465000000012
 20
15.55410900000017
 30
0.0
 10
6.732641000000008
 20
15.6413903333335
 30
0.0
 10
6.724817000000005
 20
15.72867166666684
 30
0.0
 10
6.716993000000002
 20
15.81595300000017
 30
0.0
 10
6.710787666666657
 20
15.90337400000018
 30
0.0
 10
6.704582333333311
 20
15.99079500000019
 30
0.0
 10
6.692171643124509
 20
16.16563733166247
 30
0.0
 10
6.68596633333329
 20
16.25305866666687
 30
0.0
 10
6.673555666666616
 20
16.42790133333354
 30
0.0
 10
6.667350333333302
 20
16.51532266666687
 30
0.0
 10
6.661144999999976
 20
16.6027440000002
 30
0.0
 10
6.657756333333315
 20
16.69031733333352
 30
0.0
 10
6.654367666666652
 20
16.77789066666685
 30
0.0
 10
6.647590240177894
 20
16.95303974074993
 30
0.0
 10
6.644478999999993
 20
17.04062600000019
 30
0.0
 10
6.637979000458356
 20
17.21578798764833
 30
0.0
 10
6.634729666666654
 20
17.30336900000018
 30
0.0
 10
6.631479999999982
 20
17.39095000000017
 30
0.0
 10
6.630271666666649
 20
17.47856000000016
 30
0.0
 10
6.629063333333316
 20
17.56617000000016
 30
0.0
 10
6.627854999999982
 20
17.65378000000015
 30
0.0
 10
6.628618666666656
 20
17.74141800000016
 30
0.0
 10
6.629382333333332
 20
17.82905600000016
 30
0.0
 10
6.630909663762279
 20
18.00433166669216
 30
0.0
 10
6.631673333333322
 20
18.09196933333352
 30
0.0
 10
6.633200669571051
 20
18.26724499997488
 30
0.0
 10
6.633964333333314
 20
18.35488300000018
 30
0.0
 10
6.635491666666648
 20
18.53015900000018
 30
0.0
 10
6.636255333333314
 20
18.61779700000018
 30
0.0
 10
6.63701899999998
 20
18.70543500000019
 30
0.0
 10
6.64061633333332
 20
18.79297666666686
 30
0.0
 10
6.644213666666661
 20
18.88051833333352
 30
0.0
 10
6.647811000000002
 20
18.96806000000018
 30
0.0
 10
6.652981333333327
 20
19.05554866666684
 30
0.0
 10
6.658151666666652
 20
19.14303733333351
 30
0.0
 10
6.668491616197169
 20
19.31800253180434
 30
0.0
 10
6.675160666666655
 20
19.40538400000018
 30
0.0
 10
6.681079999999994
 20
19.49281300000018
 30
0.0
 10
6.689839666666647
 20
19.58001533333352
 30
0.0
 10
6.698599333333299
 20
19.66721766666685
 30
0.0
 10
6.716118669996614
 20
19.84162236648372
 30
0.0
 10
6.724878999999963
 20
19.92882466666687
 30
0.0
 10
6.733638999999968
 20
20.01602700000021
 30
0.0
 10
6.74553966666664
 20
20.10283933333352
 30
0.0
 10
6.757440333333311
 20
20.18965166666684
 30
0.0
 10
6.769340999999982
 20
20.27646400000015
 30
0.0
 10
6.78216466666666
 20
20.36316200000017
 30
0.0
 10
6.794988333333336
 20
20.44986000000018
 30
0.0
 10
6.807812000000013
 20
20.53655800000019
 30
0.0
 10
6.822137333333335
 20
20.62299366666686
 30
0.0
 10
6.836462666666658
 20
20.70942933333352
 30
0.0
 10
6.850787999999981
 20
20.79586500000019
 30
0.0
 10
6.868120666666637
 20
20.88177533333353
 30
0.0
 10
6.885453333333292
 20
20.96768566666686
 30
0.0
 10
6.920118615083525
 20
21.13950607765913
 30
0.0
 10
6.937451999999973
 20
21.22541600000018
 30
0.0
 10
6.954784999999986
 20
21.31132600000018
 30
0.0
 10
6.97597633333331
 20
21.39635466666685
 30
0.0
 10
6.997167666666634
 20
21.48138333333351
 30
0.0
 10
7.018358999999958
 20
21.56641200000018
 30
0.0
 10
7.040297999999969
 20
21.65125600000018
 30
0.0
 10
7.062236999999977
 20
21.73610000000017
 30
0.0
 10
7.084175999999986
 20
21.82094400000017
 30
0.0
 10
7.110467333333314
 20
21.90454866666683
 30
0.0
 10
7.136758666666641
 20
21.9881533333335
 30
0.0
 10
7.163049999999969
 20
22.07175800000016
 30
0.0
 10
7.190560333333313
 20
22.15493666666684
 30
0.0
 10
7.218070666666658
 20
22.23811533333351
 30
0.0
 10
7.245581000000001
 20
22.32129400000019
 30
0.0
 10
7.277112666666649
 20
22.40306633333351
 30
0.0
 10
7.308644333333295
 20
22.48483866666684
 30
0.0
 10
7.340175999999942
 20
22.56661100000016
 30
0.0
 10
7.373766999999947
 20
22.64750800000017
 30
0.0
 10
7.407357999999952
 20
22.72840500000017
 30
0.0
 10
7.440948999999958
 20
22.80930200000018
 30
0.0
 10
7.477972666666633
 20
22.88873900000018
 30
0.0
 10
7.514996333333308
 20
22.96817600000018
 30
0.0
 10
7.552019999999981
 20
23.04761300000018
 30
0.0
 10
7.592780666666653
 20
23.12511266666685
 30
0.0
 10
7.633541333333326
 20
23.20261233333353
 30
0.0
 10
7.674301999999997
 20
23.2801120000002
 30
0.0
 10
7.717875666666653
 20
23.35615333333355
 30
0.0
 10
7.761449333333307
 20
23.43219466666689
 30
0.0
 10
7.805022999999962
 20
23.50823600000024
 30
0.0
 10
7.85441366666663
 20
23.58055333333355
 30
0.0
 10
7.903804333333298
 20
23.65287066666686
 30
0.0
 10
7.953194999999965
 20
23.72518800000017
 30
0.0
 10
8.004021666666631
 20
23.79658566666684
 30
0.0
 10
8.054848333333297
 20
23.8679833333335
 30
0.0
 10
8.105674999999962
 20
23.93938100000017
 30
0.0
  0
SPLINE
  5
289
330
1F
100
AcDbEntity
  8
1
  6
Continuous
 62
     4
370
    50
100
AcDbSpline
210
0.0
220
0.0
230
1.0
 70
     8
 71
     3
 72
   157
 73
   153
 74
     0
 42
0.000000001
 43
0.0000000001
 40
0.0
 40
0.0
 40
0.0
 40
0.0
 40
0.0163946117013727
 40
0.0163946117013727
 40
0.0327892389276278
 40
0.0327892389276278
 40
0.0491839110205479
 40
0.0491839110205479
 40
0.0655785227219171
 40
0.0655785227219171
 40
0.0819728231119594
 40
0.0819728231119594
 40
0.0819728231119594
 40
0.0983674614853439
 40
0.0983674614853439
 40
0.11476208581445
 40
0.11476208581445
 40
0.1311567101435528
 40
0.1311567101435528
 40
0.1475513485169379
 40
0.1475513485169379
 40
0.1639452829018705
 40
0.1639452829018705
 40
0.1639452829018705
 40
0.180339941126986
 40
0.180339941126986
 40
0.1967345258294884
 40
0.1967345258294884
 40
0.2131291840545995
 40
0.2131291840545995
 40
0.2295237811733058
 40
0.2295237811733058
 40
0.2459167701743186
 40
0.2459167701743186
 40
0.2459167701743186
 40
0.2623114279323451
 40
0.2623114279323451
 40
0.2787060856903729
 40
0.2787060856903729
 40
0.2951006819440382
 40
0.2951006819440382
 40
0.3114953397020667
 40
0.3114953397020667
 40
0.3278899359557285
 40
0.3278899359557285
 40
0.3442845937137561
 40
0.3442845937137561
 40
0.3442845937137561
 40
0.3606769847947449
 40
0.3606769847947449
 40
0.3606769847947449
 40
0.3770716652347385
 40
0.3770716652347385
 40
0.393466275789554
 40
0.393466275789554
 40
0.4098608863443697
 40
0.4098608863443697
 40
0.4098608863443697
 40
0.4262547169763751
 40
0.4262547169763751
 40
0.4426493404118572
 40
0.4426493404118572
 40
0.4590439638473391
 40
0.4590439638473391
 40
0.4590439638473391
 40
0.4754367437130909
 40
0.4754367437130909
 40
0.4754367437130909
 40
0.4918313852842254
 40
0.4918313852842254
 40
0.5082259690718808
 40
0.5082259690718808
 40
0.5246206106430176
 40
0.5246206106430176
 40
0.5246206106430176
 40
0.5410147998014965
 40
0.5410147998014965
 40
0.5574094373288163
 40
0.5574094373288163
 40
0.5738040748561345
 40
0.5738040748561345
 40
0.5738040748561345
 40
0.5901944227456255
 40
0.5901944227456255
 40
0.5901944227456255
 40
0.6065890718475493
 40
0.6065890718475493
 40
0.6229836580532957
 40
0.6229836580532957
 40
0.6393783071552198
 40
0.6393783071552198
 40
0.6557729557136898
 40
0.6557729557136898
 40
0.6557729557136898
 40
0.6721627792776013
 40
0.6721627792776013
 40
0.6721627792776013
 40
0.6885574245395456
 40
0.6885574245395456
 40
0.7049497916176755
 40
0.7049497916176755
 40
0.7049497916176755
 40
0.7213444212948649
 40
0.7213444212948649
 40
0.7377390509720577
 40
0.7377390509720577
 40
0.7377390509720577
 40
0.7541305027383459
 40
0.7541305027383459
 40
0.7541305027383459
 40
0.7705251378498302
 40
0.7705251378498302
 40
0.7705251378498302
 40
0.7869147994522432
 40
0.7869147994522432
 40
0.7869147994522432
 40
0.803309465120029
 40
0.803309465120029
 40
0.8197040696643613
 40
0.8197040696643613
 40
0.8197040696643613
 40
0.836096524438967
 40
0.836096524438967
 40
0.836096524438967
 40
0.8524898999675653
 40
0.8524898999675653
 40
0.8524898999675653
 40
0.8688845376337329
 40
0.8688845376337329
 40
0.8688845376337329
 40
0.8852733031047992
 40
0.8852733031047992
 40
0.8852733031047992
 40
0.901667929563243
 40
0.901667929563243
 40
0.901667929563243
 40
0.9180536700283393
 40
0.9180536700283393
 40
0.9180536700283393
 40
0.9344482741437611
 40
0.9344482741437611
 40
0.9344482741437611
 40
0.9508287008517773
 40
0.9508287008517773
 40
0.9508287008517773
 40
0.9672232923897294
 40
0.9672232923897294
 40
0.9672232923897294
 40
0.98360534236625
 40
0.98360534236625
 40
0.98360534236625
 40
1.0
 40
1.0
 40
1.0
 40
1.0
 10
11.89432500000001
 20
8.328604000000153
 30
0.0
 10
11.91614533333335
 20
8.413485333333503
 30
0.0
 10
11.93796566666668
 20
8.498366666666849
 30
0.0
 10
11.98160635399613
 20
8.668129413711949
 30
0.0
 10
12.00342733333333
 20
8.753010666666853
 30
0.0
 10
12.04706872638258
 20
8.922773565625608
 30
0.0
 10
12.06888866666664
 20
9.007655333333503
 30
0.0
 10
12.11252925295573
 20
9.177418353996012
 30
0.0
 10
12.13434966666668
 20
9.26229966666682
 30
0.0
 10
12.177989918995
 20
9.432060721552668
 30
0.0
 10
12.19952399999998
 20
9.517013666666855
 30
0.0
 10
12.22120099999996
 20
9.601930000000207
 30
0.0
 10
12.24094066666662
 20
9.68731933333353
 30
0.0
 10
12.26068033333329
 20
9.772708666666855
 30
0.0
 10
12.30015964975686
 20
9.943487260185714
 30
0.0
 10
12.31989866666665
 20
10.02887666666687
 30
0.0
 10
12.35937733333336
 20
10.19965533333354
 30
0.0
 10
12.37911666666666
 20
10.28504466666688
 30
0.0
 10
12.41859535024281
 20
10.45582340648142
 30
0.0
 10
12.43833533333334
 20
10.54121266666686
 30
0.0
 10
12.47781381904217
 20
10.71198766670158
 30
0.0
 10
12.49691566666668
 20
10.7975193333335
 30
0.0
 10
12.51633600000001
 20
10.88297800000015
 30
0.0
 10
12.53378733333333
 20
10.9688643333335
 30
0.0
 10
12.55123866666665
 20
11.05475066666684
 30
0.0
 10
12.58614125507197
 20
11.22652294817225
 30
0.0
 10
12.60359199999999
 20
11.31240900000021
 30
0.0
 10
12.63849407826018
 20
11.48418138516173
 30
0.0
 10
12.65594566666668
 20
11.57006766666686
 30
0.0
 10
12.69084826828849
 20
11.74184001321673
 30
0.0
 10
12.70829966666665
 20
11.82772600000017
 30
0.0
 10
12.74320062156216
 20
11.99948957559088
 30
0.0
 10
12.75943299999999
 20
12.08561000000018
 30
0.0
 10
12.776274
 20
12.17160900000019
 30
0.0
 10
12.79070166666666
 20
12.25805466666686
 30
0.0
 10
12.80512933333331
 20
12.34450033333352
 30
0.0
 10
12.83398466666663
 20
12.51739166666685
 30
0.0
 10
12.84841233333332
 20
12.60383733333352
 30
0.0
 10
12.87726761254146
 20
12.77672834236697
 30
0.0
 10
12.89169533333333
 20
12.86317366666687
 30
0.0
 10
12.92055072079207
 20
13.03606465763341
 30
0.0
 10
12.93497833333332
 20
13.12251033333356
 30
0.0
 10
12.96383361254142
 20
13.295401342367
 30
0.0
 10
12.97826133333333
 20
13.38184666666687
 30
0.0
 10
13.0071167207921
 20
13.55473765763338
 30
0.0
 10
13.02154433333333
 20
13.64118333333353
 30
0.0
 10
13.035972
 20
13.7276290000002
 30
0.0
 10
13.04948133333333
 20
13.81421066666687
 30
0.0
 10
13.06299066666665
 20
13.90079233333354
 30
0.0
 10
13.07649999999998
 20
13.98737400000021
 30
0.0
 10
13.08781766666665
 20
14.07428166666687
 30
0.0
 10
13.09913533333332
 20
14.16118933333354
 30
0.0
 10
13.12177061842314
 20
14.33500429620781
 30
0.0
 10
13.13308766666665
 20
14.42191166666687
 30
0.0
 10
13.15572233333331
 20
14.59572633333355
 30
0.0
 10
13.16703966666663
 20
14.68263366666689
 30
0.0
 10
13.17835699999996
 20
14.76954100000023
 30
0.0
 10
13.18762666666663
 20
14.85668633333355
 30
0.0
 10
13.1968963333333
 20
14.94383166666686
 30
0.0
 10
13.21543611494649
 20
15.11812654767027
 30
0.0
 10
13.22395533333328
 20
15.20535433333352
 30
0.0
 10
13.2417446666666
 20
15.37973166666685
 30
0.0
 10
13.25063933333331
 20
15.46692033333351
 30
0.0
 10
13.25953399999999
 20
15.55410900000017
 30
0.0
 10
13.26735833333331
 20
15.64139033333351
 30
0.0
 10
13.27518266666664
 20
15.72867166666686
 30
0.0
 10
13.28300699999997
 20
15.8159530000002
 30
0.0
 10
13.2892123333333
 20
15.90337433333352
 30
0.0
 10
13.29541766666663
 20
15.99079566666684
 30
0.0
 10
13.30782831146238
 20
16.16563802521398
 30
0.0
 10
13.31403433333331
 20
16.25305900000019
 30
0.0
 10
13.32644568853882
 20
16.42790130811965
 30
0.0
 10
13.33265066666663
 20
16.51532266666687
 30
0.0
 10
13.33885599999996
 20
16.6027440000002
 30
0.0
 10
13.34224466666663
 20
16.69031733333352
 30
0.0
 10
13.34563333333329
 20
16.77789066666685
 30
0.0
 10
13.35241075934412
 20
16.95303972839881
 30
0.0
 10
13.35552133333329
 20
17.04062600000019
 30
0.0
 10
13.36202066666663
 20
17.2157880000002
 30
0.0
 10
13.36527033333332
 20
17.3033690000002
 30
0.0
 10
13.36852
 20
17.3909500000002
 30
0.0
 10
13.36972866666665
 20
17.47856000000018
 30
0.0
 10
13.37093733333331
 20
17.56617000000017
 30
0.0
 10
13.37214599999997
 20
17.65378000000015
 30
0.0
 10
13.37138199999997
 20
17.74141800000016
 30
0.0
 10
13.37061799999996
 20
17.82905600000016
 30
0.0
 10
13.36909000293095
 20
18.00433166378712
 30
0.0
 10
13.36832666666665
 20
18.09196933333351
 30
0.0
 10
13.3667993304036
 20
18.26724500287991
 30
0.0
 10
13.36603499999997
 20
18.35488300000019
 30
0.0
 10
13.36450700002527
 20
18.53015899709516
 30
0.0
 10
13.36374366666664
 20
18.61779700000019
 30
0.0
 10
13.36297999999999
 20
18.70543500000019
 30
0.0
 10
13.35938299999998
 20
18.79297666666686
 30
0.0
 10
13.35578599999997
 20
18.88051833333352
 30
0.0
 10
13.35218899999996
 20
18.96806000000018
 30
0.0
 10
13.34701866666663
 20
19.05554866666684
 30
0.0
 10
13.3418483333333
 20
19.14303733333351
 30
0.0
 10
13.3315083851311
 20
19.31800250932759
 30
0.0
 10
13.32483999999996
 20
19.4053840000002
 30
0.0
 10
13.31892099999995
 20
19.49281300000021
 30
0.0
 10
13.31016099999996
 20
19.58001533333353
 30
0.0
 10
13.30140099999996
 20
19.66721766666686
 30
0.0
 10
13.28388099999997
 20
19.84162233333352
 30
0.0
 10
13.27512099999997
 20
19.92882466666687
 30
0.0
 10
13.26636099999997
 20
20.01602700000021
 30
0.0
 10
13.2544603333333
 20
20.10283933333354
 30
0.0
 10
13.24255966666664
 20
20.18965166666687
 30
0.0
 10
13.23065899999997
 20
20.2764640000002
 30
0.0
 10
13.21783533333329
 20
20.3631620000002
 30
0.0
 10
13.20501166666662
 20
20.4498600000002
 30
0.0
 10
13.19218799999994
 20
20.53655800000021
 30
0.0
 10
13.17786299999996
 20
20.62299366666686
 30
0.0
 10
13.16353799999998
 20
20.70942933333351
 30
0.0
 10
13.149213
 20
20.79586500000016
 30
0.0
 10
13.13188
 20
20.8817753333335
 30
0.0
 10
13.11454699999999
 20
20.96768566666683
 30
0.0
 10
13.07988106462179
 20
21.13950601303809
 30
0.0
 10
13.062548
 20
21.22541600000018
 30
0.0
 10
13.045215
 20
21.31132600000018
 30
0.0
 10
13.02402366666665
 20
21.39635466666685
 30
0.0
 10
13.0028323333333
 20
21.48138333333351
 30
0.0
 10
12.98164099999995
 20
21.56641200000018
 30
0.0
 10
12.95970233333329
 20
21.6512560000002
 30
0.0
 10
12.93776366666663
 20
21.73610000000021
 30
0.0
 10
12.91582499999997
 20
21.82094400000024
 30
0.0
 10
12.8895333333333
 20
21.90454866666687
 30
0.0
 10
12.86324166666664
 20
21.98815333333351
 30
0.0
 10
12.83694999999997
 20
22.07175800000016
 30
0.0
 10
12.80943999999996
 20
22.15493666666684
 30
0.0
 10
12.78192999999995
 20
22.23811533333351
 30
0.0
 10
12.75441999999994
 20
22.32129400000019
 30
0.0
 10
12.72288799999995
 20
22.40306633333351
 30
0.0
 10
12.69135599999996
 20
22.48483866666684
 30
0.0
 10
12.65982399999997
 20
22.56661100000016
 30
0.0
 10
12.6262333333333
 20
22.64750800000017
 30
0.0
 10
12.59264266666663
 20
22.72840500000017
 30
0.0
 10
12.55905199999996
 20
22.80930200000018
 30
0.0
 10
12.52202799999996
 20
22.88873866666684
 30
0.0
 10
12.48500399999996
 20
22.9681753333335
 30
0.0
 10
12.44797999999996
 20
23.04761200000016
 30
0.0
 10
12.4072193333333
 20
23.12511200000017
 30
0.0
 10
12.36645866666665
 20
23.20261200000019
 30
0.0
 10
12.32569799999999
 20
23.2801120000002
 30
0.0
 10
12.28212433333331
 20
23.35615333333354
 30
0.0
 10
12.23855066666664
 20
23.43219466666687
 30
0.0
 10
12.19497699999996
 20
23.50823600000021
 30
0.0
 10
12.14558666666663
 20
23.58055333333353
 30
0.0
 10
12.0961963333333
 20
23.65287066666685
 30
0.0
 10
12.04680599999997
 20
23.72518800000017
 30
0.0
 10
11.99597899999998
 20
23.79658566666684
 30
0.0
 10
11.94515199999998
 20
23.8679833333335
 30
0.0
 10
11.89432499999999
 20
23.93938100000017
 30
0.0
  0
INSERT
  5
293
330
1F
100
AcDbEntity
  8
12
  6
Continuous
 62
     7
370
    25
100
AcDbBlockReference
  2
ASSORTED_DRAFT1
 10
0.0
 20
0.0
 30
0.0
  0
INSERT
  5
29E
330
1F
100
AcDbEntity
  8
2
  6
Continuous
 62
     7
370
    25
100
AcDbBlockReference
  2
ASSORTED_DRAFT2
 10
0.0
 20
0.0
 30
0.0
  0
INSERT
  5
2A8
330
1F
100
AcDbEntity
  8
2
  6
Continuous
 62
     7
370
    25
100
AcDbBlockReference
  2
ASSORTED_DRAFT3
 10
0.0
 20
0.0
 30
0.0
  0
MTEXT
  5
2AB
330
1F
100
AcDbEntity
  8
16
  6
Continuous
 62
     5
370
    13
100
AcDbMText
 10
-29.013584
 20
-61.379517
 30
0.0
 40
3.5
 41
0.0
 71
     7
 72
     5
  1
\W1.1273;C5-CRSNL35060-1203ID\P 
  7
Arial Unicode MS
 73
     1
 44
1.0
  0
VIEWPORT
  5
2C0
330
2BD
100
AcDbEntity
 67
     1
  8
0
370
    18
100
AcDbViewport
 10
180.289965
 20
107.846817
 30
0.0
 40
360.579931
 41
215.693633
 68
     1
 69
     1
 12
180.289965
 22
107.846817
 13
0.0
 23
0.0
 14
1.0
 24
1.0
 15
1.0
 25
1.0
 16
0.0
 26
0.0
 36
1.0
 17
0.0
 27
0.0
 37
0.0
 42
48.643692
 43
0.0
 44
0.0
 45
215.693633
 50
0.0
 51
0.0
 72
   100
331
6F
 90
   557152
  1

281
     0
 71
     1
 74
     0
110
0.0
120
0.0
130
0.0
111
1.0
121
0.0
131
0.0
112
0.0
122
1.0
132
0.0
 79
     0
146
0.0
170
     0
  0
VIEWPORT
  5
2C1
330
2BD
100
AcDbEntity
 67
     1
  8
0
370
    18
100
AcDbViewport
 10
148.5
 20
105.0
 30
0.0
 40
297.0
 41
210.0
 68
     2
 69
     2
 12
0.321216
 22
-0.051985
 13
0.0
 23
0.0
 14
1.0
 24
1.0
 15
1.0
 25
1.0
 16
0.0
 26
0.0
 36
1.0
 17
0.0
 27
0.0
 37
0.0
 42
48.643692
 43
0.0
 44
0.0
 45
210.0
 50
0.0
 51
0.0
 72
   100
 90
   557152
  1

281
     0
 71
     1
 74
     0
110
0.0
120
0.0
130
0.0
111
1.0
121
0.0
131
0.0
112
0.0
122
1.0
132
0.0
 79
     0
146
0.0
170
     0
  0
ENDSEC
  0
SECTION
  2
OBJECTS
  0
DICTIONARY
  5
C
330
0
100
AcDbDictionary
281
     1
  3
ACAD_DETAILVIEWSTYLE
350
311
  3
ACAD_GROUP
350
D
  3
ACAD_LAYOUT
350
1A
  3
ACAD_MATERIAL
350
43
  3
ACAD_MLEADERSTYLE
350
310
  3
ACAD_MLINESTYLE
350
17
  3
ACAD_PLOTSETTINGS
350
19
  3
ACAD_PLOTSTYLENAME
350
E
  3
ACAD_SCALELIST
350
47
  3
ACAD_SECTIONVIEWSTYLE
350
312
  3
ACAD_TABLESTYLE
350
30F
  3
ACAD_VISUALSTYLE
350
2A
  3
AcDbVariableDictionary
350
2D6
  0
DICTIONARY
  5
311
102
{ACAD_REACTORS
330
C
102
}
330
C
100
AcDbDictionary
281
     1
  0
DICTIONARY
  5
D
102
{ACAD_REACTORS
330
C
102
}
330
C
100
AcDbDictionary
281
     1
  0
DICTIONARY
  5
1A
102
{ACAD_REACTORS
330
C
102
}
330
C
100
AcDbDictionary
281
     1
  3
Layout3
350
2C2
  3
Model
350
22
  0
DICTIONARY
  5
43
102
{ACAD_REACTORS
330
C
102
}
330
C
100
AcDbDictionary
281
     1
  3
ByBlock
350
45
  3
ByLayer
350
44
  3
Global
350
46
  0
DICTIONARY
  5
310
102
{ACAD_REACTORS
330
C
102
}
330
C
100
AcDbDictionary
281
     1
  0
DICTIONARY
  5
17
102
{ACAD_REACTORS
330
C
102
}
330
C
100
AcDbDictionary
281
     1
  3
Standard
350
18
  0
DICTIONARY
  5
19
102
{ACAD_REACTORS
330
C
102
}
330
C
100
AcDbDictionary
281
     1
  0
ACDBDICTIONARYWDFLT
  5
E
102
{ACAD_REACTORS
330
C
102
}
330
C
100
AcDbDictionary
281
     1
  3
Normal
350
F
100
AcDbDictionaryWithDefault
340
F
  0
DICTIONARY
  5
47
102
{ACAD_REACTORS
330
C
102
}
330
C
100
AcDbDictionary
281
     1
  3
A0
350
48
  3
A1
350
49
  3
A2
350
4A
  3
A3
350
4B
  3
A4
350
4C
  3
A5
350
4D
  3
A6
350
4E
  3
A7
350
4F
  3
A8
350
50
  3
A9
350
51
  3
B0
350
52
  3
B1
350
53
  3
B2
350
54
  3
B3
350
55
  3
B4
350
56
  3
B5
350
57
  3
B6
350
58
  3
B7
350
59
  3
B8
350
5A
  3
B9
350
5B
  3
C0
350
5C
  3
C1
350
5D
  3
C2
350
5E
  3
C3
350
5F
  3
C4
350
60
  3
C5
350
61
  3
C6
350
62
  3
C7
350
63
  3
C8
350
64
  3
C9
350
65
  3
D0
350
66
  3
D1
350
67
  3
D2
350
68
  0
DICTIONARY
  5
312
102
{ACAD_REACTORS
330
C
102
}
330
C
100
AcDbDictionary
281
     1
  0
DICTIONARY
  5
30F
102
{ACAD_REACTORS
330
C
102
}
330
C
100
AcDbDictionary
281
     1
  0
DICTIONARY
  5
2A
102
{ACAD_REACTORS
330
C
102
}
330
C
100
AcDbDictionary
281
     1
  3
2dWireframe
350
2F
  3
Basic
350
32
  3
Brighten
350
36
  3
ColorChange
350
3A
  3
Conceptual
350
34
  3
Dim
350
35
  3
EdgeColorOff
350
3D
  3
Facepattern
350
39
  3
Flat
350
2B
  3
FlatWithEdges
350
2C
  3
Gouraud
350
2D
  3
GouraudWithEdges
350
2E
  3
Hidden
350
31
  3
JitterOff
350
3B
  3
Linepattern
350
38
  3
OverhangOff
350
3C
  3
Realistic
350
33
  3
Shaded
350
42
  3
Shaded with edges
350
41
  3
Shades of Gray
350
3E
  3
Sketchy
350
3F
  3
Thicken
350
37
  3
Wireframe
350
30
  3
X-Ray
350
40
  0
DICTIONARY
  5
2D6
102
{ACAD_REACTORS
330
C
102
}
330
C
100
AcDbDictionary
281
     1
  3
CANNOSCALE
350
2D7
  3
MSLTSCALE
350
2D8
  0
LAYOUT
  5
2C2
102
{ACAD_REACTORS
330
1A
102
}
330
1A
100
AcDbPlotSettings
  1

  2
none_device
  4
ISO_A3_(420.00_x_297.00_MM)
  6

 40
7.5
 41
20.0
 42
7.5
 43
20.0
 44
420.0
 45
297.0
 46
0.0
 47
0.0
 48
0.0
 49
0.0
140
400.579931
141
255.693633
142
1.0
143
1.0
 70
   692
 72
     1
 73
     0
 74
     1
  7

 75
     0
 76
     0
 77
     2
 78
   300
147
1.0
148
0.0
149
0.0
100
AcDbLayout
  1
Layout3
 70
     1
 71
     1
 10
0.0
 20
0.0
 11
360.579931
 21
215.693633
 12
0.0
 22
0.0
 32
0.0
 14
0.0
 24
0.0
 34
0.0
 15
360.579931
 25
215.693633
 35
0.0
146
0.0
 13
0.0
 23
0.0
 33
0.0
 16
1.0
 26
0.0
 36
0.0
 17
0.0
 27
1.0
 37
0.0
 76
     0
330
2BD
331
2C0
  0
LAYOUT
  5
22
102
{ACAD_REACTORS
330
1A
102
}
330
1A
100
AcDbPlotSettings
  1

  2
none_device
  4
Letter_(8.50_x_11.00_Inches)
  6

 40
6.35
 41
6.35
 42
6.350005
 43
6.350005
 44
215.9
 45
279.4
 46
0.0
 47
0.0
 48
0.0
 49
0.0
140
0.0
141
0.0
142
1.0
143
1.0
 70
  1712
 72
     0
 73
     0
 74
     0
  7

 75
     0
 76
     0
 77
     2
 78
   300
147
1.0
148
0.0
149
0.0
100
AcDbLayout
  1
Model
 70
     1
 71
     0
 10
-0.5
 20
-0.5
 11
5.0
 21
5.0
 12
0.0
 22
0.0
 32
0.0
 14
-0.5
 24
-0.5
 34
-0.5
 15
5.0
 25
5.0
 35
5.0
146
0.0
 13
0.0
 23
0.0
 33
0.0
 16
1.0
 26
0.0
 36
0.0
 17
0.0
 27
1.0
 37
0.0
 76
     0
330
1F
331
2C4
  0
MATERIAL
  5
45
102
{ACAD_REACTORS
330
43
102
}
102
{ACAD_XDICTIONARY
360
30B
102
}
330
43
100
AcDbMaterial
  1
ByBlock
  0
MATERIAL
  5
44
102
{ACAD_REACTORS
330
43
102
}
102
{ACAD_XDICTIONARY
360
309
102
}
330
43
100
AcDbMaterial
  1
ByLayer
  0
MATERIAL
  5
46
102
{ACAD_REACTORS
330
43
102
}
102
{ACAD_XDICTIONARY
360
30D
102
}
330
43
100
AcDbMaterial
  1
Global
  0
MLINESTYLE
  5
18
102
{ACAD_REACTORS
330
17
102
}
330
17
100
AcDbMlineStyle
  2
Standard
 70
     0
  3

 62
   256
 51
90.0
 52
90.0
 71
     2
 49
0.5
 62
   256
  6
BYLAYER
 49
-0.5
 62
   256
  6
BYLAYER
  0
ACDBPLACEHOLDER
  5
F
102
{ACAD_REACTORS
330
E
102
}
330
E
  0
SCALE
  5
48
102
{ACAD_REACTORS
330
47
102
}
330
47
100
AcDbScale
 70
     0
300
1:1
140
1.0
141
1.0
290
     1
  0
SCALE
  5
49
102
{ACAD_REACTORS
330
47
102
}
330
47
100
AcDbScale
 70
     0
300
1:2
140
1.0
141
2.0
290
     0
  0
SCALE
  5
4A
102
{ACAD_REACTORS
330
47
102
}
330
47
100
AcDbScale
 70
     0
300
1:4
140
1.0
141
4.0
290
     0
  0
SCALE
  5
4B
102
{ACAD_REACTORS
330
47
102
}
330
47
100
AcDbScale
 70
     0
300
1:5
140
1.0
141
5.0
290
     0
  0
SCALE
  5
4C
102
{ACAD_REACTORS
330
47
102
}
330
47
100
AcDbScale
 70
     0
300
1:8
140
1.0
141
8.0
290
     0
  0
SCALE
  5
4D
102
{ACAD_REACTORS
330
47
102
}
330
47
100
AcDbScale
 70
     0
300
1:10
140
1.0
141
10.0
290
     0
  0
SCALE
  5
4E
102
{ACAD_REACTORS
330
47
102
}
330
47
100
AcDbScale
 70
     0
300
1:16
140
1.0
141
16.0
290
     0
  0
SCALE
  5
4F
102
{ACAD_REACTORS
330
47
102
}
330
47
100
AcDbScale
 70
     0
300
1:20
140
1.0
141
20.0
290
     0
  0
SCALE
  5
50
102
{ACAD_REACTORS
330
47
102
}
330
47
100
AcDbScale
 70
     0
300
1:30
140
1.0
141
30.0
290
     0
  0
SCALE
  5
51
102
{ACAD_REACTORS
330
47
102
}
330
47
100
AcDbScale
 70
     0
300
1:40
140
1.0
141
40.0
290
     0
  0
SCALE
  5
52
102
{ACAD_REACTORS
330
47
102
}
330
47
100
AcDbScale
 70
     0
300
1:50
140
1.0
141
50.0
290
     0
  0
SCALE
  5
53
102
{ACAD_REACTORS
330
47
102
}
330
47
100
AcDbScale
 70
     0
300
1:100
140
1.0
141
100.0
290
     0
  0
SCALE
  5
54
102
{ACAD_REACTORS
330
47
102
}
330
47
100
AcDbScale
 70
     0
300
2:1
140
2.0
141
1.0
290
     0
  0
SCALE
  5
55
102
{ACAD_REACTORS
330
47
102
}
330
47
100
AcDbScale
 70
     0
300
4:1
140
4.0
141
1.0
290
     0
  0
SCALE
  5
56
102
{ACAD_REACTORS
330
47
102
}
330
47
100
AcDbScale
 70
     0
300
8:1
140
8.0
141
1.0
290
     0
  0
SCALE
  5
57
102
{ACAD_REACTORS
330
47
102
}
330
47
100
AcDbScale
 70
     0
300
10:1
140
10.0
141
1.0
290
     0
  0
SCALE
  5
58
102
{ACAD_REACTORS
330
47
102
}
330
47
100
AcDbScale
 70
     0
300
100:1
140
100.0
141
1.0
290
     0
  0
SCALE
  5
59
102
{ACAD_REACTORS
330
47
102
}
330
47
100
AcDbScale
 70
     0
300
1/128" = 1'-0"
140
0.007812
141
12.0
290
     0
  0
SCALE
  5
5A
102
{ACAD_REACTORS
330
47
102
}
330
47
100
AcDbScale
 70
     0
300
1/64" = 1'-0"
140
0.015625
141
12.0
290
     0
  0
SCALE
  5
5B
102
{ACAD_REACTORS
330
47
102
}
330
47
100
AcDbScale
 70
     0
300
1/32" = 1'-0"
140
0.03125
141
12.0
290
     0
  0
SCALE
  5
5C
102
{ACAD_REACTORS
330
47
102
}
330
47
100
AcDbScale
 70
     0
300
1/16" = 1'-0"
140
0.0625
141
12.0
290
     0
  0
SCALE
  5
5D
102
{ACAD_REACTORS
330
47
102
}
330
47
100
AcDbScale
 70
     0
300
3/32" = 1'-0"
140
0.09375
141
12.0
290
     0
  0
SCALE
  5
5E
102
{ACAD_REACTORS
330
47
102
}
330
47
100
AcDbScale
 70
     0
300
1/8" = 1'-0"
140
0.125
141
12.0
290
     0
  0
SCALE
  5
5F
102
{ACAD_REACTORS
330
47
102
}
330
47
100
AcDbScale
 70
     0
300
3/16" = 1'-0"
140
0.1875
141
12.0
290
     0
  0
SCALE
  5
60
102
{ACAD_REACTORS
330
47
102
}
330
47
100
AcDbScale
 70
     0
300
1/4" = 1'-0"
140
0.25
141
12.0
290
     0
  0
SCALE
  5
61
102
{ACAD_REACTORS
330
47
102
}
330
47
100
AcDbScale
 70
     0
300
3/8" = 1'-0"
140
0.375
141
12.0
290
     0
  0
SCALE
  5
62
102
{ACAD_REACTORS
330
47
102
}
330
47
100
AcDbScale
 70
     0
300
1/2" = 1'-0"
140
0.5
141
12.0
290
     0
  0
SCALE
  5
63
102
{ACAD_REACTORS
330
47
102
}
330
47
100
AcDbScale
 70
     0
300
3/4" = 1'-0"
140
0.75
141
12.0
290
     0
  0
SCALE
  5
64
102
{ACAD_REACTORS
330
47
102
}
330
47
100
AcDbScale
 70
     0
300
1" = 1'-0"
140
1.0
141
12.0
290
     0
  0
SCALE
  5
65
102
{ACAD_REACTORS
330
47
102
}
330
47
100
AcDbScale
 70
     0
300
1-1/2" = 1'-0"
140
1.5
141
12.0
290
     0
  0
SCALE
  5
66
102
{ACAD_REACTORS
330
47
102
}
330
47
100
AcDbScale
 70
     0
300
3" = 1'-0"
140
3.0
141
12.0
290
     0
  0
SCALE
  5
67
102
{ACAD_REACTORS
330
47
102
}
330
47
100
AcDbScale
 70
     0
300
6" = 1'-0"
140
6.0
141
12.0
290
     0
  0
SCALE
  5
68
102
{ACAD_REACTORS
330
47
102
}
330
47
100
AcDbScale
 70
     0
300
1'-0" = 1'-0"
140
12.0
141
12.0
290
     0
  0
VISUALSTYLE
  5
2F
102
{ACAD_REACTORS
330
2A
102
}
102
{ACAD_XDICTIONARY
360
2E1
102
}
330
2A
100
AcDbVisualStyle
  2
2dWireframe
 70
     4
 71
     0
 72
     2
 73
     0
 90
        0
 40
0.6
 41
30.0
 62
     5
 63
     7
421
 16777215
 74
     1
 91
        4
 64
     7
 65
   257
 75
     1
175
     1
 42
1.0
 92
        0
 66
   257
 43
1.0
 76
     1
 77
     6
 78
     2
 67
     7
 79
     5
170
     0
171
     0
290
     0
174
     0
 93
        1
 44
0.0
173
     0
291
     0
 45
0.0
1001
ACAD
1000
AcDbSavedByObjectVersion
1070
     0
  0
VISUALSTYLE
  5
32
102
{ACAD_REACTORS
330
2A
102
}
102
{ACAD_XDICTIONARY
360
2E7
102
}
330
2A
100
AcDbVisualStyle
  2
Basic
 70
     7
 71
     1
 72
     0
 73
     1
 90
        0
 40
0.6
 41
30.0
 62
     5
 63
     7
421
 16777215
 74
     0
 91
        4
 64
     7
 65
   257
 75
     1
175
     1
 42
1.0
 92
        8
 66
     7
 43
1.0
 76
     1
 77
     6
 78
     2
 67
     7
 79
     5
170
     0
171
     0
290
     0
174
     0
 93
        1
 44
0.0
173
     0
291
     1
 45
0.0
1001
ACAD
1000
AcDbSavedByObjectVersion
1070
     0
  0
VISUALSTYLE
  5
36
102
{ACAD_REACTORS
330
2A
102
}
102
{ACAD_XDICTIONARY
360
2EF
102
}
330
2A
100
AcDbVisualStyle
  2
Brighten
 70
    12
 71
     2
 72
     2
 73
     0
 90
        0
 40
0.6
 41
30.0
 62
     5
 63
     7
421
 16777215
 74
     1
 91
        4
 64
     7
 65
   257
 75
     1
175
     1
 42
1.0
 92
        8
 66
     7
 43
1.0
 76
     1
 77
     6
 78
     2
 67
     7
 79
     5
170
     0
171
     0
290
     0
174
     0
 93
        1
 44
50.0
173
     0
291
     1
 45
0.0
1001
ACAD
1000
AcDbSavedByObjectVersion
1070
     0
  0
VISUALSTYLE
  5
3A
102
{ACAD_REACTORS
330
2A
102
}
102
{ACAD_XDICTIONARY
360
2F7
102
}
330
2A
100
AcDbVisualStyle
  2
ColorChange
 70
    16
 71
     2
 72
     2
 73
     3
 90
        0
 40
0.6
 41
30.0
 62
     5
 63
     8
421
  8421504
 74
     1
 91
        4
 64
     7
 65
   257
 75
     1
175
     1
 42
1.0
 92
        8
 66
     8
424
  8421504
 43
1.0
 76
     1
 77
     6
 78
     2
 67
     7
 79
     5
170
     0
171
     0
290
     0
174
     0
 93
        1
 44
0.0
173
     0
291
     1
 45
0.0
1001
ACAD
1000
AcDbSavedByObjectVersion
1070
     0
  0
VISUALSTYLE
  5
34
102
{ACAD_REACTORS
330
2A
102
}
102
{ACAD_XDICTIONARY
360
2EB
102
}
330
2A
100
AcDbVisualStyle
  2
Conceptual
 70
     9
 71
     3
 72
     2
 73
     0
 90
        0
 40
0.6
 41
30.0
 62
     5
 63
     7
421
 16777215
 74
     2
 91
        2
 64
     7
 65
   257
 75
     1
175
     1
 42
179.0
 92
        8
 66
     7
 43
1.0
 76
     1
 77
     6
 78
     2
 67
     7
 79
     3
170
     0
171
     0
290
     0
174
     0
 93
        1
 44
0.0
173
     0
291
     0
 45
0.0
1001
ACAD
1000
AcDbSavedByObjectVersion
1070
     0
  0
VISUALSTYLE
  5
35
102
{ACAD_REACTORS
330
2A
102
}
102
{ACAD_XDICTIONARY
360
2ED
102
}
330
2A
100
AcDbVisualStyle
  2
Dim
 70
    11
 71
     2
 72
     2
 73
     0
 90
        0
 40
0.6
 41
30.0
 62
     5
 63
     7
421
 16777215
 74
     1
 91
        4
 64
     7
 65
   257
 75
     1
175
     1
 42
1.0
 92
        8
 66
     7
 43
1.0
 76
     1
 77
     6
 78
     2
 67
     7
 79
     5
170
     0
171
     0
290
     0
174
     0
 93
        1
 44
-50.0
173
     0
291
     1
 45
0.0
1001
ACAD
1000
AcDbSavedByObjectVersion
1070
     0
  0
VISUALSTYLE
  5
3D
102
{ACAD_REACTORS
330
2A
102
}
102
{ACAD_XDICTIONARY
360
2FD
102
}
330
2A
100
AcDbVisualStyle
  2
EdgeColorOff
 70
    22
 71
     2
 72
     2
 73
     0
 90
        0
 40
0.6
 41
30.0
 62
     5
 63
     7
421
 16777215
 74
     1
 91
        4
 64
     7
 65
   257
 75
     1
175
     1
 42
1.0
 92
        8
 66
     7
 43
1.0
 76
     1
 77
     6
 78
     2
 67
     7
 79
     5
170
     0
171
     0
290
     0
174
     0
 93
        1
 44
0.0
173
     0
291
     1
 45
0.0
1001
ACAD
1000
AcDbSavedByObjectVersion
1070
     0
  0
VISUALSTYLE
  5
39
102
{ACAD_REACTORS
330
2A
102
}
102
{ACAD_XDICTIONARY
360
2F5
102
}
330
2A
100
AcDbVisualStyle
  2
Facepattern
 70
    15
 71
     2
 72
     2
 73
     0
 90
        0
 40
0.6
 41
30.0
 62
     5
 63
     7
421
 16777215
 74
     1
 91
        4
 64
     7
 65
   257
 75
     1
175
     1
 42
1.0
 92
        8
 66
     7
 43
1.0
 76
     1
 77
     6
 78
     2
 67
     7
 79
     5
170
     0
171
     0
290
     0
174
     0
 93
        1
 44
0.0
173
     0
291
     1
 45
0.0
1001
ACAD
1000
AcDbSavedByObjectVersion
1070
     0
  0
VISUALSTYLE
  5
2B
102
{ACAD_REACTORS
330
2A
102
}
102
{ACAD_XDICTIONARY
360
2D9
102
}
330
2A
100
AcDbVisualStyle
  2
Flat
 70
     0
 71
     2
 72
     1
 73
     1
 90
        2
 40
0.6
 41
30.0
 62
     5
 63
     7
421
 16777215
 74
     0
 91
        0
 64
     7
 65
   257
 75
     1
175
     1
 42
1.0
 92
        8
 66
     7
 43
1.0
 76
     1
 77
     6
 78
     2
 67
     7
 79
     5
170
     0
171
     0
290
     0
174
     0
 93
       13
 44
0.0
173
     0
291
     1
 45
0.0
1001
ACAD
1000
AcDbSavedByObjectVersion
1070
     0
  0
VISUALSTYLE
  5
2C
102
{ACAD_REACTORS
330
2A
102
}
102
{ACAD_XDICTIONARY
360
2DB
102
}
330
2A
100
AcDbVisualStyle
  2
FlatWithEdges
 70
     1
 71
     2
 72
     1
 73
     1
 90
        2
 40
0.6
 41
30.0
 62
     5
 63
     7
421
 16777215
 74
     1
 91
        0
 64
     7
 65
   257
 75
     1
175
     1
 42
1.0
 92
        0
 66
   257
 43
1.0
 76
     1
 77
     6
 78
     2
 67
     7
 79
     5
170
     0
171
     0
290
     0
174
     0
 93
       13
 44
0.0
173
     0
291
     1
 45
0.0
1001
ACAD
1000
AcDbSavedByObjectVersion
1070
     0
  0
VISUALSTYLE
  5
2D
102
{ACAD_REACTORS
330
2A
102
}
102
{ACAD_XDICTIONARY
360
2DD
102
}
330
2A
100
AcDbVisualStyle
  2
Gouraud
 70
     2
 71
     2
 72
     2
 73
     1
 90
        2
 40
0.6
 41
30.0
 62
     5
 63
     7
421
 16777215
 74
     0
 91
        0
 64
     7
 65
   257
 75
     1
175
     1
 42
1.0
 92
        0
 66
     7
 43
1.0
 76
     1
 77
     6
 78
     2
 67
     7
 79
     5
170
     0
171
     0
290
     0
174
     0
 93
       13
 44
0.0
173
     0
291
     1
 45
0.0
1001
ACAD
1000
AcDbSavedByObjectVersion
1070
     0
  0
VISUALSTYLE
  5
2E
102
{ACAD_REACTORS
330
2A
102
}
102
{ACAD_XDICTIONARY
360
2DF
102
}
330
2A
100
AcDbVisualStyle
  2
GouraudWithEdges
 70
     3
 71
     2
 72
     2
 73
     1
 90
        2
 40
0.6
 41
30.0
 62
     5
 63
     7
421
 16777215
 74
     1
 91
        0
 64
     7
 65
   257
 75
     1
175
     1
 42
1.0
 92
        0
 66
   257
 43
1.0
 76
     1
 77
     6
 78
     2
 67
     7
 79
     5
170
     0
171
     0
290
     0
174
     0
 93
       13
 44
0.0
173
     0
291
     1
 45
0.0
1001
ACAD
1000
AcDbSavedByObjectVersion
1070
     0
  0
VISUALSTYLE
  5
31
102
{ACAD_REACTORS
330
2A
102
}
102
{ACAD_XDICTIONARY
360
2E5
102
}
330
2A
100
AcDbVisualStyle
  2
Hidden
 70
     6
 71
     1
 72
     2
 73
     2
 90
        0
 40
0.6
 41
30.0
 62
     5
 63
     7
421
 16777215
 74
     2
 91
        2
 64
     7
 65
   257
 75
     2
175
     1
 42
40.0
 92
        0
 66
   257
 43
1.0
 76
     1
 77
     6
 78
     2
 67
     7
 79
     3
170
     0
171
     0
290
     0
174
     0
 93
        1
 44
0.0
173
     0
291
     0
 45
0.0
1001
ACAD
1000
AcDbSavedByObjectVersion
1070
     0
  0
VISUALSTYLE
  5
3B
102
{ACAD_REACTORS
330
2A
102
}
102
{ACAD_XDICTIONARY
360
2F9
102
}
330
2A
100
AcDbVisualStyle
  2
JitterOff
 70
    20
 71
     2
 72
     2
 73
     0
 90
        0
 40
0.6
 41
30.0
 62
     5
 63
     7
421
 16777215
 74
     1
 91
        4
 64
     7
 65
   257
 75
     1
175
     1
 42
1.0
 92
       10
 66
     7
 43
1.0
 76
     1
 77
     6
 78
     2
 67
     7
 79
     5
170
     0
171
     0
290
     0
174
     0
 93
        1
 44
0.0
173
     0
291
     1
 45
0.0
1001
ACAD
1000
AcDbSavedByObjectVersion
1070
     0
  0
VISUALSTYLE
  5
38
102
{ACAD_REACTORS
330
2A
102
}
102
{ACAD_XDICTIONARY
360
2F3
102
}
330
2A
100
AcDbVisualStyle
  2
Linepattern
 70
    14
 71
     2
 72
     2
 73
     0
 90
        0
 40
0.6
 41
30.0
 62
     5
 63
     7
421
 16777215
 74
     1
 91
        4
 64
     7
 65
   257
 75
     7
175
     7
 42
1.0
 92
        8
 66
     7
 43
1.0
 76
     1
 77
     6
 78
     2
 67
     7
 79
     5
170
     0
171
     0
290
     0
174
     0
 93
        1
 44
0.0
173
     0
291
     1
 45
0.0
1001
ACAD
1000
AcDbSavedByObjectVersion
1070
     0
  0
VISUALSTYLE
  5
3C
102
{ACAD_REACTORS
330
2A
102
}
102
{ACAD_XDICTIONARY
360
2FB
102
}
330
2A
100
AcDbVisualStyle
  2
OverhangOff
 70
    21
 71
     2
 72
     2
 73
     0
 90
        0
 40
0.6
 41
30.0
 62
     5
 63
     7
421
 16777215
 74
     1
 91
        4
 64
     7
 65
   257
 75
     1
175
     1
 42
1.0
 92
        9
 66
     7
 43
1.0
 76
     1
 77
     6
 78
     2
 67
     7
 79
     5
170
     0
171
     0
290
     0
174
     0
 93
        1
 44
0.0
173
     0
291
     1
 45
0.0
1001
ACAD
1000
AcDbSavedByObjectVersion
1070
     0
  0
VISUALSTYLE
  5
33
102
{ACAD_REACTORS
330
2A
102
}
102
{ACAD_XDICTIONARY
360
2E9
102
}
330
2A
100
AcDbVisualStyle
  2
Realistic
 70
     8
 71
     2
 72
     3
 73
     0
 90
        2
 40
0.6
 41
30.0
 62
     5
 63
     7
421
 16777215
 74
     0
 91
        0
 64
     7
 65
   257
 75
     1
175
     1
 42
1.0
 92
        8
 66
   257
 43
1.0
 76
     1
 77
     6
 78
     2
 67
     7
 79
     3
170
     0
171
     0
290
     0
174
     0
 93
       13
 44
0.0
173
     0
291
     0
 45
0.0
1001
ACAD
1000
AcDbSavedByObjectVersion
1070
     0
  0
VISUALSTYLE
  5
42
102
{ACAD_REACTORS
330
2A
102
}
102
{ACAD_XDICTIONARY
360
307
102
}
330
2A
100
AcDbVisualStyle
  2
Shaded
 70
    27
 71
     2
 72
     2
 73
     1
 90
        2
 40
0.6
 41
30.0
 62
     5
 63
     7
421
 16777215
 74
     0
 91
        4
 64
     7
 65
   257
 75
     1
175
     1
 42
1.0
 92
        8
 66
   257
 43
1.0
 76
     1
 77
     6
 78
     2
 67
     8
425
  7895160
 79
     3
170
     0
171
     0
290
     0
174
     0
 93
        5
 44
0.0
173
     0
291
     0
 45
0.0
1001
ACAD
1000
AcDbSavedByObjectVersion
1070
     0
  0
VISUALSTYLE
  5
41
102
{ACAD_REACTORS
330
2A
102
}
102
{ACAD_XDICTIONARY
360
305
102
}
330
2A
100
AcDbVisualStyle
  2
Shaded with edges
 70
    26
 71
     2
 72
     2
 73
     1
 90
        2
 40
0.6
 41
30.0
 62
     5
 63
     7
421
 16777215
 74
     1
 91
       10
 64
     7
 65
   257
 75
     2
175
     1
 42
1.0
 92
        8
 66
   257
 43
1.0
 76
     1
 77
     6
 78
     2
 67
     7
 79
     3
170
     0
171
     0
290
     0
174
     0
 93
        5
 44
0.0
173
     0
291
     0
 45
0.0
1001
ACAD
1000
AcDbSavedByObjectVersion
1070
     0
  0
VISUALSTYLE
  5
3E
102
{ACAD_REACTORS
330
2A
102
}
102
{ACAD_XDICTIONARY
360
2FF
102
}
330
2A
100
AcDbVisualStyle
  2
Shades of Gray
 70
    23
 71
     2
 72
     2
 73
     3
 90
        0
 40
0.6
 41
30.0
 62
     5
 63
     7
421
 16777215
 74
     2
 91
        2
 64
     7
 65
     7
 75
     1
175
     1
 42
40.0
 92
        8
 66
     7
 43
1.0
 76
     1
 77
     6
 78
     2
 67
     7
 79
     3
170
     0
171
     0
290
     0
174
     0
 93
        1
 44
0.0
173
     0
291
     0
 45
0.0
1001
ACAD
1000
AcDbSavedByObjectVersion
1070
     0
  0
VISUALSTYLE
  5
3F
102
{ACAD_REACTORS
330
2A
102
}
102
{ACAD_XDICTIONARY
360
301
102
}
330
2A
100
AcDbVisualStyle
  2
Sketchy
 70
    24
 71
     1
 72
     2
 73
     2
 90
        0
 40
0.6
 41
30.0
 62
     5
 63
     7
421
 16777215
 74
     2
 91
        2
 64
     7
 65
     7
 75
     1
175
     1
 42
40.0
 92
       11
 66
     7
 43
1.0
 76
     1
 77
     6
 78
     2
 67
     7
 79
     6
170
     0
171
     0
290
     0
174
     0
 93
        1
 44
0.0
173
     0
291
     0
 45
0.0
1001
ACAD
1000
AcDbSavedByObjectVersion
1070
     0
  0
VISUALSTYLE
  5
37
102
{ACAD_REACTORS
330
2A
102
}
102
{ACAD_XDICTIONARY
360
2F1
102
}
330
2A
100
AcDbVisualStyle
  2
Thicken
 70
    13
 71
     2
 72
     2
 73
     0
 90
        0
 40
0.6
 41
30.0
 62
     5
 63
     7
421
 16777215
 74
     1
 91
        4
 64
     7
 65
   257
 75
     1
175
     1
 42
1.0
 92
       12
 66
     7
 43
1.0
 76
     1
 77
     6
 78
     2
 67
     7
 79
     5
170
     0
171
     0
290
     0
174
     0
 93
        1
 44
0.0
173
     0
291
     1
 45
0.0
1001
ACAD
1000
AcDbSavedByObjectVersion
1070
     0
  0
VISUALSTYLE
  5
30
102
{ACAD_REACTORS
330
2A
102
}
102
{ACAD_XDICTIONARY
360
2E3
102
}
330
2A
100
AcDbVisualStyle
  2
Wireframe
 70
     5
 71
     0
 72
     2
 73
     0
 90
        0
 40
0.6
 41
30.0
 62
     5
 63
     7
421
 16777215
 74
     1
 91
        4
 64
     7
 65
   257
 75
     1
175
     1
 42
1.0
 92
        0
 66
   257
 43
1.0
 76
     1
 77
     6
 78
     2
 67
     7
 79
     3
170
     0
171
     0
290
     0
174
     0
 93
        1
 44
0.0
173
     0
291
     0
 45
0.0
1001
ACAD
1000
AcDbSavedByObjectVersion
1070
     0
  0
VISUALSTYLE
  5
40
102
{ACAD_REACTORS
330
2A
102
}
102
{ACAD_XDICTIONARY
360
303
102
}
330
2A
100
AcDbVisualStyle
  2
X-Ray
 70
    25
 71
     2
 72
     2
 73
     1
 90
        1
 40
0.5
 41
30.0
 62
     5
 63
     7
421
 16777215
 74
     1
 91
        0
 64
     7
 65
   257
 75
     1
175
     1
 42
1.0
 92
        8
 66
     7
 43
1.0
 76
     1
 77
     6
 78
     2
 67
     7
 79
     3
170
     0
171
     0
290
     0
174
     0
 93
       13
 44
0.0
173
     0
291
     0
 45
0.0
1001
ACAD
1000
AcDbSavedByObjectVersion
1070
     0
  0
DICTIONARYVAR
  5
2D7
102
{ACAD_REACTORS
330
2D6
102
}
330
2D6
100
DictionaryVariables
280
     0
  1
1:1
  0
DICTIONARYVAR
  5
2D8
102
{ACAD_REACTORS
330
2D6
102
}
330
2D6
100
DictionaryVariables
280
     0
  1
1
  0
DICTIONARY
  5
30B
330
45
100
AcDbDictionary
280
     1
281
     1
  3
ACAD_XREC_ROUNDTRIP
360
30C
  0
DICTIONARY
  5
309
330
44
100
AcDbDictionary
280
     1
281
     1
  3
ACAD_XREC_ROUNDTRIP
360
30A
  0
DICTIONARY
  5
30D
330
46
100
AcDbDictionary
280
     1
281
     1
  3
ACAD_XREC_ROUNDTRIP
360
30E
  0
DICTIONARY
  5
2E1
330
2F
100
AcDbDictionary
280
     1
281
     1
  3
ACAD_XREC_ROUNDTRIP
360
2E2
  0
DICTIONARY
  5
2E7
330
32
100
AcDbDictionary
280
     1
281
     1
  3
ACAD_XREC_ROUNDTRIP
360
2E8
  0
DICTIONARY
  5
2EF
330
36
100
AcDbDictionary
280
     1
281
     1
  3
ACAD_XREC_ROUNDTRIP
360
2F0
  0
DICTIONARY
  5
2F7
330
3A
100
AcDbDictionary
280
     1
281
     1
  3
ACAD_XREC_ROUNDTRIP
360
2F8
  0
DICTIONARY
  5
2EB
330
34
100
AcDbDictionary
280
     1
281
     1
  3
ACAD_XREC_ROUNDTRIP
360
2EC
  0
DICTIONARY
  5
2ED
330
35
100
AcDbDictionary
280
     1
281
     1
  3
ACAD_XREC_ROUNDTRIP
360
2EE
  0
DICTIONARY
  5
2FD
330
3D
100
AcDbDictionary
280
     1
281
     1
  3
ACAD_XREC_ROUNDTRIP
360
2FE
  0
DICTIONARY
  5
2F5
330
39
100
AcDbDictionary
280
     1
281
     1
  3
ACAD_XREC_ROUNDTRIP
360
2F6
  0
DICTIONARY
  5
2D9
330
2B
100
AcDbDictionary
280
     1
281
     1
  3
ACAD_XREC_ROUNDTRIP
360
2DA
  0
DICTIONARY
  5
2DB
330
2C
100
AcDbDictionary
280
     1
281
     1
  3
ACAD_XREC_ROUNDTRIP
360
2DC
  0
DICTIONARY
  5
2DD
330
2D
100
AcDbDictionary
280
     1
281
     1
  3
ACAD_XREC_ROUNDTRIP
360
2DE
  0
DICTIONARY
  5
2DF
330
2E
100
AcDbDictionary
280
     1
281
     1
  3
ACAD_XREC_ROUNDTRIP
360
2E0
  0
DICTIONARY
  5
2E5
330
31
100
AcDbDictionary
280
     1
281
     1
  3
ACAD_XREC_ROUNDTRIP
360
2E6
  0
DICTIONARY
  5
2F9
330
3B
100
AcDbDictionary
280
     1
281
     1
  3
ACAD_XREC_ROUNDTRIP
360
2FA
  0
DICTIONARY
  5
2F3
330
38
100
AcDbDictionary
280
     1
281
     1
  3
ACAD_XREC_ROUNDTRIP
360
2F4
  0
DICTIONARY
  5
2FB
330
3C
100
AcDbDictionary
280
     1
281
     1
  3
ACAD_XREC_ROUNDTRIP
360
2FC
  0
DICTIONARY
  5
2E9
330
33
100
AcDbDictionary
280
     1
281
     1
  3
ACAD_XREC_ROUNDTRIP
360
2EA
  0
DICTIONARY
  5
307
330
42
100
AcDbDictionary
280
     1
281
     1
  3
ACAD_XREC_ROUNDTRIP
360
308
  0
DICTIONARY
  5
305
330
41
100
AcDbDictionary
280
     1
281
     1
  3
ACAD_XREC_ROUNDTRIP
360
306
  0
DICTIONARY
  5
2FF
330
3E
100
AcDbDictionary
280
     1
281
     1
  3
ACAD_XREC_ROUNDTRIP
360
300
  0
DICTIONARY
  5
301
330
3F
100
AcDbDictionary
280
     1
281
     1
  3
ACAD_XREC_ROUNDTRIP
360
302
  0
DICTIONARY
  5
2F1
330
37
100
AcDbDictionary
280
     1
281
     1
  3
ACAD_XREC_ROUNDTRIP
360
2F2
  0
DICTIONARY
  5
2E3
330
30
100
AcDbDictionary
280
     1
281
     1
  3
ACAD_XREC_ROUNDTRIP
360
2E4
  0
DICTIONARY
  5
303
330
40
100
AcDbDictionary
280
     1
281
     1
  3
ACAD_XREC_ROUNDTRIP
360
304
  0
XRECORD
  5
30C
102
{ACAD_REACTORS
330
30B
102
}
330
30B
100
AcDbXrecord
280
     1
102
MATERIAL
148
0.0
149
0.0
149
0.0
 93
        0
 94
      127
282
     0
 72
     1
 77
     1
171
     1
175
     1
179
     1
273
     0
  0
XRECORD
  5
30A
102
{ACAD_REACTORS
330
309
102
}
330
309
100
AcDbXrecord
280
     1
102
MATERIAL
148
0.0
149
0.0
149
0.0
 93
        0
 94
      127
282
     0
 72
     1
 77
     1
171
     1
175
     1
179
     1
273
     0
  0
XRECORD
  5
30E
102
{ACAD_REACTORS
330
30D
102
}
330
30D
100
AcDbXrecord
280
     1
102
MATERIAL
148
0.0
149
0.0
149
0.0
 93
        0
 94
      127
282
     0
 72
     1
 77
     1
171
     1
175
     1
179
     1
273
     0
  0
XRECORD
  5
2E2
102
{ACAD_REACTORS
330
2E1
102
}
330
2E1
100
AcDbXrecord
280
     1
102
RTVSPropertyOp0
 70
     1
102
RTVSPropertyOp1
 70
     1
102
RTVSPropertyOp2
 70
     1
102
RTVSPropertyOp3
 70
     1
102
RTVSPropertyOp4
 70
     1
102
RTVSPropertyOp5
 70
     1
102
RTVSPropertyOp6
 70
     1
102
RTVSPropertyOp7
 70
     1
102
RTVSPropertyOp8
 70
     1
102
RTVSPropertyOp9
 70
     1
102
RTVSPropertyOp10
 70
     1
102
RTVSPropertyOp11
 70
     1
102
RTVSPropertyOp12
 70
     1
102
RTVSPropertyOp13
 70
     1
102
RTVSPropertyOp14
 70
     1
102
RTVSPropertyOp15
 70
     1
102
RTVSPropertyOp16
 70
     1
102
RTVSPropertyOp17
 70
     1
102
RTVSPropertyOp18
 70
     1
102
RTVSPropertyOp19
 70
     1
102
RTVSPropertyOp20
 70
     1
102
RTVSPropertyOp21
 70
     1
102
RTVSPropertyOp22
 70
     1
102
RTVSPropertyOp23
 70
     1
102
RTVSPropertyOp24
 70
     1
102
RTVSPropertyOp25
 70
     1
102
RTVSPropertyOp26
 70
     1
102
RTVSPropertyOp27
 70
     1
102
RTVSPropertyOp28
 70
     1
102
RTVSPropertyOp29
 70
     1
102
RTVSPropertyOp30
 70
     1
102
RTVSPropertyOp31
 70
     1
102
RTVSPropertyOp32
 70
     1
102
RTVSPropertyOp33
 70
     1
102
RTVSPropertyOp34
 70
     1
102
RTVSPropertyOp35
 70
     1
102
RTVSPropertyOp36
 70
     1
102
RTVSPropertyOp37
 70
     1
102
RTVSPropertyOp38
 70
     1
102
RTVSPropertyOp39
 70
     1
102
RTVSPropertyOp40
 70
     1
102
RTVSPropertyOp41
 70
     1
102
RTVSPropertyOp42
 70
     1
102
RTVSPropertyOp43
 70
     1
102
RTVSPropertyOp44
 70
     1
102
RTVSPropertyOp45
 70
     1
102
RTVSPropertyOp46
 70
     1
102
RTVSPropertyOp47
 70
     1
102
RTVSPropertyOp48
 70
     1
102
RTVSPropertyOp49
 70
     1
102
RTVSPropertyOp50
 70
     1
102
RTVSPropertyOp51
 70
     0
102
RTVSPropertyOp52
 70
     0
102
RTVSPropertyOp53
 70
     1
102
RTVSPropertyOp54
 70
     1
102
RTVSPropertyOp55
 70
     1
102
RTVSPropertyOp56
 70
     1
102
RTVSPropertyOp57
 70
     1
102
RTVSPost2010Prop28
280
     1
102
RTVSPost2010PropOp28
 70
     1
102
RTVSPost2010Prop29
280
     1
102
RTVSPost2010PropOp29
 70
     1
102
RTVSPost2010Prop30
280
     0
102
RTVSPost2010PropOp30
 70
     1
102
RTVSPost2010Prop31
280
     0
102
RTVSPost2010PropOp31
 70
     1
102
RTVSPost2010Prop32
280
     0
102
RTVSPost2010PropOp32
 70
     1
102
RTVSPost2010Prop33
280
     0
102
RTVSPost2010PropOp33
 70
     1
102
RTVSPost2010Prop34
280
     0
102
RTVSPost2010PropOp34
 70
     1
102
RTVSPost2010Prop35
280
     0
102
RTVSPost2010PropOp35
 70
     1
102
RTVSPost2010Prop36
280
     0
102
RTVSPost2010PropOp36
 70
     1
102
RTVSPost2010Prop37
 90
       50
102
RTVSPost2010PropOp37
 70
     1
102
RTVSPost2010Prop38
140
0.0
102
RTVSPost2010PropOp38
 70
     1
102
RTVSPost2010Prop39
140
1.0
102
RTVSPost2010PropOp39
 70
     1
102
RTVSPost2010Prop40
 90
        0
102
RTVSPost2010PropOp40
 70
     1
102
RTVSPost2010Prop41ColorIndex
 90
       18
102
RTVSPost2010Prop41ColorRGB
 90
        0
102
RTVSPost2010PropOp41
 70
     1
102
RTVSPost2010Prop42
 90
       50
102
RTVSPost2010PropOp42
 70
     1
102
RTVSPost2010Prop43
 90
        3
102
RTVSPost2010PropOp43
 70
     1
102
RTVSPost2010Prop44ColorIndex
 90
        5
102
RTVSPost2010Prop44ColorRGB
 90
      255
102
RTVSPost2010PropOp44
 70
     1
102
RTVSPost2010Prop45
280
     0
102
RTVSPost2010PropOp45
 70
     1
102
RTVSPost2010Prop46
 90
       50
102
RTVSPost2010PropOp46
 70
     1
102
RTVSPost2010Prop47
 90
       50
102
RTVSPost2010PropOp47
 70
     1
102
RTVSPost2010Prop48
 90
       50
102
RTVSPost2010PropOp48
 70
     1
102
RTVSPost2010Prop49
280
     0
102
RTVSPost2010PropOp49
 70
     1
102
RTVSPost2010Prop50
 90
       50
102
RTVSPost2010PropOp50
 70
     1
102
RTVSPost2010Prop51ColorIndex
 90
      256
102
RTVSPost2010Prop51ColorRGB
 90
-16777216
102
RTVSPost2010PropOp51
 70
     0
102
RTVSPost2010Prop52
140
1.0
102
RTVSPost2010PropOp52
 70
     0
102
RTVSPost2010Prop53
 90
        2
102
RTVSPost2010PropOp53
 70
     1
102
RTVSPost2010Prop54
  1
strokes_ogs.tif
102
RTVSPost2010PropOp54
 70
     1
102
RTVSPost2010Prop55
280
     0
102
RTVSPost2010PropOp55
 70
     1
102
RTVSPost2010Prop56
140
1.0
102
RTVSPost2010PropOp56
 70
     1
102
RTVSPost2010Prop57
140
1.0
102
RTVSPost2010PropOp57
 70
     1
  0
XRECORD
  5
2E8
102
{ACAD_REACTORS
330
2E7
102
}
330
2E7
100
AcDbXrecord
280
     1
102
RTVSPropertyOp0
 70
     1
102
RTVSPropertyOp1
 70
     1
102
RTVSPropertyOp2
 70
     1
102
RTVSPropertyOp3
 70
     1
102
RTVSPropertyOp4
 70
     1
102
RTVSPropertyOp5
 70
     1
102
RTVSPropertyOp6
 70
     1
102
RTVSPropertyOp7
 70
     1
102
RTVSPropertyOp8
 70
     1
102
RTVSPropertyOp9
 70
     1
102
RTVSPropertyOp10
 70
     1
102
RTVSPropertyOp11
 70
     1
102
RTVSPropertyOp12
 70
     1
102
RTVSPropertyOp13
 70
     1
102
RTVSPropertyOp14
 70
     1
102
RTVSPropertyOp15
 70
     1
102
RTVSPropertyOp16
 70
     1
102
RTVSPropertyOp17
 70
     1
102
RTVSPropertyOp18
 70
     1
102
RTVSPropertyOp19
 70
     1
102
RTVSPropertyOp20
 70
     1
102
RTVSPropertyOp21
 70
     1
102
RTVSPropertyOp22
 70
     1
102
RTVSPropertyOp23
 70
     1
102
RTVSPropertyOp24
 70
     1
102
RTVSPropertyOp25
 70
     1
102
RTVSPropertyOp26
 70
     1
102
RTVSPropertyOp27
 70
     1
102
RTVSPropertyOp28
 70
     1
102
RTVSPropertyOp29
 70
     1
102
RTVSPropertyOp30
 70
     1
102
RTVSPropertyOp31
 70
     1
102
RTVSPropertyOp32
 70
     1
102
RTVSPropertyOp33
 70
     1
102
RTVSPropertyOp34
 70
     1
102
RTVSPropertyOp35
 70
     1
102
RTVSPropertyOp36
 70
     1
102
RTVSPropertyOp37
 70
     1
102
RTVSPropertyOp38
 70
     1
102
RTVSPropertyOp39
 70
     1
102
RTVSPropertyOp40
 70
     1
102
RTVSPropertyOp41
 70
     1
102
RTVSPropertyOp42
 70
     1
102
RTVSPropertyOp43
 70
     1
102
RTVSPropertyOp44
 70
     1
102
RTVSPropertyOp45
 70
     1
102
RTVSPropertyOp46
 70
     1
102
RTVSPropertyOp47
 70
     1
102
RTVSPropertyOp48
 70
     1
102
RTVSPropertyOp49
 70
     1
102
RTVSPropertyOp50
 70
     1
102
RTVSPropertyOp51
 70
     0
102
RTVSPropertyOp52
 70
     0
102
RTVSPropertyOp53
 70
     1
102
RTVSPropertyOp54
 70
     1
102
RTVSPropertyOp55
 70
     1
102
RTVSPropertyOp56
 70
     1
102
RTVSPropertyOp57
 70
     1
102
RTVSPost2010Prop28
280
     0
102
RTVSPost2010PropOp28
 70
     1
102
RTVSPost2010Prop29
280
     1
102
RTVSPost2010PropOp29
 70
     1
102
RTVSPost2010Prop30
280
     1
102
RTVSPost2010PropOp30
 70
     1
102
RTVSPost2010Prop31
280
     0
102
RTVSPost2010PropOp31
 70
     1
102
RTVSPost2010Prop32
280
     0
102
RTVSPost2010PropOp32
 70
     1
102
RTVSPost2010Prop33
280
     0
102
RTVSPost2010PropOp33
 70
     1
102
RTVSPost2010Prop34
280
     0
102
RTVSPost2010PropOp34
 70
     1
102
RTVSPost2010Prop35
280
     0
102
RTVSPost2010PropOp35
 70
     1
102
RTVSPost2010Prop36
280
     0
102
RTVSPost2010PropOp36
 70
     1
102
RTVSPost2010Prop37
 90
       50
102
RTVSPost2010PropOp37
 70
     1
102
RTVSPost2010Prop38
140
0.0
102
RTVSPost2010PropOp38
 70
     1
102
RTVSPost2010Prop39
140
1.0
102
RTVSPost2010PropOp39
 70
     1
102
RTVSPost2010Prop40
 90
        0
102
RTVSPost2010PropOp40
 70
     1
102
RTVSPost2010Prop41ColorIndex
 90
       18
102
RTVSPost2010Prop41ColorRGB
 90
        0
102
RTVSPost2010PropOp41
 70
     1
102
RTVSPost2010Prop42
 90
       50
102
RTVSPost2010PropOp42
 70
     1
102
RTVSPost2010Prop43
 90
        3
102
RTVSPost2010PropOp43
 70
     1
102
RTVSPost2010Prop44ColorIndex
 90
        5
102
RTVSPost2010Prop44ColorRGB
 90
      255
102
RTVSPost2010PropOp44
 70
     1
102
RTVSPost2010Prop45
280
     0
102
RTVSPost2010PropOp45
 70
     1
102
RTVSPost2010Prop46
 90
       50
102
RTVSPost2010PropOp46
 70
     1
102
RTVSPost2010Prop47
 90
       50
102
RTVSPost2010PropOp47
 70
     1
102
RTVSPost2010Prop48
 90
       50
102
RTVSPost2010PropOp48
 70
     1
102
RTVSPost2010Prop49
280
     0
102
RTVSPost2010PropOp49
 70
     1
102
RTVSPost2010Prop50
 90
       50
102
RTVSPost2010PropOp50
 70
     1
102
RTVSPost2010Prop51ColorIndex
 90
      256
102
RTVSPost2010Prop51ColorRGB
 90
-16777216
102
RTVSPost2010PropOp51
 70
     0
102
RTVSPost2010Prop52
140
1.0
102
RTVSPost2010PropOp52
 70
     0
102
RTVSPost2010Prop53
 90
        2
102
RTVSPost2010PropOp53
 70
     1
102
RTVSPost2010Prop54
  1
strokes_ogs.tif
102
RTVSPost2010PropOp54
 70
     1
102
RTVSPost2010Prop55
280
     0
102
RTVSPost2010PropOp55
 70
     1
102
RTVSPost2010Prop56
140
1.0
102
RTVSPost2010PropOp56
 70
     1
102
RTVSPost2010Prop57
140
1.0
102
RTVSPost2010PropOp57
 70
     1
  0
XRECORD
  5
2F0
102
{ACAD_REACTORS
330
2EF
102
}
330
2EF
100
AcDbXrecord
280
     1
102
RTVSPropertyOp0
 70
     1
102
RTVSPropertyOp1
 70
     1
102
RTVSPropertyOp2
 70
     1
102
RTVSPropertyOp3
 70
     1
102
RTVSPropertyOp4
 70
     1
102
RTVSPropertyOp5
 70
     1
102
RTVSPropertyOp6
 70
     1
102
RTVSPropertyOp7
 70
     1
102
RTVSPropertyOp8
 70
     1
102
RTVSPropertyOp9
 70
     1
102
RTVSPropertyOp10
 70
     1
102
RTVSPropertyOp11
 70
     1
102
RTVSPropertyOp12
 70
     1
102
RTVSPropertyOp13
 70
     1
102
RTVSPropertyOp14
 70
     1
102
RTVSPropertyOp15
 70
     1
102
RTVSPropertyOp16
 70
     1
102
RTVSPropertyOp17
 70
     1
102
RTVSPropertyOp18
 70
     1
102
RTVSPropertyOp19
 70
     1
102
RTVSPropertyOp20
 70
     1
102
RTVSPropertyOp21
 70
     1
102
RTVSPropertyOp22
 70
     1
102
RTVSPropertyOp23
 70
     1
102
RTVSPropertyOp24
 70
     1
102
RTVSPropertyOp25
 70
     1
102
RTVSPropertyOp26
 70
     1
102
RTVSPropertyOp27
 70
     1
102
RTVSPropertyOp28
 70
     1
102
RTVSPropertyOp29
 70
     1
102
RTVSPropertyOp30
 70
     1
102
RTVSPropertyOp31
 70
     1
102
RTVSPropertyOp32
 70
     1
102
RTVSPropertyOp33
 70
     1
102
RTVSPropertyOp34
 70
     1
102
RTVSPropertyOp35
 70
     1
102
RTVSPropertyOp36
 70
     1
102
RTVSPropertyOp37
 70
     1
102
RTVSPropertyOp38
 70
     1
102
RTVSPropertyOp39
 70
     1
102
RTVSPropertyOp40
 70
     1
102
RTVSPropertyOp41
 70
     1
102
RTVSPropertyOp42
 70
     1
102
RTVSPropertyOp43
 70
     1
102
RTVSPropertyOp44
 70
     1
102
RTVSPropertyOp45
 70
     1
102
RTVSPropertyOp46
 70
     1
102
RTVSPropertyOp47
 70
     1
102
RTVSPropertyOp48
 70
     1
102
RTVSPropertyOp49
 70
     1
102
RTVSPropertyOp50
 70
     1
102
RTVSPropertyOp51
 70
     0
102
RTVSPropertyOp52
 70
     0
102
RTVSPropertyOp53
 70
     1
102
RTVSPropertyOp54
 70
     1
102
RTVSPropertyOp55
 70
     1
102
RTVSPropertyOp56
 70
     1
102
RTVSPropertyOp57
 70
     1
102
RTVSPost2010Prop28
280
     0
102
RTVSPost2010PropOp28
 70
     1
102
RTVSPost2010Prop29
280
     1
102
RTVSPost2010PropOp29
 70
     1
102
RTVSPost2010Prop30
280
     1
102
RTVSPost2010PropOp30
 70
     1
102
RTVSPost2010Prop31
280
     0
102
RTVSPost2010PropOp31
 70
     1
102
RTVSPost2010Prop32
280
     0
102
RTVSPost2010PropOp32
 70
     1
102
RTVSPost2010Prop33
280
     0
102
RTVSPost2010PropOp33
 70
     1
102
RTVSPost2010Prop34
280
     0
102
RTVSPost2010PropOp34
 70
     1
102
RTVSPost2010Prop35
280
     0
102
RTVSPost2010PropOp35
 70
     1
102
RTVSPost2010Prop36
280
     0
102
RTVSPost2010PropOp36
 70
     1
102
RTVSPost2010Prop37
 90
       50
102
RTVSPost2010PropOp37
 70
     1
102
RTVSPost2010Prop38
140
0.0
102
RTVSPost2010PropOp38
 70
     1
102
RTVSPost2010Prop39
140
1.0
102
RTVSPost2010PropOp39
 70
     1
102
RTVSPost2010Prop40
 90
        0
102
RTVSPost2010PropOp40
 70
     1
102
RTVSPost2010Prop41ColorIndex
 90
       18
102
RTVSPost2010Prop41ColorRGB
 90
        0
102
RTVSPost2010PropOp41
 70
     1
102
RTVSPost2010Prop42
 90
       50
102
RTVSPost2010PropOp42
 70
     1
102
RTVSPost2010Prop43
 90
        3
102
RTVSPost2010PropOp43
 70
     1
102
RTVSPost2010Prop44ColorIndex
 90
        5
102
RTVSPost2010Prop44ColorRGB
 90
      255
102
RTVSPost2010PropOp44
 70
     1
102
RTVSPost2010Prop45
280
     0
102
RTVSPost2010PropOp45
 70
     1
102
RTVSPost2010Prop46
 90
       50
102
RTVSPost2010PropOp46
 70
     1
102
RTVSPost2010Prop47
 90
       50
102
RTVSPost2010PropOp47
 70
     1
102
RTVSPost2010Prop48
 90
       50
102
RTVSPost2010PropOp48
 70
     1
102
RTVSPost2010Prop49
280
     0
102
RTVSPost2010PropOp49
 70
     1
102
RTVSPost2010Prop50
 90
       50
102
RTVSPost2010PropOp50
 70
     1
102
RTVSPost2010Prop51ColorIndex
 90
      256
102
RTVSPost2010Prop51ColorRGB
 90
-16777216
102
RTVSPost2010PropOp51
 70
     0
102
RTVSPost2010Prop52
140
1.0
102
RTVSPost2010PropOp52
 70
     0
102
RTVSPost2010Prop53
 90
        2
102
RTVSPost2010PropOp53
 70
     1
102
RTVSPost2010Prop54
  1
strokes_ogs.tif
102
RTVSPost2010PropOp54
 70
     1
102
RTVSPost2010Prop55
280
     0
102
RTVSPost2010PropOp55
 70
     1
102
RTVSPost2010Prop56
140
1.0
102
RTVSPost2010PropOp56
 70
     1
102
RTVSPost2010Prop57
140
1.0
102
RTVSPost2010PropOp57
 70
     1
  0
XRECORD
  5
2F8
102
{ACAD_REACTORS
330
2F7
102
}
330
2F7
100
AcDbXrecord
280
     1
102
RTVSPropertyOp0
 70
     1
102
RTVSPropertyOp1
 70
     1
102
RTVSPropertyOp2
 70
     1
102
RTVSPropertyOp3
 70
     1
102
RTVSPropertyOp4
 70
     1
102
RTVSPropertyOp5
 70
     1
102
RTVSPropertyOp6
 70
     1
102
RTVSPropertyOp7
 70
     1
102
RTVSPropertyOp8
 70
     1
102
RTVSPropertyOp9
 70
     1
102
RTVSPropertyOp10
 70
     1
102
RTVSPropertyOp11
 70
     1
102
RTVSPropertyOp12
 70
     1
102
RTVSPropertyOp13
 70
     1
102
RTVSPropertyOp14
 70
     1
102
RTVSPropertyOp15
 70
     1
102
RTVSPropertyOp16
 70
     1
102
RTVSPropertyOp17
 70
     1
102
RTVSPropertyOp18
 70
     1
102
RTVSPropertyOp19
 70
     1
102
RTVSPropertyOp20
 70
     1
102
RTVSPropertyOp21
 70
     1
102
RTVSPropertyOp22
 70
     1
102
RTVSPropertyOp23
 70
     1
102
RTVSPropertyOp24
 70
     1
102
RTVSPropertyOp25
 70
     1
102
RTVSPropertyOp26
 70
     1
102
RTVSPropertyOp27
 70
     1
102
RTVSPropertyOp28
 70
     1
102
RTVSPropertyOp29
 70
     1
102
RTVSPropertyOp30
 70
     1
102
RTVSPropertyOp31
 70
     1
102
RTVSPropertyOp32
 70
     1
102
RTVSPropertyOp33
 70
     1
102
RTVSPropertyOp34
 70
     1
102
RTVSPropertyOp35
 70
     1
102
RTVSPropertyOp36
 70
     1
102
RTVSPropertyOp37
 70
     1
102
RTVSPropertyOp38
 70
     1
102
RTVSPropertyOp39
 70
     1
102
RTVSPropertyOp40
 70
     1
102
RTVSPropertyOp41
 70
     1
102
RTVSPropertyOp42
 70
     1
102
RTVSPropertyOp43
 70
     1
102
RTVSPropertyOp44
 70
     1
102
RTVSPropertyOp45
 70
     1
102
RTVSPropertyOp46
 70
     1
102
RTVSPropertyOp47
 70
     1
102
RTVSPropertyOp48
 70
     1
102
RTVSPropertyOp49
 70
     1
102
RTVSPropertyOp50
 70
     1
102
RTVSPropertyOp51
 70
     0
102
RTVSPropertyOp52
 70
     0
102
RTVSPropertyOp53
 70
     1
102
RTVSPropertyOp54
 70
     1
102
RTVSPropertyOp55
 70
     1
102
RTVSPropertyOp56
 70
     1
102
RTVSPropertyOp57
 70
     1
102
RTVSPost2010Prop28
280
     0
102
RTVSPost2010PropOp28
 70
     1
102
RTVSPost2010Prop29
280
     1
102
RTVSPost2010PropOp29
 70
     1
102
RTVSPost2010Prop30
280
     1
102
RTVSPost2010PropOp30
 70
     1
102
RTVSPost2010Prop31
280
     0
102
RTVSPost2010PropOp31
 70
     1
102
RTVSPost2010Prop32
280
     0
102
RTVSPost2010PropOp32
 70
     1
102
RTVSPost2010Prop33
280
     0
102
RTVSPost2010PropOp33
 70
     1
102
RTVSPost2010Prop34
280
     0
102
RTVSPost2010PropOp34
 70
     1
102
RTVSPost2010Prop35
280
     0
102
RTVSPost2010PropOp35
 70
     1
102
RTVSPost2010Prop36
280
     0
102
RTVSPost2010PropOp36
 70
     1
102
RTVSPost2010Prop37
 90
       50
102
RTVSPost2010PropOp37
 70
     1
102
RTVSPost2010Prop38
140
0.0
102
RTVSPost2010PropOp38
 70
     1
102
RTVSPost2010Prop39
140
1.0
102
RTVSPost2010PropOp39
 70
     1
102
RTVSPost2010Prop40
 90
        0
102
RTVSPost2010PropOp40
 70
     1
102
RTVSPost2010Prop41ColorIndex
 90
       18
102
RTVSPost2010Prop41ColorRGB
 90
        0
102
RTVSPost2010PropOp41
 70
     1
102
RTVSPost2010Prop42
 90
       50
102
RTVSPost2010PropOp42
 70
     1
102
RTVSPost2010Prop43
 90
        3
102
RTVSPost2010PropOp43
 70
     1
102
RTVSPost2010Prop44ColorIndex
 90
        5
102
RTVSPost2010Prop44ColorRGB
 90
      255
102
RTVSPost2010PropOp44
 70
     1
102
RTVSPost2010Prop45
280
     0
102
RTVSPost2010PropOp45
 70
     1
102
RTVSPost2010Prop46
 90
       50
102
RTVSPost2010PropOp46
 70
     1
102
RTVSPost2010Prop47
 90
       50
102
RTVSPost2010PropOp47
 70
     1
102
RTVSPost2010Prop48
 90
       50
102
RTVSPost2010PropOp48
 70
     1
102
RTVSPost2010Prop49
280
     0
102
RTVSPost2010PropOp49
 70
     1
102
RTVSPost2010Prop50
 90
       50
102
RTVSPost2010PropOp50
 70
     1
102
RTVSPost2010Prop51ColorIndex
 90
      256
102
RTVSPost2010Prop51ColorRGB
 90
-16777216
102
RTVSPost2010PropOp51
 70
     0
102
RTVSPost2010Prop52
140
1.0
102
RTVSPost2010PropOp52
 70
     0
102
RTVSPost2010Prop53
 90
        2
102
RTVSPost2010PropOp53
 70
     1
102
RTVSPost2010Prop54
  1
strokes_ogs.tif
102
RTVSPost2010PropOp54
 70
     1
102
RTVSPost2010Prop55
280
     0
102
RTVSPost2010PropOp55
 70
     1
102
RTVSPost2010Prop56
140
1.0
102
RTVSPost2010PropOp56
 70
     1
102
RTVSPost2010Prop57
140
1.0
102
RTVSPost2010PropOp57
 70
     1
  0
XRECORD
  5
2EC
102
{ACAD_REACTORS
330
2EB
102
}
330
2EB
100
AcDbXrecord
280
     1
102
RTVSPropertyOp0
 70
     1
102
RTVSPropertyOp1
 70
     1
102
RTVSPropertyOp2
 70
     1
102
RTVSPropertyOp3
 70
     1
102
RTVSPropertyOp4
 70
     1
102
RTVSPropertyOp5
 70
     1
102
RTVSPropertyOp6
 70
     1
102
RTVSPropertyOp7
 70
     1
102
RTVSPropertyOp8
 70
     1
102
RTVSPropertyOp9
 70
     1
102
RTVSPropertyOp10
 70
     1
102
RTVSPropertyOp11
 70
     1
102
RTVSPropertyOp12
 70
     1
102
RTVSPropertyOp13
 70
     1
102
RTVSPropertyOp14
 70
     1
102
RTVSPropertyOp15
 70
     1
102
RTVSPropertyOp16
 70
     1
102
RTVSPropertyOp17
 70
     1
102
RTVSPropertyOp18
 70
     1
102
RTVSPropertyOp19
 70
     1
102
RTVSPropertyOp20
 70
     1
102
RTVSPropertyOp21
 70
     1
102
RTVSPropertyOp22
 70
     1
102
RTVSPropertyOp23
 70
     1
102
RTVSPropertyOp24
 70
     1
102
RTVSPropertyOp25
 70
     1
102
RTVSPropertyOp26
 70
     1
102
RTVSPropertyOp27
 70
     1
102
RTVSPropertyOp28
 70
     1
102
RTVSPropertyOp29
 70
     1
102
RTVSPropertyOp30
 70
     1
102
RTVSPropertyOp31
 70
     1
102
RTVSPropertyOp32
 70
     1
102
RTVSPropertyOp33
 70
     1
102
RTVSPropertyOp34
 70
     1
102
RTVSPropertyOp35
 70
     1
102
RTVSPropertyOp36
 70
     1
102
RTVSPropertyOp37
 70
     1
102
RTVSPropertyOp38
 70
     1
102
RTVSPropertyOp39
 70
     1
102
RTVSPropertyOp40
 70
     1
102
RTVSPropertyOp41
 70
     1
102
RTVSPropertyOp42
 70
     1
102
RTVSPropertyOp43
 70
     1
102
RTVSPropertyOp44
 70
     1
102
RTVSPropertyOp45
 70
     1
102
RTVSPropertyOp46
 70
     1
102
RTVSPropertyOp47
 70
     1
102
RTVSPropertyOp48
 70
     1
102
RTVSPropertyOp49
 70
     1
102
RTVSPropertyOp50
 70
     1
102
RTVSPropertyOp51
 70
     0
102
RTVSPropertyOp52
 70
     0
102
RTVSPropertyOp53
 70
     1
102
RTVSPropertyOp54
 70
     1
102
RTVSPropertyOp55
 70
     1
102
RTVSPropertyOp56
 70
     1
102
RTVSPropertyOp57
 70
     1
102
RTVSPost2010Prop28
280
     0
102
RTVSPost2010PropOp28
 70
     1
102
RTVSPost2010Prop29
280
     1
102
RTVSPost2010PropOp29
 70
     1
102
RTVSPost2010Prop30
280
     1
102
RTVSPost2010PropOp30
 70
     1
102
RTVSPost2010Prop31
280
     0
102
RTVSPost2010PropOp31
 70
     1
102
RTVSPost2010Prop32
280
     0
102
RTVSPost2010PropOp32
 70
     1
102
RTVSPost2010Prop33
280
     0
102
RTVSPost2010PropOp33
 70
     1
102
RTVSPost2010Prop34
280
     0
102
RTVSPost2010PropOp34
 70
     1
102
RTVSPost2010Prop35
280
     0
102
RTVSPost2010PropOp35
 70
     1
102
RTVSPost2010Prop36
280
     0
102
RTVSPost2010PropOp36
 70
     1
102
RTVSPost2010Prop37
 90
       50
102
RTVSPost2010PropOp37
 70
     1
102
RTVSPost2010Prop38
140
0.0
102
RTVSPost2010PropOp38
 70
     1
102
RTVSPost2010Prop39
140
1.0
102
RTVSPost2010PropOp39
 70
     1
102
RTVSPost2010Prop40
 90
        0
102
RTVSPost2010PropOp40
 70
     1
102
RTVSPost2010Prop41ColorIndex
 90
       18
102
RTVSPost2010Prop41ColorRGB
 90
        0
102
RTVSPost2010PropOp41
 70
     1
102
RTVSPost2010Prop42
 90
       50
102
RTVSPost2010PropOp42
 70
     1
102
RTVSPost2010Prop43
 90
        3
102
RTVSPost2010PropOp43
 70
     1
102
RTVSPost2010Prop44ColorIndex
 90
        5
102
RTVSPost2010Prop44ColorRGB
 90
      255
102
RTVSPost2010PropOp44
 70
     1
102
RTVSPost2010Prop45
280
     0
102
RTVSPost2010PropOp45
 70
     1
102
RTVSPost2010Prop46
 90
       50
102
RTVSPost2010PropOp46
 70
     1
102
RTVSPost2010Prop47
 90
       50
102
RTVSPost2010PropOp47
 70
     1
102
RTVSPost2010Prop48
 90
       50
102
RTVSPost2010PropOp48
 70
     1
102
RTVSPost2010Prop49
280
     0
102
RTVSPost2010PropOp49
 70
     1
102
RTVSPost2010Prop50
 90
       50
102
RTVSPost2010PropOp50
 70
     1
102
RTVSPost2010Prop51ColorIndex
 90
      256
102
RTVSPost2010Prop51ColorRGB
 90
-16777216
102
RTVSPost2010PropOp51
 70
     0
102
RTVSPost2010Prop52
140
1.0
102
RTVSPost2010PropOp52
 70
     0
102
RTVSPost2010Prop53
 90
        2
102
RTVSPost2010PropOp53
 70
     1
102
RTVSPost2010Prop54
  1
strokes_ogs.tif
102
RTVSPost2010PropOp54
 70
     1
102
RTVSPost2010Prop55
280
     0
102
RTVSPost2010PropOp55
 70
     1
102
RTVSPost2010Prop56
140
1.0
102
RTVSPost2010PropOp56
 70
     1
102
RTVSPost2010Prop57
140
1.0
102
RTVSPost2010PropOp57
 70
     1
  0
XRECORD
  5
2EE
102
{ACAD_REACTORS
330
2ED
102
}
330
2ED
100
AcDbXrecord
280
     1
102
RTVSPropertyOp0
 70
     1
102
RTVSPropertyOp1
 70
     1
102
RTVSPropertyOp2
 70
     1
102
RTVSPropertyOp3
 70
     1
102
RTVSPropertyOp4
 70
     1
102
RTVSPropertyOp5
 70
     1
102
RTVSPropertyOp6
 70
     1
102
RTVSPropertyOp7
 70
     1
102
RTVSPropertyOp8
 70
     1
102
RTVSPropertyOp9
 70
     1
102
RTVSPropertyOp10
 70
     1
102
RTVSPropertyOp11
 70
     1
102
RTVSPropertyOp12
 70
     1
102
RTVSPropertyOp13
 70
     1
102
RTVSPropertyOp14
 70
     1
102
RTVSPropertyOp15
 70
     1
102
RTVSPropertyOp16
 70
     1
102
RTVSPropertyOp17
 70
     1
102
RTVSPropertyOp18
 70
     1
102
RTVSPropertyOp19
 70
     1
102
RTVSPropertyOp20
 70
     1
102
RTVSPropertyOp21
 70
     1
102
RTVSPropertyOp22
 70
     1
102
RTVSPropertyOp23
 70
     1
102
RTVSPropertyOp24
 70
     1
102
RTVSPropertyOp25
 70
     1
102
RTVSPropertyOp26
 70
     1
102
RTVSPropertyOp27
 70
     1
102
RTVSPropertyOp28
 70
     1
102
RTVSPropertyOp29
 70
     1
102
RTVSPropertyOp30
 70
     1
102
RTVSPropertyOp31
 70
     1
102
RTVSPropertyOp32
 70
     1
102
RTVSPropertyOp33
 70
     1
102
RTVSPropertyOp34
 70
     1
102
RTVSPropertyOp35
 70
     1
102
RTVSPropertyOp36
 70
     1
102
RTVSPropertyOp37
 70
     1
102
RTVSPropertyOp38
 70
     1
102
RTVSPropertyOp39
 70
     1
102
RTVSPropertyOp40
 70
     1
102
RTVSPropertyOp41
 70
     1
102
RTVSPropertyOp42
 70
     1
102
RTVSPropertyOp43
 70
     1
102
RTVSPropertyOp44
 70
     1
102
RTVSPropertyOp45
 70
     1
102
RTVSPropertyOp46
 70
     1
102
RTVSPropertyOp47
 70
     1
102
RTVSPropertyOp48
 70
     1
102
RTVSPropertyOp49
 70
     1
102
RTVSPropertyOp50
 70
     1
102
RTVSPropertyOp51
 70
     0
102
RTVSPropertyOp52
 70
     0
102
RTVSPropertyOp53
 70
     1
102
RTVSPropertyOp54
 70
     1
102
RTVSPropertyOp55
 70
     1
102
RTVSPropertyOp56
 70
     1
102
RTVSPropertyOp57
 70
     1
102
RTVSPost2010Prop28
280
     0
102
RTVSPost2010PropOp28
 70
     1
102
RTVSPost2010Prop29
280
     1
102
RTVSPost2010PropOp29
 70
     1
102
RTVSPost2010Prop30
280
     1
102
RTVSPost2010PropOp30
 70
     1
102
RTVSPost2010Prop31
280
     0
102
RTVSPost2010PropOp31
 70
     1
102
RTVSPost2010Prop32
280
     0
102
RTVSPost2010PropOp32
 70
     1
102
RTVSPost2010Prop33
280
     0
102
RTVSPost2010PropOp33
 70
     1
102
RTVSPost2010Prop34
280
     0
102
RTVSPost2010PropOp34
 70
     1
102
RTVSPost2010Prop35
280
     0
102
RTVSPost2010PropOp35
 70
     1
102
RTVSPost2010Prop36
280
     0
102
RTVSPost2010PropOp36
 70
     1
102
RTVSPost2010Prop37
 90
       50
102
RTVSPost2010PropOp37
 70
     1
102
RTVSPost2010Prop38
140
0.0
102
RTVSPost2010PropOp38
 70
     1
102
RTVSPost2010Prop39
140
1.0
102
RTVSPost2010PropOp39
 70
     1
102
RTVSPost2010Prop40
 90
        0
102
RTVSPost2010PropOp40
 70
     1
102
RTVSPost2010Prop41ColorIndex
 90
       18
102
RTVSPost2010Prop41ColorRGB
 90
        0
102
RTVSPost2010PropOp41
 70
     1
102
RTVSPost2010Prop42
 90
       50
102
RTVSPost2010PropOp42
 70
     1
102
RTVSPost2010Prop43
 90
        3
102
RTVSPost2010PropOp43
 70
     1
102
RTVSPost2010Prop44ColorIndex
 90
        5
102
RTVSPost2010Prop44ColorRGB
 90
      255
102
RTVSPost2010PropOp44
 70
     1
102
RTVSPost2010Prop45
280
     0
102
RTVSPost2010PropOp45
 70
     1
102
RTVSPost2010Prop46
 90
       50
102
RTVSPost2010PropOp46
 70
     1
102
RTVSPost2010Prop47
 90
       50
102
RTVSPost2010PropOp47
 70
     1
102
RTVSPost2010Prop48
 90
       50
102
RTVSPost2010PropOp48
 70
     1
102
RTVSPost2010Prop49
280
     0
102
RTVSPost2010PropOp49
 70
     1
102
RTVSPost2010Prop50
 90
       50
102
RTVSPost2010PropOp50
 70
     1
102
RTVSPost2010Prop51ColorIndex
 90
      256
102
RTVSPost2010Prop51ColorRGB
 90
-16777216
102
RTVSPost2010PropOp51
 70
     0
102
RTVSPost2010Prop52
140
1.0
102
RTVSPost2010PropOp52
 70
     0
102
RTVSPost2010Prop53
 90
        2
102
RTVSPost2010PropOp53
 70
     1
102
RTVSPost2010Prop54
  1
strokes_ogs.tif
102
RTVSPost2010PropOp54
 70
     1
102
RTVSPost2010Prop55
280
     0
102
RTVSPost2010PropOp55
 70
     1
102
RTVSPost2010Prop56
140
1.0
102
RTVSPost2010PropOp56
 70
     1
102
RTVSPost2010Prop57
140
1.0
102
RTVSPost2010PropOp57
 70
     1
  0
XRECORD
  5
2FE
102
{ACAD_REACTORS
330
2FD
102
}
330
2FD
100
AcDbXrecord
280
     1
102
RTVSPropertyOp0
 70
     0
102
RTVSPropertyOp1
 70
     0
102
RTVSPropertyOp2
 70
     0
102
RTVSPropertyOp3
 70
     0
102
RTVSPropertyOp4
 70
     0
102
RTVSPropertyOp5
 70
     0
102
RTVSPropertyOp6
 70
     0
102
RTVSPropertyOp7
 70
     0
102
RTVSPropertyOp8
 70
     0
102
RTVSPropertyOp9
 70
     0
102
RTVSPropertyOp10
 70
     0
102
RTVSPropertyOp11
 70
     0
102
RTVSPropertyOp12
 70
     0
102
RTVSPropertyOp13
 70
     0
102
RTVSPropertyOp14
 70
     2
102
RTVSPropertyOp15
 70
     0
102
RTVSPropertyOp16
 70
     0
102
RTVSPropertyOp17
 70
     0
102
RTVSPropertyOp18
 70
     0
102
RTVSPropertyOp19
 70
     0
102
RTVSPropertyOp20
 70
     0
102
RTVSPropertyOp21
 70
     0
102
RTVSPropertyOp22
 70
     0
102
RTVSPropertyOp23
 70
     0
102
RTVSPropertyOp24
 70
     0
102
RTVSPropertyOp25
 70
     0
102
RTVSPropertyOp26
 70
     0
102
RTVSPropertyOp27
 70
     0
102
RTVSPropertyOp28
 70
     0
102
RTVSPropertyOp29
 70
     0
102
RTVSPropertyOp30
 70
     0
102
RTVSPropertyOp31
 70
     0
102
RTVSPropertyOp32
 70
     0
102
RTVSPropertyOp33
 70
     0
102
RTVSPropertyOp34
 70
     0
102
RTVSPropertyOp35
 70
     0
102
RTVSPropertyOp36
 70
     0
102
RTVSPropertyOp37
 70
     0
102
RTVSPropertyOp38
 70
     0
102
RTVSPropertyOp39
 70
     0
102
RTVSPropertyOp40
 70
     0
102
RTVSPropertyOp41
 70
     0
102
RTVSPropertyOp42
 70
     0
102
RTVSPropertyOp43
 70
     0
102
RTVSPropertyOp44
 70
     0
102
RTVSPropertyOp45
 70
     0
102
RTVSPropertyOp46
 70
     0
102
RTVSPropertyOp47
 70
     0
102
RTVSPropertyOp48
 70
     0
102
RTVSPropertyOp49
 70
     0
102
RTVSPropertyOp50
 70
     0
102
RTVSPropertyOp51
 70
     0
102
RTVSPropertyOp52
 70
     0
102
RTVSPropertyOp53
 70
     0
102
RTVSPropertyOp54
 70
     0
102
RTVSPropertyOp55
 70
     0
102
RTVSPropertyOp56
 70
     0
102
RTVSPropertyOp57
 70
     0
102
RTVSPost2010Prop28
280
     0
102
RTVSPost2010PropOp28
 70
     0
102
RTVSPost2010Prop29
280
     1
102
RTVSPost2010PropOp29
 70
     0
102
RTVSPost2010Prop30
280
     1
102
RTVSPost2010PropOp30
 70
     0
102
RTVSPost2010Prop31
280
     0
102
RTVSPost2010PropOp31
 70
     0
102
RTVSPost2010Prop32
280
     0
102
RTVSPost2010PropOp32
 70
     0
102
RTVSPost2010Prop33
280
     0
102
RTVSPost2010PropOp33
 70
     0
102
RTVSPost2010Prop34
280
     0
102
RTVSPost2010PropOp34
 70
     0
102
RTVSPost2010Prop35
280
     0
102
RTVSPost2010PropOp35
 70
     0
102
RTVSPost2010Prop36
280
     0
102
RTVSPost2010PropOp36
 70
     0
102
RTVSPost2010Prop37
 90
       50
102
RTVSPost2010PropOp37
 70
     0
102
RTVSPost2010Prop38
140
0.0
102
RTVSPost2010PropOp38
 70
     0
102
RTVSPost2010Prop39
140
1.0
102
RTVSPost2010PropOp39
 70
     0
102
RTVSPost2010Prop40
 90
        0
102
RTVSPost2010PropOp40
 70
     0
102
RTVSPost2010Prop41ColorIndex
 90
       18
102
RTVSPost2010Prop41ColorRGB
 90
        0
102
RTVSPost2010PropOp41
 70
     0
102
RTVSPost2010Prop42
 90
       50
102
RTVSPost2010PropOp42
 70
     0
102
RTVSPost2010Prop43
 90
        3
102
RTVSPost2010PropOp43
 70
     0
102
RTVSPost2010Prop44ColorIndex
 90
        5
102
RTVSPost2010Prop44ColorRGB
 90
      255
102
RTVSPost2010PropOp44
 70
     0
102
RTVSPost2010Prop45
280
     0
102
RTVSPost2010PropOp45
 70
     0
102
RTVSPost2010Prop46
 90
       50
102
RTVSPost2010PropOp46
 70
     0
102
RTVSPost2010Prop47
 90
       50
102
RTVSPost2010PropOp47
 70
     0
102
RTVSPost2010Prop48
 90
       50
102
RTVSPost2010PropOp48
 70
     0
102
RTVSPost2010Prop49
280
     0
102
RTVSPost2010PropOp49
 70
     0
102
RTVSPost2010Prop50
 90
       50
102
RTVSPost2010PropOp50
 70
     0
102
RTVSPost2010Prop51ColorIndex
 90
      256
102
RTVSPost2010Prop51ColorRGB
 90
-16777216
102
RTVSPost2010PropOp51
 70
     0
102
RTVSPost2010Prop52
140
1.0
102
RTVSPost2010PropOp52
 70
     0
102
RTVSPost2010Prop53
 90
        2
102
RTVSPost2010PropOp53
 70
     0
102
RTVSPost2010Prop54
  1
strokes_ogs.tif
102
RTVSPost2010PropOp54
 70
     0
102
RTVSPost2010Prop55
280
     0
102
RTVSPost2010PropOp55
 70
     0
102
RTVSPost2010Prop56
140
1.0
102
RTVSPost2010PropOp56
 70
     0
102
RTVSPost2010Prop57
140
1.0
102
RTVSPost2010PropOp57
 70
     0
  0
XRECORD
  5
2F6
102
{ACAD_REACTORS
330
2F5
102
}
330
2F5
100
AcDbXrecord
280
     1
102
RTVSPropertyOp0
 70
     1
102
RTVSPropertyOp1
 70
     1
102
RTVSPropertyOp2
 70
     1
102
RTVSPropertyOp3
 70
     1
102
RTVSPropertyOp4
 70
     1
102
RTVSPropertyOp5
 70
     1
102
RTVSPropertyOp6
 70
     1
102
RTVSPropertyOp7
 70
     1
102
RTVSPropertyOp8
 70
     1
102
RTVSPropertyOp9
 70
     1
102
RTVSPropertyOp10
 70
     1
102
RTVSPropertyOp11
 70
     1
102
RTVSPropertyOp12
 70
     1
102
RTVSPropertyOp13
 70
     1
102
RTVSPropertyOp14
 70
     1
102
RTVSPropertyOp15
 70
     1
102
RTVSPropertyOp16
 70
     1
102
RTVSPropertyOp17
 70
     1
102
RTVSPropertyOp18
 70
     1
102
RTVSPropertyOp19
 70
     1
102
RTVSPropertyOp20
 70
     1
102
RTVSPropertyOp21
 70
     1
102
RTVSPropertyOp22
 70
     1
102
RTVSPropertyOp23
 70
     1
102
RTVSPropertyOp24
 70
     1
102
RTVSPropertyOp25
 70
     1
102
RTVSPropertyOp26
 70
     1
102
RTVSPropertyOp27
 70
     1
102
RTVSPropertyOp28
 70
     1
102
RTVSPropertyOp29
 70
     1
102
RTVSPropertyOp30
 70
     1
102
RTVSPropertyOp31
 70
     1
102
RTVSPropertyOp32
 70
     1
102
RTVSPropertyOp33
 70
     1
102
RTVSPropertyOp34
 70
     1
102
RTVSPropertyOp35
 70
     1
102
RTVSPropertyOp36
 70
     1
102
RTVSPropertyOp37
 70
     1
102
RTVSPropertyOp38
 70
     1
102
RTVSPropertyOp39
 70
     1
102
RTVSPropertyOp40
 70
     1
102
RTVSPropertyOp41
 70
     1
102
RTVSPropertyOp42
 70
     1
102
RTVSPropertyOp43
 70
     1
102
RTVSPropertyOp44
 70
     1
102
RTVSPropertyOp45
 70
     1
102
RTVSPropertyOp46
 70
     1
102
RTVSPropertyOp47
 70
     1
102
RTVSPropertyOp48
 70
     1
102
RTVSPropertyOp49
 70
     1
102
RTVSPropertyOp50
 70
     1
102
RTVSPropertyOp51
 70
     0
102
RTVSPropertyOp52
 70
     0
102
RTVSPropertyOp53
 70
     1
102
RTVSPropertyOp54
 70
     1
102
RTVSPropertyOp55
 70
     1
102
RTVSPropertyOp56
 70
     1
102
RTVSPropertyOp57
 70
     1
102
RTVSPost2010Prop28
280
     0
102
RTVSPost2010PropOp28
 70
     1
102
RTVSPost2010Prop29
280
     1
102
RTVSPost2010PropOp29
 70
     1
102
RTVSPost2010Prop30
280
     1
102
RTVSPost2010PropOp30
 70
     1
102
RTVSPost2010Prop31
280
     0
102
RTVSPost2010PropOp31
 70
     1
102
RTVSPost2010Prop32
280
     0
102
RTVSPost2010PropOp32
 70
     1
102
RTVSPost2010Prop33
280
     0
102
RTVSPost2010PropOp33
 70
     1
102
RTVSPost2010Prop34
280
     0
102
RTVSPost2010PropOp34
 70
     1
102
RTVSPost2010Prop35
280
     0
102
RTVSPost2010PropOp35
 70
     1
102
RTVSPost2010Prop36
280
     0
102
RTVSPost2010PropOp36
 70
     1
102
RTVSPost2010Prop37
 90
       50
102
RTVSPost2010PropOp37
 70
     1
102
RTVSPost2010Prop38
140
0.0
102
RTVSPost2010PropOp38
 70
     1
102
RTVSPost2010Prop39
140
1.0
102
RTVSPost2010PropOp39
 70
     1
102
RTVSPost2010Prop40
 90
        0
102
RTVSPost2010PropOp40
 70
     1
102
RTVSPost2010Prop41ColorIndex
 90
       18
102
RTVSPost2010Prop41ColorRGB
 90
        0
102
RTVSPost2010PropOp41
 70
     1
102
RTVSPost2010Prop42
 90
       50
102
RTVSPost2010PropOp42
 70
     1
102
RTVSPost2010Prop43
 90
        3
102
RTVSPost2010PropOp43
 70
     1
102
RTVSPost2010Prop44ColorIndex
 90
        5
102
RTVSPost2010Prop44ColorRGB
 90
      255
102
RTVSPost2010PropOp44
 70
     1
102
RTVSPost2010Prop45
280
     0
102
RTVSPost2010PropOp45
 70
     1
102
RTVSPost2010Prop46
 90
       50
102
RTVSPost2010PropOp46
 70
     1
102
RTVSPost2010Prop47
 90
       50
102
RTVSPost2010PropOp47
 70
     1
102
RTVSPost2010Prop48
 90
       50
102
RTVSPost2010PropOp48
 70
     1
102
RTVSPost2010Prop49
280
     0
102
RTVSPost2010PropOp49
 70
     1
102
RTVSPost2010Prop50
 90
       50
102
RTVSPost2010PropOp50
 70
     1
102
RTVSPost2010Prop51ColorIndex
 90
      256
102
RTVSPost2010Prop51ColorRGB
 90
-16777216
102
RTVSPost2010PropOp51
 70
     0
102
RTVSPost2010Prop52
140
1.0
102
RTVSPost2010PropOp52
 70
     0
102
RTVSPost2010Prop53
 90
        2
102
RTVSPost2010PropOp53
 70
     1
102
RTVSPost2010Prop54
  1
strokes_ogs.tif
102
RTVSPost2010PropOp54
 70
     1
102
RTVSPost2010Prop55
280
     0
102
RTVSPost2010PropOp55
 70
     1
102
RTVSPost2010Prop56
140
1.0
102
RTVSPost2010PropOp56
 70
     1
102
RTVSPost2010Prop57
140
1.0
102
RTVSPost2010PropOp57
 70
     1
  0
XRECORD
  5
2DA
102
{ACAD_REACTORS
330
2D9
102
}
330
2D9
100
AcDbXrecord
280
     1
102
RTVSPropertyOp0
 70
     1
102
RTVSPropertyOp1
 70
     1
102
RTVSPropertyOp2
 70
     1
102
RTVSPropertyOp3
 70
     1
102
RTVSPropertyOp4
 70
     1
102
RTVSPropertyOp5
 70
     1
102
RTVSPropertyOp6
 70
     1
102
RTVSPropertyOp7
 70
     1
102
RTVSPropertyOp8
 70
     1
102
RTVSPropertyOp9
 70
     1
102
RTVSPropertyOp10
 70
     1
102
RTVSPropertyOp11
 70
     1
102
RTVSPropertyOp12
 70
     1
102
RTVSPropertyOp13
 70
     1
102
RTVSPropertyOp14
 70
     1
102
RTVSPropertyOp15
 70
     1
102
RTVSPropertyOp16
 70
     1
102
RTVSPropertyOp17
 70
     1
102
RTVSPropertyOp18
 70
     1
102
RTVSPropertyOp19
 70
     1
102
RTVSPropertyOp20
 70
     1
102
RTVSPropertyOp21
 70
     1
102
RTVSPropertyOp22
 70
     1
102
RTVSPropertyOp23
 70
     1
102
RTVSPropertyOp24
 70
     1
102
RTVSPropertyOp25
 70
     1
102
RTVSPropertyOp26
 70
     1
102
RTVSPropertyOp27
 70
     1
102
RTVSPropertyOp28
 70
     1
102
RTVSPropertyOp29
 70
     1
102
RTVSPropertyOp30
 70
     1
102
RTVSPropertyOp31
 70
     1
102
RTVSPropertyOp32
 70
     1
102
RTVSPropertyOp33
 70
     1
102
RTVSPropertyOp34
 70
     1
102
RTVSPropertyOp35
 70
     1
102
RTVSPropertyOp36
 70
     1
102
RTVSPropertyOp37
 70
     1
102
RTVSPropertyOp38
 70
     1
102
RTVSPropertyOp39
 70
     1
102
RTVSPropertyOp40
 70
     1
102
RTVSPropertyOp41
 70
     1
102
RTVSPropertyOp42
 70
     1
102
RTVSPropertyOp43
 70
     1
102
RTVSPropertyOp44
 70
     1
102
RTVSPropertyOp45
 70
     1
102
RTVSPropertyOp46
 70
     1
102
RTVSPropertyOp47
 70
     1
102
RTVSPropertyOp48
 70
     1
102
RTVSPropertyOp49
 70
     1
102
RTVSPropertyOp50
 70
     1
102
RTVSPropertyOp51
 70
     0
102
RTVSPropertyOp52
 70
     0
102
RTVSPropertyOp53
 70
     1
102
RTVSPropertyOp54
 70
     1
102
RTVSPropertyOp55
 70
     1
102
RTVSPropertyOp56
 70
     1
102
RTVSPropertyOp57
 70
     1
102
RTVSPost2010Prop28
280
     0
102
RTVSPost2010PropOp28
 70
     1
102
RTVSPost2010Prop29
280
     1
102
RTVSPost2010PropOp29
 70
     1
102
RTVSPost2010Prop30
280
     1
102
RTVSPost2010PropOp30
 70
     1
102
RTVSPost2010Prop31
280
     0
102
RTVSPost2010PropOp31
 70
     1
102
RTVSPost2010Prop32
280
     0
102
RTVSPost2010PropOp32
 70
     1
102
RTVSPost2010Prop33
280
     0
102
RTVSPost2010PropOp33
 70
     1
102
RTVSPost2010Prop34
280
     0
102
RTVSPost2010PropOp34
 70
     1
102
RTVSPost2010Prop35
280
     0
102
RTVSPost2010PropOp35
 70
     1
102
RTVSPost2010Prop36
280
     0
102
RTVSPost2010PropOp36
 70
     1
102
RTVSPost2010Prop37
 90
       50
102
RTVSPost2010PropOp37
 70
     1
102
RTVSPost2010Prop38
140
0.0
102
RTVSPost2010PropOp38
 70
     1
102
RTVSPost2010Prop39
140
1.0
102
RTVSPost2010PropOp39
 70
     1
102
RTVSPost2010Prop40
 90
        0
102
RTVSPost2010PropOp40
 70
     1
102
RTVSPost2010Prop41ColorIndex
 90
       18
102
RTVSPost2010Prop41ColorRGB
 90
        0
102
RTVSPost2010PropOp41
 70
     1
102
RTVSPost2010Prop42
 90
       50
102
RTVSPost2010PropOp42
 70
     1
102
RTVSPost2010Prop43
 90
        3
102
RTVSPost2010PropOp43
 70
     1
102
RTVSPost2010Prop44ColorIndex
 90
        5
102
RTVSPost2010Prop44ColorRGB
 90
      255
102
RTVSPost2010PropOp44
 70
     1
102
RTVSPost2010Prop45
280
     0
102
RTVSPost2010PropOp45
 70
     1
102
RTVSPost2010Prop46
 90
       50
102
RTVSPost2010PropOp46
 70
     1
102
RTVSPost2010Prop47
 90
       50
102
RTVSPost2010PropOp47
 70
     1
102
RTVSPost2010Prop48
 90
       50
102
RTVSPost2010PropOp48
 70
     1
102
RTVSPost2010Prop49
280
     0
102
RTVSPost2010PropOp49
 70
     1
102
RTVSPost2010Prop50
 90
       50
102
RTVSPost2010PropOp50
 70
     1
102
RTVSPost2010Prop51ColorIndex
 90
      256
102
RTVSPost2010Prop51ColorRGB
 90
-16777216
102
RTVSPost2010PropOp51
 70
     0
102
RTVSPost2010Prop52
140
1.0
102
RTVSPost2010PropOp52
 70
     0
102
RTVSPost2010Prop53
 90
        2
102
RTVSPost2010PropOp53
 70
     1
102
RTVSPost2010Prop54
  1
strokes_ogs.tif
102
RTVSPost2010PropOp54
 70
     1
102
RTVSPost2010Prop55
280
     0
102
RTVSPost2010PropOp55
 70
     1
102
RTVSPost2010Prop56
140
1.0
102
RTVSPost2010PropOp56
 70
     1
102
RTVSPost2010Prop57
140
1.0
102
RTVSPost2010PropOp57
 70
     1
  0
XRECORD
  5
2DC
102
{ACAD_REACTORS
330
2DB
102
}
330
2DB
100
AcDbXrecord
280
     1
102
RTVSPropertyOp0
 70
     1
102
RTVSPropertyOp1
 70
     1
102
RTVSPropertyOp2
 70
     1
102
RTVSPropertyOp3
 70
     1
102
RTVSPropertyOp4
 70
     1
102
RTVSPropertyOp5
 70
     1
102
RTVSPropertyOp6
 70
     1
102
RTVSPropertyOp7
 70
     1
102
RTVSPropertyOp8
 70
     1
102
RTVSPropertyOp9
 70
     1
102
RTVSPropertyOp10
 70
     1
102
RTVSPropertyOp11
 70
     1
102
RTVSPropertyOp12
 70
     1
102
RTVSPropertyOp13
 70
     1
102
RTVSPropertyOp14
 70
     1
102
RTVSPropertyOp15
 70
     1
102
RTVSPropertyOp16
 70
     1
102
RTVSPropertyOp17
 70
     1
102
RTVSPropertyOp18
 70
     1
102
RTVSPropertyOp19
 70
     1
102
RTVSPropertyOp20
 70
     1
102
RTVSPropertyOp21
 70
     1
102
RTVSPropertyOp22
 70
     1
102
RTVSPropertyOp23
 70
     1
102
RTVSPropertyOp24
 70
     1
102
RTVSPropertyOp25
 70
     1
102
RTVSPropertyOp26
 70
     1
102
RTVSPropertyOp27
 70
     1
102
RTVSPropertyOp28
 70
     1
102
RTVSPropertyOp29
 70
     1
102
RTVSPropertyOp30
 70
     1
102
RTVSPropertyOp31
 70
     1
102
RTVSPropertyOp32
 70
     1
102
RTVSPropertyOp33
 70
     1
102
RTVSPropertyOp34
 70
     1
102
RTVSPropertyOp35
 70
     1
102
RTVSPropertyOp36
 70
     1
102
RTVSPropertyOp37
 70
     1
102
RTVSPropertyOp38
 70
     1
102
RTVSPropertyOp39
 70
     1
102
RTVSPropertyOp40
 70
     1
102
RTVSPropertyOp41
 70
     1
102
RTVSPropertyOp42
 70
     1
102
RTVSPropertyOp43
 70
     1
102
RTVSPropertyOp44
 70
     1
102
RTVSPropertyOp45
 70
     1
102
RTVSPropertyOp46
 70
     1
102
RTVSPropertyOp47
 70
     1
102
RTVSPropertyOp48
 70
     1
102
RTVSPropertyOp49
 70
     1
102
RTVSPropertyOp50
 70
     1
102
RTVSPropertyOp51
 70
     0
102
RTVSPropertyOp52
 70
     0
102
RTVSPropertyOp53
 70
     1
102
RTVSPropertyOp54
 70
     1
102
RTVSPropertyOp55
 70
     1
102
RTVSPropertyOp56
 70
     1
102
RTVSPropertyOp57
 70
     1
102
RTVSPost2010Prop28
280
     0
102
RTVSPost2010PropOp28
 70
     1
102
RTVSPost2010Prop29
280
     1
102
RTVSPost2010PropOp29
 70
     1
102
RTVSPost2010Prop30
280
     1
102
RTVSPost2010PropOp30
 70
     1
102
RTVSPost2010Prop31
280
     0
102
RTVSPost2010PropOp31
 70
     1
102
RTVSPost2010Prop32
280
     0
102
RTVSPost2010PropOp32
 70
     1
102
RTVSPost2010Prop33
280
     0
102
RTVSPost2010PropOp33
 70
     1
102
RTVSPost2010Prop34
280
     0
102
RTVSPost2010PropOp34
 70
     1
102
RTVSPost2010Prop35
280
     0
102
RTVSPost2010PropOp35
 70
     1
102
RTVSPost2010Prop36
280
     0
102
RTVSPost2010PropOp36
 70
     1
102
RTVSPost2010Prop37
 90
       50
102
RTVSPost2010PropOp37
 70
     1
102
RTVSPost2010Prop38
140
0.0
102
RTVSPost2010PropOp38
 70
     1
102
RTVSPost2010Prop39
140
1.0
102
RTVSPost2010PropOp39
 70
     1
102
RTVSPost2010Prop40
 90
        0
102
RTVSPost2010PropOp40
 70
     1
102
RTVSPost2010Prop41ColorIndex
 90
       18
102
RTVSPost2010Prop41ColorRGB
 90
        0
102
RTVSPost2010PropOp41
 70
     1
102
RTVSPost2010Prop42
 90
       50
102
RTVSPost2010PropOp42
 70
     1
102
RTVSPost2010Prop43
 90
        3
102
RTVSPost2010PropOp43
 70
     1
102
RTVSPost2010Prop44ColorIndex
 90
        5
102
RTVSPost2010Prop44ColorRGB
 90
      255
102
RTVSPost2010PropOp44
 70
     1
102
RTVSPost2010Prop45
280
     0
102
RTVSPost2010PropOp45
 70
     1
102
RTVSPost2010Prop46
 90
       50
102
RTVSPost2010PropOp46
 70
     1
102
RTVSPost2010Prop47
 90
       50
102
RTVSPost2010PropOp47
 70
     1
102
RTVSPost2010Prop48
 90
       50
102
RTVSPost2010PropOp48
 70
     1
102
RTVSPost2010Prop49
280
     0
102
RTVSPost2010PropOp49
 70
     1
102
RTVSPost2010Prop50
 90
       50
102
RTVSPost2010PropOp50
 70
     1
102
RTVSPost2010Prop51ColorIndex
 90
      256
102
RTVSPost2010Prop51ColorRGB
 90
-16777216
102
RTVSPost2010PropOp51
 70
     0
102
RTVSPost2010Prop52
140
1.0
102
RTVSPost2010PropOp52
 70
     0
102
RTVSPost2010Prop53
 90
        2
102
RTVSPost2010PropOp53
 70
     1
102
RTVSPost2010Prop54
  1
strokes_ogs.tif
102
RTVSPost2010PropOp54
 70
     1
102
RTVSPost2010Prop55
280
     0
102
RTVSPost2010PropOp55
 70
     1
102
RTVSPost2010Prop56
140
1.0
102
RTVSPost2010PropOp56
 70
     1
102
RTVSPost2010Prop57
140
1.0
102
RTVSPost2010PropOp57
 70
     1
  0
XRECORD
  5
2DE
102
{ACAD_REACTORS
330
2DD
102
}
330
2DD
100
AcDbXrecord
280
     1
102
RTVSPropertyOp0
 70
     1
102
RTVSPropertyOp1
 70
     1
102
RTVSPropertyOp2
 70
     1
102
RTVSPropertyOp3
 70
     1
102
RTVSPropertyOp4
 70
     1
102
RTVSPropertyOp5
 70
     1
102
RTVSPropertyOp6
 70
     1
102
RTVSPropertyOp7
 70
     1
102
RTVSPropertyOp8
 70
     1
102
RTVSPropertyOp9
 70
     1
102
RTVSPropertyOp10
 70
     1
102
RTVSPropertyOp11
 70
     1
102
RTVSPropertyOp12
 70
     1
102
RTVSPropertyOp13
 70
     1
102
RTVSPropertyOp14
 70
     1
102
RTVSPropertyOp15
 70
     1
102
RTVSPropertyOp16
 70
     1
102
RTVSPropertyOp17
 70
     1
102
RTVSPropertyOp18
 70
     1
102
RTVSPropertyOp19
 70
     1
102
RTVSPropertyOp20
 70
     1
102
RTVSPropertyOp21
 70
     1
102
RTVSPropertyOp22
 70
     1
102
RTVSPropertyOp23
 70
     1
102
RTVSPropertyOp24
 70
     1
102
RTVSPropertyOp25
 70
     1
102
RTVSPropertyOp26
 70
     1
102
RTVSPropertyOp27
 70
     1
102
RTVSPropertyOp28
 70
     1
102
RTVSPropertyOp29
 70
     1
102
RTVSPropertyOp30
 70
     1
102
RTVSPropertyOp31
 70
     1
102
RTVSPropertyOp32
 70
     1
102
RTVSPropertyOp33
 70
     1
102
RTVSPropertyOp34
 70
     1
102
RTVSPropertyOp35
 70
     1
102
RTVSPropertyOp36
 70
     1
102
RTVSPropertyOp37
 70
     1
102
RTVSPropertyOp38
 70
     1
102
RTVSPropertyOp39
 70
     1
102
RTVSPropertyOp40
 70
     1
102
RTVSPropertyOp41
 70
     1
102
RTVSPropertyOp42
 70
     1
102
RTVSPropertyOp43
 70
     1
102
RTVSPropertyOp44
 70
     1
102
RTVSPropertyOp45
 70
     1
102
RTVSPropertyOp46
 70
     1
102
RTVSPropertyOp47
 70
     1
102
RTVSPropertyOp48
 70
     1
102
RTVSPropertyOp49
 70
     1
102
RTVSPropertyOp50
 70
     1
102
RTVSPropertyOp51
 70
     0
102
RTVSPropertyOp52
 70
     0
102
RTVSPropertyOp53
 70
     1
102
RTVSPropertyOp54
 70
     1
102
RTVSPropertyOp55
 70
     1
102
RTVSPropertyOp56
 70
     1
102
RTVSPropertyOp57
 70
     1
102
RTVSPost2010Prop28
280
     0
102
RTVSPost2010PropOp28
 70
     1
102
RTVSPost2010Prop29
280
     1
102
RTVSPost2010PropOp29
 70
     1
102
RTVSPost2010Prop30
280
     1
102
RTVSPost2010PropOp30
 70
     1
102
RTVSPost2010Prop31
280
     0
102
RTVSPost2010PropOp31
 70
     1
102
RTVSPost2010Prop32
280
     0
102
RTVSPost2010PropOp32
 70
     1
102
RTVSPost2010Prop33
280
     0
102
RTVSPost2010PropOp33
 70
     1
102
RTVSPost2010Prop34
280
     0
102
RTVSPost2010PropOp34
 70
     1
102
RTVSPost2010Prop35
280
     0
102
RTVSPost2010PropOp35
 70
     1
102
RTVSPost2010Prop36
280
     0
102
RTVSPost2010PropOp36
 70
     1
102
RTVSPost2010Prop37
 90
       50
102
RTVSPost2010PropOp37
 70
     1
102
RTVSPost2010Prop38
140
0.0
102
RTVSPost2010PropOp38
 70
     1
102
RTVSPost2010Prop39
140
1.0
102
RTVSPost2010PropOp39
 70
     1
102
RTVSPost2010Prop40
 90
        0
102
RTVSPost2010PropOp40
 70
     1
102
RTVSPost2010Prop41ColorIndex
 90
       18
102
RTVSPost2010Prop41ColorRGB
 90
        0
102
RTVSPost2010PropOp41
 70
     1
102
RTVSPost2010Prop42
 90
       50
102
RTVSPost2010PropOp42
 70
     1
102
RTVSPost2010Prop43
 90
        3
102
RTVSPost2010PropOp43
 70
     1
102
RTVSPost2010Prop44ColorIndex
 90
        5
102
RTVSPost2010Prop44ColorRGB
 90
      255
102
RTVSPost2010PropOp44
 70
     1
102
RTVSPost2010Prop45
280
     0
102
RTVSPost2010PropOp45
 70
     1
102
RTVSPost2010Prop46
 90
       50
102
RTVSPost2010PropOp46
 70
     1
102
RTVSPost2010Prop47
 90
       50
102
RTVSPost2010PropOp47
 70
     1
102
RTVSPost2010Prop48
 90
       50
102
RTVSPost2010PropOp48
 70
     1
102
RTVSPost2010Prop49
280
     0
102
RTVSPost2010PropOp49
 70
     1
102
RTVSPost2010Prop50
 90
       50
102
RTVSPost2010PropOp50
 70
     1
102
RTVSPost2010Prop51ColorIndex
 90
      256
102
RTVSPost2010Prop51ColorRGB
 90
-16777216
102
RTVSPost2010PropOp51
 70
     0
102
RTVSPost2010Prop52
140
1.0
102
RTVSPost2010PropOp52
 70
     0
102
RTVSPost2010Prop53
 90
        2
102
RTVSPost2010PropOp53
 70
     1
102
RTVSPost2010Prop54
  1
strokes_ogs.tif
102
RTVSPost2010PropOp54
 70
     1
102
RTVSPost2010Prop55
280
     0
102
RTVSPost2010PropOp55
 70
     1
102
RTVSPost2010Prop56
140
1.0
102
RTVSPost2010PropOp56
 70
     1
102
RTVSPost2010Prop57
140
1.0
102
RTVSPost2010PropOp57
 70
     1
  0
XRECORD
  5
2E0
102
{ACAD_REACTORS
330
2DF
102
}
330
2DF
100
AcDbXrecord
280
     1
102
RTVSPropertyOp0
 70
     1
102
RTVSPropertyOp1
 70
     1
102
RTVSPropertyOp2
 70
     1
102
RTVSPropertyOp3
 70
     1
102
RTVSPropertyOp4
 70
     1
102
RTVSPropertyOp5
 70
     1
102
RTVSPropertyOp6
 70
     1
102
RTVSPropertyOp7
 70
     1
102
RTVSPropertyOp8
 70
     1
102
RTVSPropertyOp9
 70
     1
102
RTVSPropertyOp10
 70
     1
102
RTVSPropertyOp11
 70
     1
102
RTVSPropertyOp12
 70
     1
102
RTVSPropertyOp13
 70
     1
102
RTVSPropertyOp14
 70
     1
102
RTVSPropertyOp15
 70
     1
102
RTVSPropertyOp16
 70
     1
102
RTVSPropertyOp17
 70
     1
102
RTVSPropertyOp18
 70
     1
102
RTVSPropertyOp19
 70
     1
102
RTVSPropertyOp20
 70
     1
102
RTVSPropertyOp21
 70
     1
102
RTVSPropertyOp22
 70
     1
102
RTVSPropertyOp23
 70
     1
102
RTVSPropertyOp24
 70
     1
102
RTVSPropertyOp25
 70
     1
102
RTVSPropertyOp26
 70
     1
102
RTVSPropertyOp27
 70
     1
102
RTVSPropertyOp28
 70
     1
102
RTVSPropertyOp29
 70
     1
102
RTVSPropertyOp30
 70
     1
102
RTVSPropertyOp31
 70
     1
102
RTVSPropertyOp32
 70
     1
102
RTVSPropertyOp33
 70
     1
102
RTVSPropertyOp34
 70
     1
102
RTVSPropertyOp35
 70
     1
102
RTVSPropertyOp36
 70
     1
102
RTVSPropertyOp37
 70
     1
102
RTVSPropertyOp38
 70
     1
102
RTVSPropertyOp39
 70
     1
102
RTVSPropertyOp40
 70
     1
102
RTVSPropertyOp41
 70
     1
102
RTVSPropertyOp42
 70
     1
102
RTVSPropertyOp43
 70
     1
102
RTVSPropertyOp44
 70
     1
102
RTVSPropertyOp45
 70
     1
102
RTVSPropertyOp46
 70
     1
102
RTVSPropertyOp47
 70
     1
102
RTVSPropertyOp48
 70
     1
102
RTVSPropertyOp49
 70
     1
102
RTVSPropertyOp50
 70
     1
102
RTVSPropertyOp51
 70
     0
102
RTVSPropertyOp52
 70
     0
102
RTVSPropertyOp53
 70
     1
102
RTVSPropertyOp54
 70
     1
102
RTVSPropertyOp55
 70
     1
102
RTVSPropertyOp56
 70
     1
102
RTVSPropertyOp57
 70
     1
102
RTVSPost2010Prop28
280
     0
102
RTVSPost2010PropOp28
 70
     1
102
RTVSPost2010Prop29
280
     1
102
RTVSPost2010PropOp29
 70
     1
102
RTVSPost2010Prop30
280
     1
102
RTVSPost2010PropOp30
 70
     1
102
RTVSPost2010Prop31
280
     0
102
RTVSPost2010PropOp31
 70
     1
102
RTVSPost2010Prop32
280
     0
102
RTVSPost2010PropOp32
 70
     1
102
RTVSPost2010Prop33
280
     0
102
RTVSPost2010PropOp33
 70
     1
102
RTVSPost2010Prop34
280
     0
102
RTVSPost2010PropOp34
 70
     1
102
RTVSPost2010Prop35
280
     0
102
RTVSPost2010PropOp35
 70
     1
102
RTVSPost2010Prop36
280
     0
102
RTVSPost2010PropOp36
 70
     1
102
RTVSPost2010Prop37
 90
       50
102
RTVSPost2010PropOp37
 70
     1
102
RTVSPost2010Prop38
140
0.0
102
RTVSPost2010PropOp38
 70
     1
102
RTVSPost2010Prop39
140
1.0
102
RTVSPost2010PropOp39
 70
     1
102
RTVSPost2010Prop40
 90
        0
102
RTVSPost2010PropOp40
 70
     1
102
RTVSPost2010Prop41ColorIndex
 90
       18
102
RTVSPost2010Prop41ColorRGB
 90
        0
102
RTVSPost2010PropOp41
 70
     1
102
RTVSPost2010Prop42
 90
       50
102
RTVSPost2010PropOp42
 70
     1
102
RTVSPost2010Prop43
 90
        3
102
RTVSPost2010PropOp43
 70
     1
102
RTVSPost2010Prop44ColorIndex
 90
        5
102
RTVSPost2010Prop44ColorRGB
 90
      255
102
RTVSPost2010PropOp44
 70
     1
102
RTVSPost2010Prop45
280
     0
102
RTVSPost2010PropOp45
 70
     1
102
RTVSPost2010Prop46
 90
       50
102
RTVSPost2010PropOp46
 70
     1
102
RTVSPost2010Prop47
 90
       50
102
RTVSPost2010PropOp47
 70
     1
102
RTVSPost2010Prop48
 90
       50
102
RTVSPost2010PropOp48
 70
     1
102
RTVSPost2010Prop49
280
     0
102
RTVSPost2010PropOp49
 70
     1
102
RTVSPost2010Prop50
 90
       50
102
RTVSPost2010PropOp50
 70
     1
102
RTVSPost2010Prop51ColorIndex
 90
      256
102
RTVSPost2010Prop51ColorRGB
 90
-16777216
102
RTVSPost2010PropOp51
 70
     0
102
RTVSPost2010Prop52
140
1.0
102
RTVSPost2010PropOp52
 70
     0
102
RTVSPost2010Prop53
 90
        2
102
RTVSPost2010PropOp53
 70
     1
102
RTVSPost2010Prop54
  1
strokes_ogs.tif
102
RTVSPost2010PropOp54
 70
     1
102
RTVSPost2010Prop55
280
     0
102
RTVSPost2010PropOp55
 70
     1
102
RTVSPost2010Prop56
140
1.0
102
RTVSPost2010PropOp56
 70
     1
102
RTVSPost2010Prop57
140
1.0
102
RTVSPost2010PropOp57
 70
     1
  0
XRECORD
  5
2E6
102
{ACAD_REACTORS
330
2E5
102
}
330
2E5
100
AcDbXrecord
280
     1
102
RTVSPropertyOp0
 70
     1
102
RTVSPropertyOp1
 70
     1
102
RTVSPropertyOp2
 70
     1
102
RTVSPropertyOp3
 70
     1
102
RTVSPropertyOp4
 70
     1
102
RTVSPropertyOp5
 70
     1
102
RTVSPropertyOp6
 70
     1
102
RTVSPropertyOp7
 70
     1
102
RTVSPropertyOp8
 70
     1
102
RTVSPropertyOp9
 70
     1
102
RTVSPropertyOp10
 70
     1
102
RTVSPropertyOp11
 70
     1
102
RTVSPropertyOp12
 70
     1
102
RTVSPropertyOp13
 70
     1
102
RTVSPropertyOp14
 70
     1
102
RTVSPropertyOp15
 70
     1
102
RTVSPropertyOp16
 70
     1
102
RTVSPropertyOp17
 70
     1
102
RTVSPropertyOp18
 70
     1
102
RTVSPropertyOp19
 70
     1
102
RTVSPropertyOp20
 70
     1
102
RTVSPropertyOp21
 70
     1
102
RTVSPropertyOp22
 70
     1
102
RTVSPropertyOp23
 70
     1
102
RTVSPropertyOp24
 70
     1
102
RTVSPropertyOp25
 70
     1
102
RTVSPropertyOp26
 70
     1
102
RTVSPropertyOp27
 70
     1
102
RTVSPropertyOp28
 70
     1
102
RTVSPropertyOp29
 70
     1
102
RTVSPropertyOp30
 70
     1
102
RTVSPropertyOp31
 70
     1
102
RTVSPropertyOp32
 70
     1
102
RTVSPropertyOp33
 70
     1
102
RTVSPropertyOp34
 70
     1
102
RTVSPropertyOp35
 70
     1
102
RTVSPropertyOp36
 70
     1
102
RTVSPropertyOp37
 70
     1
102
RTVSPropertyOp38
 70
     1
102
RTVSPropertyOp39
 70
     1
102
RTVSPropertyOp40
 70
     1
102
RTVSPropertyOp41
 70
     1
102
RTVSPropertyOp42
 70
     1
102
RTVSPropertyOp43
 70
     1
102
RTVSPropertyOp44
 70
     1
102
RTVSPropertyOp45
 70
     1
102
RTVSPropertyOp46
 70
     1
102
RTVSPropertyOp47
 70
     1
102
RTVSPropertyOp48
 70
     1
102
RTVSPropertyOp49
 70
     1
102
RTVSPropertyOp50
 70
     1
102
RTVSPropertyOp51
 70
     0
102
RTVSPropertyOp52
 70
     0
102
RTVSPropertyOp53
 70
     1
102
RTVSPropertyOp54
 70
     1
102
RTVSPropertyOp55
 70
     1
102
RTVSPropertyOp56
 70
     1
102
RTVSPropertyOp57
 70
     1
102
RTVSPost2010Prop28
280
     0
102
RTVSPost2010PropOp28
 70
     1
102
RTVSPost2010Prop29
280
     1
102
RTVSPost2010PropOp29
 70
     1
102
RTVSPost2010Prop30
280
     1
102
RTVSPost2010PropOp30
 70
     1
102
RTVSPost2010Prop31
280
     0
102
RTVSPost2010PropOp31
 70
     1
102
RTVSPost2010Prop32
280
     0
102
RTVSPost2010PropOp32
 70
     1
102
RTVSPost2010Prop33
280
     0
102
RTVSPost2010PropOp33
 70
     1
102
RTVSPost2010Prop34
280
     0
102
RTVSPost2010PropOp34
 70
     1
102
RTVSPost2010Prop35
280
     0
102
RTVSPost2010PropOp35
 70
     1
102
RTVSPost2010Prop36
280
     0
102
RTVSPost2010PropOp36
 70
     1
102
RTVSPost2010Prop37
 90
       50
102
RTVSPost2010PropOp37
 70
     1
102
RTVSPost2010Prop38
140
0.0
102
RTVSPost2010PropOp38
 70
     1
102
RTVSPost2010Prop39
140
1.0
102
RTVSPost2010PropOp39
 70
     1
102
RTVSPost2010Prop40
 90
        0
102
RTVSPost2010PropOp40
 70
     1
102
RTVSPost2010Prop41ColorIndex
 90
       18
102
RTVSPost2010Prop41ColorRGB
 90
        0
102
RTVSPost2010PropOp41
 70
     1
102
RTVSPost2010Prop42
 90
       50
102
RTVSPost2010PropOp42
 70
     1
102
RTVSPost2010Prop43
 90
        3
102
RTVSPost2010PropOp43
 70
     1
102
RTVSPost2010Prop44ColorIndex
 90
        5
102
RTVSPost2010Prop44ColorRGB
 90
      255
102
RTVSPost2010PropOp44
 70
     1
102
RTVSPost2010Prop45
280
     0
102
RTVSPost2010PropOp45
 70
     1
102
RTVSPost2010Prop46
 90
       50
102
RTVSPost2010PropOp46
 70
     1
102
RTVSPost2010Prop47
 90
       50
102
RTVSPost2010PropOp47
 70
     1
102
RTVSPost2010Prop48
 90
       50
102
RTVSPost2010PropOp48
 70
     1
102
RTVSPost2010Prop49
280
     0
102
RTVSPost2010PropOp49
 70
     1
102
RTVSPost2010Prop50
 90
       50
102
RTVSPost2010PropOp50
 70
     1
102
RTVSPost2010Prop51ColorIndex
 90
      256
102
RTVSPost2010Prop51ColorRGB
 90
-16777216
102
RTVSPost2010PropOp51
 70
     0
102
RTVSPost2010Prop52
140
1.0
102
RTVSPost2010PropOp52
 70
     0
102
RTVSPost2010Prop53
 90
        2
102
RTVSPost2010PropOp53
 70
     1
102
RTVSPost2010Prop54
  1
strokes_ogs.tif
102
RTVSPost2010PropOp54
 70
     1
102
RTVSPost2010Prop55
280
     0
102
RTVSPost2010PropOp55
 70
     1
102
RTVSPost2010Prop56
140
1.0
102
RTVSPost2010PropOp56
 70
     1
102
RTVSPost2010Prop57
140
1.0
102
RTVSPost2010PropOp57
 70
     1
  0
XRECORD
  5
2FA
102
{ACAD_REACTORS
330
2F9
102
}
330
2F9
100
AcDbXrecord
280
     1
102
RTVSPropertyOp0
 70
     0
102
RTVSPropertyOp1
 70
     0
102
RTVSPropertyOp2
 70
     0
102
RTVSPropertyOp3
 70
     0
102
RTVSPropertyOp4
 70
     0
102
RTVSPropertyOp5
 70
     0
102
RTVSPropertyOp6
 70
     0
102
RTVSPropertyOp7
 70
     0
102
RTVSPropertyOp8
 70
     0
102
RTVSPropertyOp9
 70
     0
102
RTVSPropertyOp10
 70
     0
102
RTVSPropertyOp11
 70
     0
102
RTVSPropertyOp12
 70
     0
102
RTVSPropertyOp13
 70
     0
102
RTVSPropertyOp14
 70
     2
102
RTVSPropertyOp15
 70
     0
102
RTVSPropertyOp16
 70
     0
102
RTVSPropertyOp17
 70
     0
102
RTVSPropertyOp18
 70
     0
102
RTVSPropertyOp19
 70
     0
102
RTVSPropertyOp20
 70
     0
102
RTVSPropertyOp21
 70
     0
102
RTVSPropertyOp22
 70
     0
102
RTVSPropertyOp23
 70
     0
102
RTVSPropertyOp24
 70
     0
102
RTVSPropertyOp25
 70
     0
102
RTVSPropertyOp26
 70
     0
102
RTVSPropertyOp27
 70
     0
102
RTVSPropertyOp28
 70
     0
102
RTVSPropertyOp29
 70
     0
102
RTVSPropertyOp30
 70
     0
102
RTVSPropertyOp31
 70
     0
102
RTVSPropertyOp32
 70
     0
102
RTVSPropertyOp33
 70
     0
102
RTVSPropertyOp34
 70
     0
102
RTVSPropertyOp35
 70
     0
102
RTVSPropertyOp36
 70
     0
102
RTVSPropertyOp37
 70
     0
102
RTVSPropertyOp38
 70
     0
102
RTVSPropertyOp39
 70
     0
102
RTVSPropertyOp40
 70
     0
102
RTVSPropertyOp41
 70
     0
102
RTVSPropertyOp42
 70
     0
102
RTVSPropertyOp43
 70
     0
102
RTVSPropertyOp44
 70
     0
102
RTVSPropertyOp45
 70
     0
102
RTVSPropertyOp46
 70
     0
102
RTVSPropertyOp47
 70
     0
102
RTVSPropertyOp48
 70
     0
102
RTVSPropertyOp49
 70
     0
102
RTVSPropertyOp50
 70
     0
102
RTVSPropertyOp51
 70
     0
102
RTVSPropertyOp52
 70
     0
102
RTVSPropertyOp53
 70
     0
102
RTVSPropertyOp54
 70
     0
102
RTVSPropertyOp55
 70
     0
102
RTVSPropertyOp56
 70
     0
102
RTVSPropertyOp57
 70
     0
102
RTVSPost2010Prop28
280
     0
102
RTVSPost2010PropOp28
 70
     0
102
RTVSPost2010Prop29
280
     1
102
RTVSPost2010PropOp29
 70
     0
102
RTVSPost2010Prop30
280
     1
102
RTVSPost2010PropOp30
 70
     0
102
RTVSPost2010Prop31
280
     0
102
RTVSPost2010PropOp31
 70
     0
102
RTVSPost2010Prop32
280
     0
102
RTVSPost2010PropOp32
 70
     0
102
RTVSPost2010Prop33
280
     0
102
RTVSPost2010PropOp33
 70
     0
102
RTVSPost2010Prop34
280
     0
102
RTVSPost2010PropOp34
 70
     0
102
RTVSPost2010Prop35
280
     0
102
RTVSPost2010PropOp35
 70
     0
102
RTVSPost2010Prop36
280
     0
102
RTVSPost2010PropOp36
 70
     0
102
RTVSPost2010Prop37
 90
       50
102
RTVSPost2010PropOp37
 70
     0
102
RTVSPost2010Prop38
140
0.0
102
RTVSPost2010PropOp38
 70
     0
102
RTVSPost2010Prop39
140
1.0
102
RTVSPost2010PropOp39
 70
     0
102
RTVSPost2010Prop40
 90
        0
102
RTVSPost2010PropOp40
 70
     0
102
RTVSPost2010Prop41ColorIndex
 90
       18
102
RTVSPost2010Prop41ColorRGB
 90
        0
102
RTVSPost2010PropOp41
 70
     0
102
RTVSPost2010Prop42
 90
       50
102
RTVSPost2010PropOp42
 70
     0
102
RTVSPost2010Prop43
 90
        3
102
RTVSPost2010PropOp43
 70
     0
102
RTVSPost2010Prop44ColorIndex
 90
        5
102
RTVSPost2010Prop44ColorRGB
 90
      255
102
RTVSPost2010PropOp44
 70
     0
102
RTVSPost2010Prop45
280
     0
102
RTVSPost2010PropOp45
 70
     0
102
RTVSPost2010Prop46
 90
       50
102
RTVSPost2010PropOp46
 70
     0
102
RTVSPost2010Prop47
 90
       50
102
RTVSPost2010PropOp47
 70
     0
102
RTVSPost2010Prop48
 90
       50
102
RTVSPost2010PropOp48
 70
     0
102
RTVSPost2010Prop49
280
     0
102
RTVSPost2010PropOp49
 70
     0
102
RTVSPost2010Prop50
 90
       50
102
RTVSPost2010PropOp50
 70
     0
102
RTVSPost2010Prop51ColorIndex
 90
      256
102
RTVSPost2010Prop51ColorRGB
 90
-16777216
102
RTVSPost2010PropOp51
 70
     0
102
RTVSPost2010Prop52
140
1.0
102
RTVSPost2010PropOp52
 70
     0
102
RTVSPost2010Prop53
 90
        2
102
RTVSPost2010PropOp53
 70
     0
102
RTVSPost2010Prop54
  1
strokes_ogs.tif
102
RTVSPost2010PropOp54
 70
     0
102
RTVSPost2010Prop55
280
     0
102
RTVSPost2010PropOp55
 70
     0
102
RTVSPost2010Prop56
140
1.0
102
RTVSPost2010PropOp56
 70
     0
102
RTVSPost2010Prop57
140
1.0
102
RTVSPost2010PropOp57
 70
     0
  0
XRECORD
  5
2F4
102
{ACAD_REACTORS
330
2F3
102
}
330
2F3
100
AcDbXrecord
280
     1
102
RTVSPropertyOp0
 70
     1
102
RTVSPropertyOp1
 70
     1
102
RTVSPropertyOp2
 70
     1
102
RTVSPropertyOp3
 70
     1
102
RTVSPropertyOp4
 70
     1
102
RTVSPropertyOp5
 70
     1
102
RTVSPropertyOp6
 70
     1
102
RTVSPropertyOp7
 70
     1
102
RTVSPropertyOp8
 70
     1
102
RTVSPropertyOp9
 70
     1
102
RTVSPropertyOp10
 70
     1
102
RTVSPropertyOp11
 70
     1
102
RTVSPropertyOp12
 70
     1
102
RTVSPropertyOp13
 70
     1
102
RTVSPropertyOp14
 70
     1
102
RTVSPropertyOp15
 70
     1
102
RTVSPropertyOp16
 70
     1
102
RTVSPropertyOp17
 70
     1
102
RTVSPropertyOp18
 70
     1
102
RTVSPropertyOp19
 70
     1
102
RTVSPropertyOp20
 70
     1
102
RTVSPropertyOp21
 70
     1
102
RTVSPropertyOp22
 70
     1
102
RTVSPropertyOp23
 70
     1
102
RTVSPropertyOp24
 70
     1
102
RTVSPropertyOp25
 70
     1
102
RTVSPropertyOp26
 70
     1
102
RTVSPropertyOp27
 70
     1
102
RTVSPropertyOp28
 70
     1
102
RTVSPropertyOp29
 70
     1
102
RTVSPropertyOp30
 70
     1
102
RTVSPropertyOp31
 70
     1
102
RTVSPropertyOp32
 70
     1
102
RTVSPropertyOp33
 70
     1
102
RTVSPropertyOp34
 70
     1
102
RTVSPropertyOp35
 70
     1
102
RTVSPropertyOp36
 70
     1
102
RTVSPropertyOp37
 70
     1
102
RTVSPropertyOp38
 70
     1
102
RTVSPropertyOp39
 70
     1
102
RTVSPropertyOp40
 70
     1
102
RTVSPropertyOp41
 70
     1
102
RTVSPropertyOp42
 70
     1
102
RTVSPropertyOp43
 70
     1
102
RTVSPropertyOp44
 70
     1
102
RTVSPropertyOp45
 70
     1
102
RTVSPropertyOp46
 70
     1
102
RTVSPropertyOp47
 70
     1
102
RTVSPropertyOp48
 70
     1
102
RTVSPropertyOp49
 70
     1
102
RTVSPropertyOp50
 70
     1
102
RTVSPropertyOp51
 70
     0
102
RTVSPropertyOp52
 70
     0
102
RTVSPropertyOp53
 70
     1
102
RTVSPropertyOp54
 70
     1
102
RTVSPropertyOp55
 70
     1
102
RTVSPropertyOp56
 70
     1
102
RTVSPropertyOp57
 70
     1
102
RTVSPost2010Prop28
280
     0
102
RTVSPost2010PropOp28
 70
     1
102
RTVSPost2010Prop29
280
     1
102
RTVSPost2010PropOp29
 70
     1
102
RTVSPost2010Prop30
280
     1
102
RTVSPost2010PropOp30
 70
     1
102
RTVSPost2010Prop31
280
     0
102
RTVSPost2010PropOp31
 70
     1
102
RTVSPost2010Prop32
280
     0
102
RTVSPost2010PropOp32
 70
     1
102
RTVSPost2010Prop33
280
     0
102
RTVSPost2010PropOp33
 70
     1
102
RTVSPost2010Prop34
280
     0
102
RTVSPost2010PropOp34
 70
     1
102
RTVSPost2010Prop35
280
     0
102
RTVSPost2010PropOp35
 70
     1
102
RTVSPost2010Prop36
280
     0
102
RTVSPost2010PropOp36
 70
     1
102
RTVSPost2010Prop37
 90
       50
102
RTVSPost2010PropOp37
 70
     1
102
RTVSPost2010Prop38
140
0.0
102
RTVSPost2010PropOp38
 70
     1
102
RTVSPost2010Prop39
140
1.0
102
RTVSPost2010PropOp39
 70
     1
102
RTVSPost2010Prop40
 90
        0
102
RTVSPost2010PropOp40
 70
     1
102
RTVSPost2010Prop41ColorIndex
 90
       18
102
RTVSPost2010Prop41ColorRGB
 90
        0
102
RTVSPost2010PropOp41
 70
     1
102
RTVSPost2010Prop42
 90
       50
102
RTVSPost2010PropOp42
 70
     1
102
RTVSPost2010Prop43
 90
        3
102
RTVSPost2010PropOp43
 70
     1
102
RTVSPost2010Prop44ColorIndex
 90
        5
102
RTVSPost2010Prop44ColorRGB
 90
      255
102
RTVSPost2010PropOp44
 70
     1
102
RTVSPost2010Prop45
280
     0
102
RTVSPost2010PropOp45
 70
     1
102
RTVSPost2010Prop46
 90
       50
102
RTVSPost2010PropOp46
 70
     1
102
RTVSPost2010Prop47
 90
       50
102
RTVSPost2010PropOp47
 70
     1
102
RTVSPost2010Prop48
 90
       50
102
RTVSPost2010PropOp48
 70
     1
102
RTVSPost2010Prop49
280
     0
102
RTVSPost2010PropOp49
 70
     1
102
RTVSPost2010Prop50
 90
       50
102
RTVSPost2010PropOp50
 70
     1
102
RTVSPost2010Prop51ColorIndex
 90
      256
102
RTVSPost2010Prop51ColorRGB
 90
-16777216
102
RTVSPost2010PropOp51
 70
     0
102
RTVSPost2010Prop52
140
1.0
102
RTVSPost2010PropOp52
 70
     0
102
RTVSPost2010Prop53
 90
        2
102
RTVSPost2010PropOp53
 70
     1
102
RTVSPost2010Prop54
  1
strokes_ogs.tif
102
RTVSPost2010PropOp54
 70
     1
102
RTVSPost2010Prop55
280
     0
102
RTVSPost2010PropOp55
 70
     1
102
RTVSPost2010Prop56
140
1.0
102
RTVSPost2010PropOp56
 70
     1
102
RTVSPost2010Prop57
140
1.0
102
RTVSPost2010PropOp57
 70
     1
  0
XRECORD
  5
2FC
102
{ACAD_REACTORS
330
2FB
102
}
330
2FB
100
AcDbXrecord
280
     1
102
RTVSPropertyOp0
 70
     0
102
RTVSPropertyOp1
 70
     0
102
RTVSPropertyOp2
 70
     0
102
RTVSPropertyOp3
 70
     0
102
RTVSPropertyOp4
 70
     0
102
RTVSPropertyOp5
 70
     0
102
RTVSPropertyOp6
 70
     0
102
RTVSPropertyOp7
 70
     0
102
RTVSPropertyOp8
 70
     0
102
RTVSPropertyOp9
 70
     0
102
RTVSPropertyOp10
 70
     0
102
RTVSPropertyOp11
 70
     0
102
RTVSPropertyOp12
 70
     0
102
RTVSPropertyOp13
 70
     0
102
RTVSPropertyOp14
 70
     2
102
RTVSPropertyOp15
 70
     0
102
RTVSPropertyOp16
 70
     0
102
RTVSPropertyOp17
 70
     0
102
RTVSPropertyOp18
 70
     0
102
RTVSPropertyOp19
 70
     0
102
RTVSPropertyOp20
 70
     0
102
RTVSPropertyOp21
 70
     0
102
RTVSPropertyOp22
 70
     0
102
RTVSPropertyOp23
 70
     0
102
RTVSPropertyOp24
 70
     0
102
RTVSPropertyOp25
 70
     0
102
RTVSPropertyOp26
 70
     0
102
RTVSPropertyOp27
 70
     0
102
RTVSPropertyOp28
 70
     0
102
RTVSPropertyOp29
 70
     0
102
RTVSPropertyOp30
 70
     0
102
RTVSPropertyOp31
 70
     0
102
RTVSPropertyOp32
 70
     0
102
RTVSPropertyOp33
 70
     0
102
RTVSPropertyOp34
 70
     0
102
RTVSPropertyOp35
 70
     0
102
RTVSPropertyOp36
 70
     0
102
RTVSPropertyOp37
 70
     0
102
RTVSPropertyOp38
 70
     0
102
RTVSPropertyOp39
 70
     0
102
RTVSPropertyOp40
 70
     0
102
RTVSPropertyOp41
 70
     0
102
RTVSPropertyOp42
 70
     0
102
RTVSPropertyOp43
 70
     0
102
RTVSPropertyOp44
 70
     0
102
RTVSPropertyOp45
 70
     0
102
RTVSPropertyOp46
 70
     0
102
RTVSPropertyOp47
 70
     0
102
RTVSPropertyOp48
 70
     0
102
RTVSPropertyOp49
 70
     0
102
RTVSPropertyOp50
 70
     0
102
RTVSPropertyOp51
 70
     0
102
RTVSPropertyOp52
 70
     0
102
RTVSPropertyOp53
 70
     0
102
RTVSPropertyOp54
 70
     0
102
RTVSPropertyOp55
 70
     0
102
RTVSPropertyOp56
 70
     0
102
RTVSPropertyOp57
 70
     0
102
RTVSPost2010Prop28
280
     0
102
RTVSPost2010PropOp28
 70
     0
102
RTVSPost2010Prop29
280
     1
102
RTVSPost2010PropOp29
 70
     0
102
RTVSPost2010Prop30
280
     1
102
RTVSPost2010PropOp30
 70
     0
102
RTVSPost2010Prop31
280
     0
102
RTVSPost2010PropOp31
 70
     0
102
RTVSPost2010Prop32
280
     0
102
RTVSPost2010PropOp32
 70
     0
102
RTVSPost2010Prop33
280
     0
102
RTVSPost2010PropOp33
 70
     0
102
RTVSPost2010Prop34
280
     0
102
RTVSPost2010PropOp34
 70
     0
102
RTVSPost2010Prop35
280
     0
102
RTVSPost2010PropOp35
 70
     0
102
RTVSPost2010Prop36
280
     0
102
RTVSPost2010PropOp36
 70
     0
102
RTVSPost2010Prop37
 90
       50
102
RTVSPost2010PropOp37
 70
     0
102
RTVSPost2010Prop38
140
0.0
102
RTVSPost2010PropOp38
 70
     0
102
RTVSPost2010Prop39
140
1.0
102
RTVSPost2010PropOp39
 70
     0
102
RTVSPost2010Prop40
 90
        0
102
RTVSPost2010PropOp40
 70
     0
102
RTVSPost2010Prop41ColorIndex
 90
       18
102
RTVSPost2010Prop41ColorRGB
 90
        0
102
RTVSPost2010PropOp41
 70
     0
102
RTVSPost2010Prop42
 90
       50
102
RTVSPost2010PropOp42
 70
     0
102
RTVSPost2010Prop43
 90
        3
102
RTVSPost2010PropOp43
 70
     0
102
RTVSPost2010Prop44ColorIndex
 90
        5
102
RTVSPost2010Prop44ColorRGB
 90
      255
102
RTVSPost2010PropOp44
 70
     0
102
RTVSPost2010Prop45
280
     0
102
RTVSPost2010PropOp45
 70
     0
102
RTVSPost2010Prop46
 90
       50
102
RTVSPost2010PropOp46
 70
     0
102
RTVSPost2010Prop47
 90
       50
102
RTVSPost2010PropOp47
 70
     0
102
RTVSPost2010Prop48
 90
       50
102
RTVSPost2010PropOp48
 70
     0
102
RTVSPost2010Prop49
280
     0
102
RTVSPost2010PropOp49
 70
     0
102
RTVSPost2010Prop50
 90
       50
102
RTVSPost2010PropOp50
 70
     0
102
RTVSPost2010Prop51ColorIndex
 90
      256
102
RTVSPost2010Prop51ColorRGB
 90
-16777216
102
RTVSPost2010PropOp51
 70
     0
102
RTVSPost2010Prop52
140
1.0
102
RTVSPost2010PropOp52
 70
     0
102
RTVSPost2010Prop53
 90
        2
102
RTVSPost2010PropOp53
 70
     0
102
RTVSPost2010Prop54
  1
strokes_ogs.tif
102
RTVSPost2010PropOp54
 70
     0
102
RTVSPost2010Prop55
280
     0
102
RTVSPost2010PropOp55
 70
     0
102
RTVSPost2010Prop56
140
1.0
102
RTVSPost2010PropOp56
 70
     0
102
RTVSPost2010Prop57
140
1.0
102
RTVSPost2010PropOp57
 70
     0
  0
XRECORD
  5
2EA
102
{ACAD_REACTORS
330
2E9
102
}
330
2E9
100
AcDbXrecord
280
     1
102
RTVSPropertyOp0
 70
     1
102
RTVSPropertyOp1
 70
     1
102
RTVSPropertyOp2
 70
     1
102
RTVSPropertyOp3
 70
     1
102
RTVSPropertyOp4
 70
     1
102
RTVSPropertyOp5
 70
     1
102
RTVSPropertyOp6
 70
     1
102
RTVSPropertyOp7
 70
     1
102
RTVSPropertyOp8
 70
     1
102
RTVSPropertyOp9
 70
     1
102
RTVSPropertyOp10
 70
     1
102
RTVSPropertyOp11
 70
     1
102
RTVSPropertyOp12
 70
     1
102
RTVSPropertyOp13
 70
     1
102
RTVSPropertyOp14
 70
     1
102
RTVSPropertyOp15
 70
     1
102
RTVSPropertyOp16
 70
     1
102
RTVSPropertyOp17
 70
     1
102
RTVSPropertyOp18
 70
     1
102
RTVSPropertyOp19
 70
     1
102
RTVSPropertyOp20
 70
     1
102
RTVSPropertyOp21
 70
     1
102
RTVSPropertyOp22
 70
     1
102
RTVSPropertyOp23
 70
     1
102
RTVSPropertyOp24
 70
     1
102
RTVSPropertyOp25
 70
     1
102
RTVSPropertyOp26
 70
     1
102
RTVSPropertyOp27
 70
     1
102
RTVSPropertyOp28
 70
     1
102
RTVSPropertyOp29
 70
     1
102
RTVSPropertyOp30
 70
     1
102
RTVSPropertyOp31
 70
     1
102
RTVSPropertyOp32
 70
     1
102
RTVSPropertyOp33
 70
     1
102
RTVSPropertyOp34
 70
     1
102
RTVSPropertyOp35
 70
     1
102
RTVSPropertyOp36
 70
     1
102
RTVSPropertyOp37
 70
     1
102
RTVSPropertyOp38
 70
     1
102
RTVSPropertyOp39
 70
     1
102
RTVSPropertyOp40
 70
     1
102
RTVSPropertyOp41
 70
     1
102
RTVSPropertyOp42
 70
     1
102
RTVSPropertyOp43
 70
     1
102
RTVSPropertyOp44
 70
     1
102
RTVSPropertyOp45
 70
     1
102
RTVSPropertyOp46
 70
     1
102
RTVSPropertyOp47
 70
     1
102
RTVSPropertyOp48
 70
     1
102
RTVSPropertyOp49
 70
     1
102
RTVSPropertyOp50
 70
     1
102
RTVSPropertyOp51
 70
     0
102
RTVSPropertyOp52
 70
     0
102
RTVSPropertyOp53
 70
     1
102
RTVSPropertyOp54
 70
     1
102
RTVSPropertyOp55
 70
     1
102
RTVSPropertyOp56
 70
     1
102
RTVSPropertyOp57
 70
     1
102
RTVSPost2010Prop28
280
     0
102
RTVSPost2010PropOp28
 70
     1
102
RTVSPost2010Prop29
280
     1
102
RTVSPost2010PropOp29
 70
     1
102
RTVSPost2010Prop30
280
     1
102
RTVSPost2010PropOp30
 70
     1
102
RTVSPost2010Prop31
280
     0
102
RTVSPost2010PropOp31
 70
     1
102
RTVSPost2010Prop32
280
     0
102
RTVSPost2010PropOp32
 70
     1
102
RTVSPost2010Prop33
280
     0
102
RTVSPost2010PropOp33
 70
     1
102
RTVSPost2010Prop34
280
     0
102
RTVSPost2010PropOp34
 70
     1
102
RTVSPost2010Prop35
280
     0
102
RTVSPost2010PropOp35
 70
     1
102
RTVSPost2010Prop36
280
     0
102
RTVSPost2010PropOp36
 70
     1
102
RTVSPost2010Prop37
 90
       50
102
RTVSPost2010PropOp37
 70
     1
102
RTVSPost2010Prop38
140
0.0
102
RTVSPost2010PropOp38
 70
     1
102
RTVSPost2010Prop39
140
1.0
102
RTVSPost2010PropOp39
 70
     1
102
RTVSPost2010Prop40
 90
        0
102
RTVSPost2010PropOp40
 70
     1
102
RTVSPost2010Prop41ColorIndex
 90
       18
102
RTVSPost2010Prop41ColorRGB
 90
        0
102
RTVSPost2010PropOp41
 70
     1
102
RTVSPost2010Prop42
 90
       50
102
RTVSPost2010PropOp42
 70
     1
102
RTVSPost2010Prop43
 90
        3
102
RTVSPost2010PropOp43
 70
     1
102
RTVSPost2010Prop44ColorIndex
 90
        5
102
RTVSPost2010Prop44ColorRGB
 90
      255
102
RTVSPost2010PropOp44
 70
     1
102
RTVSPost2010Prop45
280
     0
102
RTVSPost2010PropOp45
 70
     1
102
RTVSPost2010Prop46
 90
       50
102
RTVSPost2010PropOp46
 70
     1
102
RTVSPost2010Prop47
 90
       50
102
RTVSPost2010PropOp47
 70
     1
102
RTVSPost2010Prop48
 90
       50
102
RTVSPost2010PropOp48
 70
     1
102
RTVSPost2010Prop49
280
     0
102
RTVSPost2010PropOp49
 70
     1
102
RTVSPost2010Prop50
 90
       50
102
RTVSPost2010PropOp50
 70
     1
102
RTVSPost2010Prop51ColorIndex
 90
      256
102
RTVSPost2010Prop51ColorRGB
 90
-16777216
102
RTVSPost2010PropOp51
 70
     0
102
RTVSPost2010Prop52
140
1.0
102
RTVSPost2010PropOp52
 70
     0
102
RTVSPost2010Prop53
 90
        2
102
RTVSPost2010PropOp53
 70
     1
102
RTVSPost2010Prop54
  1
strokes_ogs.tif
102
RTVSPost2010PropOp54
 70
     1
102
RTVSPost2010Prop55
280
     0
102
RTVSPost2010PropOp55
 70
     1
102
RTVSPost2010Prop56
140
1.0
102
RTVSPost2010PropOp56
 70
     1
102
RTVSPost2010Prop57
140
1.0
102
RTVSPost2010PropOp57
 70
     1
  0
XRECORD
  5
308
102
{ACAD_REACTORS
330
307
102
}
330
307
100
AcDbXrecord
280
     1
102
RTVSPropertyOp0
 70
     1
102
RTVSPropertyOp1
 70
     1
102
RTVSPropertyOp2
 70
     1
102
RTVSPropertyOp3
 70
     1
102
RTVSPropertyOp4
 70
     1
102
RTVSPropertyOp5
 70
     1
102
RTVSPropertyOp6
 70
     1
102
RTVSPropertyOp7
 70
     1
102
RTVSPropertyOp8
 70
     1
102
RTVSPropertyOp9
 70
     1
102
RTVSPropertyOp10
 70
     1
102
RTVSPropertyOp11
 70
     1
102
RTVSPropertyOp12
 70
     1
102
RTVSPropertyOp13
 70
     1
102
RTVSPropertyOp14
 70
     1
102
RTVSPropertyOp15
 70
     1
102
RTVSPropertyOp16
 70
     1
102
RTVSPropertyOp17
 70
     1
102
RTVSPropertyOp18
 70
     1
102
RTVSPropertyOp19
 70
     1
102
RTVSPropertyOp20
 70
     1
102
RTVSPropertyOp21
 70
     1
102
RTVSPropertyOp22
 70
     1
102
RTVSPropertyOp23
 70
     1
102
RTVSPropertyOp24
 70
     1
102
RTVSPropertyOp25
 70
     1
102
RTVSPropertyOp26
 70
     1
102
RTVSPropertyOp27
 70
     1
102
RTVSPropertyOp28
 70
     1
102
RTVSPropertyOp29
 70
     1
102
RTVSPropertyOp30
 70
     1
102
RTVSPropertyOp31
 70
     1
102
RTVSPropertyOp32
 70
     1
102
RTVSPropertyOp33
 70
     1
102
RTVSPropertyOp34
 70
     1
102
RTVSPropertyOp35
 70
     1
102
RTVSPropertyOp36
 70
     1
102
RTVSPropertyOp37
 70
     1
102
RTVSPropertyOp38
 70
     1
102
RTVSPropertyOp39
 70
     1
102
RTVSPropertyOp40
 70
     1
102
RTVSPropertyOp41
 70
     1
102
RTVSPropertyOp42
 70
     1
102
RTVSPropertyOp43
 70
     1
102
RTVSPropertyOp44
 70
     1
102
RTVSPropertyOp45
 70
     1
102
RTVSPropertyOp46
 70
     1
102
RTVSPropertyOp47
 70
     1
102
RTVSPropertyOp48
 70
     1
102
RTVSPropertyOp49
 70
     1
102
RTVSPropertyOp50
 70
     1
102
RTVSPropertyOp51
 70
     0
102
RTVSPropertyOp52
 70
     0
102
RTVSPropertyOp53
 70
     1
102
RTVSPropertyOp54
 70
     1
102
RTVSPropertyOp55
 70
     1
102
RTVSPropertyOp56
 70
     1
102
RTVSPropertyOp57
 70
     1
102
RTVSPost2010Prop28
280
     0
102
RTVSPost2010PropOp28
 70
     1
102
RTVSPost2010Prop29
280
     1
102
RTVSPost2010PropOp29
 70
     1
102
RTVSPost2010Prop30
280
     1
102
RTVSPost2010PropOp30
 70
     1
102
RTVSPost2010Prop31
280
     0
102
RTVSPost2010PropOp31
 70
     1
102
RTVSPost2010Prop32
280
     0
102
RTVSPost2010PropOp32
 70
     1
102
RTVSPost2010Prop33
280
     0
102
RTVSPost2010PropOp33
 70
     1
102
RTVSPost2010Prop34
280
     0
102
RTVSPost2010PropOp34
 70
     1
102
RTVSPost2010Prop35
280
     0
102
RTVSPost2010PropOp35
 70
     1
102
RTVSPost2010Prop36
280
     0
102
RTVSPost2010PropOp36
 70
     1
102
RTVSPost2010Prop37
 90
       50
102
RTVSPost2010PropOp37
 70
     1
102
RTVSPost2010Prop38
140
0.0
102
RTVSPost2010PropOp38
 70
     1
102
RTVSPost2010Prop39
140
1.0
102
RTVSPost2010PropOp39
 70
     1
102
RTVSPost2010Prop40
 90
        0
102
RTVSPost2010PropOp40
 70
     1
102
RTVSPost2010Prop41ColorIndex
 90
       18
102
RTVSPost2010Prop41ColorRGB
 90
        0
102
RTVSPost2010PropOp41
 70
     1
102
RTVSPost2010Prop42
 90
       50
102
RTVSPost2010PropOp42
 70
     1
102
RTVSPost2010Prop43
 90
        3
102
RTVSPost2010PropOp43
 70
     1
102
RTVSPost2010Prop44ColorIndex
 90
        5
102
RTVSPost2010Prop44ColorRGB
 90
      255
102
RTVSPost2010PropOp44
 70
     1
102
RTVSPost2010Prop45
280
     0
102
RTVSPost2010PropOp45
 70
     1
102
RTVSPost2010Prop46
 90
       50
102
RTVSPost2010PropOp46
 70
     1
102
RTVSPost2010Prop47
 90
       50
102
RTVSPost2010PropOp47
 70
     1
102
RTVSPost2010Prop48
 90
       50
102
RTVSPost2010PropOp48
 70
     1
102
RTVSPost2010Prop49
280
     0
102
RTVSPost2010PropOp49
 70
     1
102
RTVSPost2010Prop50
 90
       50
102
RTVSPost2010PropOp50
 70
     1
102
RTVSPost2010Prop51ColorIndex
 90
      256
102
RTVSPost2010Prop51ColorRGB
 90
-16777216
102
RTVSPost2010PropOp51
 70
     0
102
RTVSPost2010Prop52
140
1.0
102
RTVSPost2010PropOp52
 70
     0
102
RTVSPost2010Prop53
 90
        2
102
RTVSPost2010PropOp53
 70
     1
102
RTVSPost2010Prop54
  1
strokes_ogs.tif
102
RTVSPost2010PropOp54
 70
     1
102
RTVSPost2010Prop55
280
     0
102
RTVSPost2010PropOp55
 70
     1
102
RTVSPost2010Prop56
140
1.0
102
RTVSPost2010PropOp56
 70
     1
102
RTVSPost2010Prop57
140
1.0
102
RTVSPost2010PropOp57
 70
     1
  0
XRECORD
  5
306
102
{ACAD_REACTORS
330
305
102
}
330
305
100
AcDbXrecord
280
     1
102
RTVSPropertyOp0
 70
     1
102
RTVSPropertyOp1
 70
     1
102
RTVSPropertyOp2
 70
     1
102
RTVSPropertyOp3
 70
     1
102
RTVSPropertyOp4
 70
     1
102
RTVSPropertyOp5
 70
     1
102
RTVSPropertyOp6
 70
     1
102
RTVSPropertyOp7
 70
     1
102
RTVSPropertyOp8
 70
     1
102
RTVSPropertyOp9
 70
     1
102
RTVSPropertyOp10
 70
     1
102
RTVSPropertyOp11
 70
     1
102
RTVSPropertyOp12
 70
     1
102
RTVSPropertyOp13
 70
     1
102
RTVSPropertyOp14
 70
     1
102
RTVSPropertyOp15
 70
     1
102
RTVSPropertyOp16
 70
     1
102
RTVSPropertyOp17
 70
     1
102
RTVSPropertyOp18
 70
     1
102
RTVSPropertyOp19
 70
     1
102
RTVSPropertyOp20
 70
     1
102
RTVSPropertyOp21
 70
     1
102
RTVSPropertyOp22
 70
     1
102
RTVSPropertyOp23
 70
     1
102
RTVSPropertyOp24
 70
     1
102
RTVSPropertyOp25
 70
     1
102
RTVSPropertyOp26
 70
     1
102
RTVSPropertyOp27
 70
     1
102
RTVSPropertyOp28
 70
     1
102
RTVSPropertyOp29
 70
     1
102
RTVSPropertyOp30
 70
     1
102
RTVSPropertyOp31
 70
     1
102
RTVSPropertyOp32
 70
     1
102
RTVSPropertyOp33
 70
     1
102
RTVSPropertyOp34
 70
     1
102
RTVSPropertyOp35
 70
     1
102
RTVSPropertyOp36
 70
     1
102
RTVSPropertyOp37
 70
     1
102
RTVSPropertyOp38
 70
     1
102
RTVSPropertyOp39
 70
     1
102
RTVSPropertyOp40
 70
     1
102
RTVSPropertyOp41
 70
     1
102
RTVSPropertyOp42
 70
     1
102
RTVSPropertyOp43
 70
     1
102
RTVSPropertyOp44
 70
     1
102
RTVSPropertyOp45
 70
     1
102
RTVSPropertyOp46
 70
     1
102
RTVSPropertyOp47
 70
     1
102
RTVSPropertyOp48
 70
     1
102
RTVSPropertyOp49
 70
     1
102
RTVSPropertyOp50
 70
     1
102
RTVSPropertyOp51
 70
     0
102
RTVSPropertyOp52
 70
     0
102
RTVSPropertyOp53
 70
     1
102
RTVSPropertyOp54
 70
     1
102
RTVSPropertyOp55
 70
     1
102
RTVSPropertyOp56
 70
     1
102
RTVSPropertyOp57
 70
     1
102
RTVSPost2010Prop28
280
     0
102
RTVSPost2010PropOp28
 70
     1
102
RTVSPost2010Prop29
280
     1
102
RTVSPost2010PropOp29
 70
     1
102
RTVSPost2010Prop30
280
     1
102
RTVSPost2010PropOp30
 70
     1
102
RTVSPost2010Prop31
280
     0
102
RTVSPost2010PropOp31
 70
     1
102
RTVSPost2010Prop32
280
     0
102
RTVSPost2010PropOp32
 70
     1
102
RTVSPost2010Prop33
280
     0
102
RTVSPost2010PropOp33
 70
     1
102
RTVSPost2010Prop34
280
     0
102
RTVSPost2010PropOp34
 70
     1
102
RTVSPost2010Prop35
280
     0
102
RTVSPost2010PropOp35
 70
     1
102
RTVSPost2010Prop36
280
     0
102
RTVSPost2010PropOp36
 70
     1
102
RTVSPost2010Prop37
 90
       50
102
RTVSPost2010PropOp37
 70
     1
102
RTVSPost2010Prop38
140
0.0
102
RTVSPost2010PropOp38
 70
     1
102
RTVSPost2010Prop39
140
1.0
102
RTVSPost2010PropOp39
 70
     1
102
RTVSPost2010Prop40
 90
        0
102
RTVSPost2010PropOp40
 70
     1
102
RTVSPost2010Prop41ColorIndex
 90
       18
102
RTVSPost2010Prop41ColorRGB
 90
        0
102
RTVSPost2010PropOp41
 70
     1
102
RTVSPost2010Prop42
 90
       50
102
RTVSPost2010PropOp42
 70
     1
102
RTVSPost2010Prop43
 90
        3
102
RTVSPost2010PropOp43
 70
     1
102
RTVSPost2010Prop44ColorIndex
 90
        5
102
RTVSPost2010Prop44ColorRGB
 90
      255
102
RTVSPost2010PropOp44
 70
     1
102
RTVSPost2010Prop45
280
     0
102
RTVSPost2010PropOp45
 70
     1
102
RTVSPost2010Prop46
 90
       50
102
RTVSPost2010PropOp46
 70
     1
102
RTVSPost2010Prop47
 90
       50
102
RTVSPost2010PropOp47
 70
     1
102
RTVSPost2010Prop48
 90
       50
102
RTVSPost2010PropOp48
 70
     1
102
RTVSPost2010Prop49
280
     0
102
RTVSPost2010PropOp49
 70
     1
102
RTVSPost2010Prop50
 90
       50
102
RTVSPost2010PropOp50
 70
     1
102
RTVSPost2010Prop51ColorIndex
 90
      256
102
RTVSPost2010Prop51ColorRGB
 90
-16777216
102
RTVSPost2010PropOp51
 70
     0
102
RTVSPost2010Prop52
140
1.0
102
RTVSPost2010PropOp52
 70
     0
102
RTVSPost2010Prop53
 90
        2
102
RTVSPost2010PropOp53
 70
     1
102
RTVSPost2010Prop54
  1
strokes_ogs.tif
102
RTVSPost2010PropOp54
 70
     1
102
RTVSPost2010Prop55
280
     0
102
RTVSPost2010PropOp55
 70
     1
102
RTVSPost2010Prop56
140
1.0
102
RTVSPost2010PropOp56
 70
     1
102
RTVSPost2010Prop57
140
1.0
102
RTVSPost2010PropOp57
 70
     1
  0
XRECORD
  5
300
102
{ACAD_REACTORS
330
2FF
102
}
330
2FF
100
AcDbXrecord
280
     1
102
RTVSPropertyOp0
 70
     1
102
RTVSPropertyOp1
 70
     1
102
RTVSPropertyOp2
 70
     1
102
RTVSPropertyOp3
 70
     1
102
RTVSPropertyOp4
 70
     1
102
RTVSPropertyOp5
 70
     1
102
RTVSPropertyOp6
 70
     1
102
RTVSPropertyOp7
 70
     1
102
RTVSPropertyOp8
 70
     1
102
RTVSPropertyOp9
 70
     1
102
RTVSPropertyOp10
 70
     1
102
RTVSPropertyOp11
 70
     1
102
RTVSPropertyOp12
 70
     1
102
RTVSPropertyOp13
 70
     1
102
RTVSPropertyOp14
 70
     1
102
RTVSPropertyOp15
 70
     1
102
RTVSPropertyOp16
 70
     1
102
RTVSPropertyOp17
 70
     1
102
RTVSPropertyOp18
 70
     1
102
RTVSPropertyOp19
 70
     1
102
RTVSPropertyOp20
 70
     1
102
RTVSPropertyOp21
 70
     1
102
RTVSPropertyOp22
 70
     1
102
RTVSPropertyOp23
 70
     1
102
RTVSPropertyOp24
 70
     1
102
RTVSPropertyOp25
 70
     1
102
RTVSPropertyOp26
 70
     1
102
RTVSPropertyOp27
 70
     1
102
RTVSPropertyOp28
 70
     1
102
RTVSPropertyOp29
 70
     1
102
RTVSPropertyOp30
 70
     1
102
RTVSPropertyOp31
 70
     1
102
RTVSPropertyOp32
 70
     1
102
RTVSPropertyOp33
 70
     1
102
RTVSPropertyOp34
 70
     1
102
RTVSPropertyOp35
 70
     1
102
RTVSPropertyOp36
 70
     1
102
RTVSPropertyOp37
 70
     1
102
RTVSPropertyOp38
 70
     1
102
RTVSPropertyOp39
 70
     1
102
RTVSPropertyOp40
 70
     1
102
RTVSPropertyOp41
 70
     1
102
RTVSPropertyOp42
 70
     1
102
RTVSPropertyOp43
 70
     1
102
RTVSPropertyOp44
 70
     1
102
RTVSPropertyOp45
 70
     1
102
RTVSPropertyOp46
 70
     1
102
RTVSPropertyOp47
 70
     1
102
RTVSPropertyOp48
 70
     1
102
RTVSPropertyOp49
 70
     1
102
RTVSPropertyOp50
 70
     1
102
RTVSPropertyOp51
 70
     0
102
RTVSPropertyOp52
 70
     0
102
RTVSPropertyOp53
 70
     1
102
RTVSPropertyOp54
 70
     1
102
RTVSPropertyOp55
 70
     1
102
RTVSPropertyOp56
 70
     1
102
RTVSPropertyOp57
 70
     1
102
RTVSPost2010Prop28
280
     0
102
RTVSPost2010PropOp28
 70
     1
102
RTVSPost2010Prop29
280
     1
102
RTVSPost2010PropOp29
 70
     1
102
RTVSPost2010Prop30
280
     1
102
RTVSPost2010PropOp30
 70
     1
102
RTVSPost2010Prop31
280
     0
102
RTVSPost2010PropOp31
 70
     1
102
RTVSPost2010Prop32
280
     0
102
RTVSPost2010PropOp32
 70
     1
102
RTVSPost2010Prop33
280
     0
102
RTVSPost2010PropOp33
 70
     1
102
RTVSPost2010Prop34
280
     0
102
RTVSPost2010PropOp34
 70
     1
102
RTVSPost2010Prop35
280
     0
102
RTVSPost2010PropOp35
 70
     1
102
RTVSPost2010Prop36
280
     0
102
RTVSPost2010PropOp36
 70
     1
102
RTVSPost2010Prop37
 90
       50
102
RTVSPost2010PropOp37
 70
     1
102
RTVSPost2010Prop38
140
0.0
102
RTVSPost2010PropOp38
 70
     1
102
RTVSPost2010Prop39
140
1.0
102
RTVSPost2010PropOp39
 70
     1
102
RTVSPost2010Prop40
 90
        0
102
RTVSPost2010PropOp40
 70
     1
102
RTVSPost2010Prop41ColorIndex
 90
       18
102
RTVSPost2010Prop41ColorRGB
 90
        0
102
RTVSPost2010PropOp41
 70
     1
102
RTVSPost2010Prop42
 90
       50
102
RTVSPost2010PropOp42
 70
     1
102
RTVSPost2010Prop43
 90
        3
102
RTVSPost2010PropOp43
 70
     1
102
RTVSPost2010Prop44ColorIndex
 90
        5
102
RTVSPost2010Prop44ColorRGB
 90
      255
102
RTVSPost2010PropOp44
 70
     1
102
RTVSPost2010Prop45
280
     0
102
RTVSPost2010PropOp45
 70
     1
102
RTVSPost2010Prop46
 90
       50
102
RTVSPost2010PropOp46
 70
     1
102
RTVSPost2010Prop47
 90
       50
102
RTVSPost2010PropOp47
 70
     1
102
RTVSPost2010Prop48
 90
       50
102
RTVSPost2010PropOp48
 70
     1
102
RTVSPost2010Prop49
280
     0
102
RTVSPost2010PropOp49
 70
     1
102
RTVSPost2010Prop50
 90
       50
102
RTVSPost2010PropOp50
 70
     1
102
RTVSPost2010Prop51ColorIndex
 90
      256
102
RTVSPost2010Prop51ColorRGB
 90
-16777216
102
RTVSPost2010PropOp51
 70
     0
102
RTVSPost2010Prop52
140
1.0
102
RTVSPost2010PropOp52
 70
     0
102
RTVSPost2010Prop53
 90
        2
102
RTVSPost2010PropOp53
 70
     1
102
RTVSPost2010Prop54
  1
strokes_ogs.tif
102
RTVSPost2010PropOp54
 70
     1
102
RTVSPost2010Prop55
280
     0
102
RTVSPost2010PropOp55
 70
     1
102
RTVSPost2010Prop56
140
1.0
102
RTVSPost2010PropOp56
 70
     1
102
RTVSPost2010Prop57
140
1.0
102
RTVSPost2010PropOp57
 70
     1
  0
XRECORD
  5
302
102
{ACAD_REACTORS
330
301
102
}
330
301
100
AcDbXrecord
280
     1
102
RTVSPropertyOp0
 70
     1
102
RTVSPropertyOp1
 70
     1
102
RTVSPropertyOp2
 70
     1
102
RTVSPropertyOp3
 70
     1
102
RTVSPropertyOp4
 70
     1
102
RTVSPropertyOp5
 70
     1
102
RTVSPropertyOp6
 70
     1
102
RTVSPropertyOp7
 70
     1
102
RTVSPropertyOp8
 70
     1
102
RTVSPropertyOp9
 70
     1
102
RTVSPropertyOp10
 70
     1
102
RTVSPropertyOp11
 70
     1
102
RTVSPropertyOp12
 70
     1
102
RTVSPropertyOp13
 70
     1
102
RTVSPropertyOp14
 70
     1
102
RTVSPropertyOp15
 70
     1
102
RTVSPropertyOp16
 70
     1
102
RTVSPropertyOp17
 70
     1
102
RTVSPropertyOp18
 70
     1
102
RTVSPropertyOp19
 70
     1
102
RTVSPropertyOp20
 70
     1
102
RTVSPropertyOp21
 70
     1
102
RTVSPropertyOp22
 70
     1
102
RTVSPropertyOp23
 70
     1
102
RTVSPropertyOp24
 70
     1
102
RTVSPropertyOp25
 70
     1
102
RTVSPropertyOp26
 70
     1
102
RTVSPropertyOp27
 70
     1
102
RTVSPropertyOp28
 70
     1
102
RTVSPropertyOp29
 70
     1
102
RTVSPropertyOp30
 70
     1
102
RTVSPropertyOp31
 70
     1
102
RTVSPropertyOp32
 70
     1
102
RTVSPropertyOp33
 70
     1
102
RTVSPropertyOp34
 70
     1
102
RTVSPropertyOp35
 70
     1
102
RTVSPropertyOp36
 70
     1
102
RTVSPropertyOp37
 70
     1
102
RTVSPropertyOp38
 70
     1
102
RTVSPropertyOp39
 70
     1
102
RTVSPropertyOp40
 70
     1
102
RTVSPropertyOp41
 70
     1
102
RTVSPropertyOp42
 70
     1
102
RTVSPropertyOp43
 70
     1
102
RTVSPropertyOp44
 70
     1
102
RTVSPropertyOp45
 70
     1
102
RTVSPropertyOp46
 70
     1
102
RTVSPropertyOp47
 70
     1
102
RTVSPropertyOp48
 70
     1
102
RTVSPropertyOp49
 70
     1
102
RTVSPropertyOp50
 70
     1
102
RTVSPropertyOp51
 70
     0
102
RTVSPropertyOp52
 70
     0
102
RTVSPropertyOp53
 70
     1
102
RTVSPropertyOp54
 70
     1
102
RTVSPropertyOp55
 70
     1
102
RTVSPropertyOp56
 70
     1
102
RTVSPropertyOp57
 70
     1
102
RTVSPost2010Prop28
280
     0
102
RTVSPost2010PropOp28
 70
     1
102
RTVSPost2010Prop29
280
     1
102
RTVSPost2010PropOp29
 70
     1
102
RTVSPost2010Prop30
280
     1
102
RTVSPost2010PropOp30
 70
     1
102
RTVSPost2010Prop31
280
     0
102
RTVSPost2010PropOp31
 70
     1
102
RTVSPost2010Prop32
280
     0
102
RTVSPost2010PropOp32
 70
     1
102
RTVSPost2010Prop33
280
     0
102
RTVSPost2010PropOp33
 70
     1
102
RTVSPost2010Prop34
280
     0
102
RTVSPost2010PropOp34
 70
     1
102
RTVSPost2010Prop35
280
     0
102
RTVSPost2010PropOp35
 70
     1
102
RTVSPost2010Prop36
280
     0
102
RTVSPost2010PropOp36
 70
     1
102
RTVSPost2010Prop37
 90
       50
102
RTVSPost2010PropOp37
 70
     1
102
RTVSPost2010Prop38
140
0.0
102
RTVSPost2010PropOp38
 70
     1
102
RTVSPost2010Prop39
140
1.0
102
RTVSPost2010PropOp39
 70
     1
102
RTVSPost2010Prop40
 90
        0
102
RTVSPost2010PropOp40
 70
     1
102
RTVSPost2010Prop41ColorIndex
 90
       18
102
RTVSPost2010Prop41ColorRGB
 90
        0
102
RTVSPost2010PropOp41
 70
     1
102
RTVSPost2010Prop42
 90
       50
102
RTVSPost2010PropOp42
 70
     1
102
RTVSPost2010Prop43
 90
        3
102
RTVSPost2010PropOp43
 70
     1
102
RTVSPost2010Prop44ColorIndex
 90
        5
102
RTVSPost2010Prop44ColorRGB
 90
      255
102
RTVSPost2010PropOp44
 70
     1
102
RTVSPost2010Prop45
280
     0
102
RTVSPost2010PropOp45
 70
     1
102
RTVSPost2010Prop46
 90
       50
102
RTVSPost2010PropOp46
 70
     1
102
RTVSPost2010Prop47
 90
       50
102
RTVSPost2010PropOp47
 70
     1
102
RTVSPost2010Prop48
 90
       50
102
RTVSPost2010PropOp48
 70
     1
102
RTVSPost2010Prop49
280
     0
102
RTVSPost2010PropOp49
 70
     1
102
RTVSPost2010Prop50
 90
       50
102
RTVSPost2010PropOp50
 70
     1
102
RTVSPost2010Prop51ColorIndex
 90
      256
102
RTVSPost2010Prop51ColorRGB
 90
-16777216
102
RTVSPost2010PropOp51
 70
     0
102
RTVSPost2010Prop52
140
1.0
102
RTVSPost2010PropOp52
 70
     0
102
RTVSPost2010Prop53
 90
        2
102
RTVSPost2010PropOp53
 70
     1
102
RTVSPost2010Prop54
  1
strokes_ogs.tif
102
RTVSPost2010PropOp54
 70
     1
102
RTVSPost2010Prop55
280
     0
102
RTVSPost2010PropOp55
 70
     1
102
RTVSPost2010Prop56
140
1.0
102
RTVSPost2010PropOp56
 70
     1
102
RTVSPost2010Prop57
140
1.0
102
RTVSPost2010PropOp57
 70
     1
  0
XRECORD
  5
2F2
102
{ACAD_REACTORS
330
2F1
102
}
330
2F1
100
AcDbXrecord
280
     1
102
RTVSPropertyOp0
 70
     1
102
RTVSPropertyOp1
 70
     1
102
RTVSPropertyOp2
 70
     1
102
RTVSPropertyOp3
 70
     1
102
RTVSPropertyOp4
 70
     1
102
RTVSPropertyOp5
 70
     1
102
RTVSPropertyOp6
 70
     1
102
RTVSPropertyOp7
 70
     1
102
RTVSPropertyOp8
 70
     1
102
RTVSPropertyOp9
 70
     1
102
RTVSPropertyOp10
 70
     1
102
RTVSPropertyOp11
 70
     1
102
RTVSPropertyOp12
 70
     1
102
RTVSPropertyOp13
 70
     1
102
RTVSPropertyOp14
 70
     1
102
RTVSPropertyOp15
 70
     1
102
RTVSPropertyOp16
 70
     1
102
RTVSPropertyOp17
 70
     1
102
RTVSPropertyOp18
 70
     1
102
RTVSPropertyOp19
 70
     1
102
RTVSPropertyOp20
 70
     1
102
RTVSPropertyOp21
 70
     1
102
RTVSPropertyOp22
 70
     1
102
RTVSPropertyOp23
 70
     1
102
RTVSPropertyOp24
 70
     1
102
RTVSPropertyOp25
 70
     1
102
RTVSPropertyOp26
 70
     1
102
RTVSPropertyOp27
 70
     1
102
RTVSPropertyOp28
 70
     1
102
RTVSPropertyOp29
 70
     1
102
RTVSPropertyOp30
 70
     1
102
RTVSPropertyOp31
 70
     1
102
RTVSPropertyOp32
 70
     1
102
RTVSPropertyOp33
 70
     1
102
RTVSPropertyOp34
 70
     1
102
RTVSPropertyOp35
 70
     1
102
RTVSPropertyOp36
 70
     1
102
RTVSPropertyOp37
 70
     1
102
RTVSPropertyOp38
 70
     1
102
RTVSPropertyOp39
 70
     1
102
RTVSPropertyOp40
 70
     1
102
RTVSPropertyOp41
 70
     1
102
RTVSPropertyOp42
 70
     1
102
RTVSPropertyOp43
 70
     1
102
RTVSPropertyOp44
 70
     1
102
RTVSPropertyOp45
 70
     1
102
RTVSPropertyOp46
 70
     1
102
RTVSPropertyOp47
 70
     1
102
RTVSPropertyOp48
 70
     1
102
RTVSPropertyOp49
 70
     1
102
RTVSPropertyOp50
 70
     1
102
RTVSPropertyOp51
 70
     0
102
RTVSPropertyOp52
 70
     0
102
RTVSPropertyOp53
 70
     1
102
RTVSPropertyOp54
 70
     1
102
RTVSPropertyOp55
 70
     1
102
RTVSPropertyOp56
 70
     1
102
RTVSPropertyOp57
 70
     1
102
RTVSPost2010Prop28
280
     0
102
RTVSPost2010PropOp28
 70
     1
102
RTVSPost2010Prop29
280
     1
102
RTVSPost2010PropOp29
 70
     1
102
RTVSPost2010Prop30
280
     1
102
RTVSPost2010PropOp30
 70
     1
102
RTVSPost2010Prop31
280
     0
102
RTVSPost2010PropOp31
 70
     1
102
RTVSPost2010Prop32
280
     0
102
RTVSPost2010PropOp32
 70
     1
102
RTVSPost2010Prop33
280
     0
102
RTVSPost2010PropOp33
 70
     1
102
RTVSPost2010Prop34
280
     0
102
RTVSPost2010PropOp34
 70
     1
102
RTVSPost2010Prop35
280
     0
102
RTVSPost2010PropOp35
 70
     1
102
RTVSPost2010Prop36
280
     0
102
RTVSPost2010PropOp36
 70
     1
102
RTVSPost2010Prop37
 90
       50
102
RTVSPost2010PropOp37
 70
     1
102
RTVSPost2010Prop38
140
0.0
102
RTVSPost2010PropOp38
 70
     1
102
RTVSPost2010Prop39
140
1.0
102
RTVSPost2010PropOp39
 70
     1
102
RTVSPost2010Prop40
 90
        0
102
RTVSPost2010PropOp40
 70
     1
102
RTVSPost2010Prop41ColorIndex
 90
       18
102
RTVSPost2010Prop41ColorRGB
 90
        0
102
RTVSPost2010PropOp41
 70
     1
102
RTVSPost2010Prop42
 90
       50
102
RTVSPost2010PropOp42
 70
     1
102
RTVSPost2010Prop43
 90
        3
102
RTVSPost2010PropOp43
 70
     1
102
RTVSPost2010Prop44ColorIndex
 90
        5
102
RTVSPost2010Prop44ColorRGB
 90
      255
102
RTVSPost2010PropOp44
 70
     1
102
RTVSPost2010Prop45
280
     0
102
RTVSPost2010PropOp45
 70
     1
102
RTVSPost2010Prop46
 90
       50
102
RTVSPost2010PropOp46
 70
     1
102
RTVSPost2010Prop47
 90
       50
102
RTVSPost2010PropOp47
 70
     1
102
RTVSPost2010Prop48
 90
       50
102
RTVSPost2010PropOp48
 70
     1
102
RTVSPost2010Prop49
280
     0
102
RTVSPost2010PropOp49
 70
     1
102
RTVSPost2010Prop50
 90
       50
102
RTVSPost2010PropOp50
 70
     1
102
RTVSPost2010Prop51ColorIndex
 90
      256
102
RTVSPost2010Prop51ColorRGB
 90
-16777216
102
RTVSPost2010PropOp51
 70
     0
102
RTVSPost2010Prop52
140
1.0
102
RTVSPost2010PropOp52
 70
     0
102
RTVSPost2010Prop53
 90
        2
102
RTVSPost2010PropOp53
 70
     1
102
RTVSPost2010Prop54
  1
strokes_ogs.tif
102
RTVSPost2010PropOp54
 70
     1
102
RTVSPost2010Prop55
280
     0
102
RTVSPost2010PropOp55
 70
     1
102
RTVSPost2010Prop56
140
1.0
102
RTVSPost2010PropOp56
 70
     1
102
RTVSPost2010Prop57
140
1.0
102
RTVSPost2010PropOp57
 70
     1
  0
XRECORD
  5
2E4
102
{ACAD_REACTORS
330
2E3
102
}
330
2E3
100
AcDbXrecord
280
     1
102
RTVSPropertyOp0
 70
     1
102
RTVSPropertyOp1
 70
     1
102
RTVSPropertyOp2
 70
     1
102
RTVSPropertyOp3
 70
     1
102
RTVSPropertyOp4
 70
     1
102
RTVSPropertyOp5
 70
     1
102
RTVSPropertyOp6
 70
     1
102
RTVSPropertyOp7
 70
     1
102
RTVSPropertyOp8
 70
     1
102
RTVSPropertyOp9
 70
     1
102
RTVSPropertyOp10
 70
     1
102
RTVSPropertyOp11
 70
     1
102
RTVSPropertyOp12
 70
     1
102
RTVSPropertyOp13
 70
     1
102
RTVSPropertyOp14
 70
     1
102
RTVSPropertyOp15
 70
     1
102
RTVSPropertyOp16
 70
     1
102
RTVSPropertyOp17
 70
     1
102
RTVSPropertyOp18
 70
     1
102
RTVSPropertyOp19
 70
     1
102
RTVSPropertyOp20
 70
     1
102
RTVSPropertyOp21
 70
     1
102
RTVSPropertyOp22
 70
     1
102
RTVSPropertyOp23
 70
     1
102
RTVSPropertyOp24
 70
     1
102
RTVSPropertyOp25
 70
     1
102
RTVSPropertyOp26
 70
     1
102
RTVSPropertyOp27
 70
     1
102
RTVSPropertyOp28
 70
     1
102
RTVSPropertyOp29
 70
     1
102
RTVSPropertyOp30
 70
     1
102
RTVSPropertyOp31
 70
     1
102
RTVSPropertyOp32
 70
     1
102
RTVSPropertyOp33
 70
     1
102
RTVSPropertyOp34
 70
     1
102
RTVSPropertyOp35
 70
     1
102
RTVSPropertyOp36
 70
     1
102
RTVSPropertyOp37
 70
     1
102
RTVSPropertyOp38
 70
     1
102
RTVSPropertyOp39
 70
     1
102
RTVSPropertyOp40
 70
     1
102
RTVSPropertyOp41
 70
     1
102
RTVSPropertyOp42
 70
     1
102
RTVSPropertyOp43
 70
     1
102
RTVSPropertyOp44
 70
     1
102
RTVSPropertyOp45
 70
     1
102
RTVSPropertyOp46
 70
     1
102
RTVSPropertyOp47
 70
     1
102
RTVSPropertyOp48
 70
     1
102
RTVSPropertyOp49
 70
     1
102
RTVSPropertyOp50
 70
     1
102
RTVSPropertyOp51
 70
     0
102
RTVSPropertyOp52
 70
     0
102
RTVSPropertyOp53
 70
     1
102
RTVSPropertyOp54
 70
     1
102
RTVSPropertyOp55
 70
     1
102
RTVSPropertyOp56
 70
     1
102
RTVSPropertyOp57
 70
     1
102
RTVSPost2010Prop28
280
     0
102
RTVSPost2010PropOp28
 70
     1
102
RTVSPost2010Prop29
280
     1
102
RTVSPost2010PropOp29
 70
     1
102
RTVSPost2010Prop30
280
     1
102
RTVSPost2010PropOp30
 70
     1
102
RTVSPost2010Prop31
280
     0
102
RTVSPost2010PropOp31
 70
     1
102
RTVSPost2010Prop32
280
     0
102
RTVSPost2010PropOp32
 70
     1
102
RTVSPost2010Prop33
280
     0
102
RTVSPost2010PropOp33
 70
     1
102
RTVSPost2010Prop34
280
     0
102
RTVSPost2010PropOp34
 70
     1
102
RTVSPost2010Prop35
280
     0
102
RTVSPost2010PropOp35
 70
     1
102
RTVSPost2010Prop36
280
     0
102
RTVSPost2010PropOp36
 70
     1
102
RTVSPost2010Prop37
 90
       50
102
RTVSPost2010PropOp37
 70
     1
102
RTVSPost2010Prop38
140
0.0
102
RTVSPost2010PropOp38
 70
     1
102
RTVSPost2010Prop39
140
1.0
102
RTVSPost2010PropOp39
 70
     1
102
RTVSPost2010Prop40
 90
        0
102
RTVSPost2010PropOp40
 70
     1
102
RTVSPost2010Prop41ColorIndex
 90
       18
102
RTVSPost2010Prop41ColorRGB
 90
        0
102
RTVSPost2010PropOp41
 70
     1
102
RTVSPost2010Prop42
 90
       50
102
RTVSPost2010PropOp42
 70
     1
102
RTVSPost2010Prop43
 90
        3
102
RTVSPost2010PropOp43
 70
     1
102
RTVSPost2010Prop44ColorIndex
 90
        5
102
RTVSPost2010Prop44ColorRGB
 90
      255
102
RTVSPost2010PropOp44
 70
     1
102
RTVSPost2010Prop45
280
     0
102
RTVSPost2010PropOp45
 70
     1
102
RTVSPost2010Prop46
 90
       50
102
RTVSPost2010PropOp46
 70
     1
102
RTVSPost2010Prop47
 90
       50
102
RTVSPost2010PropOp47
 70
     1
102
RTVSPost2010Prop48
 90
       50
102
RTVSPost2010PropOp48
 70
     1
102
RTVSPost2010Prop49
280
     0
102
RTVSPost2010PropOp49
 70
     1
102
RTVSPost2010Prop50
 90
       50
102
RTVSPost2010PropOp50
 70
     1
102
RTVSPost2010Prop51ColorIndex
 90
      256
102
RTVSPost2010Prop51ColorRGB
 90
-16777216
102
RTVSPost2010PropOp51
 70
     0
102
RTVSPost2010Prop52
140
1.0
102
RTVSPost2010PropOp52
 70
     0
102
RTVSPost2010Prop53
 90
        2
102
RTVSPost2010PropOp53
 70
     1
102
RTVSPost2010Prop54
  1
strokes_ogs.tif
102
RTVSPost2010PropOp54
 70
     1
102
RTVSPost2010Prop55
280
     0
102
RTVSPost2010PropOp55
 70
     1
102
RTVSPost2010Prop56
140
1.0
102
RTVSPost2010PropOp56
 70
     1
102
RTVSPost2010Prop57
140
1.0
102
RTVSPost2010PropOp57
 70
     1
  0
XRECORD
  5
304
102
{ACAD_REACTORS
330
303
102
}
330
303
100
AcDbXrecord
280
     1
102
RTVSPropertyOp0
 70
     1
102
RTVSPropertyOp1
 70
     1
102
RTVSPropertyOp2
 70
     1
102
RTVSPropertyOp3
 70
     1
102
RTVSPropertyOp4
 70
     1
102
RTVSPropertyOp5
 70
     1
102
RTVSPropertyOp6
 70
     1
102
RTVSPropertyOp7
 70
     1
102
RTVSPropertyOp8
 70
     1
102
RTVSPropertyOp9
 70
     1
102
RTVSPropertyOp10
 70
     1
102
RTVSPropertyOp11
 70
     1
102
RTVSPropertyOp12
 70
     1
102
RTVSPropertyOp13
 70
     1
102
RTVSPropertyOp14
 70
     1
102
RTVSPropertyOp15
 70
     1
102
RTVSPropertyOp16
 70
     1
102
RTVSPropertyOp17
 70
     1
102
RTVSPropertyOp18
 70
     1
102
RTVSPropertyOp19
 70
     1
102
RTVSPropertyOp20
 70
     1
102
RTVSPropertyOp21
 70
     1
102
RTVSPropertyOp22
 70
     1
102
RTVSPropertyOp23
 70
     1
102
RTVSPropertyOp24
 70
     1
102
RTVSPropertyOp25
 70
     1
102
RTVSPropertyOp26
 70
     1
102
RTVSPropertyOp27
 70
     1
102
RTVSPropertyOp28
 70
     1
102
RTVSPropertyOp29
 70
     1
102
RTVSPropertyOp30
 70
     1
102
RTVSPropertyOp31
 70
     1
102
RTVSPropertyOp32
 70
     1
102
RTVSPropertyOp33
 70
     1
102
RTVSPropertyOp34
 70
     1
102
RTVSPropertyOp35
 70
     1
102
RTVSPropertyOp36
 70
     1
102
RTVSPropertyOp37
 70
     1
102
RTVSPropertyOp38
 70
     1
102
RTVSPropertyOp39
 70
     1
102
RTVSPropertyOp40
 70
     1
102
RTVSPropertyOp41
 70
     1
102
RTVSPropertyOp42
 70
     1
102
RTVSPropertyOp43
 70
     1
102
RTVSPropertyOp44
 70
     1
102
RTVSPropertyOp45
 70
     1
102
RTVSPropertyOp46
 70
     1
102
RTVSPropertyOp47
 70
     1
102
RTVSPropertyOp48
 70
     1
102
RTVSPropertyOp49
 70
     1
102
RTVSPropertyOp50
 70
     1
102
RTVSPropertyOp51
 70
     0
102
RTVSPropertyOp52
 70
     0
102
RTVSPropertyOp53
 70
     1
102
RTVSPropertyOp54
 70
     1
102
RTVSPropertyOp55
 70
     1
102
RTVSPropertyOp56
 70
     1
102
RTVSPropertyOp57
 70
     1
102
RTVSPost2010Prop28
280
     0
102
RTVSPost2010PropOp28
 70
     1
102
RTVSPost2010Prop29
280
     1
102
RTVSPost2010PropOp29
 70
     1
102
RTVSPost2010Prop30
280
     1
102
RTVSPost2010PropOp30
 70
     1
102
RTVSPost2010Prop31
280
     0
102
RTVSPost2010PropOp31
 70
     1
102
RTVSPost2010Prop32
280
     0
102
RTVSPost2010PropOp32
 70
     1
102
RTVSPost2010Prop33
280
     0
102
RTVSPost2010PropOp33
 70
     1
102
RTVSPost2010Prop34
280
     0
102
RTVSPost2010PropOp34
 70
     1
102
RTVSPost2010Prop35
280
     0
102
RTVSPost2010PropOp35
 70
     1
102
RTVSPost2010Prop36
280
     0
102
RTVSPost2010PropOp36
 70
     1
102
RTVSPost2010Prop37
 90
       50
102
RTVSPost2010PropOp37
 70
     1
102
RTVSPost2010Prop38
140
0.0
102
RTVSPost2010PropOp38
 70
     1
102
RTVSPost2010Prop39
140
1.0
102
RTVSPost2010PropOp39
 70
     1
102
RTVSPost2010Prop40
 90
        0
102
RTVSPost2010PropOp40
 70
     1
102
RTVSPost2010Prop41ColorIndex
 90
       18
102
RTVSPost2010Prop41ColorRGB
 90
        0
102
RTVSPost2010PropOp41
 70
     1
102
RTVSPost2010Prop42
 90
       50
102
RTVSPost2010PropOp42
 70
     1
102
RTVSPost2010Prop43
 90
        3
102
RTVSPost2010PropOp43
 70
     1
102
RTVSPost2010Prop44ColorIndex
 90
        5
102
RTVSPost2010Prop44ColorRGB
 90
      255
102
RTVSPost2010PropOp44
 70
     1
102
RTVSPost2010Prop45
280
     0
102
RTVSPost2010PropOp45
 70
     1
102
RTVSPost2010Prop46
 90
       50
102
RTVSPost2010PropOp46
 70
     1
102
RTVSPost2010Prop47
 90
       50
102
RTVSPost2010PropOp47
 70
     1
102
RTVSPost2010Prop48
 90
       50
102
RTVSPost2010PropOp48
 70
     1
102
RTVSPost2010Prop49
280
     0
102
RTVSPost2010PropOp49
 70
     1
102
RTVSPost2010Prop50
 90
       50
102
RTVSPost2010PropOp50
 70
     1
102
RTVSPost2010Prop51ColorIndex
 90
      256
102
RTVSPost2010Prop51ColorRGB
 90
-16777216
102
RTVSPost2010PropOp51
 70
     0
102
RTVSPost2010Prop52
140
1.0
102
RTVSPost2010PropOp52
 70
     0
102
RTVSPost2010Prop53
 90
        2
102
RTVSPost2010PropOp53
 70
     1
102
RTVSPost2010Prop54
  1
strokes_ogs.tif
102
RTVSPost2010PropOp54
 70
     1
102
RTVSPost2010Prop55
280
     0
102
RTVSPost2010PropOp55
 70
     1
102
RTVSPost2010Prop56
140
1.0
102
RTVSPost2010PropOp56
 70
     1
102
RTVSPost2010Prop57
140
1.0
102
RTVSPost2010PropOp57
 70
     1
  0
ENDSEC
  0
EOF
