  0
SECTION
  2
HEADER
  9
$ACADVER
  1
AC1018
  9
$ACADMAINTVER
 70
     0
  9
$DWGCODEPAGE
  3
ANSI_1252
  9
$INSBASE
 10
0.0
 20
0.0
 30
0.0
  9
$EXTMIN
 10
-0.5
 20
-0.5
 30
-0.5
  9
$EXTMAX
 10
5.0
 20
5.0
 30
5.0
  9
$LIMMIN
 10
-0.5
 20
-0.5
  9
$LIMMAX
 10
5.0
 20
5.0
  9
$ORTHOMODE
 70
     0
  9
$REGENMODE
 70
     1
  9
$FILLMODE
 70
     1
  9
$QTEXTMODE
 70
     0
  9
$MIRRTEXT
 70
     1
  9
$LTSCALE
 40
1.0
  9
$ATTMODE
 70
     1
  9
$TEXTSIZE
 40
0.2
  9
$TRACEWID
 40
0.05
  9
$TEXTSTYLE
  7
Standard
  9
$CLAYER
  8
0
  9
$CELTYPE
  6
ByLayer
  9
$CECOLOR
 62
   256
  9
$CELTSCALE
 40
1.0
  9
$DISPSILH
 70
     0
  9
$DIMSCALE
 40
1.0
  9
$DIMASZ
 40
0.18
  9
$DIMEXO
 40
0.0625
  9
$DIMDLI
 40
0.38
  9
$DIMRND
 40
0.0
  9
$DIMDLE
 40
0.0
  9
$DIMEXE
 40
0.18
  9
$DIMTP
 40
0.0
  9
$DIMTM
 40
0.0
  9
$DIMTXT
 40
0.18
  9
$DIMCEN
 40
0.09
  9
$DIMTSZ
 40
0.0
  9
$DIMTOL
 70
     0
  9
$DIMLIM
 70
     0
  9
$DIMTIH
 70
     1
  9
$DIMTOH
 70
     1
  9
$DIMSE1
 70
     0
  9
$DIMSE2
 70
     0
  9
$DIMTAD
 70
     0
  9
$DIMZIN
 70
     0
  9
$DIMBLK
  1

  9
$DIMASO
 70
     1
  9
$DIMSHO
 70
     1
  9
$DIMPOST
  1

  9
$DIMAPOST
  1

  9
$DIMALT
 70
     0
  9
$DIMALTD
 70
     2
  9
$DIMALTF
 40
25.4
  9
$DIMLFAC
 40
1.0
  9
$DIMTOFL
 70
     0
  9
$DIMTVP
 40
0.0
  9
$DIMTIX
 70
     0
  9
$DIMSOXD
 70
     0
  9
$DIMSAH
 70
     0
  9
$DIMBLK1
  1

  9
$DIMBLK2
  1

  9
$DIMSTYLE
  2
Standard
  9
$DIMCLRD
 70
     0
  9
$DIMCLRE
 70
     0
  9
$DIMCLRT
 70
     0
  9
$DIMTFAC
 40
1.0
  9
$DIMGAP
 40
0.09
  9
$DIMJUST
 70
     0
  9
$DIMSD1
 70
     0
  9
$DIMSD2
 70
     0
  9
$DIMTOLJ
 70
     1
  9
$DIMTZIN
 70
     0
  9
$DIMALTZ
 70
     0
  9
$DIMALTTZ
 70
     0
  9
$DIMUPT
 70
     0
  9
$DIMDEC
 70
     4
  9
$DIMTDEC
 70
     4
  9
$DIMALTU
 70
     2
  9
$DIMALTTD
 70
     2
  9
$DIMTXSTY
  7
Standard
  9
$DIMAUNIT
 70
     0
  9
$DIMADEC
 70
     0
  9
$DIMALTRND
 40
0.0
  9
$DIMAZIN
 70
     0
  9
$DIMDSEP
 70
    46
  9
$DIMATFIT
 70
     3
  9
$DIMFRAC
 70
     0
  9
$DIMLDRBLK
  1

  9
$DIMLUNIT
 70
     2
  9
$DIMLWD
 70
    -2
  9
$DIMLWE
 70
    -2
  9
$DIMTMOVE
 70
     0
  9
$LUNITS
 70
     2
  9
$LUPREC
 70
     4
  9
$SKETCHINC
 40
0.1
  9
$FILLETRAD
 40
0.5
  9
$AUNITS
 70
     0
  9
$AUPREC
 70
     0
  9
$MENU
  1
.
  9
$ELEVATION
 40
0.0
  9
$PELEVATION
 40
0.0
  9
$THICKNESS
 40
0.0
  9
$LIMCHECK
 70
     0
  9
$CHAMFERA
 40
0.0
  9
$CHAMFERB
 40
0.0
  9
$CHAMFERC
 40
0.0
  9
$CHAMFERD
 40
0.0
  9
$SKPOLY
 70
     0
  9
$TDCREATE
 40
2458159.452056215
  9
$TDUCREATE
 40
2458159.410389549
  9
$TDUPDATE
 40
2458159.452066401
  9
$TDUUPDATE
 40
2458159.410399734
  9
$TDINDWG
 40
0.0000000116
  9
$TDUSRTIMER
 40
0.0000000116
  9
$USRTIMER
 70
     1
  9
$ANGBASE
 50
0.0
  9
$ANGDIR
 70
     0
  9
$PDMODE
 70
     0
  9
$PDSIZE
 40
0.0
  9
$PLINEWID
 40
0.0
  9
$SPLFRAME
 70
     0
  9
$SPLINETYPE
 70
     6
  9
$SPLINESEGS
 70
     8
  9
$HANDSEED
  5
2E4
  9
$SURFTAB1
 70
     6
  9
$SURFTAB2
 70
     6
  9
$SURFTYPE
 70
     6
  9
$SURFU
 70
     6
  9
$SURFV
 70
     6
  9
$UCSBASE
  2

  9
$UCSNAME
  2

  9
$UCSORG
 10
0.0
 20
0.0
 30
0.0
  9
$UCSXDIR
 10
1.0
 20
0.0
 30
0.0
  9
$UCSYDIR
 10
0.0
 20
1.0
 30
0.0
  9
$UCSORTHOREF
  2

  9
$UCSORTHOVIEW
 70
     0
  9
$UCSORGTOP
 10
0.0
 20
0.0
 30
0.0
  9
$UCSORGBOTTOM
 10
0.0
 20
0.0
 30
0.0
  9
$UCSORGLEFT
 10
0.0
 20
0.0
 30
0.0
  9
$UCSORGRIGHT
 10
0.0
 20
0.0
 30
0.0
  9
$UCSORGFRONT
 10
0.0
 20
0.0
 30
0.0
  9
$UCSORGBACK
 10
0.0
 20
0.0
 30
0.0
  9
$PUCSBASE
  2

  9
$PUCSNAME
  2

  9
$PUCSORG
 10
0.0
 20
0.0
 30
0.0
  9
$PUCSXDIR
 10
1.0
 20
0.0
 30
0.0
  9
$PUCSYDIR
 10
0.0
 20
1.0
 30
0.0
  9
$PUCSORTHOREF
  2

  9
$PUCSORTHOVIEW
 70
     0
  9
$PUCSORGTOP
 10
0.0
 20
0.0
 30
0.0
  9
$PUCSORGBOTTOM
 10
0.0
 20
0.0
 30
0.0
  9
$PUCSORGLEFT
 10
0.0
 20
0.0
 30
0.0
  9
$PUCSORGRIGHT
 10
0.0
 20
0.0
 30
0.0
  9
$PUCSORGFRONT
 10
0.0
 20
0.0
 30
0.0
  9
$PUCSORGBACK
 10
0.0
 20
0.0
 30
0.0
  9
$USERI1
 70
     0
  9
$USERI2
 70
     0
  9
$USERI3
 70
     0
  9
$USERI4
 70
     0
  9
$USERI5
 70
     0
  9
$USERR1
 40
0.0
  9
$USERR2
 40
0.0
  9
$USERR3
 40
0.0
  9
$USERR4
 40
0.0
  9
$USERR5
 40
0.0
  9
$WORLDVIEW
 70
     1
  9
$SHADEDGE
 70
     3
  9
$SHADEDIF
 70
    70
  9
$TILEMODE
 70
     1
  9
$MAXACTVP
 70
    64
  9
$PINSBASE
 10
0.0
 20
0.0
 30
0.0
  9
$PLIMCHECK
 70
     0
  9
$PEXTMIN
 10
0.0
 20
0.0
 30
0.0
  9
$PEXTMAX
 10
360.579931
 20
215.693633
 30
0.0
  9
$PLIMMIN
 10
0.0
 20
0.0
  9
$PLIMMAX
 10
360.579931
 20
215.693633
  9
$UNITMODE
 70
     0
  9
$VISRETAIN
 70
     1
  9
$PLINEGEN
 70
     0
  9
$PSLTSCALE
 70
     1
  9
$TREEDEPTH
 70
  3020
  9
$CMLSTYLE
  2
Standard
  9
$CMLJUST
 70
     0
  9
$CMLSCALE
 40
1.0
  9
$PROXYGRAPHICS
 70
     1
  9
$MEASUREMENT
 70
     1
  9
$CELWEIGHT
370
    18
  9
$ENDCAPS
280
     0
  9
$JOINSTYLE
280
     0
  9
$LWDISPLAY
290
     0
  9
$INSUNITS
 70
     4
  9
$HYPERLINKBASE
  1

  9
$STYLESHEET
  1

  9
$XEDIT
290
     1
  9
$CEPSNTYPE
380
     0
  9
$PSTYLEMODE
290
     1
  9
$FINGERPRINTGUID
  2
{AC6BDFC9-5A88-4235-BB52-52612A560BF5}
  9
$VERSIONGUID
  2
{FAEB1C32-E019-11D5-929B-00C0DF256EC4}
  9
$EXTNAMES
290
     1
  9
$PSVPSCALE
 40
0.0
  9
$OLESTARTUP
290
     0
  9
$SORTENTS
280
   127
  9
$INDEXCTL
280
     0
  9
$HIDETEXT
280
     1
  9
$XCLIPFRAME
290
     0
  9
$HALOGAP
280
     0
  9
$OBSCOLOR
 70
   257
  9
$OBSLTYPE
280
     0
  9
$INTERSECTIONDISPLAY
280
     0
  9
$INTERSECTIONCOLOR
 70
   257
  9
$DIMASSOC
280
     2
  9
$PROJECTNAME
  1

  0
ENDSEC
  0
SECTION
  2
CLASSES
  0
CLASS
  1
ACDBDICTIONARYWDFLT
  2
AcDbDictionaryWithDefault
  3
ObjectDBX Classes
 90
        0
 91
        4
280
     0
281
     0
  0
CLASS
  1
VISUALSTYLE
  2
AcDbVisualStyle
  3
ObjectDBX Classes
 90
     4095
 91
        4
280
     0
281
     0
  0
CLASS
  1
MATERIAL
  2
AcDbMaterial
  3
ObjectDBX Classes
 90
     1153
 91
        4
280
     0
281
     0
  0
CLASS
  1
SCALE
  2
AcDbScale
  3
ObjectDBX Classes
 90
     1153
 91
        4
280
     0
281
     0
  0
CLASS
  1
SUN
  2
AcDbSun
  3
SCENEOE
 90
     1153
 91
        4
280
     0
281
     0
  0
CLASS
  1
DICTIONARYVAR
  2
AcDbDictionaryVar
  3
ObjectDBX Classes
 90
        0
 91
        4
280
     0
281
     0
  0
ENDSEC
  0
SECTION
  2
TABLES
  0
TABLE
  2
VPORT
  5
8
330
0
100
AcDbSymbolTable
 70
    18
  0
VPORT
  5
29
330
8
100
AcDbSymbolTableRecord
100
AcDbViewportTableRecord
  2
DUMMY
 70
     0
 10
0.0
 20
0.0
 11
1.0
 21
1.0
 12
10.429907
 22
4.5
 13
0.0
 23
0.0
 14
0.5
 24
0.5
 15
0.5
 25
0.5
 16
0.0
 26
0.0
 36
1.0
 17
0.0
 27
0.0
 37
0.0
 40
9.0
 41
1.972973
 42
50.0
 43
0.0
 44
0.0
 50
0.0
 51
0.0
 71
     0
 72
   100
 73
     1
 74
     3
 75
     0
 76
     0
 77
     0
 78
     0
281
     0
 65
     1
110
0.0
120
0.0
130
0.0
111
1.0
121
0.0
131
0.0
112
0.0
122
1.0
132
0.0
 79
     0
146
0.0
  0
VPORT
  5
295
330
8
100
AcDbSymbolTableRecord
100
AcDbViewportTableRecord
  2
*ACTIVE
 70
     0
 10
0.0
 20
0.0
 11
1.0
 21
1.0
 12
26.937379
 22
-10.706193
 13
0.0
 23
0.0
 14
0.5
 24
0.5
 15
0.5
 25
0.5
 16
0.7188730927569434
 26
-0.5850486126764431
 36
0.3754192287502549
 17
0.0
 27
0.0
 37
0.0
 40
736.918381
 41
0.024096
 42
50.0
 43
216.105554
 44
-216.105554
 50
0.0
 51
0.0
 71
     0
 72
   100
 73
     1
 74
     3
 75
     0
 76
     0
 77
     0
 78
     0
281
     0
 65
     1
110
0.0
120
0.0
130
0.0
111
1.0
121
0.0
131
0.0
112
0.0
122
1.0
132
0.0
 79
     0
146
0.0
  0
VPORT
  5
297
330
8
100
AcDbSymbolTableRecord
100
AcDbViewportTableRecord
  2
L1
 70
     0
 10
0.0
 20
0.0
 11
1.0
 21
1.0
 12
26.937379
 22
-10.706193
 13
0.0
 23
0.0
 14
0.5
 24
0.5
 15
0.5
 25
0.5
 16
0.7188730927569434
 26
-0.5850486126764431
 36
0.3754192287502549
 17
0.0
 27
0.0
 37
0.0
 40
736.918381
 41
0.024096
 42
50.0
 43
216.105554
 44
-216.105554
 50
0.0
 51
0.0
 71
     0
 72
   100
 73
     1
 74
     3
 75
     0
 76
     0
 77
     0
 78
     0
281
     0
 65
     1
110
0.0
120
0.0
130
0.0
111
1.0
121
0.0
131
0.0
112
0.0
122
1.0
132
0.0
 79
     0
146
0.0
  0
VPORT
  5
298
330
8
100
AcDbSymbolTableRecord
100
AcDbViewportTableRecord
  2
L2
 70
     0
 10
0.0
 20
0.0
 11
0.5
 21
1.0
 12
0.0
 22
0.0
 13
0.0
 23
0.0
 14
0.5
 24
0.5
 15
0.5
 25
0.5
 16
0.0
 26
-1.0
 36
0.0
 17
0.0
 27
0.0
 37
0.0
 40
709.544593
 41
0.025026
 42
50.0
 43
370.346108
 44
-370.346108
 50
0.0
 51
0.0
 71
     0
 72
   100
 73
     1
 74
     3
 75
     0
 76
     0
 77
     0
 78
     0
281
     0
 65
     1
110
0.0
120
0.0
130
0.0
111
1.0
121
0.0
131
0.0
112
0.0
122
1.0
132
0.0
 79
     0
146
0.0
  0
VPORT
  5
299
330
8
100
AcDbSymbolTableRecord
100
AcDbViewportTableRecord
  2
L2
 70
     0
 10
0.5
 20
0.0
 11
1.0
 21
1.0
 12
0.0
 22
0.0
 13
0.0
 23
0.0
 14
0.5
 24
0.5
 15
0.5
 25
0.5
 16
1.0
 26
0.0
 36
0.0
 17
0.0
 27
0.0
 37
0.0
 40
709.544593
 41
0.025026
 42
50.0
 43
356.664217
 44
-356.664217
 50
0.0
 51
0.0
 71
     0
 72
   100
 73
     1
 74
     3
 75
     0
 76
     0
 77
     0
 78
     0
281
     0
 65
     1
110
0.0
120
0.0
130
0.0
111
1.0
121
0.0
131
0.0
112
0.0
122
1.0
132
0.0
 79
     0
146
0.0
  0
VPORT
  5
29A
330
8
100
AcDbSymbolTableRecord
100
AcDbViewportTableRecord
  2
L3
 70
     0
 10
0.0
 20
0.5
 11
1.0
 21
1.0
 12
0.0
 22
0.0
 13
0.0
 23
0.0
 14
0.5
 24
0.5
 15
0.5
 25
0.5
 16
0.0
 26
0.0
 36
1.0
 17
0.0
 27
0.0
 37
0.0
 40
73.375238
 41
0.241999
 42
50.0
 43
354.772296
 44
-354.772296
 50
0.0
 51
0.0
 71
     0
 72
   100
 73
     1
 74
     3
 75
     0
 76
     0
 77
     0
 78
     0
281
     0
 65
     1
110
0.0
120
0.0
130
0.0
111
1.0
121
0.0
131
0.0
112
0.0
122
1.0
132
0.0
 79
     0
146
0.0
  0
VPORT
  5
29B
330
8
100
AcDbSymbolTableRecord
100
AcDbViewportTableRecord
  2
L3
 70
     0
 10
0.0
 20
0.0
 11
1.0
 21
0.5
 12
0.0
 22
0.0
 13
0.0
 23
0.0
 14
0.5
 24
0.5
 15
0.5
 25
0.5
 16
0.0
 26
-1.0
 36
0.0
 17
0.0
 27
0.0
 37
0.0
 40
709.544593
 41
0.025026
 42
50.0
 43
370.346108
 44
-370.346108
 50
0.0
 51
0.0
 71
     0
 72
   100
 73
     1
 74
     3
 75
     0
 76
     0
 77
     0
 78
     0
281
     0
 65
     1
110
0.0
120
0.0
130
0.0
111
1.0
121
0.0
131
0.0
112
0.0
122
1.0
132
0.0
 79
     0
146
0.0
  0
VPORT
  5
29C
330
8
100
AcDbSymbolTableRecord
100
AcDbViewportTableRecord
  2
L4
 70
     0
 10
0.0
 20
0.5
 11
0.5
 21
1.0
 12
0.0
 22
0.0
 13
0.0
 23
0.0
 14
0.5
 24
0.5
 15
0.5
 25
0.5
 16
0.0
 26
0.0
 36
1.0
 17
0.0
 27
0.0
 37
0.0
 40
73.375238
 41
0.241999
 42
50.0
 43
354.772296
 44
-354.772296
 50
0.0
 51
0.0
 71
     0
 72
   100
 73
     1
 74
     3
 75
     0
 76
     0
 77
     0
 78
     0
281
     0
 65
     1
110
0.0
120
0.0
130
0.0
111
1.0
121
0.0
131
0.0
112
0.0
122
1.0
132
0.0
 79
     0
146
0.0
  0
VPORT
  5
29D
330
8
100
AcDbSymbolTableRecord
100
AcDbViewportTableRecord
  2
L4
 70
     0
 10
0.0
 20
0.0
 11
0.5
 21
0.5
 12
0.0
 22
0.0
 13
0.0
 23
0.0
 14
0.5
 24
0.5
 15
0.5
 25
0.5
 16
0.0
 26
-1.0
 36
0.0
 17
0.0
 27
0.0
 37
0.0
 40
709.544593
 41
0.025026
 42
50.0
 43
370.346108
 44
-370.346108
 50
0.0
 51
0.0
 71
     0
 72
   100
 73
     1
 74
     3
 75
     0
 76
     0
 77
     0
 78
     0
281
     0
 65
     1
110
0.0
120
0.0
130
0.0
111
1.0
121
0.0
131
0.0
112
0.0
122
1.0
132
0.0
 79
     0
146
0.0
  0
VPORT
  5
29E
330
8
100
AcDbSymbolTableRecord
100
AcDbViewportTableRecord
  2
L4
 70
     0
 10
0.5
 20
0.0
 11
1.0
 21
0.5
 12
0.0
 22
0.0
 13
0.0
 23
0.0
 14
0.5
 24
0.5
 15
0.5
 25
0.5
 16
1.0
 26
0.0
 36
0.0
 17
0.0
 27
0.0
 37
0.0
 40
709.544593
 41
0.025026
 42
50.0
 43
356.664217
 44
-356.664217
 50
0.0
 51
0.0
 71
     0
 72
   100
 73
     1
 74
     3
 75
     0
 76
     0
 77
     0
 78
     0
281
     0
 65
     1
110
0.0
120
0.0
130
0.0
111
1.0
121
0.0
131
0.0
112
0.0
122
1.0
132
0.0
 79
     0
146
0.0
  0
VPORT
  5
29F
330
8
100
AcDbSymbolTableRecord
100
AcDbViewportTableRecord
  2
L4
 70
     0
 10
0.5
 20
0.5
 11
1.0
 21
1.0
 12
0.0
 22
0.0
 13
0.0
 23
0.0
 14
0.5
 24
0.5
 15
0.5
 25
0.5
 16
0.5773502691896258
 26
-0.5773502691896258
 36
0.5773502691896258
 17
0.0
 27
0.0
 37
0.0
 40
696.063391
 41
0.02551
 42
50.0
 43
362.414397
 44
-362.414397
 50
0.0
 51
0.0
 71
     0
 72
   100
 73
     1
 74
     3
 75
     0
 76
     0
 77
     0
 78
     0
281
     0
 65
     1
110
0.0
120
0.0
130
0.0
111
1.0
121
0.0
131
0.0
112
0.0
122
1.0
132
0.0
 79
     0
146
0.0
  0
VPORT
  5
2A0
330
8
100
AcDbSymbolTableRecord
100
AcDbViewportTableRecord
  2
L6
 70
     0
 10
0.0
 20
0.5
 11
0.333333
 21
1.0
 12
26.937379
 22
-10.706193
 13
0.0
 23
0.0
 14
0.5
 24
0.5
 15
0.5
 25
0.5
 16
0.7188730927569434
 26
-0.5850486126764431
 36
0.3754192287502549
 17
0.0
 27
0.0
 37
0.0
 40
736.918381
 41
0.024096
 42
50.0
 43
216.105554
 44
-216.105554
 50
0.0
 51
0.0
 71
     0
 72
   100
 73
     1
 74
     3
 75
     0
 76
     0
 77
     0
 78
     0
281
     0
 65
     1
110
0.0
120
0.0
130
0.0
111
1.0
121
0.0
131
0.0
112
0.0
122
1.0
132
0.0
 79
     0
146
0.0
  0
VPORT
  5
2A1
330
8
100
AcDbSymbolTableRecord
100
AcDbViewportTableRecord
  2
L6
 70
     0
 10
0.0
 20
0.0
 11
0.333333
 21
0.5
 12
0.0
 22
0.0
 13
0.0
 23
0.0
 14
0.5
 24
0.5
 15
0.5
 25
0.5
 16
-1.0
 26
0.0
 36
0.0
 17
0.0
 27
0.0
 37
0.0
 40
709.544593
 41
0.025026
 42
50.0
 43
356.664217
 44
-356.664217
 50
0.0
 51
0.0
 71
     0
 72
   100
 73
     1
 74
     3
 75
     0
 76
     0
 77
     0
 78
     0
281
     0
 65
     1
110
0.0
120
0.0
130
0.0
111
1.0
121
0.0
131
0.0
112
0.0
122
1.0
132
0.0
 79
     0
146
0.0
  0
VPORT
  5
2A2
330
8
100
AcDbSymbolTableRecord
100
AcDbViewportTableRecord
  2
L6
 70
     0
 10
0.333333
 20
0.5
 11
0.666667
 21
1.0
 12
0.0
 22
0.0
 13
0.0
 23
0.0
 14
0.5
 24
0.5
 15
0.5
 25
0.5
 16
0.0
 26
0.0
 36
1.0
 17
0.0
 27
0.0
 37
0.0
 40
73.375238
 41
0.241999
 42
50.0
 43
354.772296
 44
-354.772296
 50
0.0
 51
0.0
 71
     0
 72
   100
 73
     1
 74
     3
 75
     0
 76
     0
 77
     0
 78
     0
281
     0
 65
     1
110
0.0
120
0.0
130
0.0
111
1.0
121
0.0
131
0.0
112
0.0
122
1.0
132
0.0
 79
     0
146
0.0
  0
VPORT
  5
2A3
330
8
100
AcDbSymbolTableRecord
100
AcDbViewportTableRecord
  2
L6
 70
     0
 10
0.333333
 20
0.0
 11
0.666667
 21
0.5
 12
0.0
 22
0.0
 13
0.0
 23
0.0
 14
0.5
 24
0.5
 15
0.5
 25
0.5
 16
0.0
 26
-1.0
 36
0.0
 17
0.0
 27
0.0
 37
0.0
 40
709.544593
 41
0.025026
 42
50.0
 43
370.346108
 44
-370.346108
 50
0.0
 51
0.0
 71
     0
 72
   100
 73
     1
 74
     3
 75
     0
 76
     0
 77
     0
 78
     0
281
     0
 65
     1
110
0.0
120
0.0
130
0.0
111
1.0
121
0.0
131
0.0
112
0.0
122
1.0
132
0.0
 79
     0
146
0.0
  0
VPORT
  5
2A4
330
8
100
AcDbSymbolTableRecord
100
AcDbViewportTableRecord
  2
L6
 70
     0
 10
0.666667
 20
0.5
 11
1.0
 21
1.0
 12
0.0
 22
0.0
 13
0.0
 23
0.0
 14
0.5
 24
0.5
 15
0.5
 25
0.5
 16
0.5773502691896258
 26
-0.5773502691896258
 36
0.5773502691896258
 17
0.0
 27
0.0
 37
0.0
 40
696.063391
 41
0.02551
 42
50.0
 43
362.414397
 44
-362.414397
 50
0.0
 51
0.0
 71
     0
 72
   100
 73
     1
 74
     3
 75
     0
 76
     0
 77
     0
 78
     0
281
     0
 65
     1
110
0.0
120
0.0
130
0.0
111
1.0
121
0.0
131
0.0
112
0.0
122
1.0
132
0.0
 79
     0
146
0.0
  0
VPORT
  5
2A5
330
8
100
AcDbSymbolTableRecord
100
AcDbViewportTableRecord
  2
L6
 70
     0
 10
0.666667
 20
0.0
 11
1.0
 21
0.5
 12
0.0
 22
0.0
 13
0.0
 23
0.0
 14
0.5
 24
0.5
 15
0.5
 25
0.5
 16
1.0
 26
0.0
 36
0.0
 17
0.0
 27
0.0
 37
0.0
 40
709.544593
 41
0.025026
 42
50.0
 43
356.664217
 44
-356.664217
 50
0.0
 51
0.0
 71
     0
 72
   100
 73
     1
 74
     3
 75
     0
 76
     0
 77
     0
 78
     0
281
     0
 65
     1
110
0.0
120
0.0
130
0.0
111
1.0
121
0.0
131
0.0
112
0.0
122
1.0
132
0.0
 79
     0
146
0.0
  0
VPORT
  5
2A6
330
8
100
AcDbSymbolTableRecord
100
AcDbViewportTableRecord
  2
#ACTIVE
 70
     0
 10
0.0
 20
0.0
 11
1.0
 21
1.0
 12
21.374787
 22
-17.020492
 13
0.0
 23
0.0
 14
0.5
 24
0.5
 15
0.5
 25
0.5
 16
0.0
 26
0.0
 36
1.0
 17
0.0
 27
0.0
 37
0.0
 40
84.676319
 41
0.209702
 42
50.0
 43
3225.462044
 44
-3225.462044
 50
0.0
 51
0.0
 71
     0
 72
   100
 73
     1
 74
     3
 75
     0
 76
     0
 77
     0
 78
     0
281
     0
 65
     1
110
0.0
120
0.0
130
0.0
111
1.0
121
0.0
131
0.0
112
0.0
122
1.0
132
0.0
 79
     0
146
0.0
  0
ENDTAB
  0
TABLE
  2
LTYPE
  5
5
330
0
100
AcDbSymbolTable
 70
     6
  0
LTYPE
  5
14
330
5
100
AcDbSymbolTableRecord
100
AcDbLinetypeTableRecord
  2
BYBLOCK
 70
     0
  3

 72
    65
 73
     0
 40
0.0
  0
LTYPE
  5
15
330
5
100
AcDbSymbolTableRecord
100
AcDbLinetypeTableRecord
  2
BYLAYER
 70
     0
  3

 72
    65
 73
     0
 40
0.0
  0
LTYPE
  5
16
330
5
100
AcDbSymbolTableRecord
100
AcDbLinetypeTableRecord
  2
CONTINUOUS
 70
     0
  3
Solid line
 72
    65
 73
     0
 40
0.0
  0
LTYPE
  5
6A
330
5
100
AcDbSymbolTableRecord
100
AcDbLinetypeTableRecord
  2
CENTER
 70
     0
  3
____ _ ____ _ ____ _ ____
 72
    65
 73
     4
 40
47.4
 49
22.0
 74
     4
 75
     0
340
0
 46
0.0
 50
0.0
 44
0.0
 45
0.0
 49
-8.5
 74
     4
 75
     0
340
0
 46
0.0
 50
0.0
 44
0.0
 45
0.0
 49
8.5
 74
     4
 75
     0
340
0
 46
0.0
 50
0.0
 44
0.0
 45
0.0
 49
-8.5
 74
     4
 75
     0
340
0
 46
0.0
 50
0.0
 44
0.0
 45
0.0
  0
LTYPE
  5
6B
330
5
100
AcDbSymbolTableRecord
100
AcDbLinetypeTableRecord
  2
DASHDOT
 70
     0
  3
_._._._._._._._._._._._._._._._.
 72
    65
 73
     4
 40
70.0
 49
31.0
 74
     4
 75
     0
340
0
 46
0.0
 50
0.0
 44
0.0
 45
0.0
 49
-13.0
 74
     4
 75
     0
340
0
 46
0.0
 50
0.0
 44
0.0
 45
0.0
 49
13.0
 74
     4
 75
     0
340
0
 46
0.0
 50
0.0
 44
0.0
 45
0.0
 49
-13.0
 74
     4
 75
     0
340
0
 46
0.0
 50
0.0
 44
0.0
 45
0.0
  0
LTYPE
  5
6C
330
5
100
AcDbSymbolTableRecord
100
AcDbLinetypeTableRecord
  2
DASHED
 70
     0
  3
__ __ __ __ __ __ __ __ __
 72
    65
 73
     2
 40
25.72
 49
12.86
 74
     4
 75
     0
340
0
 46
0.0
 50
0.0
 44
0.0
 45
0.0
 49
-12.86
 74
     4
 75
     0
340
0
 46
0.0
 50
0.0
 44
0.0
 45
0.0
  0
LTYPE
  5
6D
330
5
100
AcDbSymbolTableRecord
100
AcDbLinetypeTableRecord
  2
DOT
 70
     0
  3
.........................
 72
    65
 73
     2
 40
10.0
 49
0.0
 74
     4
 75
     0
340
0
 46
0.0
 50
0.0
 44
0.0
 45
0.0
 49
-10.0
 74
     4
 75
     0
340
0
 46
0.0
 50
0.0
 44
0.0
 45
0.0
  0
LTYPE
  5
6E
330
5
100
AcDbSymbolTableRecord
100
AcDbLinetypeTableRecord
  2
PHANTOM
 70
     0
  3
____ _ _ ____ _ _ _____ _ _ ____
 72
    65
 73
     6
 40
50.5
 49
18.0
 74
     4
 75
     0
340
0
 46
0.0
 50
0.0
 44
0.0
 45
0.0
 49
-6.5
 74
     4
 75
     0
340
0
 46
0.0
 50
0.0
 44
0.0
 45
0.0
 49
6.5
 74
     4
 75
     0
340
0
 46
0.0
 50
0.0
 44
0.0
 45
0.0
 49
-6.5
 74
     4
 75
     0
340
0
 46
0.0
 50
0.0
 44
0.0
 45
0.0
 49
6.5
 74
     4
 75
     0
340
0
 46
0.0
 50
0.0
 44
0.0
 45
0.0
 49
-6.5
 74
     4
 75
     0
340
0
 46
0.0
 50
0.0
 44
0.0
 45
0.0
  0
ENDTAB
  0
TABLE
  2
LAYER
  5
2
330
0
100
AcDbSymbolTable
 70
    10
  0
LAYER
  5
10
330
2
100
AcDbSymbolTableRecord
100
AcDbLayerTableRecord
  2
0
 70
     0
 62
     7
  6
CONTINUOUS
370
    -3
390
F
  0
LAYER
  5
6F
330
2
100
AcDbSymbolTableRecord
100
AcDbLayerTableRecord
  2
EXTRAVIEW1$1
 70
     0
 62
     7
420
 16777215
  6
CONTINUOUS
370
    -3
390
F
  0
LAYER
  5
71
330
2
100
AcDbSymbolTableRecord
100
AcDbLayerTableRecord
  2
81
 70
     0
 62
     7
420
 16777215
  6
CONTINUOUS
370
    -3
390
F
  0
LAYER
  5
73
330
2
100
AcDbSymbolTableRecord
100
AcDbLayerTableRecord
  2
80
 70
     0
 62
     7
420
 16777215
  6
CONTINUOUS
370
    -3
390
F
  0
LAYER
  5
75
330
2
100
AcDbSymbolTableRecord
100
AcDbLayerTableRecord
  2
1
 70
     0
 62
     7
420
 16777215
  6
CONTINUOUS
370
    -3
390
F
  0
LAYER
  5
7A
330
2
100
AcDbSymbolTableRecord
100
AcDbLayerTableRecord
  2
4
 70
     0
 62
     7
420
 16777215
  6
CONTINUOUS
370
    -3
390
F
  0
LAYER
  5
81
330
2
100
AcDbSymbolTableRecord
100
AcDbLayerTableRecord
  2
11
 70
     0
 62
     7
420
 16777215
  6
CONTINUOUS
370
    -3
390
F
  0
LAYER
  5
263
330
2
100
AcDbSymbolTableRecord
100
AcDbLayerTableRecord
  2
12
 70
     0
 62
     7
420
 16777215
  6
CONTINUOUS
370
    -3
390
F
  0
LAYER
  5
26E
330
2
100
AcDbSymbolTableRecord
100
AcDbLayerTableRecord
  2
2
 70
     0
 62
     7
420
 16777215
  6
CONTINUOUS
370
    -3
390
F
  0
LAYER
  5
27D
330
2
100
AcDbSymbolTableRecord
100
AcDbLayerTableRecord
  2
16
 70
     0
 62
     7
420
 16777215
  6
CONTINUOUS
370
    -3
390
F
  0
ENDTAB
  0
TABLE
  2
STYLE
  5
3
330
0
100
AcDbSymbolTable
 70
     2
  0
STYLE
  5
11
330
3
100
AcDbSymbolTableRecord
100
AcDbTextStyleTableRecord
  2
Standard
 70
     0
 40
0.0
 41
1.0
 50
0.0
 71
     0
 42
0.2
  3
txt
  4

  0
STYLE
  5
262
330
3
100
AcDbSymbolTableRecord
100
AcDbTextStyleTableRecord
  2
Arial Unicode MS
 70
     0
 40
0.0
 41
1.0
 50
0.0
 71
     0
 42
0.2
  3
Arial Unicode MS
  4

1001
ACAD
1000
Arial Unicode MS
1071
        0
  0
ENDTAB
  0
TABLE
  2
VIEW
  5
6
330
0
100
AcDbSymbolTable
 70
    16
  0
VIEW
  5
27E
330
6
100
AcDbSymbolTableRecord
100
AcDbViewTableRecord
  2
Top
 70
     0
 40
73.375238
 10
0.0
 20
0.0
 41
212.535714
 11
0.0
 21
0.0
 31
1.0
 12
0.0
 22
0.0
 32
0.0
 42
50.0
 43
354.772296
 44
-354.772296
 50
0.0
 71
     0
281
     0
 72
     0
  0
VIEW
  5
27F
330
6
100
AcDbSymbolTableRecord
100
AcDbViewTableRecord
  2
Front
 70
     0
 40
709.544593
 10
0.0
 20
0.0
 41
212.535714
 11
0.0
 21
-1.0
 31
0.0
 12
0.0
 22
0.0
 32
0.0
 42
50.0
 43
370.346108
 44
-370.346108
 50
0.0
 71
     0
281
     0
 72
     0
  0
VIEW
  5
280
330
6
100
AcDbSymbolTableRecord
100
AcDbViewTableRecord
  2
Right
 70
     0
 40
709.544593
 10
0.0
 20
0.0
 41
73.375238
 11
1.0
 21
0.0
 31
0.0
 12
0.0
 22
0.0
 32
0.0
 42
50.0
 43
356.664217
 44
-356.664217
 50
0.0
 71
     0
281
     0
 72
     0
  0
VIEW
  5
281
330
6
100
AcDbSymbolTableRecord
100
AcDbViewTableRecord
  2
Back
 70
     0
 40
709.544593
 10
0.0
 20
0.0
 41
212.535714
 11
0.0
 21
1.0
 31
0.0
 12
0.0
 22
0.0
 32
0.0
 42
50.0
 43
370.346108
 44
-370.346108
 50
0.0
 71
     0
281
     0
 72
     0
  0
VIEW
  5
282
330
6
100
AcDbSymbolTableRecord
100
AcDbViewTableRecord
  2
Bottom
 70
     0
 40
73.375238
 10
0.0
 20
0.0
 41
212.535714
 11
0.0
 21
0.0
 31
-1.0
 12
0.0
 22
0.0
 32
0.0
 42
50.0
 43
354.772296
 44
-354.772296
 50
180.0
 71
     0
281
     0
 72
     0
  0
VIEW
  5
283
330
6
100
AcDbSymbolTableRecord
100
AcDbViewTableRecord
  2
Left
 70
     0
 40
709.544593
 10
0.0
 20
0.0
 41
73.375238
 11
-1.0
 21
0.0
 31
0.0
 12
0.0
 22
0.0
 32
0.0
 42
50.0
 43
356.664217
 44
-356.664217
 50
0.0
 71
     0
281
     0
 72
     0
  0
VIEW
  5
284
330
6
100
AcDbSymbolTableRecord
100
AcDbViewTableRecord
  2
Isometric
 70
     0
 40
696.063391
 10
0.0
 20
0.0
 41
202.169573
 11
0.5773502691896258
 21
-0.5773502691896258
 31
0.5773502691896258
 12
0.0
 22
0.0
 32
0.0
 42
50.0
 43
362.414397
 44
-362.414397
 50
0.0
 71
     0
281
     0
 72
     0
  0
VIEW
  5
285
330
6
100
AcDbSymbolTableRecord
100
AcDbViewTableRecord
  2
Trimetric
 70
     0
 40
736.918381
 10
26.937379
 20
-10.706193
 41
191.066766
 11
0.0
 21
0.0
 31
1.0
 12
0.0
 22
0.0
 32
0.0
 42
50.0
 43
216.105554
 44
-216.105554
 50
0.0
 71
     0
281
     0
 72
     0
  0
VIEW
  5
286
330
6
100
AcDbSymbolTableRecord
100
AcDbViewTableRecord
  2
AM_VIEW1
 70
     0
 40
279.135417
 10
121.031836
 20
219.614757
 41
429.683333
 11
0.0
 21
0.0
 31
1.0
 12
0.0
 22
0.0
 32
0.0
 42
50.0
 43
3225.462044
 44
-3225.462044
 50
0.0
 71
     0
281
     0
 72
     0
  0
VIEW
  5
287
330
6
100
AcDbSymbolTableRecord
100
AcDbViewTableRecord
  2
AM_VIEW2
 70
     0
 40
279.135417
 10
292.43786
 20
219.614757
 41
429.683333
 11
0.0
 21
0.0
 31
1.0
 12
0.0
 22
0.0
 32
0.0
 42
50.0
 43
3225.462044
 44
-3225.462044
 50
0.0
 71
     0
281
     0
 72
     0
  0
VIEW
  5
288
330
6
100
AcDbSymbolTableRecord
100
AcDbViewTableRecord
  2
AM_VIEW3
 70
     0
 40
279.135417
 10
121.031836
 20
71.088252
 41
429.683333
 11
0.0
 21
0.0
 31
1.0
 12
0.0
 22
0.0
 32
0.0
 42
50.0
 43
3225.462044
 44
-3225.462044
 50
0.0
 71
     0
281
     0
 72
     0
  0
VIEW
  5
289
330
6
100
AcDbSymbolTableRecord
100
AcDbViewTableRecord
  2
AM_VIEW4
 70
     0
 40
279.135417
 10
292.43786
 20
71.088252
 41
429.683333
 11
0.0
 21
0.0
 31
1.0
 12
0.0
 22
0.0
 32
0.0
 42
50.0
 43
3225.462044
 44
-3225.462044
 50
0.0
 71
     0
281
     0
 72
     0
  0
VIEW
  5
28A
330
6
100
AcDbSymbolTableRecord
100
AcDbViewTableRecord
  2
AM_VIEW5
 70
     0
 40
279.135417
 10
206.734848
 20
145.351505
 41
429.683333
 11
0.0
 21
0.0
 31
1.0
 12
0.0
 22
0.0
 32
0.0
 42
50.0
 43
3225.462044
 44
-3225.462044
 50
0.0
 71
     0
281
     0
 72
     0
  0
VIEW
  5
28B
330
6
100
AcDbSymbolTableRecord
100
AcDbViewTableRecord
  2
AM_VIEW6
 70
     0
 40
279.135417
 10
206.734848
 20
145.351505
 41
429.683333
 11
0.0
 21
0.0
 31
1.0
 12
0.0
 22
0.0
 32
0.0
 42
50.0
 43
3225.462044
 44
-3225.462044
 50
0.0
 71
     0
281
     0
 72
     0
  0
VIEW
  5
28C
330
6
100
AcDbSymbolTableRecord
100
AcDbViewTableRecord
  2
_ACTIVE1
 70
     0
 40
84.676319
 10
21.374787
 20
-17.020492
 41
159.728323
 11
0.0
 21
0.0
 31
1.0
 12
0.0
 22
0.0
 32
0.0
 42
50.0
 43
3225.462044
 44
-3225.462044
 50
0.0
 71
     0
281
     0
 72
     0
  0
VIEW
  5
28D
330
6
100
AcDbSymbolTableRecord
100
AcDbViewTableRecord
  2
EXTRAVIEW1
 70
     0
 40
279.135417
 10
0.321216
 20
-0.051985
 41
429.683333
 11
0.0
 21
0.0
 31
1.0
 12
0.0
 22
0.0
 32
0.0
 42
50.0
 43
380.642618
 44
-380.642618
 50
0.0
 71
     0
281
     0
 72
     0
  0
ENDTAB
  0
TABLE
  2
UCS
  5
7
330
0
100
AcDbSymbolTable
 70
     0
  0
ENDTAB
  0
TABLE
  2
APPID
  5
9
330
0
100
AcDbSymbolTable
 70
     1
  0
APPID
  5
12
330
9
100
AcDbSymbolTableRecord
100
AcDbRegAppTableRecord
  2
ACAD
 70
     0
  0
ENDTAB
  0
TABLE
  2
DIMSTYLE
  5
A
330
0
100
AcDbSymbolTable
 70
     1
100
AcDbDimStyleTable
  0
DIMSTYLE
105
27
330
A
100
AcDbSymbolTableRecord
100
AcDbDimStyleTableRecord
  2
Standard
 70
     0
178
     0
340
11
  0
ENDTAB
  0
TABLE
  2
BLOCK_RECORD
  5
1
330
0
100
AcDbSymbolTable
 70
     5
  0
BLOCK_RECORD
  5
1F
330
1
100
AcDbSymbolTableRecord
100
AcDbBlockTableRecord
  2
*Model_Space
340
22
  0
BLOCK_RECORD
  5
28E
330
1
100
AcDbSymbolTableRecord
100
AcDbBlockTableRecord
  2
*PAPER_SPACE
340
293
  0
BLOCK_RECORD
  5
25B
330
1
100
AcDbSymbolTableRecord
100
AcDbBlockTableRecord
  2
ASSORTED_DRAFT1
340
0
102
{BLKREFS
331
264
102
}
  0
BLOCK_RECORD
  5
267
330
1
100
AcDbSymbolTableRecord
100
AcDbBlockTableRecord
  2
ASSORTED_DRAFT2
340
0
102
{BLKREFS
331
26F
102
}
  0
BLOCK_RECORD
  5
272
330
1
100
AcDbSymbolTableRecord
100
AcDbBlockTableRecord
  2
ASSORTED_DRAFT3
340
0
102
{BLKREFS
331
279
102
}
  0
ENDTAB
  0
ENDSEC
  0
SECTION
  2
BLOCKS
  0
BLOCK
  5
20
330
1F
100
AcDbEntity
  8
0
100
AcDbBlockBegin
  2
*Model_Space
 70
     0
 10
0.0
 20
0.0
 30
0.0
  3
*Model_Space
  1
*Model_Space
  0
ENDBLK
  5
21
330
1F
100
AcDbEntity
  8
0
100
AcDbBlockEnd
  0
BLOCK
  5
28F
330
28E
100
AcDbEntity
 67
     1
  8
0
100
AcDbBlockBegin
  2
*PAPER_SPACE
 70
     0
 10
0.0
 20
0.0
 30
0.0
  3
*PAPER_SPACE
  1
*PAPER_SPACE
  0
ENDBLK
  5
290
330
28E
100
AcDbEntity
 67
     1
  8
0
100
AcDbBlockEnd
  0
BLOCK
  5
265
330
25B
100
AcDbEntity
  8
0
100
AcDbBlockBegin
  2
ASSORTED_DRAFT1
 70
     0
 10
0.0
 20
0.0
 30
0.0
  3
ASSORTED_DRAFT1
  1
ASSORTED_DRAFT1
  0
LINE
  5
25C
330
25B
100
AcDbEntity
  8
0
  6
Continuous
 62
     7
370
    13
100
AcDbLine
 10
-1.0
 20
25.0
 30
0.0
 11
-39.358812
 21
25.0
 31
0.0
  0
LINE
  5
25D
330
25B
100
AcDbEntity
  8
0
  6
Continuous
 62
     7
370
    13
100
AcDbLine
 10
-1.0
 20
-25.0
 30
0.0
 11
-39.358812
 21
-25.0
 31
0.0
  0
LINE
  5
25E
330
25B
100
AcDbEntity
  8
0
  6
Continuous
 62
     7
370
    13
100
AcDbLine
 10
-37.358812
 20
22.5
 30
0.0
 11
-37.358812
 21
-22.5
 31
0.0
  0
SOLID
  5
25F
330
25B
100
AcDbEntity
  8
0
 62
     7
370
    18
100
AcDbTrace
 10
-37.358812
 20
25.0
 30
0.0
 11
-36.942145
 21
22.500002
 31
0.0
 12
-37.775478
 22
22.499998
 32
0.0
 13
-37.358812
 23
25.0
 33
0.0
  0
SOLID
  5
260
330
25B
100
AcDbEntity
  8
0
 62
     7
370
    18
100
AcDbTrace
 10
-37.358812
 20
-25.0
 30
0.0
 11
-37.775478
 21
-22.500002
 31
0.0
 12
-36.942145
 22
-22.499998
 32
0.0
 13
-37.358812
 23
-25.0
 33
0.0
  0
MTEXT
  5
261
330
25B
100
AcDbEntity
  8
12
  6
Continuous
 62
     7
370
    18
100
AcDbMText
 10
-37.146982
 20
0.0
 30
0.0
 40
3.5
 41
0.0
 71
     8
 72
     5
  1
\W1.0000;%%c50
  7
Arial Unicode MS
 11
1.171455364582524E-15
 21
1.0
 31
0.0
 73
     2
 44
1.069626
  0
ENDBLK
  5
266
330
25B
100
AcDbEntity
  8
0
100
AcDbBlockEnd
  0
BLOCK
  5
270
330
267
100
AcDbEntity
  8
0
100
AcDbBlockBegin
  2
ASSORTED_DRAFT2
 70
     0
 10
0.0
 20
0.0
 30
0.0
  3
ASSORTED_DRAFT2
  1
ASSORTED_DRAFT2
  0
LINE
  5
268
330
267
100
AcDbEntity
  8
0
  6
Continuous
 62
     7
370
    13
100
AcDbLine
 10
0.0
 20
-26.0
 30
0.0
 11
0.0
 21
-44.08585
 31
0.0
  0
LINE
  5
269
330
267
100
AcDbEntity
  8
0
  6
Continuous
 62
     7
370
    13
100
AcDbLine
 10
60.107381
 20
-35.989832
 30
0.0
 11
60.107381
 21
-44.08585
 31
0.0
  0
LINE
  5
26A
330
267
100
AcDbEntity
  8
0
  6
Continuous
 62
     7
370
    13
100
AcDbLine
 10
2.5
 20
-42.08585
 30
0.0
 11
57.607381
 21
-42.08585
 31
0.0
  0
SOLID
  5
26B
330
267
100
AcDbEntity
  8
0
 62
     7
370
    18
100
AcDbTrace
 10
0.0
 20
-42.08585
 30
0.0
 11
2.499998
 21
-41.669184
 31
0.0
 12
2.500002
 22
-42.502517
 32
0.0
 13
0.0
 23
-42.08585
 33
0.0
  0
SOLID
  5
26C
330
267
100
AcDbEntity
  8
0
 62
     7
370
    18
100
AcDbTrace
 10
60.107381
 20
-42.08585
 30
0.0
 11
57.607383
 21
-42.502517
 31
0.0
 12
57.60738
 22
-41.669184
 32
0.0
 13
60.107381
 23
-42.08585
 33
0.0
  0
MTEXT
  5
26D
330
267
100
AcDbEntity
  8
2
  6
Continuous
 62
     7
370
    25
100
AcDbMText
 10
30.053691
 20
-42.349332
 30
0.0
 40
3.5
 41
0.0
 71
     8
 72
     5
  1
\W1.0000;60
  7
Arial Unicode MS
 73
     2
 44
1.069626
  0
ENDBLK
  5
271
330
267
100
AcDbEntity
  8
0
100
AcDbBlockEnd
  0
BLOCK
  5
27A
330
272
100
AcDbEntity
  8
0
100
AcDbBlockBegin
  2
ASSORTED_DRAFT3
 70
     0
 10
0.0
 20
0.0
 30
0.0
  3
ASSORTED_DRAFT3
  1
ASSORTED_DRAFT3
  0
LINE
  5
273
330
272
100
AcDbEntity
  8
0
  6
Continuous
 62
     7
370
    13
100
AcDbLine
 10
53.454167
 20
-0.000001
 30
0.0
 11
70.607579
 21
-0.000001
 31
0.0
  0
LINE
  5
274
330
272
100
AcDbEntity
  8
0
  6
Continuous
 62
     7
370
    13
100
AcDbLine
 10
61.107381
 20
-34.992721
 30
0.0
 11
70.607579
 21
-34.992721
 31
0.0
  0
LINE
  5
275
330
272
100
AcDbEntity
  8
0
  6
Continuous
 62
     7
370
    13
100
AcDbLine
 10
68.607579
 20
-2.500001
 30
0.0
 11
68.607579
 21
-32.492721
 31
0.0
  0
SOLID
  5
276
330
272
100
AcDbEntity
  8
0
 62
     7
370
    18
100
AcDbTrace
 10
68.607579
 20
-0.000001
 30
0.0
 11
69.024246
 21
-2.499999
 31
0.0
 12
68.190913
 22
-2.500003
 32
0.0
 13
68.607579
 23
-0.000001
 33
0.0
  0
SOLID
  5
277
330
272
100
AcDbEntity
  8
0
 62
     7
370
    18
100
AcDbTrace
 10
68.607579
 20
-34.992721
 30
0.0
 11
68.190913
 21
-32.492723
 31
0.0
 12
69.024246
 22
-32.49272
 32
0.0
 13
68.607579
 23
-34.992721
 33
0.0
  0
MTEXT
  5
278
330
272
100
AcDbEntity
  8
2
  6
Continuous
 62
     7
370
    25
100
AcDbMText
 10
68.87106
 20
-17.496361
 30
0.0
 40
3.5
 41
0.0
 71
     8
 72
     5
  1
\W1.0000;35
  7
Arial Unicode MS
 11
1.171455364582524E-15
 21
1.0
 31
0.0
 73
     2
 44
1.069626
  0
ENDBLK
  5
27B
330
272
100
AcDbEntity
  8
0
100
AcDbBlockEnd
  0
ENDSEC
  0
SECTION
  2
ENTITIES
  0
POINT
  5
70
330
1F
100
AcDbEntity
  8
81
  6
Continuous
 62
     3
370
    18
100
AcDbPoint
 10
60.107381
 20
-30.260422
 30
0.0
  0
POINT
  5
72
330
1F
100
AcDbEntity
  8
80
  6
Continuous
 62
     6
370
    18
100
AcDbPoint
 10
0.0
 20
0.0
 30
0.0
  0
LINE
  5
74
330
1F
100
AcDbEntity
  8
1
  6
Continuous
 62
     8
 60
     1
370
    18
100
AcDbLine
 10
-204.139439
 20
26.083027
 30
0.0
 11
-204.139439
 21
-194.332989
 31
0.0
  0
LINE
  5
76
330
1F
100
AcDbEntity
  8
1
  6
Continuous
 62
     8
 60
     1
370
    18
100
AcDbLine
 10
230.921077
 20
-194.332989
 30
0.0
 11
-204.139439
 21
-194.332989
 31
0.0
  0
LINE
  5
77
330
1F
100
AcDbEntity
  8
1
  6
Continuous
 62
     8
 60
     1
370
    18
100
AcDbLine
 10
230.921077
 20
-194.332989
 30
0.0
 11
230.921077
 21
26.083027
 31
0.0
  0
LINE
  5
78
330
1F
100
AcDbEntity
  8
1
  6
Continuous
 62
     8
 60
     1
370
    18
100
AcDbLine
 10
-204.139439
 20
26.083027
 30
0.0
 11
230.921077
 21
26.083027
 31
0.0
  0
LINE
  5
79
330
1F
100
AcDbEntity
  8
4
  6
Continuous
 62
     2
370
    13
100
AcDbLine
 10
5.000007
 20
-0.000001
 30
0.0
 11
52.454167
 21
-0.000001
 31
0.0
  0
LINE
  5
7B
330
1F
100
AcDbEntity
  8
4
  6
Continuous
 62
     2
370
    13
100
AcDbLine
 10
0.0
 20
-0.000001
 30
0.0
 11
49.536798
 21
-0.000001
 31
0.0
  0
LINE
  5
7C
330
1F
100
AcDbEntity
  8
1
  6
Continuous
 62
     4
370
    18
100
AcDbLine
 10
0.0
 20
25.0
 30
0.0
 11
16.546111
 21
25.0
 31
0.0
  0
LINE
  5
7D
330
1F
100
AcDbEntity
  8
1
  6
Continuous
 62
     4
370
    18
100
AcDbLine
 10
20.000007
 20
-25.0
 30
0.0
 11
0.0
 21
-25.0
 31
0.0
  0
LINE
  5
7E
330
1F
100
AcDbEntity
  8
1
  6
Continuous
 62
     4
370
    18
100
AcDbLine
 10
21.404746
 20
-30.242561
 30
0.0
 11
20.000007
 21
-25.0
 31
0.0
  0
LINE
  5
7F
330
1F
100
AcDbEntity
  8
1
  6
Continuous
 62
     4
370
    18
100
AcDbLine
 10
51.582029
 20
-33.313278
 30
0.0
 11
51.338438
 21
-33.06974
 31
0.0
  0
LINE
  5
80
330
1F
100
AcDbEntity
  8
11
  6
Continuous
 62
     4
370
    18
100
AcDbLine
 10
0.0
 20
-17.5
 30
0.0
 11
-29.999995
 21
-16.452378
 31
0.0
  0
LINE
  5
82
330
1F
100
AcDbEntity
  8
11
  6
Continuous
 62
     4
370
    18
100
AcDbLine
 10
-29.999995
 20
16.452377
 30
0.0
 11
0.0
 21
17.5
 31
0.0
  0
LINE
  5
83
330
1F
100
AcDbEntity
  8
1
  6
Continuous
 62
     4
370
    18
100
AcDbLine
 10
42.189207
 20
-23.908146
 30
0.0
 11
42.110335
 21
-23.829296
 31
0.0
  0
LINE
  5
84
330
1F
100
AcDbEntity
  8
1
  6
Continuous
 62
     4
370
    18
100
AcDbLine
 10
49.534048
 20
-16.403767
 30
0.0
 11
49.612906
 21
-16.482613
 31
0.0
  0
LINE
  5
85
330
1F
100
AcDbEntity
  8
1
  6
Continuous
 62
     4
370
    18
100
AcDbLine
 10
58.42291
 20
-26.579998
 30
0.0
 11
58.735403
 21
-26.89241
 31
0.0
  0
LINE
  5
86
330
1F
100
AcDbEntity
  8
1
  6
Continuous
 62
     4
370
    18
100
AcDbLine
 10
52.001051
 20
-33.628433
 30
0.0
 11
51.688551
 21
-33.316025
 31
0.0
  0
LINE
  5
87
330
1F
100
AcDbEntity
  8
11
  6
Continuous
 62
     4
370
    18
100
AcDbLine
 10
-29.999995
 20
16.452377
 30
0.0
 11
-29.999995
 21
-16.452378
 31
0.0
  0
LINE
  5
88
330
1F
100
AcDbEntity
  8
1
  6
Continuous
 62
     4
370
    18
100
AcDbLine
 10
58.17719
 20
-29.258598
 30
0.0
 11
57.769689
 21
-27.706344
 31
0.0
  0
LINE
  5
89
330
1F
100
AcDbEntity
  8
1
  6
Continuous
 62
     4
370
    18
100
AcDbLine
 10
58.17719
 20
-29.258598
 30
0.0
 11
54.944158
 21
-32.486725
 31
0.0
  0
LINE
  5
8A
330
1F
100
AcDbEntity
  8
1
  6
Continuous
 62
     4
370
    18
100
AcDbLine
 10
55.221044
 20
-31.370628
 30
0.0
 11
54.667692
 21
-30.816421
 31
0.0
  0
LINE
  5
8B
330
1F
100
AcDbEntity
  8
1
  6
Continuous
 62
     4
370
    18
100
AcDbLine
 10
55.221044
 20
-31.370628
 30
0.0
 11
57.060911
 21
-29.533546
 31
0.0
  0
LINE
  5
8C
330
1F
100
AcDbEntity
  8
1
  6
Continuous
 62
     4
370
    18
100
AcDbLine
 10
57.060911
 20
-29.533546
 30
0.0
 11
56.501173
 21
-28.972938
 31
0.0
  0
LINE
  5
8D
330
1F
100
AcDbEntity
  8
1
  6
Continuous
 62
     4
370
    18
100
AcDbLine
 10
56.501173
 20
-28.972938
 30
0.0
 11
57.769689
 21
-27.706344
 31
0.0
  0
LINE
  5
8E
330
1F
100
AcDbEntity
  8
1
  6
Continuous
 62
     4
370
    18
100
AcDbLine
 10
54.944158
 20
-32.486725
 30
0.0
 11
53.392553
 21
-32.076828
 31
0.0
  0
LINE
  5
8F
330
1F
100
AcDbEntity
  8
1
  6
Continuous
 62
     4
370
    18
100
AcDbLine
 10
47.236532
 20
-30.450279
 30
0.0
 11
47.236929
 21
-30.450676
 31
0.0
  0
LINE
  5
90
330
1F
100
AcDbEntity
  8
1
  6
Continuous
 62
     4
370
    18
100
AcDbLine
 10
59.18688
 20
-30.389877
 30
0.0
 11
58.17719
 21
-29.258598
 31
0.0
  0
LINE
  5
91
330
1F
100
AcDbEntity
  8
1
  6
Continuous
 62
     4
370
    18
100
AcDbLine
 10
56.073248
 20
-33.498787
 30
0.0
 11
59.18688
 21
-30.389877
 31
0.0
  0
LINE
  5
92
330
1F
100
AcDbEntity
  8
1
  6
Continuous
 62
     4
370
    18
100
AcDbLine
 10
56.073248
 20
-33.498787
 30
0.0
 11
54.944158
 21
-32.486725
 31
0.0
  0
LINE
  5
93
330
1F
100
AcDbEntity
  8
1
  6
Continuous
 62
     4
370
    18
100
AcDbLine
 10
57.775335
 20
-25.01305
 30
0.0
 11
59.18688
 21
-30.389877
 31
0.0
  0
LINE
  5
94
330
1F
100
AcDbEntity
  8
1
  6
Continuous
 62
     4
370
    18
100
AcDbLine
 10
51.283933
 20
-31.51979
 30
0.0
 11
47.236929
 21
-30.450676
 31
0.0
  0
LINE
  5
95
330
1F
100
AcDbEntity
  8
1
  6
Continuous
 62
     4
370
    18
100
AcDbLine
 10
50.229238
 20
-31.608353
 30
0.0
 11
50.699278
 21
-32.079124
 31
0.0
  0
LINE
  5
96
330
1F
100
AcDbEntity
  8
1
  6
Continuous
 62
     4
370
    18
100
AcDbLine
 10
50.18453
 20
-31.596443
 30
0.0
 11
47.734327
 21
-30.949165
 31
0.0
  0
LINE
  5
97
330
1F
100
AcDbEntity
  8
1
  6
Continuous
 62
     4
370
    18
100
AcDbLine
 10
50.699278
 20
-32.079124
 30
0.0
 11
56.073248
 21
-33.498787
 31
0.0
  0
LINE
  5
98
330
1F
100
AcDbEntity
  8
1
  6
Continuous
 62
     4
370
    18
100
AcDbLine
 10
47.23609
 20
-30.450157
 30
0.0
 11
47.734327
 21
-30.949165
 31
0.0
  0
LINE
  5
99
330
1F
100
AcDbEntity
  8
1
  6
Continuous
 62
     4
370
    18
100
AcDbLine
 10
50.229665
 20
-31.608475
 30
0.0
 11
50.18453
 21
-31.596443
 31
0.0
  0
LINE
  5
9A
330
1F
100
AcDbEntity
  8
1
  6
Continuous
 62
     4
370
    18
100
AcDbLine
 10
53.392553
 20
-32.076828
 30
0.0
 11
53.377462
 21
-32.076057
 31
0.0
  0
LINE
  5
9B
330
1F
100
AcDbEntity
  8
1
  6
Continuous
 62
     4
370
    18
100
AcDbLine
 10
47.236929
 20
-30.450676
 30
0.0
 11
47.734327
 21
-30.949165
 31
0.0
  0
LINE
  5
9C
330
1F
100
AcDbEntity
  8
1
  6
Continuous
 62
     4
370
    18
100
AcDbLine
 10
50.699278
 20
-32.079124
 30
0.0
 11
50.229665
 21
-31.608475
 31
0.0
  0
LINE
  5
9D
330
1F
100
AcDbEntity
  8
1
  6
Continuous
 62
     4
370
    18
100
AcDbLine
 10
57.20239
 20
-25.545383
 30
0.0
 11
56.15286
 21
-21.54752
 31
0.0
  0
LINE
  5
9E
330
1F
100
AcDbEntity
  8
1
  6
Continuous
 62
     4
370
    18
100
AcDbLine
 10
56.152464
 20
-21.547123
 30
0.0
 11
56.15286
 21
-21.54752
 31
0.0
  0
LINE
  5
9F
330
1F
100
AcDbEntity
  8
1
  6
Continuous
 62
     4
370
    18
100
AcDbLine
 10
57.769689
 20
-27.706344
 30
0.0
 11
57.766096
 21
-27.634102
 31
0.0
  0
LINE
  5
A0
330
1F
100
AcDbEntity
  8
1
  6
Continuous
 62
     4
370
    18
100
AcDbLine
 10
53.392553
 20
-32.076828
 30
0.0
 11
53.403158
 21
-32.066238
 31
0.0
  0
LINE
  5
A1
330
1F
100
AcDbEntity
  8
1
  6
Continuous
 62
     4
370
    18
100
AcDbLine
 10
56.501173
 20
-28.972938
 30
0.0
 11
56.497511
 21
-28.969276
 31
0.0
  0
LINE
  5
A2
330
1F
100
AcDbEntity
  8
1
  6
Continuous
 62
     4
370
    18
100
AcDbLine
 10
57.29392
 20
-24.497853
 30
0.0
 11
56.650259
 21
-22.046009
 31
0.0
  0
LINE
  5
A3
330
1F
100
AcDbEntity
  8
1
  6
Continuous
 62
     4
370
    18
100
AcDbLine
 10
56.15286
 20
-21.54752
 30
0.0
 11
56.650259
 21
-22.046009
 31
0.0
  0
LINE
  5
A4
330
1F
100
AcDbEntity
  8
1
  6
Continuous
 62
     4
370
    18
100
AcDbLine
 10
57.305723
 20
-24.542397
 30
0.0
 11
57.29392
 21
-24.497853
 31
0.0
  0
LINE
  5
A5
330
1F
100
AcDbEntity
  8
1
  6
Continuous
 62
     4
370
    18
100
AcDbLine
 10
57.775335
 20
-25.01305
 30
0.0
 11
57.305723
 21
-24.542397
 31
0.0
  0
LINE
  5
A6
330
1F
100
AcDbEntity
  8
1
  6
Continuous
 62
     4
370
    18
100
AcDbLine
 10
57.060911
 20
-29.533546
 30
0.0
 11
56.795774
 21
-29.268066
 31
0.0
  0
LINE
  5
A7
330
1F
100
AcDbEntity
  8
1
  6
Continuous
 62
     4
370
    18
100
AcDbLine
 10
56.795774
 20
-29.268066
 30
0.0
 11
56.497427
 21
-28.969322
 31
0.0
  0
LINE
  5
A8
330
1F
100
AcDbEntity
  8
1
  6
Continuous
 62
     4
370
    18
100
AcDbLine
 10
51.105512
 20
-32.755333
 30
0.0
 11
51.647604
 21
-33.377556
 31
0.0
  0
LINE
  5
A9
330
1F
100
AcDbEntity
  8
1
  6
Continuous
 62
     4
370
    18
100
AcDbLine
 10
51.647604
 20
-33.377556
 30
0.0
 11
52.29083
 21
-33.894646
 31
0.0
  0
LINE
  5
AA
330
1F
100
AcDbEntity
  8
1
  6
Continuous
 62
     4
370
    18
100
AcDbLine
 10
51.338415
 20
-33.069717
 30
0.0
 11
51.274091
 21
-33.004135
 31
0.0
  0
LINE
  5
AB
330
1F
100
AcDbEntity
  8
1
  6
Continuous
 62
     4
370
    18
100
AcDbLine
 10
51.274091
 20
-33.004135
 30
0.0
 11
51.211073
 21
-32.937301
 31
0.0
  0
LINE
  5
AC
330
1F
100
AcDbEntity
  8
1
  6
Continuous
 62
     4
370
    18
100
AcDbLine
 10
60.107381
 20
-30.260422
 30
0.0
 11
60.054594
 21
-29.507759
 31
0.0
  0
LINE
  5
AD
330
1F
100
AcDbEntity
  8
1
  6
Continuous
 62
     4
370
    18
100
AcDbLine
 10
60.054594
 20
-29.507759
 30
0.0
 11
59.882864
 21
-28.774208
 31
0.0
  0
LINE
  5
AE
330
1F
100
AcDbEntity
  8
1
  6
Continuous
 62
     4
370
    18
100
AcDbLine
 10
59.882864
 20
-28.774208
 30
0.0
 11
59.596548
 21
-28.078369
 31
0.0
  0
LINE
  5
AF
330
1F
100
AcDbEntity
  8
1
  6
Continuous
 62
     4
370
    18
100
AcDbLine
 10
59.596548
 20
-28.078369
 30
0.0
 11
59.202909
 21
-27.437919
 31
0.0
  0
LINE
  5
B0
330
1F
100
AcDbEntity
  8
1
  6
Continuous
 62
     4
370
    18
100
AcDbLine
 10
59.202909
 20
-27.437919
 30
0.0
 11
58.711927
 21
-26.86911
 31
0.0
  0
LINE
  5
B1
330
1F
100
AcDbEntity
  8
1
  6
Continuous
 62
     4
370
    18
100
AcDbLine
 10
58.711927
 20
-26.86911
 30
0.0
 11
58.136099
 21
-26.386375
 31
0.0
  0
LINE
  5
B2
330
1F
100
AcDbEntity
  8
1
  6
Continuous
 62
     4
370
    18
100
AcDbLine
 10
51.008245
 20
-32.161003
 30
0.0
 11
51.33888
 21
-32.794914
 31
0.0
  0
LINE
  5
B3
330
1F
100
AcDbEntity
  8
1
  6
Continuous
 62
     4
370
    18
100
AcDbLine
 10
51.33888
 20
-32.794914
 30
0.0
 11
51.761945
 21
-33.370682
 31
0.0
  0
LINE
  5
B4
330
1F
100
AcDbEntity
  8
1
  6
Continuous
 62
     4
370
    18
100
AcDbLine
 10
51.761945
 20
-33.370682
 30
0.0
 11
52.267744
 21
-33.875084
 31
0.0
  0
LINE
  5
B5
330
1F
100
AcDbEntity
  8
1
  6
Continuous
 62
     4
370
    18
100
AcDbLine
 10
52.267744
 20
-33.875084
 30
0.0
 11
52.844671
 21
-34.296577
 31
0.0
  0
LINE
  5
B6
330
1F
100
AcDbEntity
  8
1
  6
Continuous
 62
     4
370
    18
100
AcDbLine
 10
52.844671
 20
-34.296577
 30
0.0
 11
53.47949
 21
-34.625465
 31
0.0
  0
LINE
  5
B7
330
1F
100
AcDbEntity
  8
1
  6
Continuous
 62
     4
370
    18
100
AcDbLine
 10
53.47949
 20
-34.625465
 30
0.0
 11
54.157644
 21
-34.854217
 31
0.0
  0
LINE
  5
B8
330
1F
100
AcDbEntity
  8
1
  6
Continuous
 62
     4
370
    18
100
AcDbLine
 10
54.157644
 20
-34.854217
 30
0.0
 11
54.863577
 21
-34.977577
 31
0.0
  0
LINE
  5
B9
330
1F
100
AcDbEntity
  8
1
  6
Continuous
 62
     4
370
    18
100
AcDbLine
 10
54.863577
 20
-34.977577
 30
0.0
 11
55.581068
 21
-34.992721
 31
0.0
  0
LINE
  5
BA
330
1F
100
AcDbEntity
  8
1
  6
Continuous
 62
     4
370
    18
100
AcDbLine
 10
55.581068
 20
-34.992721
 30
0.0
 11
56.293691
 21
-34.899307
 31
0.0
  0
LINE
  5
BB
330
1F
100
AcDbEntity
  8
1
  6
Continuous
 62
     4
370
    18
100
AcDbLine
 10
56.293691
 20
-34.899307
 30
0.0
 11
56.985075
 21
-34.699463
 31
0.0
  0
LINE
  5
BC
330
1F
100
AcDbEntity
  8
1
  6
Continuous
 62
     4
370
    18
100
AcDbLine
 10
56.985075
 20
-34.699463
 30
0.0
 11
57.639372
 21
-34.397781
 31
0.0
  0
LINE
  5
BD
330
1F
100
AcDbEntity
  8
1
  6
Continuous
 62
     4
370
    18
100
AcDbLine
 10
57.639372
 20
-34.397781
 30
0.0
 11
58.241567
 21
-34.001182
 31
0.0
  0
LINE
  5
BE
330
1F
100
AcDbEntity
  8
1
  6
Continuous
 62
     4
370
    18
100
AcDbLine
 10
58.241567
 20
-34.001182
 30
0.0
 11
58.777845
 21
-33.518768
 31
0.0
  0
LINE
  5
BF
330
1F
100
AcDbEntity
  8
1
  6
Continuous
 62
     4
370
    18
100
AcDbLine
 10
58.777845
 20
-33.518768
 30
0.0
 11
59.235899
 21
-32.961601
 31
0.0
  0
LINE
  5
C0
330
1F
100
AcDbEntity
  8
1
  6
Continuous
 62
     4
370
    18
100
AcDbLine
 10
59.235899
 20
-32.961601
 30
0.0
 11
59.605215
 21
-32.342476
 31
0.0
  0
LINE
  5
C1
330
1F
100
AcDbEntity
  8
1
  6
Continuous
 62
     4
370
    18
100
AcDbLine
 10
59.605215
 20
-32.342476
 30
0.0
 11
59.877332
 21
-31.675575
 31
0.0
  0
LINE
  5
C2
330
1F
100
AcDbEntity
  8
1
  6
Continuous
 62
     4
370
    18
100
AcDbLine
 10
59.877332
 20
-31.675575
 30
0.0
 11
60.046018
 21
-30.976211
 31
0.0
  0
LINE
  5
C3
330
1F
100
AcDbEntity
  8
1
  6
Continuous
 62
     4
370
    18
100
AcDbLine
 10
60.046018
 20
-30.976211
 30
0.0
 11
60.107381
 21
-30.260422
 31
0.0
  0
LINE
  5
C4
330
1F
100
AcDbEntity
  8
1
  6
Continuous
 62
     4
370
    18
100
AcDbLine
 10
58.422933
 20
-26.580017
 30
0.0
 11
58.287695
 21
-26.450134
 31
0.0
  0
LINE
  5
C5
330
1F
100
AcDbEntity
  8
1
  6
Continuous
 62
     4
370
    18
100
AcDbLine
 10
58.287695
 20
-26.450134
 30
0.0
 11
58.147352
 21
-26.325779
 31
0.0
  0
LINE
  5
C6
330
1F
100
AcDbEntity
  8
1
  6
Continuous
 62
     4
370
    18
100
AcDbLine
 10
50.817472
 20
-32.11042
 30
0.0
 11
51.204984
 21
-32.748413
 31
0.0
  0
LINE
  5
C7
330
1F
100
AcDbEntity
  8
1
  6
Continuous
 62
     4
370
    18
100
AcDbLine
 10
51.204984
 20
-32.748413
 30
0.0
 11
51.688863
 21
-33.31633
 31
0.0
  0
LINE
  5
C8
330
1F
100
AcDbEntity
  8
1
  6
Continuous
 62
     4
370
    18
100
AcDbLine
 10
8.538681
 20
-7.56881
 30
0.0
 11
8.456642
 21
-7.582856
 31
0.0
  0
LINE
  5
C9
330
1F
100
AcDbEntity
  8
1
  6
Continuous
 62
     4
370
    18
100
AcDbLine
 10
8.456642
 20
-7.582856
 30
0.0
 11
8.367584
 21
-7.631513
 31
0.0
  0
LINE
  5
CA
330
1F
100
AcDbEntity
  8
1
  6
Continuous
 62
     4
370
    18
100
AcDbLine
 10
8.367584
 20
-7.631513
 30
0.0
 11
8.259666
 21
-7.746232
 31
0.0
  0
LINE
  5
CB
330
1F
100
AcDbEntity
  8
1
  6
Continuous
 62
     4
370
    18
100
AcDbLine
 10
8.259666
 20
-7.746232
 30
0.0
 11
8.129944
 21
-8.015019
 31
0.0
  0
LINE
  5
CC
330
1F
100
AcDbEntity
  8
1
  6
Continuous
 62
     4
370
    18
100
AcDbLine
 10
8.129944
 20
-8.015019
 30
0.0
 11
8.105667
 21
-8.096455
 31
0.0
  0
LINE
  5
CD
330
1F
100
AcDbEntity
  8
1
  6
Continuous
 62
     4
370
    18
100
AcDbLine
 10
8.105667
 20
-8.096455
 30
0.0
 11
7.744026
 21
-9.517438
 31
0.0
  0
LINE
  5
CE
330
1F
100
AcDbEntity
  8
1
  6
Continuous
 62
     4
370
    18
100
AcDbLine
 10
7.744026
 20
-9.517438
 30
0.0
 11
7.431541
 21
-10.903306
 31
0.0
  0
LINE
  5
CF
330
1F
100
AcDbEntity
  8
1
  6
Continuous
 62
     4
370
    18
100
AcDbLine
 10
7.431541
 20
-10.903306
 30
0.0
 11
7.169349
 21
-12.248959
 31
0.0
  0
LINE
  5
D0
330
1F
100
AcDbEntity
  8
1
  6
Continuous
 62
     4
370
    18
100
AcDbLine
 10
7.169349
 20
-12.248959
 30
0.0
 11
6.95842
 21
-13.549424
 31
0.0
  0
LINE
  5
D1
330
1F
100
AcDbEntity
  8
1
  6
Continuous
 62
     4
370
    18
100
AcDbLine
 10
6.95842
 20
-13.549424
 30
0.0
 11
6.799545
 21
-14.799912
 31
0.0
  0
LINE
  5
D2
330
1F
100
AcDbEntity
  8
1
  6
Continuous
 62
     4
370
    18
100
AcDbLine
 10
6.799545
 20
-14.799912
 30
0.0
 11
6.693298
 21
-15.995797
 31
0.0
  0
LINE
  5
D3
330
1F
100
AcDbEntity
  8
1
  6
Continuous
 62
     4
370
    18
100
AcDbLine
 10
6.693298
 20
-15.995797
 30
0.0
 11
6.640083
 21
-17.132679
 31
0.0
  0
LINE
  5
D4
330
1F
100
AcDbEntity
  8
1
  6
Continuous
 62
     4
370
    18
100
AcDbLine
 10
6.640083
 20
-17.132679
 30
0.0
 11
6.640083
 21
-18.206353
 31
0.0
  0
LINE
  5
D5
330
1F
100
AcDbEntity
  8
1
  6
Continuous
 62
     4
370
    18
100
AcDbLine
 10
6.640083
 20
-18.206353
 30
0.0
 11
6.693298
 21
-19.212872
 31
0.0
  0
LINE
  5
D6
330
1F
100
AcDbEntity
  8
1
  6
Continuous
 62
     4
370
    18
100
AcDbLine
 10
6.693298
 20
-19.212872
 30
0.0
 11
6.799545
 21
-20.148514
 31
0.0
  0
LINE
  5
D7
330
1F
100
AcDbEntity
  8
1
  6
Continuous
 62
     4
370
    18
100
AcDbLine
 10
6.799545
 20
-20.148514
 30
0.0
 11
6.95842
 21
-21.009831
 31
0.0
  0
LINE
  5
D8
330
1F
100
AcDbEntity
  8
1
  6
Continuous
 62
     4
370
    18
100
AcDbLine
 10
6.95842
 20
-21.009831
 30
0.0
 11
7.169349
 21
-21.793644
 31
0.0
  0
LINE
  5
D9
330
1F
100
AcDbEntity
  8
1
  6
Continuous
 62
     4
370
    18
100
AcDbLine
 10
7.169349
 20
-21.793644
 30
0.0
 11
7.431541
 21
-22.497063
 31
0.0
  0
LINE
  5
DA
330
1F
100
AcDbEntity
  8
1
  6
Continuous
 62
     4
370
    18
100
AcDbLine
 10
7.431541
 20
-22.497063
 30
0.0
 11
7.744026
 21
-23.117489
 31
0.0
  0
LINE
  5
DB
330
1F
100
AcDbEntity
  8
1
  6
Continuous
 62
     4
370
    18
100
AcDbLine
 10
7.744026
 20
-23.117489
 30
0.0
 11
8.105667
 21
-23.652642
 31
0.0
  0
LINE
  5
DC
330
1F
100
AcDbEntity
  8
1
  6
Continuous
 62
     4
370
    18
100
AcDbLine
 10
8.105667
 20
-23.652642
 30
0.0
 11
8.229591
 21
-23.754605
 31
0.0
  0
LINE
  5
DD
330
1F
100
AcDbEntity
  8
1
  6
Continuous
 62
     4
370
    18
100
AcDbLine
 10
8.229591
 20
-23.754605
 30
0.0
 11
8.308449
 21
-23.789296
 31
0.0
  0
LINE
  5
DE
330
1F
100
AcDbEntity
  8
1
  6
Continuous
 62
     4
370
    18
100
AcDbLine
 10
8.308449
 20
-23.789296
 30
0.0
 11
8.414398
 21
-23.816365
 31
0.0
  0
LINE
  5
DF
330
1F
100
AcDbEntity
  8
1
  6
Continuous
 62
     4
370
    18
100
AcDbLine
 10
8.414398
 20
-23.816365
 30
0.0
 11
8.494835
 21
-23.825463
 31
0.0
  0
LINE
  5
E0
330
1F
100
AcDbEntity
  8
1
  6
Continuous
 62
     4
370
    18
100
AcDbLine
 10
8.494835
 20
-23.825463
 30
0.0
 11
8.538681
 21
-23.826729
 31
0.0
  0
LINE
  5
E1
330
1F
100
AcDbEntity
  8
1
  6
Continuous
 62
     4
370
    18
100
AcDbLine
 10
11.461326
 20
-23.826729
 30
0.0
 11
11.543365
 21
-23.822266
 31
0.0
  0
LINE
  5
E2
330
1F
100
AcDbEntity
  8
1
  6
Continuous
 62
     4
370
    18
100
AcDbLine
 10
11.543365
 20
-23.822266
 30
0.0
 11
11.632431
 21
-23.806725
 31
0.0
  0
LINE
  5
E3
330
1F
100
AcDbEntity
  8
1
  6
Continuous
 62
     4
370
    18
100
AcDbLine
 10
11.632431
 20
-23.806725
 30
0.0
 11
11.740341
 21
-23.769642
 31
0.0
  0
LINE
  5
E4
330
1F
100
AcDbEntity
  8
1
  6
Continuous
 62
     4
370
    18
100
AcDbLine
 10
11.740341
 20
-23.769642
 30
0.0
 11
11.870071
 21
-23.680359
 31
0.0
  0
LINE
  5
E5
330
1F
100
AcDbEntity
  8
1
  6
Continuous
 62
     4
370
    18
100
AcDbLine
 10
11.870071
 20
-23.680359
 30
0.0
 11
11.89434
 21
-23.652642
 31
0.0
  0
LINE
  5
E6
330
1F
100
AcDbEntity
  8
1
  6
Continuous
 62
     4
370
    18
100
AcDbLine
 10
11.89434
 20
-23.652642
 30
0.0
 11
12.255981
 21
-23.117489
 31
0.0
  0
LINE
  5
E7
330
1F
100
AcDbEntity
  8
1
  6
Continuous
 62
     4
370
    18
100
AcDbLine
 10
12.255981
 20
-23.117489
 30
0.0
 11
12.568473
 21
-22.497063
 31
0.0
  0
LINE
  5
E8
330
1F
100
AcDbEntity
  8
1
  6
Continuous
 62
     4
370
    18
100
AcDbLine
 10
12.568473
 20
-22.497063
 30
0.0
 11
12.830665
 21
-21.793644
 31
0.0
  0
LINE
  5
E9
330
1F
100
AcDbEntity
  8
1
  6
Continuous
 62
     4
370
    18
100
AcDbLine
 10
12.830665
 20
-21.793644
 30
0.0
 11
13.041587
 21
-21.009831
 31
0.0
  0
LINE
  5
EA
330
1F
100
AcDbEntity
  8
1
  6
Continuous
 62
     4
370
    18
100
AcDbLine
 10
13.041587
 20
-21.009831
 30
0.0
 11
13.200462
 21
-20.148514
 31
0.0
  0
LINE
  5
EB
330
1F
100
AcDbEntity
  8
1
  6
Continuous
 62
     4
370
    18
100
AcDbLine
 10
13.200462
 20
-20.148514
 30
0.0
 11
13.306709
 21
-19.212872
 31
0.0
  0
LINE
  5
EC
330
1F
100
AcDbEntity
  8
1
  6
Continuous
 62
     4
370
    18
100
AcDbLine
 10
13.306709
 20
-19.212872
 30
0.0
 11
13.359924
 21
-18.206353
 31
0.0
  0
LINE
  5
ED
330
1F
100
AcDbEntity
  8
1
  6
Continuous
 62
     4
370
    18
100
AcDbLine
 10
13.359924
 20
-18.206353
 30
0.0
 11
13.359924
 21
-17.132679
 31
0.0
  0
LINE
  5
EE
330
1F
100
AcDbEntity
  8
1
  6
Continuous
 62
     4
370
    18
100
AcDbLine
 10
13.359924
 20
-17.132679
 30
0.0
 11
13.306709
 21
-15.995797
 31
0.0
  0
LINE
  5
EF
330
1F
100
AcDbEntity
  8
1
  6
Continuous
 62
     4
370
    18
100
AcDbLine
 10
13.306709
 20
-15.995797
 30
0.0
 11
13.200462
 21
-14.799912
 31
0.0
  0
LINE
  5
F0
330
1F
100
AcDbEntity
  8
1
  6
Continuous
 62
     4
370
    18
100
AcDbLine
 10
13.200462
 20
-14.799912
 30
0.0
 11
13.041587
 21
-13.549424
 31
0.0
  0
LINE
  5
F1
330
1F
100
AcDbEntity
  8
1
  6
Continuous
 62
     4
370
    18
100
AcDbLine
 10
13.041587
 20
-13.549424
 30
0.0
 11
12.830665
 21
-12.248959
 31
0.0
  0
LINE
  5
F2
330
1F
100
AcDbEntity
  8
1
  6
Continuous
 62
     4
370
    18
100
AcDbLine
 10
12.830665
 20
-12.248959
 30
0.0
 11
12.568473
 21
-10.903306
 31
0.0
  0
LINE
  5
F3
330
1F
100
AcDbEntity
  8
1
  6
Continuous
 62
     4
370
    18
100
AcDbLine
 10
12.568473
 20
-10.903306
 30
0.0
 11
12.255981
 21
-9.517438
 31
0.0
  0
LINE
  5
F4
330
1F
100
AcDbEntity
  8
1
  6
Continuous
 62
     4
370
    18
100
AcDbLine
 10
12.255981
 20
-9.517438
 30
0.0
 11
11.89434
 21
-8.096455
 31
0.0
  0
LINE
  5
F5
330
1F
100
AcDbEntity
  8
1
  6
Continuous
 62
     4
370
    18
100
AcDbLine
 10
11.89434
 20
-8.096455
 30
0.0
 11
11.770416
 21
-7.79223
 31
0.0
  0
LINE
  5
F6
330
1F
100
AcDbEntity
  8
1
  6
Continuous
 62
     4
370
    18
100
AcDbLine
 10
11.770416
 20
-7.79223
 30
0.0
 11
11.691566
 21
-7.685674
 31
0.0
  0
LINE
  5
F7
330
1F
100
AcDbEntity
  8
1
  6
Continuous
 62
     4
370
    18
100
AcDbLine
 10
11.691566
 20
-7.685674
 30
0.0
 11
11.585609
 21
-7.601369
 31
0.0
  0
LINE
  5
F8
330
1F
100
AcDbEntity
  8
1
  6
Continuous
 62
     4
370
    18
100
AcDbLine
 10
11.585609
 20
-7.601369
 30
0.0
 11
11.50518
 21
-7.572801
 31
0.0
  0
LINE
  5
F9
330
1F
100
AcDbEntity
  8
1
  6
Continuous
 62
     4
370
    18
100
AcDbLine
 10
11.50518
 20
-7.572801
 30
0.0
 11
11.461326
 21
-7.56881
 31
0.0
  0
LINE
  5
FA
330
1F
100
AcDbEntity
  8
1
  6
Continuous
 62
     4
370
    18
100
AcDbLine
 10
11.461326
 20
-7.56881
 30
0.0
 11
8.538681
 21
-7.56881
 31
0.0
  0
LINE
  5
FB
330
1F
100
AcDbEntity
  8
1
  6
Continuous
 62
     4
370
    18
100
AcDbLine
 10
17.292205
 20
24.255439
 30
0.0
 11
16.993346
 21
24.552678
 31
0.0
  0
LINE
  5
FC
330
1F
100
AcDbEntity
  8
1
  6
Continuous
 62
     4
370
    18
100
AcDbLine
 10
16.993346
 20
24.552678
 30
0.0
 11
16.770057
 21
24.775085
 31
0.0
  0
LINE
  5
FD
330
1F
100
AcDbEntity
  8
1
  6
Continuous
 62
     4
370
    18
100
AcDbLine
 10
16.770057
 20
24.775085
 30
0.0
 11
16.623031
 21
24.921979
 31
0.0
  0
LINE
  5
FE
330
1F
100
AcDbEntity
  8
1
  6
Continuous
 62
     4
370
    18
100
AcDbLine
 10
16.623031
 20
24.921979
 30
0.0
 11
16.552703
 21
24.992913
 31
0.0
  0
LINE
  5
FF
330
1F
100
AcDbEntity
  8
1
  6
Continuous
 62
     4
370
    18
100
AcDbLine
 10
16.552703
 20
24.992913
 30
0.0
 11
16.559295
 21
24.987672
 31
0.0
  0
LINE
  5
100
330
1F
100
AcDbEntity
  8
1
  6
Continuous
 62
     4
370
    18
100
AcDbLine
 10
16.559295
 20
24.987672
 30
0.0
 11
16.642783
 21
24.906272
 31
0.0
  0
LINE
  5
101
330
1F
100
AcDbEntity
  8
1
  6
Continuous
 62
     4
370
    18
100
AcDbLine
 10
16.642783
 20
24.906272
 30
0.0
 11
16.802924
 21
24.74896
 31
0.0
  0
LINE
  5
102
330
1F
100
AcDbEntity
  8
1
  6
Continuous
 62
     4
370
    18
100
AcDbLine
 10
16.802924
 20
24.74896
 30
0.0
 11
17.039214
 21
24.516215
 31
0.0
  0
LINE
  5
103
330
1F
100
AcDbEntity
  8
1
  6
Continuous
 62
     4
370
    18
100
AcDbLine
 10
17.039214
 20
24.516215
 30
0.0
 11
17.350944
 21
24.208748
 31
0.0
  0
LINE
  5
104
330
1F
100
AcDbEntity
  8
1
  6
Continuous
 62
     4
370
    18
100
AcDbLine
 10
17.350944
 20
24.208748
 30
0.0
 11
17.737159
 21
23.827497
 31
0.0
  0
LINE
  5
105
330
1F
100
AcDbEntity
  8
1
  6
Continuous
 62
     4
370
    18
100
AcDbLine
 10
17.737159
 20
23.827497
 30
0.0
 11
18.196677
 21
23.37362
 31
0.0
  0
LINE
  5
106
330
1F
100
AcDbEntity
  8
1
  6
Continuous
 62
     4
370
    18
100
AcDbLine
 10
18.196677
 20
23.37362
 30
0.0
 11
18.728111
 21
22.848503
 31
0.0
  0
LINE
  5
107
330
1F
100
AcDbEntity
  8
1
  6
Continuous
 62
     4
370
    18
100
AcDbLine
 10
18.728111
 20
22.848503
 30
0.0
 11
19.329833
 21
22.253746
 31
0.0
  0
LINE
  5
108
330
1F
100
AcDbEntity
  8
1
  6
Continuous
 62
     4
370
    18
100
AcDbLine
 10
19.329833
 20
22.253746
 30
0.0
 11
20.000007
 21
21.591164
 31
0.0
  0
LINE
  5
109
330
1F
100
AcDbEntity
  8
1
  6
Continuous
 62
     4
370
    18
100
AcDbLine
 10
16.015228
 20
23.455355
 30
0.0
 11
16.128143
 21
23.686904
 31
0.0
  0
LINE
  5
10A
330
1F
100
AcDbEntity
  8
1
  6
Continuous
 62
     4
370
    18
100
AcDbLine
 10
16.128143
 20
23.686904
 30
0.0
 11
16.359557
 21
23.897426
 31
0.0
  0
LINE
  5
10B
330
1F
100
AcDbEntity
  8
1
  6
Continuous
 62
     4
370
    18
100
AcDbLine
 10
16.359557
 20
23.897426
 30
0.0
 11
16.694488
 21
24.072197
 31
0.0
  0
LINE
  5
10C
330
1F
100
AcDbEntity
  8
1
  6
Continuous
 62
     4
370
    18
100
AcDbLine
 10
16.694488
 20
24.072197
 30
0.0
 11
17.146102
 21
24.219697
 31
0.0
  0
LINE
  5
10D
330
1F
100
AcDbEntity
  8
1
  6
Continuous
 62
     4
370
    18
100
AcDbLine
 10
17.146102
 20
24.219697
 30
0.0
 11
17.292205
 21
24.255439
 31
0.0
  0
LINE
  5
10E
330
1F
100
AcDbEntity
  8
1
  6
Continuous
 62
     4
370
    18
100
AcDbLine
 10
16.366142
 20
-24.565564
 30
0.0
 11
16.230674
 21
-24.221878
 31
0.0
  0
LINE
  5
10F
330
1F
100
AcDbEntity
  8
1
  6
Continuous
 62
     4
370
    18
100
AcDbLine
 10
16.230674
 20
-24.221878
 30
0.0
 11
16.097396
 21
-23.780712
 31
0.0
  0
LINE
  5
110
330
1F
100
AcDbEntity
  8
1
  6
Continuous
 62
     4
370
    18
100
AcDbLine
 10
16.097396
 20
-23.780712
 30
0.0
 11
15.966827
 21
-23.243828
 31
0.0
  0
LINE
  5
111
330
1F
100
AcDbEntity
  8
1
  6
Continuous
 62
     4
370
    18
100
AcDbLine
 10
15.966827
 20
-23.243828
 30
0.0
 11
15.8395
 21
-22.613396
 31
0.0
  0
LINE
  5
112
330
1F
100
AcDbEntity
  8
1
  6
Continuous
 62
     4
370
    18
100
AcDbLine
 10
15.8395
 20
-22.613396
 30
0.0
 11
15.715926
 21
-21.891949
 31
0.0
  0
LINE
  5
113
330
1F
100
AcDbEntity
  8
1
  6
Continuous
 62
     4
370
    18
100
AcDbLine
 10
15.715926
 20
-21.891949
 30
0.0
 11
15.59661
 21
-21.08239
 31
0.0
  0
LINE
  5
114
330
1F
100
AcDbEntity
  8
1
  6
Continuous
 62
     4
370
    18
100
AcDbLine
 10
15.59661
 20
-21.08239
 30
0.0
 11
15.482017
 21
-20.187981
 31
0.0
  0
LINE
  5
115
330
1F
100
AcDbEntity
  8
1
  6
Continuous
 62
     4
370
    18
100
AcDbLine
 10
15.482017
 20
-20.187981
 30
0.0
 11
15.372619
 21
-19.212315
 31
0.0
  0
LINE
  5
116
330
1F
100
AcDbEntity
  8
1
  6
Continuous
 62
     4
370
    18
100
AcDbLine
 10
15.372619
 20
-19.212315
 30
0.0
 11
15.268852
 21
-18.159329
 31
0.0
  0
LINE
  5
117
330
1F
100
AcDbEntity
  8
1
  6
Continuous
 62
     4
370
    18
100
AcDbLine
 10
15.268852
 20
-18.159329
 30
0.0
 11
15.171134
 21
-17.033245
 31
0.0
  0
LINE
  5
118
330
1F
100
AcDbEntity
  8
1
  6
Continuous
 62
     4
370
    18
100
AcDbLine
 10
15.171134
 20
-17.033245
 30
0.0
 11
15.079864
 21
-15.838616
 31
0.0
  0
LINE
  5
119
330
1F
100
AcDbEntity
  8
1
  6
Continuous
 62
     4
370
    18
100
AcDbLine
 10
15.079864
 20
-15.838616
 30
0.0
 11
14.995399
 21
-14.580239
 31
0.0
  0
LINE
  5
11A
330
1F
100
AcDbEntity
  8
1
  6
Continuous
 62
     4
370
    18
100
AcDbLine
 10
14.995399
 20
-14.580239
 30
0.0
 11
14.91809
 21
-13.263172
 31
0.0
  0
LINE
  5
11B
330
1F
100
AcDbEntity
  8
1
  6
Continuous
 62
     4
370
    18
100
AcDbLine
 10
14.91809
 20
-13.263172
 30
0.0
 11
14.848243
 21
-11.892728
 31
0.0
  0
LINE
  5
11C
330
1F
100
AcDbEntity
  8
1
  6
Continuous
 62
     4
370
    18
100
AcDbLine
 10
14.848243
 20
-11.892728
 30
0.0
 11
14.78614
 21
-10.474423
 31
0.0
  0
LINE
  5
11D
330
1F
100
AcDbEntity
  8
1
  6
Continuous
 62
     4
370
    18
100
AcDbLine
 10
14.78614
 20
-10.474423
 30
0.0
 11
14.732032
 21
-9.013955
 31
0.0
  0
LINE
  5
11E
330
1F
100
AcDbEntity
  8
1
  6
Continuous
 62
     4
370
    18
100
AcDbLine
 10
14.732032
 20
-9.013955
 30
0.0
 11
14.686126
 21
-7.517209
 31
0.0
  0
LINE
  5
11F
330
1F
100
AcDbEntity
  8
1
  6
Continuous
 62
     4
370
    18
100
AcDbLine
 10
14.686126
 20
-7.517209
 30
0.0
 11
14.64862
 21
-5.990205
 31
0.0
  0
LINE
  5
120
330
1F
100
AcDbEntity
  8
1
  6
Continuous
 62
     4
370
    18
100
AcDbLine
 10
14.64862
 20
-5.990205
 30
0.0
 11
14.619666
 21
-4.439092
 31
0.0
  0
LINE
  5
121
330
1F
100
AcDbEntity
  8
1
  6
Continuous
 62
     4
370
    18
100
AcDbLine
 10
14.619666
 20
-4.439092
 30
0.0
 11
14.599372
 21
-2.870114
 31
0.0
  0
LINE
  5
122
330
1F
100
AcDbEntity
  8
1
  6
Continuous
 62
     4
370
    18
100
AcDbLine
 10
14.599372
 20
-2.870114
 30
0.0
 11
14.587821
 21
-1.289586
 31
0.0
  0
LINE
  5
123
330
1F
100
AcDbEntity
  8
1
  6
Continuous
 62
     4
370
    18
100
AcDbLine
 10
14.587821
 20
-1.289586
 30
0.0
 11
14.585059
 21
0.296134
 31
0.0
  0
LINE
  5
124
330
1F
100
AcDbEntity
  8
1
  6
Continuous
 62
     4
370
    18
100
AcDbLine
 10
14.585059
 20
0.296134
 30
0.0
 11
14.591109
 21
1.880663
 31
0.0
  0
LINE
  5
125
330
1F
100
AcDbEntity
  8
1
  6
Continuous
 62
     4
370
    18
100
AcDbLine
 10
14.591109
 20
1.880663
 30
0.0
 11
14.605926
 21
3.457621
 31
0.0
  0
LINE
  5
126
330
1F
100
AcDbEntity
  8
1
  6
Continuous
 62
     4
370
    18
100
AcDbLine
 10
14.605926
 20
3.457621
 30
0.0
 11
14.62947
 21
5.020663
 31
0.0
  0
LINE
  5
127
330
1F
100
AcDbEntity
  8
1
  6
Continuous
 62
     4
370
    18
100
AcDbLine
 10
14.62947
 20
5.020663
 30
0.0
 11
14.661628
 21
6.563498
 31
0.0
  0
LINE
  5
128
330
1F
100
AcDbEntity
  8
1
  6
Continuous
 62
     4
370
    18
100
AcDbLine
 10
14.661628
 20
6.563498
 30
0.0
 11
14.702293
 21
8.079917
 31
0.0
  0
LINE
  5
129
330
1F
100
AcDbEntity
  8
1
  6
Continuous
 62
     4
370
    18
100
AcDbLine
 10
14.702293
 20
8.079917
 30
0.0
 11
14.751281
 21
9.563817
 31
0.0
  0
LINE
  5
12A
330
1F
100
AcDbEntity
  8
1
  6
Continuous
 62
     4
370
    18
100
AcDbLine
 10
14.751281
 20
9.563817
 30
0.0
 11
14.808402
 21
11.009223
 31
0.0
  0
LINE
  5
12B
330
1F
100
AcDbEntity
  8
1
  6
Continuous
 62
     4
370
    18
100
AcDbLine
 10
14.808402
 20
11.009223
 30
0.0
 11
14.873428
 21
12.410317
 31
0.0
  0
LINE
  5
12C
330
1F
100
AcDbEntity
  8
1
  6
Continuous
 62
     4
370
    18
100
AcDbLine
 10
14.873428
 20
12.410317
 30
0.0
 11
14.946098
 21
13.761465
 31
0.0
  0
LINE
  5
12D
330
1F
100
AcDbEntity
  8
1
  6
Continuous
 62
     4
370
    18
100
AcDbLine
 10
14.946098
 20
13.761465
 30
0.0
 11
15.026115
 21
15.057224
 31
0.0
  0
LINE
  5
12E
330
1F
100
AcDbEntity
  8
1
  6
Continuous
 62
     4
370
    18
100
AcDbLine
 10
15.026115
 20
15.057224
 30
0.0
 11
15.113166
 21
16.292381
 31
0.0
  0
LINE
  5
12F
330
1F
100
AcDbEntity
  8
1
  6
Continuous
 62
     4
370
    18
100
AcDbLine
 10
15.113166
 20
16.292381
 30
0.0
 11
15.206886
 21
17.461966
 31
0.0
  0
LINE
  5
130
330
1F
100
AcDbEntity
  8
1
  6
Continuous
 62
     4
370
    18
100
AcDbLine
 10
15.206886
 20
17.461966
 30
0.0
 11
15.306907
 21
18.561268
 31
0.0
  0
LINE
  5
131
330
1F
100
AcDbEntity
  8
1
  6
Continuous
 62
     4
370
    18
100
AcDbLine
 10
15.306907
 20
18.561268
 30
0.0
 11
15.412826
 21
19.585867
 31
0.0
  0
LINE
  5
132
330
1F
100
AcDbEntity
  8
1
  6
Continuous
 62
     4
370
    18
100
AcDbLine
 10
15.412826
 20
19.585867
 30
0.0
 11
15.524215
 21
20.531633
 31
0.0
  0
LINE
  5
133
330
1F
100
AcDbEntity
  8
1
  6
Continuous
 62
     4
370
    18
100
AcDbLine
 10
15.524215
 20
20.531633
 30
0.0
 11
15.640632
 21
21.394766
 31
0.0
  0
LINE
  5
134
330
1F
100
AcDbEntity
  8
1
  6
Continuous
 62
     4
370
    18
100
AcDbLine
 10
15.640632
 20
21.394766
 30
0.0
 11
15.761596
 21
22.171788
 31
0.0
  0
LINE
  5
135
330
1F
100
AcDbEntity
  8
1
  6
Continuous
 62
     4
370
    18
100
AcDbLine
 10
15.761596
 20
22.171788
 30
0.0
 11
15.886634
 21
22.859574
 31
0.0
  0
LINE
  5
136
330
1F
100
AcDbEntity
  8
1
  6
Continuous
 62
     4
370
    18
100
AcDbLine
 10
15.886634
 20
22.859574
 30
0.0
 11
16.015228
 21
23.455355
 31
0.0
  0
LINE
  5
137
330
1F
100
AcDbEntity
  8
1
  6
Continuous
 62
     4
370
    18
100
AcDbLine
 10
16.366142
 20
-24.565564
 30
0.0
 11
20.000007
 21
-24.632191
 31
0.0
  0
LINE
  5
138
330
1F
100
AcDbEntity
  8
1
  6
Continuous
 62
     4
370
    18
100
AcDbLine
 10
20.000007
 20
-25.0
 30
0.0
 11
20.000007
 21
-24.632191
 31
0.0
  0
LINE
  5
139
330
1F
100
AcDbEntity
  8
1
  6
Continuous
 62
     4
370
    18
100
AcDbLine
 10
0.0
 20
25.0
 30
0.0
 11
0.0
 21
-25.0
 31
0.0
  0
LINE
  5
13A
330
1F
100
AcDbEntity
  8
1
  6
Continuous
 62
     4
370
    18
100
AcDbLine
 10
8.538681
 20
-23.826729
 30
0.0
 11
11.461326
 21
-23.826729
 31
0.0
  0
LINE
  5
13B
330
1F
100
AcDbEntity
  8
1
  6
Continuous
 62
     4
370
    18
100
AcDbLine
 10
8.105667
 20
23.652641
 30
0.0
 11
7.744026
 21
23.117492
 31
0.0
  0
LINE
  5
13C
330
1F
100
AcDbEntity
  8
1
  6
Continuous
 62
     4
370
    18
100
AcDbLine
 10
7.744026
 20
23.117492
 30
0.0
 11
7.431541
 21
22.497064
 31
0.0
  0
LINE
  5
13D
330
1F
100
AcDbEntity
  8
1
  6
Continuous
 62
     4
370
    18
100
AcDbLine
 10
7.431541
 20
22.497064
 30
0.0
 11
7.169349
 21
21.793645
 31
0.0
  0
LINE
  5
13E
330
1F
100
AcDbEntity
  8
1
  6
Continuous
 62
     4
370
    18
100
AcDbLine
 10
7.169349
 20
21.793645
 30
0.0
 11
6.95842
 21
21.009832
 31
0.0
  0
LINE
  5
13F
330
1F
100
AcDbEntity
  8
1
  6
Continuous
 62
     4
370
    18
100
AcDbLine
 10
6.95842
 20
21.009832
 30
0.0
 11
6.799545
 21
20.148516
 31
0.0
  0
LINE
  5
140
330
1F
100
AcDbEntity
  8
1
  6
Continuous
 62
     4
370
    18
100
AcDbLine
 10
6.799545
 20
20.148516
 30
0.0
 11
6.693298
 21
19.212874
 31
0.0
  0
LINE
  5
141
330
1F
100
AcDbEntity
  8
1
  6
Continuous
 62
     4
370
    18
100
AcDbLine
 10
6.693298
 20
19.212874
 30
0.0
 11
6.640083
 21
18.206356
 31
0.0
  0
LINE
  5
142
330
1F
100
AcDbEntity
  8
1
  6
Continuous
 62
     4
370
    18
100
AcDbLine
 10
6.640083
 20
18.206356
 30
0.0
 11
6.640083
 21
17.132675
 31
0.0
  0
LINE
  5
143
330
1F
100
AcDbEntity
  8
1
  6
Continuous
 62
     4
370
    18
100
AcDbLine
 10
6.640083
 20
17.132675
 30
0.0
 11
6.693298
 21
15.995796
 31
0.0
  0
LINE
  5
144
330
1F
100
AcDbEntity
  8
1
  6
Continuous
 62
     4
370
    18
100
AcDbLine
 10
6.693298
 20
15.995796
 30
0.0
 11
6.799545
 21
14.799908
 31
0.0
  0
LINE
  5
145
330
1F
100
AcDbEntity
  8
1
  6
Continuous
 62
     4
370
    18
100
AcDbLine
 10
6.799545
 20
14.799908
 30
0.0
 11
6.95842
 21
13.549425
 31
0.0
  0
LINE
  5
146
330
1F
100
AcDbEntity
  8
1
  6
Continuous
 62
     4
370
    18
100
AcDbLine
 10
6.95842
 20
13.549425
 30
0.0
 11
7.169349
 21
12.248961
 31
0.0
  0
LINE
  5
147
330
1F
100
AcDbEntity
  8
1
  6
Continuous
 62
     4
370
    18
100
AcDbLine
 10
7.169349
 20
12.248961
 30
0.0
 11
7.431541
 21
10.903309
 31
0.0
  0
LINE
  5
148
330
1F
100
AcDbEntity
  8
1
  6
Continuous
 62
     4
370
    18
100
AcDbLine
 10
7.431541
 20
10.903309
 30
0.0
 11
7.744026
 21
9.517434
 31
0.0
  0
LINE
  5
149
330
1F
100
AcDbEntity
  8
1
  6
Continuous
 62
     4
370
    18
100
AcDbLine
 10
7.744026
 20
9.517434
 30
0.0
 11
8.105667
 21
8.096453
 31
0.0
  0
LINE
  5
14A
330
1F
100
AcDbEntity
  8
1
  6
Continuous
 62
     4
370
    18
100
AcDbLine
 10
8.538681
 20
7.56881
 30
0.0
 11
11.461326
 21
7.56881
 31
0.0
  0
LINE
  5
14B
330
1F
100
AcDbEntity
  8
1
  6
Continuous
 62
     4
370
    18
100
AcDbLine
 10
8.105667
 20
8.096453
 30
0.0
 11
8.229591
 21
7.792229
 31
0.0
  0
LINE
  5
14C
330
1F
100
AcDbEntity
  8
1
  6
Continuous
 62
     4
370
    18
100
AcDbLine
 10
8.229591
 20
7.792229
 30
0.0
 11
8.308449
 21
7.685673
 31
0.0
  0
LINE
  5
14D
330
1F
100
AcDbEntity
  8
1
  6
Continuous
 62
     4
370
    18
100
AcDbLine
 10
8.308449
 20
7.685673
 30
0.0
 11
8.414398
 21
7.601369
 31
0.0
  0
LINE
  5
14E
330
1F
100
AcDbEntity
  8
1
  6
Continuous
 62
     4
370
    18
100
AcDbLine
 10
8.414398
 20
7.601369
 30
0.0
 11
8.494835
 21
7.5728
 31
0.0
  0
LINE
  5
14F
330
1F
100
AcDbEntity
  8
1
  6
Continuous
 62
     4
370
    18
100
AcDbLine
 10
8.494835
 20
7.5728
 30
0.0
 11
8.538681
 21
7.56881
 31
0.0
  0
LINE
  5
150
330
1F
100
AcDbEntity
  8
1
  6
Continuous
 62
     4
370
    18
100
AcDbLine
 10
11.461326
 20
7.56881
 30
0.0
 11
11.543365
 21
7.58286
 31
0.0
  0
LINE
  5
151
330
1F
100
AcDbEntity
  8
1
  6
Continuous
 62
     4
370
    18
100
AcDbLine
 10
11.543365
 20
7.58286
 30
0.0
 11
11.632431
 21
7.631508
 31
0.0
  0
LINE
  5
152
330
1F
100
AcDbEntity
  8
1
  6
Continuous
 62
     4
370
    18
100
AcDbLine
 10
11.632431
 20
7.631508
 30
0.0
 11
11.740341
 21
7.74623
 31
0.0
  0
LINE
  5
153
330
1F
100
AcDbEntity
  8
1
  6
Continuous
 62
     4
370
    18
100
AcDbLine
 10
11.740341
 20
7.74623
 30
0.0
 11
11.870071
 21
8.015017
 31
0.0
  0
LINE
  5
154
330
1F
100
AcDbEntity
  8
1
  6
Continuous
 62
     4
370
    18
100
AcDbLine
 10
11.870071
 20
8.015017
 30
0.0
 11
11.89434
 21
8.096453
 31
0.0
  0
LINE
  5
155
330
1F
100
AcDbEntity
  8
1
  6
Continuous
 62
     4
370
    18
100
AcDbLine
 10
8.538681
 20
23.82673
 30
0.0
 11
8.456642
 21
23.822263
 31
0.0
  0
LINE
  5
156
330
1F
100
AcDbEntity
  8
1
  6
Continuous
 62
     4
370
    18
100
AcDbLine
 10
8.456642
 20
23.822263
 30
0.0
 11
8.367584
 21
23.806724
 31
0.0
  0
LINE
  5
157
330
1F
100
AcDbEntity
  8
1
  6
Continuous
 62
     4
370
    18
100
AcDbLine
 10
8.367584
 20
23.806724
 30
0.0
 11
8.259666
 21
23.769642
 31
0.0
  0
LINE
  5
158
330
1F
100
AcDbEntity
  8
1
  6
Continuous
 62
     4
370
    18
100
AcDbLine
 10
8.259666
 20
23.769642
 30
0.0
 11
8.129944
 21
23.680361
 31
0.0
  0
LINE
  5
159
330
1F
100
AcDbEntity
  8
1
  6
Continuous
 62
     4
370
    18
100
AcDbLine
 10
8.129944
 20
23.680361
 30
0.0
 11
8.105667
 21
23.652641
 31
0.0
  0
LINE
  5
15A
330
1F
100
AcDbEntity
  8
1
  6
Continuous
 62
     4
370
    18
100
AcDbLine
 10
11.89434
 20
23.652641
 30
0.0
 11
11.770416
 21
23.754602
 31
0.0
  0
LINE
  5
15B
330
1F
100
AcDbEntity
  8
1
  6
Continuous
 62
     4
370
    18
100
AcDbLine
 10
11.770416
 20
23.754602
 30
0.0
 11
11.691566
 21
23.789292
 31
0.0
  0
LINE
  5
15C
330
1F
100
AcDbEntity
  8
1
  6
Continuous
 62
     4
370
    18
100
AcDbLine
 10
11.691566
 20
23.789292
 30
0.0
 11
11.585609
 21
23.816364
 31
0.0
  0
LINE
  5
15D
330
1F
100
AcDbEntity
  8
1
  6
Continuous
 62
     4
370
    18
100
AcDbLine
 10
11.585609
 20
23.816364
 30
0.0
 11
11.50518
 21
23.825461
 31
0.0
  0
LINE
  5
15E
330
1F
100
AcDbEntity
  8
1
  6
Continuous
 62
     4
370
    18
100
AcDbLine
 10
11.50518
 20
23.825461
 30
0.0
 11
11.461326
 21
23.82673
 31
0.0
  0
LINE
  5
15F
330
1F
100
AcDbEntity
  8
1
  6
Continuous
 62
     4
370
    18
100
AcDbLine
 10
21.650756
 20
19.966894
 30
0.0
 11
22.739509
 21
18.889675
 31
0.0
  0
LINE
  5
160
330
1F
100
AcDbEntity
  8
1
  6
Continuous
 62
     4
370
    18
100
AcDbLine
 10
22.739509
 20
18.889675
 30
0.0
 11
23.89025
 21
17.750994
 31
0.0
  0
LINE
  5
161
330
1F
100
AcDbEntity
  8
1
  6
Continuous
 62
     4
370
    18
100
AcDbLine
 10
23.89025
 20
17.750994
 30
0.0
 11
25.099265
 21
16.554556
 31
0.0
  0
LINE
  5
162
330
1F
100
AcDbEntity
  8
1
  6
Continuous
 62
     4
370
    18
100
AcDbLine
 10
25.099265
 20
16.554556
 30
0.0
 11
26.362586
 21
15.304256
 31
0.0
  0
LINE
  5
163
330
1F
100
AcDbEntity
  8
1
  6
Continuous
 62
     4
370
    18
100
AcDbLine
 10
26.362586
 20
15.304256
 30
0.0
 11
27.676131
 21
14.00416
 31
0.0
  0
LINE
  5
164
330
1F
100
AcDbEntity
  8
1
  6
Continuous
 62
     4
370
    18
100
AcDbLine
 10
27.676131
 20
14.00416
 30
0.0
 11
29.035598
 21
12.658501
 31
0.0
  0
LINE
  5
165
330
1F
100
AcDbEntity
  8
1
  6
Continuous
 62
     4
370
    18
100
AcDbLine
 10
29.035598
 20
12.658501
 30
0.0
 11
30.436591
 21
11.271655
 31
0.0
  0
LINE
  5
166
330
1F
100
AcDbEntity
  8
1
  6
Continuous
 62
     4
370
    18
100
AcDbLine
 10
11.89434
 20
8.096453
 30
0.0
 11
12.255981
 21
9.517434
 31
0.0
  0
LINE
  5
167
330
1F
100
AcDbEntity
  8
1
  6
Continuous
 62
     4
370
    18
100
AcDbLine
 10
12.255981
 20
9.517434
 30
0.0
 11
12.568473
 21
10.903309
 31
0.0
  0
LINE
  5
168
330
1F
100
AcDbEntity
  8
1
  6
Continuous
 62
     4
370
    18
100
AcDbLine
 10
12.568473
 20
10.903309
 30
0.0
 11
12.830665
 21
12.248961
 31
0.0
  0
LINE
  5
169
330
1F
100
AcDbEntity
  8
1
  6
Continuous
 62
     4
370
    18
100
AcDbLine
 10
12.830665
 20
12.248961
 30
0.0
 11
13.041587
 21
13.549425
 31
0.0
  0
LINE
  5
16A
330
1F
100
AcDbEntity
  8
1
  6
Continuous
 62
     4
370
    18
100
AcDbLine
 10
13.041587
 20
13.549425
 30
0.0
 11
13.200462
 21
14.799908
 31
0.0
  0
LINE
  5
16B
330
1F
100
AcDbEntity
  8
1
  6
Continuous
 62
     4
370
    18
100
AcDbLine
 10
13.200462
 20
14.799908
 30
0.0
 11
13.306709
 21
15.995796
 31
0.0
  0
LINE
  5
16C
330
1F
100
AcDbEntity
  8
1
  6
Continuous
 62
     4
370
    18
100
AcDbLine
 10
13.306709
 20
15.995796
 30
0.0
 11
13.359924
 21
17.132675
 31
0.0
  0
LINE
  5
16D
330
1F
100
AcDbEntity
  8
1
  6
Continuous
 62
     4
370
    18
100
AcDbLine
 10
13.359924
 20
17.132675
 30
0.0
 11
13.359924
 21
18.206356
 31
0.0
  0
LINE
  5
16E
330
1F
100
AcDbEntity
  8
1
  6
Continuous
 62
     4
370
    18
100
AcDbLine
 10
13.359924
 20
18.206356
 30
0.0
 11
13.306709
 21
19.212874
 31
0.0
  0
LINE
  5
16F
330
1F
100
AcDbEntity
  8
1
  6
Continuous
 62
     4
370
    18
100
AcDbLine
 10
13.306709
 20
19.212874
 30
0.0
 11
13.200462
 21
20.148516
 31
0.0
  0
LINE
  5
170
330
1F
100
AcDbEntity
  8
1
  6
Continuous
 62
     4
370
    18
100
AcDbLine
 10
13.200462
 20
20.148516
 30
0.0
 11
13.041587
 21
21.009832
 31
0.0
  0
LINE
  5
171
330
1F
100
AcDbEntity
  8
1
  6
Continuous
 62
     4
370
    18
100
AcDbLine
 10
13.041587
 20
21.009832
 30
0.0
 11
12.830665
 21
21.793645
 31
0.0
  0
LINE
  5
172
330
1F
100
AcDbEntity
  8
1
  6
Continuous
 62
     4
370
    18
100
AcDbLine
 10
12.830665
 20
21.793645
 30
0.0
 11
12.568473
 21
22.497064
 31
0.0
  0
LINE
  5
173
330
1F
100
AcDbEntity
  8
1
  6
Continuous
 62
     4
370
    18
100
AcDbLine
 10
12.568473
 20
22.497064
 30
0.0
 11
12.255981
 21
23.117492
 31
0.0
  0
LINE
  5
174
330
1F
100
AcDbEntity
  8
1
  6
Continuous
 62
     4
370
    18
100
AcDbLine
 10
12.255981
 20
23.117492
 30
0.0
 11
11.89434
 21
23.652641
 31
0.0
  0
LINE
  5
175
330
1F
100
AcDbEntity
  8
1
  6
Continuous
 62
     4
370
    18
100
AcDbLine
 10
11.461326
 20
23.82673
 30
0.0
 11
8.538681
 21
23.82673
 31
0.0
  0
LINE
  5
176
330
1F
100
AcDbEntity
  8
1
  6
Continuous
 62
     4
370
    18
100
AcDbLine
 10
16.015228
 20
15.449568
 30
0.0
 11
16.366142
 21
-24.565564
 31
0.0
  0
LINE
  5
177
330
1F
100
AcDbEntity
  8
1
  6
Continuous
 62
     4
370
    13
100
AcDbLine
 10
16.015228
 20
23.455355
 30
0.0
 11
16.015228
 21
15.449568
 31
0.0
  0
LINE
  5
178
330
1F
100
AcDbEntity
  8
1
  6
Continuous
 62
     4
370
    18
100
AcDbLine
 10
59.201635
 20
-17.245358
 30
0.0
 11
39.534987
 21
2.228072
 31
0.0
  0
LINE
  5
179
330
1F
100
AcDbEntity
  8
1
  6
Continuous
 62
     4
370
    18
100
AcDbLine
 10
59.201635
 20
-25.919796
 30
0.0
 11
59.201635
 21
-17.245358
 31
0.0
  0
LINE
  5
17A
330
1F
100
AcDbEntity
  8
1
  6
Continuous
 62
     4
370
    18
100
AcDbLine
 10
58.564886
 20
-26.562736
 30
0.0
 11
59.201635
 21
-25.919796
 31
0.0
  0
LINE
  5
17B
330
1F
100
AcDbEntity
  8
1
  6
Continuous
 62
     4
370
    18
100
AcDbLine
 10
58.115141
 20
-26.307487
 30
0.0
 11
58.564886
 21
-26.562736
 31
0.0
  0
LINE
  5
17C
330
1F
100
AcDbEntity
  8
1
  6
Continuous
 62
     4
370
    18
100
AcDbLine
 10
50.737585
 20
-32.089226
 30
0.0
 11
50.804739
 21
-32.229309
 31
0.0
  0
LINE
  5
17D
330
1F
100
AcDbEntity
  8
1
  6
Continuous
 62
     4
370
    18
100
AcDbLine
 10
50.804739
 20
-32.229309
 30
0.0
 11
50.879163
 21
-32.365616
 31
0.0
  0
LINE
  5
17E
330
1F
100
AcDbEntity
  8
1
  6
Continuous
 62
     4
370
    18
100
AcDbLine
 10
51.595754
 20
-33.599716
 30
0.0
 11
50.879163
 21
-32.365616
 31
0.0
  0
LINE
  5
17F
330
1F
100
AcDbEntity
  8
1
  6
Continuous
 62
     4
370
    18
100
AcDbLine
 10
21.541473
 20
-30.549385
 30
0.0
 11
44.274466
 21
-34.308029
 31
0.0
  0
LINE
  5
180
330
1F
100
AcDbEntity
  8
1
  6
Continuous
 62
     4
370
    18
100
AcDbLine
 10
50.959005
 20
-34.24266
 30
0.0
 11
51.595754
 21
-33.599716
 31
0.0
  0
LINE
  5
181
330
1F
100
AcDbEntity
  8
1
  6
Continuous
 62
     4
370
    18
100
AcDbLine
 10
21.541473
 20
-30.549385
 30
0.0
 11
20.000007
 21
-24.632191
 31
0.0
  0
LINE
  5
182
330
1F
100
AcDbEntity
  8
1
  6
Continuous
 62
     4
370
    18
100
AcDbLine
 10
20.000007
 20
-17.311764
 30
0.0
 11
39.534987
 21
2.228072
 31
0.0
  0
LINE
  5
183
330
1F
100
AcDbEntity
  8
1
  6
Continuous
 62
     4
370
    18
100
AcDbLine
 10
44.274466
 20
-34.308029
 30
0.0
 11
50.959005
 21
-34.24266
 31
0.0
  0
LINE
  5
184
330
1F
100
AcDbEntity
  8
1
  6
Continuous
 62
     4
370
    18
100
AcDbLine
 10
21.650756
 20
19.966894
 30
0.0
 11
21.174842
 21
20.4356
 31
0.0
  0
LINE
  5
185
330
1F
100
AcDbEntity
  8
1
  6
Continuous
 62
     4
370
    18
100
AcDbLine
 10
21.174842
 20
20.4356
 30
0.0
 11
20.7369
 21
20.86668
 31
0.0
  0
LINE
  5
186
330
1F
100
AcDbEntity
  8
1
  6
Continuous
 62
     4
370
    18
100
AcDbLine
 10
20.7369
 20
20.86668
 30
0.0
 11
20.342857
 21
21.254278
 31
0.0
  0
LINE
  5
187
330
1F
100
AcDbEntity
  8
1
  6
Continuous
 62
     4
370
    18
100
AcDbLine
 10
20.342857
 20
21.254278
 30
0.0
 11
20.000007
 21
21.591164
 31
0.0
  0
LINE
  5
188
330
1F
100
AcDbEntity
  8
1
  6
Continuous
 62
     4
370
    18
100
AcDbLine
 10
16.015228
 20
15.449568
 30
0.0
 11
16.03733
 21
13.49367
 31
0.0
  0
LINE
  5
189
330
1F
100
AcDbEntity
  8
1
  6
Continuous
 62
     4
370
    18
100
AcDbLine
 10
16.03733
 20
13.49367
 30
0.0
 11
16.069122
 21
11.560875
 31
0.0
  0
LINE
  5
18A
330
1F
100
AcDbEntity
  8
1
  6
Continuous
 62
     4
370
    18
100
AcDbLine
 10
16.069122
 20
11.560875
 30
0.0
 11
16.110526
 21
9.655911
 31
0.0
  0
LINE
  5
18B
330
1F
100
AcDbEntity
  8
1
  6
Continuous
 62
     4
370
    18
100
AcDbLine
 10
16.110526
 20
9.655911
 30
0.0
 11
16.161437
 21
7.783436
 31
0.0
  0
LINE
  5
18C
330
1F
100
AcDbEntity
  8
1
  6
Continuous
 62
     4
370
    18
100
AcDbLine
 10
16.161437
 20
7.783436
 30
0.0
 11
16.22174
 21
5.948027
 31
0.0
  0
LINE
  5
18D
330
1F
100
AcDbEntity
  8
1
  6
Continuous
 62
     4
370
    18
100
AcDbLine
 10
16.22174
 20
5.948027
 30
0.0
 11
16.291274
 21
4.15417
 31
0.0
  0
LINE
  5
18E
330
1F
100
AcDbEntity
  8
1
  6
Continuous
 62
     4
370
    18
100
AcDbLine
 10
16.291274
 20
4.15417
 30
0.0
 11
16.369872
 21
2.406252
 31
0.0
  0
LINE
  5
18F
330
1F
100
AcDbEntity
  8
1
  6
Continuous
 62
     4
370
    18
100
AcDbLine
 10
16.369872
 20
2.406252
 30
0.0
 11
16.457351
 21
0.708548
 31
0.0
  0
LINE
  5
190
330
1F
100
AcDbEntity
  8
1
  6
Continuous
 62
     4
370
    18
100
AcDbLine
 10
16.457351
 20
0.708548
 30
0.0
 11
16.553489
 21
-0.934796
 31
0.0
  0
LINE
  5
191
330
1F
100
AcDbEntity
  8
1
  6
Continuous
 62
     4
370
    18
100
AcDbLine
 10
16.553489
 20
-0.934796
 30
0.0
 11
16.658057
 21
-2.519757
 31
0.0
  0
LINE
  5
192
330
1F
100
AcDbEntity
  8
1
  6
Continuous
 62
     4
370
    18
100
AcDbLine
 10
16.658057
 20
-2.519757
 30
0.0
 11
16.770789
 21
-4.042462
 31
0.0
  0
LINE
  5
193
330
1F
100
AcDbEntity
  8
1
  6
Continuous
 62
     4
370
    18
100
AcDbLine
 10
16.770789
 20
-4.042462
 30
0.0
 11
16.891425
 21
-5.499188
 31
0.0
  0
LINE
  5
194
330
1F
100
AcDbEntity
  8
1
  6
Continuous
 62
     4
370
    18
100
AcDbLine
 10
16.891425
 20
-5.499188
 30
0.0
 11
17.019653
 21
-6.886372
 31
0.0
  0
LINE
  5
195
330
1F
100
AcDbEntity
  8
1
  6
Continuous
 62
     4
370
    18
100
AcDbLine
 10
17.019653
 20
-6.886372
 30
0.0
 11
17.155174
 21
-8.200627
 31
0.0
  0
LINE
  5
196
330
1F
100
AcDbEntity
  8
1
  6
Continuous
 62
     4
370
    18
100
AcDbLine
 10
17.155174
 20
-8.200627
 30
0.0
 11
17.297645
 21
-9.438733
 31
0.0
  0
LINE
  5
197
330
1F
100
AcDbEntity
  8
1
  6
Continuous
 62
     4
370
    18
100
AcDbLine
 10
17.297645
 20
-9.438733
 30
0.0
 11
17.446723
 21
-10.597672
 31
0.0
  0
LINE
  5
198
330
1F
100
AcDbEntity
  8
1
  6
Continuous
 62
     4
370
    18
100
AcDbLine
 10
17.446723
 20
-10.597672
 30
0.0
 11
17.60205
 21
-11.674603
 31
0.0
  0
LINE
  5
199
330
1F
100
AcDbEntity
  8
1
  6
Continuous
 62
     4
370
    18
100
AcDbLine
 10
17.60205
 20
-11.674603
 30
0.0
 11
17.763236
 21
-12.666893
 31
0.0
  0
LINE
  5
19A
330
1F
100
AcDbEntity
  8
1
  6
Continuous
 62
     4
370
    18
100
AcDbLine
 10
17.763236
 20
-12.666893
 30
0.0
 11
17.929893
 21
-13.572125
 31
0.0
  0
LINE
  5
19B
330
1F
100
AcDbEntity
  8
1
  6
Continuous
 62
     4
370
    18
100
AcDbLine
 10
17.929893
 20
-13.572125
 30
0.0
 11
18.101608
 21
-14.38807
 31
0.0
  0
LINE
  5
19C
330
1F
100
AcDbEntity
  8
1
  6
Continuous
 62
     4
370
    18
100
AcDbLine
 10
18.101608
 20
-14.38807
 30
0.0
 11
18.277961
 21
-15.112748
 31
0.0
  0
LINE
  5
19D
330
1F
100
AcDbEntity
  8
1
  6
Continuous
 62
     4
370
    18
100
AcDbLine
 10
18.277961
 20
-15.112748
 30
0.0
 11
18.458534
 21
-15.744381
 31
0.0
  0
LINE
  5
19E
330
1F
100
AcDbEntity
  8
1
  6
Continuous
 62
     4
370
    18
100
AcDbLine
 10
18.458534
 20
-15.744381
 30
0.0
 11
18.642867
 21
-16.281422
 31
0.0
  0
LINE
  5
19F
330
1F
100
AcDbEntity
  8
1
  6
Continuous
 62
     4
370
    18
100
AcDbLine
 10
18.642867
 20
-16.281422
 30
0.0
 11
18.83052
 21
-16.722565
 31
0.0
  0
LINE
  5
1A0
330
1F
100
AcDbEntity
  8
1
  6
Continuous
 62
     4
370
    18
100
AcDbLine
 10
18.83052
 20
-16.722565
 30
0.0
 11
19.021034
 21
-17.066723
 31
0.0
  0
LINE
  5
1A1
330
1F
100
AcDbEntity
  8
1
  6
Continuous
 62
     4
370
    18
100
AcDbLine
 10
19.021034
 20
-17.066723
 30
0.0
 11
19.213943
 21
-17.313065
 31
0.0
  0
LINE
  5
1A2
330
1F
100
AcDbEntity
  8
1
  6
Continuous
 62
     4
370
    18
100
AcDbLine
 10
19.213943
 20
-17.313065
 30
0.0
 11
19.408767
 21
-17.46098
 31
0.0
  0
LINE
  5
1A3
330
1F
100
AcDbEntity
  8
1
  6
Continuous
 62
     4
370
    18
100
AcDbLine
 10
19.408767
 20
-17.46098
 30
0.0
 11
19.605041
 21
-17.510105
 31
0.0
  0
LINE
  5
1A4
330
1F
100
AcDbEntity
  8
1
  6
Continuous
 62
     4
370
    18
100
AcDbLine
 10
19.605041
 20
-17.510105
 30
0.0
 11
19.802284
 21
-17.460327
 31
0.0
  0
LINE
  5
1A5
330
1F
100
AcDbEntity
  8
1
  6
Continuous
 62
     4
370
    18
100
AcDbLine
 10
19.802284
 20
-17.460327
 30
0.0
 11
20.000007
 21
-17.311764
 31
0.0
  0
LINE
  5
1A6
330
1F
100
AcDbEntity
  8
1
  6
Continuous
 62
     4
370
    18
100
AcDbLine
 10
21.541473
 20
-30.549385
 30
0.0
 11
21.407897
 21
-30.253006
 31
0.0
  0
LINE
  5
1A7
330
1F
100
AcDbEntity
  8
1
  6
Continuous
 62
     4
370
    18
100
AcDbLine
 10
21.407897
 20
-30.253006
 30
0.0
 11
21.406013
 21
-30.236175
 31
0.0
  0
LINE
  5
1A8
330
1F
100
AcDbEntity
  8
1
  6
Continuous
 62
     4
370
    18
100
AcDbLine
 10
20.000007
 20
21.574732
 30
0.0
 11
39.534987
 21
2.228072
 31
0.0
  0
LINE
  5
1A9
330
1F
100
AcDbEntity
  8
1
  6
Continuous
 62
     4
370
    18
100
AcDbLine
 10
17.292205
 20
24.255439
 30
0.0
 11
17.758346
 21
23.794143
 31
0.0
  0
LINE
  5
1AA
330
1F
100
AcDbEntity
  8
1
  6
Continuous
 62
     4
370
    18
100
AcDbLine
 10
17.758346
 20
23.794143
 30
0.0
 11
18.273971
 21
23.283766
 31
0.0
  0
LINE
  5
1AB
330
1F
100
AcDbEntity
  8
1
  6
Continuous
 62
     4
370
    18
100
AcDbLine
 10
18.273971
 20
23.283766
 30
0.0
 11
18.827697
 21
22.735576
 31
0.0
  0
LINE
  5
1AC
330
1F
100
AcDbEntity
  8
1
  6
Continuous
 62
     4
370
    18
100
AcDbLine
 10
18.827697
 20
22.735576
 30
0.0
 11
19.40731
 21
22.161675
 31
0.0
  0
LINE
  5
1AD
330
1F
100
AcDbEntity
  8
1
  6
Continuous
 62
     4
370
    18
100
AcDbLine
 10
19.40731
 20
22.161675
 30
0.0
 11
20.000007
 21
21.574732
 31
0.0
  0
LINE
  5
1AE
330
1F
100
AcDbEntity
  8
1
  6
Continuous
 62
     4
370
    18
100
AcDbLine
 10
39.098501
 20
2.695418
 30
0.0
 11
30.436591
 21
11.271655
 31
0.0
  0
LINE
  5
1AF
330
1F
100
AcDbEntity
  8
1
  6
Continuous
 62
     4
370
    18
100
AcDbLine
 10
52.719579
 20
-10.794228
 30
0.0
 11
41.82028
 21
-0.000001
 31
0.0
  0
LINE
  5
1B0
330
1F
100
AcDbEntity
  8
1
  6
Continuous
 62
     4
370
    18
100
AcDbLine
 10
39.098501
 20
2.695418
 30
0.0
 11
40.457724
 21
1.349383
 31
0.0
  0
LINE
  5
1B1
330
1F
100
AcDbEntity
  8
1
  6
Continuous
 62
     4
370
    18
100
AcDbLine
 10
40.457724
 20
1.349383
 30
0.0
 11
41.82028
 21
-0.000001
 31
0.0
  0
LINE
  5
1B2
330
1F
100
AcDbEntity
  8
1
  6
Continuous
 62
     4
370
    13
100
AcDbLine
 10
20.000007
 20
21.574732
 30
0.0
 11
20.000007
 21
-17.311764
 31
0.0
  0
LINE
  5
1B3
330
1F
100
AcDbEntity
  8
1
  6
Continuous
 62
     4
370
    18
100
AcDbLine
 10
58.61553
 20
-26.77261
 30
0.0
 11
58.61553
 21
-26.511638
 31
0.0
  0
LINE
  5
1B4
330
1F
100
AcDbEntity
  8
1
  6
Continuous
 62
     4
370
    18
100
AcDbLine
 10
51.550756
 20
-33.64518
 30
0.0
 11
51.946592
 21
-33.641311
 31
0.0
  0
LINE
  5
1B5
330
1F
100
AcDbEntity
  8
1
  6
Continuous
 62
     4
370
    18
100
AcDbLine
 10
59.201635
 20
-17.245358
 30
0.0
 11
57.148542
 21
-15.192776
 31
0.0
  0
LINE
  5
1B6
330
1F
100
AcDbEntity
  8
1
  6
Continuous
 62
     4
370
    13
100
AcDbLine
 10
8.105667
 20
-8.096455
 30
0.0
 11
8.105667
 21
-23.652642
 31
0.0
  0
LINE
  5
1B7
330
1F
100
AcDbEntity
  8
1
  6
Continuous
 62
     4
370
    13
100
AcDbLine
 10
11.461326
 20
-7.56881
 30
0.0
 11
11.461326
 21
-23.826729
 31
0.0
  0
LINE
  5
1B8
330
1F
100
AcDbEntity
  8
1
  6
Continuous
 62
     4
370
    13
100
AcDbLine
 10
11.89434
 20
-8.096455
 30
0.0
 11
11.89434
 21
-23.652642
 31
0.0
  0
LINE
  5
1B9
330
1F
100
AcDbEntity
  8
1
  6
Continuous
 62
     4
370
    13
100
AcDbLine
 10
8.105667
 20
23.652641
 30
0.0
 11
8.105667
 21
8.096453
 31
0.0
  0
LINE
  5
1BA
330
1F
100
AcDbEntity
  8
1
  6
Continuous
 62
     4
370
    13
100
AcDbLine
 10
8.538681
 20
23.82673
 30
0.0
 11
8.538681
 21
7.56881
 31
0.0
  0
LINE
  5
1BB
330
1F
100
AcDbEntity
  8
1
  6
Continuous
 62
     4
370
    13
100
AcDbLine
 10
8.538681
 20
-7.56881
 30
0.0
 11
8.538681
 21
-23.826729
 31
0.0
  0
LINE
  5
1BC
330
1F
100
AcDbEntity
  8
1
  6
Continuous
 62
     4
370
    13
100
AcDbLine
 10
11.89434
 20
23.652641
 30
0.0
 11
11.89434
 21
8.096453
 31
0.0
  0
LINE
  5
1BD
330
1F
100
AcDbEntity
  8
1
  6
Continuous
 62
     4
370
    18
100
AcDbLine
 10
57.148542
 20
-15.192776
 30
0.0
 11
56.566206
 21
-14.613964
 31
0.0
  0
LINE
  5
1BE
330
1F
100
AcDbEntity
  8
1
  6
Continuous
 62
     4
370
    18
100
AcDbLine
 10
56.566206
 20
-14.613964
 30
0.0
 11
55.920805
 21
-13.972706
 31
0.0
  0
LINE
  5
1BF
330
1F
100
AcDbEntity
  8
1
  6
Continuous
 62
     4
370
    18
100
AcDbLine
 10
55.920805
 20
-13.972706
 30
0.0
 11
55.212843
 21
-13.269516
 31
0.0
  0
LINE
  5
1C0
330
1F
100
AcDbEntity
  8
1
  6
Continuous
 62
     4
370
    18
100
AcDbLine
 10
55.212843
 20
-13.269516
 30
0.0
 11
54.442907
 21
-12.504959
 31
0.0
  0
LINE
  5
1C1
330
1F
100
AcDbEntity
  8
1
  6
Continuous
 62
     4
370
    18
100
AcDbLine
 10
54.442907
 20
-12.504959
 30
0.0
 11
53.611601
 21
-11.679646
 31
0.0
  0
LINE
  5
1C2
330
1F
100
AcDbEntity
  8
1
  6
Continuous
 62
     4
370
    18
100
AcDbLine
 10
53.611601
 20
-11.679646
 30
0.0
 11
52.719579
 21
-10.794228
 31
0.0
  0
LINE
  5
1C3
330
1F
100
AcDbEntity
  8
1
  6
Continuous
 62
     4
370
    13
100
AcDbLine
 10
11.461326
 20
23.82673
 30
0.0
 11
11.461326
 21
7.56881
 31
0.0
  0
LINE
  5
1C4
330
1F
100
AcDbEntity
  8
1
  6
Continuous
 62
     4
370
    18
100
AcDbLine
 10
40.676886
 20
-20.195382
 30
0.0
 11
40.734854
 21
-19.468277
 31
0.0
  0
LINE
  5
1C5
330
1F
100
AcDbEntity
  8
1
  6
Continuous
 62
     4
370
    18
100
AcDbLine
 10
40.734854
 20
-19.468277
 30
0.0
 11
40.893385
 21
-18.755329
 31
0.0
  0
LINE
  5
1C6
330
1F
100
AcDbEntity
  8
1
  6
Continuous
 62
     4
370
    18
100
AcDbLine
 10
40.893385
 20
-18.755329
 30
0.0
 11
41.149382
 21
-18.070408
 31
0.0
  0
LINE
  5
1C7
330
1F
100
AcDbEntity
  8
1
  6
Continuous
 62
     4
370
    18
100
AcDbLine
 10
41.149382
 20
-18.070408
 30
0.0
 11
41.49787
 21
-17.426846
 31
0.0
  0
LINE
  5
1C8
330
1F
100
AcDbEntity
  8
1
  6
Continuous
 62
     4
370
    18
100
AcDbLine
 10
41.49787
 20
-17.426846
 30
0.0
 11
41.932051
 21
-16.837178
 31
0.0
  0
LINE
  5
1C9
330
1F
100
AcDbEntity
  8
1
  6
Continuous
 62
     4
370
    18
100
AcDbLine
 10
41.932051
 20
-16.837178
 30
0.0
 11
42.443495
 21
-16.312863
 31
0.0
  0
LINE
  5
1CA
330
1F
100
AcDbEntity
  8
1
  6
Continuous
 62
     4
370
    18
100
AcDbLine
 10
42.443495
 20
-16.312863
 30
0.0
 11
43.02223
 21
-15.864125
 31
0.0
  0
LINE
  5
1CB
330
1F
100
AcDbEntity
  8
1
  6
Continuous
 62
     4
370
    18
100
AcDbLine
 10
43.02223
 20
-15.864125
 30
0.0
 11
43.657004
 21
-15.49968
 31
0.0
  0
LINE
  5
1CC
330
1F
100
AcDbEntity
  8
1
  6
Continuous
 62
     4
370
    18
100
AcDbLine
 10
43.657004
 20
-15.49968
 30
0.0
 11
44.33544
 21
-15.226643
 31
0.0
  0
LINE
  5
1CD
330
1F
100
AcDbEntity
  8
1
  6
Continuous
 62
     4
370
    18
100
AcDbLine
 10
44.33544
 20
-15.226643
 30
0.0
 11
45.044371
 21
-15.050309
 31
0.0
  0
LINE
  5
1CE
330
1F
100
AcDbEntity
  8
1
  6
Continuous
 62
     4
370
    18
100
AcDbLine
 10
45.044371
 20
-15.050309
 30
0.0
 11
45.769957
 21
-14.974121
 31
0.0
  0
LINE
  5
1CF
330
1F
100
AcDbEntity
  8
1
  6
Continuous
 62
     4
370
    18
100
AcDbLine
 10
45.769957
 20
-14.974121
 30
0.0
 11
46.498114
 21
-14.999558
 31
0.0
  0
LINE
  5
1D0
330
1F
100
AcDbEntity
  8
1
  6
Continuous
 62
     4
370
    18
100
AcDbLine
 10
46.498114
 20
-14.999558
 30
0.0
 11
47.214636
 21
-15.126129
 31
0.0
  0
LINE
  5
1D1
330
1F
100
AcDbEntity
  8
1
  6
Continuous
 62
     4
370
    18
100
AcDbLine
 10
47.214636
 20
-15.126129
 30
0.0
 11
47.905592
 21
-15.351364
 31
0.0
  0
LINE
  5
1D2
330
1F
100
AcDbEntity
  8
1
  6
Continuous
 62
     4
370
    18
100
AcDbLine
 10
47.905592
 20
-15.351364
 30
0.0
 11
48.557532
 21
-15.67088
 31
0.0
  0
LINE
  5
1D3
330
1F
100
AcDbEntity
  8
1
  6
Continuous
 62
     4
370
    18
100
AcDbLine
 10
48.557532
 20
-15.67088
 30
0.0
 11
49.157774
 21
-16.078465
 31
0.0
  0
LINE
  5
1D4
330
1F
100
AcDbEntity
  8
1
  6
Continuous
 62
     4
370
    18
100
AcDbLine
 10
49.157774
 20
-16.078465
 30
0.0
 11
49.694616
 21
-16.566182
 31
0.0
  0
LINE
  5
1D5
330
1F
100
AcDbEntity
  8
1
  6
Continuous
 62
     4
370
    18
100
AcDbLine
 10
49.694616
 20
-16.566182
 30
0.0
 11
50.157629
 21
-17.124527
 31
0.0
  0
LINE
  5
1D6
330
1F
100
AcDbEntity
  8
1
  6
Continuous
 62
     4
370
    18
100
AcDbLine
 10
50.157629
 20
-17.124527
 30
0.0
 11
50.537794
 21
-17.742649
 31
0.0
  0
LINE
  5
1D7
330
1F
100
AcDbEntity
  8
1
  6
Continuous
 62
     4
370
    18
100
AcDbLine
 10
50.537794
 20
-17.742649
 30
0.0
 11
50.827703
 21
-18.408516
 31
0.0
  0
LINE
  5
1D8
330
1F
100
AcDbEntity
  8
1
  6
Continuous
 62
     4
370
    18
100
AcDbLine
 10
50.827703
 20
-18.408516
 30
0.0
 11
51.021734
 21
-19.109158
 31
0.0
  0
LINE
  5
1D9
330
1F
100
AcDbEntity
  8
1
  6
Continuous
 62
     4
370
    18
100
AcDbLine
 10
51.021734
 20
-19.109158
 30
0.0
 11
51.116079
 21
-19.830941
 31
0.0
  0
LINE
  5
1DA
330
1F
100
AcDbEntity
  8
1
  6
Continuous
 62
     4
370
    18
100
AcDbLine
 10
51.116079
 20
-19.830941
 30
0.0
 11
51.10893
 21
-20.559819
 31
0.0
  0
LINE
  5
1DB
330
1F
100
AcDbEntity
  8
1
  6
Continuous
 62
     4
370
    18
100
AcDbLine
 10
51.10893
 20
-20.559819
 30
0.0
 11
51.00041
 21
-21.281601
 31
0.0
  0
LINE
  5
1DC
330
1F
100
AcDbEntity
  8
1
  6
Continuous
 62
     4
370
    18
100
AcDbLine
 10
51.00041
 20
-21.281601
 30
0.0
 11
50.792638
 21
-21.982243
 31
0.0
  0
LINE
  5
1DD
330
1F
100
AcDbEntity
  8
1
  6
Continuous
 62
     4
370
    18
100
AcDbLine
 10
50.792638
 20
-21.982243
 30
0.0
 11
50.48966
 21
-22.648102
 31
0.0
  0
LINE
  5
1DE
330
1F
100
AcDbEntity
  8
1
  6
Continuous
 62
     4
370
    18
100
AcDbLine
 10
50.48966
 20
-22.648102
 30
0.0
 11
50.097372
 21
-23.266224
 31
0.0
  0
LINE
  5
1DF
330
1F
100
AcDbEntity
  8
1
  6
Continuous
 62
     4
370
    18
100
AcDbLine
 10
50.097372
 20
-23.266224
 30
0.0
 11
49.623411
 21
-23.824578
 31
0.0
  0
LINE
  5
1E0
330
1F
100
AcDbEntity
  8
1
  6
Continuous
 62
     4
370
    18
100
AcDbLine
 10
49.623411
 20
-23.824578
 30
0.0
 11
49.076994
 21
-24.312298
 31
0.0
  0
LINE
  5
1E1
330
1F
100
AcDbEntity
  8
1
  6
Continuous
 62
     4
370
    18
100
AcDbLine
 10
49.076994
 20
-24.312298
 30
0.0
 11
48.468748
 21
-24.719879
 31
0.0
  0
LINE
  5
1E2
330
1F
100
AcDbEntity
  8
1
  6
Continuous
 62
     4
370
    18
100
AcDbLine
 10
48.468748
 20
-24.719879
 30
0.0
 11
47.810538
 21
-25.039394
 31
0.0
  0
LINE
  5
1E3
330
1F
100
AcDbEntity
  8
1
  6
Continuous
 62
     4
370
    18
100
AcDbLine
 10
47.810538
 20
-25.039394
 30
0.0
 11
47.115156
 21
-25.264629
 31
0.0
  0
LINE
  5
1E4
330
1F
100
AcDbEntity
  8
1
  6
Continuous
 62
     4
370
    18
100
AcDbLine
 10
47.115156
 20
-25.264629
 30
0.0
 11
46.396155
 21
-25.391197
 31
0.0
  0
LINE
  5
1E5
330
1F
100
AcDbEntity
  8
1
  6
Continuous
 62
     4
370
    18
100
AcDbLine
 10
46.396155
 20
-25.391197
 30
0.0
 11
45.667502
 21
-25.416637
 31
0.0
  0
LINE
  5
1E6
330
1F
100
AcDbEntity
  8
1
  6
Continuous
 62
     4
370
    18
100
AcDbLine
 10
45.667502
 20
-25.416637
 30
0.0
 11
44.943403
 21
-25.340446
 31
0.0
  0
LINE
  5
1E7
330
1F
100
AcDbEntity
  8
1
  6
Continuous
 62
     4
370
    18
100
AcDbLine
 10
44.943403
 20
-25.340446
 30
0.0
 11
44.237951
 21
-25.164116
 31
0.0
  0
LINE
  5
1E8
330
1F
100
AcDbEntity
  8
1
  6
Continuous
 62
     4
370
    18
100
AcDbLine
 10
44.237951
 20
-25.164116
 30
0.0
 11
43.564856
 21
-24.891072
 31
0.0
  0
LINE
  5
1E9
330
1F
100
AcDbEntity
  8
1
  6
Continuous
 62
     4
370
    18
100
AcDbLine
 10
43.564856
 20
-24.891072
 30
0.0
 11
42.937246
 21
-24.526635
 31
0.0
  0
LINE
  5
1EA
330
1F
100
AcDbEntity
  8
1
  6
Continuous
 62
     4
370
    18
100
AcDbLine
 10
42.937246
 20
-24.526635
 30
0.0
 11
42.3673
 21
-24.077893
 31
0.0
  0
LINE
  5
1EB
330
1F
100
AcDbEntity
  8
1
  6
Continuous
 62
     4
370
    18
100
AcDbLine
 10
42.3673
 20
-24.077893
 30
0.0
 11
41.866156
 21
-23.553582
 31
0.0
  0
LINE
  5
1EC
330
1F
100
AcDbEntity
  8
1
  6
Continuous
 62
     4
370
    18
100
AcDbLine
 10
41.866156
 20
-23.553582
 30
0.0
 11
41.443548
 21
-22.963909
 31
0.0
  0
LINE
  5
1ED
330
1F
100
AcDbEntity
  8
1
  6
Continuous
 62
     4
370
    18
100
AcDbLine
 10
41.443548
 20
-22.963909
 30
0.0
 11
41.107687
 21
-22.320351
 31
0.0
  0
LINE
  5
1EE
330
1F
100
AcDbEntity
  8
1
  6
Continuous
 62
     4
370
    18
100
AcDbLine
 10
41.107687
 20
-22.320351
 30
0.0
 11
40.865133
 21
-21.63543
 31
0.0
  0
LINE
  5
1EF
330
1F
100
AcDbEntity
  8
1
  6
Continuous
 62
     4
370
    18
100
AcDbLine
 10
40.865133
 20
-21.63543
 30
0.0
 11
40.720595
 21
-20.922482
 31
0.0
  0
LINE
  5
1F0
330
1F
100
AcDbEntity
  8
1
  6
Continuous
 62
     4
370
    18
100
AcDbLine
 10
40.720595
 20
-20.922482
 30
0.0
 11
40.676886
 21
-20.195382
 31
0.0
  0
LINE
  5
1F1
330
1F
100
AcDbEntity
  8
1
  6
Continuous
 62
     4
370
    18
100
AcDbLine
 10
40.598013
 20
-20.116532
 30
0.0
 11
40.661818
 21
-19.351597
 31
0.0
  0
LINE
  5
1F2
330
1F
100
AcDbEntity
  8
1
  6
Continuous
 62
     4
370
    18
100
AcDbLine
 10
40.661818
 20
-19.351597
 30
0.0
 11
40.836844
 21
-18.60315
 31
0.0
  0
LINE
  5
1F3
330
1F
100
AcDbEntity
  8
1
  6
Continuous
 62
     4
370
    18
100
AcDbLine
 10
40.836844
 20
-18.60315
 30
0.0
 11
41.11933
 21
-17.887318
 31
0.0
  0
LINE
  5
1F4
330
1F
100
AcDbEntity
  8
1
  6
Continuous
 62
     4
370
    18
100
AcDbLine
 10
41.11933
 20
-17.887318
 30
0.0
 11
41.503172
 21
-17.219536
 31
0.0
  0
LINE
  5
1F5
330
1F
100
AcDbEntity
  8
1
  6
Continuous
 62
     4
370
    18
100
AcDbLine
 10
41.503172
 20
-17.219536
 30
0.0
 11
41.980101
 21
-16.614193
 31
0.0
  0
LINE
  5
1F6
330
1F
100
AcDbEntity
  8
1
  6
Continuous
 62
     4
370
    18
100
AcDbLine
 10
41.980101
 20
-16.614193
 30
0.0
 11
42.539839
 21
-16.084339
 31
0.0
  0
LINE
  5
1F7
330
1F
100
AcDbEntity
  8
1
  6
Continuous
 62
     4
370
    18
100
AcDbLine
 10
42.539839
 20
-16.084339
 30
0.0
 11
43.170332
 21
-15.641396
 31
0.0
  0
LINE
  5
1F8
330
1F
100
AcDbEntity
  8
1
  6
Continuous
 62
     4
370
    18
100
AcDbLine
 10
43.170332
 20
-15.641396
 30
0.0
 11
43.857985
 21
-15.294899
 31
0.0
  0
LINE
  5
1F9
330
1F
100
AcDbEntity
  8
1
  6
Continuous
 62
     4
370
    18
100
AcDbLine
 10
43.857985
 20
-15.294899
 30
0.0
 11
44.587965
 21
-15.05233
 31
0.0
  0
LINE
  5
1FA
330
1F
100
AcDbEntity
  8
1
  6
Continuous
 62
     4
370
    18
100
AcDbLine
 10
44.587965
 20
-15.05233
 30
0.0
 11
45.344534
 21
-14.918911
 31
0.0
  0
LINE
  5
1FB
330
1F
100
AcDbEntity
  8
1
  6
Continuous
 62
     4
370
    18
100
AcDbLine
 10
45.344534
 20
-14.918911
 30
0.0
 11
46.111418
 21
-14.897519
 31
0.0
  0
LINE
  5
1FC
330
1F
100
AcDbEntity
  8
1
  6
Continuous
 62
     4
370
    18
100
AcDbLine
 10
46.111418
 20
-14.897519
 30
0.0
 11
46.872061
 21
-14.988613
 31
0.0
  0
LINE
  5
1FD
330
1F
100
AcDbEntity
  8
1
  6
Continuous
 62
     4
370
    18
100
AcDbLine
 10
46.872061
 20
-14.988613
 30
0.0
 11
47.610075
 21
-15.190232
 31
0.0
  0
LINE
  5
1FE
330
1F
100
AcDbEntity
  8
1
  6
Continuous
 62
     4
370
    18
100
AcDbLine
 10
47.610075
 20
-15.190232
 30
0.0
 11
48.309553
 21
-15.498032
 31
0.0
  0
LINE
  5
1FF
330
1F
100
AcDbEntity
  8
1
  6
Continuous
 62
     4
370
    18
100
AcDbLine
 10
48.309553
 20
-15.498032
 30
0.0
 11
48.955427
 21
-15.905377
 31
0.0
  0
LINE
  5
200
330
1F
100
AcDbEntity
  8
1
  6
Continuous
 62
     4
370
    18
100
AcDbLine
 10
48.955427
 20
-15.905377
 30
0.0
 11
49.533758
 21
-16.403489
 31
0.0
  0
LINE
  5
201
330
1F
100
AcDbEntity
  8
1
  6
Continuous
 62
     4
370
    18
100
AcDbLine
 10
42.110251
 20
-23.82922
 30
0.0
 11
41.57778
 21
-23.204285
 31
0.0
  0
LINE
  5
202
330
1F
100
AcDbEntity
  8
1
  6
Continuous
 62
     4
370
    18
100
AcDbLine
 10
41.57778
 20
-23.204285
 30
0.0
 11
41.151152
 21
-22.502354
 31
0.0
  0
LINE
  5
203
330
1F
100
AcDbEntity
  8
1
  6
Continuous
 62
     4
370
    18
100
AcDbLine
 10
41.151152
 20
-22.502354
 30
0.0
 11
40.841009
 21
-21.740925
 31
0.0
  0
LINE
  5
204
330
1F
100
AcDbEntity
  8
1
  6
Continuous
 62
     4
370
    18
100
AcDbLine
 10
40.841009
 20
-21.740925
 30
0.0
 11
40.655089
 21
-20.938984
 31
0.0
  0
LINE
  5
205
330
1F
100
AcDbEntity
  8
1
  6
Continuous
 62
     4
370
    18
100
AcDbLine
 10
40.655089
 20
-20.938984
 30
0.0
 11
40.598013
 21
-20.116532
 31
0.0
  0
LINE
  5
206
330
1F
100
AcDbEntity
  8
1
  6
Continuous
 62
     4
370
    18
100
AcDbLine
 10
54.975683
 20
-20.245148
 30
0.0
 11
48.478979
 21
-13.810467
 31
0.0
  0
LINE
  5
207
330
1F
100
AcDbEntity
  8
1
  6
Continuous
 62
     4
370
    18
100
AcDbLine
 10
55.456136
 20
-22.075013
 30
0.0
 11
47.831869
 21
-29.771377
 31
0.0
  0
LINE
  5
208
330
1F
100
AcDbEntity
  8
1
  6
Continuous
 62
     4
370
    18
100
AcDbLine
 10
47.831869
 20
-29.771377
 30
0.0
 11
46.07881
 21
-29.308189
 31
0.0
  0
LINE
  5
209
330
1F
100
AcDbEntity
  8
1
  6
Continuous
 62
     4
370
    18
100
AcDbLine
 10
39.541075
 20
-22.832878
 30
0.0
 11
39.13117
 21
-22.357567
 31
0.0
  0
LINE
  5
20A
330
1F
100
AcDbEntity
  8
1
  6
Continuous
 62
     4
370
    18
100
AcDbLine
 10
39.13117
 20
-22.357567
 30
0.0
 11
38.80068
 21
-21.823994
 31
0.0
  0
LINE
  5
20B
330
1F
100
AcDbEntity
  8
1
  6
Continuous
 62
     4
370
    18
100
AcDbLine
 10
38.80068
 20
-21.823994
 30
0.0
 11
38.55773
 21
-21.245285
 31
0.0
  0
LINE
  5
20C
330
1F
100
AcDbEntity
  8
1
  6
Continuous
 62
     4
370
    18
100
AcDbLine
 10
38.55773
 20
-21.245285
 30
0.0
 11
38.408308
 21
-20.635701
 31
0.0
  0
LINE
  5
20D
330
1F
100
AcDbEntity
  8
1
  6
Continuous
 62
     4
370
    18
100
AcDbLine
 10
38.408308
 20
-20.635701
 30
0.0
 11
38.356093
 21
-20.010239
 31
0.0
  0
LINE
  5
20E
330
1F
100
AcDbEntity
  8
1
  6
Continuous
 62
     4
370
    18
100
AcDbLine
 10
38.356093
 20
-20.010239
 30
0.0
 11
38.40238
 21
-19.384312
 31
0.0
  0
LINE
  5
20F
330
1F
100
AcDbEntity
  8
1
  6
Continuous
 62
     4
370
    18
100
AcDbLine
 10
38.40238
 20
-19.384312
 30
0.0
 11
38.546019
 21
-18.773327
 31
0.0
  0
LINE
  5
210
330
1F
100
AcDbEntity
  8
1
  6
Continuous
 62
     4
370
    18
100
AcDbLine
 10
38.546019
 20
-18.773327
 30
0.0
 11
38.783484
 21
-18.19233
 31
0.0
  0
LINE
  5
211
330
1F
100
AcDbEntity
  8
1
  6
Continuous
 62
     4
370
    18
100
AcDbLine
 10
38.783484
 20
-18.19233
 30
0.0
 11
39.108908
 21
-17.655629
 31
0.0
  0
LINE
  5
212
330
1F
100
AcDbEntity
  8
1
  6
Continuous
 62
     4
370
    18
100
AcDbLine
 10
39.108908
 20
-17.655629
 30
0.0
 11
39.514296
 21
-17.176434
 31
0.0
  0
LINE
  5
213
330
1F
100
AcDbEntity
  8
1
  6
Continuous
 62
     4
370
    18
100
AcDbLine
 10
39.514296
 20
-17.176434
 30
0.0
 11
42.822027
 21
-13.837433
 31
0.0
  0
LINE
  5
214
330
1F
100
AcDbEntity
  8
1
  6
Continuous
 62
     4
370
    18
100
AcDbLine
 10
46.07881
 20
-29.308189
 30
0.0
 11
39.541075
 21
-22.832878
 31
0.0
  0
LINE
  5
215
330
1F
100
AcDbEntity
  8
1
  6
Continuous
 62
     4
370
    18
100
AcDbLine
 10
48.478979
 20
-13.810467
 30
0.0
 11
47.999754
 21
-13.405129
 31
0.0
  0
LINE
  5
216
330
1F
100
AcDbEntity
  8
1
  6
Continuous
 62
     4
370
    18
100
AcDbLine
 10
47.999754
 20
-13.405129
 30
0.0
 11
47.463011
 21
-13.079747
 31
0.0
  0
LINE
  5
217
330
1F
100
AcDbEntity
  8
1
  6
Continuous
 62
     4
370
    18
100
AcDbLine
 10
47.463011
 20
-13.079747
 30
0.0
 11
46.881972
 21
-12.842331
 31
0.0
  0
LINE
  5
218
330
1F
100
AcDbEntity
  8
1
  6
Continuous
 62
     4
370
    18
100
AcDbLine
 10
46.881972
 20
-12.842331
 30
0.0
 11
46.270941
 21
-12.698719
 31
0.0
  0
LINE
  5
219
330
1F
100
AcDbEntity
  8
1
  6
Continuous
 62
     4
370
    18
100
AcDbLine
 10
46.270941
 20
-12.698719
 30
0.0
 11
45.644957
 21
-12.652459
 31
0.0
  0
LINE
  5
21A
330
1F
100
AcDbEntity
  8
1
  6
Continuous
 62
     4
370
    18
100
AcDbLine
 10
45.644957
 20
-12.652459
 30
0.0
 11
45.019438
 21
-12.704686
 31
0.0
  0
LINE
  5
21B
330
1F
100
AcDbEntity
  8
1
  6
Continuous
 62
     4
370
    18
100
AcDbLine
 10
45.019438
 20
-12.704686
 30
0.0
 11
44.409796
 21
-12.854111
 31
0.0
  0
LINE
  5
21C
330
1F
100
AcDbEntity
  8
1
  6
Continuous
 62
     4
370
    18
100
AcDbLine
 10
44.409796
 20
-12.854111
 30
0.0
 11
43.83103
 21
-13.097058
 31
0.0
  0
LINE
  5
21D
330
1F
100
AcDbEntity
  8
1
  6
Continuous
 62
     4
370
    18
100
AcDbLine
 10
43.83103
 20
-13.097058
 30
0.0
 11
43.297384
 21
-13.427544
 31
0.0
  0
LINE
  5
21E
330
1F
100
AcDbEntity
  8
1
  6
Continuous
 62
     4
370
    18
100
AcDbLine
 10
43.297384
 20
-13.427544
 30
0.0
 11
42.822027
 21
-13.837433
 31
0.0
  0
LINE
  5
21F
330
1F
100
AcDbEntity
  8
1
  6
Continuous
 62
     4
370
    18
100
AcDbLine
 10
54.975683
 20
-20.245148
 30
0.0
 11
55.456136
 21
-22.075013
 31
0.0
  0
LINE
  5
220
330
1F
100
AcDbEntity
  8
1
  6
Continuous
 62
     4
370
    18
100
AcDbLine
 10
52.640745
 20
-32.143295
 30
0.0
 11
52.819143
 21
-32.182236
 31
0.0
  0
LINE
  5
221
330
1F
100
AcDbEntity
  8
1
  6
Continuous
 62
     4
370
    18
100
AcDbLine
 10
52.819143
 20
-32.182236
 30
0.0
 11
52.975103
 21
-32.20105
 31
0.0
  0
LINE
  5
222
330
1F
100
AcDbEntity
  8
1
  6
Continuous
 62
     4
370
    18
100
AcDbLine
 10
52.975103
 20
-32.20105
 30
0.0
 11
53.066847
 21
-32.194702
 31
0.0
  0
LINE
  5
223
330
1F
100
AcDbEntity
  8
1
  6
Continuous
 62
     4
370
    18
100
AcDbLine
 10
53.445623
 20
-32.050033
 30
0.0
 11
57.733053
 21
-27.722053
 31
0.0
  0
LINE
  5
224
330
1F
100
AcDbEntity
  8
1
  6
Continuous
 62
     4
370
    18
100
AcDbLine
 10
53.066847
 20
-32.194702
 30
0.0
 11
53.445623
 21
-32.050033
 31
0.0
  0
LINE
  5
225
330
1F
100
AcDbEntity
  8
1
  6
Continuous
 62
     4
370
    18
100
AcDbLine
 10
57.733053
 20
-27.722053
 30
0.0
 11
57.87689
 21
-27.339172
 31
0.0
  0
LINE
  5
226
330
1F
100
AcDbEntity
  8
1
  6
Continuous
 62
     4
370
    18
100
AcDbLine
 10
57.87689
 20
-27.339172
 30
0.0
 11
57.883131
 21
-27.246605
 31
0.0
  0
LINE
  5
227
330
1F
100
AcDbEntity
  8
1
  6
Continuous
 62
     4
370
    18
100
AcDbLine
 10
57.883131
 20
-27.246605
 30
0.0
 11
57.864225
 21
-27.089439
 31
0.0
  0
LINE
  5
228
330
1F
100
AcDbEntity
  8
1
  6
Continuous
 62
     4
370
    18
100
AcDbLine
 10
57.864225
 20
-27.089439
 30
0.0
 11
57.825246
 21
-26.909782
 31
0.0
  0
LINE
  5
229
330
1F
100
AcDbEntity
  8
1
  6
Continuous
 62
     4
370
    18
100
AcDbLine
 10
57.773916
 20
-26.714313
 30
0.0
 11
57.825246
 21
-26.909782
 31
0.0
  0
LINE
  5
22A
330
1F
100
AcDbEntity
  8
1
  6
Continuous
 62
     4
370
    18
100
AcDbLine
 10
52.640745
 20
-32.143295
 30
0.0
 11
52.446607
 21
-32.092003
 31
0.0
  0
LINE
  5
22B
330
1F
100
AcDbEntity
  8
1
  6
Continuous
 62
     4
370
    18
100
AcDbLine
 10
53.202619
 20
-31.843468
 30
0.0
 11
57.526907
 21
-27.478287
 31
0.0
  0
LINE
  5
22C
330
1F
100
AcDbEntity
  8
1
  6
Continuous
 62
     4
370
    18
100
AcDbLine
 10
55.456136
 20
-22.075013
 30
0.0
 11
57.526907
 21
-27.478287
 31
0.0
  0
LINE
  5
22D
330
1F
100
AcDbEntity
  8
1
  6
Continuous
 62
     4
370
    18
100
AcDbLine
 10
53.202619
 20
-31.843468
 30
0.0
 11
47.831869
 21
-29.771377
 31
0.0
  0
LINE
  5
22E
330
1F
100
AcDbEntity
  8
1
  6
Continuous
 62
     4
370
    18
100
AcDbLine
 10
57.526907
 20
-27.478287
 30
0.0
 11
57.733053
 21
-27.722053
 31
0.0
  0
LINE
  5
22F
330
1F
100
AcDbEntity
  8
1
  6
Continuous
 62
     4
370
    18
100
AcDbLine
 10
50.941976
 20
-16.246186
 30
0.0
 11
56.10272
 21
-21.357666
 31
0.0
  0
LINE
  5
230
330
1F
100
AcDbEntity
  8
1
  6
Continuous
 62
     4
370
    18
100
AcDbLine
 10
56.10272
 20
-21.357666
 30
0.0
 11
54.975683
 21
-20.245148
 31
0.0
  0
LINE
  5
231
330
1F
100
AcDbEntity
  8
1
  6
Continuous
 62
     4
370
    18
100
AcDbLine
 10
47.234984
 20
-12.572567
 30
0.0
 11
50.725095
 21
-16.029358
 31
0.0
  0
LINE
  5
232
330
1F
100
AcDbEntity
  8
1
  6
Continuous
 62
     4
370
    13
100
AcDbLine
 10
47.234984
 20
-12.572567
 30
0.0
 11
48.478979
 21
-13.810467
 31
0.0
  0
LINE
  5
233
330
1F
100
AcDbEntity
  8
1
  6
Continuous
 62
     4
370
    18
100
AcDbLine
 10
50.725095
 20
-16.029358
 30
0.0
 11
50.941976
 21
-16.246186
 31
0.0
  0
LINE
  5
234
330
1F
100
AcDbEntity
  8
1
  6
Continuous
 62
     4
370
    18
100
AcDbLine
 10
53.445623
 20
-32.050033
 30
0.0
 11
53.202619
 21
-31.843468
 31
0.0
  0
LINE
  5
235
330
1F
100
AcDbEntity
  8
1
  6
Continuous
 62
     4
370
    18
100
AcDbLine
 10
57.701437
 20
-26.506409
 30
0.0
 11
57.202161
 21
-25.544975
 31
0.0
  0
LINE
  5
236
330
1F
100
AcDbEntity
  8
1
  6
Continuous
 62
     4
370
    18
100
AcDbLine
 10
56.10272
 20
-21.357666
 30
0.0
 11
57.202161
 21
-25.544975
 31
0.0
  0
LINE
  5
237
330
1F
100
AcDbEntity
  8
1
  6
Continuous
 62
     4
370
    18
100
AcDbLine
 10
46.07881
 20
-29.308189
 30
0.0
 11
47.235411
 21
-30.449982
 31
0.0
  0
LINE
  5
238
330
1F
100
AcDbEntity
  8
1
  6
Continuous
 62
     4
370
    18
100
AcDbLine
 10
57.773916
 20
-26.714313
 30
0.0
 11
57.701437
 21
-26.506409
 31
0.0
  0
LINE
  5
239
330
1F
100
AcDbEntity
  8
1
  6
Continuous
 62
     4
370
    18
100
AcDbLine
 10
38.297079
 20
-21.594979
 30
0.0
 11
39.541075
 21
-22.832878
 31
0.0
  0
LINE
  5
23A
330
1F
100
AcDbEntity
  8
1
  6
Continuous
 62
     4
370
    18
100
AcDbLine
 10
52.239996
 20
-32.019493
 30
0.0
 11
52.446607
 21
-32.092003
 31
0.0
  0
LINE
  5
23B
330
1F
100
AcDbEntity
  8
1
  6
Continuous
 62
     4
370
    18
100
AcDbLine
 10
51.283537
 20
-31.519569
 30
0.0
 11
52.239996
 21
-32.019493
 31
0.0
  0
LINE
  5
23C
330
1F
100
AcDbEntity
  8
1
  6
Continuous
 62
     4
370
    13
100
AcDbLine
 10
42.822027
 20
-13.837433
 30
0.0
 11
41.578032
 21
-12.599533
 31
0.0
  0
LINE
  5
23D
330
1F
100
AcDbEntity
  8
1
  6
Continuous
 62
     4
370
    18
100
AcDbLine
 10
41.578032
 20
-12.599533
 30
0.0
 11
42.053389
 21
-12.189645
 31
0.0
  0
LINE
  5
23E
330
1F
100
AcDbEntity
  8
1
  6
Continuous
 62
     4
370
    18
100
AcDbLine
 10
42.053389
 20
-12.189645
 30
0.0
 11
42.587034
 21
-11.859166
 31
0.0
  0
LINE
  5
23F
330
1F
100
AcDbEntity
  8
1
  6
Continuous
 62
     4
370
    18
100
AcDbLine
 10
42.587034
 20
-11.859166
 30
0.0
 11
43.1658
 21
-11.616216
 31
0.0
  0
LINE
  5
240
330
1F
100
AcDbEntity
  8
1
  6
Continuous
 62
     4
370
    18
100
AcDbLine
 10
43.1658
 20
-11.616216
 30
0.0
 11
43.775442
 21
-11.46679
 31
0.0
  0
LINE
  5
241
330
1F
100
AcDbEntity
  8
1
  6
Continuous
 62
     4
370
    18
100
AcDbLine
 10
43.775442
 20
-11.46679
 30
0.0
 11
44.400953
 21
-11.414563
 31
0.0
  0
LINE
  5
242
330
1F
100
AcDbEntity
  8
1
  6
Continuous
 62
     4
370
    18
100
AcDbLine
 10
44.400953
 20
-11.414563
 30
0.0
 11
45.026945
 21
-11.460824
 31
0.0
  0
LINE
  5
243
330
1F
100
AcDbEntity
  8
1
  6
Continuous
 62
     4
370
    18
100
AcDbLine
 10
45.026945
 20
-11.460824
 30
0.0
 11
45.637976
 21
-11.604432
 31
0.0
  0
LINE
  5
244
330
1F
100
AcDbEntity
  8
1
  6
Continuous
 62
     4
370
    18
100
AcDbLine
 10
45.637976
 20
-11.604432
 30
0.0
 11
46.219015
 21
-11.841847
 31
0.0
  0
LINE
  5
245
330
1F
100
AcDbEntity
  8
1
  6
Continuous
 62
     4
370
    18
100
AcDbLine
 10
46.219015
 20
-11.841847
 30
0.0
 11
46.755758
 21
-12.167233
 31
0.0
  0
LINE
  5
246
330
1F
100
AcDbEntity
  8
1
  6
Continuous
 62
     4
370
    18
100
AcDbLine
 10
46.755758
 20
-12.167233
 30
0.0
 11
47.234984
 21
-12.572567
 31
0.0
  0
LINE
  5
247
330
1F
100
AcDbEntity
  8
1
  6
Continuous
 62
     4
370
    18
100
AcDbLine
 10
51.283537
 20
-31.519569
 30
0.0
 11
47.235411
 21
-30.449982
 31
0.0
  0
LINE
  5
248
330
1F
100
AcDbEntity
  8
1
  6
Continuous
 62
     4
370
    18
100
AcDbLine
 10
50.616651
 20
-15.920948
 30
0.0
 11
50.616132
 21
-15.921471
 31
0.0
  0
LINE
  5
249
330
1F
100
AcDbEntity
  8
1
  6
Continuous
 62
     4
370
    18
100
AcDbLine
 10
48.505469
 20
-13.830963
 30
0.0
 11
48.505995
 21
-13.830433
 31
0.0
  0
LINE
  5
24A
330
1F
100
AcDbEntity
  8
1
  6
Continuous
 62
     4
370
    18
100
AcDbLine
 10
48.505995
 20
-13.830433
 30
0.0
 11
48.052519
 21
-13.377072
 31
0.0
  0
LINE
  5
24B
330
1F
100
AcDbEntity
  8
1
  6
Continuous
 62
     4
370
    18
100
AcDbLine
 10
48.505995
 20
-13.830433
 30
0.0
 11
50.616651
 21
-15.920948
 31
0.0
  0
LINE
  5
24C
330
1F
100
AcDbEntity
  8
1
  6
Continuous
 62
     4
370
    18
100
AcDbLine
 10
41.578032
 20
-12.599533
 30
0.0
 11
38.2703
 21
-15.938538
 31
0.0
  0
LINE
  5
24D
330
1F
100
AcDbEntity
  8
1
  6
Continuous
 62
     4
370
    18
100
AcDbLine
 10
38.2703
 20
-15.938538
 30
0.0
 11
37.864912
 21
-16.417729
 31
0.0
  0
LINE
  5
24E
330
1F
100
AcDbEntity
  8
1
  6
Continuous
 62
     4
370
    18
100
AcDbLine
 10
37.864912
 20
-16.417729
 30
0.0
 11
37.53948
 21
-16.954434
 31
0.0
  0
LINE
  5
24F
330
1F
100
AcDbEntity
  8
1
  6
Continuous
 62
     4
370
    18
100
AcDbLine
 10
37.53948
 20
-16.954434
 30
0.0
 11
37.302024
 21
-17.535435
 31
0.0
  0
LINE
  5
250
330
1F
100
AcDbEntity
  8
1
  6
Continuous
 62
     4
370
    18
100
AcDbLine
 10
37.302024
 20
-17.535435
 30
0.0
 11
37.158385
 21
-18.146416
 31
0.0
  0
LINE
  5
251
330
1F
100
AcDbEntity
  8
1
  6
Continuous
 62
     4
370
    18
100
AcDbLine
 10
37.158385
 20
-18.146416
 30
0.0
 11
37.112097
 21
-18.772347
 31
0.0
  0
LINE
  5
252
330
1F
100
AcDbEntity
  8
1
  6
Continuous
 62
     4
370
    18
100
AcDbLine
 10
37.112097
 20
-18.772347
 30
0.0
 11
37.164313
 21
-19.397801
 31
0.0
  0
LINE
  5
253
330
1F
100
AcDbEntity
  8
1
  6
Continuous
 62
     4
370
    18
100
AcDbLine
 10
37.164313
 20
-19.397801
 30
0.0
 11
37.313735
 21
-20.007386
 31
0.0
  0
LINE
  5
254
330
1F
100
AcDbEntity
  8
1
  6
Continuous
 62
     4
370
    18
100
AcDbLine
 10
37.313735
 20
-20.007386
 30
0.0
 11
37.556685
 21
-20.586094
 31
0.0
  0
LINE
  5
255
330
1F
100
AcDbEntity
  8
1
  6
Continuous
 62
     4
370
    18
100
AcDbLine
 10
37.556685
 20
-20.586094
 30
0.0
 11
37.887175
 21
-21.119675
 31
0.0
  0
LINE
  5
256
330
1F
100
AcDbEntity
  8
1
  6
Continuous
 62
     4
370
    18
100
AcDbLine
 10
37.887175
 20
-21.119675
 30
0.0
 11
38.297079
 21
-21.594979
 31
0.0
  0
LINE
  5
257
330
1F
100
AcDbEntity
  8
1
  6
Continuous
 62
     4
370
    13
100
AcDbLine
 10
39.514296
 20
-17.176434
 30
0.0
 11
38.2703
 21
-15.938538
 31
0.0
  0
LINE
  5
258
330
1F
100
AcDbEntity
  8
1
  6
Continuous
 62
     4
370
    50
100
AcDbLine
 10
55.222322
 20
-34.985149
 30
0.0
 11
55.635808
 21
-34.985545
 31
0.0
  0
LINE
  5
259
330
1F
100
AcDbEntity
  8
81
  6
Continuous
 62
     3
370
    18
100
AcDbLine
 10
60.107381
 20
-30.260422
 30
0.0
 11
68.307381
 21
-30.260422
 31
0.0
  0
LINE
  5
25A
330
1F
100
AcDbEntity
  8
80
  6
Continuous
 62
     6
370
    18
100
AcDbLine
 10
0.0
 20
0.0
 30
0.0
 11
-18.668404
 21
-0.000001
 31
0.0
  0
INSERT
  5
264
330
1F
100
AcDbEntity
  8
12
  6
Continuous
 62
     7
370
    18
100
AcDbBlockReference
  2
ASSORTED_DRAFT1
 10
0.0
 20
0.0
 30
0.0
  0
INSERT
  5
26F
330
1F
100
AcDbEntity
  8
2
  6
Continuous
 62
     7
370
    25
100
AcDbBlockReference
  2
ASSORTED_DRAFT2
 10
0.0
 20
0.0
 30
0.0
  0
INSERT
  5
279
330
1F
100
AcDbEntity
  8
2
  6
Continuous
 62
     7
370
    25
100
AcDbBlockReference
  2
ASSORTED_DRAFT3
 10
0.0
 20
0.0
 30
0.0
  0
MTEXT
  5
27C
330
1F
100
AcDbEntity
  8
16
  6
Continuous
 62
     5
370
    13
100
AcDbMText
 10
-29.016365
 20
-57.958917
 30
0.0
 40
3.5
 41
0.0
 71
     7
 72
     5
  1
\W1.1241;C5-CRSNL-35060-09ID\P 
  7
Arial Unicode MS
 73
     1
 44
1.0
  0
VIEWPORT
  5
291
330
28E
100
AcDbEntity
 67
     1
  8
0
370
    18
100
AcDbViewport
 10
180.289965
 20
107.846817
 30
0.0
 40
360.579931
 41
215.693633
 68
     1
 69
     1
 12
180.289965
 22
107.846817
 13
0.0
 23
0.0
 14
1.0
 24
1.0
 15
1.0
 25
1.0
 16
0.0
 26
0.0
 36
1.0
 17
0.0
 27
0.0
 37
0.0
 42
58.129033
 43
0.0
 44
0.0
 45
215.693633
 50
0.0
 51
0.0
 72
   100
331
6F
 90
   557152
  1

281
     0
 71
     1
 74
     0
110
0.0
120
0.0
130
0.0
111
1.0
121
0.0
131
0.0
112
0.0
122
1.0
132
0.0
 79
     0
146
0.0
170
     0
  0
VIEWPORT
  5
292
330
28E
100
AcDbEntity
 67
     1
  8
0
370
    18
100
AcDbViewport
 10
148.5
 20
105.0
 30
0.0
 40
297.0
 41
210.0
 68
     2
 69
     2
 12
0.321216
 22
-0.051985
 13
0.0
 23
0.0
 14
1.0
 24
1.0
 15
1.0
 25
1.0
 16
0.0
 26
0.0
 36
1.0
 17
0.0
 27
0.0
 37
0.0
 42
44.097887
 43
0.0
 44
0.0
 45
210.0
 50
0.0
 51
0.0
 72
   100
 90
   557152
  1

281
     0
 71
     1
 74
     0
110
0.0
120
0.0
130
0.0
111
1.0
121
0.0
131
0.0
112
0.0
122
1.0
132
0.0
 79
     0
146
0.0
170
     0
  0
ENDSEC
  0
SECTION
  2
OBJECTS
  0
DICTIONARY
  5
C
330
0
100
AcDbDictionary
281
     1
  3
ACAD_DETAILVIEWSTYLE
350
2E2
  3
ACAD_GROUP
350
D
  3
ACAD_LAYOUT
350
1A
  3
ACAD_MATERIAL
350
43
  3
ACAD_MLEADERSTYLE
350
2E1
  3
ACAD_MLINESTYLE
350
17
  3
ACAD_PLOTSETTINGS
350
19
  3
ACAD_PLOTSTYLENAME
350
E
  3
ACAD_SCALELIST
350
47
  3
ACAD_SECTIONVIEWSTYLE
350
2E3
  3
ACAD_TABLESTYLE
350
2E0
  3
ACAD_VISUALSTYLE
350
2A
  3
AcDbVariableDictionary
350
2A7
  0
DICTIONARY
  5
2E2
102
{ACAD_REACTORS
330
C
102
}
330
C
100
AcDbDictionary
281
     1
  0
DICTIONARY
  5
D
102
{ACAD_REACTORS
330
C
102
}
330
C
100
AcDbDictionary
281
     1
  0
DICTIONARY
  5
1A
102
{ACAD_REACTORS
330
C
102
}
330
C
100
AcDbDictionary
281
     1
  3
Layout3
350
293
  3
Model
350
22
  0
DICTIONARY
  5
43
102
{ACAD_REACTORS
330
C
102
}
330
C
100
AcDbDictionary
281
     1
  3
ByBlock
350
45
  3
ByLayer
350
44
  3
Global
350
46
  0
DICTIONARY
  5
2E1
102
{ACAD_REACTORS
330
C
102
}
330
C
100
AcDbDictionary
281
     1
  0
DICTIONARY
  5
17
102
{ACAD_REACTORS
330
C
102
}
330
C
100
AcDbDictionary
281
     1
  3
Standard
350
18
  0
DICTIONARY
  5
19
102
{ACAD_REACTORS
330
C
102
}
330
C
100
AcDbDictionary
281
     1
  0
ACDBDICTIONARYWDFLT
  5
E
102
{ACAD_REACTORS
330
C
102
}
330
C
100
AcDbDictionary
281
     1
  3
Normal
350
F
100
AcDbDictionaryWithDefault
340
F
  0
DICTIONARY
  5
47
102
{ACAD_REACTORS
330
C
102
}
330
C
100
AcDbDictionary
281
     1
  3
A0
350
48
  3
A1
350
49
  3
A2
350
4A
  3
A3
350
4B
  3
A4
350
4C
  3
A5
350
4D
  3
A6
350
4E
  3
A7
350
4F
  3
A8
350
50
  3
A9
350
51
  3
B0
350
52
  3
B1
350
53
  3
B2
350
54
  3
B3
350
55
  3
B4
350
56
  3
B5
350
57
  3
B6
350
58
  3
B7
350
59
  3
B8
350
5A
  3
B9
350
5B
  3
C0
350
5C
  3
C1
350
5D
  3
C2
350
5E
  3
C3
350
5F
  3
C4
350
60
  3
C5
350
61
  3
C6
350
62
  3
C7
350
63
  3
C8
350
64
  3
C9
350
65
  3
D0
350
66
  3
D1
350
67
  3
D2
350
68
  0
DICTIONARY
  5
2E3
102
{ACAD_REACTORS
330
C
102
}
330
C
100
AcDbDictionary
281
     1
  0
DICTIONARY
  5
2E0
102
{ACAD_REACTORS
330
C
102
}
330
C
100
AcDbDictionary
281
     1
  0
DICTIONARY
  5
2A
102
{ACAD_REACTORS
330
C
102
}
330
C
100
AcDbDictionary
281
     1
  3
2dWireframe
350
2F
  3
Basic
350
32
  3
Brighten
350
36
  3
ColorChange
350
3A
  3
Conceptual
350
34
  3
Dim
350
35
  3
EdgeColorOff
350
3D
  3
Facepattern
350
39
  3
Flat
350
2B
  3
FlatWithEdges
350
2C
  3
Gouraud
350
2D
  3
GouraudWithEdges
350
2E
  3
Hidden
350
31
  3
JitterOff
350
3B
  3
Linepattern
350
38
  3
OverhangOff
350
3C
  3
Realistic
350
33
  3
Shaded
350
42
  3
Shaded with edges
350
41
  3
Shades of Gray
350
3E
  3
Sketchy
350
3F
  3
Thicken
350
37
  3
Wireframe
350
30
  3
X-Ray
350
40
  0
DICTIONARY
  5
2A7
102
{ACAD_REACTORS
330
C
102
}
330
C
100
AcDbDictionary
281
     1
  3
CANNOSCALE
350
2A8
  3
MSLTSCALE
350
2A9
  0
LAYOUT
  5
293
102
{ACAD_REACTORS
330
1A
102
}
330
1A
100
AcDbPlotSettings
  1

  2
none_device
  4
ISO_A3_(420.00_x_297.00_MM)
  6

 40
7.5
 41
20.0
 42
7.5
 43
20.0
 44
420.0
 45
297.0
 46
0.0
 47
0.0
 48
0.0
 49
0.0
140
400.579931
141
255.693633
142
1.0
143
1.0
 70
   692
 72
     1
 73
     0
 74
     1
  7

 75
     0
 76
     0
 77
     2
 78
   300
147
1.0
148
0.0
149
0.0
100
AcDbLayout
  1
Layout3
 70
     1
 71
     1
 10
0.0
 20
0.0
 11
360.579931
 21
215.693633
 12
0.0
 22
0.0
 32
0.0
 14
0.0
 24
0.0
 34
0.0
 15
360.579931
 25
215.693633
 35
0.0
146
0.0
 13
0.0
 23
0.0
 33
0.0
 16
1.0
 26
0.0
 36
0.0
 17
0.0
 27
1.0
 37
0.0
 76
     0
330
28E
331
291
  0
LAYOUT
  5
22
102
{ACAD_REACTORS
330
1A
102
}
330
1A
100
AcDbPlotSettings
  1

  2
none_device
  4
Letter_(8.50_x_11.00_Inches)
  6

 40
6.35
 41
6.35
 42
6.350005
 43
6.350005
 44
215.9
 45
279.4
 46
0.0
 47
0.0
 48
0.0
 49
0.0
140
0.0
141
0.0
142
1.0
143
1.0
 70
  1712
 72
     0
 73
     0
 74
     0
  7

 75
     0
 76
     0
 77
     2
 78
   300
147
1.0
148
0.0
149
0.0
100
AcDbLayout
  1
Model
 70
     1
 71
     0
 10
-0.5
 20
-0.5
 11
5.0
 21
5.0
 12
0.0
 22
0.0
 32
0.0
 14
-0.5
 24
-0.5
 34
-0.5
 15
5.0
 25
5.0
 35
5.0
146
0.0
 13
0.0
 23
0.0
 33
0.0
 16
1.0
 26
0.0
 36
0.0
 17
0.0
 27
1.0
 37
0.0
 76
     0
330
1F
331
295
  0
MATERIAL
  5
45
102
{ACAD_REACTORS
330
43
102
}
102
{ACAD_XDICTIONARY
360
2DC
102
}
330
43
100
AcDbMaterial
  1
ByBlock
  0
MATERIAL
  5
44
102
{ACAD_REACTORS
330
43
102
}
102
{ACAD_XDICTIONARY
360
2DA
102
}
330
43
100
AcDbMaterial
  1
ByLayer
  0
MATERIAL
  5
46
102
{ACAD_REACTORS
330
43
102
}
102
{ACAD_XDICTIONARY
360
2DE
102
}
330
43
100
AcDbMaterial
  1
Global
  0
MLINESTYLE
  5
18
102
{ACAD_REACTORS
330
17
102
}
330
17
100
AcDbMlineStyle
  2
Standard
 70
     0
  3

 62
   256
 51
90.0
 52
90.0
 71
     2
 49
0.5
 62
   256
  6
BYLAYER
 49
-0.5
 62
   256
  6
BYLAYER
  0
ACDBPLACEHOLDER
  5
F
102
{ACAD_REACTORS
330
E
102
}
330
E
  0
SCALE
  5
48
102
{ACAD_REACTORS
330
47
102
}
330
47
100
AcDbScale
 70
     0
300
1:1
140
1.0
141
1.0
290
     1
  0
SCALE
  5
49
102
{ACAD_REACTORS
330
47
102
}
330
47
100
AcDbScale
 70
     0
300
1:2
140
1.0
141
2.0
290
     0
  0
SCALE
  5
4A
102
{ACAD_REACTORS
330
47
102
}
330
47
100
AcDbScale
 70
     0
300
1:4
140
1.0
141
4.0
290
     0
  0
SCALE
  5
4B
102
{ACAD_REACTORS
330
47
102
}
330
47
100
AcDbScale
 70
     0
300
1:5
140
1.0
141
5.0
290
     0
  0
SCALE
  5
4C
102
{ACAD_REACTORS
330
47
102
}
330
47
100
AcDbScale
 70
     0
300
1:8
140
1.0
141
8.0
290
     0
  0
SCALE
  5
4D
102
{ACAD_REACTORS
330
47
102
}
330
47
100
AcDbScale
 70
     0
300
1:10
140
1.0
141
10.0
290
     0
  0
SCALE
  5
4E
102
{ACAD_REACTORS
330
47
102
}
330
47
100
AcDbScale
 70
     0
300
1:16
140
1.0
141
16.0
290
     0
  0
SCALE
  5
4F
102
{ACAD_REACTORS
330
47
102
}
330
47
100
AcDbScale
 70
     0
300
1:20
140
1.0
141
20.0
290
     0
  0
SCALE
  5
50
102
{ACAD_REACTORS
330
47
102
}
330
47
100
AcDbScale
 70
     0
300
1:30
140
1.0
141
30.0
290
     0
  0
SCALE
  5
51
102
{ACAD_REACTORS
330
47
102
}
330
47
100
AcDbScale
 70
     0
300
1:40
140
1.0
141
40.0
290
     0
  0
SCALE
  5
52
102
{ACAD_REACTORS
330
47
102
}
330
47
100
AcDbScale
 70
     0
300
1:50
140
1.0
141
50.0
290
     0
  0
SCALE
  5
53
102
{ACAD_REACTORS
330
47
102
}
330
47
100
AcDbScale
 70
     0
300
1:100
140
1.0
141
100.0
290
     0
  0
SCALE
  5
54
102
{ACAD_REACTORS
330
47
102
}
330
47
100
AcDbScale
 70
     0
300
2:1
140
2.0
141
1.0
290
     0
  0
SCALE
  5
55
102
{ACAD_REACTORS
330
47
102
}
330
47
100
AcDbScale
 70
     0
300
4:1
140
4.0
141
1.0
290
     0
  0
SCALE
  5
56
102
{ACAD_REACTORS
330
47
102
}
330
47
100
AcDbScale
 70
     0
300
8:1
140
8.0
141
1.0
290
     0
  0
SCALE
  5
57
102
{ACAD_REACTORS
330
47
102
}
330
47
100
AcDbScale
 70
     0
300
10:1
140
10.0
141
1.0
290
     0
  0
SCALE
  5
58
102
{ACAD_REACTORS
330
47
102
}
330
47
100
AcDbScale
 70
     0
300
100:1
140
100.0
141
1.0
290
     0
  0
SCALE
  5
59
102
{ACAD_REACTORS
330
47
102
}
330
47
100
AcDbScale
 70
     0
300
1/128" = 1'-0"
140
0.007812
141
12.0
290
     0
  0
SCALE
  5
5A
102
{ACAD_REACTORS
330
47
102
}
330
47
100
AcDbScale
 70
     0
300
1/64" = 1'-0"
140
0.015625
141
12.0
290
     0
  0
SCALE
  5
5B
102
{ACAD_REACTORS
330
47
102
}
330
47
100
AcDbScale
 70
     0
300
1/32" = 1'-0"
140
0.03125
141
12.0
290
     0
  0
SCALE
  5
5C
102
{ACAD_REACTORS
330
47
102
}
330
47
100
AcDbScale
 70
     0
300
1/16" = 1'-0"
140
0.0625
141
12.0
290
     0
  0
SCALE
  5
5D
102
{ACAD_REACTORS
330
47
102
}
330
47
100
AcDbScale
 70
     0
300
3/32" = 1'-0"
140
0.09375
141
12.0
290
     0
  0
SCALE
  5
5E
102
{ACAD_REACTORS
330
47
102
}
330
47
100
AcDbScale
 70
     0
300
1/8" = 1'-0"
140
0.125
141
12.0
290
     0
  0
SCALE
  5
5F
102
{ACAD_REACTORS
330
47
102
}
330
47
100
AcDbScale
 70
     0
300
3/16" = 1'-0"
140
0.1875
141
12.0
290
     0
  0
SCALE
  5
60
102
{ACAD_REACTORS
330
47
102
}
330
47
100
AcDbScale
 70
     0
300
1/4" = 1'-0"
140
0.25
141
12.0
290
     0
  0
SCALE
  5
61
102
{ACAD_REACTORS
330
47
102
}
330
47
100
AcDbScale
 70
     0
300
3/8" = 1'-0"
140
0.375
141
12.0
290
     0
  0
SCALE
  5
62
102
{ACAD_REACTORS
330
47
102
}
330
47
100
AcDbScale
 70
     0
300
1/2" = 1'-0"
140
0.5
141
12.0
290
     0
  0
SCALE
  5
63
102
{ACAD_REACTORS
330
47
102
}
330
47
100
AcDbScale
 70
     0
300
3/4" = 1'-0"
140
0.75
141
12.0
290
     0
  0
SCALE
  5
64
102
{ACAD_REACTORS
330
47
102
}
330
47
100
AcDbScale
 70
     0
300
1" = 1'-0"
140
1.0
141
12.0
290
     0
  0
SCALE
  5
65
102
{ACAD_REACTORS
330
47
102
}
330
47
100
AcDbScale
 70
     0
300
1-1/2" = 1'-0"
140
1.5
141
12.0
290
     0
  0
SCALE
  5
66
102
{ACAD_REACTORS
330
47
102
}
330
47
100
AcDbScale
 70
     0
300
3" = 1'-0"
140
3.0
141
12.0
290
     0
  0
SCALE
  5
67
102
{ACAD_REACTORS
330
47
102
}
330
47
100
AcDbScale
 70
     0
300
6" = 1'-0"
140
6.0
141
12.0
290
     0
  0
SCALE
  5
68
102
{ACAD_REACTORS
330
47
102
}
330
47
100
AcDbScale
 70
     0
300
1'-0" = 1'-0"
140
12.0
141
12.0
290
     0
  0
VISUALSTYLE
  5
2F
102
{ACAD_REACTORS
330
2A
102
}
102
{ACAD_XDICTIONARY
360
2B2
102
}
330
2A
100
AcDbVisualStyle
  2
2dWireframe
 70
     4
 71
     0
 72
     2
 73
     0
 90
        0
 40
0.6
 41
30.0
 62
     5
 63
     7
421
 16777215
 74
     1
 91
        4
 64
     7
 65
   257
 75
     1
175
     1
 42
1.0
 92
        0
 66
   257
 43
1.0
 76
     1
 77
     6
 78
     2
 67
     7
 79
     5
170
     0
171
     0
290
     0
174
     0
 93
        1
 44
0.0
173
     0
291
     0
 45
0.0
1001
ACAD
1000
AcDbSavedByObjectVersion
1070
     0
  0
VISUALSTYLE
  5
32
102
{ACAD_REACTORS
330
2A
102
}
102
{ACAD_XDICTIONARY
360
2B8
102
}
330
2A
100
AcDbVisualStyle
  2
Basic
 70
     7
 71
     1
 72
     0
 73
     1
 90
        0
 40
0.6
 41
30.0
 62
     5
 63
     7
421
 16777215
 74
     0
 91
        4
 64
     7
 65
   257
 75
     1
175
     1
 42
1.0
 92
        8
 66
     7
 43
1.0
 76
     1
 77
     6
 78
     2
 67
     7
 79
     5
170
     0
171
     0
290
     0
174
     0
 93
        1
 44
0.0
173
     0
291
     1
 45
0.0
1001
ACAD
1000
AcDbSavedByObjectVersion
1070
     0
  0
VISUALSTYLE
  5
36
102
{ACAD_REACTORS
330
2A
102
}
102
{ACAD_XDICTIONARY
360
2C0
102
}
330
2A
100
AcDbVisualStyle
  2
Brighten
 70
    12
 71
     2
 72
     2
 73
     0
 90
        0
 40
0.6
 41
30.0
 62
     5
 63
     7
421
 16777215
 74
     1
 91
        4
 64
     7
 65
   257
 75
     1
175
     1
 42
1.0
 92
        8
 66
     7
 43
1.0
 76
     1
 77
     6
 78
     2
 67
     7
 79
     5
170
     0
171
     0
290
     0
174
     0
 93
        1
 44
50.0
173
     0
291
     1
 45
0.0
1001
ACAD
1000
AcDbSavedByObjectVersion
1070
     0
  0
VISUALSTYLE
  5
3A
102
{ACAD_REACTORS
330
2A
102
}
102
{ACAD_XDICTIONARY
360
2C8
102
}
330
2A
100
AcDbVisualStyle
  2
ColorChange
 70
    16
 71
     2
 72
     2
 73
     3
 90
        0
 40
0.6
 41
30.0
 62
     5
 63
     8
421
  8421504
 74
     1
 91
        4
 64
     7
 65
   257
 75
     1
175
     1
 42
1.0
 92
        8
 66
     8
424
  8421504
 43
1.0
 76
     1
 77
     6
 78
     2
 67
     7
 79
     5
170
     0
171
     0
290
     0
174
     0
 93
        1
 44
0.0
173
     0
291
     1
 45
0.0
1001
ACAD
1000
AcDbSavedByObjectVersion
1070
     0
  0
VISUALSTYLE
  5
34
102
{ACAD_REACTORS
330
2A
102
}
102
{ACAD_XDICTIONARY
360
2BC
102
}
330
2A
100
AcDbVisualStyle
  2
Conceptual
 70
     9
 71
     3
 72
     2
 73
     0
 90
        0
 40
0.6
 41
30.0
 62
     5
 63
     7
421
 16777215
 74
     2
 91
        2
 64
     7
 65
   257
 75
     1
175
     1
 42
179.0
 92
        8
 66
     7
 43
1.0
 76
     1
 77
     6
 78
     2
 67
     7
 79
     3
170
     0
171
     0
290
     0
174
     0
 93
        1
 44
0.0
173
     0
291
     0
 45
0.0
1001
ACAD
1000
AcDbSavedByObjectVersion
1070
     0
  0
VISUALSTYLE
  5
35
102
{ACAD_REACTORS
330
2A
102
}
102
{ACAD_XDICTIONARY
360
2BE
102
}
330
2A
100
AcDbVisualStyle
  2
Dim
 70
    11
 71
     2
 72
     2
 73
     0
 90
        0
 40
0.6
 41
30.0
 62
     5
 63
     7
421
 16777215
 74
     1
 91
        4
 64
     7
 65
   257
 75
     1
175
     1
 42
1.0
 92
        8
 66
     7
 43
1.0
 76
     1
 77
     6
 78
     2
 67
     7
 79
     5
170
     0
171
     0
290
     0
174
     0
 93
        1
 44
-50.0
173
     0
291
     1
 45
0.0
1001
ACAD
1000
AcDbSavedByObjectVersion
1070
     0
  0
VISUALSTYLE
  5
3D
102
{ACAD_REACTORS
330
2A
102
}
102
{ACAD_XDICTIONARY
360
2CE
102
}
330
2A
100
AcDbVisualStyle
  2
EdgeColorOff
 70
    22
 71
     2
 72
     2
 73
     0
 90
        0
 40
0.6
 41
30.0
 62
     5
 63
     7
421
 16777215
 74
     1
 91
        4
 64
     7
 65
   257
 75
     1
175
     1
 42
1.0
 92
        8
 66
     7
 43
1.0
 76
     1
 77
     6
 78
     2
 67
     7
 79
     5
170
     0
171
     0
290
     0
174
     0
 93
        1
 44
0.0
173
     0
291
     1
 45
0.0
1001
ACAD
1000
AcDbSavedByObjectVersion
1070
     0
  0
VISUALSTYLE
  5
39
102
{ACAD_REACTORS
330
2A
102
}
102
{ACAD_XDICTIONARY
360
2C6
102
}
330
2A
100
AcDbVisualStyle
  2
Facepattern
 70
    15
 71
     2
 72
     2
 73
     0
 90
        0
 40
0.6
 41
30.0
 62
     5
 63
     7
421
 16777215
 74
     1
 91
        4
 64
     7
 65
   257
 75
     1
175
     1
 42
1.0
 92
        8
 66
     7
 43
1.0
 76
     1
 77
     6
 78
     2
 67
     7
 79
     5
170
     0
171
     0
290
     0
174
     0
 93
        1
 44
0.0
173
     0
291
     1
 45
0.0
1001
ACAD
1000
AcDbSavedByObjectVersion
1070
     0
  0
VISUALSTYLE
  5
2B
102
{ACAD_REACTORS
330
2A
102
}
102
{ACAD_XDICTIONARY
360
2AA
102
}
330
2A
100
AcDbVisualStyle
  2
Flat
 70
     0
 71
     2
 72
     1
 73
     1
 90
        2
 40
0.6
 41
30.0
 62
     5
 63
     7
421
 16777215
 74
     0
 91
        0
 64
     7
 65
   257
 75
     1
175
     1
 42
1.0
 92
        8
 66
     7
 43
1.0
 76
     1
 77
     6
 78
     2
 67
     7
 79
     5
170
     0
171
     0
290
     0
174
     0
 93
       13
 44
0.0
173
     0
291
     1
 45
0.0
1001
ACAD
1000
AcDbSavedByObjectVersion
1070
     0
  0
VISUALSTYLE
  5
2C
102
{ACAD_REACTORS
330
2A
102
}
102
{ACAD_XDICTIONARY
360
2AC
102
}
330
2A
100
AcDbVisualStyle
  2
FlatWithEdges
 70
     1
 71
     2
 72
     1
 73
     1
 90
        2
 40
0.6
 41
30.0
 62
     5
 63
     7
421
 16777215
 74
     1
 91
        0
 64
     7
 65
   257
 75
     1
175
     1
 42
1.0
 92
        0
 66
   257
 43
1.0
 76
     1
 77
     6
 78
     2
 67
     7
 79
     5
170
     0
171
     0
290
     0
174
     0
 93
       13
 44
0.0
173
     0
291
     1
 45
0.0
1001
ACAD
1000
AcDbSavedByObjectVersion
1070
     0
  0
VISUALSTYLE
  5
2D
102
{ACAD_REACTORS
330
2A
102
}
102
{ACAD_XDICTIONARY
360
2AE
102
}
330
2A
100
AcDbVisualStyle
  2
Gouraud
 70
     2
 71
     2
 72
     2
 73
     1
 90
        2
 40
0.6
 41
30.0
 62
     5
 63
     7
421
 16777215
 74
     0
 91
        0
 64
     7
 65
   257
 75
     1
175
     1
 42
1.0
 92
        0
 66
     7
 43
1.0
 76
     1
 77
     6
 78
     2
 67
     7
 79
     5
170
     0
171
     0
290
     0
174
     0
 93
       13
 44
0.0
173
     0
291
     1
 45
0.0
1001
ACAD
1000
AcDbSavedByObjectVersion
1070
     0
  0
VISUALSTYLE
  5
2E
102
{ACAD_REACTORS
330
2A
102
}
102
{ACAD_XDICTIONARY
360
2B0
102
}
330
2A
100
AcDbVisualStyle
  2
GouraudWithEdges
 70
     3
 71
     2
 72
     2
 73
     1
 90
        2
 40
0.6
 41
30.0
 62
     5
 63
     7
421
 16777215
 74
     1
 91
        0
 64
     7
 65
   257
 75
     1
175
     1
 42
1.0
 92
        0
 66
   257
 43
1.0
 76
     1
 77
     6
 78
     2
 67
     7
 79
     5
170
     0
171
     0
290
     0
174
     0
 93
       13
 44
0.0
173
     0
291
     1
 45
0.0
1001
ACAD
1000
AcDbSavedByObjectVersion
1070
     0
  0
VISUALSTYLE
  5
31
102
{ACAD_REACTORS
330
2A
102
}
102
{ACAD_XDICTIONARY
360
2B6
102
}
330
2A
100
AcDbVisualStyle
  2
Hidden
 70
     6
 71
     1
 72
     2
 73
     2
 90
        0
 40
0.6
 41
30.0
 62
     5
 63
     7
421
 16777215
 74
     2
 91
        2
 64
     7
 65
   257
 75
     2
175
     1
 42
40.0
 92
        0
 66
   257
 43
1.0
 76
     1
 77
     6
 78
     2
 67
     7
 79
     3
170
     0
171
     0
290
     0
174
     0
 93
        1
 44
0.0
173
     0
291
     0
 45
0.0
1001
ACAD
1000
AcDbSavedByObjectVersion
1070
     0
  0
VISUALSTYLE
  5
3B
102
{ACAD_REACTORS
330
2A
102
}
102
{ACAD_XDICTIONARY
360
2CA
102
}
330
2A
100
AcDbVisualStyle
  2
JitterOff
 70
    20
 71
     2
 72
     2
 73
     0
 90
        0
 40
0.6
 41
30.0
 62
     5
 63
     7
421
 16777215
 74
     1
 91
        4
 64
     7
 65
   257
 75
     1
175
     1
 42
1.0
 92
       10
 66
     7
 43
1.0
 76
     1
 77
     6
 78
     2
 67
     7
 79
     5
170
     0
171
     0
290
     0
174
     0
 93
        1
 44
0.0
173
     0
291
     1
 45
0.0
1001
ACAD
1000
AcDbSavedByObjectVersion
1070
     0
  0
VISUALSTYLE
  5
38
102
{ACAD_REACTORS
330
2A
102
}
102
{ACAD_XDICTIONARY
360
2C4
102
}
330
2A
100
AcDbVisualStyle
  2
Linepattern
 70
    14
 71
     2
 72
     2
 73
     0
 90
        0
 40
0.6
 41
30.0
 62
     5
 63
     7
421
 16777215
 74
     1
 91
        4
 64
     7
 65
   257
 75
     7
175
     7
 42
1.0
 92
        8
 66
     7
 43
1.0
 76
     1
 77
     6
 78
     2
 67
     7
 79
     5
170
     0
171
     0
290
     0
174
     0
 93
        1
 44
0.0
173
     0
291
     1
 45
0.0
1001
ACAD
1000
AcDbSavedByObjectVersion
1070
     0
  0
VISUALSTYLE
  5
3C
102
{ACAD_REACTORS
330
2A
102
}
102
{ACAD_XDICTIONARY
360
2CC
102
}
330
2A
100
AcDbVisualStyle
  2
OverhangOff
 70
    21
 71
     2
 72
     2
 73
     0
 90
        0
 40
0.6
 41
30.0
 62
     5
 63
     7
421
 16777215
 74
     1
 91
        4
 64
     7
 65
   257
 75
     1
175
     1
 42
1.0
 92
        9
 66
     7
 43
1.0
 76
     1
 77
     6
 78
     2
 67
     7
 79
     5
170
     0
171
     0
290
     0
174
     0
 93
        1
 44
0.0
173
     0
291
     1
 45
0.0
1001
ACAD
1000
AcDbSavedByObjectVersion
1070
     0
  0
VISUALSTYLE
  5
33
102
{ACAD_REACTORS
330
2A
102
}
102
{ACAD_XDICTIONARY
360
2BA
102
}
330
2A
100
AcDbVisualStyle
  2
Realistic
 70
     8
 71
     2
 72
     3
 73
     0
 90
        2
 40
0.6
 41
30.0
 62
     5
 63
     7
421
 16777215
 74
     0
 91
        0
 64
     7
 65
   257
 75
     1
175
     1
 42
1.0
 92
        8
 66
   257
 43
1.0
 76
     1
 77
     6
 78
     2
 67
     7
 79
     3
170
     0
171
     0
290
     0
174
     0
 93
       13
 44
0.0
173
     0
291
     0
 45
0.0
1001
ACAD
1000
AcDbSavedByObjectVersion
1070
     0
  0
VISUALSTYLE
  5
42
102
{ACAD_REACTORS
330
2A
102
}
102
{ACAD_XDICTIONARY
360
2D8
102
}
330
2A
100
AcDbVisualStyle
  2
Shaded
 70
    27
 71
     2
 72
     2
 73
     1
 90
        2
 40
0.6
 41
30.0
 62
     5
 63
     7
421
 16777215
 74
     0
 91
        4
 64
     7
 65
   257
 75
     1
175
     1
 42
1.0
 92
        8
 66
   257
 43
1.0
 76
     1
 77
     6
 78
     2
 67
     8
425
  7895160
 79
     3
170
     0
171
     0
290
     0
174
     0
 93
        5
 44
0.0
173
     0
291
     0
 45
0.0
1001
ACAD
1000
AcDbSavedByObjectVersion
1070
     0
  0
VISUALSTYLE
  5
41
102
{ACAD_REACTORS
330
2A
102
}
102
{ACAD_XDICTIONARY
360
2D6
102
}
330
2A
100
AcDbVisualStyle
  2
Shaded with edges
 70
    26
 71
     2
 72
     2
 73
     1
 90
        2
 40
0.6
 41
30.0
 62
     5
 63
     7
421
 16777215
 74
     1
 91
       10
 64
     7
 65
   257
 75
     2
175
     1
 42
1.0
 92
        8
 66
   257
 43
1.0
 76
     1
 77
     6
 78
     2
 67
     7
 79
     3
170
     0
171
     0
290
     0
174
     0
 93
        5
 44
0.0
173
     0
291
     0
 45
0.0
1001
ACAD
1000
AcDbSavedByObjectVersion
1070
     0
  0
VISUALSTYLE
  5
3E
102
{ACAD_REACTORS
330
2A
102
}
102
{ACAD_XDICTIONARY
360
2D0
102
}
330
2A
100
AcDbVisualStyle
  2
Shades of Gray
 70
    23
 71
     2
 72
     2
 73
     3
 90
        0
 40
0.6
 41
30.0
 62
     5
 63
     7
421
 16777215
 74
     2
 91
        2
 64
     7
 65
     7
 75
     1
175
     1
 42
40.0
 92
        8
 66
     7
 43
1.0
 76
     1
 77
     6
 78
     2
 67
     7
 79
     3
170
     0
171
     0
290
     0
174
     0
 93
        1
 44
0.0
173
     0
291
     0
 45
0.0
1001
ACAD
1000
AcDbSavedByObjectVersion
1070
     0
  0
VISUALSTYLE
  5
3F
102
{ACAD_REACTORS
330
2A
102
}
102
{ACAD_XDICTIONARY
360
2D2
102
}
330
2A
100
AcDbVisualStyle
  2
Sketchy
 70
    24
 71
     1
 72
     2
 73
     2
 90
        0
 40
0.6
 41
30.0
 62
     5
 63
     7
421
 16777215
 74
     2
 91
        2
 64
     7
 65
     7
 75
     1
175
     1
 42
40.0
 92
       11
 66
     7
 43
1.0
 76
     1
 77
     6
 78
     2
 67
     7
 79
     6
170
     0
171
     0
290
     0
174
     0
 93
        1
 44
0.0
173
     0
291
     0
 45
0.0
1001
ACAD
1000
AcDbSavedByObjectVersion
1070
     0
  0
VISUALSTYLE
  5
37
102
{ACAD_REACTORS
330
2A
102
}
102
{ACAD_XDICTIONARY
360
2C2
102
}
330
2A
100
AcDbVisualStyle
  2
Thicken
 70
    13
 71
     2
 72
     2
 73
     0
 90
        0
 40
0.6
 41
30.0
 62
     5
 63
     7
421
 16777215
 74
     1
 91
        4
 64
     7
 65
   257
 75
     1
175
     1
 42
1.0
 92
       12
 66
     7
 43
1.0
 76
     1
 77
     6
 78
     2
 67
     7
 79
     5
170
     0
171
     0
290
     0
174
     0
 93
        1
 44
0.0
173
     0
291
     1
 45
0.0
1001
ACAD
1000
AcDbSavedByObjectVersion
1070
     0
  0
VISUALSTYLE
  5
30
102
{ACAD_REACTORS
330
2A
102
}
102
{ACAD_XDICTIONARY
360
2B4
102
}
330
2A
100
AcDbVisualStyle
  2
Wireframe
 70
     5
 71
     0
 72
     2
 73
     0
 90
        0
 40
0.6
 41
30.0
 62
     5
 63
     7
421
 16777215
 74
     1
 91
        4
 64
     7
 65
   257
 75
     1
175
     1
 42
1.0
 92
        0
 66
   257
 43
1.0
 76
     1
 77
     6
 78
     2
 67
     7
 79
     3
170
     0
171
     0
290
     0
174
     0
 93
        1
 44
0.0
173
     0
291
     0
 45
0.0
1001
ACAD
1000
AcDbSavedByObjectVersion
1070
     0
  0
VISUALSTYLE
  5
40
102
{ACAD_REACTORS
330
2A
102
}
102
{ACAD_XDICTIONARY
360
2D4
102
}
330
2A
100
AcDbVisualStyle
  2
X-Ray
 70
    25
 71
     2
 72
     2
 73
     1
 90
        1
 40
0.5
 41
30.0
 62
     5
 63
     7
421
 16777215
 74
     1
 91
        0
 64
     7
 65
   257
 75
     1
175
     1
 42
1.0
 92
        8
 66
     7
 43
1.0
 76
     1
 77
     6
 78
     2
 67
     7
 79
     3
170
     0
171
     0
290
     0
174
     0
 93
       13
 44
0.0
173
     0
291
     0
 45
0.0
1001
ACAD
1000
AcDbSavedByObjectVersion
1070
     0
  0
DICTIONARYVAR
  5
2A8
102
{ACAD_REACTORS
330
2A7
102
}
330
2A7
100
DictionaryVariables
280
     0
  1
1:1
  0
DICTIONARYVAR
  5
2A9
102
{ACAD_REACTORS
330
2A7
102
}
330
2A7
100
DictionaryVariables
280
     0
  1
1
  0
DICTIONARY
  5
2DC
330
45
100
AcDbDictionary
280
     1
281
     1
  3
ACAD_XREC_ROUNDTRIP
360
2DD
  0
DICTIONARY
  5
2DA
330
44
100
AcDbDictionary
280
     1
281
     1
  3
ACAD_XREC_ROUNDTRIP
360
2DB
  0
DICTIONARY
  5
2DE
330
46
100
AcDbDictionary
280
     1
281
     1
  3
ACAD_XREC_ROUNDTRIP
360
2DF
  0
DICTIONARY
  5
2B2
330
2F
100
AcDbDictionary
280
     1
281
     1
  3
ACAD_XREC_ROUNDTRIP
360
2B3
  0
DICTIONARY
  5
2B8
330
32
100
AcDbDictionary
280
     1
281
     1
  3
ACAD_XREC_ROUNDTRIP
360
2B9
  0
DICTIONARY
  5
2C0
330
36
100
AcDbDictionary
280
     1
281
     1
  3
ACAD_XREC_ROUNDTRIP
360
2C1
  0
DICTIONARY
  5
2C8
330
3A
100
AcDbDictionary
280
     1
281
     1
  3
ACAD_XREC_ROUNDTRIP
360
2C9
  0
DICTIONARY
  5
2BC
330
34
100
AcDbDictionary
280
     1
281
     1
  3
ACAD_XREC_ROUNDTRIP
360
2BD
  0
DICTIONARY
  5
2BE
330
35
100
AcDbDictionary
280
     1
281
     1
  3
ACAD_XREC_ROUNDTRIP
360
2BF
  0
DICTIONARY
  5
2CE
330
3D
100
AcDbDictionary
280
     1
281
     1
  3
ACAD_XREC_ROUNDTRIP
360
2CF
  0
DICTIONARY
  5
2C6
330
39
100
AcDbDictionary
280
     1
281
     1
  3
ACAD_XREC_ROUNDTRIP
360
2C7
  0
DICTIONARY
  5
2AA
330
2B
100
AcDbDictionary
280
     1
281
     1
  3
ACAD_XREC_ROUNDTRIP
360
2AB
  0
DICTIONARY
  5
2AC
330
2C
100
AcDbDictionary
280
     1
281
     1
  3
ACAD_XREC_ROUNDTRIP
360
2AD
  0
DICTIONARY
  5
2AE
330
2D
100
AcDbDictionary
280
     1
281
     1
  3
ACAD_XREC_ROUNDTRIP
360
2AF
  0
DICTIONARY
  5
2B0
330
2E
100
AcDbDictionary
280
     1
281
     1
  3
ACAD_XREC_ROUNDTRIP
360
2B1
  0
DICTIONARY
  5
2B6
330
31
100
AcDbDictionary
280
     1
281
     1
  3
ACAD_XREC_ROUNDTRIP
360
2B7
  0
DICTIONARY
  5
2CA
330
3B
100
AcDbDictionary
280
     1
281
     1
  3
ACAD_XREC_ROUNDTRIP
360
2CB
  0
DICTIONARY
  5
2C4
330
38
100
AcDbDictionary
280
     1
281
     1
  3
ACAD_XREC_ROUNDTRIP
360
2C5
  0
DICTIONARY
  5
2CC
330
3C
100
AcDbDictionary
280
     1
281
     1
  3
ACAD_XREC_ROUNDTRIP
360
2CD
  0
DICTIONARY
  5
2BA
330
33
100
AcDbDictionary
280
     1
281
     1
  3
ACAD_XREC_ROUNDTRIP
360
2BB
  0
DICTIONARY
  5
2D8
330
42
100
AcDbDictionary
280
     1
281
     1
  3
ACAD_XREC_ROUNDTRIP
360
2D9
  0
DICTIONARY
  5
2D6
330
41
100
AcDbDictionary
280
     1
281
     1
  3
ACAD_XREC_ROUNDTRIP
360
2D7
  0
DICTIONARY
  5
2D0
330
3E
100
AcDbDictionary
280
     1
281
     1
  3
ACAD_XREC_ROUNDTRIP
360
2D1
  0
DICTIONARY
  5
2D2
330
3F
100
AcDbDictionary
280
     1
281
     1
  3
ACAD_XREC_ROUNDTRIP
360
2D3
  0
DICTIONARY
  5
2C2
330
37
100
AcDbDictionary
280
     1
281
     1
  3
ACAD_XREC_ROUNDTRIP
360
2C3
  0
DICTIONARY
  5
2B4
330
30
100
AcDbDictionary
280
     1
281
     1
  3
ACAD_XREC_ROUNDTRIP
360
2B5
  0
DICTIONARY
  5
2D4
330
40
100
AcDbDictionary
280
     1
281
     1
  3
ACAD_XREC_ROUNDTRIP
360
2D5
  0
XRECORD
  5
2DD
102
{ACAD_REACTORS
330
2DC
102
}
330
2DC
100
AcDbXrecord
280
     1
102
MATERIAL
148
0.0
149
0.0
149
0.0
 93
        0
 94
      127
282
     0
 72
     1
 77
     1
171
     1
175
     1
179
     1
273
     0
  0
XRECORD
  5
2DB
102
{ACAD_REACTORS
330
2DA
102
}
330
2DA
100
AcDbXrecord
280
     1
102
MATERIAL
148
0.0
149
0.0
149
0.0
 93
        0
 94
      127
282
     0
 72
     1
 77
     1
171
     1
175
     1
179
     1
273
     0
  0
XRECORD
  5
2DF
102
{ACAD_REACTORS
330
2DE
102
}
330
2DE
100
AcDbXrecord
280
     1
102
MATERIAL
148
0.0
149
0.0
149
0.0
 93
        0
 94
      127
282
     0
 72
     1
 77
     1
171
     1
175
     1
179
     1
273
     0
  0
XRECORD
  5
2B3
102
{ACAD_REACTORS
330
2B2
102
}
330
2B2
100
AcDbXrecord
280
     1
102
RTVSPropertyOp0
 70
     1
102
RTVSPropertyOp1
 70
     1
102
RTVSPropertyOp2
 70
     1
102
RTVSPropertyOp3
 70
     1
102
RTVSPropertyOp4
 70
     1
102
RTVSPropertyOp5
 70
     1
102
RTVSPropertyOp6
 70
     1
102
RTVSPropertyOp7
 70
     1
102
RTVSPropertyOp8
 70
     1
102
RTVSPropertyOp9
 70
     1
102
RTVSPropertyOp10
 70
     1
102
RTVSPropertyOp11
 70
     1
102
RTVSPropertyOp12
 70
     1
102
RTVSPropertyOp13
 70
     1
102
RTVSPropertyOp14
 70
     1
102
RTVSPropertyOp15
 70
     1
102
RTVSPropertyOp16
 70
     1
102
RTVSPropertyOp17
 70
     1
102
RTVSPropertyOp18
 70
     1
102
RTVSPropertyOp19
 70
     1
102
RTVSPropertyOp20
 70
     1
102
RTVSPropertyOp21
 70
     1
102
RTVSPropertyOp22
 70
     1
102
RTVSPropertyOp23
 70
     1
102
RTVSPropertyOp24
 70
     1
102
RTVSPropertyOp25
 70
     1
102
RTVSPropertyOp26
 70
     1
102
RTVSPropertyOp27
 70
     1
102
RTVSPropertyOp28
 70
     1
102
RTVSPropertyOp29
 70
     1
102
RTVSPropertyOp30
 70
     1
102
RTVSPropertyOp31
 70
     1
102
RTVSPropertyOp32
 70
     1
102
RTVSPropertyOp33
 70
     1
102
RTVSPropertyOp34
 70
     1
102
RTVSPropertyOp35
 70
     1
102
RTVSPropertyOp36
 70
     1
102
RTVSPropertyOp37
 70
     1
102
RTVSPropertyOp38
 70
     1
102
RTVSPropertyOp39
 70
     1
102
RTVSPropertyOp40
 70
     1
102
RTVSPropertyOp41
 70
     1
102
RTVSPropertyOp42
 70
     1
102
RTVSPropertyOp43
 70
     1
102
RTVSPropertyOp44
 70
     1
102
RTVSPropertyOp45
 70
     1
102
RTVSPropertyOp46
 70
     1
102
RTVSPropertyOp47
 70
     1
102
RTVSPropertyOp48
 70
     1
102
RTVSPropertyOp49
 70
     1
102
RTVSPropertyOp50
 70
     1
102
RTVSPropertyOp51
 70
     0
102
RTVSPropertyOp52
 70
     0
102
RTVSPropertyOp53
 70
     1
102
RTVSPropertyOp54
 70
     1
102
RTVSPropertyOp55
 70
     1
102
RTVSPropertyOp56
 70
     1
102
RTVSPropertyOp57
 70
     1
102
RTVSPost2010Prop28
280
     1
102
RTVSPost2010PropOp28
 70
     1
102
RTVSPost2010Prop29
280
     1
102
RTVSPost2010PropOp29
 70
     1
102
RTVSPost2010Prop30
280
     0
102
RTVSPost2010PropOp30
 70
     1
102
RTVSPost2010Prop31
280
     0
102
RTVSPost2010PropOp31
 70
     1
102
RTVSPost2010Prop32
280
     0
102
RTVSPost2010PropOp32
 70
     1
102
RTVSPost2010Prop33
280
     0
102
RTVSPost2010PropOp33
 70
     1
102
RTVSPost2010Prop34
280
     0
102
RTVSPost2010PropOp34
 70
     1
102
RTVSPost2010Prop35
280
     0
102
RTVSPost2010PropOp35
 70
     1
102
RTVSPost2010Prop36
280
     0
102
RTVSPost2010PropOp36
 70
     1
102
RTVSPost2010Prop37
 90
       50
102
RTVSPost2010PropOp37
 70
     1
102
RTVSPost2010Prop38
140
0.0
102
RTVSPost2010PropOp38
 70
     1
102
RTVSPost2010Prop39
140
1.0
102
RTVSPost2010PropOp39
 70
     1
102
RTVSPost2010Prop40
 90
        0
102
RTVSPost2010PropOp40
 70
     1
102
RTVSPost2010Prop41ColorIndex
 90
       18
102
RTVSPost2010Prop41ColorRGB
 90
        0
102
RTVSPost2010PropOp41
 70
     1
102
RTVSPost2010Prop42
 90
       50
102
RTVSPost2010PropOp42
 70
     1
102
RTVSPost2010Prop43
 90
        3
102
RTVSPost2010PropOp43
 70
     1
102
RTVSPost2010Prop44ColorIndex
 90
        5
102
RTVSPost2010Prop44ColorRGB
 90
      255
102
RTVSPost2010PropOp44
 70
     1
102
RTVSPost2010Prop45
280
     0
102
RTVSPost2010PropOp45
 70
     1
102
RTVSPost2010Prop46
 90
       50
102
RTVSPost2010PropOp46
 70
     1
102
RTVSPost2010Prop47
 90
       50
102
RTVSPost2010PropOp47
 70
     1
102
RTVSPost2010Prop48
 90
       50
102
RTVSPost2010PropOp48
 70
     1
102
RTVSPost2010Prop49
280
     0
102
RTVSPost2010PropOp49
 70
     1
102
RTVSPost2010Prop50
 90
       50
102
RTVSPost2010PropOp50
 70
     1
102
RTVSPost2010Prop51ColorIndex
 90
      256
102
RTVSPost2010Prop51ColorRGB
 90
-16777216
102
RTVSPost2010PropOp51
 70
     0
102
RTVSPost2010Prop52
140
1.0
102
RTVSPost2010PropOp52
 70
     0
102
RTVSPost2010Prop53
 90
        2
102
RTVSPost2010PropOp53
 70
     1
102
RTVSPost2010Prop54
  1
strokes_ogs.tif
102
RTVSPost2010PropOp54
 70
     1
102
RTVSPost2010Prop55
280
     0
102
RTVSPost2010PropOp55
 70
     1
102
RTVSPost2010Prop56
140
1.0
102
RTVSPost2010PropOp56
 70
     1
102
RTVSPost2010Prop57
140
1.0
102
RTVSPost2010PropOp57
 70
     1
  0
XRECORD
  5
2B9
102
{ACAD_REACTORS
330
2B8
102
}
330
2B8
100
AcDbXrecord
280
     1
102
RTVSPropertyOp0
 70
     1
102
RTVSPropertyOp1
 70
     1
102
RTVSPropertyOp2
 70
     1
102
RTVSPropertyOp3
 70
     1
102
RTVSPropertyOp4
 70
     1
102
RTVSPropertyOp5
 70
     1
102
RTVSPropertyOp6
 70
     1
102
RTVSPropertyOp7
 70
     1
102
RTVSPropertyOp8
 70
     1
102
RTVSPropertyOp9
 70
     1
102
RTVSPropertyOp10
 70
     1
102
RTVSPropertyOp11
 70
     1
102
RTVSPropertyOp12
 70
     1
102
RTVSPropertyOp13
 70
     1
102
RTVSPropertyOp14
 70
     1
102
RTVSPropertyOp15
 70
     1
102
RTVSPropertyOp16
 70
     1
102
RTVSPropertyOp17
 70
     1
102
RTVSPropertyOp18
 70
     1
102
RTVSPropertyOp19
 70
     1
102
RTVSPropertyOp20
 70
     1
102
RTVSPropertyOp21
 70
     1
102
RTVSPropertyOp22
 70
     1
102
RTVSPropertyOp23
 70
     1
102
RTVSPropertyOp24
 70
     1
102
RTVSPropertyOp25
 70
     1
102
RTVSPropertyOp26
 70
     1
102
RTVSPropertyOp27
 70
     1
102
RTVSPropertyOp28
 70
     1
102
RTVSPropertyOp29
 70
     1
102
RTVSPropertyOp30
 70
     1
102
RTVSPropertyOp31
 70
     1
102
RTVSPropertyOp32
 70
     1
102
RTVSPropertyOp33
 70
     1
102
RTVSPropertyOp34
 70
     1
102
RTVSPropertyOp35
 70
     1
102
RTVSPropertyOp36
 70
     1
102
RTVSPropertyOp37
 70
     1
102
RTVSPropertyOp38
 70
     1
102
RTVSPropertyOp39
 70
     1
102
RTVSPropertyOp40
 70
     1
102
RTVSPropertyOp41
 70
     1
102
RTVSPropertyOp42
 70
     1
102
RTVSPropertyOp43
 70
     1
102
RTVSPropertyOp44
 70
     1
102
RTVSPropertyOp45
 70
     1
102
RTVSPropertyOp46
 70
     1
102
RTVSPropertyOp47
 70
     1
102
RTVSPropertyOp48
 70
     1
102
RTVSPropertyOp49
 70
     1
102
RTVSPropertyOp50
 70
     1
102
RTVSPropertyOp51
 70
     0
102
RTVSPropertyOp52
 70
     0
102
RTVSPropertyOp53
 70
     1
102
RTVSPropertyOp54
 70
     1
102
RTVSPropertyOp55
 70
     1
102
RTVSPropertyOp56
 70
     1
102
RTVSPropertyOp57
 70
     1
102
RTVSPost2010Prop28
280
     0
102
RTVSPost2010PropOp28
 70
     1
102
RTVSPost2010Prop29
280
     1
102
RTVSPost2010PropOp29
 70
     1
102
RTVSPost2010Prop30
280
     1
102
RTVSPost2010PropOp30
 70
     1
102
RTVSPost2010Prop31
280
     0
102
RTVSPost2010PropOp31
 70
     1
102
RTVSPost2010Prop32
280
     0
102
RTVSPost2010PropOp32
 70
     1
102
RTVSPost2010Prop33
280
     0
102
RTVSPost2010PropOp33
 70
     1
102
RTVSPost2010Prop34
280
     0
102
RTVSPost2010PropOp34
 70
     1
102
RTVSPost2010Prop35
280
     0
102
RTVSPost2010PropOp35
 70
     1
102
RTVSPost2010Prop36
280
     0
102
RTVSPost2010PropOp36
 70
     1
102
RTVSPost2010Prop37
 90
       50
102
RTVSPost2010PropOp37
 70
     1
102
RTVSPost2010Prop38
140
0.0
102
RTVSPost2010PropOp38
 70
     1
102
RTVSPost2010Prop39
140
1.0
102
RTVSPost2010PropOp39
 70
     1
102
RTVSPost2010Prop40
 90
        0
102
RTVSPost2010PropOp40
 70
     1
102
RTVSPost2010Prop41ColorIndex
 90
       18
102
RTVSPost2010Prop41ColorRGB
 90
        0
102
RTVSPost2010PropOp41
 70
     1
102
RTVSPost2010Prop42
 90
       50
102
RTVSPost2010PropOp42
 70
     1
102
RTVSPost2010Prop43
 90
        3
102
RTVSPost2010PropOp43
 70
     1
102
RTVSPost2010Prop44ColorIndex
 90
        5
102
RTVSPost2010Prop44ColorRGB
 90
      255
102
RTVSPost2010PropOp44
 70
     1
102
RTVSPost2010Prop45
280
     0
102
RTVSPost2010PropOp45
 70
     1
102
RTVSPost2010Prop46
 90
       50
102
RTVSPost2010PropOp46
 70
     1
102
RTVSPost2010Prop47
 90
       50
102
RTVSPost2010PropOp47
 70
     1
102
RTVSPost2010Prop48
 90
       50
102
RTVSPost2010PropOp48
 70
     1
102
RTVSPost2010Prop49
280
     0
102
RTVSPost2010PropOp49
 70
     1
102
RTVSPost2010Prop50
 90
       50
102
RTVSPost2010PropOp50
 70
     1
102
RTVSPost2010Prop51ColorIndex
 90
      256
102
RTVSPost2010Prop51ColorRGB
 90
-16777216
102
RTVSPost2010PropOp51
 70
     0
102
RTVSPost2010Prop52
140
1.0
102
RTVSPost2010PropOp52
 70
     0
102
RTVSPost2010Prop53
 90
        2
102
RTVSPost2010PropOp53
 70
     1
102
RTVSPost2010Prop54
  1
strokes_ogs.tif
102
RTVSPost2010PropOp54
 70
     1
102
RTVSPost2010Prop55
280
     0
102
RTVSPost2010PropOp55
 70
     1
102
RTVSPost2010Prop56
140
1.0
102
RTVSPost2010PropOp56
 70
     1
102
RTVSPost2010Prop57
140
1.0
102
RTVSPost2010PropOp57
 70
     1
  0
XRECORD
  5
2C1
102
{ACAD_REACTORS
330
2C0
102
}
330
2C0
100
AcDbXrecord
280
     1
102
RTVSPropertyOp0
 70
     1
102
RTVSPropertyOp1
 70
     1
102
RTVSPropertyOp2
 70
     1
102
RTVSPropertyOp3
 70
     1
102
RTVSPropertyOp4
 70
     1
102
RTVSPropertyOp5
 70
     1
102
RTVSPropertyOp6
 70
     1
102
RTVSPropertyOp7
 70
     1
102
RTVSPropertyOp8
 70
     1
102
RTVSPropertyOp9
 70
     1
102
RTVSPropertyOp10
 70
     1
102
RTVSPropertyOp11
 70
     1
102
RTVSPropertyOp12
 70
     1
102
RTVSPropertyOp13
 70
     1
102
RTVSPropertyOp14
 70
     1
102
RTVSPropertyOp15
 70
     1
102
RTVSPropertyOp16
 70
     1
102
RTVSPropertyOp17
 70
     1
102
RTVSPropertyOp18
 70
     1
102
RTVSPropertyOp19
 70
     1
102
RTVSPropertyOp20
 70
     1
102
RTVSPropertyOp21
 70
     1
102
RTVSPropertyOp22
 70
     1
102
RTVSPropertyOp23
 70
     1
102
RTVSPropertyOp24
 70
     1
102
RTVSPropertyOp25
 70
     1
102
RTVSPropertyOp26
 70
     1
102
RTVSPropertyOp27
 70
     1
102
RTVSPropertyOp28
 70
     1
102
RTVSPropertyOp29
 70
     1
102
RTVSPropertyOp30
 70
     1
102
RTVSPropertyOp31
 70
     1
102
RTVSPropertyOp32
 70
     1
102
RTVSPropertyOp33
 70
     1
102
RTVSPropertyOp34
 70
     1
102
RTVSPropertyOp35
 70
     1
102
RTVSPropertyOp36
 70
     1
102
RTVSPropertyOp37
 70
     1
102
RTVSPropertyOp38
 70
     1
102
RTVSPropertyOp39
 70
     1
102
RTVSPropertyOp40
 70
     1
102
RTVSPropertyOp41
 70
     1
102
RTVSPropertyOp42
 70
     1
102
RTVSPropertyOp43
 70
     1
102
RTVSPropertyOp44
 70
     1
102
RTVSPropertyOp45
 70
     1
102
RTVSPropertyOp46
 70
     1
102
RTVSPropertyOp47
 70
     1
102
RTVSPropertyOp48
 70
     1
102
RTVSPropertyOp49
 70
     1
102
RTVSPropertyOp50
 70
     1
102
RTVSPropertyOp51
 70
     0
102
RTVSPropertyOp52
 70
     0
102
RTVSPropertyOp53
 70
     1
102
RTVSPropertyOp54
 70
     1
102
RTVSPropertyOp55
 70
     1
102
RTVSPropertyOp56
 70
     1
102
RTVSPropertyOp57
 70
     1
102
RTVSPost2010Prop28
280
     0
102
RTVSPost2010PropOp28
 70
     1
102
RTVSPost2010Prop29
280
     1
102
RTVSPost2010PropOp29
 70
     1
102
RTVSPost2010Prop30
280
     1
102
RTVSPost2010PropOp30
 70
     1
102
RTVSPost2010Prop31
280
     0
102
RTVSPost2010PropOp31
 70
     1
102
RTVSPost2010Prop32
280
     0
102
RTVSPost2010PropOp32
 70
     1
102
RTVSPost2010Prop33
280
     0
102
RTVSPost2010PropOp33
 70
     1
102
RTVSPost2010Prop34
280
     0
102
RTVSPost2010PropOp34
 70
     1
102
RTVSPost2010Prop35
280
     0
102
RTVSPost2010PropOp35
 70
     1
102
RTVSPost2010Prop36
280
     0
102
RTVSPost2010PropOp36
 70
     1
102
RTVSPost2010Prop37
 90
       50
102
RTVSPost2010PropOp37
 70
     1
102
RTVSPost2010Prop38
140
0.0
102
RTVSPost2010PropOp38
 70
     1
102
RTVSPost2010Prop39
140
1.0
102
RTVSPost2010PropOp39
 70
     1
102
RTVSPost2010Prop40
 90
        0
102
RTVSPost2010PropOp40
 70
     1
102
RTVSPost2010Prop41ColorIndex
 90
       18
102
RTVSPost2010Prop41ColorRGB
 90
        0
102
RTVSPost2010PropOp41
 70
     1
102
RTVSPost2010Prop42
 90
       50
102
RTVSPost2010PropOp42
 70
     1
102
RTVSPost2010Prop43
 90
        3
102
RTVSPost2010PropOp43
 70
     1
102
RTVSPost2010Prop44ColorIndex
 90
        5
102
RTVSPost2010Prop44ColorRGB
 90
      255
102
RTVSPost2010PropOp44
 70
     1
102
RTVSPost2010Prop45
280
     0
102
RTVSPost2010PropOp45
 70
     1
102
RTVSPost2010Prop46
 90
       50
102
RTVSPost2010PropOp46
 70
     1
102
RTVSPost2010Prop47
 90
       50
102
RTVSPost2010PropOp47
 70
     1
102
RTVSPost2010Prop48
 90
       50
102
RTVSPost2010PropOp48
 70
     1
102
RTVSPost2010Prop49
280
     0
102
RTVSPost2010PropOp49
 70
     1
102
RTVSPost2010Prop50
 90
       50
102
RTVSPost2010PropOp50
 70
     1
102
RTVSPost2010Prop51ColorIndex
 90
      256
102
RTVSPost2010Prop51ColorRGB
 90
-16777216
102
RTVSPost2010PropOp51
 70
     0
102
RTVSPost2010Prop52
140
1.0
102
RTVSPost2010PropOp52
 70
     0
102
RTVSPost2010Prop53
 90
        2
102
RTVSPost2010PropOp53
 70
     1
102
RTVSPost2010Prop54
  1
strokes_ogs.tif
102
RTVSPost2010PropOp54
 70
     1
102
RTVSPost2010Prop55
280
     0
102
RTVSPost2010PropOp55
 70
     1
102
RTVSPost2010Prop56
140
1.0
102
RTVSPost2010PropOp56
 70
     1
102
RTVSPost2010Prop57
140
1.0
102
RTVSPost2010PropOp57
 70
     1
  0
XRECORD
  5
2C9
102
{ACAD_REACTORS
330
2C8
102
}
330
2C8
100
AcDbXrecord
280
     1
102
RTVSPropertyOp0
 70
     1
102
RTVSPropertyOp1
 70
     1
102
RTVSPropertyOp2
 70
     1
102
RTVSPropertyOp3
 70
     1
102
RTVSPropertyOp4
 70
     1
102
RTVSPropertyOp5
 70
     1
102
RTVSPropertyOp6
 70
     1
102
RTVSPropertyOp7
 70
     1
102
RTVSPropertyOp8
 70
     1
102
RTVSPropertyOp9
 70
     1
102
RTVSPropertyOp10
 70
     1
102
RTVSPropertyOp11
 70
     1
102
RTVSPropertyOp12
 70
     1
102
RTVSPropertyOp13
 70
     1
102
RTVSPropertyOp14
 70
     1
102
RTVSPropertyOp15
 70
     1
102
RTVSPropertyOp16
 70
     1
102
RTVSPropertyOp17
 70
     1
102
RTVSPropertyOp18
 70
     1
102
RTVSPropertyOp19
 70
     1
102
RTVSPropertyOp20
 70
     1
102
RTVSPropertyOp21
 70
     1
102
RTVSPropertyOp22
 70
     1
102
RTVSPropertyOp23
 70
     1
102
RTVSPropertyOp24
 70
     1
102
RTVSPropertyOp25
 70
     1
102
RTVSPropertyOp26
 70
     1
102
RTVSPropertyOp27
 70
     1
102
RTVSPropertyOp28
 70
     1
102
RTVSPropertyOp29
 70
     1
102
RTVSPropertyOp30
 70
     1
102
RTVSPropertyOp31
 70
     1
102
RTVSPropertyOp32
 70
     1
102
RTVSPropertyOp33
 70
     1
102
RTVSPropertyOp34
 70
     1
102
RTVSPropertyOp35
 70
     1
102
RTVSPropertyOp36
 70
     1
102
RTVSPropertyOp37
 70
     1
102
RTVSPropertyOp38
 70
     1
102
RTVSPropertyOp39
 70
     1
102
RTVSPropertyOp40
 70
     1
102
RTVSPropertyOp41
 70
     1
102
RTVSPropertyOp42
 70
     1
102
RTVSPropertyOp43
 70
     1
102
RTVSPropertyOp44
 70
     1
102
RTVSPropertyOp45
 70
     1
102
RTVSPropertyOp46
 70
     1
102
RTVSPropertyOp47
 70
     1
102
RTVSPropertyOp48
 70
     1
102
RTVSPropertyOp49
 70
     1
102
RTVSPropertyOp50
 70
     1
102
RTVSPropertyOp51
 70
     0
102
RTVSPropertyOp52
 70
     0
102
RTVSPropertyOp53
 70
     1
102
RTVSPropertyOp54
 70
     1
102
RTVSPropertyOp55
 70
     1
102
RTVSPropertyOp56
 70
     1
102
RTVSPropertyOp57
 70
     1
102
RTVSPost2010Prop28
280
     0
102
RTVSPost2010PropOp28
 70
     1
102
RTVSPost2010Prop29
280
     1
102
RTVSPost2010PropOp29
 70
     1
102
RTVSPost2010Prop30
280
     1
102
RTVSPost2010PropOp30
 70
     1
102
RTVSPost2010Prop31
280
     0
102
RTVSPost2010PropOp31
 70
     1
102
RTVSPost2010Prop32
280
     0
102
RTVSPost2010PropOp32
 70
     1
102
RTVSPost2010Prop33
280
     0
102
RTVSPost2010PropOp33
 70
     1
102
RTVSPost2010Prop34
280
     0
102
RTVSPost2010PropOp34
 70
     1
102
RTVSPost2010Prop35
280
     0
102
RTVSPost2010PropOp35
 70
     1
102
RTVSPost2010Prop36
280
     0
102
RTVSPost2010PropOp36
 70
     1
102
RTVSPost2010Prop37
 90
       50
102
RTVSPost2010PropOp37
 70
     1
102
RTVSPost2010Prop38
140
0.0
102
RTVSPost2010PropOp38
 70
     1
102
RTVSPost2010Prop39
140
1.0
102
RTVSPost2010PropOp39
 70
     1
102
RTVSPost2010Prop40
 90
        0
102
RTVSPost2010PropOp40
 70
     1
102
RTVSPost2010Prop41ColorIndex
 90
       18
102
RTVSPost2010Prop41ColorRGB
 90
        0
102
RTVSPost2010PropOp41
 70
     1
102
RTVSPost2010Prop42
 90
       50
102
RTVSPost2010PropOp42
 70
     1
102
RTVSPost2010Prop43
 90
        3
102
RTVSPost2010PropOp43
 70
     1
102
RTVSPost2010Prop44ColorIndex
 90
        5
102
RTVSPost2010Prop44ColorRGB
 90
      255
102
RTVSPost2010PropOp44
 70
     1
102
RTVSPost2010Prop45
280
     0
102
RTVSPost2010PropOp45
 70
     1
102
RTVSPost2010Prop46
 90
       50
102
RTVSPost2010PropOp46
 70
     1
102
RTVSPost2010Prop47
 90
       50
102
RTVSPost2010PropOp47
 70
     1
102
RTVSPost2010Prop48
 90
       50
102
RTVSPost2010PropOp48
 70
     1
102
RTVSPost2010Prop49
280
     0
102
RTVSPost2010PropOp49
 70
     1
102
RTVSPost2010Prop50
 90
       50
102
RTVSPost2010PropOp50
 70
     1
102
RTVSPost2010Prop51ColorIndex
 90
      256
102
RTVSPost2010Prop51ColorRGB
 90
-16777216
102
RTVSPost2010PropOp51
 70
     0
102
RTVSPost2010Prop52
140
1.0
102
RTVSPost2010PropOp52
 70
     0
102
RTVSPost2010Prop53
 90
        2
102
RTVSPost2010PropOp53
 70
     1
102
RTVSPost2010Prop54
  1
strokes_ogs.tif
102
RTVSPost2010PropOp54
 70
     1
102
RTVSPost2010Prop55
280
     0
102
RTVSPost2010PropOp55
 70
     1
102
RTVSPost2010Prop56
140
1.0
102
RTVSPost2010PropOp56
 70
     1
102
RTVSPost2010Prop57
140
1.0
102
RTVSPost2010PropOp57
 70
     1
  0
XRECORD
  5
2BD
102
{ACAD_REACTORS
330
2BC
102
}
330
2BC
100
AcDbXrecord
280
     1
102
RTVSPropertyOp0
 70
     1
102
RTVSPropertyOp1
 70
     1
102
RTVSPropertyOp2
 70
     1
102
RTVSPropertyOp3
 70
     1
102
RTVSPropertyOp4
 70
     1
102
RTVSPropertyOp5
 70
     1
102
RTVSPropertyOp6
 70
     1
102
RTVSPropertyOp7
 70
     1
102
RTVSPropertyOp8
 70
     1
102
RTVSPropertyOp9
 70
     1
102
RTVSPropertyOp10
 70
     1
102
RTVSPropertyOp11
 70
     1
102
RTVSPropertyOp12
 70
     1
102
RTVSPropertyOp13
 70
     1
102
RTVSPropertyOp14
 70
     1
102
RTVSPropertyOp15
 70
     1
102
RTVSPropertyOp16
 70
     1
102
RTVSPropertyOp17
 70
     1
102
RTVSPropertyOp18
 70
     1
102
RTVSPropertyOp19
 70
     1
102
RTVSPropertyOp20
 70
     1
102
RTVSPropertyOp21
 70
     1
102
RTVSPropertyOp22
 70
     1
102
RTVSPropertyOp23
 70
     1
102
RTVSPropertyOp24
 70
     1
102
RTVSPropertyOp25
 70
     1
102
RTVSPropertyOp26
 70
     1
102
RTVSPropertyOp27
 70
     1
102
RTVSPropertyOp28
 70
     1
102
RTVSPropertyOp29
 70
     1
102
RTVSPropertyOp30
 70
     1
102
RTVSPropertyOp31
 70
     1
102
RTVSPropertyOp32
 70
     1
102
RTVSPropertyOp33
 70
     1
102
RTVSPropertyOp34
 70
     1
102
RTVSPropertyOp35
 70
     1
102
RTVSPropertyOp36
 70
     1
102
RTVSPropertyOp37
 70
     1
102
RTVSPropertyOp38
 70
     1
102
RTVSPropertyOp39
 70
     1
102
RTVSPropertyOp40
 70
     1
102
RTVSPropertyOp41
 70
     1
102
RTVSPropertyOp42
 70
     1
102
RTVSPropertyOp43
 70
     1
102
RTVSPropertyOp44
 70
     1
102
RTVSPropertyOp45
 70
     1
102
RTVSPropertyOp46
 70
     1
102
RTVSPropertyOp47
 70
     1
102
RTVSPropertyOp48
 70
     1
102
RTVSPropertyOp49
 70
     1
102
RTVSPropertyOp50
 70
     1
102
RTVSPropertyOp51
 70
     0
102
RTVSPropertyOp52
 70
     0
102
RTVSPropertyOp53
 70
     1
102
RTVSPropertyOp54
 70
     1
102
RTVSPropertyOp55
 70
     1
102
RTVSPropertyOp56
 70
     1
102
RTVSPropertyOp57
 70
     1
102
RTVSPost2010Prop28
280
     0
102
RTVSPost2010PropOp28
 70
     1
102
RTVSPost2010Prop29
280
     1
102
RTVSPost2010PropOp29
 70
     1
102
RTVSPost2010Prop30
280
     1
102
RTVSPost2010PropOp30
 70
     1
102
RTVSPost2010Prop31
280
     0
102
RTVSPost2010PropOp31
 70
     1
102
RTVSPost2010Prop32
280
     0
102
RTVSPost2010PropOp32
 70
     1
102
RTVSPost2010Prop33
280
     0
102
RTVSPost2010PropOp33
 70
     1
102
RTVSPost2010Prop34
280
     0
102
RTVSPost2010PropOp34
 70
     1
102
RTVSPost2010Prop35
280
     0
102
RTVSPost2010PropOp35
 70
     1
102
RTVSPost2010Prop36
280
     0
102
RTVSPost2010PropOp36
 70
     1
102
RTVSPost2010Prop37
 90
       50
102
RTVSPost2010PropOp37
 70
     1
102
RTVSPost2010Prop38
140
0.0
102
RTVSPost2010PropOp38
 70
     1
102
RTVSPost2010Prop39
140
1.0
102
RTVSPost2010PropOp39
 70
     1
102
RTVSPost2010Prop40
 90
        0
102
RTVSPost2010PropOp40
 70
     1
102
RTVSPost2010Prop41ColorIndex
 90
       18
102
RTVSPost2010Prop41ColorRGB
 90
        0
102
RTVSPost2010PropOp41
 70
     1
102
RTVSPost2010Prop42
 90
       50
102
RTVSPost2010PropOp42
 70
     1
102
RTVSPost2010Prop43
 90
        3
102
RTVSPost2010PropOp43
 70
     1
102
RTVSPost2010Prop44ColorIndex
 90
        5
102
RTVSPost2010Prop44ColorRGB
 90
      255
102
RTVSPost2010PropOp44
 70
     1
102
RTVSPost2010Prop45
280
     0
102
RTVSPost2010PropOp45
 70
     1
102
RTVSPost2010Prop46
 90
       50
102
RTVSPost2010PropOp46
 70
     1
102
RTVSPost2010Prop47
 90
       50
102
RTVSPost2010PropOp47
 70
     1
102
RTVSPost2010Prop48
 90
       50
102
RTVSPost2010PropOp48
 70
     1
102
RTVSPost2010Prop49
280
     0
102
RTVSPost2010PropOp49
 70
     1
102
RTVSPost2010Prop50
 90
       50
102
RTVSPost2010PropOp50
 70
     1
102
RTVSPost2010Prop51ColorIndex
 90
      256
102
RTVSPost2010Prop51ColorRGB
 90
-16777216
102
RTVSPost2010PropOp51
 70
     0
102
RTVSPost2010Prop52
140
1.0
102
RTVSPost2010PropOp52
 70
     0
102
RTVSPost2010Prop53
 90
        2
102
RTVSPost2010PropOp53
 70
     1
102
RTVSPost2010Prop54
  1
strokes_ogs.tif
102
RTVSPost2010PropOp54
 70
     1
102
RTVSPost2010Prop55
280
     0
102
RTVSPost2010PropOp55
 70
     1
102
RTVSPost2010Prop56
140
1.0
102
RTVSPost2010PropOp56
 70
     1
102
RTVSPost2010Prop57
140
1.0
102
RTVSPost2010PropOp57
 70
     1
  0
XRECORD
  5
2BF
102
{ACAD_REACTORS
330
2BE
102
}
330
2BE
100
AcDbXrecord
280
     1
102
RTVSPropertyOp0
 70
     1
102
RTVSPropertyOp1
 70
     1
102
RTVSPropertyOp2
 70
     1
102
RTVSPropertyOp3
 70
     1
102
RTVSPropertyOp4
 70
     1
102
RTVSPropertyOp5
 70
     1
102
RTVSPropertyOp6
 70
     1
102
RTVSPropertyOp7
 70
     1
102
RTVSPropertyOp8
 70
     1
102
RTVSPropertyOp9
 70
     1
102
RTVSPropertyOp10
 70
     1
102
RTVSPropertyOp11
 70
     1
102
RTVSPropertyOp12
 70
     1
102
RTVSPropertyOp13
 70
     1
102
RTVSPropertyOp14
 70
     1
102
RTVSPropertyOp15
 70
     1
102
RTVSPropertyOp16
 70
     1
102
RTVSPropertyOp17
 70
     1
102
RTVSPropertyOp18
 70
     1
102
RTVSPropertyOp19
 70
     1
102
RTVSPropertyOp20
 70
     1
102
RTVSPropertyOp21
 70
     1
102
RTVSPropertyOp22
 70
     1
102
RTVSPropertyOp23
 70
     1
102
RTVSPropertyOp24
 70
     1
102
RTVSPropertyOp25
 70
     1
102
RTVSPropertyOp26
 70
     1
102
RTVSPropertyOp27
 70
     1
102
RTVSPropertyOp28
 70
     1
102
RTVSPropertyOp29
 70
     1
102
RTVSPropertyOp30
 70
     1
102
RTVSPropertyOp31
 70
     1
102
RTVSPropertyOp32
 70
     1
102
RTVSPropertyOp33
 70
     1
102
RTVSPropertyOp34
 70
     1
102
RTVSPropertyOp35
 70
     1
102
RTVSPropertyOp36
 70
     1
102
RTVSPropertyOp37
 70
     1
102
RTVSPropertyOp38
 70
     1
102
RTVSPropertyOp39
 70
     1
102
RTVSPropertyOp40
 70
     1
102
RTVSPropertyOp41
 70
     1
102
RTVSPropertyOp42
 70
     1
102
RTVSPropertyOp43
 70
     1
102
RTVSPropertyOp44
 70
     1
102
RTVSPropertyOp45
 70
     1
102
RTVSPropertyOp46
 70
     1
102
RTVSPropertyOp47
 70
     1
102
RTVSPropertyOp48
 70
     1
102
RTVSPropertyOp49
 70
     1
102
RTVSPropertyOp50
 70
     1
102
RTVSPropertyOp51
 70
     0
102
RTVSPropertyOp52
 70
     0
102
RTVSPropertyOp53
 70
     1
102
RTVSPropertyOp54
 70
     1
102
RTVSPropertyOp55
 70
     1
102
RTVSPropertyOp56
 70
     1
102
RTVSPropertyOp57
 70
     1
102
RTVSPost2010Prop28
280
     0
102
RTVSPost2010PropOp28
 70
     1
102
RTVSPost2010Prop29
280
     1
102
RTVSPost2010PropOp29
 70
     1
102
RTVSPost2010Prop30
280
     1
102
RTVSPost2010PropOp30
 70
     1
102
RTVSPost2010Prop31
280
     0
102
RTVSPost2010PropOp31
 70
     1
102
RTVSPost2010Prop32
280
     0
102
RTVSPost2010PropOp32
 70
     1
102
RTVSPost2010Prop33
280
     0
102
RTVSPost2010PropOp33
 70
     1
102
RTVSPost2010Prop34
280
     0
102
RTVSPost2010PropOp34
 70
     1
102
RTVSPost2010Prop35
280
     0
102
RTVSPost2010PropOp35
 70
     1
102
RTVSPost2010Prop36
280
     0
102
RTVSPost2010PropOp36
 70
     1
102
RTVSPost2010Prop37
 90
       50
102
RTVSPost2010PropOp37
 70
     1
102
RTVSPost2010Prop38
140
0.0
102
RTVSPost2010PropOp38
 70
     1
102
RTVSPost2010Prop39
140
1.0
102
RTVSPost2010PropOp39
 70
     1
102
RTVSPost2010Prop40
 90
        0
102
RTVSPost2010PropOp40
 70
     1
102
RTVSPost2010Prop41ColorIndex
 90
       18
102
RTVSPost2010Prop41ColorRGB
 90
        0
102
RTVSPost2010PropOp41
 70
     1
102
RTVSPost2010Prop42
 90
       50
102
RTVSPost2010PropOp42
 70
     1
102
RTVSPost2010Prop43
 90
        3
102
RTVSPost2010PropOp43
 70
     1
102
RTVSPost2010Prop44ColorIndex
 90
        5
102
RTVSPost2010Prop44ColorRGB
 90
      255
102
RTVSPost2010PropOp44
 70
     1
102
RTVSPost2010Prop45
280
     0
102
RTVSPost2010PropOp45
 70
     1
102
RTVSPost2010Prop46
 90
       50
102
RTVSPost2010PropOp46
 70
     1
102
RTVSPost2010Prop47
 90
       50
102
RTVSPost2010PropOp47
 70
     1
102
RTVSPost2010Prop48
 90
       50
102
RTVSPost2010PropOp48
 70
     1
102
RTVSPost2010Prop49
280
     0
102
RTVSPost2010PropOp49
 70
     1
102
RTVSPost2010Prop50
 90
       50
102
RTVSPost2010PropOp50
 70
     1
102
RTVSPost2010Prop51ColorIndex
 90
      256
102
RTVSPost2010Prop51ColorRGB
 90
-16777216
102
RTVSPost2010PropOp51
 70
     0
102
RTVSPost2010Prop52
140
1.0
102
RTVSPost2010PropOp52
 70
     0
102
RTVSPost2010Prop53
 90
        2
102
RTVSPost2010PropOp53
 70
     1
102
RTVSPost2010Prop54
  1
strokes_ogs.tif
102
RTVSPost2010PropOp54
 70
     1
102
RTVSPost2010Prop55
280
     0
102
RTVSPost2010PropOp55
 70
     1
102
RTVSPost2010Prop56
140
1.0
102
RTVSPost2010PropOp56
 70
     1
102
RTVSPost2010Prop57
140
1.0
102
RTVSPost2010PropOp57
 70
     1
  0
XRECORD
  5
2CF
102
{ACAD_REACTORS
330
2CE
102
}
330
2CE
100
AcDbXrecord
280
     1
102
RTVSPropertyOp0
 70
     0
102
RTVSPropertyOp1
 70
     0
102
RTVSPropertyOp2
 70
     0
102
RTVSPropertyOp3
 70
     0
102
RTVSPropertyOp4
 70
     0
102
RTVSPropertyOp5
 70
     0
102
RTVSPropertyOp6
 70
     0
102
RTVSPropertyOp7
 70
     0
102
RTVSPropertyOp8
 70
     0
102
RTVSPropertyOp9
 70
     0
102
RTVSPropertyOp10
 70
     0
102
RTVSPropertyOp11
 70
     0
102
RTVSPropertyOp12
 70
     0
102
RTVSPropertyOp13
 70
     0
102
RTVSPropertyOp14
 70
     2
102
RTVSPropertyOp15
 70
     0
102
RTVSPropertyOp16
 70
     0
102
RTVSPropertyOp17
 70
     0
102
RTVSPropertyOp18
 70
     0
102
RTVSPropertyOp19
 70
     0
102
RTVSPropertyOp20
 70
     0
102
RTVSPropertyOp21
 70
     0
102
RTVSPropertyOp22
 70
     0
102
RTVSPropertyOp23
 70
     0
102
RTVSPropertyOp24
 70
     0
102
RTVSPropertyOp25
 70
     0
102
RTVSPropertyOp26
 70
     0
102
RTVSPropertyOp27
 70
     0
102
RTVSPropertyOp28
 70
     0
102
RTVSPropertyOp29
 70
     0
102
RTVSPropertyOp30
 70
     0
102
RTVSPropertyOp31
 70
     0
102
RTVSPropertyOp32
 70
     0
102
RTVSPropertyOp33
 70
     0
102
RTVSPropertyOp34
 70
     0
102
RTVSPropertyOp35
 70
     0
102
RTVSPropertyOp36
 70
     0
102
RTVSPropertyOp37
 70
     0
102
RTVSPropertyOp38
 70
     0
102
RTVSPropertyOp39
 70
     0
102
RTVSPropertyOp40
 70
     0
102
RTVSPropertyOp41
 70
     0
102
RTVSPropertyOp42
 70
     0
102
RTVSPropertyOp43
 70
     0
102
RTVSPropertyOp44
 70
     0
102
RTVSPropertyOp45
 70
     0
102
RTVSPropertyOp46
 70
     0
102
RTVSPropertyOp47
 70
     0
102
RTVSPropertyOp48
 70
     0
102
RTVSPropertyOp49
 70
     0
102
RTVSPropertyOp50
 70
     0
102
RTVSPropertyOp51
 70
     0
102
RTVSPropertyOp52
 70
     0
102
RTVSPropertyOp53
 70
     0
102
RTVSPropertyOp54
 70
     0
102
RTVSPropertyOp55
 70
     0
102
RTVSPropertyOp56
 70
     0
102
RTVSPropertyOp57
 70
     0
102
RTVSPost2010Prop28
280
     0
102
RTVSPost2010PropOp28
 70
     0
102
RTVSPost2010Prop29
280
     1
102
RTVSPost2010PropOp29
 70
     0
102
RTVSPost2010Prop30
280
     1
102
RTVSPost2010PropOp30
 70
     0
102
RTVSPost2010Prop31
280
     0
102
RTVSPost2010PropOp31
 70
     0
102
RTVSPost2010Prop32
280
     0
102
RTVSPost2010PropOp32
 70
     0
102
RTVSPost2010Prop33
280
     0
102
RTVSPost2010PropOp33
 70
     0
102
RTVSPost2010Prop34
280
     0
102
RTVSPost2010PropOp34
 70
     0
102
RTVSPost2010Prop35
280
     0
102
RTVSPost2010PropOp35
 70
     0
102
RTVSPost2010Prop36
280
     0
102
RTVSPost2010PropOp36
 70
     0
102
RTVSPost2010Prop37
 90
       50
102
RTVSPost2010PropOp37
 70
     0
102
RTVSPost2010Prop38
140
0.0
102
RTVSPost2010PropOp38
 70
     0
102
RTVSPost2010Prop39
140
1.0
102
RTVSPost2010PropOp39
 70
     0
102
RTVSPost2010Prop40
 90
        0
102
RTVSPost2010PropOp40
 70
     0
102
RTVSPost2010Prop41ColorIndex
 90
       18
102
RTVSPost2010Prop41ColorRGB
 90
        0
102
RTVSPost2010PropOp41
 70
     0
102
RTVSPost2010Prop42
 90
       50
102
RTVSPost2010PropOp42
 70
     0
102
RTVSPost2010Prop43
 90
        3
102
RTVSPost2010PropOp43
 70
     0
102
RTVSPost2010Prop44ColorIndex
 90
        5
102
RTVSPost2010Prop44ColorRGB
 90
      255
102
RTVSPost2010PropOp44
 70
     0
102
RTVSPost2010Prop45
280
     0
102
RTVSPost2010PropOp45
 70
     0
102
RTVSPost2010Prop46
 90
       50
102
RTVSPost2010PropOp46
 70
     0
102
RTVSPost2010Prop47
 90
       50
102
RTVSPost2010PropOp47
 70
     0
102
RTVSPost2010Prop48
 90
       50
102
RTVSPost2010PropOp48
 70
     0
102
RTVSPost2010Prop49
280
     0
102
RTVSPost2010PropOp49
 70
     0
102
RTVSPost2010Prop50
 90
       50
102
RTVSPost2010PropOp50
 70
     0
102
RTVSPost2010Prop51ColorIndex
 90
      256
102
RTVSPost2010Prop51ColorRGB
 90
-16777216
102
RTVSPost2010PropOp51
 70
     0
102
RTVSPost2010Prop52
140
1.0
102
RTVSPost2010PropOp52
 70
     0
102
RTVSPost2010Prop53
 90
        2
102
RTVSPost2010PropOp53
 70
     0
102
RTVSPost2010Prop54
  1
strokes_ogs.tif
102
RTVSPost2010PropOp54
 70
     0
102
RTVSPost2010Prop55
280
     0
102
RTVSPost2010PropOp55
 70
     0
102
RTVSPost2010Prop56
140
1.0
102
RTVSPost2010PropOp56
 70
     0
102
RTVSPost2010Prop57
140
1.0
102
RTVSPost2010PropOp57
 70
     0
  0
XRECORD
  5
2C7
102
{ACAD_REACTORS
330
2C6
102
}
330
2C6
100
AcDbXrecord
280
     1
102
RTVSPropertyOp0
 70
     1
102
RTVSPropertyOp1
 70
     1
102
RTVSPropertyOp2
 70
     1
102
RTVSPropertyOp3
 70
     1
102
RTVSPropertyOp4
 70
     1
102
RTVSPropertyOp5
 70
     1
102
RTVSPropertyOp6
 70
     1
102
RTVSPropertyOp7
 70
     1
102
RTVSPropertyOp8
 70
     1
102
RTVSPropertyOp9
 70
     1
102
RTVSPropertyOp10
 70
     1
102
RTVSPropertyOp11
 70
     1
102
RTVSPropertyOp12
 70
     1
102
RTVSPropertyOp13
 70
     1
102
RTVSPropertyOp14
 70
     1
102
RTVSPropertyOp15
 70
     1
102
RTVSPropertyOp16
 70
     1
102
RTVSPropertyOp17
 70
     1
102
RTVSPropertyOp18
 70
     1
102
RTVSPropertyOp19
 70
     1
102
RTVSPropertyOp20
 70
     1
102
RTVSPropertyOp21
 70
     1
102
RTVSPropertyOp22
 70
     1
102
RTVSPropertyOp23
 70
     1
102
RTVSPropertyOp24
 70
     1
102
RTVSPropertyOp25
 70
     1
102
RTVSPropertyOp26
 70
     1
102
RTVSPropertyOp27
 70
     1
102
RTVSPropertyOp28
 70
     1
102
RTVSPropertyOp29
 70
     1
102
RTVSPropertyOp30
 70
     1
102
RTVSPropertyOp31
 70
     1
102
RTVSPropertyOp32
 70
     1
102
RTVSPropertyOp33
 70
     1
102
RTVSPropertyOp34
 70
     1
102
RTVSPropertyOp35
 70
     1
102
RTVSPropertyOp36
 70
     1
102
RTVSPropertyOp37
 70
     1
102
RTVSPropertyOp38
 70
     1
102
RTVSPropertyOp39
 70
     1
102
RTVSPropertyOp40
 70
     1
102
RTVSPropertyOp41
 70
     1
102
RTVSPropertyOp42
 70
     1
102
RTVSPropertyOp43
 70
     1
102
RTVSPropertyOp44
 70
     1
102
RTVSPropertyOp45
 70
     1
102
RTVSPropertyOp46
 70
     1
102
RTVSPropertyOp47
 70
     1
102
RTVSPropertyOp48
 70
     1
102
RTVSPropertyOp49
 70
     1
102
RTVSPropertyOp50
 70
     1
102
RTVSPropertyOp51
 70
     0
102
RTVSPropertyOp52
 70
     0
102
RTVSPropertyOp53
 70
     1
102
RTVSPropertyOp54
 70
     1
102
RTVSPropertyOp55
 70
     1
102
RTVSPropertyOp56
 70
     1
102
RTVSPropertyOp57
 70
     1
102
RTVSPost2010Prop28
280
     0
102
RTVSPost2010PropOp28
 70
     1
102
RTVSPost2010Prop29
280
     1
102
RTVSPost2010PropOp29
 70
     1
102
RTVSPost2010Prop30
280
     1
102
RTVSPost2010PropOp30
 70
     1
102
RTVSPost2010Prop31
280
     0
102
RTVSPost2010PropOp31
 70
     1
102
RTVSPost2010Prop32
280
     0
102
RTVSPost2010PropOp32
 70
     1
102
RTVSPost2010Prop33
280
     0
102
RTVSPost2010PropOp33
 70
     1
102
RTVSPost2010Prop34
280
     0
102
RTVSPost2010PropOp34
 70
     1
102
RTVSPost2010Prop35
280
     0
102
RTVSPost2010PropOp35
 70
     1
102
RTVSPost2010Prop36
280
     0
102
RTVSPost2010PropOp36
 70
     1
102
RTVSPost2010Prop37
 90
       50
102
RTVSPost2010PropOp37
 70
     1
102
RTVSPost2010Prop38
140
0.0
102
RTVSPost2010PropOp38
 70
     1
102
RTVSPost2010Prop39
140
1.0
102
RTVSPost2010PropOp39
 70
     1
102
RTVSPost2010Prop40
 90
        0
102
RTVSPost2010PropOp40
 70
     1
102
RTVSPost2010Prop41ColorIndex
 90
       18
102
RTVSPost2010Prop41ColorRGB
 90
        0
102
RTVSPost2010PropOp41
 70
     1
102
RTVSPost2010Prop42
 90
       50
102
RTVSPost2010PropOp42
 70
     1
102
RTVSPost2010Prop43
 90
        3
102
RTVSPost2010PropOp43
 70
     1
102
RTVSPost2010Prop44ColorIndex
 90
        5
102
RTVSPost2010Prop44ColorRGB
 90
      255
102
RTVSPost2010PropOp44
 70
     1
102
RTVSPost2010Prop45
280
     0
102
RTVSPost2010PropOp45
 70
     1
102
RTVSPost2010Prop46
 90
       50
102
RTVSPost2010PropOp46
 70
     1
102
RTVSPost2010Prop47
 90
       50
102
RTVSPost2010PropOp47
 70
     1
102
RTVSPost2010Prop48
 90
       50
102
RTVSPost2010PropOp48
 70
     1
102
RTVSPost2010Prop49
280
     0
102
RTVSPost2010PropOp49
 70
     1
102
RTVSPost2010Prop50
 90
       50
102
RTVSPost2010PropOp50
 70
     1
102
RTVSPost2010Prop51ColorIndex
 90
      256
102
RTVSPost2010Prop51ColorRGB
 90
-16777216
102
RTVSPost2010PropOp51
 70
     0
102
RTVSPost2010Prop52
140
1.0
102
RTVSPost2010PropOp52
 70
     0
102
RTVSPost2010Prop53
 90
        2
102
RTVSPost2010PropOp53
 70
     1
102
RTVSPost2010Prop54
  1
strokes_ogs.tif
102
RTVSPost2010PropOp54
 70
     1
102
RTVSPost2010Prop55
280
     0
102
RTVSPost2010PropOp55
 70
     1
102
RTVSPost2010Prop56
140
1.0
102
RTVSPost2010PropOp56
 70
     1
102
RTVSPost2010Prop57
140
1.0
102
RTVSPost2010PropOp57
 70
     1
  0
XRECORD
  5
2AB
102
{ACAD_REACTORS
330
2AA
102
}
330
2AA
100
AcDbXrecord
280
     1
102
RTVSPropertyOp0
 70
     1
102
RTVSPropertyOp1
 70
     1
102
RTVSPropertyOp2
 70
     1
102
RTVSPropertyOp3
 70
     1
102
RTVSPropertyOp4
 70
     1
102
RTVSPropertyOp5
 70
     1
102
RTVSPropertyOp6
 70
     1
102
RTVSPropertyOp7
 70
     1
102
RTVSPropertyOp8
 70
     1
102
RTVSPropertyOp9
 70
     1
102
RTVSPropertyOp10
 70
     1
102
RTVSPropertyOp11
 70
     1
102
RTVSPropertyOp12
 70
     1
102
RTVSPropertyOp13
 70
     1
102
RTVSPropertyOp14
 70
     1
102
RTVSPropertyOp15
 70
     1
102
RTVSPropertyOp16
 70
     1
102
RTVSPropertyOp17
 70
     1
102
RTVSPropertyOp18
 70
     1
102
RTVSPropertyOp19
 70
     1
102
RTVSPropertyOp20
 70
     1
102
RTVSPropertyOp21
 70
     1
102
RTVSPropertyOp22
 70
     1
102
RTVSPropertyOp23
 70
     1
102
RTVSPropertyOp24
 70
     1
102
RTVSPropertyOp25
 70
     1
102
RTVSPropertyOp26
 70
     1
102
RTVSPropertyOp27
 70
     1
102
RTVSPropertyOp28
 70
     1
102
RTVSPropertyOp29
 70
     1
102
RTVSPropertyOp30
 70
     1
102
RTVSPropertyOp31
 70
     1
102
RTVSPropertyOp32
 70
     1
102
RTVSPropertyOp33
 70
     1
102
RTVSPropertyOp34
 70
     1
102
RTVSPropertyOp35
 70
     1
102
RTVSPropertyOp36
 70
     1
102
RTVSPropertyOp37
 70
     1
102
RTVSPropertyOp38
 70
     1
102
RTVSPropertyOp39
 70
     1
102
RTVSPropertyOp40
 70
     1
102
RTVSPropertyOp41
 70
     1
102
RTVSPropertyOp42
 70
     1
102
RTVSPropertyOp43
 70
     1
102
RTVSPropertyOp44
 70
     1
102
RTVSPropertyOp45
 70
     1
102
RTVSPropertyOp46
 70
     1
102
RTVSPropertyOp47
 70
     1
102
RTVSPropertyOp48
 70
     1
102
RTVSPropertyOp49
 70
     1
102
RTVSPropertyOp50
 70
     1
102
RTVSPropertyOp51
 70
     0
102
RTVSPropertyOp52
 70
     0
102
RTVSPropertyOp53
 70
     1
102
RTVSPropertyOp54
 70
     1
102
RTVSPropertyOp55
 70
     1
102
RTVSPropertyOp56
 70
     1
102
RTVSPropertyOp57
 70
     1
102
RTVSPost2010Prop28
280
     0
102
RTVSPost2010PropOp28
 70
     1
102
RTVSPost2010Prop29
280
     1
102
RTVSPost2010PropOp29
 70
     1
102
RTVSPost2010Prop30
280
     1
102
RTVSPost2010PropOp30
 70
     1
102
RTVSPost2010Prop31
280
     0
102
RTVSPost2010PropOp31
 70
     1
102
RTVSPost2010Prop32
280
     0
102
RTVSPost2010PropOp32
 70
     1
102
RTVSPost2010Prop33
280
     0
102
RTVSPost2010PropOp33
 70
     1
102
RTVSPost2010Prop34
280
     0
102
RTVSPost2010PropOp34
 70
     1
102
RTVSPost2010Prop35
280
     0
102
RTVSPost2010PropOp35
 70
     1
102
RTVSPost2010Prop36
280
     0
102
RTVSPost2010PropOp36
 70
     1
102
RTVSPost2010Prop37
 90
       50
102
RTVSPost2010PropOp37
 70
     1
102
RTVSPost2010Prop38
140
0.0
102
RTVSPost2010PropOp38
 70
     1
102
RTVSPost2010Prop39
140
1.0
102
RTVSPost2010PropOp39
 70
     1
102
RTVSPost2010Prop40
 90
        0
102
RTVSPost2010PropOp40
 70
     1
102
RTVSPost2010Prop41ColorIndex
 90
       18
102
RTVSPost2010Prop41ColorRGB
 90
        0
102
RTVSPost2010PropOp41
 70
     1
102
RTVSPost2010Prop42
 90
       50
102
RTVSPost2010PropOp42
 70
     1
102
RTVSPost2010Prop43
 90
        3
102
RTVSPost2010PropOp43
 70
     1
102
RTVSPost2010Prop44ColorIndex
 90
        5
102
RTVSPost2010Prop44ColorRGB
 90
      255
102
RTVSPost2010PropOp44
 70
     1
102
RTVSPost2010Prop45
280
     0
102
RTVSPost2010PropOp45
 70
     1
102
RTVSPost2010Prop46
 90
       50
102
RTVSPost2010PropOp46
 70
     1
102
RTVSPost2010Prop47
 90
       50
102
RTVSPost2010PropOp47
 70
     1
102
RTVSPost2010Prop48
 90
       50
102
RTVSPost2010PropOp48
 70
     1
102
RTVSPost2010Prop49
280
     0
102
RTVSPost2010PropOp49
 70
     1
102
RTVSPost2010Prop50
 90
       50
102
RTVSPost2010PropOp50
 70
     1
102
RTVSPost2010Prop51ColorIndex
 90
      256
102
RTVSPost2010Prop51ColorRGB
 90
-16777216
102
RTVSPost2010PropOp51
 70
     0
102
RTVSPost2010Prop52
140
1.0
102
RTVSPost2010PropOp52
 70
     0
102
RTVSPost2010Prop53
 90
        2
102
RTVSPost2010PropOp53
 70
     1
102
RTVSPost2010Prop54
  1
strokes_ogs.tif
102
RTVSPost2010PropOp54
 70
     1
102
RTVSPost2010Prop55
280
     0
102
RTVSPost2010PropOp55
 70
     1
102
RTVSPost2010Prop56
140
1.0
102
RTVSPost2010PropOp56
 70
     1
102
RTVSPost2010Prop57
140
1.0
102
RTVSPost2010PropOp57
 70
     1
  0
XRECORD
  5
2AD
102
{ACAD_REACTORS
330
2AC
102
}
330
2AC
100
AcDbXrecord
280
     1
102
RTVSPropertyOp0
 70
     1
102
RTVSPropertyOp1
 70
     1
102
RTVSPropertyOp2
 70
     1
102
RTVSPropertyOp3
 70
     1
102
RTVSPropertyOp4
 70
     1
102
RTVSPropertyOp5
 70
     1
102
RTVSPropertyOp6
 70
     1
102
RTVSPropertyOp7
 70
     1
102
RTVSPropertyOp8
 70
     1
102
RTVSPropertyOp9
 70
     1
102
RTVSPropertyOp10
 70
     1
102
RTVSPropertyOp11
 70
     1
102
RTVSPropertyOp12
 70
     1
102
RTVSPropertyOp13
 70
     1
102
RTVSPropertyOp14
 70
     1
102
RTVSPropertyOp15
 70
     1
102
RTVSPropertyOp16
 70
     1
102
RTVSPropertyOp17
 70
     1
102
RTVSPropertyOp18
 70
     1
102
RTVSPropertyOp19
 70
     1
102
RTVSPropertyOp20
 70
     1
102
RTVSPropertyOp21
 70
     1
102
RTVSPropertyOp22
 70
     1
102
RTVSPropertyOp23
 70
     1
102
RTVSPropertyOp24
 70
     1
102
RTVSPropertyOp25
 70
     1
102
RTVSPropertyOp26
 70
     1
102
RTVSPropertyOp27
 70
     1
102
RTVSPropertyOp28
 70
     1
102
RTVSPropertyOp29
 70
     1
102
RTVSPropertyOp30
 70
     1
102
RTVSPropertyOp31
 70
     1
102
RTVSPropertyOp32
 70
     1
102
RTVSPropertyOp33
 70
     1
102
RTVSPropertyOp34
 70
     1
102
RTVSPropertyOp35
 70
     1
102
RTVSPropertyOp36
 70
     1
102
RTVSPropertyOp37
 70
     1
102
RTVSPropertyOp38
 70
     1
102
RTVSPropertyOp39
 70
     1
102
RTVSPropertyOp40
 70
     1
102
RTVSPropertyOp41
 70
     1
102
RTVSPropertyOp42
 70
     1
102
RTVSPropertyOp43
 70
     1
102
RTVSPropertyOp44
 70
     1
102
RTVSPropertyOp45
 70
     1
102
RTVSPropertyOp46
 70
     1
102
RTVSPropertyOp47
 70
     1
102
RTVSPropertyOp48
 70
     1
102
RTVSPropertyOp49
 70
     1
102
RTVSPropertyOp50
 70
     1
102
RTVSPropertyOp51
 70
     0
102
RTVSPropertyOp52
 70
     0
102
RTVSPropertyOp53
 70
     1
102
RTVSPropertyOp54
 70
     1
102
RTVSPropertyOp55
 70
     1
102
RTVSPropertyOp56
 70
     1
102
RTVSPropertyOp57
 70
     1
102
RTVSPost2010Prop28
280
     0
102
RTVSPost2010PropOp28
 70
     1
102
RTVSPost2010Prop29
280
     1
102
RTVSPost2010PropOp29
 70
     1
102
RTVSPost2010Prop30
280
     1
102
RTVSPost2010PropOp30
 70
     1
102
RTVSPost2010Prop31
280
     0
102
RTVSPost2010PropOp31
 70
     1
102
RTVSPost2010Prop32
280
     0
102
RTVSPost2010PropOp32
 70
     1
102
RTVSPost2010Prop33
280
     0
102
RTVSPost2010PropOp33
 70
     1
102
RTVSPost2010Prop34
280
     0
102
RTVSPost2010PropOp34
 70
     1
102
RTVSPost2010Prop35
280
     0
102
RTVSPost2010PropOp35
 70
     1
102
RTVSPost2010Prop36
280
     0
102
RTVSPost2010PropOp36
 70
     1
102
RTVSPost2010Prop37
 90
       50
102
RTVSPost2010PropOp37
 70
     1
102
RTVSPost2010Prop38
140
0.0
102
RTVSPost2010PropOp38
 70
     1
102
RTVSPost2010Prop39
140
1.0
102
RTVSPost2010PropOp39
 70
     1
102
RTVSPost2010Prop40
 90
        0
102
RTVSPost2010PropOp40
 70
     1
102
RTVSPost2010Prop41ColorIndex
 90
       18
102
RTVSPost2010Prop41ColorRGB
 90
        0
102
RTVSPost2010PropOp41
 70
     1
102
RTVSPost2010Prop42
 90
       50
102
RTVSPost2010PropOp42
 70
     1
102
RTVSPost2010Prop43
 90
        3
102
RTVSPost2010PropOp43
 70
     1
102
RTVSPost2010Prop44ColorIndex
 90
        5
102
RTVSPost2010Prop44ColorRGB
 90
      255
102
RTVSPost2010PropOp44
 70
     1
102
RTVSPost2010Prop45
280
     0
102
RTVSPost2010PropOp45
 70
     1
102
RTVSPost2010Prop46
 90
       50
102
RTVSPost2010PropOp46
 70
     1
102
RTVSPost2010Prop47
 90
       50
102
RTVSPost2010PropOp47
 70
     1
102
RTVSPost2010Prop48
 90
       50
102
RTVSPost2010PropOp48
 70
     1
102
RTVSPost2010Prop49
280
     0
102
RTVSPost2010PropOp49
 70
     1
102
RTVSPost2010Prop50
 90
       50
102
RTVSPost2010PropOp50
 70
     1
102
RTVSPost2010Prop51ColorIndex
 90
      256
102
RTVSPost2010Prop51ColorRGB
 90
-16777216
102
RTVSPost2010PropOp51
 70
     0
102
RTVSPost2010Prop52
140
1.0
102
RTVSPost2010PropOp52
 70
     0
102
RTVSPost2010Prop53
 90
        2
102
RTVSPost2010PropOp53
 70
     1
102
RTVSPost2010Prop54
  1
strokes_ogs.tif
102
RTVSPost2010PropOp54
 70
     1
102
RTVSPost2010Prop55
280
     0
102
RTVSPost2010PropOp55
 70
     1
102
RTVSPost2010Prop56
140
1.0
102
RTVSPost2010PropOp56
 70
     1
102
RTVSPost2010Prop57
140
1.0
102
RTVSPost2010PropOp57
 70
     1
  0
XRECORD
  5
2AF
102
{ACAD_REACTORS
330
2AE
102
}
330
2AE
100
AcDbXrecord
280
     1
102
RTVSPropertyOp0
 70
     1
102
RTVSPropertyOp1
 70
     1
102
RTVSPropertyOp2
 70
     1
102
RTVSPropertyOp3
 70
     1
102
RTVSPropertyOp4
 70
     1
102
RTVSPropertyOp5
 70
     1
102
RTVSPropertyOp6
 70
     1
102
RTVSPropertyOp7
 70
     1
102
RTVSPropertyOp8
 70
     1
102
RTVSPropertyOp9
 70
     1
102
RTVSPropertyOp10
 70
     1
102
RTVSPropertyOp11
 70
     1
102
RTVSPropertyOp12
 70
     1
102
RTVSPropertyOp13
 70
     1
102
RTVSPropertyOp14
 70
     1
102
RTVSPropertyOp15
 70
     1
102
RTVSPropertyOp16
 70
     1
102
RTVSPropertyOp17
 70
     1
102
RTVSPropertyOp18
 70
     1
102
RTVSPropertyOp19
 70
     1
102
RTVSPropertyOp20
 70
     1
102
RTVSPropertyOp21
 70
     1
102
RTVSPropertyOp22
 70
     1
102
RTVSPropertyOp23
 70
     1
102
RTVSPropertyOp24
 70
     1
102
RTVSPropertyOp25
 70
     1
102
RTVSPropertyOp26
 70
     1
102
RTVSPropertyOp27
 70
     1
102
RTVSPropertyOp28
 70
     1
102
RTVSPropertyOp29
 70
     1
102
RTVSPropertyOp30
 70
     1
102
RTVSPropertyOp31
 70
     1
102
RTVSPropertyOp32
 70
     1
102
RTVSPropertyOp33
 70
     1
102
RTVSPropertyOp34
 70
     1
102
RTVSPropertyOp35
 70
     1
102
RTVSPropertyOp36
 70
     1
102
RTVSPropertyOp37
 70
     1
102
RTVSPropertyOp38
 70
     1
102
RTVSPropertyOp39
 70
     1
102
RTVSPropertyOp40
 70
     1
102
RTVSPropertyOp41
 70
     1
102
RTVSPropertyOp42
 70
     1
102
RTVSPropertyOp43
 70
     1
102
RTVSPropertyOp44
 70
     1
102
RTVSPropertyOp45
 70
     1
102
RTVSPropertyOp46
 70
     1
102
RTVSPropertyOp47
 70
     1
102
RTVSPropertyOp48
 70
     1
102
RTVSPropertyOp49
 70
     1
102
RTVSPropertyOp50
 70
     1
102
RTVSPropertyOp51
 70
     0
102
RTVSPropertyOp52
 70
     0
102
RTVSPropertyOp53
 70
     1
102
RTVSPropertyOp54
 70
     1
102
RTVSPropertyOp55
 70
     1
102
RTVSPropertyOp56
 70
     1
102
RTVSPropertyOp57
 70
     1
102
RTVSPost2010Prop28
280
     0
102
RTVSPost2010PropOp28
 70
     1
102
RTVSPost2010Prop29
280
     1
102
RTVSPost2010PropOp29
 70
     1
102
RTVSPost2010Prop30
280
     1
102
RTVSPost2010PropOp30
 70
     1
102
RTVSPost2010Prop31
280
     0
102
RTVSPost2010PropOp31
 70
     1
102
RTVSPost2010Prop32
280
     0
102
RTVSPost2010PropOp32
 70
     1
102
RTVSPost2010Prop33
280
     0
102
RTVSPost2010PropOp33
 70
     1
102
RTVSPost2010Prop34
280
     0
102
RTVSPost2010PropOp34
 70
     1
102
RTVSPost2010Prop35
280
     0
102
RTVSPost2010PropOp35
 70
     1
102
RTVSPost2010Prop36
280
     0
102
RTVSPost2010PropOp36
 70
     1
102
RTVSPost2010Prop37
 90
       50
102
RTVSPost2010PropOp37
 70
     1
102
RTVSPost2010Prop38
140
0.0
102
RTVSPost2010PropOp38
 70
     1
102
RTVSPost2010Prop39
140
1.0
102
RTVSPost2010PropOp39
 70
     1
102
RTVSPost2010Prop40
 90
        0
102
RTVSPost2010PropOp40
 70
     1
102
RTVSPost2010Prop41ColorIndex
 90
       18
102
RTVSPost2010Prop41ColorRGB
 90
        0
102
RTVSPost2010PropOp41
 70
     1
102
RTVSPost2010Prop42
 90
       50
102
RTVSPost2010PropOp42
 70
     1
102
RTVSPost2010Prop43
 90
        3
102
RTVSPost2010PropOp43
 70
     1
102
RTVSPost2010Prop44ColorIndex
 90
        5
102
RTVSPost2010Prop44ColorRGB
 90
      255
102
RTVSPost2010PropOp44
 70
     1
102
RTVSPost2010Prop45
280
     0
102
RTVSPost2010PropOp45
 70
     1
102
RTVSPost2010Prop46
 90
       50
102
RTVSPost2010PropOp46
 70
     1
102
RTVSPost2010Prop47
 90
       50
102
RTVSPost2010PropOp47
 70
     1
102
RTVSPost2010Prop48
 90
       50
102
RTVSPost2010PropOp48
 70
     1
102
RTVSPost2010Prop49
280
     0
102
RTVSPost2010PropOp49
 70
     1
102
RTVSPost2010Prop50
 90
       50
102
RTVSPost2010PropOp50
 70
     1
102
RTVSPost2010Prop51ColorIndex
 90
      256
102
RTVSPost2010Prop51ColorRGB
 90
-16777216
102
RTVSPost2010PropOp51
 70
     0
102
RTVSPost2010Prop52
140
1.0
102
RTVSPost2010PropOp52
 70
     0
102
RTVSPost2010Prop53
 90
        2
102
RTVSPost2010PropOp53
 70
     1
102
RTVSPost2010Prop54
  1
strokes_ogs.tif
102
RTVSPost2010PropOp54
 70
     1
102
RTVSPost2010Prop55
280
     0
102
RTVSPost2010PropOp55
 70
     1
102
RTVSPost2010Prop56
140
1.0
102
RTVSPost2010PropOp56
 70
     1
102
RTVSPost2010Prop57
140
1.0
102
RTVSPost2010PropOp57
 70
     1
  0
XRECORD
  5
2B1
102
{ACAD_REACTORS
330
2B0
102
}
330
2B0
100
AcDbXrecord
280
     1
102
RTVSPropertyOp0
 70
     1
102
RTVSPropertyOp1
 70
     1
102
RTVSPropertyOp2
 70
     1
102
RTVSPropertyOp3
 70
     1
102
RTVSPropertyOp4
 70
     1
102
RTVSPropertyOp5
 70
     1
102
RTVSPropertyOp6
 70
     1
102
RTVSPropertyOp7
 70
     1
102
RTVSPropertyOp8
 70
     1
102
RTVSPropertyOp9
 70
     1
102
RTVSPropertyOp10
 70
     1
102
RTVSPropertyOp11
 70
     1
102
RTVSPropertyOp12
 70
     1
102
RTVSPropertyOp13
 70
     1
102
RTVSPropertyOp14
 70
     1
102
RTVSPropertyOp15
 70
     1
102
RTVSPropertyOp16
 70
     1
102
RTVSPropertyOp17
 70
     1
102
RTVSPropertyOp18
 70
     1
102
RTVSPropertyOp19
 70
     1
102
RTVSPropertyOp20
 70
     1
102
RTVSPropertyOp21
 70
     1
102
RTVSPropertyOp22
 70
     1
102
RTVSPropertyOp23
 70
     1
102
RTVSPropertyOp24
 70
     1
102
RTVSPropertyOp25
 70
     1
102
RTVSPropertyOp26
 70
     1
102
RTVSPropertyOp27
 70
     1
102
RTVSPropertyOp28
 70
     1
102
RTVSPropertyOp29
 70
     1
102
RTVSPropertyOp30
 70
     1
102
RTVSPropertyOp31
 70
     1
102
RTVSPropertyOp32
 70
     1
102
RTVSPropertyOp33
 70
     1
102
RTVSPropertyOp34
 70
     1
102
RTVSPropertyOp35
 70
     1
102
RTVSPropertyOp36
 70
     1
102
RTVSPropertyOp37
 70
     1
102
RTVSPropertyOp38
 70
     1
102
RTVSPropertyOp39
 70
     1
102
RTVSPropertyOp40
 70
     1
102
RTVSPropertyOp41
 70
     1
102
RTVSPropertyOp42
 70
     1
102
RTVSPropertyOp43
 70
     1
102
RTVSPropertyOp44
 70
     1
102
RTVSPropertyOp45
 70
     1
102
RTVSPropertyOp46
 70
     1
102
RTVSPropertyOp47
 70
     1
102
RTVSPropertyOp48
 70
     1
102
RTVSPropertyOp49
 70
     1
102
RTVSPropertyOp50
 70
     1
102
RTVSPropertyOp51
 70
     0
102
RTVSPropertyOp52
 70
     0
102
RTVSPropertyOp53
 70
     1
102
RTVSPropertyOp54
 70
     1
102
RTVSPropertyOp55
 70
     1
102
RTVSPropertyOp56
 70
     1
102
RTVSPropertyOp57
 70
     1
102
RTVSPost2010Prop28
280
     0
102
RTVSPost2010PropOp28
 70
     1
102
RTVSPost2010Prop29
280
     1
102
RTVSPost2010PropOp29
 70
     1
102
RTVSPost2010Prop30
280
     1
102
RTVSPost2010PropOp30
 70
     1
102
RTVSPost2010Prop31
280
     0
102
RTVSPost2010PropOp31
 70
     1
102
RTVSPost2010Prop32
280
     0
102
RTVSPost2010PropOp32
 70
     1
102
RTVSPost2010Prop33
280
     0
102
RTVSPost2010PropOp33
 70
     1
102
RTVSPost2010Prop34
280
     0
102
RTVSPost2010PropOp34
 70
     1
102
RTVSPost2010Prop35
280
     0
102
RTVSPost2010PropOp35
 70
     1
102
RTVSPost2010Prop36
280
     0
102
RTVSPost2010PropOp36
 70
     1
102
RTVSPost2010Prop37
 90
       50
102
RTVSPost2010PropOp37
 70
     1
102
RTVSPost2010Prop38
140
0.0
102
RTVSPost2010PropOp38
 70
     1
102
RTVSPost2010Prop39
140
1.0
102
RTVSPost2010PropOp39
 70
     1
102
RTVSPost2010Prop40
 90
        0
102
RTVSPost2010PropOp40
 70
     1
102
RTVSPost2010Prop41ColorIndex
 90
       18
102
RTVSPost2010Prop41ColorRGB
 90
        0
102
RTVSPost2010PropOp41
 70
     1
102
RTVSPost2010Prop42
 90
       50
102
RTVSPost2010PropOp42
 70
     1
102
RTVSPost2010Prop43
 90
        3
102
RTVSPost2010PropOp43
 70
     1
102
RTVSPost2010Prop44ColorIndex
 90
        5
102
RTVSPost2010Prop44ColorRGB
 90
      255
102
RTVSPost2010PropOp44
 70
     1
102
RTVSPost2010Prop45
280
     0
102
RTVSPost2010PropOp45
 70
     1
102
RTVSPost2010Prop46
 90
       50
102
RTVSPost2010PropOp46
 70
     1
102
RTVSPost2010Prop47
 90
       50
102
RTVSPost2010PropOp47
 70
     1
102
RTVSPost2010Prop48
 90
       50
102
RTVSPost2010PropOp48
 70
     1
102
RTVSPost2010Prop49
280
     0
102
RTVSPost2010PropOp49
 70
     1
102
RTVSPost2010Prop50
 90
       50
102
RTVSPost2010PropOp50
 70
     1
102
RTVSPost2010Prop51ColorIndex
 90
      256
102
RTVSPost2010Prop51ColorRGB
 90
-16777216
102
RTVSPost2010PropOp51
 70
     0
102
RTVSPost2010Prop52
140
1.0
102
RTVSPost2010PropOp52
 70
     0
102
RTVSPost2010Prop53
 90
        2
102
RTVSPost2010PropOp53
 70
     1
102
RTVSPost2010Prop54
  1
strokes_ogs.tif
102
RTVSPost2010PropOp54
 70
     1
102
RTVSPost2010Prop55
280
     0
102
RTVSPost2010PropOp55
 70
     1
102
RTVSPost2010Prop56
140
1.0
102
RTVSPost2010PropOp56
 70
     1
102
RTVSPost2010Prop57
140
1.0
102
RTVSPost2010PropOp57
 70
     1
  0
XRECORD
  5
2B7
102
{ACAD_REACTORS
330
2B6
102
}
330
2B6
100
AcDbXrecord
280
     1
102
RTVSPropertyOp0
 70
     1
102
RTVSPropertyOp1
 70
     1
102
RTVSPropertyOp2
 70
     1
102
RTVSPropertyOp3
 70
     1
102
RTVSPropertyOp4
 70
     1
102
RTVSPropertyOp5
 70
     1
102
RTVSPropertyOp6
 70
     1
102
RTVSPropertyOp7
 70
     1
102
RTVSPropertyOp8
 70
     1
102
RTVSPropertyOp9
 70
     1
102
RTVSPropertyOp10
 70
     1
102
RTVSPropertyOp11
 70
     1
102
RTVSPropertyOp12
 70
     1
102
RTVSPropertyOp13
 70
     1
102
RTVSPropertyOp14
 70
     1
102
RTVSPropertyOp15
 70
     1
102
RTVSPropertyOp16
 70
     1
102
RTVSPropertyOp17
 70
     1
102
RTVSPropertyOp18
 70
     1
102
RTVSPropertyOp19
 70
     1
102
RTVSPropertyOp20
 70
     1
102
RTVSPropertyOp21
 70
     1
102
RTVSPropertyOp22
 70
     1
102
RTVSPropertyOp23
 70
     1
102
RTVSPropertyOp24
 70
     1
102
RTVSPropertyOp25
 70
     1
102
RTVSPropertyOp26
 70
     1
102
RTVSPropertyOp27
 70
     1
102
RTVSPropertyOp28
 70
     1
102
RTVSPropertyOp29
 70
     1
102
RTVSPropertyOp30
 70
     1
102
RTVSPropertyOp31
 70
     1
102
RTVSPropertyOp32
 70
     1
102
RTVSPropertyOp33
 70
     1
102
RTVSPropertyOp34
 70
     1
102
RTVSPropertyOp35
 70
     1
102
RTVSPropertyOp36
 70
     1
102
RTVSPropertyOp37
 70
     1
102
RTVSPropertyOp38
 70
     1
102
RTVSPropertyOp39
 70
     1
102
RTVSPropertyOp40
 70
     1
102
RTVSPropertyOp41
 70
     1
102
RTVSPropertyOp42
 70
     1
102
RTVSPropertyOp43
 70
     1
102
RTVSPropertyOp44
 70
     1
102
RTVSPropertyOp45
 70
     1
102
RTVSPropertyOp46
 70
     1
102
RTVSPropertyOp47
 70
     1
102
RTVSPropertyOp48
 70
     1
102
RTVSPropertyOp49
 70
     1
102
RTVSPropertyOp50
 70
     1
102
RTVSPropertyOp51
 70
     0
102
RTVSPropertyOp52
 70
     0
102
RTVSPropertyOp53
 70
     1
102
RTVSPropertyOp54
 70
     1
102
RTVSPropertyOp55
 70
     1
102
RTVSPropertyOp56
 70
     1
102
RTVSPropertyOp57
 70
     1
102
RTVSPost2010Prop28
280
     0
102
RTVSPost2010PropOp28
 70
     1
102
RTVSPost2010Prop29
280
     1
102
RTVSPost2010PropOp29
 70
     1
102
RTVSPost2010Prop30
280
     1
102
RTVSPost2010PropOp30
 70
     1
102
RTVSPost2010Prop31
280
     0
102
RTVSPost2010PropOp31
 70
     1
102
RTVSPost2010Prop32
280
     0
102
RTVSPost2010PropOp32
 70
     1
102
RTVSPost2010Prop33
280
     0
102
RTVSPost2010PropOp33
 70
     1
102
RTVSPost2010Prop34
280
     0
102
RTVSPost2010PropOp34
 70
     1
102
RTVSPost2010Prop35
280
     0
102
RTVSPost2010PropOp35
 70
     1
102
RTVSPost2010Prop36
280
     0
102
RTVSPost2010PropOp36
 70
     1
102
RTVSPost2010Prop37
 90
       50
102
RTVSPost2010PropOp37
 70
     1
102
RTVSPost2010Prop38
140
0.0
102
RTVSPost2010PropOp38
 70
     1
102
RTVSPost2010Prop39
140
1.0
102
RTVSPost2010PropOp39
 70
     1
102
RTVSPost2010Prop40
 90
        0
102
RTVSPost2010PropOp40
 70
     1
102
RTVSPost2010Prop41ColorIndex
 90
       18
102
RTVSPost2010Prop41ColorRGB
 90
        0
102
RTVSPost2010PropOp41
 70
     1
102
RTVSPost2010Prop42
 90
       50
102
RTVSPost2010PropOp42
 70
     1
102
RTVSPost2010Prop43
 90
        3
102
RTVSPost2010PropOp43
 70
     1
102
RTVSPost2010Prop44ColorIndex
 90
        5
102
RTVSPost2010Prop44ColorRGB
 90
      255
102
RTVSPost2010PropOp44
 70
     1
102
RTVSPost2010Prop45
280
     0
102
RTVSPost2010PropOp45
 70
     1
102
RTVSPost2010Prop46
 90
       50
102
RTVSPost2010PropOp46
 70
     1
102
RTVSPost2010Prop47
 90
       50
102
RTVSPost2010PropOp47
 70
     1
102
RTVSPost2010Prop48
 90
       50
102
RTVSPost2010PropOp48
 70
     1
102
RTVSPost2010Prop49
280
     0
102
RTVSPost2010PropOp49
 70
     1
102
RTVSPost2010Prop50
 90
       50
102
RTVSPost2010PropOp50
 70
     1
102
RTVSPost2010Prop51ColorIndex
 90
      256
102
RTVSPost2010Prop51ColorRGB
 90
-16777216
102
RTVSPost2010PropOp51
 70
     0
102
RTVSPost2010Prop52
140
1.0
102
RTVSPost2010PropOp52
 70
     0
102
RTVSPost2010Prop53
 90
        2
102
RTVSPost2010PropOp53
 70
     1
102
RTVSPost2010Prop54
  1
strokes_ogs.tif
102
RTVSPost2010PropOp54
 70
     1
102
RTVSPost2010Prop55
280
     0
102
RTVSPost2010PropOp55
 70
     1
102
RTVSPost2010Prop56
140
1.0
102
RTVSPost2010PropOp56
 70
     1
102
RTVSPost2010Prop57
140
1.0
102
RTVSPost2010PropOp57
 70
     1
  0
XRECORD
  5
2CB
102
{ACAD_REACTORS
330
2CA
102
}
330
2CA
100
AcDbXrecord
280
     1
102
RTVSPropertyOp0
 70
     0
102
RTVSPropertyOp1
 70
     0
102
RTVSPropertyOp2
 70
     0
102
RTVSPropertyOp3
 70
     0
102
RTVSPropertyOp4
 70
     0
102
RTVSPropertyOp5
 70
     0
102
RTVSPropertyOp6
 70
     0
102
RTVSPropertyOp7
 70
     0
102
RTVSPropertyOp8
 70
     0
102
RTVSPropertyOp9
 70
     0
102
RTVSPropertyOp10
 70
     0
102
RTVSPropertyOp11
 70
     0
102
RTVSPropertyOp12
 70
     0
102
RTVSPropertyOp13
 70
     0
102
RTVSPropertyOp14
 70
     2
102
RTVSPropertyOp15
 70
     0
102
RTVSPropertyOp16
 70
     0
102
RTVSPropertyOp17
 70
     0
102
RTVSPropertyOp18
 70
     0
102
RTVSPropertyOp19
 70
     0
102
RTVSPropertyOp20
 70
     0
102
RTVSPropertyOp21
 70
     0
102
RTVSPropertyOp22
 70
     0
102
RTVSPropertyOp23
 70
     0
102
RTVSPropertyOp24
 70
     0
102
RTVSPropertyOp25
 70
     0
102
RTVSPropertyOp26
 70
     0
102
RTVSPropertyOp27
 70
     0
102
RTVSPropertyOp28
 70
     0
102
RTVSPropertyOp29
 70
     0
102
RTVSPropertyOp30
 70
     0
102
RTVSPropertyOp31
 70
     0
102
RTVSPropertyOp32
 70
     0
102
RTVSPropertyOp33
 70
     0
102
RTVSPropertyOp34
 70
     0
102
RTVSPropertyOp35
 70
     0
102
RTVSPropertyOp36
 70
     0
102
RTVSPropertyOp37
 70
     0
102
RTVSPropertyOp38
 70
     0
102
RTVSPropertyOp39
 70
     0
102
RTVSPropertyOp40
 70
     0
102
RTVSPropertyOp41
 70
     0
102
RTVSPropertyOp42
 70
     0
102
RTVSPropertyOp43
 70
     0
102
RTVSPropertyOp44
 70
     0
102
RTVSPropertyOp45
 70
     0
102
RTVSPropertyOp46
 70
     0
102
RTVSPropertyOp47
 70
     0
102
RTVSPropertyOp48
 70
     0
102
RTVSPropertyOp49
 70
     0
102
RTVSPropertyOp50
 70
     0
102
RTVSPropertyOp51
 70
     0
102
RTVSPropertyOp52
 70
     0
102
RTVSPropertyOp53
 70
     0
102
RTVSPropertyOp54
 70
     0
102
RTVSPropertyOp55
 70
     0
102
RTVSPropertyOp56
 70
     0
102
RTVSPropertyOp57
 70
     0
102
RTVSPost2010Prop28
280
     0
102
RTVSPost2010PropOp28
 70
     0
102
RTVSPost2010Prop29
280
     1
102
RTVSPost2010PropOp29
 70
     0
102
RTVSPost2010Prop30
280
     1
102
RTVSPost2010PropOp30
 70
     0
102
RTVSPost2010Prop31
280
     0
102
RTVSPost2010PropOp31
 70
     0
102
RTVSPost2010Prop32
280
     0
102
RTVSPost2010PropOp32
 70
     0
102
RTVSPost2010Prop33
280
     0
102
RTVSPost2010PropOp33
 70
     0
102
RTVSPost2010Prop34
280
     0
102
RTVSPost2010PropOp34
 70
     0
102
RTVSPost2010Prop35
280
     0
102
RTVSPost2010PropOp35
 70
     0
102
RTVSPost2010Prop36
280
     0
102
RTVSPost2010PropOp36
 70
     0
102
RTVSPost2010Prop37
 90
       50
102
RTVSPost2010PropOp37
 70
     0
102
RTVSPost2010Prop38
140
0.0
102
RTVSPost2010PropOp38
 70
     0
102
RTVSPost2010Prop39
140
1.0
102
RTVSPost2010PropOp39
 70
     0
102
RTVSPost2010Prop40
 90
        0
102
RTVSPost2010PropOp40
 70
     0
102
RTVSPost2010Prop41ColorIndex
 90
       18
102
RTVSPost2010Prop41ColorRGB
 90
        0
102
RTVSPost2010PropOp41
 70
     0
102
RTVSPost2010Prop42
 90
       50
102
RTVSPost2010PropOp42
 70
     0
102
RTVSPost2010Prop43
 90
        3
102
RTVSPost2010PropOp43
 70
     0
102
RTVSPost2010Prop44ColorIndex
 90
        5
102
RTVSPost2010Prop44ColorRGB
 90
      255
102
RTVSPost2010PropOp44
 70
     0
102
RTVSPost2010Prop45
280
     0
102
RTVSPost2010PropOp45
 70
     0
102
RTVSPost2010Prop46
 90
       50
102
RTVSPost2010PropOp46
 70
     0
102
RTVSPost2010Prop47
 90
       50
102
RTVSPost2010PropOp47
 70
     0
102
RTVSPost2010Prop48
 90
       50
102
RTVSPost2010PropOp48
 70
     0
102
RTVSPost2010Prop49
280
     0
102
RTVSPost2010PropOp49
 70
     0
102
RTVSPost2010Prop50
 90
       50
102
RTVSPost2010PropOp50
 70
     0
102
RTVSPost2010Prop51ColorIndex
 90
      256
102
RTVSPost2010Prop51ColorRGB
 90
-16777216
102
RTVSPost2010PropOp51
 70
     0
102
RTVSPost2010Prop52
140
1.0
102
RTVSPost2010PropOp52
 70
     0
102
RTVSPost2010Prop53
 90
        2
102
RTVSPost2010PropOp53
 70
     0
102
RTVSPost2010Prop54
  1
strokes_ogs.tif
102
RTVSPost2010PropOp54
 70
     0
102
RTVSPost2010Prop55
280
     0
102
RTVSPost2010PropOp55
 70
     0
102
RTVSPost2010Prop56
140
1.0
102
RTVSPost2010PropOp56
 70
     0
102
RTVSPost2010Prop57
140
1.0
102
RTVSPost2010PropOp57
 70
     0
  0
XRECORD
  5
2C5
102
{ACAD_REACTORS
330
2C4
102
}
330
2C4
100
AcDbXrecord
280
     1
102
RTVSPropertyOp0
 70
     1
102
RTVSPropertyOp1
 70
     1
102
RTVSPropertyOp2
 70
     1
102
RTVSPropertyOp3
 70
     1
102
RTVSPropertyOp4
 70
     1
102
RTVSPropertyOp5
 70
     1
102
RTVSPropertyOp6
 70
     1
102
RTVSPropertyOp7
 70
     1
102
RTVSPropertyOp8
 70
     1
102
RTVSPropertyOp9
 70
     1
102
RTVSPropertyOp10
 70
     1
102
RTVSPropertyOp11
 70
     1
102
RTVSPropertyOp12
 70
     1
102
RTVSPropertyOp13
 70
     1
102
RTVSPropertyOp14
 70
     1
102
RTVSPropertyOp15
 70
     1
102
RTVSPropertyOp16
 70
     1
102
RTVSPropertyOp17
 70
     1
102
RTVSPropertyOp18
 70
     1
102
RTVSPropertyOp19
 70
     1
102
RTVSPropertyOp20
 70
     1
102
RTVSPropertyOp21
 70
     1
102
RTVSPropertyOp22
 70
     1
102
RTVSPropertyOp23
 70
     1
102
RTVSPropertyOp24
 70
     1
102
RTVSPropertyOp25
 70
     1
102
RTVSPropertyOp26
 70
     1
102
RTVSPropertyOp27
 70
     1
102
RTVSPropertyOp28
 70
     1
102
RTVSPropertyOp29
 70
     1
102
RTVSPropertyOp30
 70
     1
102
RTVSPropertyOp31
 70
     1
102
RTVSPropertyOp32
 70
     1
102
RTVSPropertyOp33
 70
     1
102
RTVSPropertyOp34
 70
     1
102
RTVSPropertyOp35
 70
     1
102
RTVSPropertyOp36
 70
     1
102
RTVSPropertyOp37
 70
     1
102
RTVSPropertyOp38
 70
     1
102
RTVSPropertyOp39
 70
     1
102
RTVSPropertyOp40
 70
     1
102
RTVSPropertyOp41
 70
     1
102
RTVSPropertyOp42
 70
     1
102
RTVSPropertyOp43
 70
     1
102
RTVSPropertyOp44
 70
     1
102
RTVSPropertyOp45
 70
     1
102
RTVSPropertyOp46
 70
     1
102
RTVSPropertyOp47
 70
     1
102
RTVSPropertyOp48
 70
     1
102
RTVSPropertyOp49
 70
     1
102
RTVSPropertyOp50
 70
     1
102
RTVSPropertyOp51
 70
     0
102
RTVSPropertyOp52
 70
     0
102
RTVSPropertyOp53
 70
     1
102
RTVSPropertyOp54
 70
     1
102
RTVSPropertyOp55
 70
     1
102
RTVSPropertyOp56
 70
     1
102
RTVSPropertyOp57
 70
     1
102
RTVSPost2010Prop28
280
     0
102
RTVSPost2010PropOp28
 70
     1
102
RTVSPost2010Prop29
280
     1
102
RTVSPost2010PropOp29
 70
     1
102
RTVSPost2010Prop30
280
     1
102
RTVSPost2010PropOp30
 70
     1
102
RTVSPost2010Prop31
280
     0
102
RTVSPost2010PropOp31
 70
     1
102
RTVSPost2010Prop32
280
     0
102
RTVSPost2010PropOp32
 70
     1
102
RTVSPost2010Prop33
280
     0
102
RTVSPost2010PropOp33
 70
     1
102
RTVSPost2010Prop34
280
     0
102
RTVSPost2010PropOp34
 70
     1
102
RTVSPost2010Prop35
280
     0
102
RTVSPost2010PropOp35
 70
     1
102
RTVSPost2010Prop36
280
     0
102
RTVSPost2010PropOp36
 70
     1
102
RTVSPost2010Prop37
 90
       50
102
RTVSPost2010PropOp37
 70
     1
102
RTVSPost2010Prop38
140
0.0
102
RTVSPost2010PropOp38
 70
     1
102
RTVSPost2010Prop39
140
1.0
102
RTVSPost2010PropOp39
 70
     1
102
RTVSPost2010Prop40
 90
        0
102
RTVSPost2010PropOp40
 70
     1
102
RTVSPost2010Prop41ColorIndex
 90
       18
102
RTVSPost2010Prop41ColorRGB
 90
        0
102
RTVSPost2010PropOp41
 70
     1
102
RTVSPost2010Prop42
 90
       50
102
RTVSPost2010PropOp42
 70
     1
102
RTVSPost2010Prop43
 90
        3
102
RTVSPost2010PropOp43
 70
     1
102
RTVSPost2010Prop44ColorIndex
 90
        5
102
RTVSPost2010Prop44ColorRGB
 90
      255
102
RTVSPost2010PropOp44
 70
     1
102
RTVSPost2010Prop45
280
     0
102
RTVSPost2010PropOp45
 70
     1
102
RTVSPost2010Prop46
 90
       50
102
RTVSPost2010PropOp46
 70
     1
102
RTVSPost2010Prop47
 90
       50
102
RTVSPost2010PropOp47
 70
     1
102
RTVSPost2010Prop48
 90
       50
102
RTVSPost2010PropOp48
 70
     1
102
RTVSPost2010Prop49
280
     0
102
RTVSPost2010PropOp49
 70
     1
102
RTVSPost2010Prop50
 90
       50
102
RTVSPost2010PropOp50
 70
     1
102
RTVSPost2010Prop51ColorIndex
 90
      256
102
RTVSPost2010Prop51ColorRGB
 90
-16777216
102
RTVSPost2010PropOp51
 70
     0
102
RTVSPost2010Prop52
140
1.0
102
RTVSPost2010PropOp52
 70
     0
102
RTVSPost2010Prop53
 90
        2
102
RTVSPost2010PropOp53
 70
     1
102
RTVSPost2010Prop54
  1
strokes_ogs.tif
102
RTVSPost2010PropOp54
 70
     1
102
RTVSPost2010Prop55
280
     0
102
RTVSPost2010PropOp55
 70
     1
102
RTVSPost2010Prop56
140
1.0
102
RTVSPost2010PropOp56
 70
     1
102
RTVSPost2010Prop57
140
1.0
102
RTVSPost2010PropOp57
 70
     1
  0
XRECORD
  5
2CD
102
{ACAD_REACTORS
330
2CC
102
}
330
2CC
100
AcDbXrecord
280
     1
102
RTVSPropertyOp0
 70
     0
102
RTVSPropertyOp1
 70
     0
102
RTVSPropertyOp2
 70
     0
102
RTVSPropertyOp3
 70
     0
102
RTVSPropertyOp4
 70
     0
102
RTVSPropertyOp5
 70
     0
102
RTVSPropertyOp6
 70
     0
102
RTVSPropertyOp7
 70
     0
102
RTVSPropertyOp8
 70
     0
102
RTVSPropertyOp9
 70
     0
102
RTVSPropertyOp10
 70
     0
102
RTVSPropertyOp11
 70
     0
102
RTVSPropertyOp12
 70
     0
102
RTVSPropertyOp13
 70
     0
102
RTVSPropertyOp14
 70
     2
102
RTVSPropertyOp15
 70
     0
102
RTVSPropertyOp16
 70
     0
102
RTVSPropertyOp17
 70
     0
102
RTVSPropertyOp18
 70
     0
102
RTVSPropertyOp19
 70
     0
102
RTVSPropertyOp20
 70
     0
102
RTVSPropertyOp21
 70
     0
102
RTVSPropertyOp22
 70
     0
102
RTVSPropertyOp23
 70
     0
102
RTVSPropertyOp24
 70
     0
102
RTVSPropertyOp25
 70
     0
102
RTVSPropertyOp26
 70
     0
102
RTVSPropertyOp27
 70
     0
102
RTVSPropertyOp28
 70
     0
102
RTVSPropertyOp29
 70
     0
102
RTVSPropertyOp30
 70
     0
102
RTVSPropertyOp31
 70
     0
102
RTVSPropertyOp32
 70
     0
102
RTVSPropertyOp33
 70
     0
102
RTVSPropertyOp34
 70
     0
102
RTVSPropertyOp35
 70
     0
102
RTVSPropertyOp36
 70
     0
102
RTVSPropertyOp37
 70
     0
102
RTVSPropertyOp38
 70
     0
102
RTVSPropertyOp39
 70
     0
102
RTVSPropertyOp40
 70
     0
102
RTVSPropertyOp41
 70
     0
102
RTVSPropertyOp42
 70
     0
102
RTVSPropertyOp43
 70
     0
102
RTVSPropertyOp44
 70
     0
102
RTVSPropertyOp45
 70
     0
102
RTVSPropertyOp46
 70
     0
102
RTVSPropertyOp47
 70
     0
102
RTVSPropertyOp48
 70
     0
102
RTVSPropertyOp49
 70
     0
102
RTVSPropertyOp50
 70
     0
102
RTVSPropertyOp51
 70
     0
102
RTVSPropertyOp52
 70
     0
102
RTVSPropertyOp53
 70
     0
102
RTVSPropertyOp54
 70
     0
102
RTVSPropertyOp55
 70
     0
102
RTVSPropertyOp56
 70
     0
102
RTVSPropertyOp57
 70
     0
102
RTVSPost2010Prop28
280
     0
102
RTVSPost2010PropOp28
 70
     0
102
RTVSPost2010Prop29
280
     1
102
RTVSPost2010PropOp29
 70
     0
102
RTVSPost2010Prop30
280
     1
102
RTVSPost2010PropOp30
 70
     0
102
RTVSPost2010Prop31
280
     0
102
RTVSPost2010PropOp31
 70
     0
102
RTVSPost2010Prop32
280
     0
102
RTVSPost2010PropOp32
 70
     0
102
RTVSPost2010Prop33
280
     0
102
RTVSPost2010PropOp33
 70
     0
102
RTVSPost2010Prop34
280
     0
102
RTVSPost2010PropOp34
 70
     0
102
RTVSPost2010Prop35
280
     0
102
RTVSPost2010PropOp35
 70
     0
102
RTVSPost2010Prop36
280
     0
102
RTVSPost2010PropOp36
 70
     0
102
RTVSPost2010Prop37
 90
       50
102
RTVSPost2010PropOp37
 70
     0
102
RTVSPost2010Prop38
140
0.0
102
RTVSPost2010PropOp38
 70
     0
102
RTVSPost2010Prop39
140
1.0
102
RTVSPost2010PropOp39
 70
     0
102
RTVSPost2010Prop40
 90
        0
102
RTVSPost2010PropOp40
 70
     0
102
RTVSPost2010Prop41ColorIndex
 90
       18
102
RTVSPost2010Prop41ColorRGB
 90
        0
102
RTVSPost2010PropOp41
 70
     0
102
RTVSPost2010Prop42
 90
       50
102
RTVSPost2010PropOp42
 70
     0
102
RTVSPost2010Prop43
 90
        3
102
RTVSPost2010PropOp43
 70
     0
102
RTVSPost2010Prop44ColorIndex
 90
        5
102
RTVSPost2010Prop44ColorRGB
 90
      255
102
RTVSPost2010PropOp44
 70
     0
102
RTVSPost2010Prop45
280
     0
102
RTVSPost2010PropOp45
 70
     0
102
RTVSPost2010Prop46
 90
       50
102
RTVSPost2010PropOp46
 70
     0
102
RTVSPost2010Prop47
 90
       50
102
RTVSPost2010PropOp47
 70
     0
102
RTVSPost2010Prop48
 90
       50
102
RTVSPost2010PropOp48
 70
     0
102
RTVSPost2010Prop49
280
     0
102
RTVSPost2010PropOp49
 70
     0
102
RTVSPost2010Prop50
 90
       50
102
RTVSPost2010PropOp50
 70
     0
102
RTVSPost2010Prop51ColorIndex
 90
      256
102
RTVSPost2010Prop51ColorRGB
 90
-16777216
102
RTVSPost2010PropOp51
 70
     0
102
RTVSPost2010Prop52
140
1.0
102
RTVSPost2010PropOp52
 70
     0
102
RTVSPost2010Prop53
 90
        2
102
RTVSPost2010PropOp53
 70
     0
102
RTVSPost2010Prop54
  1
strokes_ogs.tif
102
RTVSPost2010PropOp54
 70
     0
102
RTVSPost2010Prop55
280
     0
102
RTVSPost2010PropOp55
 70
     0
102
RTVSPost2010Prop56
140
1.0
102
RTVSPost2010PropOp56
 70
     0
102
RTVSPost2010Prop57
140
1.0
102
RTVSPost2010PropOp57
 70
     0
  0
XRECORD
  5
2BB
102
{ACAD_REACTORS
330
2BA
102
}
330
2BA
100
AcDbXrecord
280
     1
102
RTVSPropertyOp0
 70
     1
102
RTVSPropertyOp1
 70
     1
102
RTVSPropertyOp2
 70
     1
102
RTVSPropertyOp3
 70
     1
102
RTVSPropertyOp4
 70
     1
102
RTVSPropertyOp5
 70
     1
102
RTVSPropertyOp6
 70
     1
102
RTVSPropertyOp7
 70
     1
102
RTVSPropertyOp8
 70
     1
102
RTVSPropertyOp9
 70
     1
102
RTVSPropertyOp10
 70
     1
102
RTVSPropertyOp11
 70
     1
102
RTVSPropertyOp12
 70
     1
102
RTVSPropertyOp13
 70
     1
102
RTVSPropertyOp14
 70
     1
102
RTVSPropertyOp15
 70
     1
102
RTVSPropertyOp16
 70
     1
102
RTVSPropertyOp17
 70
     1
102
RTVSPropertyOp18
 70
     1
102
RTVSPropertyOp19
 70
     1
102
RTVSPropertyOp20
 70
     1
102
RTVSPropertyOp21
 70
     1
102
RTVSPropertyOp22
 70
     1
102
RTVSPropertyOp23
 70
     1
102
RTVSPropertyOp24
 70
     1
102
RTVSPropertyOp25
 70
     1
102
RTVSPropertyOp26
 70
     1
102
RTVSPropertyOp27
 70
     1
102
RTVSPropertyOp28
 70
     1
102
RTVSPropertyOp29
 70
     1
102
RTVSPropertyOp30
 70
     1
102
RTVSPropertyOp31
 70
     1
102
RTVSPropertyOp32
 70
     1
102
RTVSPropertyOp33
 70
     1
102
RTVSPropertyOp34
 70
     1
102
RTVSPropertyOp35
 70
     1
102
RTVSPropertyOp36
 70
     1
102
RTVSPropertyOp37
 70
     1
102
RTVSPropertyOp38
 70
     1
102
RTVSPropertyOp39
 70
     1
102
RTVSPropertyOp40
 70
     1
102
RTVSPropertyOp41
 70
     1
102
RTVSPropertyOp42
 70
     1
102
RTVSPropertyOp43
 70
     1
102
RTVSPropertyOp44
 70
     1
102
RTVSPropertyOp45
 70
     1
102
RTVSPropertyOp46
 70
     1
102
RTVSPropertyOp47
 70
     1
102
RTVSPropertyOp48
 70
     1
102
RTVSPropertyOp49
 70
     1
102
RTVSPropertyOp50
 70
     1
102
RTVSPropertyOp51
 70
     0
102
RTVSPropertyOp52
 70
     0
102
RTVSPropertyOp53
 70
     1
102
RTVSPropertyOp54
 70
     1
102
RTVSPropertyOp55
 70
     1
102
RTVSPropertyOp56
 70
     1
102
RTVSPropertyOp57
 70
     1
102
RTVSPost2010Prop28
280
     0
102
RTVSPost2010PropOp28
 70
     1
102
RTVSPost2010Prop29
280
     1
102
RTVSPost2010PropOp29
 70
     1
102
RTVSPost2010Prop30
280
     1
102
RTVSPost2010PropOp30
 70
     1
102
RTVSPost2010Prop31
280
     0
102
RTVSPost2010PropOp31
 70
     1
102
RTVSPost2010Prop32
280
     0
102
RTVSPost2010PropOp32
 70
     1
102
RTVSPost2010Prop33
280
     0
102
RTVSPost2010PropOp33
 70
     1
102
RTVSPost2010Prop34
280
     0
102
RTVSPost2010PropOp34
 70
     1
102
RTVSPost2010Prop35
280
     0
102
RTVSPost2010PropOp35
 70
     1
102
RTVSPost2010Prop36
280
     0
102
RTVSPost2010PropOp36
 70
     1
102
RTVSPost2010Prop37
 90
       50
102
RTVSPost2010PropOp37
 70
     1
102
RTVSPost2010Prop38
140
0.0
102
RTVSPost2010PropOp38
 70
     1
102
RTVSPost2010Prop39
140
1.0
102
RTVSPost2010PropOp39
 70
     1
102
RTVSPost2010Prop40
 90
        0
102
RTVSPost2010PropOp40
 70
     1
102
RTVSPost2010Prop41ColorIndex
 90
       18
102
RTVSPost2010Prop41ColorRGB
 90
        0
102
RTVSPost2010PropOp41
 70
     1
102
RTVSPost2010Prop42
 90
       50
102
RTVSPost2010PropOp42
 70
     1
102
RTVSPost2010Prop43
 90
        3
102
RTVSPost2010PropOp43
 70
     1
102
RTVSPost2010Prop44ColorIndex
 90
        5
102
RTVSPost2010Prop44ColorRGB
 90
      255
102
RTVSPost2010PropOp44
 70
     1
102
RTVSPost2010Prop45
280
     0
102
RTVSPost2010PropOp45
 70
     1
102
RTVSPost2010Prop46
 90
       50
102
RTVSPost2010PropOp46
 70
     1
102
RTVSPost2010Prop47
 90
       50
102
RTVSPost2010PropOp47
 70
     1
102
RTVSPost2010Prop48
 90
       50
102
RTVSPost2010PropOp48
 70
     1
102
RTVSPost2010Prop49
280
     0
102
RTVSPost2010PropOp49
 70
     1
102
RTVSPost2010Prop50
 90
       50
102
RTVSPost2010PropOp50
 70
     1
102
RTVSPost2010Prop51ColorIndex
 90
      256
102
RTVSPost2010Prop51ColorRGB
 90
-16777216
102
RTVSPost2010PropOp51
 70
     0
102
RTVSPost2010Prop52
140
1.0
102
RTVSPost2010PropOp52
 70
     0
102
RTVSPost2010Prop53
 90
        2
102
RTVSPost2010PropOp53
 70
     1
102
RTVSPost2010Prop54
  1
strokes_ogs.tif
102
RTVSPost2010PropOp54
 70
     1
102
RTVSPost2010Prop55
280
     0
102
RTVSPost2010PropOp55
 70
     1
102
RTVSPost2010Prop56
140
1.0
102
RTVSPost2010PropOp56
 70
     1
102
RTVSPost2010Prop57
140
1.0
102
RTVSPost2010PropOp57
 70
     1
  0
XRECORD
  5
2D9
102
{ACAD_REACTORS
330
2D8
102
}
330
2D8
100
AcDbXrecord
280
     1
102
RTVSPropertyOp0
 70
     1
102
RTVSPropertyOp1
 70
     1
102
RTVSPropertyOp2
 70
     1
102
RTVSPropertyOp3
 70
     1
102
RTVSPropertyOp4
 70
     1
102
RTVSPropertyOp5
 70
     1
102
RTVSPropertyOp6
 70
     1
102
RTVSPropertyOp7
 70
     1
102
RTVSPropertyOp8
 70
     1
102
RTVSPropertyOp9
 70
     1
102
RTVSPropertyOp10
 70
     1
102
RTVSPropertyOp11
 70
     1
102
RTVSPropertyOp12
 70
     1
102
RTVSPropertyOp13
 70
     1
102
RTVSPropertyOp14
 70
     1
102
RTVSPropertyOp15
 70
     1
102
RTVSPropertyOp16
 70
     1
102
RTVSPropertyOp17
 70
     1
102
RTVSPropertyOp18
 70
     1
102
RTVSPropertyOp19
 70
     1
102
RTVSPropertyOp20
 70
     1
102
RTVSPropertyOp21
 70
     1
102
RTVSPropertyOp22
 70
     1
102
RTVSPropertyOp23
 70
     1
102
RTVSPropertyOp24
 70
     1
102
RTVSPropertyOp25
 70
     1
102
RTVSPropertyOp26
 70
     1
102
RTVSPropertyOp27
 70
     1
102
RTVSPropertyOp28
 70
     1
102
RTVSPropertyOp29
 70
     1
102
RTVSPropertyOp30
 70
     1
102
RTVSPropertyOp31
 70
     1
102
RTVSPropertyOp32
 70
     1
102
RTVSPropertyOp33
 70
     1
102
RTVSPropertyOp34
 70
     1
102
RTVSPropertyOp35
 70
     1
102
RTVSPropertyOp36
 70
     1
102
RTVSPropertyOp37
 70
     1
102
RTVSPropertyOp38
 70
     1
102
RTVSPropertyOp39
 70
     1
102
RTVSPropertyOp40
 70
     1
102
RTVSPropertyOp41
 70
     1
102
RTVSPropertyOp42
 70
     1
102
RTVSPropertyOp43
 70
     1
102
RTVSPropertyOp44
 70
     1
102
RTVSPropertyOp45
 70
     1
102
RTVSPropertyOp46
 70
     1
102
RTVSPropertyOp47
 70
     1
102
RTVSPropertyOp48
 70
     1
102
RTVSPropertyOp49
 70
     1
102
RTVSPropertyOp50
 70
     1
102
RTVSPropertyOp51
 70
     0
102
RTVSPropertyOp52
 70
     0
102
RTVSPropertyOp53
 70
     1
102
RTVSPropertyOp54
 70
     1
102
RTVSPropertyOp55
 70
     1
102
RTVSPropertyOp56
 70
     1
102
RTVSPropertyOp57
 70
     1
102
RTVSPost2010Prop28
280
     0
102
RTVSPost2010PropOp28
 70
     1
102
RTVSPost2010Prop29
280
     1
102
RTVSPost2010PropOp29
 70
     1
102
RTVSPost2010Prop30
280
     1
102
RTVSPost2010PropOp30
 70
     1
102
RTVSPost2010Prop31
280
     0
102
RTVSPost2010PropOp31
 70
     1
102
RTVSPost2010Prop32
280
     0
102
RTVSPost2010PropOp32
 70
     1
102
RTVSPost2010Prop33
280
     0
102
RTVSPost2010PropOp33
 70
     1
102
RTVSPost2010Prop34
280
     0
102
RTVSPost2010PropOp34
 70
     1
102
RTVSPost2010Prop35
280
     0
102
RTVSPost2010PropOp35
 70
     1
102
RTVSPost2010Prop36
280
     0
102
RTVSPost2010PropOp36
 70
     1
102
RTVSPost2010Prop37
 90
       50
102
RTVSPost2010PropOp37
 70
     1
102
RTVSPost2010Prop38
140
0.0
102
RTVSPost2010PropOp38
 70
     1
102
RTVSPost2010Prop39
140
1.0
102
RTVSPost2010PropOp39
 70
     1
102
RTVSPost2010Prop40
 90
        0
102
RTVSPost2010PropOp40
 70
     1
102
RTVSPost2010Prop41ColorIndex
 90
       18
102
RTVSPost2010Prop41ColorRGB
 90
        0
102
RTVSPost2010PropOp41
 70
     1
102
RTVSPost2010Prop42
 90
       50
102
RTVSPost2010PropOp42
 70
     1
102
RTVSPost2010Prop43
 90
        3
102
RTVSPost2010PropOp43
 70
     1
102
RTVSPost2010Prop44ColorIndex
 90
        5
102
RTVSPost2010Prop44ColorRGB
 90
      255
102
RTVSPost2010PropOp44
 70
     1
102
RTVSPost2010Prop45
280
     0
102
RTVSPost2010PropOp45
 70
     1
102
RTVSPost2010Prop46
 90
       50
102
RTVSPost2010PropOp46
 70
     1
102
RTVSPost2010Prop47
 90
       50
102
RTVSPost2010PropOp47
 70
     1
102
RTVSPost2010Prop48
 90
       50
102
RTVSPost2010PropOp48
 70
     1
102
RTVSPost2010Prop49
280
     0
102
RTVSPost2010PropOp49
 70
     1
102
RTVSPost2010Prop50
 90
       50
102
RTVSPost2010PropOp50
 70
     1
102
RTVSPost2010Prop51ColorIndex
 90
      256
102
RTVSPost2010Prop51ColorRGB
 90
-16777216
102
RTVSPost2010PropOp51
 70
     0
102
RTVSPost2010Prop52
140
1.0
102
RTVSPost2010PropOp52
 70
     0
102
RTVSPost2010Prop53
 90
        2
102
RTVSPost2010PropOp53
 70
     1
102
RTVSPost2010Prop54
  1
strokes_ogs.tif
102
RTVSPost2010PropOp54
 70
     1
102
RTVSPost2010Prop55
280
     0
102
RTVSPost2010PropOp55
 70
     1
102
RTVSPost2010Prop56
140
1.0
102
RTVSPost2010PropOp56
 70
     1
102
RTVSPost2010Prop57
140
1.0
102
RTVSPost2010PropOp57
 70
     1
  0
XRECORD
  5
2D7
102
{ACAD_REACTORS
330
2D6
102
}
330
2D6
100
AcDbXrecord
280
     1
102
RTVSPropertyOp0
 70
     1
102
RTVSPropertyOp1
 70
     1
102
RTVSPropertyOp2
 70
     1
102
RTVSPropertyOp3
 70
     1
102
RTVSPropertyOp4
 70
     1
102
RTVSPropertyOp5
 70
     1
102
RTVSPropertyOp6
 70
     1
102
RTVSPropertyOp7
 70
     1
102
RTVSPropertyOp8
 70
     1
102
RTVSPropertyOp9
 70
     1
102
RTVSPropertyOp10
 70
     1
102
RTVSPropertyOp11
 70
     1
102
RTVSPropertyOp12
 70
     1
102
RTVSPropertyOp13
 70
     1
102
RTVSPropertyOp14
 70
     1
102
RTVSPropertyOp15
 70
     1
102
RTVSPropertyOp16
 70
     1
102
RTVSPropertyOp17
 70
     1
102
RTVSPropertyOp18
 70
     1
102
RTVSPropertyOp19
 70
     1
102
RTVSPropertyOp20
 70
     1
102
RTVSPropertyOp21
 70
     1
102
RTVSPropertyOp22
 70
     1
102
RTVSPropertyOp23
 70
     1
102
RTVSPropertyOp24
 70
     1
102
RTVSPropertyOp25
 70
     1
102
RTVSPropertyOp26
 70
     1
102
RTVSPropertyOp27
 70
     1
102
RTVSPropertyOp28
 70
     1
102
RTVSPropertyOp29
 70
     1
102
RTVSPropertyOp30
 70
     1
102
RTVSPropertyOp31
 70
     1
102
RTVSPropertyOp32
 70
     1
102
RTVSPropertyOp33
 70
     1
102
RTVSPropertyOp34
 70
     1
102
RTVSPropertyOp35
 70
     1
102
RTVSPropertyOp36
 70
     1
102
RTVSPropertyOp37
 70
     1
102
RTVSPropertyOp38
 70
     1
102
RTVSPropertyOp39
 70
     1
102
RTVSPropertyOp40
 70
     1
102
RTVSPropertyOp41
 70
     1
102
RTVSPropertyOp42
 70
     1
102
RTVSPropertyOp43
 70
     1
102
RTVSPropertyOp44
 70
     1
102
RTVSPropertyOp45
 70
     1
102
RTVSPropertyOp46
 70
     1
102
RTVSPropertyOp47
 70
     1
102
RTVSPropertyOp48
 70
     1
102
RTVSPropertyOp49
 70
     1
102
RTVSPropertyOp50
 70
     1
102
RTVSPropertyOp51
 70
     0
102
RTVSPropertyOp52
 70
     0
102
RTVSPropertyOp53
 70
     1
102
RTVSPropertyOp54
 70
     1
102
RTVSPropertyOp55
 70
     1
102
RTVSPropertyOp56
 70
     1
102
RTVSPropertyOp57
 70
     1
102
RTVSPost2010Prop28
280
     0
102
RTVSPost2010PropOp28
 70
     1
102
RTVSPost2010Prop29
280
     1
102
RTVSPost2010PropOp29
 70
     1
102
RTVSPost2010Prop30
280
     1
102
RTVSPost2010PropOp30
 70
     1
102
RTVSPost2010Prop31
280
     0
102
RTVSPost2010PropOp31
 70
     1
102
RTVSPost2010Prop32
280
     0
102
RTVSPost2010PropOp32
 70
     1
102
RTVSPost2010Prop33
280
     0
102
RTVSPost2010PropOp33
 70
     1
102
RTVSPost2010Prop34
280
     0
102
RTVSPost2010PropOp34
 70
     1
102
RTVSPost2010Prop35
280
     0
102
RTVSPost2010PropOp35
 70
     1
102
RTVSPost2010Prop36
280
     0
102
RTVSPost2010PropOp36
 70
     1
102
RTVSPost2010Prop37
 90
       50
102
RTVSPost2010PropOp37
 70
     1
102
RTVSPost2010Prop38
140
0.0
102
RTVSPost2010PropOp38
 70
     1
102
RTVSPost2010Prop39
140
1.0
102
RTVSPost2010PropOp39
 70
     1
102
RTVSPost2010Prop40
 90
        0
102
RTVSPost2010PropOp40
 70
     1
102
RTVSPost2010Prop41ColorIndex
 90
       18
102
RTVSPost2010Prop41ColorRGB
 90
        0
102
RTVSPost2010PropOp41
 70
     1
102
RTVSPost2010Prop42
 90
       50
102
RTVSPost2010PropOp42
 70
     1
102
RTVSPost2010Prop43
 90
        3
102
RTVSPost2010PropOp43
 70
     1
102
RTVSPost2010Prop44ColorIndex
 90
        5
102
RTVSPost2010Prop44ColorRGB
 90
      255
102
RTVSPost2010PropOp44
 70
     1
102
RTVSPost2010Prop45
280
     0
102
RTVSPost2010PropOp45
 70
     1
102
RTVSPost2010Prop46
 90
       50
102
RTVSPost2010PropOp46
 70
     1
102
RTVSPost2010Prop47
 90
       50
102
RTVSPost2010PropOp47
 70
     1
102
RTVSPost2010Prop48
 90
       50
102
RTVSPost2010PropOp48
 70
     1
102
RTVSPost2010Prop49
280
     0
102
RTVSPost2010PropOp49
 70
     1
102
RTVSPost2010Prop50
 90
       50
102
RTVSPost2010PropOp50
 70
     1
102
RTVSPost2010Prop51ColorIndex
 90
      256
102
RTVSPost2010Prop51ColorRGB
 90
-16777216
102
RTVSPost2010PropOp51
 70
     0
102
RTVSPost2010Prop52
140
1.0
102
RTVSPost2010PropOp52
 70
     0
102
RTVSPost2010Prop53
 90
        2
102
RTVSPost2010PropOp53
 70
     1
102
RTVSPost2010Prop54
  1
strokes_ogs.tif
102
RTVSPost2010PropOp54
 70
     1
102
RTVSPost2010Prop55
280
     0
102
RTVSPost2010PropOp55
 70
     1
102
RTVSPost2010Prop56
140
1.0
102
RTVSPost2010PropOp56
 70
     1
102
RTVSPost2010Prop57
140
1.0
102
RTVSPost2010PropOp57
 70
     1
  0
XRECORD
  5
2D1
102
{ACAD_REACTORS
330
2D0
102
}
330
2D0
100
AcDbXrecord
280
     1
102
RTVSPropertyOp0
 70
     1
102
RTVSPropertyOp1
 70
     1
102
RTVSPropertyOp2
 70
     1
102
RTVSPropertyOp3
 70
     1
102
RTVSPropertyOp4
 70
     1
102
RTVSPropertyOp5
 70
     1
102
RTVSPropertyOp6
 70
     1
102
RTVSPropertyOp7
 70
     1
102
RTVSPropertyOp8
 70
     1
102
RTVSPropertyOp9
 70
     1
102
RTVSPropertyOp10
 70
     1
102
RTVSPropertyOp11
 70
     1
102
RTVSPropertyOp12
 70
     1
102
RTVSPropertyOp13
 70
     1
102
RTVSPropertyOp14
 70
     1
102
RTVSPropertyOp15
 70
     1
102
RTVSPropertyOp16
 70
     1
102
RTVSPropertyOp17
 70
     1
102
RTVSPropertyOp18
 70
     1
102
RTVSPropertyOp19
 70
     1
102
RTVSPropertyOp20
 70
     1
102
RTVSPropertyOp21
 70
     1
102
RTVSPropertyOp22
 70
     1
102
RTVSPropertyOp23
 70
     1
102
RTVSPropertyOp24
 70
     1
102
RTVSPropertyOp25
 70
     1
102
RTVSPropertyOp26
 70
     1
102
RTVSPropertyOp27
 70
     1
102
RTVSPropertyOp28
 70
     1
102
RTVSPropertyOp29
 70
     1
102
RTVSPropertyOp30
 70
     1
102
RTVSPropertyOp31
 70
     1
102
RTVSPropertyOp32
 70
     1
102
RTVSPropertyOp33
 70
     1
102
RTVSPropertyOp34
 70
     1
102
RTVSPropertyOp35
 70
     1
102
RTVSPropertyOp36
 70
     1
102
RTVSPropertyOp37
 70
     1
102
RTVSPropertyOp38
 70
     1
102
RTVSPropertyOp39
 70
     1
102
RTVSPropertyOp40
 70
     1
102
RTVSPropertyOp41
 70
     1
102
RTVSPropertyOp42
 70
     1
102
RTVSPropertyOp43
 70
     1
102
RTVSPropertyOp44
 70
     1
102
RTVSPropertyOp45
 70
     1
102
RTVSPropertyOp46
 70
     1
102
RTVSPropertyOp47
 70
     1
102
RTVSPropertyOp48
 70
     1
102
RTVSPropertyOp49
 70
     1
102
RTVSPropertyOp50
 70
     1
102
RTVSPropertyOp51
 70
     0
102
RTVSPropertyOp52
 70
     0
102
RTVSPropertyOp53
 70
     1
102
RTVSPropertyOp54
 70
     1
102
RTVSPropertyOp55
 70
     1
102
RTVSPropertyOp56
 70
     1
102
RTVSPropertyOp57
 70
     1
102
RTVSPost2010Prop28
280
     0
102
RTVSPost2010PropOp28
 70
     1
102
RTVSPost2010Prop29
280
     1
102
RTVSPost2010PropOp29
 70
     1
102
RTVSPost2010Prop30
280
     1
102
RTVSPost2010PropOp30
 70
     1
102
RTVSPost2010Prop31
280
     0
102
RTVSPost2010PropOp31
 70
     1
102
RTVSPost2010Prop32
280
     0
102
RTVSPost2010PropOp32
 70
     1
102
RTVSPost2010Prop33
280
     0
102
RTVSPost2010PropOp33
 70
     1
102
RTVSPost2010Prop34
280
     0
102
RTVSPost2010PropOp34
 70
     1
102
RTVSPost2010Prop35
280
     0
102
RTVSPost2010PropOp35
 70
     1
102
RTVSPost2010Prop36
280
     0
102
RTVSPost2010PropOp36
 70
     1
102
RTVSPost2010Prop37
 90
       50
102
RTVSPost2010PropOp37
 70
     1
102
RTVSPost2010Prop38
140
0.0
102
RTVSPost2010PropOp38
 70
     1
102
RTVSPost2010Prop39
140
1.0
102
RTVSPost2010PropOp39
 70
     1
102
RTVSPost2010Prop40
 90
        0
102
RTVSPost2010PropOp40
 70
     1
102
RTVSPost2010Prop41ColorIndex
 90
       18
102
RTVSPost2010Prop41ColorRGB
 90
        0
102
RTVSPost2010PropOp41
 70
     1
102
RTVSPost2010Prop42
 90
       50
102
RTVSPost2010PropOp42
 70
     1
102
RTVSPost2010Prop43
 90
        3
102
RTVSPost2010PropOp43
 70
     1
102
RTVSPost2010Prop44ColorIndex
 90
        5
102
RTVSPost2010Prop44ColorRGB
 90
      255
102
RTVSPost2010PropOp44
 70
     1
102
RTVSPost2010Prop45
280
     0
102
RTVSPost2010PropOp45
 70
     1
102
RTVSPost2010Prop46
 90
       50
102
RTVSPost2010PropOp46
 70
     1
102
RTVSPost2010Prop47
 90
       50
102
RTVSPost2010PropOp47
 70
     1
102
RTVSPost2010Prop48
 90
       50
102
RTVSPost2010PropOp48
 70
     1
102
RTVSPost2010Prop49
280
     0
102
RTVSPost2010PropOp49
 70
     1
102
RTVSPost2010Prop50
 90
       50
102
RTVSPost2010PropOp50
 70
     1
102
RTVSPost2010Prop51ColorIndex
 90
      256
102
RTVSPost2010Prop51ColorRGB
 90
-16777216
102
RTVSPost2010PropOp51
 70
     0
102
RTVSPost2010Prop52
140
1.0
102
RTVSPost2010PropOp52
 70
     0
102
RTVSPost2010Prop53
 90
        2
102
RTVSPost2010PropOp53
 70
     1
102
RTVSPost2010Prop54
  1
strokes_ogs.tif
102
RTVSPost2010PropOp54
 70
     1
102
RTVSPost2010Prop55
280
     0
102
RTVSPost2010PropOp55
 70
     1
102
RTVSPost2010Prop56
140
1.0
102
RTVSPost2010PropOp56
 70
     1
102
RTVSPost2010Prop57
140
1.0
102
RTVSPost2010PropOp57
 70
     1
  0
XRECORD
  5
2D3
102
{ACAD_REACTORS
330
2D2
102
}
330
2D2
100
AcDbXrecord
280
     1
102
RTVSPropertyOp0
 70
     1
102
RTVSPropertyOp1
 70
     1
102
RTVSPropertyOp2
 70
     1
102
RTVSPropertyOp3
 70
     1
102
RTVSPropertyOp4
 70
     1
102
RTVSPropertyOp5
 70
     1
102
RTVSPropertyOp6
 70
     1
102
RTVSPropertyOp7
 70
     1
102
RTVSPropertyOp8
 70
     1
102
RTVSPropertyOp9
 70
     1
102
RTVSPropertyOp10
 70
     1
102
RTVSPropertyOp11
 70
     1
102
RTVSPropertyOp12
 70
     1
102
RTVSPropertyOp13
 70
     1
102
RTVSPropertyOp14
 70
     1
102
RTVSPropertyOp15
 70
     1
102
RTVSPropertyOp16
 70
     1
102
RTVSPropertyOp17
 70
     1
102
RTVSPropertyOp18
 70
     1
102
RTVSPropertyOp19
 70
     1
102
RTVSPropertyOp20
 70
     1
102
RTVSPropertyOp21
 70
     1
102
RTVSPropertyOp22
 70
     1
102
RTVSPropertyOp23
 70
     1
102
RTVSPropertyOp24
 70
     1
102
RTVSPropertyOp25
 70
     1
102
RTVSPropertyOp26
 70
     1
102
RTVSPropertyOp27
 70
     1
102
RTVSPropertyOp28
 70
     1
102
RTVSPropertyOp29
 70
     1
102
RTVSPropertyOp30
 70
     1
102
RTVSPropertyOp31
 70
     1
102
RTVSPropertyOp32
 70
     1
102
RTVSPropertyOp33
 70
     1
102
RTVSPropertyOp34
 70
     1
102
RTVSPropertyOp35
 70
     1
102
RTVSPropertyOp36
 70
     1
102
RTVSPropertyOp37
 70
     1
102
RTVSPropertyOp38
 70
     1
102
RTVSPropertyOp39
 70
     1
102
RTVSPropertyOp40
 70
     1
102
RTVSPropertyOp41
 70
     1
102
RTVSPropertyOp42
 70
     1
102
RTVSPropertyOp43
 70
     1
102
RTVSPropertyOp44
 70
     1
102
RTVSPropertyOp45
 70
     1
102
RTVSPropertyOp46
 70
     1
102
RTVSPropertyOp47
 70
     1
102
RTVSPropertyOp48
 70
     1
102
RTVSPropertyOp49
 70
     1
102
RTVSPropertyOp50
 70
     1
102
RTVSPropertyOp51
 70
     0
102
RTVSPropertyOp52
 70
     0
102
RTVSPropertyOp53
 70
     1
102
RTVSPropertyOp54
 70
     1
102
RTVSPropertyOp55
 70
     1
102
RTVSPropertyOp56
 70
     1
102
RTVSPropertyOp57
 70
     1
102
RTVSPost2010Prop28
280
     0
102
RTVSPost2010PropOp28
 70
     1
102
RTVSPost2010Prop29
280
     1
102
RTVSPost2010PropOp29
 70
     1
102
RTVSPost2010Prop30
280
     1
102
RTVSPost2010PropOp30
 70
     1
102
RTVSPost2010Prop31
280
     0
102
RTVSPost2010PropOp31
 70
     1
102
RTVSPost2010Prop32
280
     0
102
RTVSPost2010PropOp32
 70
     1
102
RTVSPost2010Prop33
280
     0
102
RTVSPost2010PropOp33
 70
     1
102
RTVSPost2010Prop34
280
     0
102
RTVSPost2010PropOp34
 70
     1
102
RTVSPost2010Prop35
280
     0
102
RTVSPost2010PropOp35
 70
     1
102
RTVSPost2010Prop36
280
     0
102
RTVSPost2010PropOp36
 70
     1
102
RTVSPost2010Prop37
 90
       50
102
RTVSPost2010PropOp37
 70
     1
102
RTVSPost2010Prop38
140
0.0
102
RTVSPost2010PropOp38
 70
     1
102
RTVSPost2010Prop39
140
1.0
102
RTVSPost2010PropOp39
 70
     1
102
RTVSPost2010Prop40
 90
        0
102
RTVSPost2010PropOp40
 70
     1
102
RTVSPost2010Prop41ColorIndex
 90
       18
102
RTVSPost2010Prop41ColorRGB
 90
        0
102
RTVSPost2010PropOp41
 70
     1
102
RTVSPost2010Prop42
 90
       50
102
RTVSPost2010PropOp42
 70
     1
102
RTVSPost2010Prop43
 90
        3
102
RTVSPost2010PropOp43
 70
     1
102
RTVSPost2010Prop44ColorIndex
 90
        5
102
RTVSPost2010Prop44ColorRGB
 90
      255
102
RTVSPost2010PropOp44
 70
     1
102
RTVSPost2010Prop45
280
     0
102
RTVSPost2010PropOp45
 70
     1
102
RTVSPost2010Prop46
 90
       50
102
RTVSPost2010PropOp46
 70
     1
102
RTVSPost2010Prop47
 90
       50
102
RTVSPost2010PropOp47
 70
     1
102
RTVSPost2010Prop48
 90
       50
102
RTVSPost2010PropOp48
 70
     1
102
RTVSPost2010Prop49
280
     0
102
RTVSPost2010PropOp49
 70
     1
102
RTVSPost2010Prop50
 90
       50
102
RTVSPost2010PropOp50
 70
     1
102
RTVSPost2010Prop51ColorIndex
 90
      256
102
RTVSPost2010Prop51ColorRGB
 90
-16777216
102
RTVSPost2010PropOp51
 70
     0
102
RTVSPost2010Prop52
140
1.0
102
RTVSPost2010PropOp52
 70
     0
102
RTVSPost2010Prop53
 90
        2
102
RTVSPost2010PropOp53
 70
     1
102
RTVSPost2010Prop54
  1
strokes_ogs.tif
102
RTVSPost2010PropOp54
 70
     1
102
RTVSPost2010Prop55
280
     0
102
RTVSPost2010PropOp55
 70
     1
102
RTVSPost2010Prop56
140
1.0
102
RTVSPost2010PropOp56
 70
     1
102
RTVSPost2010Prop57
140
1.0
102
RTVSPost2010PropOp57
 70
     1
  0
XRECORD
  5
2C3
102
{ACAD_REACTORS
330
2C2
102
}
330
2C2
100
AcDbXrecord
280
     1
102
RTVSPropertyOp0
 70
     1
102
RTVSPropertyOp1
 70
     1
102
RTVSPropertyOp2
 70
     1
102
RTVSPropertyOp3
 70
     1
102
RTVSPropertyOp4
 70
     1
102
RTVSPropertyOp5
 70
     1
102
RTVSPropertyOp6
 70
     1
102
RTVSPropertyOp7
 70
     1
102
RTVSPropertyOp8
 70
     1
102
RTVSPropertyOp9
 70
     1
102
RTVSPropertyOp10
 70
     1
102
RTVSPropertyOp11
 70
     1
102
RTVSPropertyOp12
 70
     1
102
RTVSPropertyOp13
 70
     1
102
RTVSPropertyOp14
 70
     1
102
RTVSPropertyOp15
 70
     1
102
RTVSPropertyOp16
 70
     1
102
RTVSPropertyOp17
 70
     1
102
RTVSPropertyOp18
 70
     1
102
RTVSPropertyOp19
 70
     1
102
RTVSPropertyOp20
 70
     1
102
RTVSPropertyOp21
 70
     1
102
RTVSPropertyOp22
 70
     1
102
RTVSPropertyOp23
 70
     1
102
RTVSPropertyOp24
 70
     1
102
RTVSPropertyOp25
 70
     1
102
RTVSPropertyOp26
 70
     1
102
RTVSPropertyOp27
 70
     1
102
RTVSPropertyOp28
 70
     1
102
RTVSPropertyOp29
 70
     1
102
RTVSPropertyOp30
 70
     1
102
RTVSPropertyOp31
 70
     1
102
RTVSPropertyOp32
 70
     1
102
RTVSPropertyOp33
 70
     1
102
RTVSPropertyOp34
 70
     1
102
RTVSPropertyOp35
 70
     1
102
RTVSPropertyOp36
 70
     1
102
RTVSPropertyOp37
 70
     1
102
RTVSPropertyOp38
 70
     1
102
RTVSPropertyOp39
 70
     1
102
RTVSPropertyOp40
 70
     1
102
RTVSPropertyOp41
 70
     1
102
RTVSPropertyOp42
 70
     1
102
RTVSPropertyOp43
 70
     1
102
RTVSPropertyOp44
 70
     1
102
RTVSPropertyOp45
 70
     1
102
RTVSPropertyOp46
 70
     1
102
RTVSPropertyOp47
 70
     1
102
RTVSPropertyOp48
 70
     1
102
RTVSPropertyOp49
 70
     1
102
RTVSPropertyOp50
 70
     1
102
RTVSPropertyOp51
 70
     0
102
RTVSPropertyOp52
 70
     0
102
RTVSPropertyOp53
 70
     1
102
RTVSPropertyOp54
 70
     1
102
RTVSPropertyOp55
 70
     1
102
RTVSPropertyOp56
 70
     1
102
RTVSPropertyOp57
 70
     1
102
RTVSPost2010Prop28
280
     0
102
RTVSPost2010PropOp28
 70
     1
102
RTVSPost2010Prop29
280
     1
102
RTVSPost2010PropOp29
 70
     1
102
RTVSPost2010Prop30
280
     1
102
RTVSPost2010PropOp30
 70
     1
102
RTVSPost2010Prop31
280
     0
102
RTVSPost2010PropOp31
 70
     1
102
RTVSPost2010Prop32
280
     0
102
RTVSPost2010PropOp32
 70
     1
102
RTVSPost2010Prop33
280
     0
102
RTVSPost2010PropOp33
 70
     1
102
RTVSPost2010Prop34
280
     0
102
RTVSPost2010PropOp34
 70
     1
102
RTVSPost2010Prop35
280
     0
102
RTVSPost2010PropOp35
 70
     1
102
RTVSPost2010Prop36
280
     0
102
RTVSPost2010PropOp36
 70
     1
102
RTVSPost2010Prop37
 90
       50
102
RTVSPost2010PropOp37
 70
     1
102
RTVSPost2010Prop38
140
0.0
102
RTVSPost2010PropOp38
 70
     1
102
RTVSPost2010Prop39
140
1.0
102
RTVSPost2010PropOp39
 70
     1
102
RTVSPost2010Prop40
 90
        0
102
RTVSPost2010PropOp40
 70
     1
102
RTVSPost2010Prop41ColorIndex
 90
       18
102
RTVSPost2010Prop41ColorRGB
 90
        0
102
RTVSPost2010PropOp41
 70
     1
102
RTVSPost2010Prop42
 90
       50
102
RTVSPost2010PropOp42
 70
     1
102
RTVSPost2010Prop43
 90
        3
102
RTVSPost2010PropOp43
 70
     1
102
RTVSPost2010Prop44ColorIndex
 90
        5
102
RTVSPost2010Prop44ColorRGB
 90
      255
102
RTVSPost2010PropOp44
 70
     1
102
RTVSPost2010Prop45
280
     0
102
RTVSPost2010PropOp45
 70
     1
102
RTVSPost2010Prop46
 90
       50
102
RTVSPost2010PropOp46
 70
     1
102
RTVSPost2010Prop47
 90
       50
102
RTVSPost2010PropOp47
 70
     1
102
RTVSPost2010Prop48
 90
       50
102
RTVSPost2010PropOp48
 70
     1
102
RTVSPost2010Prop49
280
     0
102
RTVSPost2010PropOp49
 70
     1
102
RTVSPost2010Prop50
 90
       50
102
RTVSPost2010PropOp50
 70
     1
102
RTVSPost2010Prop51ColorIndex
 90
      256
102
RTVSPost2010Prop51ColorRGB
 90
-16777216
102
RTVSPost2010PropOp51
 70
     0
102
RTVSPost2010Prop52
140
1.0
102
RTVSPost2010PropOp52
 70
     0
102
RTVSPost2010Prop53
 90
        2
102
RTVSPost2010PropOp53
 70
     1
102
RTVSPost2010Prop54
  1
strokes_ogs.tif
102
RTVSPost2010PropOp54
 70
     1
102
RTVSPost2010Prop55
280
     0
102
RTVSPost2010PropOp55
 70
     1
102
RTVSPost2010Prop56
140
1.0
102
RTVSPost2010PropOp56
 70
     1
102
RTVSPost2010Prop57
140
1.0
102
RTVSPost2010PropOp57
 70
     1
  0
XRECORD
  5
2B5
102
{ACAD_REACTORS
330
2B4
102
}
330
2B4
100
AcDbXrecord
280
     1
102
RTVSPropertyOp0
 70
     1
102
RTVSPropertyOp1
 70
     1
102
RTVSPropertyOp2
 70
     1
102
RTVSPropertyOp3
 70
     1
102
RTVSPropertyOp4
 70
     1
102
RTVSPropertyOp5
 70
     1
102
RTVSPropertyOp6
 70
     1
102
RTVSPropertyOp7
 70
     1
102
RTVSPropertyOp8
 70
     1
102
RTVSPropertyOp9
 70
     1
102
RTVSPropertyOp10
 70
     1
102
RTVSPropertyOp11
 70
     1
102
RTVSPropertyOp12
 70
     1
102
RTVSPropertyOp13
 70
     1
102
RTVSPropertyOp14
 70
     1
102
RTVSPropertyOp15
 70
     1
102
RTVSPropertyOp16
 70
     1
102
RTVSPropertyOp17
 70
     1
102
RTVSPropertyOp18
 70
     1
102
RTVSPropertyOp19
 70
     1
102
RTVSPropertyOp20
 70
     1
102
RTVSPropertyOp21
 70
     1
102
RTVSPropertyOp22
 70
     1
102
RTVSPropertyOp23
 70
     1
102
RTVSPropertyOp24
 70
     1
102
RTVSPropertyOp25
 70
     1
102
RTVSPropertyOp26
 70
     1
102
RTVSPropertyOp27
 70
     1
102
RTVSPropertyOp28
 70
     1
102
RTVSPropertyOp29
 70
     1
102
RTVSPropertyOp30
 70
     1
102
RTVSPropertyOp31
 70
     1
102
RTVSPropertyOp32
 70
     1
102
RTVSPropertyOp33
 70
     1
102
RTVSPropertyOp34
 70
     1
102
RTVSPropertyOp35
 70
     1
102
RTVSPropertyOp36
 70
     1
102
RTVSPropertyOp37
 70
     1
102
RTVSPropertyOp38
 70
     1
102
RTVSPropertyOp39
 70
     1
102
RTVSPropertyOp40
 70
     1
102
RTVSPropertyOp41
 70
     1
102
RTVSPropertyOp42
 70
     1
102
RTVSPropertyOp43
 70
     1
102
RTVSPropertyOp44
 70
     1
102
RTVSPropertyOp45
 70
     1
102
RTVSPropertyOp46
 70
     1
102
RTVSPropertyOp47
 70
     1
102
RTVSPropertyOp48
 70
     1
102
RTVSPropertyOp49
 70
     1
102
RTVSPropertyOp50
 70
     1
102
RTVSPropertyOp51
 70
     0
102
RTVSPropertyOp52
 70
     0
102
RTVSPropertyOp53
 70
     1
102
RTVSPropertyOp54
 70
     1
102
RTVSPropertyOp55
 70
     1
102
RTVSPropertyOp56
 70
     1
102
RTVSPropertyOp57
 70
     1
102
RTVSPost2010Prop28
280
     0
102
RTVSPost2010PropOp28
 70
     1
102
RTVSPost2010Prop29
280
     1
102
RTVSPost2010PropOp29
 70
     1
102
RTVSPost2010Prop30
280
     1
102
RTVSPost2010PropOp30
 70
     1
102
RTVSPost2010Prop31
280
     0
102
RTVSPost2010PropOp31
 70
     1
102
RTVSPost2010Prop32
280
     0
102
RTVSPost2010PropOp32
 70
     1
102
RTVSPost2010Prop33
280
     0
102
RTVSPost2010PropOp33
 70
     1
102
RTVSPost2010Prop34
280
     0
102
RTVSPost2010PropOp34
 70
     1
102
RTVSPost2010Prop35
280
     0
102
RTVSPost2010PropOp35
 70
     1
102
RTVSPost2010Prop36
280
     0
102
RTVSPost2010PropOp36
 70
     1
102
RTVSPost2010Prop37
 90
       50
102
RTVSPost2010PropOp37
 70
     1
102
RTVSPost2010Prop38
140
0.0
102
RTVSPost2010PropOp38
 70
     1
102
RTVSPost2010Prop39
140
1.0
102
RTVSPost2010PropOp39
 70
     1
102
RTVSPost2010Prop40
 90
        0
102
RTVSPost2010PropOp40
 70
     1
102
RTVSPost2010Prop41ColorIndex
 90
       18
102
RTVSPost2010Prop41ColorRGB
 90
        0
102
RTVSPost2010PropOp41
 70
     1
102
RTVSPost2010Prop42
 90
       50
102
RTVSPost2010PropOp42
 70
     1
102
RTVSPost2010Prop43
 90
        3
102
RTVSPost2010PropOp43
 70
     1
102
RTVSPost2010Prop44ColorIndex
 90
        5
102
RTVSPost2010Prop44ColorRGB
 90
      255
102
RTVSPost2010PropOp44
 70
     1
102
RTVSPost2010Prop45
280
     0
102
RTVSPost2010PropOp45
 70
     1
102
RTVSPost2010Prop46
 90
       50
102
RTVSPost2010PropOp46
 70
     1
102
RTVSPost2010Prop47
 90
       50
102
RTVSPost2010PropOp47
 70
     1
102
RTVSPost2010Prop48
 90
       50
102
RTVSPost2010PropOp48
 70
     1
102
RTVSPost2010Prop49
280
     0
102
RTVSPost2010PropOp49
 70
     1
102
RTVSPost2010Prop50
 90
       50
102
RTVSPost2010PropOp50
 70
     1
102
RTVSPost2010Prop51ColorIndex
 90
      256
102
RTVSPost2010Prop51ColorRGB
 90
-16777216
102
RTVSPost2010PropOp51
 70
     0
102
RTVSPost2010Prop52
140
1.0
102
RTVSPost2010PropOp52
 70
     0
102
RTVSPost2010Prop53
 90
        2
102
RTVSPost2010PropOp53
 70
     1
102
RTVSPost2010Prop54
  1
strokes_ogs.tif
102
RTVSPost2010PropOp54
 70
     1
102
RTVSPost2010Prop55
280
     0
102
RTVSPost2010PropOp55
 70
     1
102
RTVSPost2010Prop56
140
1.0
102
RTVSPost2010PropOp56
 70
     1
102
RTVSPost2010Prop57
140
1.0
102
RTVSPost2010PropOp57
 70
     1
  0
XRECORD
  5
2D5
102
{ACAD_REACTORS
330
2D4
102
}
330
2D4
100
AcDbXrecord
280
     1
102
RTVSPropertyOp0
 70
     1
102
RTVSPropertyOp1
 70
     1
102
RTVSPropertyOp2
 70
     1
102
RTVSPropertyOp3
 70
     1
102
RTVSPropertyOp4
 70
     1
102
RTVSPropertyOp5
 70
     1
102
RTVSPropertyOp6
 70
     1
102
RTVSPropertyOp7
 70
     1
102
RTVSPropertyOp8
 70
     1
102
RTVSPropertyOp9
 70
     1
102
RTVSPropertyOp10
 70
     1
102
RTVSPropertyOp11
 70
     1
102
RTVSPropertyOp12
 70
     1
102
RTVSPropertyOp13
 70
     1
102
RTVSPropertyOp14
 70
     1
102
RTVSPropertyOp15
 70
     1
102
RTVSPropertyOp16
 70
     1
102
RTVSPropertyOp17
 70
     1
102
RTVSPropertyOp18
 70
     1
102
RTVSPropertyOp19
 70
     1
102
RTVSPropertyOp20
 70
     1
102
RTVSPropertyOp21
 70
     1
102
RTVSPropertyOp22
 70
     1
102
RTVSPropertyOp23
 70
     1
102
RTVSPropertyOp24
 70
     1
102
RTVSPropertyOp25
 70
     1
102
RTVSPropertyOp26
 70
     1
102
RTVSPropertyOp27
 70
     1
102
RTVSPropertyOp28
 70
     1
102
RTVSPropertyOp29
 70
     1
102
RTVSPropertyOp30
 70
     1
102
RTVSPropertyOp31
 70
     1
102
RTVSPropertyOp32
 70
     1
102
RTVSPropertyOp33
 70
     1
102
RTVSPropertyOp34
 70
     1
102
RTVSPropertyOp35
 70
     1
102
RTVSPropertyOp36
 70
     1
102
RTVSPropertyOp37
 70
     1
102
RTVSPropertyOp38
 70
     1
102
RTVSPropertyOp39
 70
     1
102
RTVSPropertyOp40
 70
     1
102
RTVSPropertyOp41
 70
     1
102
RTVSPropertyOp42
 70
     1
102
RTVSPropertyOp43
 70
     1
102
RTVSPropertyOp44
 70
     1
102
RTVSPropertyOp45
 70
     1
102
RTVSPropertyOp46
 70
     1
102
RTVSPropertyOp47
 70
     1
102
RTVSPropertyOp48
 70
     1
102
RTVSPropertyOp49
 70
     1
102
RTVSPropertyOp50
 70
     1
102
RTVSPropertyOp51
 70
     0
102
RTVSPropertyOp52
 70
     0
102
RTVSPropertyOp53
 70
     1
102
RTVSPropertyOp54
 70
     1
102
RTVSPropertyOp55
 70
     1
102
RTVSPropertyOp56
 70
     1
102
RTVSPropertyOp57
 70
     1
102
RTVSPost2010Prop28
280
     0
102
RTVSPost2010PropOp28
 70
     1
102
RTVSPost2010Prop29
280
     1
102
RTVSPost2010PropOp29
 70
     1
102
RTVSPost2010Prop30
280
     1
102
RTVSPost2010PropOp30
 70
     1
102
RTVSPost2010Prop31
280
     0
102
RTVSPost2010PropOp31
 70
     1
102
RTVSPost2010Prop32
280
     0
102
RTVSPost2010PropOp32
 70
     1
102
RTVSPost2010Prop33
280
     0
102
RTVSPost2010PropOp33
 70
     1
102
RTVSPost2010Prop34
280
     0
102
RTVSPost2010PropOp34
 70
     1
102
RTVSPost2010Prop35
280
     0
102
RTVSPost2010PropOp35
 70
     1
102
RTVSPost2010Prop36
280
     0
102
RTVSPost2010PropOp36
 70
     1
102
RTVSPost2010Prop37
 90
       50
102
RTVSPost2010PropOp37
 70
     1
102
RTVSPost2010Prop38
140
0.0
102
RTVSPost2010PropOp38
 70
     1
102
RTVSPost2010Prop39
140
1.0
102
RTVSPost2010PropOp39
 70
     1
102
RTVSPost2010Prop40
 90
        0
102
RTVSPost2010PropOp40
 70
     1
102
RTVSPost2010Prop41ColorIndex
 90
       18
102
RTVSPost2010Prop41ColorRGB
 90
        0
102
RTVSPost2010PropOp41
 70
     1
102
RTVSPost2010Prop42
 90
       50
102
RTVSPost2010PropOp42
 70
     1
102
RTVSPost2010Prop43
 90
        3
102
RTVSPost2010PropOp43
 70
     1
102
RTVSPost2010Prop44ColorIndex
 90
        5
102
RTVSPost2010Prop44ColorRGB
 90
      255
102
RTVSPost2010PropOp44
 70
     1
102
RTVSPost2010Prop45
280
     0
102
RTVSPost2010PropOp45
 70
     1
102
RTVSPost2010Prop46
 90
       50
102
RTVSPost2010PropOp46
 70
     1
102
RTVSPost2010Prop47
 90
       50
102
RTVSPost2010PropOp47
 70
     1
102
RTVSPost2010Prop48
 90
       50
102
RTVSPost2010PropOp48
 70
     1
102
RTVSPost2010Prop49
280
     0
102
RTVSPost2010PropOp49
 70
     1
102
RTVSPost2010Prop50
 90
       50
102
RTVSPost2010PropOp50
 70
     1
102
RTVSPost2010Prop51ColorIndex
 90
      256
102
RTVSPost2010Prop51ColorRGB
 90
-16777216
102
RTVSPost2010PropOp51
 70
     0
102
RTVSPost2010Prop52
140
1.0
102
RTVSPost2010PropOp52
 70
     0
102
RTVSPost2010Prop53
 90
        2
102
RTVSPost2010PropOp53
 70
     1
102
RTVSPost2010Prop54
  1
strokes_ogs.tif
102
RTVSPost2010PropOp54
 70
     1
102
RTVSPost2010Prop55
280
     0
102
RTVSPost2010PropOp55
 70
     1
102
RTVSPost2010Prop56
140
1.0
102
RTVSPost2010PropOp56
 70
     1
102
RTVSPost2010Prop57
140
1.0
102
RTVSPost2010PropOp57
 70
     1
  0
ENDSEC
  0
EOF
