  0
SECTION
  2
HEADER
  9
$ACADVER
  1
AC1015
  9
$ACADMAINTVER
 70
    20
  9
$DWGCODEPAGE
  3
ANSI_1252
  9
$INSBASE
 10
0.0
 20
0.0
 30
0.0
  9
$EXTMIN
 10
-34.06113510236214
 20
-190.23736
 30
0.0
  9
$EXTMAX
 10
76.21325500000001
 20
16.709576
 30
0.0
  9
$LIMMIN
 10
0.0
 20
0.0
  9
$LIMMAX
 10
12.0
 20
9.0
  9
$ORTHOMODE
 70
     0
  9
$REGENMODE
 70
     1
  9
$FILLMODE
 70
     1
  9
$QTEXTMODE
 70
     0
  9
$MIRRTEXT
 70
     1
  9
$LTSCALE
 40
1.0
  9
$ATTMODE
 70
     1
  9
$TEXTSIZE
 40
0.11811
  9
$TRACEWID
 40
0.3937
  9
$TEXTSTYLE
  7
SANDVIK_STYLE
  9
$CLAYER
  8
1
  9
$CELTYPE
  6
ByLayer
  9
$CECOLOR
 62
   256
  9
$CELTSCALE
 40
1.0
  9
$DISPSILH
 70
     0
  9
$DIMSCALE
 40
1.0
  9
$DIMASZ
 40
0.18
  9
$DIMEXO
 40
0.0625
  9
$DIMDLI
 40
0.38
  9
$DIMRND
 40
0.0
  9
$DIMDLE
 40
0.0
  9
$DIMEXE
 40
0.18
  9
$DIMTP
 40
0.0
  9
$DIMTM
 40
0.0
  9
$DIMTXT
 40
0.18
  9
$DIMCEN
 40
0.09
  9
$DIMTSZ
 40
0.0
  9
$DIMTOL
 70
     0
  9
$DIMLIM
 70
     0
  9
$DIMTIH
 70
     1
  9
$DIMTOH
 70
     1
  9
$DIMSE1
 70
     0
  9
$DIMSE2
 70
     0
  9
$DIMTAD
 70
     0
  9
$DIMZIN
 70
     0
  9
$DIMBLK
  1

  9
$DIMASO
 70
     1
  9
$DIMSHO
 70
     1
  9
$DIMPOST
  1

  9
$DIMAPOST
  1

  9
$DIMALT
 70
     0
  9
$DIMALTD
 70
     2
  9
$DIMALTF
 40
25.4
  9
$DIMLFAC
 40
1.0
  9
$DIMTOFL
 70
     0
  9
$DIMTVP
 40
0.0
  9
$DIMTIX
 70
     0
  9
$DIMSOXD
 70
     0
  9
$DIMSAH
 70
     0
  9
$DIMBLK1
  1

  9
$DIMBLK2
  1

  9
$DIMSTYLE
  2
STANDARD
  9
$DIMCLRD
 70
     0
  9
$DIMCLRE
 70
     0
  9
$DIMCLRT
 70
     0
  9
$DIMTFAC
 40
1.0
  9
$DIMGAP
 40
0.09
  9
$DIMJUST
 70
     0
  9
$DIMSD1
 70
     0
  9
$DIMSD2
 70
     0
  9
$DIMTOLJ
 70
     1
  9
$DIMTZIN
 70
     0
  9
$DIMALTZ
 70
     0
  9
$DIMALTTZ
 70
     0
  9
$DIMUPT
 70
     0
  9
$DIMDEC
 70
     4
  9
$DIMTDEC
 70
     4
  9
$DIMALTU
 70
     2
  9
$DIMALTTD
 70
     2
  9
$DIMTXSTY
  7
STANDARD
  9
$DIMAUNIT
 70
     0
  9
$DIMADEC
 70
     0
  9
$DIMALTRND
 40
0.0
  9
$DIMAZIN
 70
     0
  9
$DIMDSEP
 70
    46
  9
$DIMATFIT
 70
     3
  9
$DIMFRAC
 70
     0
  9
$DIMLDRBLK
  1

  9
$DIMLUNIT
 70
     2
  9
$DIMLWD
 70
    -2
  9
$DIMLWE
 70
    -2
  9
$DIMTMOVE
 70
     0
  9
$LUNITS
 70
     2
  9
$LUPREC
 70
     2
  9
$SKETCHINC
 40
0.0
  9
$FILLETRAD
 40
0.0
  9
$AUNITS
 70
     0
  9
$AUPREC
 70
     2
  9
$MENU
  1
acad
  9
$ELEVATION
 40
0.0
  9
$PELEVATION
 40
0.0
  9
$THICKNESS
 40
0.0
  9
$LIMCHECK
 70
     0
  9
$CHAMFERA
 40
0.0
  9
$CHAMFERB
 40
0.0
  9
$CHAMFERC
 40
0.0
  9
$CHAMFERD
 40
0.0
  9
$SKPOLY
 70
     0
  9
$TDCREATE
 40
2456818.431976597
  9
$TDUCREATE
 40
2456818.348643264
  9
$TDUPDATE
 40
2456818.431982373
  9
$TDUUPDATE
 40
2456818.348649040
  9
$TDINDWG
 40
0.0000064931
  9
$TDUSRTIMER
 40
0.0000064931
  9
$USRTIMER
 70
     1
  9
$ANGBASE
 50
0.0
  9
$ANGDIR
 70
     0
  9
$PDMODE
 70
     0
  9
$PDSIZE
 40
0.0
  9
$PLINEWID
 40
0.0
  9
$SPLFRAME
 70
     0
  9
$SPLINETYPE
 70
     6
  9
$SPLINESEGS
 70
     8
  9
$HANDSEED
  5
7F7
  9
$SURFTAB1
 70
     6
  9
$SURFTAB2
 70
     6
  9
$SURFTYPE
 70
     6
  9
$SURFU
 70
     6
  9
$SURFV
 70
     6
  9
$UCSBASE
  2

  9
$UCSNAME
  2

  9
$UCSORG
 10
0.0
 20
0.0
 30
0.0
  9
$UCSXDIR
 10
1.0
 20
0.0
 30
0.0
  9
$UCSYDIR
 10
0.0
 20
1.0
 30
0.0
  9
$UCSORTHOREF
  2

  9
$UCSORTHOVIEW
 70
     0
  9
$UCSORGTOP
 10
0.0
 20
0.0
 30
0.0
  9
$UCSORGBOTTOM
 10
0.0
 20
0.0
 30
0.0
  9
$UCSORGLEFT
 10
0.0
 20
0.0
 30
0.0
  9
$UCSORGRIGHT
 10
0.0
 20
0.0
 30
0.0
  9
$UCSORGFRONT
 10
0.0
 20
0.0
 30
0.0
  9
$UCSORGBACK
 10
0.0
 20
0.0
 30
0.0
  9
$PUCSBASE
  2

  9
$PUCSNAME
  2

  9
$PUCSORG
 10
0.0
 20
0.0
 30
0.0
  9
$PUCSXDIR
 10
1.0
 20
0.0
 30
0.0
  9
$PUCSYDIR
 10
0.0
 20
1.0
 30
0.0
  9
$PUCSORTHOREF
  2

  9
$PUCSORTHOVIEW
 70
     0
  9
$PUCSORGTOP
 10
0.0
 20
0.0
 30
0.0
  9
$PUCSORGBOTTOM
 10
0.0
 20
0.0
 30
0.0
  9
$PUCSORGLEFT
 10
0.0
 20
0.0
 30
0.0
  9
$PUCSORGRIGHT
 10
0.0
 20
0.0
 30
0.0
  9
$PUCSORGFRONT
 10
0.0
 20
0.0
 30
0.0
  9
$PUCSORGBACK
 10
0.0
 20
0.0
 30
0.0
  9
$USERI1
 70
     0
  9
$USERI2
 70
     0
  9
$USERI3
 70
     0
  9
$USERI4
 70
     0
  9
$USERI5
 70
     0
  9
$USERR1
 40
0.0
  9
$USERR2
 40
0.0
  9
$USERR3
 40
0.0
  9
$USERR4
 40
0.0
  9
$USERR5
 40
0.0
  9
$WORLDVIEW
 70
     1
  9
$SHADEDGE
 70
     3
  9
$SHADEDIF
 70
    70
  9
$TILEMODE
 70
     1
  9
$MAXACTVP
 70
    16
  9
$PINSBASE
 10
0.0
 20
0.0
 30
0.0
  9
$PLIMCHECK
 70
     0
  9
$PEXTMIN
 10
1.000000000000000E+20
 20
1.000000000000000E+20
 30
1.000000000000000E+20
  9
$PEXTMAX
 10
-1.000000000000000E+20
 20
-1.000000000000000E+20
 30
-1.000000000000000E+20
  9
$PLIMMIN
 10
0.0
 20
0.0
  9
$PLIMMAX
 10
12.0
 20
9.0
  9
$UNITMODE
 70
     0
  9
$VISRETAIN
 70
     0
  9
$PLINEGEN
 70
     0
  9
$PSLTSCALE
 70
     1
  9
$TREEDEPTH
 70
  3020
  9
$CMLSTYLE
  2
Standard
  9
$CMLJUST
 70
     0
  9
$CMLSCALE
 40
1.0
  9
$PROXYGRAPHICS
 70
     1
  9
$MEASUREMENT
 70
     0
  9
$CELWEIGHT
370
    -1
  9
$ENDCAPS
280
     0
  9
$JOINSTYLE
280
     0
  9
$LWDISPLAY
290
     0
  9
$INSUNITS
 70
     0
  9
$HYPERLINKBASE
  1

  9
$STYLESHEET
  1

  9
$XEDIT
290
     1
  9
$CEPSNTYPE
380
     0
  9
$PSTYLEMODE
290
     1
  9
$FINGERPRINTGUID
  2
{5893F2DB-9185-4473-BBB8-BCDE5C8633E9}
  9
$VERSIONGUID
  2
{7AC820BB-AFFB-40B6-B99F-5C982F324C8A}
  9
$EXTNAMES
290
     1
  9
$PSVPSCALE
 40
0.0
  9
$OLESTARTUP
290
     0
  0
ENDSEC
  0
SECTION
  2
CLASSES
  0
CLASS
  1
ACDBDICTIONARYWDFLT
  2
AcDbDictionaryWithDefault
  3
ObjectDBX Classes
 90
        0
280
     0
281
     0
  0
CLASS
  1
MATERIAL
  2
AcDbMaterial
  3
ObjectDBX Classes
 90
     1153
280
     0
281
     0
  0
CLASS
  1
VISUALSTYLE
  2
AcDbVisualStyle
  3
ObjectDBX Classes
 90
     4095
280
     0
281
     0
  0
CLASS
  1
SCALE
  2
AcDbScale
  3
ObjectDBX Classes
 90
     1153
280
     0
281
     0
  0
CLASS
  1
TABLESTYLE
  2
AcDbTableStyle
  3
ObjectDBX Classes
 90
     4095
280
     0
281
     0
  0
CLASS
  1
MLEADERSTYLE
  2
AcDbMLeaderStyle
  3
ACDB_MLEADERSTYLE_CLASS
 90
     4095
280
     0
281
     0
  0
CLASS
  1
ACDBSECTIONVIEWSTYLE
  2
AcDbSectionViewStyle
  3
ObjectDBX Classes
 90
     1025
280
     0
281
     0
  0
CLASS
  1
ACDBDETAILVIEWSTYLE
  2
AcDbDetailViewStyle
  3
ObjectDBX Classes
 90
     1025
280
     0
281
     0
  0
CLASS
  1
EXACXREFPANELOBJECT
  2
ExAcXREFPanelObject
  3
EXAC_ESW
 90
     1025
280
     0
281
     0
  0
CLASS
  1
NPOCOLLECTION
  2
AcDbImpNonPersistentObjectsCollection
  3
ObjectDBX Classes
 90
     1153
280
     0
281
     0
  0
CLASS
  1
DICTIONARYVAR
  2
AcDbDictionaryVar
  3
ObjectDBX Classes
 90
        0
280
     0
281
     0
  0
CLASS
  1
CELLSTYLEMAP
  2
AcDbCellStyleMap
  3
ObjectDBX Classes
 90
     1152
280
     0
281
     0
  0
CLASS
  1
ACDBPLACEHOLDER
  2
AcDbPlaceHolder
  3
ObjectDBX Classes
 90
        0
280
     0
281
     0
  0
CLASS
  1
LAYOUT
  2
AcDbLayout
  3
ObjectDBX Classes
 90
        0
280
     0
281
     0
  0
ENDSEC
  0
SECTION
  2
TABLES
  0
TABLE
  2
VPORT
  5
6C3
330
0
100
AcDbSymbolTable
 70
     1
  0
VPORT
  5
75A
330
6C3
100
AcDbSymbolTableRecord
100
AcDbViewportTableRecord
  2
*Active
 70
     0
 10
0.0
 20
0.0
 11
1.0
 21
1.0
 12
21.07605994881897
 22
-86.763892
 13
0.0
 23
0.0
 14
1.0
 24
1.0
 15
0.0
 25
0.0
 16
0.0
 26
0.0
 36
1.0
 17
0.0
 27
0.0
 37
0.0
 40
231.5913345454545
 41
2.2
 42
50.0
 43
0.0
 44
0.0
 50
0.0
 51
0.0
 71
     0
 72
   100
 73
     1
 74
     1
 75
     0
 76
     0
 77
     0
 78
     0
281
     0
 65
     1
110
0.0
120
0.0
130
0.0
111
1.0
121
0.0
131
0.0
112
0.0
122
1.0
132
0.0
 79
     0
146
0.0
1001
ACAD_NAV_VCDISPLAY
1070
     3
  0
ENDTAB
  0
TABLE
  2
LTYPE
  5
6C0
330
0
100
AcDbSymbolTable
 70
     4
  0
LTYPE
  5
715
330
6C0
100
AcDbSymbolTableRecord
100
AcDbLinetypeTableRecord
  2
ByBlock
 70
     0
  3

 72
    65
 73
     0
 40
0.0
  0
LTYPE
  5
716
330
6C0
100
AcDbSymbolTableRecord
100
AcDbLinetypeTableRecord
  2
ByLayer
 70
     0
  3

 72
    65
 73
     0
 40
0.0
  0
LTYPE
  5
717
330
6C0
100
AcDbSymbolTableRecord
100
AcDbLinetypeTableRecord
  2
CONTINUOUS
 70
     0
  3
Solid line
 72
    65
 73
     0
 40
0.0
  0
LTYPE
  5
723
330
6C0
100
AcDbSymbolTableRecord
100
AcDbLinetypeTableRecord
  2
PHANTOM2
 70
     0
  3
Phantom (.5x) ___ _ _ ___ _ _ ___ _ _ ___ _ _
 72
    65
 73
     6
 40
1.25
 49
0.625
 74
     0
 49
-0.125
 74
     0
 49
0.125
 74
     0
 49
-0.125
 74
     0
 49
0.125
 74
     0
 49
-0.125
 74
     0
  0
LTYPE
  5
731
330
6C0
100
AcDbSymbolTableRecord
100
AcDbLinetypeTableRecord
  2
CENTER
 70
     0
  3
____ _ ____ _ ____ _ ____ _ ____ _ ____ _ ____
 72
    65
 73
     4
 40
0.1992
 49
0.1245
 74
     0
 49
-0.0249
 74
     0
 49
0.0249
 74
     0
 49
-0.0249
 74
     0
  0
LTYPE
  5
732
330
6C0
100
AcDbSymbolTableRecord
100
AcDbLinetypeTableRecord
  2
DASHED
 70
     0
  3
__ __ __ __ __ __ __ __ __ __ __ __ __ __ __ __
 72
    65
 73
     2
 40
0.29881
 49
0.1992
 74
     0
 49
-0.099604
 74
     0
  0
ENDTAB
  0
TABLE
  2
LAYER
  5
6BD
330
0
100
AcDbSymbolTable
 70
    38
  0
LAYER
  5
70F
102
{ACAD_XDICTIONARY
360
762
102
}
330
6BD
100
AcDbSymbolTableRecord
100
AcDbLayerTableRecord
  2
0
 70
     0
 62
     7
  6
CONTINUOUS
370
    -3
390
6CA
  0
LAYER
  5
72F
102
{ACAD_XDICTIONARY
360
764
102
}
330
6BD
100
AcDbSymbolTableRecord
100
AcDbLayerTableRecord
  2
1
 70
     0
 62
     4
  6
CONTINUOUS
370
    -3
390
6CA
  0
LAYER
  5
733
102
{ACAD_XDICTIONARY
360
766
102
}
330
6BD
100
AcDbSymbolTableRecord
100
AcDbLayerTableRecord
  2
61
 70
     0
 62
     5
  6
CONTINUOUS
370
    -3
390
6CA
  0
LAYER
  5
734
102
{ACAD_XDICTIONARY
360
768
102
}
330
6BD
100
AcDbSymbolTableRecord
100
AcDbLayerTableRecord
  2
62
 70
     0
 62
    -5
  6
CONTINUOUS
370
    -3
390
6CA
  0
LAYER
  5
735
102
{ACAD_XDICTIONARY
360
76A
102
}
330
6BD
100
AcDbSymbolTableRecord
100
AcDbLayerTableRecord
  2
63
 70
     0
 62
    -5
  6
CONTINUOUS
370
    -3
390
6CA
  0
LAYER
  5
736
102
{ACAD_XDICTIONARY
360
76C
102
}
330
6BD
100
AcDbSymbolTableRecord
100
AcDbLayerTableRecord
  2
64
 70
     0
 62
    -5
  6
CONTINUOUS
370
    -3
390
6CA
  0
LAYER
  5
737
102
{ACAD_XDICTIONARY
360
76E
102
}
330
6BD
100
AcDbSymbolTableRecord
100
AcDbLayerTableRecord
  2
65
 70
     0
 62
    -5
  6
CONTINUOUS
370
    -3
390
6CA
  0
LAYER
  5
738
102
{ACAD_XDICTIONARY
360
770
102
}
330
6BD
100
AcDbSymbolTableRecord
100
AcDbLayerTableRecord
  2
66
 70
     0
 62
    -5
  6
CONTINUOUS
370
    -3
390
6CA
  0
LAYER
  5
739
102
{ACAD_XDICTIONARY
360
772
102
}
330
6BD
100
AcDbSymbolTableRecord
100
AcDbLayerTableRecord
  2
67
 70
     0
 62
    -5
  6
CONTINUOUS
370
    -3
390
6CA
  0
LAYER
  5
73A
102
{ACAD_XDICTIONARY
360
774
102
}
330
6BD
100
AcDbSymbolTableRecord
100
AcDbLayerTableRecord
  2
68
 70
     0
 62
    -5
  6
CONTINUOUS
370
    -3
390
6CA
  0
LAYER
  5
73B
102
{ACAD_XDICTIONARY
360
776
102
}
330
6BD
100
AcDbSymbolTableRecord
100
AcDbLayerTableRecord
  2
69
 70
     0
 62
    -5
  6
CONTINUOUS
370
    -3
390
6CA
  0
LAYER
  5
73C
102
{ACAD_XDICTIONARY
360
778
102
}
330
6BD
100
AcDbSymbolTableRecord
100
AcDbLayerTableRecord
  2
70
 70
     0
 62
     5
  6
CONTINUOUS
370
    -3
390
6CA
  0
LAYER
  5
73D
102
{ACAD_XDICTIONARY
360
77A
102
}
330
6BD
100
AcDbSymbolTableRecord
100
AcDbLayerTableRecord
  2
2
 70
     0
 62
     7
  6
CONTINUOUS
370
    -3
390
6CA
  0
LAYER
  5
73E
102
{ACAD_XDICTIONARY
360
77C
102
}
330
6BD
100
AcDbSymbolTableRecord
100
AcDbLayerTableRecord
  2
3
 70
     0
 62
     1
  6
DASHED
370
    -3
390
6CA
  0
LAYER
  5
73F
102
{ACAD_XDICTIONARY
360
77E
102
}
330
6BD
100
AcDbSymbolTableRecord
100
AcDbLayerTableRecord
  2
4
 70
     0
 62
    -2
  6
CENTER
370
    -3
390
6CA
  0
LAYER
  5
740
102
{ACAD_XDICTIONARY
360
780
102
}
330
6BD
100
AcDbSymbolTableRecord
100
AcDbLayerTableRecord
  2
5
 70
     0
 62
    -7
  6
CONTINUOUS
370
    -3
390
6CA
  0
LAYER
  5
741
102
{ACAD_XDICTIONARY
360
782
102
}
330
6BD
100
AcDbSymbolTableRecord
100
AcDbLayerTableRecord
  2
SK1
 70
     0
 62
     4
  6
CONTINUOUS
370
    -3
390
6CA
  0
LAYER
  5
742
102
{ACAD_XDICTIONARY
360
784
102
}
330
6BD
100
AcDbSymbolTableRecord
100
AcDbLayerTableRecord
  2
6
 70
     0
 62
     5
  6
CONTINUOUS
370
    -3
390
6CA
  0
LAYER
  5
743
102
{ACAD_XDICTIONARY
360
786
102
}
330
6BD
100
AcDbSymbolTableRecord
100
AcDbLayerTableRecord
  2
SK2
 70
     0
 62
     7
  6
CONTINUOUS
370
    -3
390
6CA
  0
LAYER
  5
744
102
{ACAD_XDICTIONARY
360
788
102
}
330
6BD
100
AcDbSymbolTableRecord
100
AcDbLayerTableRecord
  2
SK3
 70
     0
 62
     1
  6
DASHED
370
    -3
390
6CA
  0
LAYER
  5
745
102
{ACAD_XDICTIONARY
360
78A
102
}
330
6BD
100
AcDbSymbolTableRecord
100
AcDbLayerTableRecord
  2
SK4
 70
     0
 62
     2
  6
CENTER
370
    -3
390
6CA
  0
LAYER
  5
746
102
{ACAD_XDICTIONARY
360
78C
102
}
330
6BD
100
AcDbSymbolTableRecord
100
AcDbLayerTableRecord
  2
CUT
 70
     0
 62
    -1
  6
CONTINUOUS
370
    -3
390
6CA
  0
LAYER
  5
747
102
{ACAD_XDICTIONARY
360
78E
102
}
330
6BD
100
AcDbSymbolTableRecord
100
AcDbLayerTableRecord
  2
SK6
 70
     0
 62
     5
  6
CONTINUOUS
370
    -3
390
6CA
  0
LAYER
  5
748
102
{ACAD_XDICTIONARY
360
790
102
}
330
6BD
100
AcDbSymbolTableRecord
100
AcDbLayerTableRecord
  2
80
 70
     0
 62
    -2
  6
CENTER
370
    -3
390
6CA
  0
LAYER
  5
749
102
{ACAD_XDICTIONARY
360
792
102
}
330
6BD
100
AcDbSymbolTableRecord
100
AcDbLayerTableRecord
  2
81
 70
     0
 62
    -2
  6
CENTER
370
    -3
390
6CA
  0
LAYER
  5
74A
102
{ACAD_XDICTIONARY
360
794
102
}
330
6BD
100
AcDbSymbolTableRecord
100
AcDbLayerTableRecord
  2
82
 70
     0
 62
    -2
  6
CENTER
370
    -3
390
6CA
  0
LAYER
  5
74B
102
{ACAD_XDICTIONARY
360
796
102
}
330
6BD
100
AcDbSymbolTableRecord
100
AcDbLayerTableRecord
  2
NOCUT
 70
     0
 62
     7
  6
CONTINUOUS
370
    -3
390
6CA
  0
LAYER
  5
74C
102
{ACAD_XDICTIONARY
360
798
102
}
330
6BD
100
AcDbSymbolTableRecord
100
AcDbLayerTableRecord
  2
50
 70
     0
 62
    -7
  6
CONTINUOUS
370
    -3
390
6CA
  0
LAYER
  5
74D
102
{ACAD_XDICTIONARY
360
79A
102
}
330
6BD
100
AcDbSymbolTableRecord
100
AcDbLayerTableRecord
  2
51
 70
     0
 62
     7
  6
CONTINUOUS
370
    -3
390
6CA
  0
LAYER
  5
74E
102
{ACAD_XDICTIONARY
360
79C
102
}
330
6BD
100
AcDbSymbolTableRecord
100
AcDbLayerTableRecord
  2
52
 70
     0
 62
    -7
  6
CONTINUOUS
370
    -3
390
6CA
  0
LAYER
  5
74F
102
{ACAD_XDICTIONARY
360
79E
102
}
330
6BD
100
AcDbSymbolTableRecord
100
AcDbLayerTableRecord
  2
53
 70
     0
 62
    -7
  6
CONTINUOUS
370
    -3
390
6CA
  0
LAYER
  5
750
102
{ACAD_XDICTIONARY
360
7A0
102
}
330
6BD
100
AcDbSymbolTableRecord
100
AcDbLayerTableRecord
  2
54
 70
     0
 62
    -7
  6
CONTINUOUS
370
    -3
390
6CA
  0
LAYER
  5
751
102
{ACAD_XDICTIONARY
360
7A2
102
}
330
6BD
100
AcDbSymbolTableRecord
100
AcDbLayerTableRecord
  2
55
 70
     0
 62
    -7
  6
CONTINUOUS
370
    -3
390
6CA
  0
LAYER
  5
752
102
{ACAD_XDICTIONARY
360
7A4
102
}
330
6BD
100
AcDbSymbolTableRecord
100
AcDbLayerTableRecord
  2
56
 70
     0
 62
    -7
  6
CONTINUOUS
370
    -3
390
6CA
  0
LAYER
  5
753
102
{ACAD_XDICTIONARY
360
7A6
102
}
330
6BD
100
AcDbSymbolTableRecord
100
AcDbLayerTableRecord
  2
57
 70
     0
 62
    -7
  6
CONTINUOUS
370
    -3
390
6CA
  0
LAYER
  5
754
102
{ACAD_XDICTIONARY
360
7A8
102
}
330
6BD
100
AcDbSymbolTableRecord
100
AcDbLayerTableRecord
  2
58
 70
     0
 62
    -7
  6
CONTINUOUS
370
    -3
390
6CA
  0
LAYER
  5
755
102
{ACAD_XDICTIONARY
360
7AA
102
}
330
6BD
100
AcDbSymbolTableRecord
100
AcDbLayerTableRecord
  2
2L
 70
     0
 62
     7
  6
CONTINUOUS
370
    -3
390
6CA
  0
LAYER
  5
756
102
{ACAD_XDICTIONARY
360
7AC
102
}
330
6BD
100
AcDbSymbolTableRecord
100
AcDbLayerTableRecord
  2
59
 70
     0
 62
    -7
  6
CONTINUOUS
370
    -3
390
6CA
  0
ENDTAB
  0
TABLE
  2
STYLE
  5
6BE
330
0
100
AcDbSymbolTable
 70
     3
  0
STYLE
  5
710
330
6BE
100
AcDbSymbolTableRecord
100
AcDbTextStyleTableRecord
  2
STANDARD
 70
     0
 40
0.0
 41
1.0
 50
0.0
 71
     0
 42
0.177165
  3
simplex.shx
  4

  0
STYLE
  5
714
330
6BE
100
AcDbSymbolTableRecord
100
AcDbTextStyleTableRecord
  2
Annotative
 70
     0
 40
0.0
 41
1.0
 50
0.0
 71
     0
 42
0.2
  3
txt
  4

1001
AcadAnnotative
1000
AnnotativeData
1002
{
1070
     1
1070
     1
1002
}
  0
STYLE
  5
730
330
6BE
100
AcDbSymbolTableRecord
100
AcDbTextStyleTableRecord
  2
SANDVIK_STYLE
 70
     0
 40
0.11811
 41
1.0
 50
0.0
 71
     0
 42
0.11811
  3
simplex.shx
  4

  0
ENDTAB
  0
TABLE
  2
VIEW
  5
6C1
330
0
100
AcDbSymbolTable
 70
     0
  0
ENDTAB
  0
TABLE
  2
UCS
  5
6C2
330
0
100
AcDbSymbolTable
 70
     0
  0
ENDTAB
  0
TABLE
  2
APPID
  5
6C4
330
0
100
AcDbSymbolTable
 70
     4
  0
APPID
  5
711
330
6C4
100
AcDbSymbolTableRecord
100
AcDbRegAppTableRecord
  2
ACAD
 70
     0
  0
APPID
  5
718
330
6C4
100
AcDbSymbolTableRecord
100
AcDbRegAppTableRecord
  2
AcadAnnotative
 70
     0
  0
APPID
  5
7B8
330
6C4
100
AcDbSymbolTableRecord
100
AcDbRegAppTableRecord
  2
ACAD_NAV_VCDISPLAY
 70
     0
  0
APPID
  5
7F2
330
6C4
100
AcDbSymbolTableRecord
100
AcDbRegAppTableRecord
  2
ACAD_MLEADERVER
 70
     0
  0
ENDTAB
  0
TABLE
  2
DIMSTYLE
  5
6C5
330
0
100
AcDbSymbolTable
 70
     3
100
AcDbDimStyleTable
 71
     0
  0
DIMSTYLE
105
712
330
6C5
100
AcDbSymbolTableRecord
100
AcDbDimStyleTableRecord
  2
STANDARD
 70
     0
  4
 
 43
0.18
 44
2.5
 46
1.25
 73
     0
 74
     0
140
0.11811
141
-3.0
143
0.039
145
1.5
146
0.75
147
1.5
271
     2
272
     2
279
     2
340
730
  0
DIMSTYLE
105
713
330
6C5
100
AcDbSymbolTableRecord
100
AcDbDimStyleTableRecord
  2
Annotative
 70
     0
340
710
1001
AcadAnnotative
1000
AnnotativeData
1002
{
1070
     1
1070
     1
1002
}
  0
DIMSTYLE
105
757
330
6C5
100
AcDbSymbolTableRecord
100
AcDbDimStyleTableRecord
  2
SANDVIK_DIM
 70
     0
  4
 
 40
0.0
 42
0.0
 73
     0
 74
     0
 77
     1
 78
     8
173
     1
176
   256
177
   256
178
   256
271
     2
272
     2
279
     2
340
730
  0
ENDTAB
  0
TABLE
  2
BLOCK_RECORD
  5
6BC
330
0
100
AcDbSymbolTable
 70
     4
  0
BLOCK_RECORD
  5
72B
330
6BC
100
AcDbSymbolTableRecord
100
AcDbBlockTableRecord
  2
*Model_Space
340
72E
  0
BLOCK_RECORD
  5
727
330
6BC
100
AcDbSymbolTableRecord
100
AcDbBlockTableRecord
  2
*Paper_Space
340
72A
  0
BLOCK_RECORD
  5
75B
330
6BC
100
AcDbSymbolTableRecord
100
AcDbBlockTableRecord
  2
ASSORTEDPART1
340
0
102
{BLKREFS
331
3B6
102
}
  0
BLOCK_RECORD
  5
75C
330
6BC
100
AcDbSymbolTableRecord
100
AcDbBlockTableRecord
  2
ASSORTEDPART2
340
0
102
{BLKREFS
331
3B7
102
}
  0
BLOCK_RECORD
  5
75D
330
6BC
100
AcDbSymbolTableRecord
100
AcDbBlockTableRecord
  2
ASSORTEDPART3
340
0
102
{BLKREFS
331
3B8
102
}
  0
BLOCK_RECORD
  5
75E
330
6BC
100
AcDbSymbolTableRecord
100
AcDbBlockTableRecord
  2
ASSORTEDPART4
340
0
102
{BLKREFS
331
3B9
102
}
  0
ENDTAB
  0
ENDSEC
  0
SECTION
  2
BLOCKS
  0
BLOCK
  5
72C
330
72B
100
AcDbEntity
  8
0
100
AcDbBlockBegin
  2
*Model_Space
 70
     0
 10
0.0
 20
0.0
 30
0.0
  3
*Model_Space
  1

  0
ENDBLK
  5
72D
330
72B
100
AcDbEntity
  8
0
100
AcDbBlockEnd
  0
BLOCK
  5
728
330
727
100
AcDbEntity
 67
     1
  8
0
100
AcDbBlockBegin
  2
*Paper_Space
 70
     0
 10
0.0
 20
0.0
 30
0.0
  3
*Paper_Space
  1

  0
ENDBLK
  5
729
330
727
100
AcDbEntity
 67
     1
  8
0
100
AcDbBlockEnd
  0
BLOCK
  5
2
330
75B
100
AcDbEntity
  8
0
100
AcDbBlockBegin
  2
ASSORTEDPART1
 70
     0
 10
0.0
 20
0.0
 30
0.0
  3
ASSORTEDPART1
  1

  0
LINE
  5
3
330
75B
100
AcDbEntity
  8
0
100
AcDbLine
 10
25.37436700000001
 20
-173.192399
 30
0.0
 11
25.37436700000001
 21
-190.23736
 31
0.0
  0
LINE
  5
4
330
75B
100
AcDbEntity
  8
0
100
AcDbLine
 10
0.0
 20
-164.857654
 30
0.0
 11
0.0
 21
-190.23736
 31
0.0
  0
LINE
  5
5
330
75B
100
AcDbEntity
  8
0
100
AcDbLine
 10
25.37436700000001
 20
-186.552562
 30
0.0
 11
0.0
 21
-186.552562
 31
0.0
  0
LINE
  5
6
330
75B
100
AcDbEntity
  8
0
100
AcDbLine
 10
25.37436700000001
 20
-186.552562
 30
0.0
 11
21.68957
 21
-187.037675
 31
0.0
  0
LINE
  5
7
330
75B
100
AcDbEntity
  8
0
100
AcDbLine
 10
21.68957
 20
-187.037675
 30
0.0
 11
21.68957
 21
-186.067449
 31
0.0
  0
LINE
  5
8
330
75B
100
AcDbEntity
  8
0
100
AcDbLine
 10
21.68957
 20
-186.067449
 30
0.0
 11
21.68957
 21
-186.067449
 31
0.0
  0
LINE
  5
9
330
75B
100
AcDbEntity
  8
0
100
AcDbLine
 10
21.68957
 20
-186.067449
 30
0.0
 11
25.37436700000001
 21
-186.552562
 31
0.0
  0
LINE
  5
A
330
75B
100
AcDbEntity
  8
0
100
AcDbLine
 10
0.0
 20
-186.552562
 30
0.0
 11
3.684798
 21
-186.067449
 31
0.0
  0
LINE
  5
B
330
75B
100
AcDbEntity
  8
0
100
AcDbLine
 10
3.684798
 20
-186.067449
 30
0.0
 11
3.684798
 21
-187.037675
 31
0.0
  0
LINE
  5
C
330
75B
100
AcDbEntity
  8
0
100
AcDbLine
 10
3.684798
 20
-187.037675
 30
0.0
 11
3.684798
 21
-187.037675
 31
0.0
  0
LINE
  5
D
330
75B
100
AcDbEntity
  8
0
100
AcDbLine
 10
3.684798
 20
-187.037675
 30
0.0
 11
0.0
 21
-186.552562
 31
0.0
  0
TEXT
  5
E
330
75B
100
AcDbEntity
  8
0
100
AcDbText
 10
8.143762999999999
 20
-185.052562
 30
0.0
 40
3.0
  1
25.30
 41
1.94410978696909
  7
SANDVIK_STYLE
 72
     5
 11
25.353727
 21
-185.052562
 31
0.0
100
AcDbText
  0
ENDBLK
  5
F
330
75B
100
AcDbEntity
  8
0
100
AcDbBlockEnd
  0
BLOCK
  5
10
330
75C
100
AcDbEntity
  8
0
100
AcDbBlockBegin
  2
ASSORTEDPART2
 70
     0
 10
0.0
 20
0.0
 30
0.0
  3
ASSORTEDPART2
  1

  0
LINE
  5
11
330
75C
100
AcDbEntity
  8
0
100
AcDbLine
 10
24.875
 20
1.842399
 30
0.0
 11
24.875
 21
16.044373
 31
0.0
  0
LINE
  5
12
330
75C
100
AcDbEntity
  8
0
100
AcDbLine
 10
0.0
 20
1.842399
 30
0.0
 11
0.0
 21
16.044373
 31
0.0
  0
LINE
  5
13
330
75C
100
AcDbEntity
  8
0
100
AcDbLine
 10
24.875
 20
12.359576
 30
0.0
 11
0.0
 21
12.359576
 31
0.0
  0
LINE
  5
14
330
75C
100
AcDbEntity
  8
0
100
AcDbLine
 10
24.875
 20
12.359576
 30
0.0
 11
21.190202
 21
11.874463
 31
0.0
  0
LINE
  5
15
330
75C
100
AcDbEntity
  8
0
100
AcDbLine
 10
21.190202
 20
11.874463
 30
0.0
 11
21.190202
 21
12.844688
 31
0.0
  0
LINE
  5
16
330
75C
100
AcDbEntity
  8
0
100
AcDbLine
 10
21.190202
 20
12.844688
 30
0.0
 11
21.190202
 21
12.844688
 31
0.0
  0
LINE
  5
17
330
75C
100
AcDbEntity
  8
0
100
AcDbLine
 10
21.190202
 20
12.844688
 30
0.0
 11
24.875
 21
12.359576
 31
0.0
  0
LINE
  5
18
330
75C
100
AcDbEntity
  8
0
100
AcDbLine
 10
0.0
 20
12.359576
 30
0.0
 11
3.684798
 21
12.844688
 31
0.0
  0
LINE
  5
19
330
75C
100
AcDbEntity
  8
0
100
AcDbLine
 10
3.684798
 20
12.844688
 30
0.0
 11
3.684798
 21
11.874463
 31
0.0
  0
LINE
  5
1A
330
75C
100
AcDbEntity
  8
0
100
AcDbLine
 10
3.684798
 20
11.874463
 30
0.0
 11
3.684798
 21
11.874463
 31
0.0
  0
LINE
  5
1B
330
75C
100
AcDbEntity
  8
0
100
AcDbLine
 10
3.684798
 20
11.874463
 30
0.0
 11
0.0
 21
12.359576
 31
0.0
  0
TEXT
  5
1C
330
75C
100
AcDbEntity
  8
0
100
AcDbText
 10
10.684868
 20
13.859576
 30
0.0
 40
3.0
  1
25
 41
1.730389534915947
  7
SANDVIK_STYLE
 72
     5
 11
17.388854
 21
13.859576
 31
0.0
100
AcDbText
  0
ENDBLK
  5
1D
330
75C
100
AcDbEntity
  8
0
100
AcDbBlockEnd
  0
BLOCK
  5
1E
330
75D
100
AcDbEntity
  8
0
100
AcDbBlockBegin
  2
ASSORTEDPART3
 70
     0
 10
0.0
 20
0.0
 30
0.0
  3
ASSORTEDPART3
  1

  0
LINE
  5
1F
330
75D
100
AcDbEntity
  8
0
100
AcDbLine
 10
26.717399
 20
0.0
 30
0.0
 11
76.21325500000001
 21
0.0
 31
0.0
  0
LINE
  5
20
330
75D
100
AcDbEntity
  8
0
100
AcDbLine
 10
27.216766
 20
-171.35
 30
0.0
 11
76.21325500000001
 21
-171.35
 31
0.0
  0
LINE
  5
21
330
75D
100
AcDbEntity
  8
0
100
AcDbLine
 10
72.52845699999999
 20
0.0
 30
0.0
 11
72.52845699999999
 21
-171.35
 31
0.0
  0
LINE
  5
22
330
75D
100
AcDbEntity
  8
0
100
AcDbLine
 10
72.52845699999999
 20
0.0
 30
0.0
 11
73.01357
 21
-3.684798
 31
0.0
  0
LINE
  5
23
330
75D
100
AcDbEntity
  8
0
100
AcDbLine
 10
73.01357
 20
-3.684798
 30
0.0
 11
72.043345
 21
-3.684798
 31
0.0
  0
LINE
  5
24
330
75D
100
AcDbEntity
  8
0
100
AcDbLine
 10
72.043345
 20
-3.684798
 30
0.0
 11
72.043345
 21
-3.684798
 31
0.0
  0
LINE
  5
25
330
75D
100
AcDbEntity
  8
0
100
AcDbLine
 10
72.043345
 20
-3.684798
 30
0.0
 11
72.52845699999999
 21
0.0
 31
0.0
  0
LINE
  5
26
330
75D
100
AcDbEntity
  8
0
100
AcDbLine
 10
72.52845699999999
 20
-171.35
 30
0.0
 11
72.043345
 21
-167.665202
 31
0.0
  0
LINE
  5
27
330
75D
100
AcDbEntity
  8
0
100
AcDbLine
 10
72.043345
 20
-167.665202
 30
0.0
 11
73.01357
 21
-167.665202
 31
0.0
  0
LINE
  5
28
330
75D
100
AcDbEntity
  8
0
100
AcDbLine
 10
73.01357
 20
-167.665202
 30
0.0
 11
73.01357
 21
-167.665202
 31
0.0
  0
LINE
  5
29
330
75D
100
AcDbEntity
  8
0
100
AcDbLine
 10
73.01357
 20
-167.665202
 30
0.0
 11
72.52845699999999
 21
-171.35
 31
0.0
  0
TEXT
  5
2A
330
75D
100
AcDbEntity
  8
0
100
AcDbText
 10
71.02845699999999
 20
-88.153947
 30
0.0
 40
3.0
  1
170
 50
90.0
 41
1.943121514129375
  7
SANDVIK_STYLE
 72
     5
 11
71.02845699999999
 21
-77.947969
 31
0.0
100
AcDbText
  0
ENDBLK
  5
2B
330
75D
100
AcDbEntity
  8
0
100
AcDbBlockEnd
  0
BLOCK
  5
2C
330
75E
100
AcDbEntity
  8
0
100
AcDbBlockBegin
  2
ASSORTEDPART4
 70
     0
 10
0.0
 20
0.0
 30
0.0
  3
ASSORTEDPART4
  1

  0
LINE
  5
2D
330
75E
100
AcDbEntity
  8
0
100
AcDbLine
 10
27.216766
 20
-171.35
 30
0.0
 11
60.25116999999999
 21
-171.35
 31
0.0
  0
LINE
  5
2E
330
75E
100
AcDbEntity
  8
0
100
AcDbLine
 10
26.717399
 20
-138.85
 30
0.0
 11
60.25116999999999
 21
-138.85
 31
0.0
  0
LINE
  5
2F
330
75E
100
AcDbEntity
  8
0
100
AcDbLine
 10
56.56637199999999
 20
-171.35
 30
0.0
 11
56.56637199999999
 21
-138.85
 31
0.0
  0
LINE
  5
30
330
75E
100
AcDbEntity
  8
0
100
AcDbLine
 10
56.56637199999999
 20
-171.35
 30
0.0
 11
56.081259
 21
-167.665202
 31
0.0
  0
LINE
  5
31
330
75E
100
AcDbEntity
  8
0
100
AcDbLine
 10
56.081259
 20
-167.665202
 30
0.0
 11
57.05148499999999
 21
-167.665202
 31
0.0
  0
LINE
  5
32
330
75E
100
AcDbEntity
  8
0
100
AcDbLine
 10
57.05148499999999
 20
-167.665202
 30
0.0
 11
57.05148499999999
 21
-167.665202
 31
0.0
  0
LINE
  5
33
330
75E
100
AcDbEntity
  8
0
100
AcDbLine
 10
57.05148499999999
 20
-167.665202
 30
0.0
 11
56.56637199999999
 21
-171.35
 31
0.0
  0
LINE
  5
34
330
75E
100
AcDbEntity
  8
0
100
AcDbLine
 10
56.56637199999999
 20
-138.85
 30
0.0
 11
57.05148499999999
 21
-142.534798
 31
0.0
  0
LINE
  5
35
330
75E
100
AcDbEntity
  8
0
100
AcDbLine
 10
57.05148499999999
 20
-142.534798
 30
0.0
 11
56.081259
 21
-142.534798
 31
0.0
  0
LINE
  5
36
330
75E
100
AcDbEntity
  8
0
100
AcDbLine
 10
56.081259
 20
-142.534798
 30
0.0
 11
56.081259
 21
-142.534798
 31
0.0
  0
LINE
  5
37
330
75E
100
AcDbEntity
  8
0
100
AcDbLine
 10
56.081259
 20
-142.534798
 30
0.0
 11
56.56637199999999
 21
-138.85
 31
0.0
  0
TEXT
  5
38
330
75E
100
AcDbEntity
  8
0
100
AcDbText
 10
55.066372
 20
-158.167105
 30
0.0
 40
3.0
  1
31.6
 50
90.0
 41
2.176276413525843
  7
SANDVIK_STYLE
 72
     5
 11
55.066372
 21
-144.459134
 31
0.0
100
AcDbText
  0
ENDBLK
  5
39
330
75E
100
AcDbEntity
  8
0
100
AcDbBlockEnd
  0
ENDSEC
  0
SECTION
  2
ENTITIES
  0
LINE
  5
3A
330
72B
100
AcDbEntity
  8
1
100
AcDbLine
 10
21.025
 20
-144.85
 30
0.0
 11
3.0
 21
-144.85
 31
0.0
  0
LINE
  5
3B
330
72B
100
AcDbEntity
  8
1
100
AcDbLine
 10
-0.029016
 20
-141.820984
 30
0.0
 11
3.0
 21
-144.85
 31
0.0
  0
LINE
  5
3C
330
72B
100
AcDbEntity
  8
1
100
AcDbLine
 10
24.975
 20
-140.997888
 30
0.0
 11
-0.029016
 21
-140.997888
 31
0.0
  0
LINE
  5
3D
330
72B
100
AcDbEntity
  8
1
100
AcDbLine
 10
24.975
 20
-156.209369
 30
0.0
 11
22.625
 21
-156.209369
 31
0.0
  0
LINE
  5
3E
330
72B
100
AcDbEntity
  8
1
100
AcDbLine
 10
-0.029016
 20
-140.997888
 30
0.0
 11
-0.029016
 21
-141.820984
 31
0.0
  0
LINE
  5
3F
330
72B
100
AcDbEntity
  8
1
100
AcDbLine
 10
24.975
 20
-166.724877
 30
0.0
 11
22.625
 21
-166.724877
 31
0.0
  0
LINE
  5
40
330
72B
100
AcDbEntity
  8
1
100
AcDbLine
 10
24.975
 20
-139.35
 30
0.0
 11
-0.002182
 21
-139.35
 31
0.0
  0
LINE
  5
41
330
72B
100
AcDbEntity
  8
1
100
AcDbLine
 10
-0.002182
 20
-139.35
 30
0.0
 11
-0.029016
 21
-140.997888
 31
0.0
  0
LINE
  5
42
330
72B
100
AcDbEntity
  8
1
100
AcDbLine
 10
23.143425
 20
-166.874877
 30
0.0
 11
24.456575
 21
-166.874877
 31
0.0
  0
LINE
  5
43
330
72B
100
AcDbEntity
  8
1
100
AcDbLine
 10
24.875
 20
-138.85
 30
0.0
 11
0.0
 21
-138.85
 31
0.0
  0
LINE
  5
44
330
72B
100
AcDbEntity
  8
1
100
AcDbLine
 10
24.975
 20
-138.95
 30
0.0
 11
24.875
 21
-138.85
 31
0.0
  0
LINE
  5
45
330
72B
100
AcDbEntity
  8
1
100
AcDbLine
 10
-0.002182
 20
-139.35
 30
0.0
 11
0.0
 21
-138.85
 31
0.0
  0
LINE
  5
46
330
72B
100
AcDbEntity
  8
1
100
AcDbLine
 10
24.875
 20
0.0
 30
0.0
 11
0.0
 21
0.0
 31
0.0
  0
LINE
  5
47
330
72B
100
AcDbEntity
  8
1
100
AcDbLine
 10
24.875
 20
-138.85
 30
0.0
 11
24.875
 21
0.0
 31
0.0
  0
LINE
  5
48
330
72B
100
AcDbEntity
  8
1
100
AcDbLine
 10
0.0
 20
0.0
 30
0.0
 11
0.0
 21
-138.85
 31
0.0
  0
LINE
  5
49
330
72B
100
AcDbEntity
  8
1
100
AcDbLine
 10
25.061476
 20
-166.975001
 30
0.0
 11
22.538524
 21
-166.975001
 31
0.0
  0
LINE
  5
4A
330
72B
100
AcDbEntity
  8
1
100
AcDbLine
 10
22.364868
 20
-168.958335
 30
0.0
 11
25.235132
 21
-168.958335
 31
0.0
  0
LINE
  5
4B
330
72B
100
AcDbEntity
  8
1
100
AcDbLine
 10
22.75
 20
-166.776196
 30
0.0
 11
22.538543
 21
-166.776196
 31
0.0
  0
LINE
  5
4C
330
72B
100
AcDbEntity
  8
1
100
AcDbLine
 10
22.7517
 20
-166.775982
 30
0.0
 11
22.75
 21
-166.776196
 31
0.0
  0
LINE
  5
4D
330
72B
100
AcDbEntity
  8
1
100
AcDbLine
 10
24.8483
 20
-166.775982
 30
0.0
 11
24.85
 21
-166.776196
 31
0.0
  0
LINE
  5
4E
330
72B
100
AcDbEntity
  8
1
100
AcDbLine
 10
24.85
 20
-166.776196
 30
0.0
 11
25.061457
 21
-166.776196
 31
0.0
  0
LINE
  5
4F
330
72B
100
AcDbEntity
  8
1
100
AcDbLine
 10
24.975
 20
-166.494288
 30
0.0
 11
25.061465
 21
-166.494288
 31
0.0
  0
LINE
  5
50
330
72B
100
AcDbEntity
  8
1
100
AcDbLine
 10
22.625
 20
-166.494288
 30
0.0
 11
22.538535
 21
-166.494288
 31
0.0
  0
LINE
  5
51
330
72B
100
AcDbEntity
  8
1
100
AcDbLine
 10
24.975
 20
-164.921374
 30
0.0
 11
25.061572
 21
-164.921944
 31
0.0
  0
LINE
  5
52
330
72B
100
AcDbEntity
  8
1
100
AcDbLine
 10
25.059715
 20
-164.92195
 30
0.0
 11
25.059395
 21
-166.494287
 31
0.0
  0
LINE
  5
53
330
72B
100
AcDbEntity
  8
1
100
AcDbLine
 10
22.625
 20
-164.921374
 30
0.0
 11
22.538428
 21
-164.921944
 31
0.0
  0
LINE
  5
54
330
72B
100
AcDbEntity
  8
1
100
AcDbLine
 10
22.540285
 20
-164.92195
 30
0.0
 11
22.540605
 21
-166.494287
 31
0.0
  0
LINE
  5
55
330
72B
100
AcDbEntity
  8
1
100
AcDbLine
 10
22.625
 20
-164.714603
 30
0.0
 11
22.538415
 21
-164.714045
 31
0.0
  0
LINE
  5
56
330
72B
100
AcDbEntity
  8
1
100
AcDbLine
 10
24.975
 20
-164.714603
 30
0.0
 11
25.061585
 21
-164.714045
 31
0.0
  0
LINE
  5
57
330
72B
100
AcDbEntity
  8
1
100
AcDbLine
 10
25.059754
 20
-164.714038
 30
0.0
 11
25.060264
 21
-161.648398
 31
0.0
  0
LINE
  5
58
330
72B
100
AcDbEntity
  8
1
100
AcDbLine
 10
22.540246
 20
-164.714038
 30
0.0
 11
22.539736
 21
-161.648398
 31
0.0
  0
LINE
  5
59
330
72B
100
AcDbEntity
  8
1
100
AcDbLine
 10
25.0625
 20
-166.975011
 30
0.0
 11
25.0625
 21
-167.256908
 31
0.0
  0
LINE
  5
5A
330
72B
100
AcDbEntity
  8
1
100
AcDbLine
 10
22.5375
 20
-166.975011
 30
0.0
 11
22.5375
 21
-167.256908
 31
0.0
  0
LINE
  5
5B
330
72B
100
AcDbEntity
  8
1
100
AcDbLine
 10
22.625
 20
-166.726673
 30
0.0
 11
22.625
 21
-146.45
 31
0.0
  0
LINE
  5
5C
330
72B
100
AcDbEntity
  8
1
100
AcDbLine
 10
24.975
 20
-166.726673
 30
0.0
 11
24.975
 21
-138.95
 31
0.0
  0
LINE
  5
5D
330
72B
100
AcDbEntity
  8
81
100
AcDbLine
 10
0.0
 20
0.0
 30
0.0
 11
0.0
 21
-163.015255
 31
0.0
  0
LINE
  5
5E
330
72B
100
AcDbEntity
  8
80
100
AcDbLine
 10
0.0
 20
0.0
 30
0.0
 11
0.0
 21
10.176018
 31
0.0
  0
POINT
  5
5F
330
72B
100
AcDbEntity
  8
81
100
AcDbPoint
 10
25.37436700000001
 20
-171.35
 30
0.0
  0
POINT
  5
60
330
72B
100
AcDbEntity
  8
80
100
AcDbPoint
 10
0.0
 20
0.0
 30
0.0
  0
ARC
  5
61
330
72B
100
AcDbEntity
  8
1
100
AcDbCircle
 10
21.025
 20
-146.45
 30
0.0
 40
1.6
100
AcDbArc
 50
0.0
 51
90.0
  0
TEXT
  5
62
330
72B
100
AcDbEntity
  8
SK6
100
AcDbText
 10
-31.209954
 20
-100.317405
 30
0.0
 40
3.0
  1
R151.21-3225-30
 50
90.0
 41
1.842170737762965
  7
SANDVIK_STYLE
 72
     5
 11
-31.209954
 21
-48.087513
 31
0.0
100
AcDbText
  0
POLYLINE
  5
63
330
72B
100
AcDbEntity
  8
1
100
AcDb3dPolyline
 66
     1
 10
0.0
 20
0.0
 30
0.0
 70
     8
  0
VERTEX
  5
64
330
63
100
AcDbEntity
  8
1
100
AcDbVertex
100
AcDb3dPolylineVertex
 10
24.569785
 20
-166.862186
 30
0.0
 70
    32
  0
VERTEX
  5
65
330
63
100
AcDbEntity
  8
1
100
AcDbVertex
100
AcDb3dPolylineVertex
 10
24.567677
 20
-166.862624
 30
0.0
 70
    32
  0
VERTEX
  5
66
330
63
100
AcDbEntity
  8
1
100
AcDbVertex
100
AcDb3dPolylineVertex
 10
24.565569
 20
-166.863062
 30
0.0
 70
    32
  0
VERTEX
  5
67
330
63
100
AcDbEntity
  8
1
100
AcDbVertex
100
AcDb3dPolylineVertex
 10
24.563461
 20
-166.863501
 30
0.0
 70
    32
  0
VERTEX
  5
68
330
63
100
AcDbEntity
  8
1
100
AcDbVertex
100
AcDb3dPolylineVertex
 10
24.561351
 20
-166.86393
 30
0.0
 70
    32
  0
VERTEX
  5
69
330
63
100
AcDbEntity
  8
1
100
AcDbVertex
100
AcDb3dPolylineVertex
 10
24.559236
 20
-166.864333
 30
0.0
 70
    32
  0
VERTEX
  5
6A
330
63
100
AcDbEntity
  8
1
100
AcDbVertex
100
AcDb3dPolylineVertex
 10
24.557121
 20
-166.864735
 30
0.0
 70
    32
  0
VERTEX
  5
6B
330
63
100
AcDbEntity
  8
1
100
AcDbVertex
100
AcDb3dPolylineVertex
 10
24.555006
 20
-166.865138
 30
0.0
 70
    32
  0
VERTEX
  5
6C
330
63
100
AcDbEntity
  8
1
100
AcDbVertex
100
AcDb3dPolylineVertex
 10
24.552888
 20
-166.865524
 30
0.0
 70
    32
  0
VERTEX
  5
6D
330
63
100
AcDbEntity
  8
1
100
AcDbVertex
100
AcDb3dPolylineVertex
 10
24.550766
 20
-166.865891
 30
0.0
 70
    32
  0
VERTEX
  5
6E
330
63
100
AcDbEntity
  8
1
100
AcDbVertex
100
AcDb3dPolylineVertex
 10
24.548644
 20
-166.866258
 30
0.0
 70
    32
  0
VERTEX
  5
6F
330
63
100
AcDbEntity
  8
1
100
AcDbVertex
100
AcDb3dPolylineVertex
 10
24.546523
 20
-166.866625
 30
0.0
 70
    32
  0
VERTEX
  5
70
330
63
100
AcDbEntity
  8
1
100
AcDbVertex
100
AcDb3dPolylineVertex
 10
24.544397
 20
-166.8669689999999
 30
0.0
 70
    32
  0
VERTEX
  5
71
330
63
100
AcDbEntity
  8
1
100
AcDbVertex
100
AcDb3dPolylineVertex
 10
24.54227
 20
-166.867301
 30
0.0
 70
    32
  0
VERTEX
  5
72
330
63
100
AcDbEntity
  8
1
100
AcDbVertex
100
AcDb3dPolylineVertex
 10
24.540143
 20
-166.867633
 30
0.0
 70
    32
  0
VERTEX
  5
73
330
63
100
AcDbEntity
  8
1
100
AcDbVertex
100
AcDb3dPolylineVertex
 10
24.538015
 20
-166.867965
 30
0.0
 70
    32
  0
VERTEX
  5
74
330
63
100
AcDbEntity
  8
1
100
AcDbVertex
100
AcDb3dPolylineVertex
 10
24.535884
 20
-166.868267
 30
0.0
 70
    32
  0
VERTEX
  5
75
330
63
100
AcDbEntity
  8
1
100
AcDbVertex
100
AcDb3dPolylineVertex
 10
24.53375100000001
 20
-166.868564
 30
0.0
 70
    32
  0
VERTEX
  5
76
330
63
100
AcDbEntity
  8
1
100
AcDbVertex
100
AcDb3dPolylineVertex
 10
24.531619
 20
-166.86886
 30
0.0
 70
    32
  0
VERTEX
  5
77
330
63
100
AcDbEntity
  8
1
100
AcDbVertex
100
AcDb3dPolylineVertex
 10
24.529486
 20
-166.869157
 30
0.0
 70
    32
  0
SEQEND
  5
78
330
63
100
AcDbEntity
  8
1
  0
POLYLINE
  5
79
330
72B
100
AcDbEntity
  8
1
100
AcDb3dPolyline
 66
     1
 10
0.0
 20
0.0
 30
0.0
 70
     8
  0
VERTEX
  5
7A
330
79
100
AcDbEntity
  8
1
100
AcDbVertex
100
AcDb3dPolylineVertex
 10
23.030215
 20
-166.862186
 30
0.0
 70
    32
  0
VERTEX
  5
7B
330
79
100
AcDbEntity
  8
1
100
AcDbVertex
100
AcDb3dPolylineVertex
 10
23.032323
 20
-166.862624
 30
0.0
 70
    32
  0
VERTEX
  5
7C
330
79
100
AcDbEntity
  8
1
100
AcDbVertex
100
AcDb3dPolylineVertex
 10
23.034431
 20
-166.863062
 30
0.0
 70
    32
  0
VERTEX
  5
7D
330
79
100
AcDbEntity
  8
1
100
AcDbVertex
100
AcDb3dPolylineVertex
 10
23.036539
 20
-166.863501
 30
0.0
 70
    32
  0
VERTEX
  5
7E
330
79
100
AcDbEntity
  8
1
100
AcDbVertex
100
AcDb3dPolylineVertex
 10
23.038649
 20
-166.86393
 30
0.0
 70
    32
  0
VERTEX
  5
7F
330
79
100
AcDbEntity
  8
1
100
AcDbVertex
100
AcDb3dPolylineVertex
 10
23.040764
 20
-166.864333
 30
0.0
 70
    32
  0
VERTEX
  5
80
330
79
100
AcDbEntity
  8
1
100
AcDbVertex
100
AcDb3dPolylineVertex
 10
23.042879
 20
-166.864736
 30
0.0
 70
    32
  0
VERTEX
  5
81
330
79
100
AcDbEntity
  8
1
100
AcDbVertex
100
AcDb3dPolylineVertex
 10
23.044994
 20
-166.865139
 30
0.0
 70
    32
  0
VERTEX
  5
82
330
79
100
AcDbEntity
  8
1
100
AcDbVertex
100
AcDb3dPolylineVertex
 10
23.047112
 20
-166.865525
 30
0.0
 70
    32
  0
VERTEX
  5
83
330
79
100
AcDbEntity
  8
1
100
AcDbVertex
100
AcDb3dPolylineVertex
 10
23.049234
 20
-166.865892
 30
0.0
 70
    32
  0
VERTEX
  5
84
330
79
100
AcDbEntity
  8
1
100
AcDbVertex
100
AcDb3dPolylineVertex
 10
23.051355
 20
-166.866259
 30
0.0
 70
    32
  0
VERTEX
  5
85
330
79
100
AcDbEntity
  8
1
100
AcDbVertex
100
AcDb3dPolylineVertex
 10
23.053477
 20
-166.866626
 30
0.0
 70
    32
  0
VERTEX
  5
86
330
79
100
AcDbEntity
  8
1
100
AcDbVertex
100
AcDb3dPolylineVertex
 10
23.055602
 20
-166.86697
 30
0.0
 70
    32
  0
VERTEX
  5
87
330
79
100
AcDbEntity
  8
1
100
AcDbVertex
100
AcDb3dPolylineVertex
 10
23.05773
 20
-166.867301
 30
0.0
 70
    32
  0
VERTEX
  5
88
330
79
100
AcDbEntity
  8
1
100
AcDbVertex
100
AcDb3dPolylineVertex
 10
23.059857
 20
-166.867633
 30
0.0
 70
    32
  0
VERTEX
  5
89
330
79
100
AcDbEntity
  8
1
100
AcDbVertex
100
AcDb3dPolylineVertex
 10
23.061985
 20
-166.867965
 30
0.0
 70
    32
  0
VERTEX
  5
8A
330
79
100
AcDbEntity
  8
1
100
AcDbVertex
100
AcDb3dPolylineVertex
 10
23.064116
 20
-166.868267
 30
0.0
 70
    32
  0
VERTEX
  5
8B
330
79
100
AcDbEntity
  8
1
100
AcDbVertex
100
AcDb3dPolylineVertex
 10
23.066249
 20
-166.868564
 30
0.0
 70
    32
  0
VERTEX
  5
8C
330
79
100
AcDbEntity
  8
1
100
AcDbVertex
100
AcDb3dPolylineVertex
 10
23.068381
 20
-166.86886
 30
0.0
 70
    32
  0
VERTEX
  5
8D
330
79
100
AcDbEntity
  8
1
100
AcDbVertex
100
AcDb3dPolylineVertex
 10
23.070514
 20
-166.869157
 30
0.0
 70
    32
  0
SEQEND
  5
8E
330
79
100
AcDbEntity
  8
1
  0
POLYLINE
  5
8F
330
72B
100
AcDbEntity
  8
1
100
AcDb3dPolyline
 66
     1
 10
0.0
 20
0.0
 30
0.0
 70
     8
  0
VERTEX
  5
90
330
8F
100
AcDbEntity
  8
1
100
AcDbVertex
100
AcDb3dPolylineVertex
 10
25.260661
 20
-168.462908
 30
0.0
 70
    32
  0
VERTEX
  5
91
330
8F
100
AcDbEntity
  8
1
100
AcDbVertex
100
AcDb3dPolylineVertex
 10
25.127874
 20
-168.46295
 30
0.0
 70
    32
  0
VERTEX
  5
92
330
8F
100
AcDbEntity
  8
1
100
AcDbVertex
100
AcDb3dPolylineVertex
 10
24.995086
 20
-168.462991
 30
0.0
 70
    32
  0
VERTEX
  5
93
330
8F
100
AcDbEntity
  8
1
100
AcDbVertex
100
AcDb3dPolylineVertex
 10
24.862299
 20
-168.463033
 30
0.0
 70
    32
  0
VERTEX
  5
94
330
8F
100
AcDbEntity
  8
1
100
AcDbVertex
100
AcDb3dPolylineVertex
 10
24.729512
 20
-168.463075
 30
0.0
 70
    32
  0
VERTEX
  5
95
330
8F
100
AcDbEntity
  8
1
100
AcDbVertex
100
AcDb3dPolylineVertex
 10
24.596724
 20
-168.463117
 30
0.0
 70
    32
  0
VERTEX
  5
96
330
8F
100
AcDbEntity
  8
1
100
AcDbVertex
100
AcDb3dPolylineVertex
 10
24.463937
 20
-168.463158
 30
0.0
 70
    32
  0
VERTEX
  5
97
330
8F
100
AcDbEntity
  8
1
100
AcDbVertex
100
AcDb3dPolylineVertex
 10
24.331149
 20
-168.4632
 30
0.0
 70
    32
  0
VERTEX
  5
98
330
8F
100
AcDbEntity
  8
1
100
AcDbVertex
100
AcDb3dPolylineVertex
 10
24.198362
 20
-168.4632419999999
 30
0.0
 70
    32
  0
VERTEX
  5
99
330
8F
100
AcDbEntity
  8
1
100
AcDbVertex
100
AcDb3dPolylineVertex
 10
24.065575
 20
-168.463284
 30
0.0
 70
    32
  0
VERTEX
  5
9A
330
8F
100
AcDbEntity
  8
1
100
AcDbVertex
100
AcDb3dPolylineVertex
 10
23.932787
 20
-168.463325
 30
0.0
 70
    32
  0
VERTEX
  5
9B
330
8F
100
AcDbEntity
  8
1
100
AcDbVertex
100
AcDb3dPolylineVertex
 10
23.8
 20
-168.463367
 30
0.0
 70
    32
  0
SEQEND
  5
9C
330
8F
100
AcDbEntity
  8
1
  0
POLYLINE
  5
9D
330
72B
100
AcDbEntity
  8
1
100
AcDb3dPolyline
 66
     1
 10
0.0
 20
0.0
 30
0.0
 70
     8
  0
VERTEX
  5
9E
330
9D
100
AcDbEntity
  8
1
100
AcDbVertex
100
AcDb3dPolylineVertex
 10
23.799998
 20
-168.463335
 30
0.0
 70
    32
  0
VERTEX
  5
9F
330
9D
100
AcDbEntity
  8
1
100
AcDbVertex
100
AcDb3dPolylineVertex
 10
23.799998
 20
-168.35366
 30
0.0
 70
    32
  0
VERTEX
  5
A0
330
9D
100
AcDbEntity
  8
1
100
AcDbVertex
100
AcDb3dPolylineVertex
 10
23.799998
 20
-168.243985
 30
0.0
 70
    32
  0
VERTEX
  5
A1
330
9D
100
AcDbEntity
  8
1
100
AcDbVertex
100
AcDb3dPolylineVertex
 10
23.799998
 20
-168.134309
 30
0.0
 70
    32
  0
VERTEX
  5
A2
330
9D
100
AcDbEntity
  8
1
100
AcDbVertex
100
AcDb3dPolylineVertex
 10
23.799998
 20
-168.024634
 30
0.0
 70
    32
  0
VERTEX
  5
A3
330
9D
100
AcDbEntity
  8
1
100
AcDbVertex
100
AcDb3dPolylineVertex
 10
23.799998
 20
-167.914959
 30
0.0
 70
    32
  0
VERTEX
  5
A4
330
9D
100
AcDbEntity
  8
1
100
AcDbVertex
100
AcDb3dPolylineVertex
 10
23.799998
 20
-167.805284
 30
0.0
 70
    32
  0
VERTEX
  5
A5
330
9D
100
AcDbEntity
  8
1
100
AcDbVertex
100
AcDb3dPolylineVertex
 10
23.799998
 20
-167.695609
 30
0.0
 70
    32
  0
VERTEX
  5
A6
330
9D
100
AcDbEntity
  8
1
100
AcDbVertex
100
AcDb3dPolylineVertex
 10
23.799998
 20
-167.585934
 30
0.0
 70
    32
  0
VERTEX
  5
A7
330
9D
100
AcDbEntity
  8
1
100
AcDbVertex
100
AcDb3dPolylineVertex
 10
23.799998
 20
-167.476258
 30
0.0
 70
    32
  0
VERTEX
  5
A8
330
9D
100
AcDbEntity
  8
1
100
AcDbVertex
100
AcDb3dPolylineVertex
 10
23.799998
 20
-167.366583
 30
0.0
 70
    32
  0
VERTEX
  5
A9
330
9D
100
AcDbEntity
  8
1
100
AcDbVertex
100
AcDb3dPolylineVertex
 10
23.799998
 20
-167.256908
 30
0.0
 70
    32
  0
SEQEND
  5
AA
330
9D
100
AcDbEntity
  8
1
  0
POLYLINE
  5
AB
330
72B
100
AcDbEntity
  8
1
100
AcDb3dPolyline
 66
     1
 10
0.0
 20
0.0
 30
0.0
 70
     8
  0
VERTEX
  5
AC
330
AB
100
AcDbEntity
  8
1
100
AcDbVertex
100
AcDb3dPolylineVertex
 10
23.8
 20
-167.256908
 30
0.0
 70
    32
  0
VERTEX
  5
AD
330
AB
100
AcDbEntity
  8
1
100
AcDbVertex
100
AcDb3dPolylineVertex
 10
23.914679
 20
-167.256908
 30
0.0
 70
    32
  0
VERTEX
  5
AE
330
AB
100
AcDbEntity
  8
1
100
AcDbVertex
100
AcDb3dPolylineVertex
 10
24.029358
 20
-167.256908
 30
0.0
 70
    32
  0
VERTEX
  5
AF
330
AB
100
AcDbEntity
  8
1
100
AcDbVertex
100
AcDb3dPolylineVertex
 10
24.144037
 20
-167.256908
 30
0.0
 70
    32
  0
VERTEX
  5
B0
330
AB
100
AcDbEntity
  8
1
100
AcDbVertex
100
AcDb3dPolylineVertex
 10
24.258716
 20
-167.256908
 30
0.0
 70
    32
  0
VERTEX
  5
B1
330
AB
100
AcDbEntity
  8
1
100
AcDbVertex
100
AcDb3dPolylineVertex
 10
24.373395
 20
-167.256908
 30
0.0
 70
    32
  0
VERTEX
  5
B2
330
AB
100
AcDbEntity
  8
1
100
AcDbVertex
100
AcDb3dPolylineVertex
 10
24.488073
 20
-167.256908
 30
0.0
 70
    32
  0
VERTEX
  5
B3
330
AB
100
AcDbEntity
  8
1
100
AcDbVertex
100
AcDb3dPolylineVertex
 10
24.602752
 20
-167.256908
 30
0.0
 70
    32
  0
VERTEX
  5
B4
330
AB
100
AcDbEntity
  8
1
100
AcDbVertex
100
AcDb3dPolylineVertex
 10
24.717431
 20
-167.256908
 30
0.0
 70
    32
  0
VERTEX
  5
B5
330
AB
100
AcDbEntity
  8
1
100
AcDbVertex
100
AcDb3dPolylineVertex
 10
24.83211
 20
-167.256908
 30
0.0
 70
    32
  0
VERTEX
  5
B6
330
AB
100
AcDbEntity
  8
1
100
AcDbVertex
100
AcDb3dPolylineVertex
 10
24.946789
 20
-167.256908
 30
0.0
 70
    32
  0
VERTEX
  5
B7
330
AB
100
AcDbEntity
  8
1
100
AcDbVertex
100
AcDb3dPolylineVertex
 10
25.061468
 20
-167.256908
 30
0.0
 70
    32
  0
SEQEND
  5
B8
330
AB
100
AcDbEntity
  8
1
  0
POLYLINE
  5
B9
330
72B
100
AcDbEntity
  8
1
100
AcDb3dPolyline
 66
     1
 10
0.0
 20
0.0
 30
0.0
 70
     8
  0
VERTEX
  5
BA
330
B9
100
AcDbEntity
  8
1
100
AcDbVertex
100
AcDb3dPolylineVertex
 10
25.0625
 20
-167.307785
 30
0.0
 70
    32
  0
VERTEX
  5
BB
330
B9
100
AcDbEntity
  8
1
100
AcDbVertex
100
AcDb3dPolylineVertex
 10
25.0625
 20
-167.30316
 30
0.0
 70
    32
  0
VERTEX
  5
BC
330
B9
100
AcDbEntity
  8
1
100
AcDbVertex
100
AcDb3dPolylineVertex
 10
25.0625
 20
-167.298535
 30
0.0
 70
    32
  0
VERTEX
  5
BD
330
B9
100
AcDbEntity
  8
1
100
AcDbVertex
100
AcDb3dPolylineVertex
 10
25.0625
 20
-167.293909
 30
0.0
 70
    32
  0
VERTEX
  5
BE
330
B9
100
AcDbEntity
  8
1
100
AcDbVertex
100
AcDb3dPolylineVertex
 10
25.0625
 20
-167.289284
 30
0.0
 70
    32
  0
VERTEX
  5
BF
330
B9
100
AcDbEntity
  8
1
100
AcDbVertex
100
AcDb3dPolylineVertex
 10
25.0625
 20
-167.284659
 30
0.0
 70
    32
  0
VERTEX
  5
C0
330
B9
100
AcDbEntity
  8
1
100
AcDbVertex
100
AcDb3dPolylineVertex
 10
25.0625
 20
-167.280034
 30
0.0
 70
    32
  0
VERTEX
  5
C1
330
B9
100
AcDbEntity
  8
1
100
AcDbVertex
100
AcDb3dPolylineVertex
 10
25.0625
 20
-167.275409
 30
0.0
 70
    32
  0
VERTEX
  5
C2
330
B9
100
AcDbEntity
  8
1
100
AcDbVertex
100
AcDb3dPolylineVertex
 10
25.0625
 20
-167.270784
 30
0.0
 70
    32
  0
VERTEX
  5
C3
330
B9
100
AcDbEntity
  8
1
100
AcDbVertex
100
AcDb3dPolylineVertex
 10
25.0625
 20
-167.266158
 30
0.0
 70
    32
  0
VERTEX
  5
C4
330
B9
100
AcDbEntity
  8
1
100
AcDbVertex
100
AcDb3dPolylineVertex
 10
25.0625
 20
-167.261533
 30
0.0
 70
    32
  0
VERTEX
  5
C5
330
B9
100
AcDbEntity
  8
1
100
AcDbVertex
100
AcDb3dPolylineVertex
 10
25.0625
 20
-167.256908
 30
0.0
 70
    32
  0
SEQEND
  5
C6
330
B9
100
AcDbEntity
  8
1
  0
POLYLINE
  5
C7
330
72B
100
AcDbEntity
  8
1
100
AcDb3dPolyline
 66
     1
 10
0.0
 20
0.0
 30
0.0
 70
     8
  0
VERTEX
  5
C8
330
C7
100
AcDbEntity
  8
1
100
AcDbVertex
100
AcDb3dPolylineVertex
 10
25.0625
 20
-167.307785
 30
0.0
 70
    32
  0
VERTEX
  5
C9
330
C7
100
AcDbEntity
  8
1
100
AcDbVertex
100
AcDb3dPolylineVertex
 10
25.06279
 20
-167.313287
 30
0.0
 70
    32
  0
VERTEX
  5
CA
330
C7
100
AcDbEntity
  8
1
100
AcDbVertex
100
AcDb3dPolylineVertex
 10
25.063081
 20
-167.318789
 30
0.0
 70
    32
  0
VERTEX
  5
CB
330
C7
100
AcDbEntity
  8
1
100
AcDbVertex
100
AcDb3dPolylineVertex
 10
25.063371
 20
-167.324291
 30
0.0
 70
    32
  0
VERTEX
  5
CC
330
C7
100
AcDbEntity
  8
1
100
AcDbVertex
100
AcDb3dPolylineVertex
 10
25.063752
 20
-167.329783
 30
0.0
 70
    32
  0
VERTEX
  5
CD
330
C7
100
AcDbEntity
  8
1
100
AcDbVertex
100
AcDb3dPolylineVertex
 10
25.064608
 20
-167.335226
 30
0.0
 70
    32
  0
VERTEX
  5
CE
330
C7
100
AcDbEntity
  8
1
100
AcDbVertex
100
AcDb3dPolylineVertex
 10
25.065465
 20
-167.340668
 30
0.0
 70
    32
  0
VERTEX
  5
CF
330
C7
100
AcDbEntity
  8
1
100
AcDbVertex
100
AcDb3dPolylineVertex
 10
25.066322
 20
-167.346111
 30
0.0
 70
    32
  0
VERTEX
  5
D0
330
C7
100
AcDbEntity
  8
1
100
AcDbVertex
100
AcDb3dPolylineVertex
 10
25.067395
 20
-167.351507
 30
0.0
 70
    32
  0
VERTEX
  5
D1
330
C7
100
AcDbEntity
  8
1
100
AcDbVertex
100
AcDb3dPolylineVertex
 10
25.068821
 20
-167.356829
 30
0.0
 70
    32
  0
VERTEX
  5
D2
330
C7
100
AcDbEntity
  8
1
100
AcDbVertex
100
AcDb3dPolylineVertex
 10
25.070247
 20
-167.362151
 30
0.0
 70
    32
  0
VERTEX
  5
D3
330
C7
100
AcDbEntity
  8
1
100
AcDbVertex
100
AcDb3dPolylineVertex
 10
25.071673
 20
-167.367473
 30
0.0
 70
    32
  0
VERTEX
  5
D4
330
C7
100
AcDbEntity
  8
1
100
AcDbVertex
100
AcDb3dPolylineVertex
 10
25.073442
 20
-167.372683
 30
0.0
 70
    32
  0
VERTEX
  5
D5
330
C7
100
AcDbEntity
  8
1
100
AcDbVertex
100
AcDb3dPolylineVertex
 10
25.075421
 20
-167.377825
 30
0.0
 70
    32
  0
VERTEX
  5
D6
330
C7
100
AcDbEntity
  8
1
100
AcDbVertex
100
AcDb3dPolylineVertex
 10
25.077401
 20
-167.3829659999999
 30
0.0
 70
    32
  0
VERTEX
  5
D7
330
C7
100
AcDbEntity
  8
1
100
AcDbVertex
100
AcDb3dPolylineVertex
 10
25.07938
 20
-167.388108
 30
0.0
 70
    32
  0
VERTEX
  5
D8
330
C7
100
AcDbEntity
  8
1
100
AcDbVertex
100
AcDb3dPolylineVertex
 10
25.081797
 20
-167.393055
 30
0.0
 70
    32
  0
VERTEX
  5
D9
330
C7
100
AcDbEntity
  8
1
100
AcDbVertex
100
AcDb3dPolylineVertex
 10
25.084296
 20
-167.397965
 30
0.0
 70
    32
  0
VERTEX
  5
DA
330
C7
100
AcDbEntity
  8
1
100
AcDbVertex
100
AcDb3dPolylineVertex
 10
25.086796
 20
-167.402875
 30
0.0
 70
    32
  0
VERTEX
  5
DB
330
C7
100
AcDbEntity
  8
1
100
AcDbVertex
100
AcDb3dPolylineVertex
 10
25.089295
 20
-167.407785
 30
0.0
 70
    32
  0
SEQEND
  5
DC
330
C7
100
AcDbEntity
  8
1
  0
POLYLINE
  5
DD
330
72B
100
AcDbEntity
  8
1
100
AcDb3dPolyline
 66
     1
 10
0.0
 20
0.0
 30
0.0
 70
     8
  0
VERTEX
  5
DE
330
DD
100
AcDbEntity
  8
1
100
AcDbVertex
100
AcDb3dPolylineVertex
 10
25.18767
 20
-167.578175
 30
0.0
 70
    32
  0
VERTEX
  5
DF
330
DD
100
AcDbEntity
  8
1
100
AcDbVertex
100
AcDb3dPolylineVertex
 10
25.178727
 20
-167.562685
 30
0.0
 70
    32
  0
VERTEX
  5
E0
330
DD
100
AcDbEntity
  8
1
100
AcDbVertex
100
AcDb3dPolylineVertex
 10
25.169784
 20
-167.547195
 30
0.0
 70
    32
  0
VERTEX
  5
E1
330
DD
100
AcDbEntity
  8
1
100
AcDbVertex
100
AcDb3dPolylineVertex
 10
25.16084
 20
-167.531705
 30
0.0
 70
    32
  0
VERTEX
  5
E2
330
DD
100
AcDbEntity
  8
1
100
AcDbVertex
100
AcDb3dPolylineVertex
 10
25.151897
 20
-167.516215
 30
0.0
 70
    32
  0
VERTEX
  5
E3
330
DD
100
AcDbEntity
  8
1
100
AcDbVertex
100
AcDb3dPolylineVertex
 10
25.142954
 20
-167.500725
 30
0.0
 70
    32
  0
VERTEX
  5
E4
330
DD
100
AcDbEntity
  8
1
100
AcDbVertex
100
AcDb3dPolylineVertex
 10
25.134011
 20
-167.485235
 30
0.0
 70
    32
  0
VERTEX
  5
E5
330
DD
100
AcDbEntity
  8
1
100
AcDbVertex
100
AcDb3dPolylineVertex
 10
25.125068
 20
-167.469745
 30
0.0
 70
    32
  0
VERTEX
  5
E6
330
DD
100
AcDbEntity
  8
1
100
AcDbVertex
100
AcDb3dPolylineVertex
 10
25.116124
 20
-167.454255
 30
0.0
 70
    32
  0
VERTEX
  5
E7
330
DD
100
AcDbEntity
  8
1
100
AcDbVertex
100
AcDb3dPolylineVertex
 10
25.107181
 20
-167.438765
 30
0.0
 70
    32
  0
VERTEX
  5
E8
330
DD
100
AcDbEntity
  8
1
100
AcDbVertex
100
AcDb3dPolylineVertex
 10
25.098238
 20
-167.423275
 30
0.0
 70
    32
  0
VERTEX
  5
E9
330
DD
100
AcDbEntity
  8
1
100
AcDbVertex
100
AcDb3dPolylineVertex
 10
25.089295
 20
-167.407785
 30
0.0
 70
    32
  0
SEQEND
  5
EA
330
DD
100
AcDbEntity
  8
1
  0
POLYLINE
  5
EB
330
72B
100
AcDbEntity
  8
1
100
AcDb3dPolyline
 66
     1
 10
0.0
 20
0.0
 30
0.0
 70
     8
  0
VERTEX
  5
EC
330
EB
100
AcDbEntity
  8
1
100
AcDbVertex
100
AcDb3dPolylineVertex
 10
25.214126
 20
-167.666546
 30
0.0
 70
    32
  0
VERTEX
  5
ED
330
EB
100
AcDbEntity
  8
1
100
AcDbVertex
100
AcDb3dPolylineVertex
 10
25.213609
 20
-167.661676
 30
0.0
 70
    32
  0
VERTEX
  5
EE
330
EB
100
AcDbEntity
  8
1
100
AcDbVertex
100
AcDb3dPolylineVertex
 10
25.213092
 20
-167.656806
 30
0.0
 70
    32
  0
VERTEX
  5
EF
330
EB
100
AcDbEntity
  8
1
100
AcDbVertex
100
AcDb3dPolylineVertex
 10
25.212575
 20
-167.651936
 30
0.0
 70
    32
  0
VERTEX
  5
F0
330
EB
100
AcDbEntity
  8
1
100
AcDbVertex
100
AcDb3dPolylineVertex
 10
25.211984
 20
-167.647077
 30
0.0
 70
    32
  0
VERTEX
  5
F1
330
EB
100
AcDbEntity
  8
1
100
AcDbVertex
100
AcDb3dPolylineVertex
 10
25.211023
 20
-167.642275
 30
0.0
 70
    32
  0
VERTEX
  5
F2
330
EB
100
AcDbEntity
  8
1
100
AcDbVertex
100
AcDb3dPolylineVertex
 10
25.210062
 20
-167.637473
 30
0.0
 70
    32
  0
VERTEX
  5
F3
330
EB
100
AcDbEntity
  8
1
100
AcDbVertex
100
AcDb3dPolylineVertex
 10
25.209101
 20
-167.632671
 30
0.0
 70
    32
  0
VERTEX
  5
F4
330
EB
100
AcDbEntity
  8
1
100
AcDbVertex
100
AcDb3dPolylineVertex
 10
25.20797
 20
-167.627911
 30
0.0
 70
    32
  0
VERTEX
  5
F5
330
EB
100
AcDbEntity
  8
1
100
AcDbVertex
100
AcDb3dPolylineVertex
 10
25.206565
 20
-167.62322
 30
0.0
 70
    32
  0
VERTEX
  5
F6
330
EB
100
AcDbEntity
  8
1
100
AcDbVertex
100
AcDb3dPolylineVertex
 10
25.205161
 20
-167.618528
 30
0.0
 70
    32
  0
VERTEX
  5
F7
330
EB
100
AcDbEntity
  8
1
100
AcDbVertex
100
AcDb3dPolylineVertex
 10
25.203756
 20
-167.613837
 30
0.0
 70
    32
  0
VERTEX
  5
F8
330
EB
100
AcDbEntity
  8
1
100
AcDbVertex
100
AcDb3dPolylineVertex
 10
25.202086
 20
-167.609239
 30
0.0
 70
    32
  0
VERTEX
  5
F9
330
EB
100
AcDbEntity
  8
1
100
AcDbVertex
100
AcDb3dPolylineVertex
 10
25.20025
 20
-167.604698
 30
0.0
 70
    32
  0
VERTEX
  5
FA
330
EB
100
AcDbEntity
  8
1
100
AcDbVertex
100
AcDb3dPolylineVertex
 10
25.198414
 20
-167.600158
 30
0.0
 70
    32
  0
VERTEX
  5
FB
330
EB
100
AcDbEntity
  8
1
100
AcDbVertex
100
AcDb3dPolylineVertex
 10
25.196578
 20
-167.595618
 30
0.0
 70
    32
  0
VERTEX
  5
FC
330
EB
100
AcDbEntity
  8
1
100
AcDbVertex
100
AcDb3dPolylineVertex
 10
25.194402
 20
-167.591234
 30
0.0
 70
    32
  0
VERTEX
  5
FD
330
EB
100
AcDbEntity
  8
1
100
AcDbVertex
100
AcDb3dPolylineVertex
 10
25.192158
 20
-167.586881
 30
0.0
 70
    32
  0
VERTEX
  5
FE
330
EB
100
AcDbEntity
  8
1
100
AcDbVertex
100
AcDb3dPolylineVertex
 10
25.189914
 20
-167.582528
 30
0.0
 70
    32
  0
VERTEX
  5
FF
330
EB
100
AcDbEntity
  8
1
100
AcDbVertex
100
AcDb3dPolylineVertex
 10
25.18767
 20
-167.578175
 30
0.0
 70
    32
  0
SEQEND
  5
100
330
EB
100
AcDbEntity
  8
1
  0
POLYLINE
  5
101
330
72B
100
AcDbEntity
  8
1
100
AcDb3dPolyline
 66
     1
 10
0.0
 20
0.0
 30
0.0
 70
     8
  0
VERTEX
  5
102
330
101
100
AcDbEntity
  8
1
100
AcDbVertex
100
AcDb3dPolylineVertex
 10
25.260658
 20
-168.46548
 30
0.0
 70
    32
  0
VERTEX
  5
103
330
101
100
AcDbEntity
  8
1
100
AcDbVertex
100
AcDb3dPolylineVertex
 10
25.256428
 20
-168.39285
 30
0.0
 70
    32
  0
VERTEX
  5
104
330
101
100
AcDbEntity
  8
1
100
AcDbVertex
100
AcDb3dPolylineVertex
 10
25.252198
 20
-168.320219
 30
0.0
 70
    32
  0
VERTEX
  5
105
330
101
100
AcDbEntity
  8
1
100
AcDbVertex
100
AcDb3dPolylineVertex
 10
25.247968
 20
-168.247589
 30
0.0
 70
    32
  0
VERTEX
  5
106
330
101
100
AcDbEntity
  8
1
100
AcDbVertex
100
AcDb3dPolylineVertex
 10
25.243738
 20
-168.174959
 30
0.0
 70
    32
  0
VERTEX
  5
107
330
101
100
AcDbEntity
  8
1
100
AcDbVertex
100
AcDb3dPolylineVertex
 10
25.239508
 20
-168.102328
 30
0.0
 70
    32
  0
VERTEX
  5
108
330
101
100
AcDbEntity
  8
1
100
AcDbVertex
100
AcDb3dPolylineVertex
 10
25.235277
 20
-168.029698
 30
0.0
 70
    32
  0
VERTEX
  5
109
330
101
100
AcDbEntity
  8
1
100
AcDbVertex
100
AcDb3dPolylineVertex
 10
25.231047
 20
-167.957067
 30
0.0
 70
    32
  0
VERTEX
  5
10A
330
101
100
AcDbEntity
  8
1
100
AcDbVertex
100
AcDb3dPolylineVertex
 10
25.226817
 20
-167.884437
 30
0.0
 70
    32
  0
VERTEX
  5
10B
330
101
100
AcDbEntity
  8
1
100
AcDbVertex
100
AcDb3dPolylineVertex
 10
25.222587
 20
-167.811807
 30
0.0
 70
    32
  0
VERTEX
  5
10C
330
101
100
AcDbEntity
  8
1
100
AcDbVertex
100
AcDb3dPolylineVertex
 10
25.218356
 20
-167.739176
 30
0.0
 70
    32
  0
VERTEX
  5
10D
330
101
100
AcDbEntity
  8
1
100
AcDbVertex
100
AcDb3dPolylineVertex
 10
25.214126
 20
-167.666546
 30
0.0
 70
    32
  0
SEQEND
  5
10E
330
101
100
AcDbEntity
  8
1
  0
POLYLINE
  5
10F
330
72B
100
AcDbEntity
  8
1
100
AcDb3dPolyline
 66
     1
 10
0.0
 20
0.0
 30
0.0
 70
     8
  0
VERTEX
  5
110
330
10F
100
AcDbEntity
  8
1
100
AcDbVertex
100
AcDb3dPolylineVertex
 10
22.5375
 20
-167.307785
 30
0.0
 70
    32
  0
VERTEX
  5
111
330
10F
100
AcDbEntity
  8
1
100
AcDbVertex
100
AcDb3dPolylineVertex
 10
22.53721
 20
-167.313287
 30
0.0
 70
    32
  0
VERTEX
  5
112
330
10F
100
AcDbEntity
  8
1
100
AcDbVertex
100
AcDb3dPolylineVertex
 10
22.536919
 20
-167.318789
 30
0.0
 70
    32
  0
VERTEX
  5
113
330
10F
100
AcDbEntity
  8
1
100
AcDbVertex
100
AcDb3dPolylineVertex
 10
22.536629
 20
-167.324291
 30
0.0
 70
    32
  0
VERTEX
  5
114
330
10F
100
AcDbEntity
  8
1
100
AcDbVertex
100
AcDb3dPolylineVertex
 10
22.536248
 20
-167.329783
 30
0.0
 70
    32
  0
VERTEX
  5
115
330
10F
100
AcDbEntity
  8
1
100
AcDbVertex
100
AcDb3dPolylineVertex
 10
22.535392
 20
-167.335226
 30
0.0
 70
    32
  0
VERTEX
  5
116
330
10F
100
AcDbEntity
  8
1
100
AcDbVertex
100
AcDb3dPolylineVertex
 10
22.534535
 20
-167.340668
 30
0.0
 70
    32
  0
VERTEX
  5
117
330
10F
100
AcDbEntity
  8
1
100
AcDbVertex
100
AcDb3dPolylineVertex
 10
22.533678
 20
-167.346111
 30
0.0
 70
    32
  0
VERTEX
  5
118
330
10F
100
AcDbEntity
  8
1
100
AcDbVertex
100
AcDb3dPolylineVertex
 10
22.532605
 20
-167.351507
 30
0.0
 70
    32
  0
VERTEX
  5
119
330
10F
100
AcDbEntity
  8
1
100
AcDbVertex
100
AcDb3dPolylineVertex
 10
22.531179
 20
-167.356829
 30
0.0
 70
    32
  0
VERTEX
  5
11A
330
10F
100
AcDbEntity
  8
1
100
AcDbVertex
100
AcDb3dPolylineVertex
 10
22.529753
 20
-167.362151
 30
0.0
 70
    32
  0
VERTEX
  5
11B
330
10F
100
AcDbEntity
  8
1
100
AcDbVertex
100
AcDb3dPolylineVertex
 10
22.528327
 20
-167.367473
 30
0.0
 70
    32
  0
VERTEX
  5
11C
330
10F
100
AcDbEntity
  8
1
100
AcDbVertex
100
AcDb3dPolylineVertex
 10
22.526558
 20
-167.372683
 30
0.0
 70
    32
  0
VERTEX
  5
11D
330
10F
100
AcDbEntity
  8
1
100
AcDbVertex
100
AcDb3dPolylineVertex
 10
22.524579
 20
-167.377825
 30
0.0
 70
    32
  0
VERTEX
  5
11E
330
10F
100
AcDbEntity
  8
1
100
AcDbVertex
100
AcDb3dPolylineVertex
 10
22.522599
 20
-167.3829659999999
 30
0.0
 70
    32
  0
VERTEX
  5
11F
330
10F
100
AcDbEntity
  8
1
100
AcDbVertex
100
AcDb3dPolylineVertex
 10
22.52062
 20
-167.388108
 30
0.0
 70
    32
  0
VERTEX
  5
120
330
10F
100
AcDbEntity
  8
1
100
AcDbVertex
100
AcDb3dPolylineVertex
 10
22.518203
 20
-167.393055
 30
0.0
 70
    32
  0
VERTEX
  5
121
330
10F
100
AcDbEntity
  8
1
100
AcDbVertex
100
AcDb3dPolylineVertex
 10
22.515704
 20
-167.397965
 30
0.0
 70
    32
  0
VERTEX
  5
122
330
10F
100
AcDbEntity
  8
1
100
AcDbVertex
100
AcDb3dPolylineVertex
 10
22.513204
 20
-167.402875
 30
0.0
 70
    32
  0
VERTEX
  5
123
330
10F
100
AcDbEntity
  8
1
100
AcDbVertex
100
AcDb3dPolylineVertex
 10
22.510705
 20
-167.407785
 30
0.0
 70
    32
  0
SEQEND
  5
124
330
10F
100
AcDbEntity
  8
1
  0
POLYLINE
  5
125
330
72B
100
AcDbEntity
  8
1
100
AcDb3dPolyline
 66
     1
 10
0.0
 20
0.0
 30
0.0
 70
     8
  0
VERTEX
  5
126
330
125
100
AcDbEntity
  8
1
100
AcDbVertex
100
AcDb3dPolylineVertex
 10
22.339313
 20
-168.465479
 30
0.0
 70
    32
  0
VERTEX
  5
127
330
125
100
AcDbEntity
  8
1
100
AcDbVertex
100
AcDb3dPolylineVertex
 10
22.343543
 20
-168.392849
 30
0.0
 70
    32
  0
VERTEX
  5
128
330
125
100
AcDbEntity
  8
1
100
AcDbVertex
100
AcDb3dPolylineVertex
 10
22.347772
 20
-168.320218
 30
0.0
 70
    32
  0
VERTEX
  5
129
330
125
100
AcDbEntity
  8
1
100
AcDbVertex
100
AcDb3dPolylineVertex
 10
22.352002
 20
-168.247588
 30
0.0
 70
    32
  0
VERTEX
  5
12A
330
125
100
AcDbEntity
  8
1
100
AcDbVertex
100
AcDb3dPolylineVertex
 10
22.356232
 20
-168.174957
 30
0.0
 70
    32
  0
VERTEX
  5
12B
330
125
100
AcDbEntity
  8
1
100
AcDbVertex
100
AcDb3dPolylineVertex
 10
22.360462
 20
-168.102327
 30
0.0
 70
    32
  0
VERTEX
  5
12C
330
125
100
AcDbEntity
  8
1
100
AcDbVertex
100
AcDb3dPolylineVertex
 10
22.364691
 20
-168.029696
 30
0.0
 70
    32
  0
VERTEX
  5
12D
330
125
100
AcDbEntity
  8
1
100
AcDbVertex
100
AcDb3dPolylineVertex
 10
22.368921
 20
-167.957066
 30
0.0
 70
    32
  0
VERTEX
  5
12E
330
125
100
AcDbEntity
  8
1
100
AcDbVertex
100
AcDb3dPolylineVertex
 10
22.373151
 20
-167.884435
 30
0.0
 70
    32
  0
VERTEX
  5
12F
330
125
100
AcDbEntity
  8
1
100
AcDbVertex
100
AcDb3dPolylineVertex
 10
22.377381
 20
-167.811805
 30
0.0
 70
    32
  0
VERTEX
  5
130
330
125
100
AcDbEntity
  8
1
100
AcDbVertex
100
AcDb3dPolylineVertex
 10
22.381611
 20
-167.739174
 30
0.0
 70
    32
  0
VERTEX
  5
131
330
125
100
AcDbEntity
  8
1
100
AcDbVertex
100
AcDb3dPolylineVertex
 10
22.385841
 20
-167.666544
 30
0.0
 70
    32
  0
SEQEND
  5
132
330
125
100
AcDbEntity
  8
1
  0
POLYLINE
  5
133
330
72B
100
AcDbEntity
  8
1
100
AcDb3dPolyline
 66
     1
 10
0.0
 20
0.0
 30
0.0
 70
     8
  0
VERTEX
  5
134
330
133
100
AcDbEntity
  8
1
100
AcDbVertex
100
AcDb3dPolylineVertex
 10
22.385874
 20
-167.666546
 30
0.0
 70
    32
  0
VERTEX
  5
135
330
133
100
AcDbEntity
  8
1
100
AcDbVertex
100
AcDb3dPolylineVertex
 10
22.386391
 20
-167.661676
 30
0.0
 70
    32
  0
VERTEX
  5
136
330
133
100
AcDbEntity
  8
1
100
AcDbVertex
100
AcDb3dPolylineVertex
 10
22.386908
 20
-167.656806
 30
0.0
 70
    32
  0
VERTEX
  5
137
330
133
100
AcDbEntity
  8
1
100
AcDbVertex
100
AcDb3dPolylineVertex
 10
22.387425
 20
-167.651936
 30
0.0
 70
    32
  0
VERTEX
  5
138
330
133
100
AcDbEntity
  8
1
100
AcDbVertex
100
AcDb3dPolylineVertex
 10
22.388016
 20
-167.647077
 30
0.0
 70
    32
  0
VERTEX
  5
139
330
133
100
AcDbEntity
  8
1
100
AcDbVertex
100
AcDb3dPolylineVertex
 10
22.388977
 20
-167.642275
 30
0.0
 70
    32
  0
VERTEX
  5
13A
330
133
100
AcDbEntity
  8
1
100
AcDbVertex
100
AcDb3dPolylineVertex
 10
22.389938
 20
-167.637473
 30
0.0
 70
    32
  0
VERTEX
  5
13B
330
133
100
AcDbEntity
  8
1
100
AcDbVertex
100
AcDb3dPolylineVertex
 10
22.390899
 20
-167.632671
 30
0.0
 70
    32
  0
VERTEX
  5
13C
330
133
100
AcDbEntity
  8
1
100
AcDbVertex
100
AcDb3dPolylineVertex
 10
22.39203
 20
-167.627911
 30
0.0
 70
    32
  0
VERTEX
  5
13D
330
133
100
AcDbEntity
  8
1
100
AcDbVertex
100
AcDb3dPolylineVertex
 10
22.393435
 20
-167.62322
 30
0.0
 70
    32
  0
VERTEX
  5
13E
330
133
100
AcDbEntity
  8
1
100
AcDbVertex
100
AcDb3dPolylineVertex
 10
22.394839
 20
-167.618528
 30
0.0
 70
    32
  0
VERTEX
  5
13F
330
133
100
AcDbEntity
  8
1
100
AcDbVertex
100
AcDb3dPolylineVertex
 10
22.396244
 20
-167.613837
 30
0.0
 70
    32
  0
VERTEX
  5
140
330
133
100
AcDbEntity
  8
1
100
AcDbVertex
100
AcDb3dPolylineVertex
 10
22.397914
 20
-167.609239
 30
0.0
 70
    32
  0
VERTEX
  5
141
330
133
100
AcDbEntity
  8
1
100
AcDbVertex
100
AcDb3dPolylineVertex
 10
22.39975
 20
-167.604698
 30
0.0
 70
    32
  0
VERTEX
  5
142
330
133
100
AcDbEntity
  8
1
100
AcDbVertex
100
AcDb3dPolylineVertex
 10
22.401586
 20
-167.600158
 30
0.0
 70
    32
  0
VERTEX
  5
143
330
133
100
AcDbEntity
  8
1
100
AcDbVertex
100
AcDb3dPolylineVertex
 10
22.403422
 20
-167.595618
 30
0.0
 70
    32
  0
VERTEX
  5
144
330
133
100
AcDbEntity
  8
1
100
AcDbVertex
100
AcDb3dPolylineVertex
 10
22.405598
 20
-167.591234
 30
0.0
 70
    32
  0
VERTEX
  5
145
330
133
100
AcDbEntity
  8
1
100
AcDbVertex
100
AcDb3dPolylineVertex
 10
22.407842
 20
-167.586881
 30
0.0
 70
    32
  0
VERTEX
  5
146
330
133
100
AcDbEntity
  8
1
100
AcDbVertex
100
AcDb3dPolylineVertex
 10
22.410086
 20
-167.582528
 30
0.0
 70
    32
  0
VERTEX
  5
147
330
133
100
AcDbEntity
  8
1
100
AcDbVertex
100
AcDb3dPolylineVertex
 10
22.41233
 20
-167.578175
 30
0.0
 70
    32
  0
SEQEND
  5
148
330
133
100
AcDbEntity
  8
1
  0
POLYLINE
  5
149
330
72B
100
AcDbEntity
  8
1
100
AcDb3dPolyline
 66
     1
 10
0.0
 20
0.0
 30
0.0
 70
     8
  0
VERTEX
  5
14A
330
149
100
AcDbEntity
  8
1
100
AcDbVertex
100
AcDb3dPolylineVertex
 10
22.412255
 20
-167.578131
 30
0.0
 70
    32
  0
VERTEX
  5
14B
330
149
100
AcDbEntity
  8
1
100
AcDbVertex
100
AcDb3dPolylineVertex
 10
22.421199
 20
-167.562641
 30
0.0
 70
    32
  0
VERTEX
  5
14C
330
149
100
AcDbEntity
  8
1
100
AcDbVertex
100
AcDb3dPolylineVertex
 10
22.430142
 20
-167.547151
 30
0.0
 70
    32
  0
VERTEX
  5
14D
330
149
100
AcDbEntity
  8
1
100
AcDbVertex
100
AcDb3dPolylineVertex
 10
22.439086
 20
-167.531662
 30
0.0
 70
    32
  0
VERTEX
  5
14E
330
149
100
AcDbEntity
  8
1
100
AcDbVertex
100
AcDb3dPolylineVertex
 10
22.448029
 20
-167.516172
 30
0.0
 70
    32
  0
VERTEX
  5
14F
330
149
100
AcDbEntity
  8
1
100
AcDbVertex
100
AcDb3dPolylineVertex
 10
22.456973
 20
-167.500682
 30
0.0
 70
    32
  0
VERTEX
  5
150
330
149
100
AcDbEntity
  8
1
100
AcDbVertex
100
AcDb3dPolylineVertex
 10
22.465917
 20
-167.4851929999999
 30
0.0
 70
    32
  0
VERTEX
  5
151
330
149
100
AcDbEntity
  8
1
100
AcDbVertex
100
AcDb3dPolylineVertex
 10
22.474861
 20
-167.469703
 30
0.0
 70
    32
  0
VERTEX
  5
152
330
149
100
AcDbEntity
  8
1
100
AcDbVertex
100
AcDb3dPolylineVertex
 10
22.483805
 20
-167.454213
 30
0.0
 70
    32
  0
VERTEX
  5
153
330
149
100
AcDbEntity
  8
1
100
AcDbVertex
100
AcDb3dPolylineVertex
 10
22.492748
 20
-167.438724
 30
0.0
 70
    32
  0
VERTEX
  5
154
330
149
100
AcDbEntity
  8
1
100
AcDbVertex
100
AcDb3dPolylineVertex
 10
22.501692
 20
-167.423234
 30
0.0
 70
    32
  0
VERTEX
  5
155
330
149
100
AcDbEntity
  8
1
100
AcDbVertex
100
AcDb3dPolylineVertex
 10
22.510635
 20
-167.407744
 30
0.0
 70
    32
  0
SEQEND
  5
156
330
149
100
AcDbEntity
  8
1
  0
POLYLINE
  5
157
330
72B
100
AcDbEntity
  8
1
100
AcDb3dPolyline
 66
     1
 10
0.0
 20
0.0
 30
0.0
 70
     8
  0
VERTEX
  5
158
330
157
100
AcDbEntity
  8
1
100
AcDbVertex
100
AcDb3dPolylineVertex
 10
22.540606
 20
-167.307784
 30
0.0
 70
    32
  0
VERTEX
  5
159
330
157
100
AcDbEntity
  8
1
100
AcDbVertex
100
AcDb3dPolylineVertex
 10
22.540605
 20
-167.303159
 30
0.0
 70
    32
  0
VERTEX
  5
15A
330
157
100
AcDbEntity
  8
1
100
AcDbVertex
100
AcDb3dPolylineVertex
 10
22.540604
 20
-167.298534
 30
0.0
 70
    32
  0
VERTEX
  5
15B
330
157
100
AcDbEntity
  8
1
100
AcDbVertex
100
AcDb3dPolylineVertex
 10
22.540603
 20
-167.293909
 30
0.0
 70
    32
  0
VERTEX
  5
15C
330
157
100
AcDbEntity
  8
1
100
AcDbVertex
100
AcDb3dPolylineVertex
 10
22.540602
 20
-167.289284
 30
0.0
 70
    32
  0
VERTEX
  5
15D
330
157
100
AcDbEntity
  8
1
100
AcDbVertex
100
AcDb3dPolylineVertex
 10
22.540601
 20
-167.284659
 30
0.0
 70
    32
  0
VERTEX
  5
15E
330
157
100
AcDbEntity
  8
1
100
AcDbVertex
100
AcDb3dPolylineVertex
 10
22.5406
 20
-167.280033
 30
0.0
 70
    32
  0
VERTEX
  5
15F
330
157
100
AcDbEntity
  8
1
100
AcDbVertex
100
AcDb3dPolylineVertex
 10
22.540599
 20
-167.275408
 30
0.0
 70
    32
  0
VERTEX
  5
160
330
157
100
AcDbEntity
  8
1
100
AcDbVertex
100
AcDb3dPolylineVertex
 10
22.540598
 20
-167.270783
 30
0.0
 70
    32
  0
VERTEX
  5
161
330
157
100
AcDbEntity
  8
1
100
AcDbVertex
100
AcDb3dPolylineVertex
 10
22.540597
 20
-167.266158
 30
0.0
 70
    32
  0
VERTEX
  5
162
330
157
100
AcDbEntity
  8
1
100
AcDbVertex
100
AcDb3dPolylineVertex
 10
22.540596
 20
-167.261533
 30
0.0
 70
    32
  0
VERTEX
  5
163
330
157
100
AcDbEntity
  8
1
100
AcDbVertex
100
AcDb3dPolylineVertex
 10
22.540595
 20
-167.256908
 30
0.0
 70
    32
  0
SEQEND
  5
164
330
157
100
AcDbEntity
  8
1
  0
POLYLINE
  5
165
330
72B
100
AcDbEntity
  8
1
100
AcDb3dPolyline
 66
     1
 10
0.0
 20
0.0
 30
0.0
 70
     8
  0
VERTEX
  5
166
330
165
100
AcDbEntity
  8
1
100
AcDbVertex
100
AcDb3dPolylineVertex
 10
23.8
 20
-167.256908
 30
0.0
 70
    32
  0
VERTEX
  5
167
330
165
100
AcDbEntity
  8
1
100
AcDbVertex
100
AcDb3dPolylineVertex
 10
23.685321
 20
-167.256908
 30
0.0
 70
    32
  0
VERTEX
  5
168
330
165
100
AcDbEntity
  8
1
100
AcDbVertex
100
AcDb3dPolylineVertex
 10
23.570642
 20
-167.256908
 30
0.0
 70
    32
  0
VERTEX
  5
169
330
165
100
AcDbEntity
  8
1
100
AcDbVertex
100
AcDb3dPolylineVertex
 10
23.455963
 20
-167.256908
 30
0.0
 70
    32
  0
VERTEX
  5
16A
330
165
100
AcDbEntity
  8
1
100
AcDbVertex
100
AcDb3dPolylineVertex
 10
23.341284
 20
-167.256908
 30
0.0
 70
    32
  0
VERTEX
  5
16B
330
165
100
AcDbEntity
  8
1
100
AcDbVertex
100
AcDb3dPolylineVertex
 10
23.226605
 20
-167.256908
 30
0.0
 70
    32
  0
VERTEX
  5
16C
330
165
100
AcDbEntity
  8
1
100
AcDbVertex
100
AcDb3dPolylineVertex
 10
23.111927
 20
-167.256908
 30
0.0
 70
    32
  0
VERTEX
  5
16D
330
165
100
AcDbEntity
  8
1
100
AcDbVertex
100
AcDb3dPolylineVertex
 10
22.997248
 20
-167.256908
 30
0.0
 70
    32
  0
VERTEX
  5
16E
330
165
100
AcDbEntity
  8
1
100
AcDbVertex
100
AcDb3dPolylineVertex
 10
22.882569
 20
-167.256908
 30
0.0
 70
    32
  0
VERTEX
  5
16F
330
165
100
AcDbEntity
  8
1
100
AcDbVertex
100
AcDb3dPolylineVertex
 10
22.76789
 20
-167.256908
 30
0.0
 70
    32
  0
VERTEX
  5
170
330
165
100
AcDbEntity
  8
1
100
AcDbVertex
100
AcDb3dPolylineVertex
 10
22.653211
 20
-167.256908
 30
0.0
 70
    32
  0
VERTEX
  5
171
330
165
100
AcDbEntity
  8
1
100
AcDbVertex
100
AcDb3dPolylineVertex
 10
22.538532
 20
-167.256908
 30
0.0
 70
    32
  0
SEQEND
  5
172
330
165
100
AcDbEntity
  8
1
  0
POLYLINE
  5
173
330
72B
100
AcDbEntity
  8
1
100
AcDb3dPolyline
 66
     1
 10
0.0
 20
0.0
 30
0.0
 70
     8
  0
VERTEX
  5
174
330
173
100
AcDbEntity
  8
1
100
AcDbVertex
100
AcDb3dPolylineVertex
 10
22.339339
 20
-168.463335
 30
0.0
 70
    32
  0
VERTEX
  5
175
330
173
100
AcDbEntity
  8
1
100
AcDbVertex
100
AcDb3dPolylineVertex
 10
22.472126
 20
-168.463335
 30
0.0
 70
    32
  0
VERTEX
  5
176
330
173
100
AcDbEntity
  8
1
100
AcDbVertex
100
AcDb3dPolylineVertex
 10
22.604914
 20
-168.463335
 30
0.0
 70
    32
  0
VERTEX
  5
177
330
173
100
AcDbEntity
  8
1
100
AcDbVertex
100
AcDb3dPolylineVertex
 10
22.737701
 20
-168.463335
 30
0.0
 70
    32
  0
VERTEX
  5
178
330
173
100
AcDbEntity
  8
1
100
AcDbVertex
100
AcDb3dPolylineVertex
 10
22.870488
 20
-168.463335
 30
0.0
 70
    32
  0
VERTEX
  5
179
330
173
100
AcDbEntity
  8
1
100
AcDbVertex
100
AcDb3dPolylineVertex
 10
23.003276
 20
-168.463335
 30
0.0
 70
    32
  0
VERTEX
  5
17A
330
173
100
AcDbEntity
  8
1
100
AcDbVertex
100
AcDb3dPolylineVertex
 10
23.136063
 20
-168.463335
 30
0.0
 70
    32
  0
VERTEX
  5
17B
330
173
100
AcDbEntity
  8
1
100
AcDbVertex
100
AcDb3dPolylineVertex
 10
23.268851
 20
-168.463335
 30
0.0
 70
    32
  0
VERTEX
  5
17C
330
173
100
AcDbEntity
  8
1
100
AcDbVertex
100
AcDb3dPolylineVertex
 10
23.401638
 20
-168.463335
 30
0.0
 70
    32
  0
VERTEX
  5
17D
330
173
100
AcDbEntity
  8
1
100
AcDbVertex
100
AcDb3dPolylineVertex
 10
23.534425
 20
-168.463335
 30
0.0
 70
    32
  0
VERTEX
  5
17E
330
173
100
AcDbEntity
  8
1
100
AcDbVertex
100
AcDb3dPolylineVertex
 10
23.667213
 20
-168.463335
 30
0.0
 70
    32
  0
VERTEX
  5
17F
330
173
100
AcDbEntity
  8
1
100
AcDbVertex
100
AcDb3dPolylineVertex
 10
23.8
 20
-168.463335
 30
0.0
 70
    32
  0
SEQEND
  5
180
330
173
100
AcDbEntity
  8
1
  0
POLYLINE
  5
181
330
72B
100
AcDbEntity
  8
1
100
AcDb3dPolyline
 66
     1
 10
0.0
 20
0.0
 30
0.0
 70
     8
  0
VERTEX
  5
182
330
181
100
AcDbEntity
  8
1
100
AcDbVertex
100
AcDb3dPolylineVertex
 10
25.235152
 20
-168.958336
 30
0.0
 70
    32
  0
VERTEX
  5
183
330
181
100
AcDbEntity
  8
1
100
AcDbVertex
100
AcDb3dPolylineVertex
 10
25.237456
 20
-168.91341
 30
0.0
 70
    32
  0
VERTEX
  5
184
330
181
100
AcDbEntity
  8
1
100
AcDbVertex
100
AcDb3dPolylineVertex
 10
25.239759
 20
-168.868484
 30
0.0
 70
    32
  0
VERTEX
  5
185
330
181
100
AcDbEntity
  8
1
100
AcDbVertex
100
AcDb3dPolylineVertex
 10
25.242063
 20
-168.823558
 30
0.0
 70
    32
  0
VERTEX
  5
186
330
181
100
AcDbEntity
  8
1
100
AcDbVertex
100
AcDb3dPolylineVertex
 10
25.244367
 20
-168.778632
 30
0.0
 70
    32
  0
VERTEX
  5
187
330
181
100
AcDbEntity
  8
1
100
AcDbVertex
100
AcDb3dPolylineVertex
 10
25.24667
 20
-168.733706
 30
0.0
 70
    32
  0
VERTEX
  5
188
330
181
100
AcDbEntity
  8
1
100
AcDbVertex
100
AcDb3dPolylineVertex
 10
25.248974
 20
-168.688781
 30
0.0
 70
    32
  0
VERTEX
  5
189
330
181
100
AcDbEntity
  8
1
100
AcDbVertex
100
AcDb3dPolylineVertex
 10
25.251277
 20
-168.643855
 30
0.0
 70
    32
  0
VERTEX
  5
18A
330
181
100
AcDbEntity
  8
1
100
AcDbVertex
100
AcDb3dPolylineVertex
 10
25.253581
 20
-168.598929
 30
0.0
 70
    32
  0
VERTEX
  5
18B
330
181
100
AcDbEntity
  8
1
100
AcDbVertex
100
AcDb3dPolylineVertex
 10
25.255884
 20
-168.554003
 30
0.0
 70
    32
  0
VERTEX
  5
18C
330
181
100
AcDbEntity
  8
1
100
AcDbVertex
100
AcDb3dPolylineVertex
 10
25.258188
 20
-168.509077
 30
0.0
 70
    32
  0
VERTEX
  5
18D
330
181
100
AcDbEntity
  8
1
100
AcDbVertex
100
AcDb3dPolylineVertex
 10
25.260492
 20
-168.464151
 30
0.0
 70
    32
  0
SEQEND
  5
18E
330
181
100
AcDbEntity
  8
1
  0
POLYLINE
  5
18F
330
72B
100
AcDbEntity
  8
1
100
AcDb3dPolyline
 66
     1
 10
0.0
 20
0.0
 30
0.0
 70
     8
  0
VERTEX
  5
190
330
18F
100
AcDbEntity
  8
1
100
AcDbVertex
100
AcDb3dPolylineVertex
 10
22.364907
 20
-168.958339
 30
0.0
 70
    32
  0
VERTEX
  5
191
330
18F
100
AcDbEntity
  8
1
100
AcDbVertex
100
AcDb3dPolylineVertex
 10
22.362604
 20
-168.913413
 30
0.0
 70
    32
  0
VERTEX
  5
192
330
18F
100
AcDbEntity
  8
1
100
AcDbVertex
100
AcDb3dPolylineVertex
 10
22.360301
 20
-168.868487
 30
0.0
 70
    32
  0
VERTEX
  5
193
330
18F
100
AcDbEntity
  8
1
100
AcDbVertex
100
AcDb3dPolylineVertex
 10
22.357997
 20
-168.823561
 30
0.0
 70
    32
  0
VERTEX
  5
194
330
18F
100
AcDbEntity
  8
1
100
AcDbVertex
100
AcDb3dPolylineVertex
 10
22.355694
 20
-168.778635
 30
0.0
 70
    32
  0
VERTEX
  5
195
330
18F
100
AcDbEntity
  8
1
100
AcDbVertex
100
AcDb3dPolylineVertex
 10
22.353391
 20
-168.733709
 30
0.0
 70
    32
  0
VERTEX
  5
196
330
18F
100
AcDbEntity
  8
1
100
AcDbVertex
100
AcDb3dPolylineVertex
 10
22.351088
 20
-168.688784
 30
0.0
 70
    32
  0
VERTEX
  5
197
330
18F
100
AcDbEntity
  8
1
100
AcDbVertex
100
AcDb3dPolylineVertex
 10
22.348785
 20
-168.643858
 30
0.0
 70
    32
  0
VERTEX
  5
198
330
18F
100
AcDbEntity
  8
1
100
AcDbVertex
100
AcDb3dPolylineVertex
 10
22.346482
 20
-168.598932
 30
0.0
 70
    32
  0
VERTEX
  5
199
330
18F
100
AcDbEntity
  8
1
100
AcDbVertex
100
AcDb3dPolylineVertex
 10
22.344178
 20
-168.554006
 30
0.0
 70
    32
  0
VERTEX
  5
19A
330
18F
100
AcDbEntity
  8
1
100
AcDbVertex
100
AcDb3dPolylineVertex
 10
22.341875
 20
-168.50908
 30
0.0
 70
    32
  0
VERTEX
  5
19B
330
18F
100
AcDbEntity
  8
1
100
AcDbVertex
100
AcDb3dPolylineVertex
 10
22.339572
 20
-168.464154
 30
0.0
 70
    32
  0
SEQEND
  5
19C
330
18F
100
AcDbEntity
  8
1
  0
POLYLINE
  5
19D
330
72B
100
AcDbEntity
  8
1
100
AcDb3dPolyline
 66
     1
 10
0.0
 20
0.0
 30
0.0
 70
     8
  0
VERTEX
  5
19E
330
19D
100
AcDbEntity
  8
1
100
AcDbVertex
100
AcDb3dPolylineVertex
 10
25.0625
 20
-166.975011
 30
0.0
 70
    32
  0
VERTEX
  5
19F
330
19D
100
AcDbEntity
  8
1
100
AcDbVertex
100
AcDb3dPolylineVertex
 10
25.0625
 20
-166.956937
 30
0.0
 70
    32
  0
VERTEX
  5
1A0
330
19D
100
AcDbEntity
  8
1
100
AcDbVertex
100
AcDb3dPolylineVertex
 10
25.0625
 20
-166.938863
 30
0.0
 70
    32
  0
VERTEX
  5
1A1
330
19D
100
AcDbEntity
  8
1
100
AcDbVertex
100
AcDb3dPolylineVertex
 10
25.0625
 20
-166.920789
 30
0.0
 70
    32
  0
VERTEX
  5
1A2
330
19D
100
AcDbEntity
  8
1
100
AcDbVertex
100
AcDb3dPolylineVertex
 10
25.0625
 20
-166.902715
 30
0.0
 70
    32
  0
VERTEX
  5
1A3
330
19D
100
AcDbEntity
  8
1
100
AcDbVertex
100
AcDb3dPolylineVertex
 10
25.0625
 20
-166.884641
 30
0.0
 70
    32
  0
VERTEX
  5
1A4
330
19D
100
AcDbEntity
  8
1
100
AcDbVertex
100
AcDb3dPolylineVertex
 10
25.0625
 20
-166.866566
 30
0.0
 70
    32
  0
VERTEX
  5
1A5
330
19D
100
AcDbEntity
  8
1
100
AcDbVertex
100
AcDb3dPolylineVertex
 10
25.0625
 20
-166.848492
 30
0.0
 70
    32
  0
VERTEX
  5
1A6
330
19D
100
AcDbEntity
  8
1
100
AcDbVertex
100
AcDb3dPolylineVertex
 10
25.0625
 20
-166.8304179999999
 30
0.0
 70
    32
  0
VERTEX
  5
1A7
330
19D
100
AcDbEntity
  8
1
100
AcDbVertex
100
AcDb3dPolylineVertex
 10
25.0625
 20
-166.812344
 30
0.0
 70
    32
  0
VERTEX
  5
1A8
330
19D
100
AcDbEntity
  8
1
100
AcDbVertex
100
AcDb3dPolylineVertex
 10
25.0625
 20
-166.79427
 30
0.0
 70
    32
  0
VERTEX
  5
1A9
330
19D
100
AcDbEntity
  8
1
100
AcDbVertex
100
AcDb3dPolylineVertex
 10
25.0625
 20
-166.776196
 30
0.0
 70
    32
  0
SEQEND
  5
1AA
330
19D
100
AcDbEntity
  8
1
  0
POLYLINE
  5
1AB
330
72B
100
AcDbEntity
  8
1
100
AcDb3dPolyline
 66
     1
 10
0.0
 20
0.0
 30
0.0
 70
     8
  0
VERTEX
  5
1AC
330
1AB
100
AcDbEntity
  8
1
100
AcDbVertex
100
AcDb3dPolylineVertex
 10
22.540573
 20
-166.97501
 30
0.0
 70
    32
  0
VERTEX
  5
1AD
330
1AB
100
AcDbEntity
  8
1
100
AcDbVertex
100
AcDb3dPolylineVertex
 10
22.540578
 20
-166.956936
 30
0.0
 70
    32
  0
VERTEX
  5
1AE
330
1AB
100
AcDbEntity
  8
1
100
AcDbVertex
100
AcDb3dPolylineVertex
 10
22.540583
 20
-166.938862
 30
0.0
 70
    32
  0
VERTEX
  5
1AF
330
1AB
100
AcDbEntity
  8
1
100
AcDbVertex
100
AcDb3dPolylineVertex
 10
22.540588
 20
-166.920788
 30
0.0
 70
    32
  0
VERTEX
  5
1B0
330
1AB
100
AcDbEntity
  8
1
100
AcDbVertex
100
AcDb3dPolylineVertex
 10
22.540593
 20
-166.902714
 30
0.0
 70
    32
  0
VERTEX
  5
1B1
330
1AB
100
AcDbEntity
  8
1
100
AcDbVertex
100
AcDb3dPolylineVertex
 10
22.540598
 20
-166.88464
 30
0.0
 70
    32
  0
VERTEX
  5
1B2
330
1AB
100
AcDbEntity
  8
1
100
AcDbVertex
100
AcDb3dPolylineVertex
 10
22.540603
 20
-166.866565
 30
0.0
 70
    32
  0
VERTEX
  5
1B3
330
1AB
100
AcDbEntity
  8
1
100
AcDbVertex
100
AcDb3dPolylineVertex
 10
22.540608
 20
-166.848491
 30
0.0
 70
    32
  0
VERTEX
  5
1B4
330
1AB
100
AcDbEntity
  8
1
100
AcDbVertex
100
AcDb3dPolylineVertex
 10
22.540613
 20
-166.830417
 30
0.0
 70
    32
  0
VERTEX
  5
1B5
330
1AB
100
AcDbEntity
  8
1
100
AcDbVertex
100
AcDb3dPolylineVertex
 10
22.540618
 20
-166.812343
 30
0.0
 70
    32
  0
VERTEX
  5
1B6
330
1AB
100
AcDbEntity
  8
1
100
AcDbVertex
100
AcDb3dPolylineVertex
 10
22.540623
 20
-166.794269
 30
0.0
 70
    32
  0
VERTEX
  5
1B7
330
1AB
100
AcDbEntity
  8
1
100
AcDbVertex
100
AcDb3dPolylineVertex
 10
22.540628
 20
-166.776195
 30
0.0
 70
    32
  0
SEQEND
  5
1B8
330
1AB
100
AcDbEntity
  8
1
  0
POLYLINE
  5
1B9
330
72B
100
AcDbEntity
  8
1
100
AcDb3dPolyline
 66
     1
 10
0.0
 20
0.0
 30
0.0
 70
     8
  0
VERTEX
  5
1BA
330
1B9
100
AcDbEntity
  8
1
100
AcDbVertex
100
AcDb3dPolylineVertex
 10
23.8
 20
-171.35
 30
0.0
 70
    32
  0
VERTEX
  5
1BB
330
1B9
100
AcDbEntity
  8
1
100
AcDbVertex
100
AcDb3dPolylineVertex
 10
23.914218
 20
-171.35
 30
0.0
 70
    32
  0
VERTEX
  5
1BC
330
1B9
100
AcDbEntity
  8
1
100
AcDbVertex
100
AcDb3dPolylineVertex
 10
24.028436
 20
-171.35
 30
0.0
 70
    32
  0
VERTEX
  5
1BD
330
1B9
100
AcDbEntity
  8
1
100
AcDbVertex
100
AcDb3dPolylineVertex
 10
24.142654
 20
-171.35
 30
0.0
 70
    32
  0
VERTEX
  5
1BE
330
1B9
100
AcDbEntity
  8
1
100
AcDbVertex
100
AcDb3dPolylineVertex
 10
24.256872
 20
-171.35
 30
0.0
 70
    32
  0
VERTEX
  5
1BF
330
1B9
100
AcDbEntity
  8
1
100
AcDbVertex
100
AcDb3dPolylineVertex
 10
24.37109
 20
-171.35
 30
0.0
 70
    32
  0
VERTEX
  5
1C0
330
1B9
100
AcDbEntity
  8
1
100
AcDbVertex
100
AcDb3dPolylineVertex
 10
24.485308
 20
-171.35
 30
0.0
 70
    32
  0
VERTEX
  5
1C1
330
1B9
100
AcDbEntity
  8
1
100
AcDbVertex
100
AcDb3dPolylineVertex
 10
24.599526
 20
-171.35
 30
0.0
 70
    32
  0
VERTEX
  5
1C2
330
1B9
100
AcDbEntity
  8
1
100
AcDbVertex
100
AcDb3dPolylineVertex
 10
24.713744
 20
-171.35
 30
0.0
 70
    32
  0
VERTEX
  5
1C3
330
1B9
100
AcDbEntity
  8
1
100
AcDbVertex
100
AcDb3dPolylineVertex
 10
24.827962
 20
-171.35
 30
0.0
 70
    32
  0
VERTEX
  5
1C4
330
1B9
100
AcDbEntity
  8
1
100
AcDbVertex
100
AcDb3dPolylineVertex
 10
24.94218
 20
-171.35
 30
0.0
 70
    32
  0
VERTEX
  5
1C5
330
1B9
100
AcDbEntity
  8
1
100
AcDbVertex
100
AcDb3dPolylineVertex
 10
25.056398
 20
-171.35
 30
0.0
 70
    32
  0
SEQEND
  5
1C6
330
1B9
100
AcDbEntity
  8
1
  0
POLYLINE
  5
1C7
330
72B
100
AcDbEntity
  8
1
100
AcDb3dPolyline
 66
     1
 10
0.0
 20
0.0
 30
0.0
 70
     8
  0
VERTEX
  5
1C8
330
1C7
100
AcDbEntity
  8
1
100
AcDbVertex
100
AcDb3dPolylineVertex
 10
23.799997
 20
-171.352288
 30
0.0
 70
    32
  0
VERTEX
  5
1C9
330
1C7
100
AcDbEntity
  8
1
100
AcDbVertex
100
AcDb3dPolylineVertex
 10
23.685779
 20
-171.352152
 30
0.0
 70
    32
  0
VERTEX
  5
1CA
330
1C7
100
AcDbEntity
  8
1
100
AcDbVertex
100
AcDb3dPolylineVertex
 10
23.571561
 20
-171.352017
 30
0.0
 70
    32
  0
VERTEX
  5
1CB
330
1C7
100
AcDbEntity
  8
1
100
AcDbVertex
100
AcDb3dPolylineVertex
 10
23.457344
 20
-171.351881
 30
0.0
 70
    32
  0
VERTEX
  5
1CC
330
1C7
100
AcDbEntity
  8
1
100
AcDbVertex
100
AcDb3dPolylineVertex
 10
23.343126
 20
-171.351746
 30
0.0
 70
    32
  0
VERTEX
  5
1CD
330
1C7
100
AcDbEntity
  8
1
100
AcDbVertex
100
AcDb3dPolylineVertex
 10
23.228908
 20
-171.35161
 30
0.0
 70
    32
  0
VERTEX
  5
1CE
330
1C7
100
AcDbEntity
  8
1
100
AcDbVertex
100
AcDb3dPolylineVertex
 10
23.11469
 20
-171.351475
 30
0.0
 70
    32
  0
VERTEX
  5
1CF
330
1C7
100
AcDbEntity
  8
1
100
AcDbVertex
100
AcDb3dPolylineVertex
 10
23.000472
 20
-171.351339
 30
0.0
 70
    32
  0
VERTEX
  5
1D0
330
1C7
100
AcDbEntity
  8
1
100
AcDbVertex
100
AcDb3dPolylineVertex
 10
22.886254
 20
-171.351204
 30
0.0
 70
    32
  0
VERTEX
  5
1D1
330
1C7
100
AcDbEntity
  8
1
100
AcDbVertex
100
AcDb3dPolylineVertex
 10
22.772037
 20
-171.351068
 30
0.0
 70
    32
  0
VERTEX
  5
1D2
330
1C7
100
AcDbEntity
  8
1
100
AcDbVertex
100
AcDb3dPolylineVertex
 10
22.657819
 20
-171.350933
 30
0.0
 70
    32
  0
VERTEX
  5
1D3
330
1C7
100
AcDbEntity
  8
1
100
AcDbVertex
100
AcDb3dPolylineVertex
 10
22.543601
 20
-171.350797
 30
0.0
 70
    32
  0
SEQEND
  5
1D4
330
1C7
100
AcDbEntity
  8
1
  0
POLYLINE
  5
1D5
330
72B
100
AcDbEntity
  8
1
100
AcDb3dPolyline
 66
     1
 10
0.0
 20
0.0
 30
0.0
 70
     8
  0
VERTEX
  5
1D6
330
1D5
100
AcDbEntity
  8
1
100
AcDbVertex
100
AcDb3dPolylineVertex
 10
25.056398
 20
-171.35
 30
0.0
 70
    32
  0
VERTEX
  5
1D7
330
1D5
100
AcDbEntity
  8
1
100
AcDbVertex
100
AcDb3dPolylineVertex
 10
25.066999
 20
-171.349384
 30
0.0
 70
    32
  0
VERTEX
  5
1D8
330
1D5
100
AcDbEntity
  8
1
100
AcDbVertex
100
AcDb3dPolylineVertex
 10
25.0776
 20
-171.348768
 30
0.0
 70
    32
  0
VERTEX
  5
1D9
330
1D5
100
AcDbEntity
  8
1
100
AcDbVertex
100
AcDb3dPolylineVertex
 10
25.088202
 20
-171.348152
 30
0.0
 70
    32
  0
VERTEX
  5
1DA
330
1D5
100
AcDbEntity
  8
1
100
AcDbVertex
100
AcDb3dPolylineVertex
 10
25.098702
 20
-171.346673
 30
0.0
 70
    32
  0
VERTEX
  5
1DB
330
1D5
100
AcDbEntity
  8
1
100
AcDbVertex
100
AcDb3dPolylineVertex
 10
25.10916
 20
-171.344827
 30
0.0
 70
    32
  0
VERTEX
  5
1DC
330
1D5
100
AcDbEntity
  8
1
100
AcDbVertex
100
AcDb3dPolylineVertex
 10
25.119617
 20
-171.342982
 30
0.0
 70
    32
  0
VERTEX
  5
1DD
330
1D5
100
AcDbEntity
  8
1
100
AcDbVertex
100
AcDb3dPolylineVertex
 10
25.129951
 20
-171.340618
 30
0.0
 70
    32
  0
VERTEX
  5
1DE
330
1D5
100
AcDbEntity
  8
1
100
AcDbVertex
100
AcDb3dPolylineVertex
 10
25.140123
 20
-171.337567
 30
0.0
 70
    32
  0
VERTEX
  5
1DF
330
1D5
100
AcDbEntity
  8
1
100
AcDbVertex
100
AcDb3dPolylineVertex
 10
25.150294
 20
-171.334516
 30
0.0
 70
    32
  0
VERTEX
  5
1E0
330
1D5
100
AcDbEntity
  8
1
100
AcDbVertex
100
AcDb3dPolylineVertex
 10
25.160405
 20
-171.331299
 30
0.0
 70
    32
  0
VERTEX
  5
1E1
330
1D5
100
AcDbEntity
  8
1
100
AcDbVertex
100
AcDb3dPolylineVertex
 10
25.17016
 20
-171.327103
 30
0.0
 70
    32
  0
VERTEX
  5
1E2
330
1D5
100
AcDbEntity
  8
1
100
AcDbVertex
100
AcDb3dPolylineVertex
 10
25.179915
 20
-171.322907
 30
0.0
 70
    32
  0
VERTEX
  5
1E3
330
1D5
100
AcDbEntity
  8
1
100
AcDbVertex
100
AcDb3dPolylineVertex
 10
25.18967
 20
-171.318711
 30
0.0
 70
    32
  0
VERTEX
  5
1E4
330
1D5
100
AcDbEntity
  8
1
100
AcDbVertex
100
AcDb3dPolylineVertex
 10
25.198954
 20
-171.313573
 30
0.0
 70
    32
  0
VERTEX
  5
1E5
330
1D5
100
AcDbEntity
  8
1
100
AcDbVertex
100
AcDb3dPolylineVertex
 10
25.208158
 20
-171.308277
 30
0.0
 70
    32
  0
VERTEX
  5
1E6
330
1D5
100
AcDbEntity
  8
1
100
AcDbVertex
100
AcDb3dPolylineVertex
 10
25.217362
 20
-171.302981
 30
0.0
 70
    32
  0
VERTEX
  5
1E7
330
1D5
100
AcDbEntity
  8
1
100
AcDbVertex
100
AcDb3dPolylineVertex
 10
25.226172
 20
-171.297085
 30
0.0
 70
    32
  0
VERTEX
  5
1E8
330
1D5
100
AcDbEntity
  8
1
100
AcDbVertex
100
AcDb3dPolylineVertex
 10
25.234686
 20
-171.290738
 30
0.0
 70
    32
  0
VERTEX
  5
1E9
330
1D5
100
AcDbEntity
  8
1
100
AcDbVertex
100
AcDb3dPolylineVertex
 10
25.243199
 20
-171.284391
 30
0.0
 70
    32
  0
VERTEX
  5
1EA
330
1D5
100
AcDbEntity
  8
1
100
AcDbVertex
100
AcDb3dPolylineVertex
 10
25.251484
 20
-171.277772
 30
0.0
 70
    32
  0
VERTEX
  5
1EB
330
1D5
100
AcDbEntity
  8
1
100
AcDbVertex
100
AcDb3dPolylineVertex
 10
25.2592
 20
-171.270476
 30
0.0
 70
    32
  0
VERTEX
  5
1EC
330
1D5
100
AcDbEntity
  8
1
100
AcDbVertex
100
AcDb3dPolylineVertex
 10
25.266916
 20
-171.263181
 30
0.0
 70
    32
  0
VERTEX
  5
1ED
330
1D5
100
AcDbEntity
  8
1
100
AcDbVertex
100
AcDb3dPolylineVertex
 10
25.274632
 20
-171.255885
 30
0.0
 70
    32
  0
VERTEX
  5
1EE
330
1D5
100
AcDbEntity
  8
1
100
AcDbVertex
100
AcDb3dPolylineVertex
 10
25.281464
 20
-171.247755
 30
0.0
 70
    32
  0
VERTEX
  5
1EF
330
1D5
100
AcDbEntity
  8
1
100
AcDbVertex
100
AcDb3dPolylineVertex
 10
25.288295
 20
-171.239625
 30
0.0
 70
    32
  0
VERTEX
  5
1F0
330
1D5
100
AcDbEntity
  8
1
100
AcDbVertex
100
AcDb3dPolylineVertex
 10
25.295126
 20
-171.231495
 30
0.0
 70
    32
  0
VERTEX
  5
1F1
330
1D5
100
AcDbEntity
  8
1
100
AcDbVertex
100
AcDb3dPolylineVertex
 10
25.30125
 20
-171.222837
 30
0.0
 70
    32
  0
VERTEX
  5
1F2
330
1D5
100
AcDbEntity
  8
1
100
AcDbVertex
100
AcDb3dPolylineVertex
 10
25.30709
 20
-171.213968
 30
0.0
 70
    32
  0
VERTEX
  5
1F3
330
1D5
100
AcDbEntity
  8
1
100
AcDbVertex
100
AcDb3dPolylineVertex
 10
25.31293
 20
-171.205099
 30
0.0
 70
    32
  0
VERTEX
  5
1F4
330
1D5
100
AcDbEntity
  8
1
100
AcDbVertex
100
AcDb3dPolylineVertex
 10
25.318305
 20
-171.195962
 30
0.0
 70
    32
  0
VERTEX
  5
1F5
330
1D5
100
AcDbEntity
  8
1
100
AcDbVertex
100
AcDb3dPolylineVertex
 10
25.323062
 20
-171.186468
 30
0.0
 70
    32
  0
VERTEX
  5
1F6
330
1D5
100
AcDbEntity
  8
1
100
AcDbVertex
100
AcDb3dPolylineVertex
 10
25.327819
 20
-171.176974
 30
0.0
 70
    32
  0
VERTEX
  5
1F7
330
1D5
100
AcDbEntity
  8
1
100
AcDbVertex
100
AcDb3dPolylineVertex
 10
25.332414
 20
-171.16741
 30
0.0
 70
    32
  0
VERTEX
  5
1F8
330
1D5
100
AcDbEntity
  8
1
100
AcDbVertex
100
AcDb3dPolylineVertex
 10
25.336044
 20
-171.15743
 30
0.0
 70
    32
  0
VERTEX
  5
1F9
330
1D5
100
AcDbEntity
  8
1
100
AcDbVertex
100
AcDb3dPolylineVertex
 10
25.339674
 20
-171.147451
 30
0.0
 70
    32
  0
VERTEX
  5
1FA
330
1D5
100
AcDbEntity
  8
1
100
AcDbVertex
100
AcDb3dPolylineVertex
 10
25.343304
 20
-171.137472
 30
0.0
 70
    32
  0
VERTEX
  5
1FB
330
1D5
100
AcDbEntity
  8
1
100
AcDbVertex
100
AcDb3dPolylineVertex
 10
25.345935
 20
-171.1271919999999
 30
0.0
 70
    32
  0
VERTEX
  5
1FC
330
1D5
100
AcDbEntity
  8
1
100
AcDbVertex
100
AcDb3dPolylineVertex
 10
25.348396
 20
-171.116862
 30
0.0
 70
    32
  0
VERTEX
  5
1FD
330
1D5
100
AcDbEntity
  8
1
100
AcDbVertex
100
AcDb3dPolylineVertex
 10
25.350856
 20
-171.106532
 30
0.0
 70
    32
  0
VERTEX
  5
1FE
330
1D5
100
AcDbEntity
  8
1
100
AcDbVertex
100
AcDb3dPolylineVertex
 10
25.352617
 20
-171.096078
 30
0.0
 70
    32
  0
VERTEX
  5
1FF
330
1D5
100
AcDbEntity
  8
1
100
AcDbVertex
100
AcDb3dPolylineVertex
 10
25.353847
 20
-171.085531
 30
0.0
 70
    32
  0
VERTEX
  5
200
330
1D5
100
AcDbEntity
  8
1
100
AcDbVertex
100
AcDb3dPolylineVertex
 10
25.355077
 20
-171.074983
 30
0.0
 70
    32
  0
VERTEX
  5
201
330
1D5
100
AcDbEntity
  8
1
100
AcDbVertex
100
AcDb3dPolylineVertex
 10
25.355936
 20
-171.064414
 30
0.0
 70
    32
  0
VERTEX
  5
202
330
1D5
100
AcDbEntity
  8
1
100
AcDbVertex
100
AcDb3dPolylineVertex
 10
25.35592
 20
-171.053795
 30
0.0
 70
    32
  0
VERTEX
  5
203
330
1D5
100
AcDbEntity
  8
1
100
AcDbVertex
100
AcDb3dPolylineVertex
 10
25.355904
 20
-171.043176
 30
0.0
 70
    32
  0
VERTEX
  5
204
330
1D5
100
AcDbEntity
  8
1
100
AcDbVertex
100
AcDb3dPolylineVertex
 10
25.355888
 20
-171.032557
 30
0.0
 70
    32
  0
SEQEND
  5
205
330
1D5
100
AcDbEntity
  8
1
  0
POLYLINE
  5
206
330
72B
100
AcDbEntity
  8
1
100
AcDb3dPolyline
 66
     1
 10
0.0
 20
0.0
 30
0.0
 70
     8
  0
VERTEX
  5
207
330
206
100
AcDbEntity
  8
1
100
AcDbVertex
100
AcDb3dPolylineVertex
 10
22.543602
 20
-171.35
 30
0.0
 70
    32
  0
VERTEX
  5
208
330
206
100
AcDbEntity
  8
1
100
AcDbVertex
100
AcDb3dPolylineVertex
 10
22.533
 20
-171.349398
 30
0.0
 70
    32
  0
VERTEX
  5
209
330
206
100
AcDbEntity
  8
1
100
AcDbVertex
100
AcDb3dPolylineVertex
 10
22.522398
 20
-171.348796
 30
0.0
 70
    32
  0
VERTEX
  5
20A
330
206
100
AcDbEntity
  8
1
100
AcDbVertex
100
AcDb3dPolylineVertex
 10
22.511796
 20
-171.348194
 30
0.0
 70
    32
  0
VERTEX
  5
20B
330
206
100
AcDbEntity
  8
1
100
AcDbVertex
100
AcDb3dPolylineVertex
 10
22.501295
 20
-171.34672
 30
0.0
 70
    32
  0
VERTEX
  5
20C
330
206
100
AcDbEntity
  8
1
100
AcDbVertex
100
AcDb3dPolylineVertex
 10
22.490837
 20
-171.344877
 30
0.0
 70
    32
  0
VERTEX
  5
20D
330
206
100
AcDbEntity
  8
1
100
AcDbVertex
100
AcDb3dPolylineVertex
 10
22.48038
 20
-171.343033
 30
0.0
 70
    32
  0
VERTEX
  5
20E
330
206
100
AcDbEntity
  8
1
100
AcDbVertex
100
AcDb3dPolylineVertex
 10
22.470046
 20
-171.340665
 30
0.0
 70
    32
  0
VERTEX
  5
20F
330
206
100
AcDbEntity
  8
1
100
AcDbVertex
100
AcDb3dPolylineVertex
 10
22.459878
 20
-171.337604
 30
0.0
 70
    32
  0
VERTEX
  5
210
330
206
100
AcDbEntity
  8
1
100
AcDbVertex
100
AcDb3dPolylineVertex
 10
22.449709
 20
-171.334543
 30
0.0
 70
    32
  0
VERTEX
  5
211
330
206
100
AcDbEntity
  8
1
100
AcDbVertex
100
AcDb3dPolylineVertex
 10
22.439601
 20
-171.331317
 30
0.0
 70
    32
  0
VERTEX
  5
212
330
206
100
AcDbEntity
  8
1
100
AcDbVertex
100
AcDb3dPolylineVertex
 10
22.429849
 20
-171.327115
 30
0.0
 70
    32
  0
VERTEX
  5
213
330
206
100
AcDbEntity
  8
1
100
AcDbVertex
100
AcDb3dPolylineVertex
 10
22.420096
 20
-171.322913
 30
0.0
 70
    32
  0
VERTEX
  5
214
330
206
100
AcDbEntity
  8
1
100
AcDbVertex
100
AcDb3dPolylineVertex
 10
22.410344
 20
-171.318712
 30
0.0
 70
    32
  0
VERTEX
  5
215
330
206
100
AcDbEntity
  8
1
100
AcDbVertex
100
AcDb3dPolylineVertex
 10
22.40106
 20
-171.313575
 30
0.0
 70
    32
  0
VERTEX
  5
216
330
206
100
AcDbEntity
  8
1
100
AcDbVertex
100
AcDb3dPolylineVertex
 10
22.391855
 20
-171.30828
 30
0.0
 70
    32
  0
VERTEX
  5
217
330
206
100
AcDbEntity
  8
1
100
AcDbVertex
100
AcDb3dPolylineVertex
 10
22.38265
 20
-171.302986
 30
0.0
 70
    32
  0
VERTEX
  5
218
330
206
100
AcDbEntity
  8
1
100
AcDbVertex
100
AcDb3dPolylineVertex
 10
22.373839
 20
-171.297091
 30
0.0
 70
    32
  0
VERTEX
  5
219
330
206
100
AcDbEntity
  8
1
100
AcDbVertex
100
AcDb3dPolylineVertex
 10
22.365324
 20
-171.290746
 30
0.0
 70
    32
  0
VERTEX
  5
21A
330
206
100
AcDbEntity
  8
1
100
AcDbVertex
100
AcDb3dPolylineVertex
 10
22.356809
 20
-171.284401
 30
0.0
 70
    32
  0
VERTEX
  5
21B
330
206
100
AcDbEntity
  8
1
100
AcDbVertex
100
AcDb3dPolylineVertex
 10
22.348523
 20
-171.277783
 30
0.0
 70
    32
  0
VERTEX
  5
21C
330
206
100
AcDbEntity
  8
1
100
AcDbVertex
100
AcDb3dPolylineVertex
 10
22.340808
 20
-171.270487
 30
0.0
 70
    32
  0
VERTEX
  5
21D
330
206
100
AcDbEntity
  8
1
100
AcDbVertex
100
AcDb3dPolylineVertex
 10
22.333092
 20
-171.26319
 30
0.0
 70
    32
  0
VERTEX
  5
21E
330
206
100
AcDbEntity
  8
1
100
AcDbVertex
100
AcDb3dPolylineVertex
 10
22.325377
 20
-171.255894
 30
0.0
 70
    32
  0
VERTEX
  5
21F
330
206
100
AcDbEntity
  8
1
100
AcDbVertex
100
AcDb3dPolylineVertex
 10
22.318546
 20
-171.247763
 30
0.0
 70
    32
  0
VERTEX
  5
220
330
206
100
AcDbEntity
  8
1
100
AcDbVertex
100
AcDb3dPolylineVertex
 10
22.311715
 20
-171.239633
 30
0.0
 70
    32
  0
VERTEX
  5
221
330
206
100
AcDbEntity
  8
1
100
AcDbVertex
100
AcDb3dPolylineVertex
 10
22.304885
 20
-171.231502
 30
0.0
 70
    32
  0
VERTEX
  5
222
330
206
100
AcDbEntity
  8
1
100
AcDbVertex
100
AcDb3dPolylineVertex
 10
22.29876
 20
-171.222845
 30
0.0
 70
    32
  0
VERTEX
  5
223
330
206
100
AcDbEntity
  8
1
100
AcDbVertex
100
AcDb3dPolylineVertex
 10
22.292918
 20
-171.213978
 30
0.0
 70
    32
  0
VERTEX
  5
224
330
206
100
AcDbEntity
  8
1
100
AcDbVertex
100
AcDb3dPolylineVertex
 10
22.287076
 20
-171.20511
 30
0.0
 70
    32
  0
VERTEX
  5
225
330
206
100
AcDbEntity
  8
1
100
AcDbVertex
100
AcDb3dPolylineVertex
 10
22.281699
 20
-171.195974
 30
0.0
 70
    32
  0
VERTEX
  5
226
330
206
100
AcDbEntity
  8
1
100
AcDbVertex
100
AcDb3dPolylineVertex
 10
22.27694
 20
-171.18648
 30
0.0
 70
    32
  0
VERTEX
  5
227
330
206
100
AcDbEntity
  8
1
100
AcDbVertex
100
AcDb3dPolylineVertex
 10
22.272182
 20
-171.176987
 30
0.0
 70
    32
  0
VERTEX
  5
228
330
206
100
AcDbEntity
  8
1
100
AcDbVertex
100
AcDb3dPolylineVertex
 10
22.267587
 20
-171.167423
 30
0.0
 70
    32
  0
VERTEX
  5
229
330
206
100
AcDbEntity
  8
1
100
AcDbVertex
100
AcDb3dPolylineVertex
 10
22.263963
 20
-171.157442
 30
0.0
 70
    32
  0
VERTEX
  5
22A
330
206
100
AcDbEntity
  8
1
100
AcDbVertex
100
AcDb3dPolylineVertex
 10
22.260338
 20
-171.14746
 30
0.0
 70
    32
  0
VERTEX
  5
22B
330
206
100
AcDbEntity
  8
1
100
AcDbVertex
100
AcDb3dPolylineVertex
 10
22.256714
 20
-171.137479
 30
0.0
 70
    32
  0
VERTEX
  5
22C
330
206
100
AcDbEntity
  8
1
100
AcDbVertex
100
AcDb3dPolylineVertex
 10
22.254093
 20
-171.127198
 30
0.0
 70
    32
  0
VERTEX
  5
22D
330
206
100
AcDbEntity
  8
1
100
AcDbVertex
100
AcDb3dPolylineVertex
 10
22.251642
 20
-171.116865
 30
0.0
 70
    32
  0
VERTEX
  5
22E
330
206
100
AcDbEntity
  8
1
100
AcDbVertex
100
AcDb3dPolylineVertex
 10
22.249191
 20
-171.106533
 30
0.0
 70
    32
  0
VERTEX
  5
22F
330
206
100
AcDbEntity
  8
1
100
AcDbVertex
100
AcDb3dPolylineVertex
 10
22.247434
 20
-171.096078
 30
0.0
 70
    32
  0
VERTEX
  5
230
330
206
100
AcDbEntity
  8
1
100
AcDbVertex
100
AcDb3dPolylineVertex
 10
22.246202
 20
-171.08553
 30
0.0
 70
    32
  0
VERTEX
  5
231
330
206
100
AcDbEntity
  8
1
100
AcDbVertex
100
AcDb3dPolylineVertex
 10
22.24497
 20
-171.074983
 30
0.0
 70
    32
  0
VERTEX
  5
232
330
206
100
AcDbEntity
  8
1
100
AcDbVertex
100
AcDb3dPolylineVertex
 10
22.244106
 20
-171.064414
 30
0.0
 70
    32
  0
VERTEX
  5
233
330
206
100
AcDbEntity
  8
1
100
AcDbVertex
100
AcDb3dPolylineVertex
 10
22.244108
 20
-171.053795
 30
0.0
 70
    32
  0
VERTEX
  5
234
330
206
100
AcDbEntity
  8
1
100
AcDbVertex
100
AcDb3dPolylineVertex
 10
22.24411
 20
-171.043176
 30
0.0
 70
    32
  0
VERTEX
  5
235
330
206
100
AcDbEntity
  8
1
100
AcDbVertex
100
AcDb3dPolylineVertex
 10
22.244112
 20
-171.032557
 30
0.0
 70
    32
  0
SEQEND
  5
236
330
206
100
AcDbEntity
  8
1
  0
POLYLINE
  5
237
330
72B
100
AcDbEntity
  8
1
100
AcDb3dPolyline
 66
     1
 10
0.0
 20
0.0
 30
0.0
 70
     8
  0
VERTEX
  5
238
330
237
100
AcDbEntity
  8
1
100
AcDbVertex
100
AcDb3dPolylineVertex
 10
25.235093
 20
-168.958338
 30
0.0
 70
    32
  0
VERTEX
  5
239
330
237
100
AcDbEntity
  8
1
100
AcDbVertex
100
AcDb3dPolylineVertex
 10
25.246074
 20
-169.146903
 30
0.0
 70
    32
  0
VERTEX
  5
23A
330
237
100
AcDbEntity
  8
1
100
AcDbVertex
100
AcDb3dPolylineVertex
 10
25.257054
 20
-169.335469
 30
0.0
 70
    32
  0
VERTEX
  5
23B
330
237
100
AcDbEntity
  8
1
100
AcDbVertex
100
AcDb3dPolylineVertex
 10
25.268035
 20
-169.524034
 30
0.0
 70
    32
  0
VERTEX
  5
23C
330
237
100
AcDbEntity
  8
1
100
AcDbVertex
100
AcDb3dPolylineVertex
 10
25.279015
 20
-169.712599
 30
0.0
 70
    32
  0
VERTEX
  5
23D
330
237
100
AcDbEntity
  8
1
100
AcDbVertex
100
AcDb3dPolylineVertex
 10
25.289996
 20
-169.901164
 30
0.0
 70
    32
  0
VERTEX
  5
23E
330
237
100
AcDbEntity
  8
1
100
AcDbVertex
100
AcDb3dPolylineVertex
 10
25.300977
 20
-170.08973
 30
0.0
 70
    32
  0
VERTEX
  5
23F
330
237
100
AcDbEntity
  8
1
100
AcDbVertex
100
AcDb3dPolylineVertex
 10
25.311958
 20
-170.278295
 30
0.0
 70
    32
  0
VERTEX
  5
240
330
237
100
AcDbEntity
  8
1
100
AcDbVertex
100
AcDb3dPolylineVertex
 10
25.322939
 20
-170.46686
 30
0.0
 70
    32
  0
VERTEX
  5
241
330
237
100
AcDbEntity
  8
1
100
AcDbVertex
100
AcDb3dPolylineVertex
 10
25.333919
 20
-170.655425
 30
0.0
 70
    32
  0
VERTEX
  5
242
330
237
100
AcDbEntity
  8
1
100
AcDbVertex
100
AcDb3dPolylineVertex
 10
25.3449
 20
-170.843991
 30
0.0
 70
    32
  0
VERTEX
  5
243
330
237
100
AcDbEntity
  8
1
100
AcDbVertex
100
AcDb3dPolylineVertex
 10
25.355881
 20
-171.032556
 30
0.0
 70
    32
  0
SEQEND
  5
244
330
237
100
AcDbEntity
  8
1
  0
POLYLINE
  5
245
330
72B
100
AcDbEntity
  8
1
100
AcDb3dPolyline
 66
     1
 10
0.0
 20
0.0
 30
0.0
 70
     8
  0
VERTEX
  5
246
330
245
100
AcDbEntity
  8
1
100
AcDbVertex
100
AcDb3dPolylineVertex
 10
22.364848
 20
-168.958334
 30
0.0
 70
    32
  0
VERTEX
  5
247
330
245
100
AcDbEntity
  8
1
100
AcDbVertex
100
AcDb3dPolylineVertex
 10
22.353865
 20
-169.146899
 30
0.0
 70
    32
  0
VERTEX
  5
248
330
245
100
AcDbEntity
  8
1
100
AcDbVertex
100
AcDb3dPolylineVertex
 10
22.342883
 20
-169.335464
 30
0.0
 70
    32
  0
VERTEX
  5
249
330
245
100
AcDbEntity
  8
1
100
AcDbVertex
100
AcDb3dPolylineVertex
 10
22.3319
 20
-169.52403
 30
0.0
 70
    32
  0
VERTEX
  5
24A
330
245
100
AcDbEntity
  8
1
100
AcDbVertex
100
AcDb3dPolylineVertex
 10
22.320917
 20
-169.712595
 30
0.0
 70
    32
  0
VERTEX
  5
24B
330
245
100
AcDbEntity
  8
1
100
AcDbVertex
100
AcDb3dPolylineVertex
 10
22.309935
 20
-169.90116
 30
0.0
 70
    32
  0
VERTEX
  5
24C
330
245
100
AcDbEntity
  8
1
100
AcDbVertex
100
AcDb3dPolylineVertex
 10
22.298952
 20
-170.089725
 30
0.0
 70
    32
  0
VERTEX
  5
24D
330
245
100
AcDbEntity
  8
1
100
AcDbVertex
100
AcDb3dPolylineVertex
 10
22.28797
 20
-170.27829
 30
0.0
 70
    32
  0
VERTEX
  5
24E
330
245
100
AcDbEntity
  8
1
100
AcDbVertex
100
AcDb3dPolylineVertex
 10
22.276987
 20
-170.466855
 30
0.0
 70
    32
  0
VERTEX
  5
24F
330
245
100
AcDbEntity
  8
1
100
AcDbVertex
100
AcDb3dPolylineVertex
 10
22.266005
 20
-170.655421
 30
0.0
 70
    32
  0
VERTEX
  5
250
330
245
100
AcDbEntity
  8
1
100
AcDbVertex
100
AcDb3dPolylineVertex
 10
22.255022
 20
-170.843986
 30
0.0
 70
    32
  0
VERTEX
  5
251
330
245
100
AcDbEntity
  8
1
100
AcDbVertex
100
AcDb3dPolylineVertex
 10
22.24404
 20
-171.032551
 30
0.0
 70
    32
  0
SEQEND
  5
252
330
245
100
AcDbEntity
  8
1
  0
POLYLINE
  5
253
330
72B
100
AcDbEntity
  8
1
100
AcDb3dPolyline
 66
     1
 10
0.0
 20
0.0
 30
0.0
 70
     8
  0
VERTEX
  5
254
330
253
100
AcDbEntity
  8
1
100
AcDbVertex
100
AcDb3dPolylineVertex
 10
25.059395
 20
-166.494288
 30
0.0
 70
    32
  0
VERTEX
  5
255
330
253
100
AcDbEntity
  8
1
100
AcDbVertex
100
AcDb3dPolylineVertex
 10
25.059392
 20
-166.513082
 30
0.0
 70
    32
  0
VERTEX
  5
256
330
253
100
AcDbEntity
  8
1
100
AcDbVertex
100
AcDb3dPolylineVertex
 10
25.059388
 20
-166.531876
 30
0.0
 70
    32
  0
VERTEX
  5
257
330
253
100
AcDbEntity
  8
1
100
AcDbVertex
100
AcDb3dPolylineVertex
 10
25.059385
 20
-166.55067
 30
0.0
 70
    32
  0
VERTEX
  5
258
330
253
100
AcDbEntity
  8
1
100
AcDbVertex
100
AcDb3dPolylineVertex
 10
25.059381
 20
-166.569463
 30
0.0
 70
    32
  0
VERTEX
  5
259
330
253
100
AcDbEntity
  8
1
100
AcDbVertex
100
AcDb3dPolylineVertex
 10
25.059378
 20
-166.588257
 30
0.0
 70
    32
  0
VERTEX
  5
25A
330
253
100
AcDbEntity
  8
1
100
AcDbVertex
100
AcDb3dPolylineVertex
 10
25.059376
 20
-166.607051
 30
0.0
 70
    32
  0
VERTEX
  5
25B
330
253
100
AcDbEntity
  8
1
100
AcDbVertex
100
AcDb3dPolylineVertex
 10
25.059374
 20
-166.625845
 30
0.0
 70
    32
  0
VERTEX
  5
25C
330
253
100
AcDbEntity
  8
1
100
AcDbVertex
100
AcDb3dPolylineVertex
 10
25.059371
 20
-166.644639
 30
0.0
 70
    32
  0
VERTEX
  5
25D
330
253
100
AcDbEntity
  8
1
100
AcDbVertex
100
AcDb3dPolylineVertex
 10
25.059369
 20
-166.663433
 30
0.0
 70
    32
  0
VERTEX
  5
25E
330
253
100
AcDbEntity
  8
1
100
AcDbVertex
100
AcDb3dPolylineVertex
 10
25.059368
 20
-166.682227
 30
0.0
 70
    32
  0
VERTEX
  5
25F
330
253
100
AcDbEntity
  8
1
100
AcDbVertex
100
AcDb3dPolylineVertex
 10
25.059367
 20
-166.701021
 30
0.0
 70
    32
  0
VERTEX
  5
260
330
253
100
AcDbEntity
  8
1
100
AcDbVertex
100
AcDb3dPolylineVertex
 10
25.059367
 20
-166.719814
 30
0.0
 70
    32
  0
VERTEX
  5
261
330
253
100
AcDbEntity
  8
1
100
AcDbVertex
100
AcDb3dPolylineVertex
 10
25.059367
 20
-166.738608
 30
0.0
 70
    32
  0
VERTEX
  5
262
330
253
100
AcDbEntity
  8
1
100
AcDbVertex
100
AcDb3dPolylineVertex
 10
25.059369
 20
-166.757402
 30
0.0
 70
    32
  0
VERTEX
  5
263
330
253
100
AcDbEntity
  8
1
100
AcDbVertex
100
AcDb3dPolylineVertex
 10
25.059372
 20
-166.776196
 30
0.0
 70
    32
  0
SEQEND
  5
264
330
253
100
AcDbEntity
  8
1
  0
POLYLINE
  5
265
330
72B
100
AcDbEntity
  8
1
100
AcDb3dPolyline
 66
     1
 10
0.0
 20
0.0
 30
0.0
 70
     8
  0
VERTEX
  5
266
330
265
100
AcDbEntity
  8
1
100
AcDbVertex
100
AcDb3dPolylineVertex
 10
22.540605
 20
-166.494288
 30
0.0
 70
    32
  0
VERTEX
  5
267
330
265
100
AcDbEntity
  8
1
100
AcDbVertex
100
AcDb3dPolylineVertex
 10
22.540608
 20
-166.513082
 30
0.0
 70
    32
  0
VERTEX
  5
268
330
265
100
AcDbEntity
  8
1
100
AcDbVertex
100
AcDb3dPolylineVertex
 10
22.540612
 20
-166.531876
 30
0.0
 70
    32
  0
VERTEX
  5
269
330
265
100
AcDbEntity
  8
1
100
AcDbVertex
100
AcDb3dPolylineVertex
 10
22.540615
 20
-166.55067
 30
0.0
 70
    32
  0
VERTEX
  5
26A
330
265
100
AcDbEntity
  8
1
100
AcDbVertex
100
AcDb3dPolylineVertex
 10
22.540619
 20
-166.569463
 30
0.0
 70
    32
  0
VERTEX
  5
26B
330
265
100
AcDbEntity
  8
1
100
AcDbVertex
100
AcDb3dPolylineVertex
 10
22.540622
 20
-166.588257
 30
0.0
 70
    32
  0
VERTEX
  5
26C
330
265
100
AcDbEntity
  8
1
100
AcDbVertex
100
AcDb3dPolylineVertex
 10
22.540624
 20
-166.607051
 30
0.0
 70
    32
  0
VERTEX
  5
26D
330
265
100
AcDbEntity
  8
1
100
AcDbVertex
100
AcDb3dPolylineVertex
 10
22.540626
 20
-166.625845
 30
0.0
 70
    32
  0
VERTEX
  5
26E
330
265
100
AcDbEntity
  8
1
100
AcDbVertex
100
AcDb3dPolylineVertex
 10
22.540629
 20
-166.644639
 30
0.0
 70
    32
  0
VERTEX
  5
26F
330
265
100
AcDbEntity
  8
1
100
AcDbVertex
100
AcDb3dPolylineVertex
 10
22.540631
 20
-166.663433
 30
0.0
 70
    32
  0
VERTEX
  5
270
330
265
100
AcDbEntity
  8
1
100
AcDbVertex
100
AcDb3dPolylineVertex
 10
22.540632
 20
-166.682227
 30
0.0
 70
    32
  0
VERTEX
  5
271
330
265
100
AcDbEntity
  8
1
100
AcDbVertex
100
AcDb3dPolylineVertex
 10
22.540633
 20
-166.701021
 30
0.0
 70
    32
  0
VERTEX
  5
272
330
265
100
AcDbEntity
  8
1
100
AcDbVertex
100
AcDb3dPolylineVertex
 10
22.540633
 20
-166.719814
 30
0.0
 70
    32
  0
VERTEX
  5
273
330
265
100
AcDbEntity
  8
1
100
AcDbVertex
100
AcDb3dPolylineVertex
 10
22.540633
 20
-166.738608
 30
0.0
 70
    32
  0
VERTEX
  5
274
330
265
100
AcDbEntity
  8
1
100
AcDbVertex
100
AcDb3dPolylineVertex
 10
22.540631
 20
-166.757402
 30
0.0
 70
    32
  0
VERTEX
  5
275
330
265
100
AcDbEntity
  8
1
100
AcDbVertex
100
AcDb3dPolylineVertex
 10
22.540628
 20
-166.776196
 30
0.0
 70
    32
  0
SEQEND
  5
276
330
265
100
AcDbEntity
  8
1
  0
POLYLINE
  5
277
330
72B
100
AcDbEntity
  8
1
100
AcDb3dPolyline
 66
     1
 10
0.0
 20
0.0
 30
0.0
 70
     8
  0
VERTEX
  5
278
330
277
100
AcDbEntity
  8
1
100
AcDbVertex
100
AcDb3dPolylineVertex
 10
22.540285
 20
-164.92195
 30
0.0
 70
    32
  0
VERTEX
  5
279
330
277
100
AcDbEntity
  8
1
100
AcDbVertex
100
AcDb3dPolylineVertex
 10
22.540282
 20
-164.908089
 30
0.0
 70
    32
  0
VERTEX
  5
27A
330
277
100
AcDbEntity
  8
1
100
AcDbVertex
100
AcDb3dPolylineVertex
 10
22.54028
 20
-164.894229
 30
0.0
 70
    32
  0
VERTEX
  5
27B
330
277
100
AcDbEntity
  8
1
100
AcDbVertex
100
AcDb3dPolylineVertex
 10
22.540277
 20
-164.880368
 30
0.0
 70
    32
  0
VERTEX
  5
27C
330
277
100
AcDbEntity
  8
1
100
AcDbVertex
100
AcDb3dPolylineVertex
 10
22.540274
 20
-164.866507
 30
0.0
 70
    32
  0
VERTEX
  5
27D
330
277
100
AcDbEntity
  8
1
100
AcDbVertex
100
AcDb3dPolylineVertex
 10
22.540271
 20
-164.852646
 30
0.0
 70
    32
  0
VERTEX
  5
27E
330
277
100
AcDbEntity
  8
1
100
AcDbVertex
100
AcDb3dPolylineVertex
 10
22.540268
 20
-164.838786
 30
0.0
 70
    32
  0
VERTEX
  5
27F
330
277
100
AcDbEntity
  8
1
100
AcDbVertex
100
AcDb3dPolylineVertex
 10
22.540265
 20
-164.824925
 30
0.0
 70
    32
  0
VERTEX
  5
280
330
277
100
AcDbEntity
  8
1
100
AcDbVertex
100
AcDb3dPolylineVertex
 10
22.540263
 20
-164.811064
 30
0.0
 70
    32
  0
VERTEX
  5
281
330
277
100
AcDbEntity
  8
1
100
AcDbVertex
100
AcDb3dPolylineVertex
 10
22.540261
 20
-164.797203
 30
0.0
 70
    32
  0
VERTEX
  5
282
330
277
100
AcDbEntity
  8
1
100
AcDbVertex
100
AcDb3dPolylineVertex
 10
22.540259
 20
-164.783343
 30
0.0
 70
    32
  0
VERTEX
  5
283
330
277
100
AcDbEntity
  8
1
100
AcDbVertex
100
AcDb3dPolylineVertex
 10
22.540256
 20
-164.769482
 30
0.0
 70
    32
  0
VERTEX
  5
284
330
277
100
AcDbEntity
  8
1
100
AcDbVertex
100
AcDb3dPolylineVertex
 10
22.540253
 20
-164.755621
 30
0.0
 70
    32
  0
VERTEX
  5
285
330
277
100
AcDbEntity
  8
1
100
AcDbVertex
100
AcDb3dPolylineVertex
 10
22.540251
 20
-164.74176
 30
0.0
 70
    32
  0
VERTEX
  5
286
330
277
100
AcDbEntity
  8
1
100
AcDbVertex
100
AcDb3dPolylineVertex
 10
22.540248
 20
-164.7279
 30
0.0
 70
    32
  0
VERTEX
  5
287
330
277
100
AcDbEntity
  8
1
100
AcDbVertex
100
AcDb3dPolylineVertex
 10
22.540246
 20
-164.714039
 30
0.0
 70
    32
  0
SEQEND
  5
288
330
277
100
AcDbEntity
  8
1
  0
POLYLINE
  5
289
330
72B
100
AcDbEntity
  8
1
100
AcDb3dPolyline
 66
     1
 10
0.0
 20
0.0
 30
0.0
 70
     8
  0
VERTEX
  5
28A
330
289
100
AcDbEntity
  8
1
100
AcDbVertex
100
AcDb3dPolylineVertex
 10
25.059715
 20
-164.92195
 30
0.0
 70
    32
  0
VERTEX
  5
28B
330
289
100
AcDbEntity
  8
1
100
AcDbVertex
100
AcDb3dPolylineVertex
 10
25.059718
 20
-164.908089
 30
0.0
 70
    32
  0
VERTEX
  5
28C
330
289
100
AcDbEntity
  8
1
100
AcDbVertex
100
AcDb3dPolylineVertex
 10
25.05972
 20
-164.894229
 30
0.0
 70
    32
  0
VERTEX
  5
28D
330
289
100
AcDbEntity
  8
1
100
AcDbVertex
100
AcDb3dPolylineVertex
 10
25.059723
 20
-164.880368
 30
0.0
 70
    32
  0
VERTEX
  5
28E
330
289
100
AcDbEntity
  8
1
100
AcDbVertex
100
AcDb3dPolylineVertex
 10
25.059726
 20
-164.866507
 30
0.0
 70
    32
  0
VERTEX
  5
28F
330
289
100
AcDbEntity
  8
1
100
AcDbVertex
100
AcDb3dPolylineVertex
 10
25.059729
 20
-164.852646
 30
0.0
 70
    32
  0
VERTEX
  5
290
330
289
100
AcDbEntity
  8
1
100
AcDbVertex
100
AcDb3dPolylineVertex
 10
25.059732
 20
-164.838786
 30
0.0
 70
    32
  0
VERTEX
  5
291
330
289
100
AcDbEntity
  8
1
100
AcDbVertex
100
AcDb3dPolylineVertex
 10
25.059735
 20
-164.824925
 30
0.0
 70
    32
  0
VERTEX
  5
292
330
289
100
AcDbEntity
  8
1
100
AcDbVertex
100
AcDb3dPolylineVertex
 10
25.059737
 20
-164.811064
 30
0.0
 70
    32
  0
VERTEX
  5
293
330
289
100
AcDbEntity
  8
1
100
AcDbVertex
100
AcDb3dPolylineVertex
 10
25.059739
 20
-164.797203
 30
0.0
 70
    32
  0
VERTEX
  5
294
330
289
100
AcDbEntity
  8
1
100
AcDbVertex
100
AcDb3dPolylineVertex
 10
25.059741
 20
-164.783343
 30
0.0
 70
    32
  0
VERTEX
  5
295
330
289
100
AcDbEntity
  8
1
100
AcDbVertex
100
AcDb3dPolylineVertex
 10
25.059744
 20
-164.769482
 30
0.0
 70
    32
  0
VERTEX
  5
296
330
289
100
AcDbEntity
  8
1
100
AcDbVertex
100
AcDb3dPolylineVertex
 10
25.059747
 20
-164.755621
 30
0.0
 70
    32
  0
VERTEX
  5
297
330
289
100
AcDbEntity
  8
1
100
AcDbVertex
100
AcDb3dPolylineVertex
 10
25.059749
 20
-164.74176
 30
0.0
 70
    32
  0
VERTEX
  5
298
330
289
100
AcDbEntity
  8
1
100
AcDbVertex
100
AcDb3dPolylineVertex
 10
25.059752
 20
-164.7279
 30
0.0
 70
    32
  0
VERTEX
  5
299
330
289
100
AcDbEntity
  8
1
100
AcDbVertex
100
AcDb3dPolylineVertex
 10
25.059754
 20
-164.714039
 30
0.0
 70
    32
  0
SEQEND
  5
29A
330
289
100
AcDbEntity
  8
1
  0
POLYLINE
  5
29B
330
72B
100
AcDbEntity
  8
1
100
AcDb3dPolyline
 66
     1
 10
0.0
 20
0.0
 30
0.0
 70
     8
  0
VERTEX
  5
29C
330
29B
100
AcDbEntity
  8
1
100
AcDbVertex
100
AcDb3dPolylineVertex
 10
25.0625
 20
-161.648386
 30
0.0
 70
    32
  0
VERTEX
  5
29D
330
29B
100
AcDbEntity
  8
1
100
AcDbVertex
100
AcDb3dPolylineVertex
 10
25.062429
 20
-161.644597
 30
0.0
 70
    32
  0
VERTEX
  5
29E
330
29B
100
AcDbEntity
  8
1
100
AcDbVertex
100
AcDb3dPolylineVertex
 10
25.062358
 20
-161.640808
 30
0.0
 70
    32
  0
VERTEX
  5
29F
330
29B
100
AcDbEntity
  8
1
100
AcDbVertex
100
AcDb3dPolylineVertex
 10
25.062287
 20
-161.637019
 30
0.0
 70
    32
  0
VERTEX
  5
2A0
330
29B
100
AcDbEntity
  8
1
100
AcDbVertex
100
AcDb3dPolylineVertex
 10
25.06209800000001
 20
-161.633234
 30
0.0
 70
    32
  0
VERTEX
  5
2A1
330
29B
100
AcDbEntity
  8
1
100
AcDbVertex
100
AcDb3dPolylineVertex
 10
25.061879
 20
-161.62945
 30
0.0
 70
    32
  0
VERTEX
  5
2A2
330
29B
100
AcDbEntity
  8
1
100
AcDbVertex
100
AcDb3dPolylineVertex
 10
25.061661
 20
-161.625667
 30
0.0
 70
    32
  0
VERTEX
  5
2A3
330
29B
100
AcDbEntity
  8
1
100
AcDbVertex
100
AcDb3dPolylineVertex
 10
25.061351
 20
-161.621891
 30
0.0
 70
    32
  0
VERTEX
  5
2A4
330
29B
100
AcDbEntity
  8
1
100
AcDbVertex
100
AcDb3dPolylineVertex
 10
25.060981
 20
-161.618119
 30
0.0
 70
    32
  0
VERTEX
  5
2A5
330
29B
100
AcDbEntity
  8
1
100
AcDbVertex
100
AcDb3dPolylineVertex
 10
25.060611
 20
-161.614347
 30
0.0
 70
    32
  0
VERTEX
  5
2A6
330
29B
100
AcDbEntity
  8
1
100
AcDbVertex
100
AcDb3dPolylineVertex
 10
25.060179
 20
-161.610583
 30
0.0
 70
    32
  0
VERTEX
  5
2A7
330
29B
100
AcDbEntity
  8
1
100
AcDbVertex
100
AcDb3dPolylineVertex
 10
25.059655
 20
-161.60683
 30
0.0
 70
    32
  0
VERTEX
  5
2A8
330
29B
100
AcDbEntity
  8
1
100
AcDbVertex
100
AcDb3dPolylineVertex
 10
25.059131
 20
-161.603076
 30
0.0
 70
    32
  0
VERTEX
  5
2A9
330
29B
100
AcDbEntity
  8
1
100
AcDbVertex
100
AcDb3dPolylineVertex
 10
25.058575
 20
-161.599328
 30
0.0
 70
    32
  0
VERTEX
  5
2AA
330
29B
100
AcDbEntity
  8
1
100
AcDbVertex
100
AcDb3dPolylineVertex
 10
25.05789500000001
 20
-161.5956
 30
0.0
 70
    32
  0
VERTEX
  5
2AB
330
29B
100
AcDbEntity
  8
1
100
AcDbVertex
100
AcDb3dPolylineVertex
 10
25.057215
 20
-161.591871
 30
0.0
 70
    32
  0
VERTEX
  5
2AC
330
29B
100
AcDbEntity
  8
1
100
AcDbVertex
100
AcDb3dPolylineVertex
 10
25.056535
 20
-161.588143
 30
0.0
 70
    32
  0
VERTEX
  5
2AD
330
29B
100
AcDbEntity
  8
1
100
AcDbVertex
100
AcDb3dPolylineVertex
 10
25.055699
 20
-161.584447
 30
0.0
 70
    32
  0
VERTEX
  5
2AE
330
29B
100
AcDbEntity
  8
1
100
AcDbVertex
100
AcDb3dPolylineVertex
 10
25.054862
 20
-161.58075
 30
0.0
 70
    32
  0
VERTEX
  5
2AF
330
29B
100
AcDbEntity
  8
1
100
AcDbVertex
100
AcDb3dPolylineVertex
 10
25.054026
 20
-161.577054
 30
0.0
 70
    32
  0
VERTEX
  5
2B0
330
29B
100
AcDbEntity
  8
1
100
AcDbVertex
100
AcDb3dPolylineVertex
 10
25.053068
 20
-161.573388
 30
0.0
 70
    32
  0
VERTEX
  5
2B1
330
29B
100
AcDbEntity
  8
1
100
AcDbVertex
100
AcDb3dPolylineVertex
 10
25.05208
 20
-161.569729
 30
0.0
 70
    32
  0
VERTEX
  5
2B2
330
29B
100
AcDbEntity
  8
1
100
AcDbVertex
100
AcDb3dPolylineVertex
 10
25.051091
 20
-161.566071
 30
0.0
 70
    32
  0
VERTEX
  5
2B3
330
29B
100
AcDbEntity
  8
1
100
AcDbVertex
100
AcDb3dPolylineVertex
 10
25.050014
 20
-161.562438
 30
0.0
 70
    32
  0
VERTEX
  5
2B4
330
29B
100
AcDbEntity
  8
1
100
AcDbVertex
100
AcDb3dPolylineVertex
 10
25.048875
 20
-161.558823
 30
0.0
 70
    32
  0
VERTEX
  5
2B5
330
29B
100
AcDbEntity
  8
1
100
AcDbVertex
100
AcDb3dPolylineVertex
 10
25.047736
 20
-161.555208
 30
0.0
 70
    32
  0
VERTEX
  5
2B6
330
29B
100
AcDbEntity
  8
1
100
AcDbVertex
100
AcDb3dPolylineVertex
 10
25.046541
 20
-161.551613
 30
0.0
 70
    32
  0
VERTEX
  5
2B7
330
29B
100
AcDbEntity
  8
1
100
AcDbVertex
100
AcDb3dPolylineVertex
 10
25.045255
 20
-161.548048
 30
0.0
 70
    32
  0
VERTEX
  5
2B8
330
29B
100
AcDbEntity
  8
1
100
AcDbVertex
100
AcDb3dPolylineVertex
 10
25.04397
 20
-161.544483
 30
0.0
 70
    32
  0
VERTEX
  5
2B9
330
29B
100
AcDbEntity
  8
1
100
AcDbVertex
100
AcDb3dPolylineVertex
 10
25.042658
 20
-161.540928
 30
0.0
 70
    32
  0
VERTEX
  5
2BA
330
29B
100
AcDbEntity
  8
1
100
AcDbVertex
100
AcDb3dPolylineVertex
 10
25.041228
 20
-161.537418
 30
0.0
 70
    32
  0
VERTEX
  5
2BB
330
29B
100
AcDbEntity
  8
1
100
AcDbVertex
100
AcDb3dPolylineVertex
 10
25.039798
 20
-161.533909
 30
0.0
 70
    32
  0
VERTEX
  5
2BC
330
29B
100
AcDbEntity
  8
1
100
AcDbVertex
100
AcDb3dPolylineVertex
 10
25.038368
 20
-161.530399
 30
0.0
 70
    32
  0
VERTEX
  5
2BD
330
29B
100
AcDbEntity
  8
1
100
AcDbVertex
100
AcDb3dPolylineVertex
 10
25.036801
 20
-161.526948
 30
0.0
 70
    32
  0
VERTEX
  5
2BE
330
29B
100
AcDbEntity
  8
1
100
AcDbVertex
100
AcDb3dPolylineVertex
 10
25.035231
 20
-161.523499
 30
0.0
 70
    32
  0
VERTEX
  5
2BF
330
29B
100
AcDbEntity
  8
1
100
AcDbVertex
100
AcDb3dPolylineVertex
 10
25.03366
 20
-161.52005
 30
0.0
 70
    32
  0
VERTEX
  5
2C0
330
29B
100
AcDbEntity
  8
1
100
AcDbVertex
100
AcDb3dPolylineVertex
 10
25.031986
 20
-161.516651
 30
0.0
 70
    32
  0
VERTEX
  5
2C1
330
29B
100
AcDbEntity
  8
1
100
AcDbVertex
100
AcDb3dPolylineVertex
 10
25.03028
 20
-161.513267
 30
0.0
 70
    32
  0
VERTEX
  5
2C2
330
29B
100
AcDbEntity
  8
1
100
AcDbVertex
100
AcDb3dPolylineVertex
 10
25.028573
 20
-161.509883
 30
0.0
 70
    32
  0
VERTEX
  5
2C3
330
29B
100
AcDbEntity
  8
1
100
AcDbVertex
100
AcDb3dPolylineVertex
 10
25.026795
 20
-161.506537
 30
0.0
 70
    32
  0
VERTEX
  5
2C4
330
29B
100
AcDbEntity
  8
1
100
AcDbVertex
100
AcDb3dPolylineVertex
 10
25.024959
 20
-161.503221
 30
0.0
 70
    32
  0
VERTEX
  5
2C5
330
29B
100
AcDbEntity
  8
1
100
AcDbVertex
100
AcDb3dPolylineVertex
 10
25.023123
 20
-161.499906
 30
0.0
 70
    32
  0
VERTEX
  5
2C6
330
29B
100
AcDbEntity
  8
1
100
AcDbVertex
100
AcDb3dPolylineVertex
 10
25.021243
 20
-161.4966159999999
 30
0.0
 70
    32
  0
VERTEX
  5
2C7
330
29B
100
AcDbEntity
  8
1
100
AcDbVertex
100
AcDb3dPolylineVertex
 10
25.019278
 20
-161.493376
 30
0.0
 70
    32
  0
VERTEX
  5
2C8
330
29B
100
AcDbEntity
  8
1
100
AcDbVertex
100
AcDb3dPolylineVertex
 10
25.017313
 20
-161.490135
 30
0.0
 70
    32
  0
VERTEX
  5
2C9
330
29B
100
AcDbEntity
  8
1
100
AcDbVertex
100
AcDb3dPolylineVertex
 10
25.015333
 20
-161.486904
 30
0.0
 70
    32
  0
VERTEX
  5
2CA
330
29B
100
AcDbEntity
  8
1
100
AcDbVertex
100
AcDb3dPolylineVertex
 10
25.013239
 20
-161.483745
 30
0.0
 70
    32
  0
VERTEX
  5
2CB
330
29B
100
AcDbEntity
  8
1
100
AcDbVertex
100
AcDb3dPolylineVertex
 10
25.011145
 20
-161.480587
 30
0.0
 70
    32
  0
VERTEX
  5
2CC
330
29B
100
AcDbEntity
  8
1
100
AcDbVertex
100
AcDb3dPolylineVertex
 10
25.009051
 20
-161.477428
 30
0.0
 70
    32
  0
VERTEX
  5
2CD
330
29B
100
AcDbEntity
  8
1
100
AcDbVertex
100
AcDb3dPolylineVertex
 10
25.006841
 20
-161.474349
 30
0.0
 70
    32
  0
VERTEX
  5
2CE
330
29B
100
AcDbEntity
  8
1
100
AcDbVertex
100
AcDb3dPolylineVertex
 10
25.004618
 20
-161.47128
 30
0.0
 70
    32
  0
VERTEX
  5
2CF
330
29B
100
AcDbEntity
  8
1
100
AcDbVertex
100
AcDb3dPolylineVertex
 10
25.002396
 20
-161.46821
 30
0.0
 70
    32
  0
VERTEX
  5
2D0
330
29B
100
AcDbEntity
  8
1
100
AcDbVertex
100
AcDb3dPolylineVertex
 10
25.000086
 20
-161.465206
 30
0.0
 70
    32
  0
VERTEX
  5
2D1
330
29B
100
AcDbEntity
  8
1
100
AcDbVertex
100
AcDb3dPolylineVertex
 10
24.997736
 20
-161.462233
 30
0.0
 70
    32
  0
VERTEX
  5
2D2
330
29B
100
AcDbEntity
  8
1
100
AcDbVertex
100
AcDb3dPolylineVertex
 10
24.995386
 20
-161.45926
 30
0.0
 70
    32
  0
VERTEX
  5
2D3
330
29B
100
AcDbEntity
  8
1
100
AcDbVertex
100
AcDb3dPolylineVertex
 10
24.992979
 20
-161.456334
 30
0.0
 70
    32
  0
VERTEX
  5
2D4
330
29B
100
AcDbEntity
  8
1
100
AcDbVertex
100
AcDb3dPolylineVertex
 10
24.990508
 20
-161.453461
 30
0.0
 70
    32
  0
VERTEX
  5
2D5
330
29B
100
AcDbEntity
  8
1
100
AcDbVertex
100
AcDb3dPolylineVertex
 10
24.988036
 20
-161.450588
 30
0.0
 70
    32
  0
VERTEX
  5
2D6
330
29B
100
AcDbEntity
  8
1
100
AcDbVertex
100
AcDb3dPolylineVertex
 10
24.985537
 20
-161.44774
 30
0.0
 70
    32
  0
VERTEX
  5
2D7
330
29B
100
AcDbEntity
  8
1
100
AcDbVertex
100
AcDb3dPolylineVertex
 10
24.98295
 20
-161.4449699999999
 30
0.0
 70
    32
  0
VERTEX
  5
2D8
330
29B
100
AcDbEntity
  8
1
100
AcDbVertex
100
AcDb3dPolylineVertex
 10
24.980363
 20
-161.442201
 30
0.0
 70
    32
  0
VERTEX
  5
2D9
330
29B
100
AcDbEntity
  8
1
100
AcDbVertex
100
AcDb3dPolylineVertex
 10
24.977776
 20
-161.439431
 30
0.0
 70
    32
  0
SEQEND
  5
2DA
330
29B
100
AcDbEntity
  8
1
  0
POLYLINE
  5
2DB
330
72B
100
AcDbEntity
  8
1
100
AcDb3dPolyline
 66
     1
 10
0.0
 20
0.0
 30
0.0
 70
     8
  0
VERTEX
  5
2DC
330
2DB
100
AcDbEntity
  8
1
100
AcDbVertex
100
AcDb3dPolylineVertex
 10
22.5375
 20
-161.6484
 30
0.0
 70
    32
  0
VERTEX
  5
2DD
330
2DB
100
AcDbEntity
  8
1
100
AcDbVertex
100
AcDb3dPolylineVertex
 10
22.53757
 20
-161.64477
 30
0.0
 70
    32
  0
VERTEX
  5
2DE
330
2DB
100
AcDbEntity
  8
1
100
AcDbVertex
100
AcDb3dPolylineVertex
 10
22.53764
 20
-161.64114
 30
0.0
 70
    32
  0
VERTEX
  5
2DF
330
2DB
100
AcDbEntity
  8
1
100
AcDbVertex
100
AcDb3dPolylineVertex
 10
22.53771
 20
-161.637509
 30
0.0
 70
    32
  0
VERTEX
  5
2E0
330
2DB
100
AcDbEntity
  8
1
100
AcDbVertex
100
AcDb3dPolylineVertex
 10
22.537894
 20
-161.633884
 30
0.0
 70
    32
  0
VERTEX
  5
2E1
330
2DB
100
AcDbEntity
  8
1
100
AcDbVertex
100
AcDb3dPolylineVertex
 10
22.538105
 20
-161.630259
 30
0.0
 70
    32
  0
VERTEX
  5
2E2
330
2DB
100
AcDbEntity
  8
1
100
AcDbVertex
100
AcDb3dPolylineVertex
 10
22.538315
 20
-161.626634
 30
0.0
 70
    32
  0
VERTEX
  5
2E3
330
2DB
100
AcDbEntity
  8
1
100
AcDbVertex
100
AcDb3dPolylineVertex
 10
22.538613
 20
-161.6230159999999
 30
0.0
 70
    32
  0
VERTEX
  5
2E4
330
2DB
100
AcDbEntity
  8
1
100
AcDbVertex
100
AcDb3dPolylineVertex
 10
22.538963
 20
-161.619402
 30
0.0
 70
    32
  0
VERTEX
  5
2E5
330
2DB
100
AcDbEntity
  8
1
100
AcDbVertex
100
AcDb3dPolylineVertex
 10
22.539312
 20
-161.615788
 30
0.0
 70
    32
  0
VERTEX
  5
2E6
330
2DB
100
AcDbEntity
  8
1
100
AcDbVertex
100
AcDb3dPolylineVertex
 10
22.539723
 20
-161.612181
 30
0.0
 70
    32
  0
VERTEX
  5
2E7
330
2DB
100
AcDbEntity
  8
1
100
AcDbVertex
100
AcDb3dPolylineVertex
 10
22.540212
 20
-161.608583
 30
0.0
 70
    32
  0
VERTEX
  5
2E8
330
2DB
100
AcDbEntity
  8
1
100
AcDbVertex
100
AcDb3dPolylineVertex
 10
22.540701
 20
-161.604985
 30
0.0
 70
    32
  0
VERTEX
  5
2E9
330
2DB
100
AcDbEntity
  8
1
100
AcDbVertex
100
AcDb3dPolylineVertex
 10
22.541223
 20
-161.601393
 30
0.0
 70
    32
  0
VERTEX
  5
2EA
330
2DB
100
AcDbEntity
  8
1
100
AcDbVertex
100
AcDb3dPolylineVertex
 10
22.541851
 20
-161.597817
 30
0.0
 70
    32
  0
VERTEX
  5
2EB
330
2DB
100
AcDbEntity
  8
1
100
AcDbVertex
100
AcDb3dPolylineVertex
 10
22.542478
 20
-161.5942399999999
 30
0.0
 70
    32
  0
VERTEX
  5
2EC
330
2DB
100
AcDbEntity
  8
1
100
AcDbVertex
100
AcDb3dPolylineVertex
 10
22.543112
 20
-161.590665
 30
0.0
 70
    32
  0
VERTEX
  5
2ED
330
2DB
100
AcDbEntity
  8
1
100
AcDbVertex
100
AcDb3dPolylineVertex
 10
22.543877
 20
-161.587116
 30
0.0
 70
    32
  0
VERTEX
  5
2EE
330
2DB
100
AcDbEntity
  8
1
100
AcDbVertex
100
AcDb3dPolylineVertex
 10
22.544642
 20
-161.583567
 30
0.0
 70
    32
  0
VERTEX
  5
2EF
330
2DB
100
AcDbEntity
  8
1
100
AcDbVertex
100
AcDb3dPolylineVertex
 10
22.545408
 20
-161.580017
 30
0.0
 70
    32
  0
VERTEX
  5
2F0
330
2DB
100
AcDbEntity
  8
1
100
AcDbVertex
100
AcDb3dPolylineVertex
 10
22.54629
 20
-161.576496
 30
0.0
 70
    32
  0
VERTEX
  5
2F1
330
2DB
100
AcDbEntity
  8
1
100
AcDbVertex
100
AcDb3dPolylineVertex
 10
22.547193
 20
-161.572979
 30
0.0
 70
    32
  0
VERTEX
  5
2F2
330
2DB
100
AcDbEntity
  8
1
100
AcDbVertex
100
AcDb3dPolylineVertex
 10
22.548095
 20
-161.569462
 30
0.0
 70
    32
  0
VERTEX
  5
2F3
330
2DB
100
AcDbEntity
  8
1
100
AcDbVertex
100
AcDb3dPolylineVertex
 10
22.549087
 20
-161.56597
 30
0.0
 70
    32
  0
VERTEX
  5
2F4
330
2DB
100
AcDbEntity
  8
1
100
AcDbVertex
100
AcDb3dPolylineVertex
 10
22.550125
 20
-161.56249
 30
0.0
 70
    32
  0
VERTEX
  5
2F5
330
2DB
100
AcDbEntity
  8
1
100
AcDbVertex
100
AcDb3dPolylineVertex
 10
22.551162
 20
-161.559011
 30
0.0
 70
    32
  0
VERTEX
  5
2F6
330
2DB
100
AcDbEntity
  8
1
100
AcDbVertex
100
AcDb3dPolylineVertex
 10
22.552262
 20
-161.555551
 30
0.0
 70
    32
  0
VERTEX
  5
2F7
330
2DB
100
AcDbEntity
  8
1
100
AcDbVertex
100
AcDb3dPolylineVertex
 10
22.553433
 20
-161.552114
 30
0.0
 70
    32
  0
VERTEX
  5
2F8
330
2DB
100
AcDbEntity
  8
1
100
AcDbVertex
100
AcDb3dPolylineVertex
 10
22.554604
 20
-161.548677
 30
0.0
 70
    32
  0
VERTEX
  5
2F9
330
2DB
100
AcDbEntity
  8
1
100
AcDbVertex
100
AcDb3dPolylineVertex
 10
22.55581
 20
-161.545253
 30
0.0
 70
    32
  0
VERTEX
  5
2FA
330
2DB
100
AcDbEntity
  8
1
100
AcDbVertex
100
AcDb3dPolylineVertex
 10
22.557113
 20
-161.541864
 30
0.0
 70
    32
  0
VERTEX
  5
2FB
330
2DB
100
AcDbEntity
  8
1
100
AcDbVertex
100
AcDb3dPolylineVertex
 10
22.558416
 20
-161.538475
 30
0.0
 70
    32
  0
VERTEX
  5
2FC
330
2DB
100
AcDbEntity
  8
1
100
AcDbVertex
100
AcDb3dPolylineVertex
 10
22.559728
 20
-161.53509
 30
0.0
 70
    32
  0
VERTEX
  5
2FD
330
2DB
100
AcDbEntity
  8
1
100
AcDbVertex
100
AcDb3dPolylineVertex
 10
22.561161
 20
-161.531754
 30
0.0
 70
    32
  0
VERTEX
  5
2FE
330
2DB
100
AcDbEntity
  8
1
100
AcDbVertex
100
AcDb3dPolylineVertex
 10
22.562594
 20
-161.528418
 30
0.0
 70
    32
  0
VERTEX
  5
2FF
330
2DB
100
AcDbEntity
  8
1
100
AcDbVertex
100
AcDb3dPolylineVertex
 10
22.564027
 20
-161.525081
 30
0.0
 70
    32
  0
VERTEX
  5
300
330
2DB
100
AcDbEntity
  8
1
100
AcDbVertex
100
AcDb3dPolylineVertex
 10
22.565572
 20
-161.521796
 30
0.0
 70
    32
  0
VERTEX
  5
301
330
2DB
100
AcDbEntity
  8
1
100
AcDbVertex
100
AcDb3dPolylineVertex
 10
22.567133
 20
-161.518518
 30
0.0
 70
    32
  0
VERTEX
  5
302
330
2DB
100
AcDbEntity
  8
1
100
AcDbVertex
100
AcDb3dPolylineVertex
 10
22.568694
 20
-161.5152399999999
 30
0.0
 70
    32
  0
VERTEX
  5
303
330
2DB
100
AcDbEntity
  8
1
100
AcDbVertex
100
AcDb3dPolylineVertex
 10
22.570341
 20
-161.512004
 30
0.0
 70
    32
  0
VERTEX
  5
304
330
2DB
100
AcDbEntity
  8
1
100
AcDbVertex
100
AcDb3dPolylineVertex
 10
22.572028
 20
-161.508789
 30
0.0
 70
    32
  0
VERTEX
  5
305
330
2DB
100
AcDbEntity
  8
1
100
AcDbVertex
100
AcDb3dPolylineVertex
 10
22.573715
 20
-161.505574
 30
0.0
 70
    32
  0
VERTEX
  5
306
330
2DB
100
AcDbEntity
  8
1
100
AcDbVertex
100
AcDb3dPolylineVertex
 10
22.575462
 20
-161.502391
 30
0.0
 70
    32
  0
VERTEX
  5
307
330
2DB
100
AcDbEntity
  8
1
100
AcDbVertex
100
AcDb3dPolylineVertex
 10
22.577272
 20
-161.499244
 30
0.0
 70
    32
  0
VERTEX
  5
308
330
2DB
100
AcDbEntity
  8
1
100
AcDbVertex
100
AcDb3dPolylineVertex
 10
22.579083
 20
-161.496097
 30
0.0
 70
    32
  0
VERTEX
  5
309
330
2DB
100
AcDbEntity
  8
1
100
AcDbVertex
100
AcDb3dPolylineVertex
 10
22.580927
 20
-161.49297
 30
0.0
 70
    32
  0
VERTEX
  5
30A
330
2DB
100
AcDbEntity
  8
1
100
AcDbVertex
100
AcDb3dPolylineVertex
 10
22.582858
 20
-161.489895
 30
0.0
 70
    32
  0
VERTEX
  5
30B
330
2DB
100
AcDbEntity
  8
1
100
AcDbVertex
100
AcDb3dPolylineVertex
 10
22.584789
 20
-161.48682
 30
0.0
 70
    32
  0
VERTEX
  5
30C
330
2DB
100
AcDbEntity
  8
1
100
AcDbVertex
100
AcDb3dPolylineVertex
 10
22.586728
 20
-161.483751
 30
0.0
 70
    32
  0
VERTEX
  5
30D
330
2DB
100
AcDbEntity
  8
1
100
AcDbVertex
100
AcDb3dPolylineVertex
 10
22.588777
 20
-161.480753
 30
0.0
 70
    32
  0
VERTEX
  5
30E
330
2DB
100
AcDbEntity
  8
1
100
AcDbVertex
100
AcDb3dPolylineVertex
 10
22.590825
 20
-161.477755
 30
0.0
 70
    32
  0
VERTEX
  5
30F
330
2DB
100
AcDbEntity
  8
1
100
AcDbVertex
100
AcDb3dPolylineVertex
 10
22.592874
 20
-161.474757
 30
0.0
 70
    32
  0
VERTEX
  5
310
330
2DB
100
AcDbEntity
  8
1
100
AcDbVertex
100
AcDb3dPolylineVertex
 10
22.595021
 20
-161.47183
 30
0.0
 70
    32
  0
VERTEX
  5
311
330
2DB
100
AcDbEntity
  8
1
100
AcDbVertex
100
AcDb3dPolylineVertex
 10
22.597184
 20
-161.468914
 30
0.0
 70
    32
  0
VERTEX
  5
312
330
2DB
100
AcDbEntity
  8
1
100
AcDbVertex
100
AcDb3dPolylineVertex
 10
22.599348
 20
-161.465998
 30
0.0
 70
    32
  0
VERTEX
  5
313
330
2DB
100
AcDbEntity
  8
1
100
AcDbVertex
100
AcDb3dPolylineVertex
 10
22.601584
 20
-161.463138
 30
0.0
 70
    32
  0
VERTEX
  5
314
330
2DB
100
AcDbEntity
  8
1
100
AcDbVertex
100
AcDb3dPolylineVertex
 10
22.60386
 20
-161.460309
 30
0.0
 70
    32
  0
VERTEX
  5
315
330
2DB
100
AcDbEntity
  8
1
100
AcDbVertex
100
AcDb3dPolylineVertex
 10
22.606136
 20
-161.45748
 30
0.0
 70
    32
  0
VERTEX
  5
316
330
2DB
100
AcDbEntity
  8
1
100
AcDbVertex
100
AcDb3dPolylineVertex
 10
22.60846
 20
-161.454691
 30
0.0
 70
    32
  0
VERTEX
  5
317
330
2DB
100
AcDbEntity
  8
1
100
AcDbVertex
100
AcDb3dPolylineVertex
 10
22.610844
 20
-161.451953
 30
0.0
 70
    32
  0
VERTEX
  5
318
330
2DB
100
AcDbEntity
  8
1
100
AcDbVertex
100
AcDb3dPolylineVertex
 10
22.613228
 20
-161.449214
 30
0.0
 70
    32
  0
VERTEX
  5
319
330
2DB
100
AcDbEntity
  8
1
100
AcDbVertex
100
AcDb3dPolylineVertex
 10
22.615636
 20
-161.446497
 30
0.0
 70
    32
  0
VERTEX
  5
31A
330
2DB
100
AcDbEntity
  8
1
100
AcDbVertex
100
AcDb3dPolylineVertex
 10
22.618123
 20
-161.443852
 30
0.0
 70
    32
  0
VERTEX
  5
31B
330
2DB
100
AcDbEntity
  8
1
100
AcDbVertex
100
AcDb3dPolylineVertex
 10
22.620611
 20
-161.441207
 30
0.0
 70
    32
  0
VERTEX
  5
31C
330
2DB
100
AcDbEntity
  8
1
100
AcDbVertex
100
AcDb3dPolylineVertex
 10
22.623098
 20
-161.438562
 30
0.0
 70
    32
  0
SEQEND
  5
31D
330
2DB
100
AcDbEntity
  8
1
  0
POLYLINE
  5
31E
330
72B
100
AcDbEntity
  8
1
100
AcDb3dPolyline
 66
     1
 10
0.0
 20
0.0
 30
0.0
 70
     8
  0
VERTEX
  5
31F
330
31E
100
AcDbEntity
  8
1
100
AcDbVertex
100
AcDb3dPolylineVertex
 10
24.529486
 20
-166.869157
 30
0.0
 70
    32
  0
VERTEX
  5
320
330
31E
100
AcDbEntity
  8
1
100
AcDbVertex
100
AcDb3dPolylineVertex
 10
24.525663
 20
-166.869625
 30
0.0
 70
    32
  0
VERTEX
  5
321
330
31E
100
AcDbEntity
  8
1
100
AcDbVertex
100
AcDb3dPolylineVertex
 10
24.52184
 20
-166.870092
 30
0.0
 70
    32
  0
VERTEX
  5
322
330
31E
100
AcDbEntity
  8
1
100
AcDbVertex
100
AcDb3dPolylineVertex
 10
24.518016
 20
-166.87056
 30
0.0
 70
    32
  0
VERTEX
  5
323
330
31E
100
AcDbEntity
  8
1
100
AcDbVertex
100
AcDb3dPolylineVertex
 10
24.514193
 20
-166.871027
 30
0.0
 70
    32
  0
VERTEX
  5
324
330
31E
100
AcDbEntity
  8
1
100
AcDbVertex
100
AcDb3dPolylineVertex
 10
24.510365
 20
-166.871448
 30
0.0
 70
    32
  0
VERTEX
  5
325
330
31E
100
AcDbEntity
  8
1
100
AcDbVertex
100
AcDb3dPolylineVertex
 10
24.506533
 20
-166.871839
 30
0.0
 70
    32
  0
VERTEX
  5
326
330
31E
100
AcDbEntity
  8
1
100
AcDbVertex
100
AcDb3dPolylineVertex
 10
24.502701
 20
-166.872229
 30
0.0
 70
    32
  0
VERTEX
  5
327
330
31E
100
AcDbEntity
  8
1
100
AcDbVertex
100
AcDb3dPolylineVertex
 10
24.498869
 20
-166.872619
 30
0.0
 70
    32
  0
VERTEX
  5
328
330
31E
100
AcDbEntity
  8
1
100
AcDbVertex
100
AcDb3dPolylineVertex
 10
24.495033
 20
-166.872965
 30
0.0
 70
    32
  0
VERTEX
  5
329
330
31E
100
AcDbEntity
  8
1
100
AcDbVertex
100
AcDb3dPolylineVertex
 10
24.491193
 20
-166.873266
 30
0.0
 70
    32
  0
VERTEX
  5
32A
330
31E
100
AcDbEntity
  8
1
100
AcDbVertex
100
AcDb3dPolylineVertex
 10
24.487353
 20
-166.873568
 30
0.0
 70
    32
  0
VERTEX
  5
32B
330
31E
100
AcDbEntity
  8
1
100
AcDbVertex
100
AcDb3dPolylineVertex
 10
24.483514
 20
-166.873869
 30
0.0
 70
    32
  0
VERTEX
  5
32C
330
31E
100
AcDbEntity
  8
1
100
AcDbVertex
100
AcDb3dPolylineVertex
 10
24.479669
 20
-166.874097
 30
0.0
 70
    32
  0
VERTEX
  5
32D
330
31E
100
AcDbEntity
  8
1
100
AcDbVertex
100
AcDb3dPolylineVertex
 10
24.475822
 20
-166.874293
 30
0.0
 70
    32
  0
VERTEX
  5
32E
330
31E
100
AcDbEntity
  8
1
100
AcDbVertex
100
AcDb3dPolylineVertex
 10
24.471976
 20
-166.87449
 30
0.0
 70
    32
  0
VERTEX
  5
32F
330
31E
100
AcDbEntity
  8
1
100
AcDbVertex
100
AcDb3dPolylineVertex
 10
24.468128
 20
-166.874662
 30
0.0
 70
    32
  0
VERTEX
  5
330
330
31E
100
AcDbEntity
  8
1
100
AcDbVertex
100
AcDb3dPolylineVertex
 10
24.464277
 20
-166.874734
 30
0.0
 70
    32
  0
VERTEX
  5
331
330
31E
100
AcDbEntity
  8
1
100
AcDbVertex
100
AcDb3dPolylineVertex
 10
24.460426
 20
-166.874805
 30
0.0
 70
    32
  0
VERTEX
  5
332
330
31E
100
AcDbEntity
  8
1
100
AcDbVertex
100
AcDb3dPolylineVertex
 10
24.456575
 20
-166.874877
 30
0.0
 70
    32
  0
SEQEND
  5
333
330
31E
100
AcDbEntity
  8
1
  0
POLYLINE
  5
334
330
72B
100
AcDbEntity
  8
1
100
AcDb3dPolyline
 66
     1
 10
0.0
 20
0.0
 30
0.0
 70
     8
  0
VERTEX
  5
335
330
334
100
AcDbEntity
  8
1
100
AcDbVertex
100
AcDb3dPolylineVertex
 10
23.070514
 20
-166.869157
 30
0.0
 70
    32
  0
VERTEX
  5
336
330
334
100
AcDbEntity
  8
1
100
AcDbVertex
100
AcDb3dPolylineVertex
 10
23.074337
 20
-166.869625
 30
0.0
 70
    32
  0
VERTEX
  5
337
330
334
100
AcDbEntity
  8
1
100
AcDbVertex
100
AcDb3dPolylineVertex
 10
23.07816
 20
-166.870092
 30
0.0
 70
    32
  0
VERTEX
  5
338
330
334
100
AcDbEntity
  8
1
100
AcDbVertex
100
AcDb3dPolylineVertex
 10
23.081984
 20
-166.87056
 30
0.0
 70
    32
  0
VERTEX
  5
339
330
334
100
AcDbEntity
  8
1
100
AcDbVertex
100
AcDb3dPolylineVertex
 10
23.085807
 20
-166.871027
 30
0.0
 70
    32
  0
VERTEX
  5
33A
330
334
100
AcDbEntity
  8
1
100
AcDbVertex
100
AcDb3dPolylineVertex
 10
23.089635
 20
-166.871448
 30
0.0
 70
    32
  0
VERTEX
  5
33B
330
334
100
AcDbEntity
  8
1
100
AcDbVertex
100
AcDb3dPolylineVertex
 10
23.093467
 20
-166.871839
 30
0.0
 70
    32
  0
VERTEX
  5
33C
330
334
100
AcDbEntity
  8
1
100
AcDbVertex
100
AcDb3dPolylineVertex
 10
23.097299
 20
-166.872229
 30
0.0
 70
    32
  0
VERTEX
  5
33D
330
334
100
AcDbEntity
  8
1
100
AcDbVertex
100
AcDb3dPolylineVertex
 10
23.101131
 20
-166.872619
 30
0.0
 70
    32
  0
VERTEX
  5
33E
330
334
100
AcDbEntity
  8
1
100
AcDbVertex
100
AcDb3dPolylineVertex
 10
23.104967
 20
-166.872965
 30
0.0
 70
    32
  0
VERTEX
  5
33F
330
334
100
AcDbEntity
  8
1
100
AcDbVertex
100
AcDb3dPolylineVertex
 10
23.108807
 20
-166.873266
 30
0.0
 70
    32
  0
VERTEX
  5
340
330
334
100
AcDbEntity
  8
1
100
AcDbVertex
100
AcDb3dPolylineVertex
 10
23.112647
 20
-166.873568
 30
0.0
 70
    32
  0
VERTEX
  5
341
330
334
100
AcDbEntity
  8
1
100
AcDbVertex
100
AcDb3dPolylineVertex
 10
23.116486
 20
-166.873869
 30
0.0
 70
    32
  0
VERTEX
  5
342
330
334
100
AcDbEntity
  8
1
100
AcDbVertex
100
AcDb3dPolylineVertex
 10
23.120331
 20
-166.874097
 30
0.0
 70
    32
  0
VERTEX
  5
343
330
334
100
AcDbEntity
  8
1
100
AcDbVertex
100
AcDb3dPolylineVertex
 10
23.124178
 20
-166.874293
 30
0.0
 70
    32
  0
VERTEX
  5
344
330
334
100
AcDbEntity
  8
1
100
AcDbVertex
100
AcDb3dPolylineVertex
 10
23.128024
 20
-166.87449
 30
0.0
 70
    32
  0
VERTEX
  5
345
330
334
100
AcDbEntity
  8
1
100
AcDbVertex
100
AcDb3dPolylineVertex
 10
23.131872
 20
-166.874662
 30
0.0
 70
    32
  0
VERTEX
  5
346
330
334
100
AcDbEntity
  8
1
100
AcDbVertex
100
AcDb3dPolylineVertex
 10
23.135723
 20
-166.874734
 30
0.0
 70
    32
  0
VERTEX
  5
347
330
334
100
AcDbEntity
  8
1
100
AcDbVertex
100
AcDb3dPolylineVertex
 10
23.139574
 20
-166.874805
 30
0.0
 70
    32
  0
VERTEX
  5
348
330
334
100
AcDbEntity
  8
1
100
AcDbVertex
100
AcDb3dPolylineVertex
 10
23.143425
 20
-166.874877
 30
0.0
 70
    32
  0
SEQEND
  5
349
330
334
100
AcDbEntity
  8
1
  0
POLYLINE
  5
34A
330
72B
100
AcDbEntity
  8
1
100
AcDb3dPolyline
 66
     1
 10
0.0
 20
0.0
 30
0.0
 70
     8
  0
VERTEX
  5
34B
330
34A
100
AcDbEntity
  8
1
100
AcDbVertex
100
AcDb3dPolylineVertex
 10
24.569785
 20
-166.862186
 30
0.0
 70
    32
  0
VERTEX
  5
34C
330
34A
100
AcDbEntity
  8
1
100
AcDbVertex
100
AcDb3dPolylineVertex
 10
24.577965
 20
-166.860335
 30
0.0
 70
    32
  0
VERTEX
  5
34D
330
34A
100
AcDbEntity
  8
1
100
AcDbVertex
100
AcDb3dPolylineVertex
 10
24.586144
 20
-166.858479
 30
0.0
 70
    32
  0
VERTEX
  5
34E
330
34A
100
AcDbEntity
  8
1
100
AcDbVertex
100
AcDb3dPolylineVertex
 10
24.59429500000001
 20
-166.856504
 30
0.0
 70
    32
  0
VERTEX
  5
34F
330
34A
100
AcDbEntity
  8
1
100
AcDbVertex
100
AcDb3dPolylineVertex
 10
24.602446
 20
-166.85453
 30
0.0
 70
    32
  0
VERTEX
  5
350
330
34A
100
AcDbEntity
  8
1
100
AcDbVertex
100
AcDb3dPolylineVertex
 10
24.610569
 20
-166.852445
 30
0.0
 70
    32
  0
VERTEX
  5
351
330
34A
100
AcDbEntity
  8
1
100
AcDbVertex
100
AcDb3dPolylineVertex
 10
24.618693
 20
-166.850358
 30
0.0
 70
    32
  0
VERTEX
  5
352
330
34A
100
AcDbEntity
  8
1
100
AcDbVertex
100
AcDb3dPolylineVertex
 10
24.626793
 20
-166.848187
 30
0.0
 70
    32
  0
VERTEX
  5
353
330
34A
100
AcDbEntity
  8
1
100
AcDbVertex
100
AcDb3dPolylineVertex
 10
24.63489
 20
-166.845999
 30
0.0
 70
    32
  0
VERTEX
  5
354
330
34A
100
AcDbEntity
  8
1
100
AcDbVertex
100
AcDb3dPolylineVertex
 10
24.642971
 20
-166.843756
 30
0.0
 70
    32
  0
VERTEX
  5
355
330
34A
100
AcDbEntity
  8
1
100
AcDbVertex
100
AcDb3dPolylineVertex
 10
24.651041
 20
-166.841474
 30
0.0
 70
    32
  0
VERTEX
  5
356
330
34A
100
AcDbEntity
  8
1
100
AcDbVertex
100
AcDb3dPolylineVertex
 10
24.659106
 20
-166.839172
 30
0.0
 70
    32
  0
VERTEX
  5
357
330
34A
100
AcDbEntity
  8
1
100
AcDbVertex
100
AcDb3dPolylineVertex
 10
24.667151
 20
-166.836803
 30
0.0
 70
    32
  0
VERTEX
  5
358
330
34A
100
AcDbEntity
  8
1
100
AcDbVertex
100
AcDb3dPolylineVertex
 10
24.675197
 20
-166.834435
 30
0.0
 70
    32
  0
VERTEX
  5
359
330
34A
100
AcDbEntity
  8
1
100
AcDbVertex
100
AcDb3dPolylineVertex
 10
24.683223
 20
-166.832002
 30
0.0
 70
    32
  0
VERTEX
  5
35A
330
34A
100
AcDbEntity
  8
1
100
AcDbVertex
100
AcDb3dPolylineVertex
 10
24.691244
 20
-166.829553
 30
0.0
 70
    32
  0
VERTEX
  5
35B
330
34A
100
AcDbEntity
  8
1
100
AcDbVertex
100
AcDb3dPolylineVertex
 10
24.699259
 20
-166.827082
 30
0.0
 70
    32
  0
VERTEX
  5
35C
330
34A
100
AcDbEntity
  8
1
100
AcDbVertex
100
AcDb3dPolylineVertex
 10
24.707257
 20
-166.824559
 30
0.0
 70
    32
  0
VERTEX
  5
35D
330
34A
100
AcDbEntity
  8
1
100
AcDbVertex
100
AcDb3dPolylineVertex
 10
24.715255
 20
-166.822036
 30
0.0
 70
    32
  0
VERTEX
  5
35E
330
34A
100
AcDbEntity
  8
1
100
AcDbVertex
100
AcDb3dPolylineVertex
 10
24.723237
 20
-166.819463
 30
0.0
 70
    32
  0
VERTEX
  5
35F
330
34A
100
AcDbEntity
  8
1
100
AcDbVertex
100
AcDb3dPolylineVertex
 10
24.731213
 20
-166.816869
 30
0.0
 70
    32
  0
VERTEX
  5
360
330
34A
100
AcDbEntity
  8
1
100
AcDbVertex
100
AcDb3dPolylineVertex
 10
24.739189
 20
-166.814276
 30
0.0
 70
    32
  0
VERTEX
  5
361
330
34A
100
AcDbEntity
  8
1
100
AcDbVertex
100
AcDb3dPolylineVertex
 10
24.747151
 20
-166.81164
 30
0.0
 70
    32
  0
VERTEX
  5
362
330
34A
100
AcDbEntity
  8
1
100
AcDbVertex
100
AcDb3dPolylineVertex
 10
24.755099
 20
-166.808963
 30
0.0
 70
    32
  0
VERTEX
  5
363
330
34A
100
AcDbEntity
  8
1
100
AcDbVertex
100
AcDb3dPolylineVertex
 10
24.763048
 20
-166.806291
 30
0.0
 70
    32
  0
VERTEX
  5
364
330
34A
100
AcDbEntity
  8
1
100
AcDbVertex
100
AcDb3dPolylineVertex
 10
24.770984
 20
-166.803577
 30
0.0
 70
    32
  0
VERTEX
  5
365
330
34A
100
AcDbEntity
  8
1
100
AcDbVertex
100
AcDb3dPolylineVertex
 10
24.77891
 20
-166.800836
 30
0.0
 70
    32
  0
VERTEX
  5
366
330
34A
100
AcDbEntity
  8
1
100
AcDbVertex
100
AcDb3dPolylineVertex
 10
24.786838
 20
-166.7981
 30
0.0
 70
    32
  0
VERTEX
  5
367
330
34A
100
AcDbEntity
  8
1
100
AcDbVertex
100
AcDb3dPolylineVertex
 10
24.794751
 20
-166.795319
 30
0.0
 70
    32
  0
VERTEX
  5
368
330
34A
100
AcDbEntity
  8
1
100
AcDbVertex
100
AcDb3dPolylineVertex
 10
24.802656
 20
-166.792518
 30
0.0
 70
    32
  0
VERTEX
  5
369
330
34A
100
AcDbEntity
  8
1
100
AcDbVertex
100
AcDb3dPolylineVertex
 10
24.810563
 20
-166.78972
 30
0.0
 70
    32
  0
VERTEX
  5
36A
330
34A
100
AcDbEntity
  8
1
100
AcDbVertex
100
AcDb3dPolylineVertex
 10
24.818453
 20
-166.786879
 30
0.0
 70
    32
  0
VERTEX
  5
36B
330
34A
100
AcDbEntity
  8
1
100
AcDbVertex
100
AcDb3dPolylineVertex
 10
24.826339
 20
-166.784023
 30
0.0
 70
    32
  0
VERTEX
  5
36C
330
34A
100
AcDbEntity
  8
1
100
AcDbVertex
100
AcDb3dPolylineVertex
 10
24.834225
 20
-166.7811679999999
 30
0.0
 70
    32
  0
VERTEX
  5
36D
330
34A
100
AcDbEntity
  8
1
100
AcDbVertex
100
AcDb3dPolylineVertex
 10
24.842095
 20
-166.77827
 30
0.0
 70
    32
  0
VERTEX
  5
36E
330
34A
100
AcDbEntity
  8
1
100
AcDbVertex
100
AcDb3dPolylineVertex
 10
24.849961
 20
-166.77536
 30
0.0
 70
    32
  0
VERTEX
  5
36F
330
34A
100
AcDbEntity
  8
1
100
AcDbVertex
100
AcDb3dPolylineVertex
 10
24.857827
 20
-166.772451
 30
0.0
 70
    32
  0
VERTEX
  5
370
330
34A
100
AcDbEntity
  8
1
100
AcDbVertex
100
AcDb3dPolylineVertex
 10
24.865678
 20
-166.769502
 30
0.0
 70
    32
  0
VERTEX
  5
371
330
34A
100
AcDbEntity
  8
1
100
AcDbVertex
100
AcDb3dPolylineVertex
 10
24.873525
 20
-166.76654
 30
0.0
 70
    32
  0
VERTEX
  5
372
330
34A
100
AcDbEntity
  8
1
100
AcDbVertex
100
AcDb3dPolylineVertex
 10
24.881372
 20
-166.76358
 30
0.0
 70
    32
  0
VERTEX
  5
373
330
34A
100
AcDbEntity
  8
1
100
AcDbVertex
100
AcDb3dPolylineVertex
 10
24.889204
 20
-166.760582
 30
0.0
 70
    32
  0
VERTEX
  5
374
330
34A
100
AcDbEntity
  8
1
100
AcDbVertex
100
AcDb3dPolylineVertex
 10
24.897031
 20
-166.757569
 30
0.0
 70
    32
  0
VERTEX
  5
375
330
34A
100
AcDbEntity
  8
1
100
AcDbVertex
100
AcDb3dPolylineVertex
 10
24.90486
 20
-166.754561
 30
0.0
 70
    32
  0
VERTEX
  5
376
330
34A
100
AcDbEntity
  8
1
100
AcDbVertex
100
AcDb3dPolylineVertex
 10
24.912675
 20
-166.7515169999999
 30
0.0
 70
    32
  0
VERTEX
  5
377
330
34A
100
AcDbEntity
  8
1
100
AcDbVertex
100
AcDb3dPolylineVertex
 10
24.920483
 20
-166.748456
 30
0.0
 70
    32
  0
VERTEX
  5
378
330
34A
100
AcDbEntity
  8
1
100
AcDbVertex
100
AcDb3dPolylineVertex
 10
24.928294
 20
-166.745401
 30
0.0
 70
    32
  0
VERTEX
  5
379
330
34A
100
AcDbEntity
  8
1
100
AcDbVertex
100
AcDb3dPolylineVertex
 10
24.936092
 20
-166.742314
 30
0.0
 70
    32
  0
VERTEX
  5
37A
330
34A
100
AcDbEntity
  8
1
100
AcDbVertex
100
AcDb3dPolylineVertex
 10
24.943882
 20
-166.739206
 30
0.0
 70
    32
  0
VERTEX
  5
37B
330
34A
100
AcDbEntity
  8
1
100
AcDbVertex
100
AcDb3dPolylineVertex
 10
24.951674
 20
-166.736104
 30
0.0
 70
    32
  0
VERTEX
  5
37C
330
34A
100
AcDbEntity
  8
1
100
AcDbVertex
100
AcDb3dPolylineVertex
 10
24.959456
 20
-166.732977
 30
0.0
 70
    32
  0
VERTEX
  5
37D
330
34A
100
AcDbEntity
  8
1
100
AcDbVertex
100
AcDb3dPolylineVertex
 10
24.967228
 20
-166.729824
 30
0.0
 70
    32
  0
VERTEX
  5
37E
330
34A
100
AcDbEntity
  8
1
100
AcDbVertex
100
AcDb3dPolylineVertex
 10
24.975
 20
-166.726673
 30
0.0
 70
    32
  0
SEQEND
  5
37F
330
34A
100
AcDbEntity
  8
1
  0
POLYLINE
  5
380
330
72B
100
AcDbEntity
  8
1
100
AcDb3dPolyline
 66
     1
 10
0.0
 20
0.0
 30
0.0
 70
     8
  0
VERTEX
  5
381
330
380
100
AcDbEntity
  8
1
100
AcDbVertex
100
AcDb3dPolylineVertex
 10
22.625
 20
-166.726673
 30
0.0
 70
    32
  0
VERTEX
  5
382
330
380
100
AcDbEntity
  8
1
100
AcDbVertex
100
AcDb3dPolylineVertex
 10
22.632777
 20
-166.7298139999999
 30
0.0
 70
    32
  0
VERTEX
  5
383
330
380
100
AcDbEntity
  8
1
100
AcDbVertex
100
AcDb3dPolylineVertex
 10
22.640553
 20
-166.732955
 30
0.0
 70
    32
  0
VERTEX
  5
384
330
380
100
AcDbEntity
  8
1
100
AcDbVertex
100
AcDb3dPolylineVertex
 10
22.64833
 20
-166.736095
 30
0.0
 70
    32
  0
VERTEX
  5
385
330
380
100
AcDbEntity
  8
1
100
AcDbVertex
100
AcDb3dPolylineVertex
 10
22.656113
 20
-166.73922
 30
0.0
 70
    32
  0
VERTEX
  5
386
330
380
100
AcDbEntity
  8
1
100
AcDbVertex
100
AcDb3dPolylineVertex
 10
22.66391
 20
-166.742309
 30
0.0
 70
    32
  0
VERTEX
  5
387
330
380
100
AcDbEntity
  8
1
100
AcDbVertex
100
AcDb3dPolylineVertex
 10
22.671711
 20
-166.745388
 30
0.0
 70
    32
  0
VERTEX
  5
388
330
380
100
AcDbEntity
  8
1
100
AcDbVertex
100
AcDb3dPolylineVertex
 10
22.679511
 20
-166.74847
 30
0.0
 70
    32
  0
VERTEX
  5
389
330
380
100
AcDbEntity
  8
1
100
AcDbVertex
100
AcDb3dPolylineVertex
 10
22.687325
 20
-166.751515
 30
0.0
 70
    32
  0
VERTEX
  5
38A
330
380
100
AcDbEntity
  8
1
100
AcDbVertex
100
AcDb3dPolylineVertex
 10
22.695145
 20
-166.754547
 30
0.0
 70
    32
  0
VERTEX
  5
38B
330
380
100
AcDbEntity
  8
1
100
AcDbVertex
100
AcDb3dPolylineVertex
 10
22.702963
 20
-166.757583
 30
0.0
 70
    32
  0
VERTEX
  5
38C
330
380
100
AcDbEntity
  8
1
100
AcDbVertex
100
AcDb3dPolylineVertex
 10
22.710795
 20
-166.760583
 30
0.0
 70
    32
  0
VERTEX
  5
38D
330
380
100
AcDbEntity
  8
1
100
AcDbVertex
100
AcDb3dPolylineVertex
 10
22.718634
 20
-166.763565
 30
0.0
 70
    32
  0
VERTEX
  5
38E
330
380
100
AcDbEntity
  8
1
100
AcDbVertex
100
AcDb3dPolylineVertex
 10
22.72647
 20
-166.766553
 30
0.0
 70
    32
  0
VERTEX
  5
38F
330
380
100
AcDbEntity
  8
1
100
AcDbVertex
100
AcDb3dPolylineVertex
 10
22.73432
 20
-166.769505
 30
0.0
 70
    32
  0
VERTEX
  5
390
330
380
100
AcDbEntity
  8
1
100
AcDbVertex
100
AcDb3dPolylineVertex
 10
22.742179
 20
-166.772436
 30
0.0
 70
    32
  0
VERTEX
  5
391
330
380
100
AcDbEntity
  8
1
100
AcDbVertex
100
AcDb3dPolylineVertex
 10
22.750034
 20
-166.775372
 30
0.0
 70
    32
  0
VERTEX
  5
392
330
380
100
AcDbEntity
  8
1
100
AcDbVertex
100
AcDb3dPolylineVertex
 10
22.757903
 20
-166.778274
 30
0.0
 70
    32
  0
VERTEX
  5
393
330
380
100
AcDbEntity
  8
1
100
AcDbVertex
100
AcDb3dPolylineVertex
 10
22.765781
 20
-166.781152
 30
0.0
 70
    32
  0
VERTEX
  5
394
330
380
100
AcDbEntity
  8
1
100
AcDbVertex
100
AcDb3dPolylineVertex
 10
22.773656
 20
-166.784036
 30
0.0
 70
    32
  0
VERTEX
  5
395
330
380
100
AcDbEntity
  8
1
100
AcDbVertex
100
AcDb3dPolylineVertex
 10
22.781546
 20
-166.786882
 30
0.0
 70
    32
  0
VERTEX
  5
396
330
380
100
AcDbEntity
  8
1
100
AcDbVertex
100
AcDb3dPolylineVertex
 10
22.789443
 20
-166.789704
 30
0.0
 70
    32
  0
VERTEX
  5
397
330
380
100
AcDbEntity
  8
1
100
AcDbVertex
100
AcDb3dPolylineVertex
 10
22.797339
 20
-166.792532
 30
0.0
 70
    32
  0
VERTEX
  5
398
330
380
100
AcDbEntity
  8
1
100
AcDbVertex
100
AcDb3dPolylineVertex
 10
22.805249
 20
-166.795318
 30
0.0
 70
    32
  0
VERTEX
  5
399
330
380
100
AcDbEntity
  8
1
100
AcDbVertex
100
AcDb3dPolylineVertex
 10
22.813167
 20
-166.798084
 30
0.0
 70
    32
  0
VERTEX
  5
39A
330
380
100
AcDbEntity
  8
1
100
AcDbVertex
100
AcDb3dPolylineVertex
 10
22.821084
 20
-166.800852
 30
0.0
 70
    32
  0
VERTEX
  5
39B
330
380
100
AcDbEntity
  8
1
100
AcDbVertex
100
AcDb3dPolylineVertex
 10
22.829017
 20
-166.803573
 30
0.0
 70
    32
  0
VERTEX
  5
39C
330
380
100
AcDbEntity
  8
1
100
AcDbVertex
100
AcDb3dPolylineVertex
 10
22.836956
 20
-166.806278
 30
0.0
 70
    32
  0
VERTEX
  5
39D
330
380
100
AcDbEntity
  8
1
100
AcDbVertex
100
AcDb3dPolylineVertex
 10
22.844896
 20
-166.808978
 30
0.0
 70
    32
  0
VERTEX
  5
39E
330
380
100
AcDbEntity
  8
1
100
AcDbVertex
100
AcDb3dPolylineVertex
 10
22.852853
 20
-166.811629
 30
0.0
 70
    32
  0
VERTEX
  5
39F
330
380
100
AcDbEntity
  8
1
100
AcDbVertex
100
AcDb3dPolylineVertex
 10
22.860812
 20
-166.814274
 30
0.0
 70
    32
  0
VERTEX
  5
3A0
330
380
100
AcDbEntity
  8
1
100
AcDbVertex
100
AcDb3dPolylineVertex
 10
22.868778
 20
-166.816895
 30
0.0
 70
    32
  0
VERTEX
  5
3A1
330
380
100
AcDbEntity
  8
1
100
AcDbVertex
100
AcDb3dPolylineVertex
 10
22.87676
 20
-166.819472
 30
0.0
 70
    32
  0
VERTEX
  5
3A2
330
380
100
AcDbEntity
  8
1
100
AcDbVertex
100
AcDb3dPolylineVertex
 10
22.884745
 20
-166.822036
 30
0.0
 70
    32
  0
VERTEX
  5
3A3
330
380
100
AcDbEntity
  8
1
100
AcDbVertex
100
AcDb3dPolylineVertex
 10
22.892743
 20
-166.824559
 30
0.0
 70
    32
  0
VERTEX
  5
3A4
330
380
100
AcDbEntity
  8
1
100
AcDbVertex
100
AcDb3dPolylineVertex
 10
22.900741
 20
-166.827082
 30
0.0
 70
    32
  0
VERTEX
  5
3A5
330
380
100
AcDbEntity
  8
1
100
AcDbVertex
100
AcDb3dPolylineVertex
 10
22.908756
 20
-166.829553
 30
0.0
 70
    32
  0
VERTEX
  5
3A6
330
380
100
AcDbEntity
  8
1
100
AcDbVertex
100
AcDb3dPolylineVertex
 10
22.916777
 20
-166.832002
 30
0.0
 70
    32
  0
VERTEX
  5
3A7
330
380
100
AcDbEntity
  8
1
100
AcDbVertex
100
AcDb3dPolylineVertex
 10
22.924803
 20
-166.834435
 30
0.0
 70
    32
  0
VERTEX
  5
3A8
330
380
100
AcDbEntity
  8
1
100
AcDbVertex
100
AcDb3dPolylineVertex
 10
22.932849
 20
-166.836803
 30
0.0
 70
    32
  0
VERTEX
  5
3A9
330
380
100
AcDbEntity
  8
1
100
AcDbVertex
100
AcDb3dPolylineVertex
 10
22.940894
 20
-166.839172
 30
0.0
 70
    32
  0
VERTEX
  5
3AA
330
380
100
AcDbEntity
  8
1
100
AcDbVertex
100
AcDb3dPolylineVertex
 10
22.948959
 20
-166.841474
 30
0.0
 70
    32
  0
VERTEX
  5
3AB
330
380
100
AcDbEntity
  8
1
100
AcDbVertex
100
AcDb3dPolylineVertex
 10
22.957029
 20
-166.843756
 30
0.0
 70
    32
  0
VERTEX
  5
3AC
330
380
100
AcDbEntity
  8
1
100
AcDbVertex
100
AcDb3dPolylineVertex
 10
22.96511
 20
-166.845999
 30
0.0
 70
    32
  0
VERTEX
  5
3AD
330
380
100
AcDbEntity
  8
1
100
AcDbVertex
100
AcDb3dPolylineVertex
 10
22.973207
 20
-166.848187
 30
0.0
 70
    32
  0
VERTEX
  5
3AE
330
380
100
AcDbEntity
  8
1
100
AcDbVertex
100
AcDb3dPolylineVertex
 10
22.981307
 20
-166.850358
 30
0.0
 70
    32
  0
VERTEX
  5
3AF
330
380
100
AcDbEntity
  8
1
100
AcDbVertex
100
AcDb3dPolylineVertex
 10
22.989431
 20
-166.852445
 30
0.0
 70
    32
  0
VERTEX
  5
3B0
330
380
100
AcDbEntity
  8
1
100
AcDbVertex
100
AcDb3dPolylineVertex
 10
22.997554
 20
-166.85453
 30
0.0
 70
    32
  0
VERTEX
  5
3B1
330
380
100
AcDbEntity
  8
1
100
AcDbVertex
100
AcDb3dPolylineVertex
 10
23.005705
 20
-166.856504
 30
0.0
 70
    32
  0
VERTEX
  5
3B2
330
380
100
AcDbEntity
  8
1
100
AcDbVertex
100
AcDb3dPolylineVertex
 10
23.013856
 20
-166.858479
 30
0.0
 70
    32
  0
VERTEX
  5
3B3
330
380
100
AcDbEntity
  8
1
100
AcDbVertex
100
AcDb3dPolylineVertex
 10
23.022035
 20
-166.860335
 30
0.0
 70
    32
  0
VERTEX
  5
3B4
330
380
100
AcDbEntity
  8
1
100
AcDbVertex
100
AcDb3dPolylineVertex
 10
23.030215
 20
-166.862186
 30
0.0
 70
    32
  0
SEQEND
  5
3B5
330
380
100
AcDbEntity
  8
1
  0
INSERT
  5
3B6
330
72B
100
AcDbEntity
  8
SK2
100
AcDbBlockReference
  2
ASSORTEDPART1
 10
0.0
 20
0.0
 30
0.0
  0
INSERT
  5
3B7
330
72B
100
AcDbEntity
  8
SK2
100
AcDbBlockReference
  2
ASSORTEDPART2
 10
0.0
 20
0.0
 30
0.0
  0
INSERT
  5
3B8
330
72B
100
AcDbEntity
  8
SK2
100
AcDbBlockReference
  2
ASSORTEDPART3
 10
0.0
 20
0.0
 30
0.0
  0
INSERT
  5
3B9
330
72B
100
AcDbEntity
  8
SK2
100
AcDbBlockReference
  2
ASSORTEDPART4
 10
0.0
 20
0.0
 30
0.0
  0
ENDSEC
  0
SECTION
  2
OBJECTS
  0
DICTIONARY
  5
6C7
330
0
100
AcDbDictionary
281
     1
  3
ACAD_CIP_PREVIOUS_PRODUCT_INFO
350
75F
  3
ACAD_COLOR
350
71D
  3
ACAD_DETAILVIEWSTYLE
350
725
  3
ACAD_GROUP
350
6C8
  3
ACAD_LAYOUT
350
71C
  3
ACAD_MATERIAL
350
6CB
  3
ACAD_MLEADERSTYLE
350
720
  3
ACAD_MLINESTYLE
350
719
  3
ACAD_PLOTSETTINGS
350
71B
  3
ACAD_PLOTSTYLENAME
350
6C9
  3
ACAD_SCALELIST
350
6FD
  3
ACAD_SECTIONVIEWSTYLE
350
722
  3
ACAD_TABLESTYLE
350
71E
  3
ACAD_VISUALSTYLE
350
6E4
  3
ACDB_RECOMPOSE_DATA
350
7BB
  3
AcDbVariableDictionary
350
7AE
  3
DWGPROPS
350
7BC
  0
DICTIONARY
  5
762
330
70F
100
AcDbDictionary
280
     1
281
     1
  3
ADSK_XREC_LAYER_RECONCILED
360
763
  0
DICTIONARY
  5
764
330
72F
100
AcDbDictionary
280
     1
281
     1
  3
ADSK_XREC_LAYER_RECONCILED
360
765
  0
DICTIONARY
  5
766
330
733
100
AcDbDictionary
280
     1
281
     1
  3
ADSK_XREC_LAYER_RECONCILED
360
767
  0
DICTIONARY
  5
768
330
734
100
AcDbDictionary
280
     1
281
     1
  3
ADSK_XREC_LAYER_RECONCILED
360
769
  0
DICTIONARY
  5
76A
330
735
100
AcDbDictionary
280
     1
281
     1
  3
ADSK_XREC_LAYER_RECONCILED
360
76B
  0
DICTIONARY
  5
76C
330
736
100
AcDbDictionary
280
     1
281
     1
  3
ADSK_XREC_LAYER_RECONCILED
360
76D
  0
DICTIONARY
  5
76E
330
737
100
AcDbDictionary
280
     1
281
     1
  3
ADSK_XREC_LAYER_RECONCILED
360
76F
  0
DICTIONARY
  5
770
330
738
100
AcDbDictionary
280
     1
281
     1
  3
ADSK_XREC_LAYER_RECONCILED
360
771
  0
DICTIONARY
  5
772
330
739
100
AcDbDictionary
280
     1
281
     1
  3
ADSK_XREC_LAYER_RECONCILED
360
773
  0
DICTIONARY
  5
774
330
73A
100
AcDbDictionary
280
     1
281
     1
  3
ADSK_XREC_LAYER_RECONCILED
360
775
  0
DICTIONARY
  5
776
330
73B
100
AcDbDictionary
280
     1
281
     1
  3
ADSK_XREC_LAYER_RECONCILED
360
777
  0
DICTIONARY
  5
778
330
73C
100
AcDbDictionary
280
     1
281
     1
  3
ADSK_XREC_LAYER_RECONCILED
360
779
  0
DICTIONARY
  5
77A
330
73D
100
AcDbDictionary
280
     1
281
     1
  3
ADSK_XREC_LAYER_RECONCILED
360
77B
  0
DICTIONARY
  5
77C
330
73E
100
AcDbDictionary
280
     1
281
     1
  3
ADSK_XREC_LAYER_RECONCILED
360
77D
  0
DICTIONARY
  5
77E
330
73F
100
AcDbDictionary
280
     1
281
     1
  3
ADSK_XREC_LAYER_RECONCILED
360
77F
  0
DICTIONARY
  5
780
330
740
100
AcDbDictionary
280
     1
281
     1
  3
ADSK_XREC_LAYER_RECONCILED
360
781
  0
DICTIONARY
  5
782
330
741
100
AcDbDictionary
280
     1
281
     1
  3
ADSK_XREC_LAYER_RECONCILED
360
783
  0
DICTIONARY
  5
784
330
742
100
AcDbDictionary
280
     1
281
     1
  3
ADSK_XREC_LAYER_RECONCILED
360
785
  0
DICTIONARY
  5
786
330
743
100
AcDbDictionary
280
     1
281
     1
  3
ADSK_XREC_LAYER_RECONCILED
360
787
  0
DICTIONARY
  5
788
330
744
100
AcDbDictionary
280
     1
281
     1
  3
ADSK_XREC_LAYER_RECONCILED
360
789
  0
DICTIONARY
  5
78A
330
745
100
AcDbDictionary
280
     1
281
     1
  3
ADSK_XREC_LAYER_RECONCILED
360
78B
  0
DICTIONARY
  5
78C
330
746
100
AcDbDictionary
280
     1
281
     1
  3
ADSK_XREC_LAYER_RECONCILED
360
78D
  0
DICTIONARY
  5
78E
330
747
100
AcDbDictionary
280
     1
281
     1
  3
ADSK_XREC_LAYER_RECONCILED
360
78F
  0
DICTIONARY
  5
790
330
748
100
AcDbDictionary
280
     1
281
     1
  3
ADSK_XREC_LAYER_RECONCILED
360
791
  0
DICTIONARY
  5
792
330
749
100
AcDbDictionary
280
     1
281
     1
  3
ADSK_XREC_LAYER_RECONCILED
360
793
  0
DICTIONARY
  5
794
330
74A
100
AcDbDictionary
280
     1
281
     1
  3
ADSK_XREC_LAYER_RECONCILED
360
795
  0
DICTIONARY
  5
796
330
74B
100
AcDbDictionary
280
     1
281
     1
  3
ADSK_XREC_LAYER_RECONCILED
360
797
  0
DICTIONARY
  5
798
330
74C
100
AcDbDictionary
280
     1
281
     1
  3
ADSK_XREC_LAYER_RECONCILED
360
799
  0
DICTIONARY
  5
79A
330
74D
100
AcDbDictionary
280
     1
281
     1
  3
ADSK_XREC_LAYER_RECONCILED
360
79B
  0
DICTIONARY
  5
79C
330
74E
100
AcDbDictionary
280
     1
281
     1
  3
ADSK_XREC_LAYER_RECONCILED
360
79D
  0
DICTIONARY
  5
79E
330
74F
100
AcDbDictionary
280
     1
281
     1
  3
ADSK_XREC_LAYER_RECONCILED
360
79F
  0
DICTIONARY
  5
7A0
330
750
100
AcDbDictionary
280
     1
281
     1
  3
ADSK_XREC_LAYER_RECONCILED
360
7A1
  0
DICTIONARY
  5
7A2
330
751
100
AcDbDictionary
280
     1
281
     1
  3
ADSK_XREC_LAYER_RECONCILED
360
7A3
  0
DICTIONARY
  5
7A4
330
752
100
AcDbDictionary
280
     1
281
     1
  3
ADSK_XREC_LAYER_RECONCILED
360
7A5
  0
DICTIONARY
  5
7A6
330
753
100
AcDbDictionary
280
     1
281
     1
  3
ADSK_XREC_LAYER_RECONCILED
360
7A7
  0
DICTIONARY
  5
7A8
330
754
100
AcDbDictionary
280
     1
281
     1
  3
ADSK_XREC_LAYER_RECONCILED
360
7A9
  0
DICTIONARY
  5
7AA
330
755
100
AcDbDictionary
280
     1
281
     1
  3
ADSK_XREC_LAYER_RECONCILED
360
7AB
  0
DICTIONARY
  5
7AC
330
756
100
AcDbDictionary
280
     1
281
     1
  3
ADSK_XREC_LAYER_RECONCILED
360
7AD
  0
XRECORD
  5
75F
102
{ACAD_REACTORS
330
6C7
102
}
330
6C7
100
AcDbXrecord
280
     1
300
AMECH_PP
300
2013
300
PDSU_F_S
  0
DICTIONARY
  5
71D
102
{ACAD_REACTORS
330
6C7
102
}
330
6C7
100
AcDbDictionary
281
     1
  0
DICTIONARY
  5
725
102
{ACAD_REACTORS
330
6C7
102
}
330
6C7
100
AcDbDictionary
281
     1
  3
Imperial24
350
726
  0
DICTIONARY
  5
6C8
102
{ACAD_REACTORS
330
6C7
102
}
330
6C7
100
AcDbDictionary
281
     1
  0
DICTIONARY
  5
71C
102
{ACAD_REACTORS
330
6C7
102
}
330
6C7
100
AcDbDictionary
281
     1
  3
Layout1
350
72A
  3
Model
350
72E
  0
DICTIONARY
  5
6CB
102
{ACAD_REACTORS
330
6C7
102
}
330
6C7
100
AcDbDictionary
281
     1
  3
ByBlock
350
6D4
  3
ByLayer
350
6CC
  3
Global
350
6DC
  0
DICTIONARY
  5
720
102
{ACAD_REACTORS
330
6C7
102
}
330
6C7
100
AcDbDictionary
281
     1
  3
Standard
350
721
  0
DICTIONARY
  5
719
102
{ACAD_REACTORS
330
6C7
102
}
330
6C7
100
AcDbDictionary
281
     1
  3
Standard
350
71A
  0
DICTIONARY
  5
71B
102
{ACAD_REACTORS
330
6C7
102
}
330
6C7
100
AcDbDictionary
281
     1
  0
ACDBDICTIONARYWDFLT
  5
6C9
102
{ACAD_REACTORS
330
6C7
102
}
330
6C7
100
AcDbDictionary
281
     1
  3
Normal
350
6CA
100
AcDbDictionaryWithDefault
340
6CA
  0
DICTIONARY
  5
6FD
102
{ACAD_REACTORS
330
6C7
102
}
330
6C7
100
AcDbDictionary
281
     1
  3
A0
350
6FE
  3
A1
350
6FF
  3
A2
350
700
  3
A3
350
701
  3
A4
350
702
  3
A5
350
703
  3
A6
350
704
  3
A7
350
705
  3
A8
350
706
  3
A9
350
707
  3
B0
350
708
  3
B1
350
709
  3
B2
350
70A
  3
B3
350
70B
  3
B4
350
70C
  3
B5
350
70D
  3
B6
350
70E
  0
DICTIONARY
  5
722
102
{ACAD_REACTORS
330
6C7
102
}
330
6C7
100
AcDbDictionary
281
     1
  3
Imperial24
350
724
  0
DICTIONARY
  5
71E
102
{ACAD_REACTORS
330
6C7
102
}
330
6C7
100
AcDbDictionary
281
     1
  3
Standard
350
71F
  0
DICTIONARY
  5
6E4
102
{ACAD_REACTORS
330
6C7
102
}
330
6C7
100
AcDbDictionary
281
     1
  3
2dWireframe
350
6EA
  3
Basic
350
6E9
  3
Brighten
350
6F0
  3
ColorChange
350
6F4
  3
Conceptual
350
6ED
  3
Dim
350
6EF
  3
EdgeColorOff
350
6FC
  3
Facepattern
350
6F3
  3
Flat
350
6E5
  3
FlatWithEdges
350
6E6
  3
Gouraud
350
6E7
  3
GouraudWithEdges
350
6E8
  3
Hidden
350
6EC
  3
JitterOff
350
6FA
  3
Linepattern
350
6F2
  3
OverhangOff
350
6FB
  3
Realistic
350
6EE
  3
Shaded
350
6F9
  3
Shaded with edges
350
6F8
  3
Shades of Gray
350
6F5
  3
Sketchy
350
6F6
  3
Thicken
350
6F1
  3
Wireframe
350
6EB
  3
X-Ray
350
6F7
  0
XRECORD
  5
7BB
102
{ACAD_REACTORS
330
6C7
102
}
330
6C7
100
AcDbXrecord
280
     1
 90
        1
330
71F
  0
DICTIONARY
  5
7AE
102
{ACAD_REACTORS
330
6C7
102
}
330
6C7
100
AcDbDictionary
281
     1
  3
CANNOSCALE
350
7B3
  3
CMLEADERSTYLE
350
7B0
  3
CTABLESTYLE
350
7AF
  3
CVIEWDETAILSTYLE
350
7B1
  3
CVIEWSECTIONSTYLE
350
7B2
  3
DIMASSOC
350
7B6
  3
INDEXCTL
350
7B5
  3
SORTENTS
350
7B4
  3
XCLIPFRAME
350
7B7
  0
XRECORD
  5
7BC
102
{ACAD_REACTORS
330
6C7
102
}
330
6C7
100
AcDbXrecord
280
     1
  1
DWGPROPS COOKIE
  2

  3

  4

  6

  7

  8
Micke
  9

300
=
301
=
302
=
303
=
304
=
305
=
306
=
307
=
308
=
309
=
 40
0.000005775462963
 41
2456818.431976597
 42
2456818.431982373
  1

 90
        0
  0
XRECORD
  5
763
102
{ACAD_REACTORS
330
762
102
}
330
762
100
AcDbXrecord
280
     1
290
     1
  0
XRECORD
  5
765
102
{ACAD_REACTORS
330
764
102
}
330
764
100
AcDbXrecord
280
     1
290
     1
  0
XRECORD
  5
767
102
{ACAD_REACTORS
330
766
102
}
330
766
100
AcDbXrecord
280
     1
290
     1
  0
XRECORD
  5
769
102
{ACAD_REACTORS
330
768
102
}
330
768
100
AcDbXrecord
280
     1
290
     1
  0
XRECORD
  5
76B
102
{ACAD_REACTORS
330
76A
102
}
330
76A
100
AcDbXrecord
280
     1
290
     1
  0
XRECORD
  5
76D
102
{ACAD_REACTORS
330
76C
102
}
330
76C
100
AcDbXrecord
280
     1
290
     1
  0
XRECORD
  5
76F
102
{ACAD_REACTORS
330
76E
102
}
330
76E
100
AcDbXrecord
280
     1
290
     1
  0
XRECORD
  5
771
102
{ACAD_REACTORS
330
770
102
}
330
770
100
AcDbXrecord
280
     1
290
     1
  0
XRECORD
  5
773
102
{ACAD_REACTORS
330
772
102
}
330
772
100
AcDbXrecord
280
     1
290
     1
  0
XRECORD
  5
775
102
{ACAD_REACTORS
330
774
102
}
330
774
100
AcDbXrecord
280
     1
290
     1
  0
XRECORD
  5
777
102
{ACAD_REACTORS
330
776
102
}
330
776
100
AcDbXrecord
280
     1
290
     1
  0
XRECORD
  5
779
102
{ACAD_REACTORS
330
778
102
}
330
778
100
AcDbXrecord
280
     1
290
     1
  0
XRECORD
  5
77B
102
{ACAD_REACTORS
330
77A
102
}
330
77A
100
AcDbXrecord
280
     1
290
     1
  0
XRECORD
  5
77D
102
{ACAD_REACTORS
330
77C
102
}
330
77C
100
AcDbXrecord
280
     1
290
     1
  0
XRECORD
  5
77F
102
{ACAD_REACTORS
330
77E
102
}
330
77E
100
AcDbXrecord
280
     1
290
     1
  0
XRECORD
  5
781
102
{ACAD_REACTORS
330
780
102
}
330
780
100
AcDbXrecord
280
     1
290
     1
  0
XRECORD
  5
783
102
{ACAD_REACTORS
330
782
102
}
330
782
100
AcDbXrecord
280
     1
290
     1
  0
XRECORD
  5
785
102
{ACAD_REACTORS
330
784
102
}
330
784
100
AcDbXrecord
280
     1
290
     1
  0
XRECORD
  5
787
102
{ACAD_REACTORS
330
786
102
}
330
786
100
AcDbXrecord
280
     1
290
     1
  0
XRECORD
  5
789
102
{ACAD_REACTORS
330
788
102
}
330
788
100
AcDbXrecord
280
     1
290
     1
  0
XRECORD
  5
78B
102
{ACAD_REACTORS
330
78A
102
}
330
78A
100
AcDbXrecord
280
     1
290
     1
  0
XRECORD
  5
78D
102
{ACAD_REACTORS
330
78C
102
}
330
78C
100
AcDbXrecord
280
     1
290
     1
  0
XRECORD
  5
78F
102
{ACAD_REACTORS
330
78E
102
}
330
78E
100
AcDbXrecord
280
     1
290
     1
  0
XRECORD
  5
791
102
{ACAD_REACTORS
330
790
102
}
330
790
100
AcDbXrecord
280
     1
290
     1
  0
XRECORD
  5
793
102
{ACAD_REACTORS
330
792
102
}
330
792
100
AcDbXrecord
280
     1
290
     1
  0
XRECORD
  5
795
102
{ACAD_REACTORS
330
794
102
}
330
794
100
AcDbXrecord
280
     1
290
     1
  0
XRECORD
  5
797
102
{ACAD_REACTORS
330
796
102
}
330
796
100
AcDbXrecord
280
     1
290
     1
  0
XRECORD
  5
799
102
{ACAD_REACTORS
330
798
102
}
330
798
100
AcDbXrecord
280
     1
290
     1
  0
XRECORD
  5
79B
102
{ACAD_REACTORS
330
79A
102
}
330
79A
100
AcDbXrecord
280
     1
290
     1
  0
XRECORD
  5
79D
102
{ACAD_REACTORS
330
79C
102
}
330
79C
100
AcDbXrecord
280
     1
290
     1
  0
XRECORD
  5
79F
102
{ACAD_REACTORS
330
79E
102
}
330
79E
100
AcDbXrecord
280
     1
290
     1
  0
XRECORD
  5
7A1
102
{ACAD_REACTORS
330
7A0
102
}
330
7A0
100
AcDbXrecord
280
     1
290
     1
  0
XRECORD
  5
7A3
102
{ACAD_REACTORS
330
7A2
102
}
330
7A2
100
AcDbXrecord
280
     1
290
     1
  0
XRECORD
  5
7A5
102
{ACAD_REACTORS
330
7A4
102
}
330
7A4
100
AcDbXrecord
280
     1
290
     1
  0
XRECORD
  5
7A7
102
{ACAD_REACTORS
330
7A6
102
}
330
7A6
100
AcDbXrecord
280
     1
290
     1
  0
XRECORD
  5
7A9
102
{ACAD_REACTORS
330
7A8
102
}
330
7A8
100
AcDbXrecord
280
     1
290
     1
  0
XRECORD
  5
7AB
102
{ACAD_REACTORS
330
7AA
102
}
330
7AA
100
AcDbXrecord
280
     1
290
     1
  0
XRECORD
  5
7AD
102
{ACAD_REACTORS
330
7AC
102
}
330
7AC
100
AcDbXrecord
280
     1
290
     1
  0
ACDBDETAILVIEWSTYLE
  5
726
102
{ACAD_REACTORS
330
725
102
}
330
725
100
AcDbModelDocViewStyle
 70
     0
  3
Imperial24
290
     0
100
AcDbDetailViewStyle
 70
     0
 71
     0
 90
        3
 71
     1
340
710
 40
0.24
340
0
 40
0.24
300

 40
0.36
280
     3
 71
     2
340
717
 90
       25
 71
     3
340
710
 40
0.24
 90
        1
 40
0.75
 90
        1
300
%<\AcVar ViewType \f "%tc1">% %<\AcVar ViewDetailId>%\PSCALE %<\AcVar ViewScale \f "%sn">%
 71
     4
340
717
 90
       25
340
717
 90
       25
280
     0
  0
LAYOUT
  5
72A
102
{ACAD_XDICTIONARY
360
7F3
102
}
102
{ACAD_REACTORS
330
71C
102
}
330
71C
100
AcDbPlotSettings
  1

  2
Brother DCP-9020CDW Printer
  4

  6

 40
0.0
 41
0.0
 42
0.0
 43
0.0
 44
0.0
 45
0.0
 46
0.0
 47
0.0
 48
0.0
 49
0.0
140
0.0
141
0.0
142
1.0
143
1.0
 70
   688
 72
     0
 73
     0
 74
     5
  7

 75
    16
147
1.0
148
0.0
149
0.0
100
AcDbLayout
  1
Layout1
 70
     1
 71
     1
 10
0.0
 20
0.0
 11
12.0
 21
9.0
 12
0.0
 22
0.0
 32
0.0
 14
1.000000000000000E+20
 24
1.000000000000000E+20
 34
1.000000000000000E+20
 15
-1.000000000000000E+20
 25
-1.000000000000000E+20
 35
-1.000000000000000E+20
146
0.0
 13
0.0
 23
0.0
 33
0.0
 16
1.0
 26
0.0
 36
0.0
 17
0.0
 27
1.0
 37
0.0
 76
     0
330
727
  0
LAYOUT
  5
72E
102
{ACAD_XDICTIONARY
360
7F5
102
}
102
{ACAD_REACTORS
330
71C
102
}
330
71C
100
AcDbPlotSettings
  1

  2
Brother DCP-9020CDW Printer
  4

  6

 40
0.0
 41
0.0
 42
0.0
 43
0.0
 44
0.0
 45
0.0
 46
0.0
 47
0.0
 48
0.0
 49
0.0
140
0.0
141
0.0
142
1.0
143
1.0
 70
  1712
 72
     0
 73
     0
 74
     0
  7

 75
     0
147
1.0
148
0.0
149
0.0
100
AcDbLayout
  1
Model
 70
     1
 71
     0
 10
0.0
 20
0.0
 11
12.0
 21
9.0
 12
0.0
 22
0.0
 32
0.0
 14
0.0
 24
0.0
 34
0.0
 15
0.0
 25
0.0
 35
0.0
146
0.0
 13
0.0
 23
0.0
 33
0.0
 16
1.0
 26
0.0
 36
0.0
 17
0.0
 27
1.0
 37
0.0
 76
     0
330
72B
331
75A
  0
MATERIAL
  5
6D4
102
{ACAD_XDICTIONARY
360
6D5
102
}
102
{ACAD_REACTORS
330
6CB
102
}
330
6CB
100
AcDbMaterial
  1
ByBlock
 72
     0
 43
0.0208333333333333
 43
0.0
 43
0.0
 43
0.0
 43
0.0
 43
0.0208333333333333
 43
0.0
 43
0.0
 43
0.0
 43
0.0
 43
1.0
 43
0.0
 43
0.0
 43
0.0
 43
0.0
 43
1.0
 77
     0
 47
0.0208333333333333
 47
0.0
 47
0.0
 47
0.0
 47
0.0
 47
0.0208333333333333
 47
0.0
 47
0.0
 47
0.0
 47
0.0
 47
1.0
 47
0.0
 47
0.0
 47
0.0
 47
0.0
 47
1.0
171
     0
 49
0.0208333333333333
 49
0.0
 49
0.0
 49
0.0
 49
0.0
 49
0.0208333333333333
 49
0.0
 49
0.0
 49
0.0
 49
0.0
 49
1.0
 49
0.0
 49
0.0
 49
0.0
 49
0.0
 49
1.0
175
     0
142
0.0208333333333333
142
0.0
142
0.0
142
0.0
142
0.0
142
0.0208333333333333
142
0.0
142
0.0
142
0.0
142
0.0
142
1.0
142
0.0
142
0.0
142
0.0
142
0.0
142
1.0
179
     0
144
0.0208333333333333
144
0.0
144
0.0
144
0.0
144
0.0
144
0.0208333333333333
144
0.0
144
0.0
144
0.0
144
0.0
144
1.0
144
0.0
144
0.0
144
0.0
144
0.0
144
1.0
147
0.0208333333333333
147
0.0
147
0.0
147
0.0
147
0.0
147
0.0208333333333333
147
0.0
147
0.0
147
0.0
147
0.0
147
1.0
147
0.0
147
0.0
147
0.0
147
0.0
147
1.0
  0
MATERIAL
  5
6CC
102
{ACAD_XDICTIONARY
360
6CD
102
}
102
{ACAD_REACTORS
330
6CB
102
}
330
6CB
100
AcDbMaterial
  1
ByLayer
 72
     0
 43
0.0208333333333333
 43
0.0
 43
0.0
 43
0.0
 43
0.0
 43
0.0208333333333333
 43
0.0
 43
0.0
 43
0.0
 43
0.0
 43
1.0
 43
0.0
 43
0.0
 43
0.0
 43
0.0
 43
1.0
 77
     0
 47
0.0208333333333333
 47
0.0
 47
0.0
 47
0.0
 47
0.0
 47
0.0208333333333333
 47
0.0
 47
0.0
 47
0.0
 47
0.0
 47
1.0
 47
0.0
 47
0.0
 47
0.0
 47
0.0
 47
1.0
171
     0
 49
0.0208333333333333
 49
0.0
 49
0.0
 49
0.0
 49
0.0
 49
0.0208333333333333
 49
0.0
 49
0.0
 49
0.0
 49
0.0
 49
1.0
 49
0.0
 49
0.0
 49
0.0
 49
0.0
 49
1.0
175
     0
142
0.0208333333333333
142
0.0
142
0.0
142
0.0
142
0.0
142
0.0208333333333333
142
0.0
142
0.0
142
0.0
142
0.0
142
1.0
142
0.0
142
0.0
142
0.0
142
0.0
142
1.0
179
     0
144
0.0208333333333333
144
0.0
144
0.0
144
0.0
144
0.0
144
0.0208333333333333
144
0.0
144
0.0
144
0.0
144
0.0
144
1.0
144
0.0
144
0.0
144
0.0
144
0.0
144
1.0
147
0.0208333333333333
147
0.0
147
0.0
147
0.0
147
0.0
147
0.0208333333333333
147
0.0
147
0.0
147
0.0
147
0.0
147
1.0
147
0.0
147
0.0
147
0.0
147
0.0
147
1.0
  0
MATERIAL
  5
6DC
102
{ACAD_XDICTIONARY
360
6DD
102
}
102
{ACAD_REACTORS
330
6CB
102
}
330
6CB
100
AcDbMaterial
  1
Global
 72
     0
 43
0.0208333333333333
 43
0.0
 43
0.0
 43
0.0
 43
0.0
 43
0.0208333333333333
 43
0.0
 43
0.0
 43
0.0
 43
0.0
 43
1.0
 43
0.0
 43
0.0
 43
0.0
 43
0.0
 43
1.0
 77
     0
 47
0.0208333333333333
 47
0.0
 47
0.0
 47
0.0
 47
0.0
 47
0.0208333333333333
 47
0.0
 47
0.0
 47
0.0
 47
0.0
 47
1.0
 47
0.0
 47
0.0
 47
0.0
 47
0.0
 47
1.0
171
     0
 49
0.0208333333333333
 49
0.0
 49
0.0
 49
0.0
 49
0.0
 49
0.0208333333333333
 49
0.0
 49
0.0
 49
0.0
 49
0.0
 49
1.0
 49
0.0
 49
0.0
 49
0.0
 49
0.0
 49
1.0
175
     0
142
0.0208333333333333
142
0.0
142
0.0
142
0.0
142
0.0
142
0.0208333333333333
142
0.0
142
0.0
142
0.0
142
0.0
142
1.0
142
0.0
142
0.0
142
0.0
142
0.0
142
1.0
179
     0
144
0.0208333333333333
144
0.0
144
0.0
144
0.0
144
0.0
144
0.0208333333333333
144
0.0
144
0.0
144
0.0
144
0.0
144
1.0
144
0.0
144
0.0
144
0.0
144
0.0
144
1.0
147
0.0208333333333333
147
0.0
147
0.0
147
0.0
147
0.0
147
0.0208333333333333
147
0.0
147
0.0
147
0.0
147
0.0
147
1.0
147
0.0
147
0.0
147
0.0
147
0.0
147
1.0
  0
MLEADERSTYLE
  5
721
102
{ACAD_REACTORS
330
720
102
}
330
720
100
AcDbMLeaderStyle
170
     2
171
     1
172
     0
 90
        2
 40
0.0
 41
0.0
173
     1
 91
-1056964608
340
715
 92
       -2
290
     1
 42
0.09
291
     1
 43
0.36
  3
Standard
 44
0.18
300

342
710
174
     1
178
     6
175
     1
176
     0
 93
-1056964608
 45
0.18
292
     0
297
     0
 46
0.18
 94
-1056964608
 47
1.0
 49
1.0
140
1.0
293
     1
141
0.0
294
     1
177
     0
142
1.0
295
     0
296
     0
143
0.125
1001
ACAD_MLEADERVER
1070
     2
  0
MLINESTYLE
  5
71A
102
{ACAD_REACTORS
330
719
102
}
330
719
100
AcDbMlineStyle
  2
STANDARD
 70
     0
  3

 62
   256
 51
90.0
 52
90.0
 71
     2
 49
0.5
 62
   256
  6
BYLAYER
 49
-0.5
 62
   256
  6
BYLAYER
  0
ACDBPLACEHOLDER
  5
6CA
102
{ACAD_REACTORS
330
6C9
102
}
330
6C9
  0
SCALE
  5
6FE
102
{ACAD_REACTORS
330
6FD
102
}
330
6FD
100
AcDbScale
 70
     0
300
1:1
140
1.0
141
1.0
290
     1
  0
SCALE
  5
6FF
102
{ACAD_REACTORS
330
6FD
102
}
330
6FD
100
AcDbScale
 70
     0
300
1/128" = 1'-0"
140
0.0078125
141
12.0
290
     0
  0
SCALE
  5
700
102
{ACAD_REACTORS
330
6FD
102
}
330
6FD
100
AcDbScale
 70
     0
300
1/64" = 1'-0"
140
0.015625
141
12.0
290
     0
  0
SCALE
  5
701
102
{ACAD_REACTORS
330
6FD
102
}
330
6FD
100
AcDbScale
 70
     0
300
1/32" = 1'-0"
140
0.03125
141
12.0
290
     0
  0
SCALE
  5
702
102
{ACAD_REACTORS
330
6FD
102
}
330
6FD
100
AcDbScale
 70
     0
300
1/16" = 1'-0"
140
0.0625
141
12.0
290
     0
  0
SCALE
  5
703
102
{ACAD_REACTORS
330
6FD
102
}
330
6FD
100
AcDbScale
 70
     0
300
3/32" = 1'-0"
140
0.09375
141
12.0
290
     0
  0
SCALE
  5
704
102
{ACAD_REACTORS
330
6FD
102
}
330
6FD
100
AcDbScale
 70
     0
300
1/8" = 1'-0"
140
0.125
141
12.0
290
     0
  0
SCALE
  5
705
102
{ACAD_REACTORS
330
6FD
102
}
330
6FD
100
AcDbScale
 70
     0
300
3/16" = 1'-0"
140
0.1875
141
12.0
290
     0
  0
SCALE
  5
706
102
{ACAD_REACTORS
330
6FD
102
}
330
6FD
100
AcDbScale
 70
     0
300
1/4" = 1'-0"
140
0.25
141
12.0
290
     0
  0
SCALE
  5
707
102
{ACAD_REACTORS
330
6FD
102
}
330
6FD
100
AcDbScale
 70
     0
300
3/8" = 1'-0"
140
0.375
141
12.0
290
     0
  0
SCALE
  5
708
102
{ACAD_REACTORS
330
6FD
102
}
330
6FD
100
AcDbScale
 70
     0
300
1/2" = 1'-0"
140
0.5
141
12.0
290
     0
  0
SCALE
  5
709
102
{ACAD_REACTORS
330
6FD
102
}
330
6FD
100
AcDbScale
 70
     0
300
3/4" = 1'-0"
140
0.75
141
12.0
290
     0
  0
SCALE
  5
70A
102
{ACAD_REACTORS
330
6FD
102
}
330
6FD
100
AcDbScale
 70
     0
300
1" = 1'-0"
140
1.0
141
12.0
290
     0
  0
SCALE
  5
70B
102
{ACAD_REACTORS
330
6FD
102
}
330
6FD
100
AcDbScale
 70
     0
300
1-1/2" = 1'-0"
140
1.5
141
12.0
290
     0
  0
SCALE
  5
70C
102
{ACAD_REACTORS
330
6FD
102
}
330
6FD
100
AcDbScale
 70
     0
300
3" = 1'-0"
140
3.0
141
12.0
290
     0
  0
SCALE
  5
70D
102
{ACAD_REACTORS
330
6FD
102
}
330
6FD
100
AcDbScale
 70
     0
300
6" = 1'-0"
140
6.0
141
12.0
290
     0
  0
SCALE
  5
70E
102
{ACAD_REACTORS
330
6FD
102
}
330
6FD
100
AcDbScale
 70
     0
300
1'-0" = 1'-0"
140
12.0
141
12.0
290
     0
  0
ACDBSECTIONVIEWSTYLE
  5
724
102
{ACAD_REACTORS
330
722
102
}
330
722
100
AcDbModelDocViewStyle
 70
     0
  3
Imperial24
290
     0
100
AcDbSectionViewStyle
 70
     0
 71
     0
 90
       78
 71
     1
340
710
 40
0.24
340
0
340
0
 40
0.24
300
I, O, Q, S, X, Z
 40
0.48
 90
        3
 40
0.18
 90
        1
 71
     2
340
723
 90
       25
340
717
 90
       50
 40
0.24
 40
0.0
 40
0.24
 71
     3
340
710
 40
0.24
 90
        1
 40
0.75
 90
        1
300
%<\AcVar ViewType \f "%tc1">% %<\AcVar ViewSectionStartId>%-%<\AcVar ViewSectionEndId>%\PSCALE %<\AcVar ViewScale \f "%sn">%
 71
     4
300
ANSI31
 40
1.0
 90
        0
290
     0
290
     0
 90
        6
 40
0.0
 40
1.570796326794896
 40
0.2617993877991494
 40
1.308996938995747
 40
-0.2617993877991494
 40
1.832595714594046
  0
TABLESTYLE
  5
71F
102
{ACAD_XDICTIONARY
360
7B9
102
}
102
{ACAD_REACTORS
330
71E
102
}
330
71E
100
AcDbTableStyle
  3
Standard
 70
     0
 71
     0
 40
0.06
 41
0.06
280
     0
281
     0
  7
STANDARD
140
0.18
170
     2
 62
     0
 63
     7
283
     0
274
    -2
284
     1
 64
     0
275
    -2
285
     1
 65
     0
276
    -2
286
     1
 66
     0
277
    -2
287
     1
 67
     0
278
    -2
288
     1
 68
     0
279
    -2
289
     1
 69
     0
  7
STANDARD
140
0.25
170
     5
 62
     0
 63
     7
283
     0
274
    -2
284
     1
 64
     0
275
    -2
285
     1
 65
     0
276
    -2
286
     1
 66
     0
277
    -2
287
     1
 67
     0
278
    -2
288
     1
 68
     0
279
    -2
289
     1
 69
     0
  7
STANDARD
140
0.18
170
     5
 62
     0
 63
     7
283
     0
274
    -2
284
     1
 64
     0
275
    -2
285
     1
 65
     0
276
    -2
286
     1
 66
     0
277
    -2
287
     1
 67
     0
278
    -2
288
     1
 68
     0
279
    -2
289
     1
 69
     0
  0
VISUALSTYLE
  5
6EA
102
{ACAD_XDICTIONARY
360
7CB
102
}
102
{ACAD_REACTORS
330
6E4
102
}
330
6E4
100
AcDbVisualStyle
  2
2dWireframe
 70
     4
 71
     0
 72
     2
 73
     0
 90
        0
 40
-0.6
 41
-30.0
 62
     5
 63
     7
 74
     1
 91
        4
 64
     7
 65
   257
 75
     1
175
     1
 42
1.0
 92
        0
 66
   257
 43
1.0
 76
     1
 77
     6
 78
     2
 67
     7
 79
     5
170
     0
171
     0
290
     0
174
     0
 93
        1
 44
0.0
173
     0
291
     0
 45
0.0
1001
ACAD
1000
AcDbSavedByObjectVersion
1070
     0
  0
VISUALSTYLE
  5
6E9
102
{ACAD_XDICTIONARY
360
7C9
102
}
102
{ACAD_REACTORS
330
6E4
102
}
330
6E4
100
AcDbVisualStyle
  2
Basic
 70
     7
 71
     1
 72
     0
 73
     1
 90
        0
 40
-0.6
 41
-30.0
 62
     5
 63
     7
 74
     0
 91
        4
 64
     7
 65
   257
 75
     1
175
     1
 42
1.0
 92
        8
 66
     7
 43
1.0
 76
     1
 77
     6
 78
     2
 67
     7
 79
     5
170
     0
171
     0
290
     0
174
     0
 93
        1
 44
0.0
173
     0
291
     1
 45
0.0
1001
ACAD
1000
AcDbSavedByObjectVersion
1070
     0
  0
VISUALSTYLE
  5
6F0
102
{ACAD_XDICTIONARY
360
7D7
102
}
102
{ACAD_REACTORS
330
6E4
102
}
330
6E4
100
AcDbVisualStyle
  2
Brighten
 70
    12
 71
     2
 72
     2
 73
     0
 90
        0
 40
-0.6
 41
-30.0
 62
     5
 63
     7
 74
     1
 91
        4
 64
     7
 65
   257
 75
     1
175
     1
 42
1.0
 92
        8
 66
     7
 43
1.0
 76
     1
 77
     6
 78
     2
 67
     7
 79
     5
170
     0
171
     0
290
     0
174
     0
 93
        1
 44
50.0
173
     0
291
     1
 45
0.0
1001
ACAD
1000
AcDbSavedByObjectVersion
1070
     0
  0
VISUALSTYLE
  5
6F4
102
{ACAD_XDICTIONARY
360
7DF
102
}
102
{ACAD_REACTORS
330
6E4
102
}
330
6E4
100
AcDbVisualStyle
  2
ColorChange
 70
    16
 71
     2
 72
     2
 73
     3
 90
        0
 40
-0.6
 41
-30.0
 62
     5
 63
     8
 74
     1
 91
        4
 64
     7
 65
   257
 75
     1
175
     1
 42
1.0
 92
        8
 66
     8
 43
1.0
 76
     1
 77
     6
 78
     2
 67
     7
 79
     5
170
     0
171
     0
290
     0
174
     0
 93
        1
 44
0.0
173
     0
291
     1
 45
0.0
1001
ACAD
1000
AcDbSavedByObjectVersion
1070
     0
  0
VISUALSTYLE
  5
6ED
102
{ACAD_XDICTIONARY
360
7D1
102
}
102
{ACAD_REACTORS
330
6E4
102
}
330
6E4
100
AcDbVisualStyle
  2
Conceptual
 70
     9
 71
     3
 72
     2
 73
     0
 90
        0
 40
-0.6
 41
-30.0
 62
     5
 63
     7
 74
     2
 91
        2
 64
     7
 65
   257
 75
     1
175
     1
 42
179.0
 92
        8
 66
     7
 43
1.0
 76
     1
 77
     6
 78
     2
 67
     7
 79
     3
170
     0
171
     0
290
     0
174
     0
 93
        1
 44
0.0
173
     0
291
     0
 45
0.0
1001
ACAD
1000
AcDbSavedByObjectVersion
1070
     0
  0
VISUALSTYLE
  5
6EF
102
{ACAD_XDICTIONARY
360
7D5
102
}
102
{ACAD_REACTORS
330
6E4
102
}
330
6E4
100
AcDbVisualStyle
  2
Dim
 70
    11
 71
     2
 72
     2
 73
     0
 90
        0
 40
-0.6
 41
-30.0
 62
     5
 63
     7
 74
     1
 91
        4
 64
     7
 65
   257
 75
     1
175
     1
 42
1.0
 92
        8
 66
     7
 43
1.0
 76
     1
 77
     6
 78
     2
 67
     7
 79
     5
170
     0
171
     0
290
     0
174
     0
 93
        1
 44
-50.0
173
     0
291
     1
 45
0.0
1001
ACAD
1000
AcDbSavedByObjectVersion
1070
     0
  0
VISUALSTYLE
  5
6FC
102
{ACAD_XDICTIONARY
360
7EF
102
}
102
{ACAD_REACTORS
330
6E4
102
}
330
6E4
100
AcDbVisualStyle
  2
EdgeColorOff
 70
    22
 71
     2
 72
     2
 73
     0
 90
        0
 40
-0.6
 41
-30.0
 62
     5
 63
     7
 74
     1
 91
        4
 64
     7
 65
   257
 75
     1
175
     1
 42
1.0
 92
        8
 66
     7
 43
1.0
 76
     1
 77
     6
 78
     2
 67
     7
 79
     5
170
     0
171
     0
290
     0
174
     0
 93
        1
 44
0.0
173
     0
291
     1
 45
0.0
1001
ACAD
1000
AcDbSavedByObjectVersion
1070
     0
  0
VISUALSTYLE
  5
6F3
102
{ACAD_XDICTIONARY
360
7DD
102
}
102
{ACAD_REACTORS
330
6E4
102
}
330
6E4
100
AcDbVisualStyle
  2
Facepattern
 70
    15
 71
     2
 72
     2
 73
     0
 90
        0
 40
-0.6
 41
-30.0
 62
     5
 63
     7
 74
     1
 91
        4
 64
     7
 65
   257
 75
     1
175
     1
 42
1.0
 92
        8
 66
     7
 43
1.0
 76
     1
 77
     6
 78
     2
 67
     7
 79
     5
170
     0
171
     0
290
     0
174
     0
 93
        1
 44
0.0
173
     0
291
     1
 45
0.0
1001
ACAD
1000
AcDbSavedByObjectVersion
1070
     0
  0
VISUALSTYLE
  5
6E5
102
{ACAD_XDICTIONARY
360
7C1
102
}
102
{ACAD_REACTORS
330
6E4
102
}
330
6E4
100
AcDbVisualStyle
  2
Flat
 70
     0
 71
     2
 72
     1
 73
     1
 90
        2
 40
-0.6
 41
30.0
 62
     5
 63
     7
 74
     0
 91
        0
 64
     7
 65
   257
 75
     1
175
     1
 42
1.0
 92
        8
 66
     7
 43
1.0
 76
     1
 77
     6
 78
     2
 67
     7
 79
     5
170
     0
171
     0
290
     0
174
     0
 93
       13
 44
0.0
173
     0
291
     1
 45
0.0
1001
ACAD
1000
AcDbSavedByObjectVersion
1070
     0
  0
VISUALSTYLE
  5
6E6
102
{ACAD_XDICTIONARY
360
7C3
102
}
102
{ACAD_REACTORS
330
6E4
102
}
330
6E4
100
AcDbVisualStyle
  2
FlatWithEdges
 70
     1
 71
     2
 72
     1
 73
     1
 90
        2
 40
-0.6
 41
30.0
 62
     5
 63
     7
 74
     1
 91
        0
 64
     7
 65
   257
 75
     1
175
     1
 42
1.0
 92
        0
 66
   257
 43
1.0
 76
     1
 77
     6
 78
     2
 67
     7
 79
     5
170
     0
171
     0
290
     0
174
     0
 93
       13
 44
0.0
173
     0
291
     1
 45
0.0
1001
ACAD
1000
AcDbSavedByObjectVersion
1070
     0
  0
VISUALSTYLE
  5
6E7
102
{ACAD_XDICTIONARY
360
7C5
102
}
102
{ACAD_REACTORS
330
6E4
102
}
330
6E4
100
AcDbVisualStyle
  2
Gouraud
 70
     2
 71
     2
 72
     2
 73
     1
 90
        2
 40
-0.6
 41
30.0
 62
     5
 63
     7
 74
     0
 91
        0
 64
     7
 65
   257
 75
     1
175
     1
 42
1.0
 92
        0
 66
     7
 43
1.0
 76
     1
 77
     6
 78
     2
 67
     7
 79
     5
170
     0
171
     0
290
     0
174
     0
 93
       13
 44
0.0
173
     0
291
     1
 45
0.0
1001
ACAD
1000
AcDbSavedByObjectVersion
1070
     0
  0
VISUALSTYLE
  5
6E8
102
{ACAD_XDICTIONARY
360
7C7
102
}
102
{ACAD_REACTORS
330
6E4
102
}
330
6E4
100
AcDbVisualStyle
  2
GouraudWithEdges
 70
     3
 71
     2
 72
     2
 73
     1
 90
        2
 40
-0.6
 41
30.0
 62
     5
 63
     7
 74
     1
 91
        0
 64
     7
 65
   257
 75
     1
175
     1
 42
1.0
 92
        0
 66
   257
 43
1.0
 76
     1
 77
     6
 78
     2
 67
     7
 79
     5
170
     0
171
     0
290
     0
174
     0
 93
       13
 44
0.0
173
     0
291
     1
 45
0.0
1001
ACAD
1000
AcDbSavedByObjectVersion
1070
     0
  0
VISUALSTYLE
  5
6EC
102
{ACAD_XDICTIONARY
360
7CF
102
}
102
{ACAD_REACTORS
330
6E4
102
}
330
6E4
100
AcDbVisualStyle
  2
Hidden
 70
     6
 71
     1
 72
     2
 73
     2
 90
        0
 40
-0.6
 41
-30.0
 62
     5
 63
     7
 74
     2
 91
        2
 64
     7
 65
   257
 75
     2
175
     1
 42
40.0
 92
        0
 66
   257
 43
1.0
 76
     1
 77
     6
 78
     2
 67
     7
 79
     3
170
     0
171
     0
290
     0
174
     0
 93
        1
 44
0.0
173
     0
291
     0
 45
0.0
1001
ACAD
1000
AcDbSavedByObjectVersion
1070
     0
  0
VISUALSTYLE
  5
6FA
102
{ACAD_XDICTIONARY
360
7EB
102
}
102
{ACAD_REACTORS
330
6E4
102
}
330
6E4
100
AcDbVisualStyle
  2
JitterOff
 70
    20
 71
     2
 72
     2
 73
     0
 90
        0
 40
-0.6
 41
-30.0
 62
     5
 63
     7
 74
     1
 91
        4
 64
     7
 65
   257
 75
     1
175
     1
 42
1.0
 92
       10
 66
     7
 43
1.0
 76
     1
 77
     6
 78
     2
 67
     7
 79
     5
170
     0
171
     0
290
     0
174
     0
 93
        1
 44
0.0
173
     0
291
     1
 45
0.0
1001
ACAD
1000
AcDbSavedByObjectVersion
1070
     0
  0
VISUALSTYLE
  5
6F2
102
{ACAD_XDICTIONARY
360
7DB
102
}
102
{ACAD_REACTORS
330
6E4
102
}
330
6E4
100
AcDbVisualStyle
  2
Linepattern
 70
    14
 71
     2
 72
     2
 73
     0
 90
        0
 40
-0.6
 41
-30.0
 62
     5
 63
     7
 74
     1
 91
        4
 64
     7
 65
   257
 75
     7
175
     7
 42
1.0
 92
        8
 66
     7
 43
1.0
 76
     1
 77
     6
 78
     2
 67
     7
 79
     5
170
     0
171
     0
290
     0
174
     0
 93
        1
 44
0.0
173
     0
291
     1
 45
0.0
1001
ACAD
1000
AcDbSavedByObjectVersion
1070
     0
  0
VISUALSTYLE
  5
6FB
102
{ACAD_XDICTIONARY
360
7ED
102
}
102
{ACAD_REACTORS
330
6E4
102
}
330
6E4
100
AcDbVisualStyle
  2
OverhangOff
 70
    21
 71
     2
 72
     2
 73
     0
 90
        0
 40
-0.6
 41
-30.0
 62
     5
 63
     7
 74
     1
 91
        4
 64
     7
 65
   257
 75
     1
175
     1
 42
1.0
 92
        9
 66
     7
 43
1.0
 76
     1
 77
     6
 78
     2
 67
     7
 79
     5
170
     0
171
     0
290
     0
174
     0
 93
        1
 44
0.0
173
     0
291
     1
 45
0.0
1001
ACAD
1000
AcDbSavedByObjectVersion
1070
     0
  0
VISUALSTYLE
  5
6EE
102
{ACAD_XDICTIONARY
360
7D3
102
}
102
{ACAD_REACTORS
330
6E4
102
}
330
6E4
100
AcDbVisualStyle
  2
Realistic
 70
     8
 71
     2
 72
     3
 73
     0
 90
        2
 40
-0.6
 41
30.0
 62
     5
 63
     7
 74
     0
 91
        0
 64
     7
 65
   257
 75
     1
175
     1
 42
1.0
 92
        8
 66
   257
 43
1.0
 76
     1
 77
     6
 78
     2
 67
     7
 79
     3
170
     0
171
     0
290
     0
174
     0
 93
       13
 44
0.0
173
     0
291
     0
 45
0.0
1001
ACAD
1000
AcDbSavedByObjectVersion
1070
     0
  0
VISUALSTYLE
  5
6F9
102
{ACAD_XDICTIONARY
360
7E9
102
}
102
{ACAD_REACTORS
330
6E4
102
}
330
6E4
100
AcDbVisualStyle
  2
Shaded
 70
    27
 71
     2
 72
     2
 73
     1
 90
        2
 40
-0.6
 41
30.0
 62
     5
 63
     7
 74
     0
 91
        4
 64
     7
 65
   257
 75
     1
175
     1
 42
1.0
 92
        8
 66
   257
 43
1.0
 76
     1
 77
     6
 78
     2
 67
     8
 79
     3
170
     0
171
     0
290
     0
174
     0
 93
        5
 44
0.0
173
     0
291
     0
 45
0.0
1001
ACAD
1000
AcDbSavedByObjectVersion
1070
     0
  0
VISUALSTYLE
  5
6F8
102
{ACAD_XDICTIONARY
360
7E7
102
}
102
{ACAD_REACTORS
330
6E4
102
}
330
6E4
100
AcDbVisualStyle
  2
Shaded with edges
 70
    26
 71
     2
 72
     2
 73
     1
 90
        2
 40
-0.6
 41
30.0
 62
     5
 63
     7
 74
     1
 91
       10
 64
     7
 65
   257
 75
     2
175
     1
 42
1.0
 92
        8
 66
   257
 43
1.0
 76
     1
 77
     6
 78
     2
 67
     7
 79
     3
170
     0
171
     0
290
     0
174
     0
 93
        5
 44
0.0
173
     0
291
     0
 45
0.0
1001
ACAD
1000
AcDbSavedByObjectVersion
1070
     0
  0
VISUALSTYLE
  5
6F5
102
{ACAD_XDICTIONARY
360
7E1
102
}
102
{ACAD_REACTORS
330
6E4
102
}
330
6E4
100
AcDbVisualStyle
  2
Shades of Gray
 70
    23
 71
     2
 72
     2
 73
     3
 90
        0
 40
-0.6
 41
-30.0
 62
     5
 63
     7
 74
     2
 91
        2
 64
     7
 65
     7
 75
     1
175
     1
 42
40.0
 92
        8
 66
     7
 43
1.0
 76
     1
 77
     6
 78
     2
 67
     7
 79
     3
170
     0
171
     0
290
     0
174
     0
 93
        1
 44
0.0
173
     0
291
     0
 45
0.0
1001
ACAD
1000
AcDbSavedByObjectVersion
1070
     0
  0
VISUALSTYLE
  5
6F6
102
{ACAD_XDICTIONARY
360
7E3
102
}
102
{ACAD_REACTORS
330
6E4
102
}
330
6E4
100
AcDbVisualStyle
  2
Sketchy
 70
    24
 71
     1
 72
     2
 73
     2
 90
        0
 40
-0.6
 41
-30.0
 62
     5
 63
     7
 74
     2
 91
        2
 64
     7
 65
     7
 75
     1
175
     1
 42
40.0
 92
       11
 66
     7
 43
1.0
 76
     1
 77
     6
 78
     2
 67
     7
 79
     6
170
     0
171
     0
290
     0
174
     0
 93
        1
 44
0.0
173
     0
291
     0
 45
0.0
1001
ACAD
1000
AcDbSavedByObjectVersion
1070
     0
  0
VISUALSTYLE
  5
6F1
102
{ACAD_XDICTIONARY
360
7D9
102
}
102
{ACAD_REACTORS
330
6E4
102
}
330
6E4
100
AcDbVisualStyle
  2
Thicken
 70
    13
 71
     2
 72
     2
 73
     0
 90
        0
 40
-0.6
 41
-30.0
 62
     5
 63
     7
 74
     1
 91
        4
 64
     7
 65
   257
 75
     1
175
     1
 42
1.0
 92
       12
 66
     7
 43
1.0
 76
     1
 77
     6
 78
     2
 67
     7
 79
     5
170
     0
171
     0
290
     0
174
     0
 93
        1
 44
0.0
173
     0
291
     1
 45
0.0
1001
ACAD
1000
AcDbSavedByObjectVersion
1070
     0
  0
VISUALSTYLE
  5
6EB
102
{ACAD_XDICTIONARY
360
7CD
102
}
102
{ACAD_REACTORS
330
6E4
102
}
330
6E4
100
AcDbVisualStyle
  2
Wireframe
 70
     5
 71
     0
 72
     2
 73
     0
 90
        0
 40
-0.6
 41
-30.0
 62
     5
 63
     7
 74
     1
 91
        4
 64
     7
 65
   257
 75
     1
175
     1
 42
1.0
 92
        0
 66
   257
 43
1.0
 76
     1
 77
     6
 78
     2
 67
     7
 79
     3
170
     0
171
     0
290
     0
174
     0
 93
        1
 44
0.0
173
     0
291
     0
 45
0.0
1001
ACAD
1000
AcDbSavedByObjectVersion
1070
     0
  0
VISUALSTYLE
  5
6F7
102
{ACAD_XDICTIONARY
360
7E5
102
}
102
{ACAD_REACTORS
330
6E4
102
}
330
6E4
100
AcDbVisualStyle
  2
X-Ray
 70
    25
 71
     2
 72
     2
 73
     1
 90
        1
 40
0.5
 41
-30.0
 62
     5
 63
     7
 74
     1
 91
        0
 64
     7
 65
   257
 75
     1
175
     1
 42
1.0
 92
        8
 66
     7
 43
1.0
 76
     1
 77
     6
 78
     2
 67
     7
 79
     3
170
     0
171
     0
290
     0
174
     0
 93
       13
 44
0.0
173
     0
291
     0
 45
0.0
1001
ACAD
1000
AcDbSavedByObjectVersion
1070
     0
  0
DICTIONARYVAR
  5
7B3
102
{ACAD_REACTORS
330
7AE
102
}
330
7AE
100
DictionaryVariables
280
     0
  1
1:1
  0
DICTIONARYVAR
  5
7B0
102
{ACAD_REACTORS
330
7AE
102
}
330
7AE
100
DictionaryVariables
280
     0
  1
STANDARD
  0
DICTIONARYVAR
  5
7AF
102
{ACAD_REACTORS
330
7AE
102
}
330
7AE
100
DictionaryVariables
280
     0
  1
STANDARD
  0
DICTIONARYVAR
  5
7B1
102
{ACAD_REACTORS
330
7AE
102
}
330
7AE
100
DictionaryVariables
280
     0
  1
Imperial24
  0
DICTIONARYVAR
  5
7B2
102
{ACAD_REACTORS
330
7AE
102
}
330
7AE
100
DictionaryVariables
280
     0
  1
Imperial24
  0
DICTIONARYVAR
  5
7B6
102
{ACAD_REACTORS
330
7AE
102
}
330
7AE
100
DictionaryVariables
280
     0
  1
1
  0
DICTIONARYVAR
  5
7B5
102
{ACAD_REACTORS
330
7AE
102
}
330
7AE
100
DictionaryVariables
280
     0
  1
0
  0
DICTIONARYVAR
  5
7B4
102
{ACAD_REACTORS
330
7AE
102
}
330
7AE
100
DictionaryVariables
280
     0
  1
127
  0
DICTIONARYVAR
  5
7B7
102
{ACAD_REACTORS
330
7AE
102
}
330
7AE
100
DictionaryVariables
280
     0
  1
2
  0
DICTIONARY
  5
7F3
330
72A
100
AcDbDictionary
280
     1
281
     1
  3
ACAD_XREC_ROUNDTRIP
360
7F4
  0
DICTIONARY
  5
7F5
330
72E
100
AcDbDictionary
280
     1
281
     1
  3
ACAD_XREC_ROUNDTRIP
360
7F6
  0
DICTIONARY
  5
6D5
330
6D4
100
AcDbDictionary
280
     1
281
     1
  3
ACAD_XREC_ROUNDTRIP
360
7BF
  3
BUMPTILE
360
6D7
  3
DIFFUSETILE
360
6D6
  3
OPACITYTILE
360
6DA
  3
REFLECTIONTILE
360
6D9
  3
REFRACTIONTILE
360
6DB
  3
SPECULARTILE
360
6D8
  0
DICTIONARY
  5
6CD
330
6CC
100
AcDbDictionary
280
     1
281
     1
  3
ACAD_XREC_ROUNDTRIP
360
7BE
  3
BUMPTILE
360
6CF
  3
DIFFUSETILE
360
6CE
  3
OPACITYTILE
360
6D2
  3
REFLECTIONTILE
360
6D1
  3
REFRACTIONTILE
360
6D3
  3
SPECULARTILE
360
6D0
  0
DICTIONARY
  5
6DD
330
6DC
100
AcDbDictionary
280
     1
281
     1
  3
ACAD_XREC_ROUNDTRIP
360
7C0
  3
BUMPTILE
360
6DF
  3
DIFFUSETILE
360
6DE
  3
OPACITYTILE
360
6E2
  3
REFLECTIONTILE
360
6E1
  3
REFRACTIONTILE
360
6E3
  3
SPECULARTILE
360
6E0
  0
DICTIONARY
  5
7B9
330
71F
100
AcDbDictionary
280
     1
281
     1
  3
ACAD_ROUNDTRIP_2008_TABLESTYLE_CELLSTYLEMAP
360
7BA
  3
ACAD_XREC_ROUNDTRIP
360
7F1
  0
DICTIONARY
  5
7CB
330
6EA
100
AcDbDictionary
280
     1
281
     1
  3
ACAD_XREC_ROUNDTRIP
360
7CC
  0
DICTIONARY
  5
7C9
330
6E9
100
AcDbDictionary
280
     1
281
     1
  3
ACAD_XREC_ROUNDTRIP
360
7CA
  0
DICTIONARY
  5
7D7
330
6F0
100
AcDbDictionary
280
     1
281
     1
  3
ACAD_XREC_ROUNDTRIP
360
7D8
  0
DICTIONARY
  5
7DF
330
6F4
100
AcDbDictionary
280
     1
281
     1
  3
ACAD_XREC_ROUNDTRIP
360
7E0
  0
DICTIONARY
  5
7D1
330
6ED
100
AcDbDictionary
280
     1
281
     1
  3
ACAD_XREC_ROUNDTRIP
360
7D2
  0
DICTIONARY
  5
7D5
330
6EF
100
AcDbDictionary
280
     1
281
     1
  3
ACAD_XREC_ROUNDTRIP
360
7D6
  0
DICTIONARY
  5
7EF
330
6FC
100
AcDbDictionary
280
     1
281
     1
  3
ACAD_XREC_ROUNDTRIP
360
7F0
  0
DICTIONARY
  5
7DD
330
6F3
100
AcDbDictionary
280
     1
281
     1
  3
ACAD_XREC_ROUNDTRIP
360
7DE
  0
DICTIONARY
  5
7C1
330
6E5
100
AcDbDictionary
280
     1
281
     1
  3
ACAD_XREC_ROUNDTRIP
360
7C2
  0
DICTIONARY
  5
7C3
330
6E6
100
AcDbDictionary
280
     1
281
     1
  3
ACAD_XREC_ROUNDTRIP
360
7C4
  0
DICTIONARY
  5
7C5
330
6E7
100
AcDbDictionary
280
     1
281
     1
  3
ACAD_XREC_ROUNDTRIP
360
7C6
  0
DICTIONARY
  5
7C7
330
6E8
100
AcDbDictionary
280
     1
281
     1
  3
ACAD_XREC_ROUNDTRIP
360
7C8
  0
DICTIONARY
  5
7CF
330
6EC
100
AcDbDictionary
280
     1
281
     1
  3
ACAD_XREC_ROUNDTRIP
360
7D0
  0
DICTIONARY
  5
7EB
330
6FA
100
AcDbDictionary
280
     1
281
     1
  3
ACAD_XREC_ROUNDTRIP
360
7EC
  0
DICTIONARY
  5
7DB
330
6F2
100
AcDbDictionary
280
     1
281
     1
  3
ACAD_XREC_ROUNDTRIP
360
7DC
  0
DICTIONARY
  5
7ED
330
6FB
100
AcDbDictionary
280
     1
281
     1
  3
ACAD_XREC_ROUNDTRIP
360
7EE
  0
DICTIONARY
  5
7D3
330
6EE
100
AcDbDictionary
280
     1
281
     1
  3
ACAD_XREC_ROUNDTRIP
360
7D4
  0
DICTIONARY
  5
7E9
330
6F9
100
AcDbDictionary
280
     1
281
     1
  3
ACAD_XREC_ROUNDTRIP
360
7EA
  0
DICTIONARY
  5
7E7
330
6F8
100
AcDbDictionary
280
     1
281
     1
  3
ACAD_XREC_ROUNDTRIP
360
7E8
  0
DICTIONARY
  5
7E1
330
6F5
100
AcDbDictionary
280
     1
281
     1
  3
ACAD_XREC_ROUNDTRIP
360
7E2
  0
DICTIONARY
  5
7E3
330
6F6
100
AcDbDictionary
280
     1
281
     1
  3
ACAD_XREC_ROUNDTRIP
360
7E4
  0
DICTIONARY
  5
7D9
330
6F1
100
AcDbDictionary
280
     1
281
     1
  3
ACAD_XREC_ROUNDTRIP
360
7DA
  0
DICTIONARY
  5
7CD
330
6EB
100
AcDbDictionary
280
     1
281
     1
  3
ACAD_XREC_ROUNDTRIP
360
7CE
  0
DICTIONARY
  5
7E5
330
6F7
100
AcDbDictionary
280
     1
281
     1
  3
ACAD_XREC_ROUNDTRIP
360
7E6
  0
XRECORD
  5
7F4
102
{ACAD_REACTORS
330
7F3
102
}
330
7F3
100
AcDbXrecord
280
     1
102
SHADEPLOT
 70
     0
102
SHADEPLOTRESLEVEL
 70
     2
102
SHADEPLOTCUSTOMDPI
 70
   300
  0
XRECORD
  5
7F6
102
{ACAD_REACTORS
330
7F5
102
}
330
7F5
100
AcDbXrecord
280
     1
102
SHADEPLOT
 70
     0
102
SHADEPLOTRESLEVEL
 70
     2
102
SHADEPLOTCUSTOMDPI
 70
   300
  0
XRECORD
  5
7BF
102
{ACAD_REACTORS
330
6D5
102
}
330
6D5
100
AcDbXrecord
280
     1
102
MATERIAL
148
0.0
149
0.0
149
0.0
 93
        0
 94
      127
282
     0
 72
     0
 77
     0
171
     0
175
     0
179
     0
273
     0
  0
XRECORD
  5
6D7
102
{ACAD_REACTORS
330
6D5
102
}
330
6D5
100
AcDbXrecord
280
     1
270
     1
271
     1
  0
XRECORD
  5
6D6
102
{ACAD_REACTORS
330
6D5
102
}
330
6D5
100
AcDbXrecord
280
     1
270
     1
271
     1
  0
XRECORD
  5
6DA
102
{ACAD_REACTORS
330
6D5
102
}
330
6D5
100
AcDbXrecord
280
     1
270
     1
271
     1
  0
XRECORD
  5
6D9
102
{ACAD_REACTORS
330
6D5
102
}
330
6D5
100
AcDbXrecord
280
     1
270
     1
271
     1
  0
XRECORD
  5
6DB
102
{ACAD_REACTORS
330
6D5
102
}
330
6D5
100
AcDbXrecord
280
     1
270
     1
271
     1
  0
XRECORD
  5
6D8
102
{ACAD_REACTORS
330
6D5
102
}
330
6D5
100
AcDbXrecord
280
     1
270
     1
271
     1
  0
XRECORD
  5
7BE
102
{ACAD_REACTORS
330
6CD
102
}
330
6CD
100
AcDbXrecord
280
     1
102
MATERIAL
148
0.0
149
0.0
149
0.0
 93
        0
 94
      127
282
     0
 72
     0
 77
     0
171
     0
175
     0
179
     0
273
     0
  0
XRECORD
  5
6CF
102
{ACAD_REACTORS
330
6CD
102
}
330
6CD
100
AcDbXrecord
280
     1
270
     1
271
     1
  0
XRECORD
  5
6CE
102
{ACAD_REACTORS
330
6CD
102
}
330
6CD
100
AcDbXrecord
280
     1
270
     1
271
     1
  0
XRECORD
  5
6D2
102
{ACAD_REACTORS
330
6CD
102
}
330
6CD
100
AcDbXrecord
280
     1
270
     1
271
     1
  0
XRECORD
  5
6D1
102
{ACAD_REACTORS
330
6CD
102
}
330
6CD
100
AcDbXrecord
280
     1
270
     1
271
     1
  0
XRECORD
  5
6D3
102
{ACAD_REACTORS
330
6CD
102
}
330
6CD
100
AcDbXrecord
280
     1
270
     1
271
     1
  0
XRECORD
  5
6D0
102
{ACAD_REACTORS
330
6CD
102
}
330
6CD
100
AcDbXrecord
280
     1
270
     1
271
     1
  0
XRECORD
  5
7C0
102
{ACAD_REACTORS
330
6DD
102
}
330
6DD
100
AcDbXrecord
280
     1
102
MATERIAL
148
0.0
149
0.0
149
0.0
 93
        0
 94
      127
282
     0
 72
     0
 77
     0
171
     0
175
     0
179
     0
273
     0
  0
XRECORD
  5
6DF
102
{ACAD_REACTORS
330
6DD
102
}
330
6DD
100
AcDbXrecord
280
     1
270
     1
271
     1
  0
XRECORD
  5
6DE
102
{ACAD_REACTORS
330
6DD
102
}
330
6DD
100
AcDbXrecord
280
     1
270
     1
271
     1
  0
XRECORD
  5
6E2
102
{ACAD_REACTORS
330
6DD
102
}
330
6DD
100
AcDbXrecord
280
     1
270
     1
271
     1
  0
XRECORD
  5
6E1
102
{ACAD_REACTORS
330
6DD
102
}
330
6DD
100
AcDbXrecord
280
     1
270
     1
271
     1
  0
XRECORD
  5
6E3
102
{ACAD_REACTORS
330
6DD
102
}
330
6DD
100
AcDbXrecord
280
     1
270
     1
271
     1
  0
XRECORD
  5
6E0
102
{ACAD_REACTORS
330
6DD
102
}
330
6DD
100
AcDbXrecord
280
     1
270
     1
271
     1
  0
CELLSTYLEMAP
  5
7BA
102
{ACAD_REACTORS
330
7B9
102
}
330
7B9
100
AcDbCellStyleMap
 90
        3
300
CELLSTYLE
  1
TABLEFORMAT_BEGIN
 90
        5
170
     1
 91
        0
 92
    32768
 62
   257
 93
        1
300
CONTENTFORMAT
  1
CONTENTFORMAT_BEGIN
 90
        0
 91
        0
 92
      512
 93
        0
300

 40
0.0
140
1.0
 94
        5
 62
     0
340
710
144
0.25
309
CONTENTFORMAT_END
171
     0
 94
        0
309
TABLEFORMAT_END
  1
CELLSTYLE_BEGIN
 90
        1
 91
        1
300
_TITLE
309
CELLSTYLE_END
300
CELLSTYLE
  1
TABLEFORMAT_BEGIN
 90
        5
170
     1
 91
        0
 92
        0
 62
   257
 93
        1
300
CONTENTFORMAT
  1
CONTENTFORMAT_BEGIN
 90
        0
 91
        0
 92
      512
 93
        0
300

 40
0.0
140
1.0
 94
        5
 62
     0
340
710
144
0.18
309
CONTENTFORMAT_END
171
     0
 94
        0
309
TABLEFORMAT_END
  1
CELLSTYLE_BEGIN
 90
        2
 91
        1
300
_HEADER
309
CELLSTYLE_END
300
CELLSTYLE
  1
TABLEFORMAT_BEGIN
 90
        5
170
     1
 91
        0
 92
        0
 62
   257
 93
        1
300
CONTENTFORMAT
  1
CONTENTFORMAT_BEGIN
 90
        0
 91
        0
 92
      512
 93
        0
300

 40
0.0
140
1.0
 94
        2
 62
     0
340
710
144
0.18
309
CONTENTFORMAT_END
171
     0
 94
        0
309
TABLEFORMAT_END
  1
CELLSTYLE_BEGIN
 90
        3
 91
        2
300
_DATA
309
CELLSTYLE_END
  0
XRECORD
  5
7F1
102
{ACAD_REACTORS
330
7B9
102
}
330
7B9
100
AcDbXrecord
280
     1
102
ACAD_ROUNDTRIP_PRE2007_TABLESTYLE
 90
      512
 91
        0
  1

 92
      512
 93
        0
  2

 94
      512
 95
        0
  3

  0
XRECORD
  5
7CC
102
{ACAD_REACTORS
330
7CB
102
}
330
7CB
100
AcDbXrecord
280
     1
102
RTVSPost2010Prop28
280
     1
102
RTVSPost2010PropOp28
 70
     1
102
RTVSPost2010Prop29
280
     1
102
RTVSPost2010PropOp29
 70
     1
102
RTVSPost2010Prop30
280
     0
102
RTVSPost2010PropOp30
 70
     1
102
RTVSPost2010Prop31
280
     0
102
RTVSPost2010PropOp31
 70
     1
102
RTVSPost2010Prop32
280
     0
102
RTVSPost2010PropOp32
 70
     1
102
RTVSPost2010Prop33
280
     0
102
RTVSPost2010PropOp33
 70
     1
102
RTVSPost2010Prop34
280
     0
102
RTVSPost2010PropOp34
 70
     1
102
RTVSPost2010Prop35
280
     0
102
RTVSPost2010PropOp35
 70
     1
102
RTVSPost2010Prop36
280
     0
102
RTVSPost2010PropOp36
 70
     1
102
RTVSPost2010Prop37
 90
       50
102
RTVSPost2010PropOp37
 70
     1
102
RTVSPost2010Prop38
140
0.0
102
RTVSPost2010PropOp38
 70
     1
102
RTVSPost2010Prop39
140
1.0
102
RTVSPost2010PropOp39
 70
     1
102
RTVSPost2010Prop40
 90
        0
102
RTVSPost2010PropOp40
 70
     1
102
RTVSPost2010Prop41ColorIndex
 90
       18
102
RTVSPost2010Prop41ColorRGB
 90
        0
102
RTVSPost2010PropOp41
 70
     1
102
RTVSPost2010Prop42
 90
       50
102
RTVSPost2010PropOp42
 70
     1
102
RTVSPost2010Prop43
 90
        3
102
RTVSPost2010PropOp43
 70
     1
102
RTVSPost2010Prop44ColorIndex
 90
        5
102
RTVSPost2010Prop44ColorRGB
 90
      255
102
RTVSPost2010PropOp44
 70
     1
102
RTVSPost2010Prop45
280
     0
102
RTVSPost2010PropOp45
 70
     1
102
RTVSPost2010Prop46
 90
       50
102
RTVSPost2010PropOp46
 70
     1
102
RTVSPost2010Prop47
 90
       50
102
RTVSPost2010PropOp47
 70
     1
102
RTVSPost2010Prop48
 90
       50
102
RTVSPost2010PropOp48
 70
     1
102
RTVSPost2010Prop49
280
     0
102
RTVSPost2010PropOp49
 70
     1
102
RTVSPost2010Prop50
 90
       50
102
RTVSPost2010PropOp50
 70
     1
102
RTVSPost2010Prop51ColorIndex
 90
      256
102
RTVSPost2010Prop51ColorRGB
 90
-16777216
102
RTVSPost2010PropOp51
 70
     0
102
RTVSPost2010Prop52
140
1.0
102
RTVSPost2010PropOp52
 70
     0
102
RTVSPost2010Prop53
 90
        2
102
RTVSPost2010PropOp53
 70
     1
102
RTVSPost2010Prop54
  1
strokes_ogs.tif
102
RTVSPost2010PropOp54
 70
     1
102
RTVSPost2010Prop55
280
     0
102
RTVSPost2010PropOp55
 70
     1
102
RTVSPost2010Prop56
140
1.0
102
RTVSPost2010PropOp56
 70
     1
102
RTVSPost2010Prop57
140
1.0
102
RTVSPost2010PropOp57
 70
     1
102
RTVSPropertyOp0
 70
     1
102
RTVSPropertyOp1
 70
     1
102
RTVSPropertyOp2
 70
     1
102
RTVSPropertyOp3
 70
     1
102
RTVSPropertyOp4
 70
     1
102
RTVSPropertyOp5
 70
     1
102
RTVSPropertyOp6
 70
     1
102
RTVSPropertyOp7
 70
     1
102
RTVSPropertyOp8
 70
     1
102
RTVSPropertyOp9
 70
     1
102
RTVSPropertyOp10
 70
     1
102
RTVSPropertyOp11
 70
     1
102
RTVSPropertyOp12
 70
     1
102
RTVSPropertyOp13
 70
     1
102
RTVSPropertyOp14
 70
     1
102
RTVSPropertyOp15
 70
     1
102
RTVSPropertyOp16
 70
     1
102
RTVSPropertyOp17
 70
     1
102
RTVSPropertyOp18
 70
     1
102
RTVSPropertyOp19
 70
     1
102
RTVSPropertyOp20
 70
     1
102
RTVSPropertyOp21
 70
     1
102
RTVSPropertyOp22
 70
     1
102
RTVSPropertyOp23
 70
     1
102
RTVSPropertyOp24
 70
     1
102
RTVSPropertyOp25
 70
     1
102
RTVSPropertyOp26
 70
     1
102
RTVSPropertyOp27
 70
     1
102
RTVSPropertyOp28
 70
     1
102
RTVSPropertyOp29
 70
     1
102
RTVSPropertyOp30
 70
     1
102
RTVSPropertyOp31
 70
     1
102
RTVSPropertyOp32
 70
     1
102
RTVSPropertyOp33
 70
     1
102
RTVSPropertyOp34
 70
     1
102
RTVSPropertyOp35
 70
     1
102
RTVSPropertyOp36
 70
     1
102
RTVSPropertyOp37
 70
     1
102
RTVSPropertyOp38
 70
     1
102
RTVSPropertyOp39
 70
     1
102
RTVSPropertyOp40
 70
     1
102
RTVSPropertyOp41
 70
     1
102
RTVSPropertyOp42
 70
     1
102
RTVSPropertyOp43
 70
     1
102
RTVSPropertyOp44
 70
     1
102
RTVSPropertyOp45
 70
     1
102
RTVSPropertyOp46
 70
     1
102
RTVSPropertyOp47
 70
     1
102
RTVSPropertyOp48
 70
     1
102
RTVSPropertyOp49
 70
     1
102
RTVSPropertyOp50
 70
     1
102
RTVSPropertyOp51
 70
     0
102
RTVSPropertyOp52
 70
     0
102
RTVSPropertyOp53
 70
     1
102
RTVSPropertyOp54
 70
     1
102
RTVSPropertyOp55
 70
     1
102
RTVSPropertyOp56
 70
     1
102
RTVSPropertyOp57
 70
     1
102
RTVSPropertyOp58
 70
     1
102
RTVSPropertyOp59
 70
     1
102
RTVSPropertyOp60
 70
     1
102
RTVSPropertyOp61
 70
     1
102
RTVSPropertyOp62
 70
     1
  0
XRECORD
  5
7CA
102
{ACAD_REACTORS
330
7C9
102
}
330
7C9
100
AcDbXrecord
280
     1
102
RTVSPost2010Prop28
280
     0
102
RTVSPost2010PropOp28
 70
     1
102
RTVSPost2010Prop29
280
     1
102
RTVSPost2010PropOp29
 70
     1
102
RTVSPost2010Prop30
280
     1
102
RTVSPost2010PropOp30
 70
     1
102
RTVSPost2010Prop31
280
     0
102
RTVSPost2010PropOp31
 70
     1
102
RTVSPost2010Prop32
280
     0
102
RTVSPost2010PropOp32
 70
     1
102
RTVSPost2010Prop33
280
     0
102
RTVSPost2010PropOp33
 70
     1
102
RTVSPost2010Prop34
280
     0
102
RTVSPost2010PropOp34
 70
     1
102
RTVSPost2010Prop35
280
     0
102
RTVSPost2010PropOp35
 70
     1
102
RTVSPost2010Prop36
280
     0
102
RTVSPost2010PropOp36
 70
     1
102
RTVSPost2010Prop37
 90
       50
102
RTVSPost2010PropOp37
 70
     1
102
RTVSPost2010Prop38
140
0.0
102
RTVSPost2010PropOp38
 70
     1
102
RTVSPost2010Prop39
140
1.0
102
RTVSPost2010PropOp39
 70
     1
102
RTVSPost2010Prop40
 90
        0
102
RTVSPost2010PropOp40
 70
     1
102
RTVSPost2010Prop41ColorIndex
 90
       18
102
RTVSPost2010Prop41ColorRGB
 90
        0
102
RTVSPost2010PropOp41
 70
     1
102
RTVSPost2010Prop42
 90
       50
102
RTVSPost2010PropOp42
 70
     1
102
RTVSPost2010Prop43
 90
        3
102
RTVSPost2010PropOp43
 70
     1
102
RTVSPost2010Prop44ColorIndex
 90
        5
102
RTVSPost2010Prop44ColorRGB
 90
      255
102
RTVSPost2010PropOp44
 70
     1
102
RTVSPost2010Prop45
280
     0
102
RTVSPost2010PropOp45
 70
     1
102
RTVSPost2010Prop46
 90
       50
102
RTVSPost2010PropOp46
 70
     1
102
RTVSPost2010Prop47
 90
       50
102
RTVSPost2010PropOp47
 70
     1
102
RTVSPost2010Prop48
 90
       50
102
RTVSPost2010PropOp48
 70
     1
102
RTVSPost2010Prop49
280
     0
102
RTVSPost2010PropOp49
 70
     1
102
RTVSPost2010Prop50
 90
       50
102
RTVSPost2010PropOp50
 70
     1
102
RTVSPost2010Prop51ColorIndex
 90
      256
102
RTVSPost2010Prop51ColorRGB
 90
-16777216
102
RTVSPost2010PropOp51
 70
     0
102
RTVSPost2010Prop52
140
1.0
102
RTVSPost2010PropOp52
 70
     0
102
RTVSPost2010Prop53
 90
        2
102
RTVSPost2010PropOp53
 70
     1
102
RTVSPost2010Prop54
  1
strokes_ogs.tif
102
RTVSPost2010PropOp54
 70
     1
102
RTVSPost2010Prop55
280
     0
102
RTVSPost2010PropOp55
 70
     1
102
RTVSPost2010Prop56
140
1.0
102
RTVSPost2010PropOp56
 70
     1
102
RTVSPost2010Prop57
140
1.0
102
RTVSPost2010PropOp57
 70
     1
102
RTVSPropertyOp0
 70
     1
102
RTVSPropertyOp1
 70
     1
102
RTVSPropertyOp2
 70
     1
102
RTVSPropertyOp3
 70
     1
102
RTVSPropertyOp4
 70
     1
102
RTVSPropertyOp5
 70
     1
102
RTVSPropertyOp6
 70
     1
102
RTVSPropertyOp7
 70
     1
102
RTVSPropertyOp8
 70
     1
102
RTVSPropertyOp9
 70
     1
102
RTVSPropertyOp10
 70
     1
102
RTVSPropertyOp11
 70
     1
102
RTVSPropertyOp12
 70
     1
102
RTVSPropertyOp13
 70
     1
102
RTVSPropertyOp14
 70
     1
102
RTVSPropertyOp15
 70
     1
102
RTVSPropertyOp16
 70
     1
102
RTVSPropertyOp17
 70
     1
102
RTVSPropertyOp18
 70
     1
102
RTVSPropertyOp19
 70
     1
102
RTVSPropertyOp20
 70
     1
102
RTVSPropertyOp21
 70
     1
102
RTVSPropertyOp22
 70
     1
102
RTVSPropertyOp23
 70
     1
102
RTVSPropertyOp24
 70
     1
102
RTVSPropertyOp25
 70
     1
102
RTVSPropertyOp26
 70
     1
102
RTVSPropertyOp27
 70
     1
102
RTVSPropertyOp28
 70
     1
102
RTVSPropertyOp29
 70
     1
102
RTVSPropertyOp30
 70
     1
102
RTVSPropertyOp31
 70
     1
102
RTVSPropertyOp32
 70
     1
102
RTVSPropertyOp33
 70
     1
102
RTVSPropertyOp34
 70
     1
102
RTVSPropertyOp35
 70
     1
102
RTVSPropertyOp36
 70
     1
102
RTVSPropertyOp37
 70
     1
102
RTVSPropertyOp38
 70
     1
102
RTVSPropertyOp39
 70
     1
102
RTVSPropertyOp40
 70
     1
102
RTVSPropertyOp41
 70
     1
102
RTVSPropertyOp42
 70
     1
102
RTVSPropertyOp43
 70
     1
102
RTVSPropertyOp44
 70
     1
102
RTVSPropertyOp45
 70
     1
102
RTVSPropertyOp46
 70
     1
102
RTVSPropertyOp47
 70
     1
102
RTVSPropertyOp48
 70
     1
102
RTVSPropertyOp49
 70
     1
102
RTVSPropertyOp50
 70
     1
102
RTVSPropertyOp51
 70
     0
102
RTVSPropertyOp52
 70
     0
102
RTVSPropertyOp53
 70
     1
102
RTVSPropertyOp54
 70
     1
102
RTVSPropertyOp55
 70
     1
102
RTVSPropertyOp56
 70
     1
102
RTVSPropertyOp57
 70
     1
102
RTVSPropertyOp58
 70
     1
102
RTVSPropertyOp59
 70
     1
102
RTVSPropertyOp60
 70
     1
102
RTVSPropertyOp61
 70
     1
102
RTVSPropertyOp62
 70
     1
  0
XRECORD
  5
7D8
102
{ACAD_REACTORS
330
7D7
102
}
330
7D7
100
AcDbXrecord
280
     1
102
RTVSPost2010Prop28
280
     0
102
RTVSPost2010PropOp28
 70
     1
102
RTVSPost2010Prop29
280
     1
102
RTVSPost2010PropOp29
 70
     1
102
RTVSPost2010Prop30
280
     1
102
RTVSPost2010PropOp30
 70
     1
102
RTVSPost2010Prop31
280
     0
102
RTVSPost2010PropOp31
 70
     1
102
RTVSPost2010Prop32
280
     0
102
RTVSPost2010PropOp32
 70
     1
102
RTVSPost2010Prop33
280
     0
102
RTVSPost2010PropOp33
 70
     1
102
RTVSPost2010Prop34
280
     0
102
RTVSPost2010PropOp34
 70
     1
102
RTVSPost2010Prop35
280
     0
102
RTVSPost2010PropOp35
 70
     1
102
RTVSPost2010Prop36
280
     0
102
RTVSPost2010PropOp36
 70
     1
102
RTVSPost2010Prop37
 90
       50
102
RTVSPost2010PropOp37
 70
     1
102
RTVSPost2010Prop38
140
0.0
102
RTVSPost2010PropOp38
 70
     1
102
RTVSPost2010Prop39
140
1.0
102
RTVSPost2010PropOp39
 70
     1
102
RTVSPost2010Prop40
 90
        0
102
RTVSPost2010PropOp40
 70
     1
102
RTVSPost2010Prop41ColorIndex
 90
       18
102
RTVSPost2010Prop41ColorRGB
 90
        0
102
RTVSPost2010PropOp41
 70
     1
102
RTVSPost2010Prop42
 90
       50
102
RTVSPost2010PropOp42
 70
     1
102
RTVSPost2010Prop43
 90
        3
102
RTVSPost2010PropOp43
 70
     1
102
RTVSPost2010Prop44ColorIndex
 90
        5
102
RTVSPost2010Prop44ColorRGB
 90
      255
102
RTVSPost2010PropOp44
 70
     1
102
RTVSPost2010Prop45
280
     0
102
RTVSPost2010PropOp45
 70
     1
102
RTVSPost2010Prop46
 90
       50
102
RTVSPost2010PropOp46
 70
     1
102
RTVSPost2010Prop47
 90
       50
102
RTVSPost2010PropOp47
 70
     1
102
RTVSPost2010Prop48
 90
       50
102
RTVSPost2010PropOp48
 70
     1
102
RTVSPost2010Prop49
280
     0
102
RTVSPost2010PropOp49
 70
     1
102
RTVSPost2010Prop50
 90
       50
102
RTVSPost2010PropOp50
 70
     1
102
RTVSPost2010Prop51ColorIndex
 90
      256
102
RTVSPost2010Prop51ColorRGB
 90
-16777216
102
RTVSPost2010PropOp51
 70
     0
102
RTVSPost2010Prop52
140
1.0
102
RTVSPost2010PropOp52
 70
     0
102
RTVSPost2010Prop53
 90
        2
102
RTVSPost2010PropOp53
 70
     1
102
RTVSPost2010Prop54
  1
strokes_ogs.tif
102
RTVSPost2010PropOp54
 70
     1
102
RTVSPost2010Prop55
280
     0
102
RTVSPost2010PropOp55
 70
     1
102
RTVSPost2010Prop56
140
1.0
102
RTVSPost2010PropOp56
 70
     1
102
RTVSPost2010Prop57
140
1.0
102
RTVSPost2010PropOp57
 70
     1
102
RTVSPropertyOp0
 70
     1
102
RTVSPropertyOp1
 70
     1
102
RTVSPropertyOp2
 70
     1
102
RTVSPropertyOp3
 70
     1
102
RTVSPropertyOp4
 70
     1
102
RTVSPropertyOp5
 70
     1
102
RTVSPropertyOp6
 70
     1
102
RTVSPropertyOp7
 70
     1
102
RTVSPropertyOp8
 70
     1
102
RTVSPropertyOp9
 70
     1
102
RTVSPropertyOp10
 70
     1
102
RTVSPropertyOp11
 70
     1
102
RTVSPropertyOp12
 70
     1
102
RTVSPropertyOp13
 70
     1
102
RTVSPropertyOp14
 70
     1
102
RTVSPropertyOp15
 70
     1
102
RTVSPropertyOp16
 70
     1
102
RTVSPropertyOp17
 70
     1
102
RTVSPropertyOp18
 70
     1
102
RTVSPropertyOp19
 70
     1
102
RTVSPropertyOp20
 70
     1
102
RTVSPropertyOp21
 70
     1
102
RTVSPropertyOp22
 70
     1
102
RTVSPropertyOp23
 70
     1
102
RTVSPropertyOp24
 70
     1
102
RTVSPropertyOp25
 70
     1
102
RTVSPropertyOp26
 70
     1
102
RTVSPropertyOp27
 70
     1
102
RTVSPropertyOp28
 70
     1
102
RTVSPropertyOp29
 70
     1
102
RTVSPropertyOp30
 70
     1
102
RTVSPropertyOp31
 70
     1
102
RTVSPropertyOp32
 70
     1
102
RTVSPropertyOp33
 70
     1
102
RTVSPropertyOp34
 70
     1
102
RTVSPropertyOp35
 70
     1
102
RTVSPropertyOp36
 70
     1
102
RTVSPropertyOp37
 70
     1
102
RTVSPropertyOp38
 70
     1
102
RTVSPropertyOp39
 70
     1
102
RTVSPropertyOp40
 70
     1
102
RTVSPropertyOp41
 70
     1
102
RTVSPropertyOp42
 70
     1
102
RTVSPropertyOp43
 70
     1
102
RTVSPropertyOp44
 70
     1
102
RTVSPropertyOp45
 70
     1
102
RTVSPropertyOp46
 70
     1
102
RTVSPropertyOp47
 70
     1
102
RTVSPropertyOp48
 70
     1
102
RTVSPropertyOp49
 70
     1
102
RTVSPropertyOp50
 70
     1
102
RTVSPropertyOp51
 70
     0
102
RTVSPropertyOp52
 70
     0
102
RTVSPropertyOp53
 70
     1
102
RTVSPropertyOp54
 70
     1
102
RTVSPropertyOp55
 70
     1
102
RTVSPropertyOp56
 70
     1
102
RTVSPropertyOp57
 70
     1
102
RTVSPropertyOp58
 70
     1
102
RTVSPropertyOp59
 70
     1
102
RTVSPropertyOp60
 70
     1
102
RTVSPropertyOp61
 70
     1
102
RTVSPropertyOp62
 70
     1
  0
XRECORD
  5
7E0
102
{ACAD_REACTORS
330
7DF
102
}
330
7DF
100
AcDbXrecord
280
     1
102
RTVSPost2010Prop28
280
     0
102
RTVSPost2010PropOp28
 70
     1
102
RTVSPost2010Prop29
280
     1
102
RTVSPost2010PropOp29
 70
     1
102
RTVSPost2010Prop30
280
     1
102
RTVSPost2010PropOp30
 70
     1
102
RTVSPost2010Prop31
280
     0
102
RTVSPost2010PropOp31
 70
     1
102
RTVSPost2010Prop32
280
     0
102
RTVSPost2010PropOp32
 70
     1
102
RTVSPost2010Prop33
280
     0
102
RTVSPost2010PropOp33
 70
     1
102
RTVSPost2010Prop34
280
     0
102
RTVSPost2010PropOp34
 70
     1
102
RTVSPost2010Prop35
280
     0
102
RTVSPost2010PropOp35
 70
     1
102
RTVSPost2010Prop36
280
     0
102
RTVSPost2010PropOp36
 70
     1
102
RTVSPost2010Prop37
 90
       50
102
RTVSPost2010PropOp37
 70
     1
102
RTVSPost2010Prop38
140
0.0
102
RTVSPost2010PropOp38
 70
     1
102
RTVSPost2010Prop39
140
1.0
102
RTVSPost2010PropOp39
 70
     1
102
RTVSPost2010Prop40
 90
        0
102
RTVSPost2010PropOp40
 70
     1
102
RTVSPost2010Prop41ColorIndex
 90
       18
102
RTVSPost2010Prop41ColorRGB
 90
        0
102
RTVSPost2010PropOp41
 70
     1
102
RTVSPost2010Prop42
 90
       50
102
RTVSPost2010PropOp42
 70
     1
102
RTVSPost2010Prop43
 90
        3
102
RTVSPost2010PropOp43
 70
     1
102
RTVSPost2010Prop44ColorIndex
 90
        5
102
RTVSPost2010Prop44ColorRGB
 90
      255
102
RTVSPost2010PropOp44
 70
     1
102
RTVSPost2010Prop45
280
     0
102
RTVSPost2010PropOp45
 70
     1
102
RTVSPost2010Prop46
 90
       50
102
RTVSPost2010PropOp46
 70
     1
102
RTVSPost2010Prop47
 90
       50
102
RTVSPost2010PropOp47
 70
     1
102
RTVSPost2010Prop48
 90
       50
102
RTVSPost2010PropOp48
 70
     1
102
RTVSPost2010Prop49
280
     0
102
RTVSPost2010PropOp49
 70
     1
102
RTVSPost2010Prop50
 90
       50
102
RTVSPost2010PropOp50
 70
     1
102
RTVSPost2010Prop51ColorIndex
 90
      256
102
RTVSPost2010Prop51ColorRGB
 90
-16777216
102
RTVSPost2010PropOp51
 70
     0
102
RTVSPost2010Prop52
140
1.0
102
RTVSPost2010PropOp52
 70
     0
102
RTVSPost2010Prop53
 90
        2
102
RTVSPost2010PropOp53
 70
     1
102
RTVSPost2010Prop54
  1
strokes_ogs.tif
102
RTVSPost2010PropOp54
 70
     1
102
RTVSPost2010Prop55
280
     0
102
RTVSPost2010PropOp55
 70
     1
102
RTVSPost2010Prop56
140
1.0
102
RTVSPost2010PropOp56
 70
     1
102
RTVSPost2010Prop57
140
1.0
102
RTVSPost2010PropOp57
 70
     1
102
RTVSPropertyOp0
 70
     1
102
RTVSPropertyOp1
 70
     1
102
RTVSPropertyOp2
 70
     1
102
RTVSPropertyOp3
 70
     1
102
RTVSPropertyOp4
 70
     1
102
RTVSPropertyOp5
 70
     1
102
RTVSPropertyOp6
 70
     1
102
RTVSPropertyOp7
 70
     1
102
RTVSPropertyOp8
 70
     1
102
RTVSPropertyOp9
 70
     1
102
RTVSPropertyOp10
 70
     1
102
RTVSPropertyOp11
 70
     1
102
RTVSPropertyOp12
 70
     1
102
RTVSPropertyOp13
 70
     1
102
RTVSPropertyOp14
 70
     1
102
RTVSPropertyOp15
 70
     1
102
RTVSPropertyOp16
 70
     1
102
RTVSPropertyOp17
 70
     1
102
RTVSPropertyOp18
 70
     1
102
RTVSPropertyOp19
 70
     1
102
RTVSPropertyOp20
 70
     1
102
RTVSPropertyOp21
 70
     1
102
RTVSPropertyOp22
 70
     1
102
RTVSPropertyOp23
 70
     1
102
RTVSPropertyOp24
 70
     1
102
RTVSPropertyOp25
 70
     1
102
RTVSPropertyOp26
 70
     1
102
RTVSPropertyOp27
 70
     1
102
RTVSPropertyOp28
 70
     1
102
RTVSPropertyOp29
 70
     1
102
RTVSPropertyOp30
 70
     1
102
RTVSPropertyOp31
 70
     1
102
RTVSPropertyOp32
 70
     1
102
RTVSPropertyOp33
 70
     1
102
RTVSPropertyOp34
 70
     1
102
RTVSPropertyOp35
 70
     1
102
RTVSPropertyOp36
 70
     1
102
RTVSPropertyOp37
 70
     1
102
RTVSPropertyOp38
 70
     1
102
RTVSPropertyOp39
 70
     1
102
RTVSPropertyOp40
 70
     1
102
RTVSPropertyOp41
 70
     1
102
RTVSPropertyOp42
 70
     1
102
RTVSPropertyOp43
 70
     1
102
RTVSPropertyOp44
 70
     1
102
RTVSPropertyOp45
 70
     1
102
RTVSPropertyOp46
 70
     1
102
RTVSPropertyOp47
 70
     1
102
RTVSPropertyOp48
 70
     1
102
RTVSPropertyOp49
 70
     1
102
RTVSPropertyOp50
 70
     1
102
RTVSPropertyOp51
 70
     0
102
RTVSPropertyOp52
 70
     0
102
RTVSPropertyOp53
 70
     1
102
RTVSPropertyOp54
 70
     1
102
RTVSPropertyOp55
 70
     1
102
RTVSPropertyOp56
 70
     1
102
RTVSPropertyOp57
 70
     1
102
RTVSPropertyOp58
 70
     1
102
RTVSPropertyOp59
 70
     1
102
RTVSPropertyOp60
 70
     1
102
RTVSPropertyOp61
 70
     1
102
RTVSPropertyOp62
 70
     1
  0
XRECORD
  5
7D2
102
{ACAD_REACTORS
330
7D1
102
}
330
7D1
100
AcDbXrecord
280
     1
102
RTVSPost2010Prop28
280
     0
102
RTVSPost2010PropOp28
 70
     1
102
RTVSPost2010Prop29
280
     1
102
RTVSPost2010PropOp29
 70
     1
102
RTVSPost2010Prop30
280
     1
102
RTVSPost2010PropOp30
 70
     1
102
RTVSPost2010Prop31
280
     0
102
RTVSPost2010PropOp31
 70
     1
102
RTVSPost2010Prop32
280
     0
102
RTVSPost2010PropOp32
 70
     1
102
RTVSPost2010Prop33
280
     0
102
RTVSPost2010PropOp33
 70
     1
102
RTVSPost2010Prop34
280
     0
102
RTVSPost2010PropOp34
 70
     1
102
RTVSPost2010Prop35
280
     0
102
RTVSPost2010PropOp35
 70
     1
102
RTVSPost2010Prop36
280
     0
102
RTVSPost2010PropOp36
 70
     1
102
RTVSPost2010Prop37
 90
       50
102
RTVSPost2010PropOp37
 70
     1
102
RTVSPost2010Prop38
140
0.0
102
RTVSPost2010PropOp38
 70
     1
102
RTVSPost2010Prop39
140
1.0
102
RTVSPost2010PropOp39
 70
     1
102
RTVSPost2010Prop40
 90
        0
102
RTVSPost2010PropOp40
 70
     1
102
RTVSPost2010Prop41ColorIndex
 90
       18
102
RTVSPost2010Prop41ColorRGB
 90
        0
102
RTVSPost2010PropOp41
 70
     1
102
RTVSPost2010Prop42
 90
       50
102
RTVSPost2010PropOp42
 70
     1
102
RTVSPost2010Prop43
 90
        3
102
RTVSPost2010PropOp43
 70
     1
102
RTVSPost2010Prop44ColorIndex
 90
        5
102
RTVSPost2010Prop44ColorRGB
 90
      255
102
RTVSPost2010PropOp44
 70
     1
102
RTVSPost2010Prop45
280
     0
102
RTVSPost2010PropOp45
 70
     1
102
RTVSPost2010Prop46
 90
       50
102
RTVSPost2010PropOp46
 70
     1
102
RTVSPost2010Prop47
 90
       50
102
RTVSPost2010PropOp47
 70
     1
102
RTVSPost2010Prop48
 90
       50
102
RTVSPost2010PropOp48
 70
     1
102
RTVSPost2010Prop49
280
     0
102
RTVSPost2010PropOp49
 70
     1
102
RTVSPost2010Prop50
 90
       50
102
RTVSPost2010PropOp50
 70
     1
102
RTVSPost2010Prop51ColorIndex
 90
      256
102
RTVSPost2010Prop51ColorRGB
 90
-16777216
102
RTVSPost2010PropOp51
 70
     0
102
RTVSPost2010Prop52
140
1.0
102
RTVSPost2010PropOp52
 70
     0
102
RTVSPost2010Prop53
 90
        2
102
RTVSPost2010PropOp53
 70
     1
102
RTVSPost2010Prop54
  1
strokes_ogs.tif
102
RTVSPost2010PropOp54
 70
     1
102
RTVSPost2010Prop55
280
     0
102
RTVSPost2010PropOp55
 70
     1
102
RTVSPost2010Prop56
140
1.0
102
RTVSPost2010PropOp56
 70
     1
102
RTVSPost2010Prop57
140
1.0
102
RTVSPost2010PropOp57
 70
     1
102
RTVSPropertyOp0
 70
     1
102
RTVSPropertyOp1
 70
     1
102
RTVSPropertyOp2
 70
     1
102
RTVSPropertyOp3
 70
     1
102
RTVSPropertyOp4
 70
     1
102
RTVSPropertyOp5
 70
     1
102
RTVSPropertyOp6
 70
     1
102
RTVSPropertyOp7
 70
     1
102
RTVSPropertyOp8
 70
     1
102
RTVSPropertyOp9
 70
     1
102
RTVSPropertyOp10
 70
     1
102
RTVSPropertyOp11
 70
     1
102
RTVSPropertyOp12
 70
     1
102
RTVSPropertyOp13
 70
     1
102
RTVSPropertyOp14
 70
     1
102
RTVSPropertyOp15
 70
     1
102
RTVSPropertyOp16
 70
     1
102
RTVSPropertyOp17
 70
     1
102
RTVSPropertyOp18
 70
     1
102
RTVSPropertyOp19
 70
     1
102
RTVSPropertyOp20
 70
     1
102
RTVSPropertyOp21
 70
     1
102
RTVSPropertyOp22
 70
     1
102
RTVSPropertyOp23
 70
     1
102
RTVSPropertyOp24
 70
     1
102
RTVSPropertyOp25
 70
     1
102
RTVSPropertyOp26
 70
     1
102
RTVSPropertyOp27
 70
     1
102
RTVSPropertyOp28
 70
     1
102
RTVSPropertyOp29
 70
     1
102
RTVSPropertyOp30
 70
     1
102
RTVSPropertyOp31
 70
     1
102
RTVSPropertyOp32
 70
     1
102
RTVSPropertyOp33
 70
     1
102
RTVSPropertyOp34
 70
     1
102
RTVSPropertyOp35
 70
     1
102
RTVSPropertyOp36
 70
     1
102
RTVSPropertyOp37
 70
     1
102
RTVSPropertyOp38
 70
     1
102
RTVSPropertyOp39
 70
     1
102
RTVSPropertyOp40
 70
     1
102
RTVSPropertyOp41
 70
     1
102
RTVSPropertyOp42
 70
     1
102
RTVSPropertyOp43
 70
     1
102
RTVSPropertyOp44
 70
     1
102
RTVSPropertyOp45
 70
     1
102
RTVSPropertyOp46
 70
     1
102
RTVSPropertyOp47
 70
     1
102
RTVSPropertyOp48
 70
     1
102
RTVSPropertyOp49
 70
     1
102
RTVSPropertyOp50
 70
     1
102
RTVSPropertyOp51
 70
     0
102
RTVSPropertyOp52
 70
     0
102
RTVSPropertyOp53
 70
     1
102
RTVSPropertyOp54
 70
     1
102
RTVSPropertyOp55
 70
     1
102
RTVSPropertyOp56
 70
     1
102
RTVSPropertyOp57
 70
     1
102
RTVSPropertyOp58
 70
     1
102
RTVSPropertyOp59
 70
     1
102
RTVSPropertyOp60
 70
     1
102
RTVSPropertyOp61
 70
     1
102
RTVSPropertyOp62
 70
     1
  0
XRECORD
  5
7D6
102
{ACAD_REACTORS
330
7D5
102
}
330
7D5
100
AcDbXrecord
280
     1
102
RTVSPost2010Prop28
280
     0
102
RTVSPost2010PropOp28
 70
     1
102
RTVSPost2010Prop29
280
     1
102
RTVSPost2010PropOp29
 70
     1
102
RTVSPost2010Prop30
280
     1
102
RTVSPost2010PropOp30
 70
     1
102
RTVSPost2010Prop31
280
     0
102
RTVSPost2010PropOp31
 70
     1
102
RTVSPost2010Prop32
280
     0
102
RTVSPost2010PropOp32
 70
     1
102
RTVSPost2010Prop33
280
     0
102
RTVSPost2010PropOp33
 70
     1
102
RTVSPost2010Prop34
280
     0
102
RTVSPost2010PropOp34
 70
     1
102
RTVSPost2010Prop35
280
     0
102
RTVSPost2010PropOp35
 70
     1
102
RTVSPost2010Prop36
280
     0
102
RTVSPost2010PropOp36
 70
     1
102
RTVSPost2010Prop37
 90
       50
102
RTVSPost2010PropOp37
 70
     1
102
RTVSPost2010Prop38
140
0.0
102
RTVSPost2010PropOp38
 70
     1
102
RTVSPost2010Prop39
140
1.0
102
RTVSPost2010PropOp39
 70
     1
102
RTVSPost2010Prop40
 90
        0
102
RTVSPost2010PropOp40
 70
     1
102
RTVSPost2010Prop41ColorIndex
 90
       18
102
RTVSPost2010Prop41ColorRGB
 90
        0
102
RTVSPost2010PropOp41
 70
     1
102
RTVSPost2010Prop42
 90
       50
102
RTVSPost2010PropOp42
 70
     1
102
RTVSPost2010Prop43
 90
        3
102
RTVSPost2010PropOp43
 70
     1
102
RTVSPost2010Prop44ColorIndex
 90
        5
102
RTVSPost2010Prop44ColorRGB
 90
      255
102
RTVSPost2010PropOp44
 70
     1
102
RTVSPost2010Prop45
280
     0
102
RTVSPost2010PropOp45
 70
     1
102
RTVSPost2010Prop46
 90
       50
102
RTVSPost2010PropOp46
 70
     1
102
RTVSPost2010Prop47
 90
       50
102
RTVSPost2010PropOp47
 70
     1
102
RTVSPost2010Prop48
 90
       50
102
RTVSPost2010PropOp48
 70
     1
102
RTVSPost2010Prop49
280
     0
102
RTVSPost2010PropOp49
 70
     1
102
RTVSPost2010Prop50
 90
       50
102
RTVSPost2010PropOp50
 70
     1
102
RTVSPost2010Prop51ColorIndex
 90
      256
102
RTVSPost2010Prop51ColorRGB
 90
-16777216
102
RTVSPost2010PropOp51
 70
     0
102
RTVSPost2010Prop52
140
1.0
102
RTVSPost2010PropOp52
 70
     0
102
RTVSPost2010Prop53
 90
        2
102
RTVSPost2010PropOp53
 70
     1
102
RTVSPost2010Prop54
  1
strokes_ogs.tif
102
RTVSPost2010PropOp54
 70
     1
102
RTVSPost2010Prop55
280
     0
102
RTVSPost2010PropOp55
 70
     1
102
RTVSPost2010Prop56
140
1.0
102
RTVSPost2010PropOp56
 70
     1
102
RTVSPost2010Prop57
140
1.0
102
RTVSPost2010PropOp57
 70
     1
102
RTVSPropertyOp0
 70
     1
102
RTVSPropertyOp1
 70
     1
102
RTVSPropertyOp2
 70
     1
102
RTVSPropertyOp3
 70
     1
102
RTVSPropertyOp4
 70
     1
102
RTVSPropertyOp5
 70
     1
102
RTVSPropertyOp6
 70
     1
102
RTVSPropertyOp7
 70
     1
102
RTVSPropertyOp8
 70
     1
102
RTVSPropertyOp9
 70
     1
102
RTVSPropertyOp10
 70
     1
102
RTVSPropertyOp11
 70
     1
102
RTVSPropertyOp12
 70
     1
102
RTVSPropertyOp13
 70
     1
102
RTVSPropertyOp14
 70
     1
102
RTVSPropertyOp15
 70
     1
102
RTVSPropertyOp16
 70
     1
102
RTVSPropertyOp17
 70
     1
102
RTVSPropertyOp18
 70
     1
102
RTVSPropertyOp19
 70
     1
102
RTVSPropertyOp20
 70
     1
102
RTVSPropertyOp21
 70
     1
102
RTVSPropertyOp22
 70
     1
102
RTVSPropertyOp23
 70
     1
102
RTVSPropertyOp24
 70
     1
102
RTVSPropertyOp25
 70
     1
102
RTVSPropertyOp26
 70
     1
102
RTVSPropertyOp27
 70
     1
102
RTVSPropertyOp28
 70
     1
102
RTVSPropertyOp29
 70
     1
102
RTVSPropertyOp30
 70
     1
102
RTVSPropertyOp31
 70
     1
102
RTVSPropertyOp32
 70
     1
102
RTVSPropertyOp33
 70
     1
102
RTVSPropertyOp34
 70
     1
102
RTVSPropertyOp35
 70
     1
102
RTVSPropertyOp36
 70
     1
102
RTVSPropertyOp37
 70
     1
102
RTVSPropertyOp38
 70
     1
102
RTVSPropertyOp39
 70
     1
102
RTVSPropertyOp40
 70
     1
102
RTVSPropertyOp41
 70
     1
102
RTVSPropertyOp42
 70
     1
102
RTVSPropertyOp43
 70
     1
102
RTVSPropertyOp44
 70
     1
102
RTVSPropertyOp45
 70
     1
102
RTVSPropertyOp46
 70
     1
102
RTVSPropertyOp47
 70
     1
102
RTVSPropertyOp48
 70
     1
102
RTVSPropertyOp49
 70
     1
102
RTVSPropertyOp50
 70
     1
102
RTVSPropertyOp51
 70
     0
102
RTVSPropertyOp52
 70
     0
102
RTVSPropertyOp53
 70
     1
102
RTVSPropertyOp54
 70
     1
102
RTVSPropertyOp55
 70
     1
102
RTVSPropertyOp56
 70
     1
102
RTVSPropertyOp57
 70
     1
102
RTVSPropertyOp58
 70
     1
102
RTVSPropertyOp59
 70
     1
102
RTVSPropertyOp60
 70
     1
102
RTVSPropertyOp61
 70
     1
102
RTVSPropertyOp62
 70
     1
  0
XRECORD
  5
7F0
102
{ACAD_REACTORS
330
7EF
102
}
330
7EF
100
AcDbXrecord
280
     1
102
RTVSPost2010Prop28
280
     0
102
RTVSPost2010PropOp28
 70
     1
102
RTVSPost2010Prop29
280
     1
102
RTVSPost2010PropOp29
 70
     1
102
RTVSPost2010Prop30
280
     1
102
RTVSPost2010PropOp30
 70
     1
102
RTVSPost2010Prop31
280
     0
102
RTVSPost2010PropOp31
 70
     1
102
RTVSPost2010Prop32
280
     0
102
RTVSPost2010PropOp32
 70
     1
102
RTVSPost2010Prop33
280
     0
102
RTVSPost2010PropOp33
 70
     1
102
RTVSPost2010Prop34
280
     0
102
RTVSPost2010PropOp34
 70
     1
102
RTVSPost2010Prop35
280
     0
102
RTVSPost2010PropOp35
 70
     1
102
RTVSPost2010Prop36
280
     0
102
RTVSPost2010PropOp36
 70
     1
102
RTVSPost2010Prop37
 90
       50
102
RTVSPost2010PropOp37
 70
     0
102
RTVSPost2010Prop38
140
0.0
102
RTVSPost2010PropOp38
 70
     0
102
RTVSPost2010Prop39
140
1.0
102
RTVSPost2010PropOp39
 70
     0
102
RTVSPost2010Prop40
 90
        0
102
RTVSPost2010PropOp40
 70
     0
102
RTVSPost2010Prop41ColorIndex
 90
       18
102
RTVSPost2010Prop41ColorRGB
 90
        0
102
RTVSPost2010PropOp41
 70
     0
102
RTVSPost2010Prop42
 90
       50
102
RTVSPost2010PropOp42
 70
     0
102
RTVSPost2010Prop43
 90
        3
102
RTVSPost2010PropOp43
 70
     0
102
RTVSPost2010Prop44ColorIndex
 90
        5
102
RTVSPost2010Prop44ColorRGB
 90
      255
102
RTVSPost2010PropOp44
 70
     0
102
RTVSPost2010Prop45
280
     0
102
RTVSPost2010PropOp45
 70
     1
102
RTVSPost2010Prop46
 90
       50
102
RTVSPost2010PropOp46
 70
     0
102
RTVSPost2010Prop47
 90
       50
102
RTVSPost2010PropOp47
 70
     0
102
RTVSPost2010Prop48
 90
       50
102
RTVSPost2010PropOp48
 70
     0
102
RTVSPost2010Prop49
280
     0
102
RTVSPost2010PropOp49
 70
     1
102
RTVSPost2010Prop50
 90
       50
102
RTVSPost2010PropOp50
 70
     0
102
RTVSPost2010Prop51ColorIndex
 90
      256
102
RTVSPost2010Prop51ColorRGB
 90
-16777216
102
RTVSPost2010PropOp51
 70
     0
102
RTVSPost2010Prop52
140
1.0
102
RTVSPost2010PropOp52
 70
     0
102
RTVSPost2010Prop53
 90
        2
102
RTVSPost2010PropOp53
 70
     0
102
RTVSPost2010Prop54
  1
strokes_ogs.tif
102
RTVSPost2010PropOp54
 70
     0
102
RTVSPost2010Prop55
280
     0
102
RTVSPost2010PropOp55
 70
     1
102
RTVSPost2010Prop56
140
1.0
102
RTVSPost2010PropOp56
 70
     0
102
RTVSPost2010Prop57
140
1.0
102
RTVSPost2010PropOp57
 70
     0
102
RTVSPropertyOp0
 70
     0
102
RTVSPropertyOp1
 70
     0
102
RTVSPropertyOp2
 70
     0
102
RTVSPropertyOp3
 70
     0
102
RTVSPropertyOp4
 70
     0
102
RTVSPropertyOp5
 70
     0
102
RTVSPropertyOp6
 70
     0
102
RTVSPropertyOp7
 70
     0
102
RTVSPropertyOp8
 70
     0
102
RTVSPropertyOp9
 70
     0
102
RTVSPropertyOp10
 70
     0
102
RTVSPropertyOp11
 70
     0
102
RTVSPropertyOp12
 70
     0
102
RTVSPropertyOp13
 70
     0
102
RTVSPropertyOp14
 70
     2
102
RTVSPropertyOp15
 70
     0
102
RTVSPropertyOp16
 70
     0
102
RTVSPropertyOp17
 70
     0
102
RTVSPropertyOp18
 70
     0
102
RTVSPropertyOp19
 70
     0
102
RTVSPropertyOp20
 70
     0
102
RTVSPropertyOp21
 70
     0
102
RTVSPropertyOp22
 70
     0
102
RTVSPropertyOp23
 70
     0
102
RTVSPropertyOp24
 70
     0
102
RTVSPropertyOp25
 70
     0
102
RTVSPropertyOp26
 70
     0
102
RTVSPropertyOp27
 70
     0
102
RTVSPropertyOp28
 70
     1
102
RTVSPropertyOp29
 70
     1
102
RTVSPropertyOp30
 70
     1
102
RTVSPropertyOp31
 70
     1
102
RTVSPropertyOp32
 70
     1
102
RTVSPropertyOp33
 70
     1
102
RTVSPropertyOp34
 70
     1
102
RTVSPropertyOp35
 70
     1
102
RTVSPropertyOp36
 70
     1
102
RTVSPropertyOp37
 70
     0
102
RTVSPropertyOp38
 70
     0
102
RTVSPropertyOp39
 70
     0
102
RTVSPropertyOp40
 70
     0
102
RTVSPropertyOp41
 70
     0
102
RTVSPropertyOp42
 70
     0
102
RTVSPropertyOp43
 70
     0
102
RTVSPropertyOp44
 70
     0
102
RTVSPropertyOp45
 70
     1
102
RTVSPropertyOp46
 70
     0
102
RTVSPropertyOp47
 70
     0
102
RTVSPropertyOp48
 70
     0
102
RTVSPropertyOp49
 70
     1
102
RTVSPropertyOp50
 70
     0
102
RTVSPropertyOp51
 70
     0
102
RTVSPropertyOp52
 70
     0
102
RTVSPropertyOp53
 70
     0
102
RTVSPropertyOp54
 70
     0
102
RTVSPropertyOp55
 70
     1
102
RTVSPropertyOp56
 70
     0
102
RTVSPropertyOp57
 70
     0
102
RTVSPropertyOp58
 70
     0
102
RTVSPropertyOp59
 70
     0
102
RTVSPropertyOp60
 70
     0
102
RTVSPropertyOp61
 70
     0
102
RTVSPropertyOp62
 70
     0
  0
XRECORD
  5
7DE
102
{ACAD_REACTORS
330
7DD
102
}
330
7DD
100
AcDbXrecord
280
     1
102
RTVSPost2010Prop28
280
     0
102
RTVSPost2010PropOp28
 70
     1
102
RTVSPost2010Prop29
280
     1
102
RTVSPost2010PropOp29
 70
     1
102
RTVSPost2010Prop30
280
     1
102
RTVSPost2010PropOp30
 70
     1
102
RTVSPost2010Prop31
280
     0
102
RTVSPost2010PropOp31
 70
     1
102
RTVSPost2010Prop32
280
     0
102
RTVSPost2010PropOp32
 70
     1
102
RTVSPost2010Prop33
280
     0
102
RTVSPost2010PropOp33
 70
     1
102
RTVSPost2010Prop34
280
     0
102
RTVSPost2010PropOp34
 70
     1
102
RTVSPost2010Prop35
280
     0
102
RTVSPost2010PropOp35
 70
     1
102
RTVSPost2010Prop36
280
     0
102
RTVSPost2010PropOp36
 70
     1
102
RTVSPost2010Prop37
 90
       50
102
RTVSPost2010PropOp37
 70
     1
102
RTVSPost2010Prop38
140
0.0
102
RTVSPost2010PropOp38
 70
     1
102
RTVSPost2010Prop39
140
1.0
102
RTVSPost2010PropOp39
 70
     1
102
RTVSPost2010Prop40
 90
        0
102
RTVSPost2010PropOp40
 70
     1
102
RTVSPost2010Prop41ColorIndex
 90
       18
102
RTVSPost2010Prop41ColorRGB
 90
        0
102
RTVSPost2010PropOp41
 70
     1
102
RTVSPost2010Prop42
 90
       50
102
RTVSPost2010PropOp42
 70
     1
102
RTVSPost2010Prop43
 90
        3
102
RTVSPost2010PropOp43
 70
     1
102
RTVSPost2010Prop44ColorIndex
 90
        5
102
RTVSPost2010Prop44ColorRGB
 90
      255
102
RTVSPost2010PropOp44
 70
     1
102
RTVSPost2010Prop45
280
     0
102
RTVSPost2010PropOp45
 70
     1
102
RTVSPost2010Prop46
 90
       50
102
RTVSPost2010PropOp46
 70
     1
102
RTVSPost2010Prop47
 90
       50
102
RTVSPost2010PropOp47
 70
     1
102
RTVSPost2010Prop48
 90
       50
102
RTVSPost2010PropOp48
 70
     1
102
RTVSPost2010Prop49
280
     0
102
RTVSPost2010PropOp49
 70
     1
102
RTVSPost2010Prop50
 90
       50
102
RTVSPost2010PropOp50
 70
     1
102
RTVSPost2010Prop51ColorIndex
 90
      256
102
RTVSPost2010Prop51ColorRGB
 90
-16777216
102
RTVSPost2010PropOp51
 70
     0
102
RTVSPost2010Prop52
140
1.0
102
RTVSPost2010PropOp52
 70
     0
102
RTVSPost2010Prop53
 90
        2
102
RTVSPost2010PropOp53
 70
     1
102
RTVSPost2010Prop54
  1
strokes_ogs.tif
102
RTVSPost2010PropOp54
 70
     1
102
RTVSPost2010Prop55
280
     0
102
RTVSPost2010PropOp55
 70
     1
102
RTVSPost2010Prop56
140
1.0
102
RTVSPost2010PropOp56
 70
     1
102
RTVSPost2010Prop57
140
1.0
102
RTVSPost2010PropOp57
 70
     1
102
RTVSPropertyOp0
 70
     1
102
RTVSPropertyOp1
 70
     1
102
RTVSPropertyOp2
 70
     1
102
RTVSPropertyOp3
 70
     1
102
RTVSPropertyOp4
 70
     1
102
RTVSPropertyOp5
 70
     1
102
RTVSPropertyOp6
 70
     1
102
RTVSPropertyOp7
 70
     1
102
RTVSPropertyOp8
 70
     1
102
RTVSPropertyOp9
 70
     1
102
RTVSPropertyOp10
 70
     1
102
RTVSPropertyOp11
 70
     1
102
RTVSPropertyOp12
 70
     1
102
RTVSPropertyOp13
 70
     1
102
RTVSPropertyOp14
 70
     1
102
RTVSPropertyOp15
 70
     1
102
RTVSPropertyOp16
 70
     1
102
RTVSPropertyOp17
 70
     1
102
RTVSPropertyOp18
 70
     1
102
RTVSPropertyOp19
 70
     1
102
RTVSPropertyOp20
 70
     1
102
RTVSPropertyOp21
 70
     1
102
RTVSPropertyOp22
 70
     1
102
RTVSPropertyOp23
 70
     1
102
RTVSPropertyOp24
 70
     1
102
RTVSPropertyOp25
 70
     1
102
RTVSPropertyOp26
 70
     1
102
RTVSPropertyOp27
 70
     1
102
RTVSPropertyOp28
 70
     1
102
RTVSPropertyOp29
 70
     1
102
RTVSPropertyOp30
 70
     1
102
RTVSPropertyOp31
 70
     1
102
RTVSPropertyOp32
 70
     1
102
RTVSPropertyOp33
 70
     1
102
RTVSPropertyOp34
 70
     1
102
RTVSPropertyOp35
 70
     1
102
RTVSPropertyOp36
 70
     1
102
RTVSPropertyOp37
 70
     1
102
RTVSPropertyOp38
 70
     1
102
RTVSPropertyOp39
 70
     1
102
RTVSPropertyOp40
 70
     1
102
RTVSPropertyOp41
 70
     1
102
RTVSPropertyOp42
 70
     1
102
RTVSPropertyOp43
 70
     1
102
RTVSPropertyOp44
 70
     1
102
RTVSPropertyOp45
 70
     1
102
RTVSPropertyOp46
 70
     1
102
RTVSPropertyOp47
 70
     1
102
RTVSPropertyOp48
 70
     1
102
RTVSPropertyOp49
 70
     1
102
RTVSPropertyOp50
 70
     1
102
RTVSPropertyOp51
 70
     0
102
RTVSPropertyOp52
 70
     0
102
RTVSPropertyOp53
 70
     1
102
RTVSPropertyOp54
 70
     1
102
RTVSPropertyOp55
 70
     1
102
RTVSPropertyOp56
 70
     1
102
RTVSPropertyOp57
 70
     1
102
RTVSPropertyOp58
 70
     1
102
RTVSPropertyOp59
 70
     1
102
RTVSPropertyOp60
 70
     1
102
RTVSPropertyOp61
 70
     1
102
RTVSPropertyOp62
 70
     1
  0
XRECORD
  5
7C2
102
{ACAD_REACTORS
330
7C1
102
}
330
7C1
100
AcDbXrecord
280
     1
102
RTVSPost2010Prop28
280
     0
102
RTVSPost2010PropOp28
 70
     1
102
RTVSPost2010Prop29
280
     1
102
RTVSPost2010PropOp29
 70
     1
102
RTVSPost2010Prop30
280
     1
102
RTVSPost2010PropOp30
 70
     1
102
RTVSPost2010Prop31
280
     0
102
RTVSPost2010PropOp31
 70
     1
102
RTVSPost2010Prop32
280
     0
102
RTVSPost2010PropOp32
 70
     1
102
RTVSPost2010Prop33
280
     0
102
RTVSPost2010PropOp33
 70
     1
102
RTVSPost2010Prop34
280
     0
102
RTVSPost2010PropOp34
 70
     1
102
RTVSPost2010Prop35
280
     0
102
RTVSPost2010PropOp35
 70
     1
102
RTVSPost2010Prop36
280
     0
102
RTVSPost2010PropOp36
 70
     1
102
RTVSPost2010Prop37
 90
       50
102
RTVSPost2010PropOp37
 70
     1
102
RTVSPost2010Prop38
140
0.0
102
RTVSPost2010PropOp38
 70
     1
102
RTVSPost2010Prop39
140
1.0
102
RTVSPost2010PropOp39
 70
     1
102
RTVSPost2010Prop40
 90
        0
102
RTVSPost2010PropOp40
 70
     1
102
RTVSPost2010Prop41ColorIndex
 90
       18
102
RTVSPost2010Prop41ColorRGB
 90
        0
102
RTVSPost2010PropOp41
 70
     1
102
RTVSPost2010Prop42
 90
       50
102
RTVSPost2010PropOp42
 70
     1
102
RTVSPost2010Prop43
 90
        3
102
RTVSPost2010PropOp43
 70
     1
102
RTVSPost2010Prop44ColorIndex
 90
        5
102
RTVSPost2010Prop44ColorRGB
 90
      255
102
RTVSPost2010PropOp44
 70
     1
102
RTVSPost2010Prop45
280
     0
102
RTVSPost2010PropOp45
 70
     1
102
RTVSPost2010Prop46
 90
       50
102
RTVSPost2010PropOp46
 70
     1
102
RTVSPost2010Prop47
 90
       50
102
RTVSPost2010PropOp47
 70
     1
102
RTVSPost2010Prop48
 90
       50
102
RTVSPost2010PropOp48
 70
     1
102
RTVSPost2010Prop49
280
     0
102
RTVSPost2010PropOp49
 70
     1
102
RTVSPost2010Prop50
 90
       50
102
RTVSPost2010PropOp50
 70
     1
102
RTVSPost2010Prop51ColorIndex
 90
      256
102
RTVSPost2010Prop51ColorRGB
 90
-16777216
102
RTVSPost2010PropOp51
 70
     0
102
RTVSPost2010Prop52
140
1.0
102
RTVSPost2010PropOp52
 70
     0
102
RTVSPost2010Prop53
 90
        2
102
RTVSPost2010PropOp53
 70
     1
102
RTVSPost2010Prop54
  1
strokes_ogs.tif
102
RTVSPost2010PropOp54
 70
     1
102
RTVSPost2010Prop55
280
     0
102
RTVSPost2010PropOp55
 70
     1
102
RTVSPost2010Prop56
140
1.0
102
RTVSPost2010PropOp56
 70
     1
102
RTVSPost2010Prop57
140
1.0
102
RTVSPost2010PropOp57
 70
     1
102
RTVSPropertyOp0
 70
     1
102
RTVSPropertyOp1
 70
     1
102
RTVSPropertyOp2
 70
     1
102
RTVSPropertyOp3
 70
     1
102
RTVSPropertyOp4
 70
     1
102
RTVSPropertyOp5
 70
     1
102
RTVSPropertyOp6
 70
     1
102
RTVSPropertyOp7
 70
     1
102
RTVSPropertyOp8
 70
     1
102
RTVSPropertyOp9
 70
     1
102
RTVSPropertyOp10
 70
     1
102
RTVSPropertyOp11
 70
     1
102
RTVSPropertyOp12
 70
     1
102
RTVSPropertyOp13
 70
     1
102
RTVSPropertyOp14
 70
     1
102
RTVSPropertyOp15
 70
     1
102
RTVSPropertyOp16
 70
     1
102
RTVSPropertyOp17
 70
     1
102
RTVSPropertyOp18
 70
     1
102
RTVSPropertyOp19
 70
     1
102
RTVSPropertyOp20
 70
     1
102
RTVSPropertyOp21
 70
     1
102
RTVSPropertyOp22
 70
     1
102
RTVSPropertyOp23
 70
     1
102
RTVSPropertyOp24
 70
     1
102
RTVSPropertyOp25
 70
     1
102
RTVSPropertyOp26
 70
     1
102
RTVSPropertyOp27
 70
     1
102
RTVSPropertyOp28
 70
     1
102
RTVSPropertyOp29
 70
     1
102
RTVSPropertyOp30
 70
     1
102
RTVSPropertyOp31
 70
     1
102
RTVSPropertyOp32
 70
     1
102
RTVSPropertyOp33
 70
     1
102
RTVSPropertyOp34
 70
     1
102
RTVSPropertyOp35
 70
     1
102
RTVSPropertyOp36
 70
     1
102
RTVSPropertyOp37
 70
     1
102
RTVSPropertyOp38
 70
     1
102
RTVSPropertyOp39
 70
     1
102
RTVSPropertyOp40
 70
     1
102
RTVSPropertyOp41
 70
     1
102
RTVSPropertyOp42
 70
     1
102
RTVSPropertyOp43
 70
     1
102
RTVSPropertyOp44
 70
     1
102
RTVSPropertyOp45
 70
     1
102
RTVSPropertyOp46
 70
     1
102
RTVSPropertyOp47
 70
     1
102
RTVSPropertyOp48
 70
     1
102
RTVSPropertyOp49
 70
     1
102
RTVSPropertyOp50
 70
     1
102
RTVSPropertyOp51
 70
     0
102
RTVSPropertyOp52
 70
     0
102
RTVSPropertyOp53
 70
     1
102
RTVSPropertyOp54
 70
     1
102
RTVSPropertyOp55
 70
     1
102
RTVSPropertyOp56
 70
     1
102
RTVSPropertyOp57
 70
     1
102
RTVSPropertyOp58
 70
     1
102
RTVSPropertyOp59
 70
     1
102
RTVSPropertyOp60
 70
     1
102
RTVSPropertyOp61
 70
     1
102
RTVSPropertyOp62
 70
     1
  0
XRECORD
  5
7C4
102
{ACAD_REACTORS
330
7C3
102
}
330
7C3
100
AcDbXrecord
280
     1
102
RTVSPost2010Prop28
280
     0
102
RTVSPost2010PropOp28
 70
     1
102
RTVSPost2010Prop29
280
     1
102
RTVSPost2010PropOp29
 70
     1
102
RTVSPost2010Prop30
280
     1
102
RTVSPost2010PropOp30
 70
     1
102
RTVSPost2010Prop31
280
     0
102
RTVSPost2010PropOp31
 70
     1
102
RTVSPost2010Prop32
280
     0
102
RTVSPost2010PropOp32
 70
     1
102
RTVSPost2010Prop33
280
     0
102
RTVSPost2010PropOp33
 70
     1
102
RTVSPost2010Prop34
280
     0
102
RTVSPost2010PropOp34
 70
     1
102
RTVSPost2010Prop35
280
     0
102
RTVSPost2010PropOp35
 70
     1
102
RTVSPost2010Prop36
280
     0
102
RTVSPost2010PropOp36
 70
     1
102
RTVSPost2010Prop37
 90
       50
102
RTVSPost2010PropOp37
 70
     1
102
RTVSPost2010Prop38
140
0.0
102
RTVSPost2010PropOp38
 70
     1
102
RTVSPost2010Prop39
140
1.0
102
RTVSPost2010PropOp39
 70
     1
102
RTVSPost2010Prop40
 90
        0
102
RTVSPost2010PropOp40
 70
     1
102
RTVSPost2010Prop41ColorIndex
 90
       18
102
RTVSPost2010Prop41ColorRGB
 90
        0
102
RTVSPost2010PropOp41
 70
     1
102
RTVSPost2010Prop42
 90
       50
102
RTVSPost2010PropOp42
 70
     1
102
RTVSPost2010Prop43
 90
        3
102
RTVSPost2010PropOp43
 70
     1
102
RTVSPost2010Prop44ColorIndex
 90
        5
102
RTVSPost2010Prop44ColorRGB
 90
      255
102
RTVSPost2010PropOp44
 70
     1
102
RTVSPost2010Prop45
280
     0
102
RTVSPost2010PropOp45
 70
     1
102
RTVSPost2010Prop46
 90
       50
102
RTVSPost2010PropOp46
 70
     1
102
RTVSPost2010Prop47
 90
       50
102
RTVSPost2010PropOp47
 70
     1
102
RTVSPost2010Prop48
 90
       50
102
RTVSPost2010PropOp48
 70
     1
102
RTVSPost2010Prop49
280
     0
102
RTVSPost2010PropOp49
 70
     1
102
RTVSPost2010Prop50
 90
       50
102
RTVSPost2010PropOp50
 70
     1
102
RTVSPost2010Prop51ColorIndex
 90
      256
102
RTVSPost2010Prop51ColorRGB
 90
-16777216
102
RTVSPost2010PropOp51
 70
     0
102
RTVSPost2010Prop52
140
1.0
102
RTVSPost2010PropOp52
 70
     0
102
RTVSPost2010Prop53
 90
        2
102
RTVSPost2010PropOp53
 70
     1
102
RTVSPost2010Prop54
  1
strokes_ogs.tif
102
RTVSPost2010PropOp54
 70
     1
102
RTVSPost2010Prop55
280
     0
102
RTVSPost2010PropOp55
 70
     1
102
RTVSPost2010Prop56
140
1.0
102
RTVSPost2010PropOp56
 70
     1
102
RTVSPost2010Prop57
140
1.0
102
RTVSPost2010PropOp57
 70
     1
102
RTVSPropertyOp0
 70
     1
102
RTVSPropertyOp1
 70
     1
102
RTVSPropertyOp2
 70
     1
102
RTVSPropertyOp3
 70
     1
102
RTVSPropertyOp4
 70
     1
102
RTVSPropertyOp5
 70
     1
102
RTVSPropertyOp6
 70
     1
102
RTVSPropertyOp7
 70
     1
102
RTVSPropertyOp8
 70
     1
102
RTVSPropertyOp9
 70
     1
102
RTVSPropertyOp10
 70
     1
102
RTVSPropertyOp11
 70
     1
102
RTVSPropertyOp12
 70
     1
102
RTVSPropertyOp13
 70
     1
102
RTVSPropertyOp14
 70
     1
102
RTVSPropertyOp15
 70
     1
102
RTVSPropertyOp16
 70
     1
102
RTVSPropertyOp17
 70
     1
102
RTVSPropertyOp18
 70
     1
102
RTVSPropertyOp19
 70
     1
102
RTVSPropertyOp20
 70
     1
102
RTVSPropertyOp21
 70
     1
102
RTVSPropertyOp22
 70
     1
102
RTVSPropertyOp23
 70
     1
102
RTVSPropertyOp24
 70
     1
102
RTVSPropertyOp25
 70
     1
102
RTVSPropertyOp26
 70
     1
102
RTVSPropertyOp27
 70
     1
102
RTVSPropertyOp28
 70
     1
102
RTVSPropertyOp29
 70
     1
102
RTVSPropertyOp30
 70
     1
102
RTVSPropertyOp31
 70
     1
102
RTVSPropertyOp32
 70
     1
102
RTVSPropertyOp33
 70
     1
102
RTVSPropertyOp34
 70
     1
102
RTVSPropertyOp35
 70
     1
102
RTVSPropertyOp36
 70
     1
102
RTVSPropertyOp37
 70
     1
102
RTVSPropertyOp38
 70
     1
102
RTVSPropertyOp39
 70
     1
102
RTVSPropertyOp40
 70
     1
102
RTVSPropertyOp41
 70
     1
102
RTVSPropertyOp42
 70
     1
102
RTVSPropertyOp43
 70
     1
102
RTVSPropertyOp44
 70
     1
102
RTVSPropertyOp45
 70
     1
102
RTVSPropertyOp46
 70
     1
102
RTVSPropertyOp47
 70
     1
102
RTVSPropertyOp48
 70
     1
102
RTVSPropertyOp49
 70
     1
102
RTVSPropertyOp50
 70
     1
102
RTVSPropertyOp51
 70
     0
102
RTVSPropertyOp52
 70
     0
102
RTVSPropertyOp53
 70
     1
102
RTVSPropertyOp54
 70
     1
102
RTVSPropertyOp55
 70
     1
102
RTVSPropertyOp56
 70
     1
102
RTVSPropertyOp57
 70
     1
102
RTVSPropertyOp58
 70
     1
102
RTVSPropertyOp59
 70
     1
102
RTVSPropertyOp60
 70
     1
102
RTVSPropertyOp61
 70
     1
102
RTVSPropertyOp62
 70
     1
  0
XRECORD
  5
7C6
102
{ACAD_REACTORS
330
7C5
102
}
330
7C5
100
AcDbXrecord
280
     1
102
RTVSPost2010Prop28
280
     0
102
RTVSPost2010PropOp28
 70
     1
102
RTVSPost2010Prop29
280
     1
102
RTVSPost2010PropOp29
 70
     1
102
RTVSPost2010Prop30
280
     1
102
RTVSPost2010PropOp30
 70
     1
102
RTVSPost2010Prop31
280
     0
102
RTVSPost2010PropOp31
 70
     1
102
RTVSPost2010Prop32
280
     0
102
RTVSPost2010PropOp32
 70
     1
102
RTVSPost2010Prop33
280
     0
102
RTVSPost2010PropOp33
 70
     1
102
RTVSPost2010Prop34
280
     0
102
RTVSPost2010PropOp34
 70
     1
102
RTVSPost2010Prop35
280
     0
102
RTVSPost2010PropOp35
 70
     1
102
RTVSPost2010Prop36
280
     0
102
RTVSPost2010PropOp36
 70
     1
102
RTVSPost2010Prop37
 90
       50
102
RTVSPost2010PropOp37
 70
     1
102
RTVSPost2010Prop38
140
0.0
102
RTVSPost2010PropOp38
 70
     1
102
RTVSPost2010Prop39
140
1.0
102
RTVSPost2010PropOp39
 70
     1
102
RTVSPost2010Prop40
 90
        0
102
RTVSPost2010PropOp40
 70
     1
102
RTVSPost2010Prop41ColorIndex
 90
       18
102
RTVSPost2010Prop41ColorRGB
 90
        0
102
RTVSPost2010PropOp41
 70
     1
102
RTVSPost2010Prop42
 90
       50
102
RTVSPost2010PropOp42
 70
     1
102
RTVSPost2010Prop43
 90
        3
102
RTVSPost2010PropOp43
 70
     1
102
RTVSPost2010Prop44ColorIndex
 90
        5
102
RTVSPost2010Prop44ColorRGB
 90
      255
102
RTVSPost2010PropOp44
 70
     1
102
RTVSPost2010Prop45
280
     0
102
RTVSPost2010PropOp45
 70
     1
102
RTVSPost2010Prop46
 90
       50
102
RTVSPost2010PropOp46
 70
     1
102
RTVSPost2010Prop47
 90
       50
102
RTVSPost2010PropOp47
 70
     1
102
RTVSPost2010Prop48
 90
       50
102
RTVSPost2010PropOp48
 70
     1
102
RTVSPost2010Prop49
280
     0
102
RTVSPost2010PropOp49
 70
     1
102
RTVSPost2010Prop50
 90
       50
102
RTVSPost2010PropOp50
 70
     1
102
RTVSPost2010Prop51ColorIndex
 90
      256
102
RTVSPost2010Prop51ColorRGB
 90
-16777216
102
RTVSPost2010PropOp51
 70
     0
102
RTVSPost2010Prop52
140
1.0
102
RTVSPost2010PropOp52
 70
     0
102
RTVSPost2010Prop53
 90
        2
102
RTVSPost2010PropOp53
 70
     1
102
RTVSPost2010Prop54
  1
strokes_ogs.tif
102
RTVSPost2010PropOp54
 70
     1
102
RTVSPost2010Prop55
280
     0
102
RTVSPost2010PropOp55
 70
     1
102
RTVSPost2010Prop56
140
1.0
102
RTVSPost2010PropOp56
 70
     1
102
RTVSPost2010Prop57
140
1.0
102
RTVSPost2010PropOp57
 70
     1
102
RTVSPropertyOp0
 70
     1
102
RTVSPropertyOp1
 70
     1
102
RTVSPropertyOp2
 70
     1
102
RTVSPropertyOp3
 70
     1
102
RTVSPropertyOp4
 70
     1
102
RTVSPropertyOp5
 70
     1
102
RTVSPropertyOp6
 70
     1
102
RTVSPropertyOp7
 70
     1
102
RTVSPropertyOp8
 70
     1
102
RTVSPropertyOp9
 70
     1
102
RTVSPropertyOp10
 70
     1
102
RTVSPropertyOp11
 70
     1
102
RTVSPropertyOp12
 70
     1
102
RTVSPropertyOp13
 70
     1
102
RTVSPropertyOp14
 70
     1
102
RTVSPropertyOp15
 70
     1
102
RTVSPropertyOp16
 70
     1
102
RTVSPropertyOp17
 70
     1
102
RTVSPropertyOp18
 70
     1
102
RTVSPropertyOp19
 70
     1
102
RTVSPropertyOp20
 70
     1
102
RTVSPropertyOp21
 70
     1
102
RTVSPropertyOp22
 70
     1
102
RTVSPropertyOp23
 70
     1
102
RTVSPropertyOp24
 70
     1
102
RTVSPropertyOp25
 70
     1
102
RTVSPropertyOp26
 70
     1
102
RTVSPropertyOp27
 70
     1
102
RTVSPropertyOp28
 70
     1
102
RTVSPropertyOp29
 70
     1
102
RTVSPropertyOp30
 70
     1
102
RTVSPropertyOp31
 70
     1
102
RTVSPropertyOp32
 70
     1
102
RTVSPropertyOp33
 70
     1
102
RTVSPropertyOp34
 70
     1
102
RTVSPropertyOp35
 70
     1
102
RTVSPropertyOp36
 70
     1
102
RTVSPropertyOp37
 70
     1
102
RTVSPropertyOp38
 70
     1
102
RTVSPropertyOp39
 70
     1
102
RTVSPropertyOp40
 70
     1
102
RTVSPropertyOp41
 70
     1
102
RTVSPropertyOp42
 70
     1
102
RTVSPropertyOp43
 70
     1
102
RTVSPropertyOp44
 70
     1
102
RTVSPropertyOp45
 70
     1
102
RTVSPropertyOp46
 70
     1
102
RTVSPropertyOp47
 70
     1
102
RTVSPropertyOp48
 70
     1
102
RTVSPropertyOp49
 70
     1
102
RTVSPropertyOp50
 70
     1
102
RTVSPropertyOp51
 70
     0
102
RTVSPropertyOp52
 70
     0
102
RTVSPropertyOp53
 70
     1
102
RTVSPropertyOp54
 70
     1
102
RTVSPropertyOp55
 70
     1
102
RTVSPropertyOp56
 70
     1
102
RTVSPropertyOp57
 70
     1
102
RTVSPropertyOp58
 70
     1
102
RTVSPropertyOp59
 70
     1
102
RTVSPropertyOp60
 70
     1
102
RTVSPropertyOp61
 70
     1
102
RTVSPropertyOp62
 70
     1
  0
XRECORD
  5
7C8
102
{ACAD_REACTORS
330
7C7
102
}
330
7C7
100
AcDbXrecord
280
     1
102
RTVSPost2010Prop28
280
     0
102
RTVSPost2010PropOp28
 70
     1
102
RTVSPost2010Prop29
280
     1
102
RTVSPost2010PropOp29
 70
     1
102
RTVSPost2010Prop30
280
     1
102
RTVSPost2010PropOp30
 70
     1
102
RTVSPost2010Prop31
280
     0
102
RTVSPost2010PropOp31
 70
     1
102
RTVSPost2010Prop32
280
     0
102
RTVSPost2010PropOp32
 70
     1
102
RTVSPost2010Prop33
280
     0
102
RTVSPost2010PropOp33
 70
     1
102
RTVSPost2010Prop34
280
     0
102
RTVSPost2010PropOp34
 70
     1
102
RTVSPost2010Prop35
280
     0
102
RTVSPost2010PropOp35
 70
     1
102
RTVSPost2010Prop36
280
     0
102
RTVSPost2010PropOp36
 70
     1
102
RTVSPost2010Prop37
 90
       50
102
RTVSPost2010PropOp37
 70
     1
102
RTVSPost2010Prop38
140
0.0
102
RTVSPost2010PropOp38
 70
     1
102
RTVSPost2010Prop39
140
1.0
102
RTVSPost2010PropOp39
 70
     1
102
RTVSPost2010Prop40
 90
        0
102
RTVSPost2010PropOp40
 70
     1
102
RTVSPost2010Prop41ColorIndex
 90
       18
102
RTVSPost2010Prop41ColorRGB
 90
        0
102
RTVSPost2010PropOp41
 70
     1
102
RTVSPost2010Prop42
 90
       50
102
RTVSPost2010PropOp42
 70
     1
102
RTVSPost2010Prop43
 90
        3
102
RTVSPost2010PropOp43
 70
     1
102
RTVSPost2010Prop44ColorIndex
 90
        5
102
RTVSPost2010Prop44ColorRGB
 90
      255
102
RTVSPost2010PropOp44
 70
     1
102
RTVSPost2010Prop45
280
     0
102
RTVSPost2010PropOp45
 70
     1
102
RTVSPost2010Prop46
 90
       50
102
RTVSPost2010PropOp46
 70
     1
102
RTVSPost2010Prop47
 90
       50
102
RTVSPost2010PropOp47
 70
     1
102
RTVSPost2010Prop48
 90
       50
102
RTVSPost2010PropOp48
 70
     1
102
RTVSPost2010Prop49
280
     0
102
RTVSPost2010PropOp49
 70
     1
102
RTVSPost2010Prop50
 90
       50
102
RTVSPost2010PropOp50
 70
     1
102
RTVSPost2010Prop51ColorIndex
 90
      256
102
RTVSPost2010Prop51ColorRGB
 90
-16777216
102
RTVSPost2010PropOp51
 70
     0
102
RTVSPost2010Prop52
140
1.0
102
RTVSPost2010PropOp52
 70
     0
102
RTVSPost2010Prop53
 90
        2
102
RTVSPost2010PropOp53
 70
     1
102
RTVSPost2010Prop54
  1
strokes_ogs.tif
102
RTVSPost2010PropOp54
 70
     1
102
RTVSPost2010Prop55
280
     0
102
RTVSPost2010PropOp55
 70
     1
102
RTVSPost2010Prop56
140
1.0
102
RTVSPost2010PropOp56
 70
     1
102
RTVSPost2010Prop57
140
1.0
102
RTVSPost2010PropOp57
 70
     1
102
RTVSPropertyOp0
 70
     1
102
RTVSPropertyOp1
 70
     1
102
RTVSPropertyOp2
 70
     1
102
RTVSPropertyOp3
 70
     1
102
RTVSPropertyOp4
 70
     1
102
RTVSPropertyOp5
 70
     1
102
RTVSPropertyOp6
 70
     1
102
RTVSPropertyOp7
 70
     1
102
RTVSPropertyOp8
 70
     1
102
RTVSPropertyOp9
 70
     1
102
RTVSPropertyOp10
 70
     1
102
RTVSPropertyOp11
 70
     1
102
RTVSPropertyOp12
 70
     1
102
RTVSPropertyOp13
 70
     1
102
RTVSPropertyOp14
 70
     1
102
RTVSPropertyOp15
 70
     1
102
RTVSPropertyOp16
 70
     1
102
RTVSPropertyOp17
 70
     1
102
RTVSPropertyOp18
 70
     1
102
RTVSPropertyOp19
 70
     1
102
RTVSPropertyOp20
 70
     1
102
RTVSPropertyOp21
 70
     1
102
RTVSPropertyOp22
 70
     1
102
RTVSPropertyOp23
 70
     1
102
RTVSPropertyOp24
 70
     1
102
RTVSPropertyOp25
 70
     1
102
RTVSPropertyOp26
 70
     1
102
RTVSPropertyOp27
 70
     1
102
RTVSPropertyOp28
 70
     1
102
RTVSPropertyOp29
 70
     1
102
RTVSPropertyOp30
 70
     1
102
RTVSPropertyOp31
 70
     1
102
RTVSPropertyOp32
 70
     1
102
RTVSPropertyOp33
 70
     1
102
RTVSPropertyOp34
 70
     1
102
RTVSPropertyOp35
 70
     1
102
RTVSPropertyOp36
 70
     1
102
RTVSPropertyOp37
 70
     1
102
RTVSPropertyOp38
 70
     1
102
RTVSPropertyOp39
 70
     1
102
RTVSPropertyOp40
 70
     1
102
RTVSPropertyOp41
 70
     1
102
RTVSPropertyOp42
 70
     1
102
RTVSPropertyOp43
 70
     1
102
RTVSPropertyOp44
 70
     1
102
RTVSPropertyOp45
 70
     1
102
RTVSPropertyOp46
 70
     1
102
RTVSPropertyOp47
 70
     1
102
RTVSPropertyOp48
 70
     1
102
RTVSPropertyOp49
 70
     1
102
RTVSPropertyOp50
 70
     1
102
RTVSPropertyOp51
 70
     0
102
RTVSPropertyOp52
 70
     0
102
RTVSPropertyOp53
 70
     1
102
RTVSPropertyOp54
 70
     1
102
RTVSPropertyOp55
 70
     1
102
RTVSPropertyOp56
 70
     1
102
RTVSPropertyOp57
 70
     1
102
RTVSPropertyOp58
 70
     1
102
RTVSPropertyOp59
 70
     1
102
RTVSPropertyOp60
 70
     1
102
RTVSPropertyOp61
 70
     1
102
RTVSPropertyOp62
 70
     1
  0
XRECORD
  5
7D0
102
{ACAD_REACTORS
330
7CF
102
}
330
7CF
100
AcDbXrecord
280
     1
102
RTVSPost2010Prop28
280
     0
102
RTVSPost2010PropOp28
 70
     1
102
RTVSPost2010Prop29
280
     1
102
RTVSPost2010PropOp29
 70
     1
102
RTVSPost2010Prop30
280
     1
102
RTVSPost2010PropOp30
 70
     1
102
RTVSPost2010Prop31
280
     0
102
RTVSPost2010PropOp31
 70
     1
102
RTVSPost2010Prop32
280
     0
102
RTVSPost2010PropOp32
 70
     1
102
RTVSPost2010Prop33
280
     0
102
RTVSPost2010PropOp33
 70
     1
102
RTVSPost2010Prop34
280
     0
102
RTVSPost2010PropOp34
 70
     1
102
RTVSPost2010Prop35
280
     0
102
RTVSPost2010PropOp35
 70
     1
102
RTVSPost2010Prop36
280
     0
102
RTVSPost2010PropOp36
 70
     1
102
RTVSPost2010Prop37
 90
       50
102
RTVSPost2010PropOp37
 70
     1
102
RTVSPost2010Prop38
140
0.0
102
RTVSPost2010PropOp38
 70
     1
102
RTVSPost2010Prop39
140
1.0
102
RTVSPost2010PropOp39
 70
     1
102
RTVSPost2010Prop40
 90
        0
102
RTVSPost2010PropOp40
 70
     1
102
RTVSPost2010Prop41ColorIndex
 90
       18
102
RTVSPost2010Prop41ColorRGB
 90
        0
102
RTVSPost2010PropOp41
 70
     1
102
RTVSPost2010Prop42
 90
       50
102
RTVSPost2010PropOp42
 70
     1
102
RTVSPost2010Prop43
 90
        3
102
RTVSPost2010PropOp43
 70
     1
102
RTVSPost2010Prop44ColorIndex
 90
        5
102
RTVSPost2010Prop44ColorRGB
 90
      255
102
RTVSPost2010PropOp44
 70
     1
102
RTVSPost2010Prop45
280
     0
102
RTVSPost2010PropOp45
 70
     1
102
RTVSPost2010Prop46
 90
       50
102
RTVSPost2010PropOp46
 70
     1
102
RTVSPost2010Prop47
 90
       50
102
RTVSPost2010PropOp47
 70
     1
102
RTVSPost2010Prop48
 90
       50
102
RTVSPost2010PropOp48
 70
     1
102
RTVSPost2010Prop49
280
     0
102
RTVSPost2010PropOp49
 70
     1
102
RTVSPost2010Prop50
 90
       50
102
RTVSPost2010PropOp50
 70
     1
102
RTVSPost2010Prop51ColorIndex
 90
      256
102
RTVSPost2010Prop51ColorRGB
 90
-16777216
102
RTVSPost2010PropOp51
 70
     0
102
RTVSPost2010Prop52
140
1.0
102
RTVSPost2010PropOp52
 70
     0
102
RTVSPost2010Prop53
 90
        2
102
RTVSPost2010PropOp53
 70
     1
102
RTVSPost2010Prop54
  1
strokes_ogs.tif
102
RTVSPost2010PropOp54
 70
     1
102
RTVSPost2010Prop55
280
     0
102
RTVSPost2010PropOp55
 70
     1
102
RTVSPost2010Prop56
140
1.0
102
RTVSPost2010PropOp56
 70
     1
102
RTVSPost2010Prop57
140
1.0
102
RTVSPost2010PropOp57
 70
     1
102
RTVSPropertyOp0
 70
     1
102
RTVSPropertyOp1
 70
     1
102
RTVSPropertyOp2
 70
     1
102
RTVSPropertyOp3
 70
     1
102
RTVSPropertyOp4
 70
     1
102
RTVSPropertyOp5
 70
     1
102
RTVSPropertyOp6
 70
     1
102
RTVSPropertyOp7
 70
     1
102
RTVSPropertyOp8
 70
     1
102
RTVSPropertyOp9
 70
     1
102
RTVSPropertyOp10
 70
     1
102
RTVSPropertyOp11
 70
     1
102
RTVSPropertyOp12
 70
     1
102
RTVSPropertyOp13
 70
     1
102
RTVSPropertyOp14
 70
     1
102
RTVSPropertyOp15
 70
     1
102
RTVSPropertyOp16
 70
     1
102
RTVSPropertyOp17
 70
     1
102
RTVSPropertyOp18
 70
     1
102
RTVSPropertyOp19
 70
     1
102
RTVSPropertyOp20
 70
     1
102
RTVSPropertyOp21
 70
     1
102
RTVSPropertyOp22
 70
     1
102
RTVSPropertyOp23
 70
     1
102
RTVSPropertyOp24
 70
     1
102
RTVSPropertyOp25
 70
     1
102
RTVSPropertyOp26
 70
     1
102
RTVSPropertyOp27
 70
     1
102
RTVSPropertyOp28
 70
     1
102
RTVSPropertyOp29
 70
     1
102
RTVSPropertyOp30
 70
     1
102
RTVSPropertyOp31
 70
     1
102
RTVSPropertyOp32
 70
     1
102
RTVSPropertyOp33
 70
     1
102
RTVSPropertyOp34
 70
     1
102
RTVSPropertyOp35
 70
     1
102
RTVSPropertyOp36
 70
     1
102
RTVSPropertyOp37
 70
     1
102
RTVSPropertyOp38
 70
     1
102
RTVSPropertyOp39
 70
     1
102
RTVSPropertyOp40
 70
     1
102
RTVSPropertyOp41
 70
     1
102
RTVSPropertyOp42
 70
     1
102
RTVSPropertyOp43
 70
     1
102
RTVSPropertyOp44
 70
     1
102
RTVSPropertyOp45
 70
     1
102
RTVSPropertyOp46
 70
     1
102
RTVSPropertyOp47
 70
     1
102
RTVSPropertyOp48
 70
     1
102
RTVSPropertyOp49
 70
     1
102
RTVSPropertyOp50
 70
     1
102
RTVSPropertyOp51
 70
     0
102
RTVSPropertyOp52
 70
     0
102
RTVSPropertyOp53
 70
     1
102
RTVSPropertyOp54
 70
     1
102
RTVSPropertyOp55
 70
     1
102
RTVSPropertyOp56
 70
     1
102
RTVSPropertyOp57
 70
     1
102
RTVSPropertyOp58
 70
     1
102
RTVSPropertyOp59
 70
     1
102
RTVSPropertyOp60
 70
     1
102
RTVSPropertyOp61
 70
     1
102
RTVSPropertyOp62
 70
     1
  0
XRECORD
  5
7EC
102
{ACAD_REACTORS
330
7EB
102
}
330
7EB
100
AcDbXrecord
280
     1
102
RTVSPost2010Prop28
280
     0
102
RTVSPost2010PropOp28
 70
     1
102
RTVSPost2010Prop29
280
     1
102
RTVSPost2010PropOp29
 70
     1
102
RTVSPost2010Prop30
280
     1
102
RTVSPost2010PropOp30
 70
     1
102
RTVSPost2010Prop31
280
     0
102
RTVSPost2010PropOp31
 70
     1
102
RTVSPost2010Prop32
280
     0
102
RTVSPost2010PropOp32
 70
     1
102
RTVSPost2010Prop33
280
     0
102
RTVSPost2010PropOp33
 70
     1
102
RTVSPost2010Prop34
280
     0
102
RTVSPost2010PropOp34
 70
     1
102
RTVSPost2010Prop35
280
     0
102
RTVSPost2010PropOp35
 70
     1
102
RTVSPost2010Prop36
280
     0
102
RTVSPost2010PropOp36
 70
     1
102
RTVSPost2010Prop37
 90
       50
102
RTVSPost2010PropOp37
 70
     0
102
RTVSPost2010Prop38
140
0.0
102
RTVSPost2010PropOp38
 70
     0
102
RTVSPost2010Prop39
140
1.0
102
RTVSPost2010PropOp39
 70
     0
102
RTVSPost2010Prop40
 90
        0
102
RTVSPost2010PropOp40
 70
     0
102
RTVSPost2010Prop41ColorIndex
 90
       18
102
RTVSPost2010Prop41ColorRGB
 90
        0
102
RTVSPost2010PropOp41
 70
     0
102
RTVSPost2010Prop42
 90
       50
102
RTVSPost2010PropOp42
 70
     0
102
RTVSPost2010Prop43
 90
        3
102
RTVSPost2010PropOp43
 70
     0
102
RTVSPost2010Prop44ColorIndex
 90
        5
102
RTVSPost2010Prop44ColorRGB
 90
      255
102
RTVSPost2010PropOp44
 70
     0
102
RTVSPost2010Prop45
280
     0
102
RTVSPost2010PropOp45
 70
     1
102
RTVSPost2010Prop46
 90
       50
102
RTVSPost2010PropOp46
 70
     0
102
RTVSPost2010Prop47
 90
       50
102
RTVSPost2010PropOp47
 70
     0
102
RTVSPost2010Prop48
 90
       50
102
RTVSPost2010PropOp48
 70
     0
102
RTVSPost2010Prop49
280
     0
102
RTVSPost2010PropOp49
 70
     1
102
RTVSPost2010Prop50
 90
       50
102
RTVSPost2010PropOp50
 70
     0
102
RTVSPost2010Prop51ColorIndex
 90
      256
102
RTVSPost2010Prop51ColorRGB
 90
-16777216
102
RTVSPost2010PropOp51
 70
     0
102
RTVSPost2010Prop52
140
1.0
102
RTVSPost2010PropOp52
 70
     0
102
RTVSPost2010Prop53
 90
        2
102
RTVSPost2010PropOp53
 70
     0
102
RTVSPost2010Prop54
  1
strokes_ogs.tif
102
RTVSPost2010PropOp54
 70
     0
102
RTVSPost2010Prop55
280
     0
102
RTVSPost2010PropOp55
 70
     1
102
RTVSPost2010Prop56
140
1.0
102
RTVSPost2010PropOp56
 70
     0
102
RTVSPost2010Prop57
140
1.0
102
RTVSPost2010PropOp57
 70
     0
102
RTVSPropertyOp0
 70
     0
102
RTVSPropertyOp1
 70
     0
102
RTVSPropertyOp2
 70
     0
102
RTVSPropertyOp3
 70
     0
102
RTVSPropertyOp4
 70
     0
102
RTVSPropertyOp5
 70
     0
102
RTVSPropertyOp6
 70
     0
102
RTVSPropertyOp7
 70
     0
102
RTVSPropertyOp8
 70
     0
102
RTVSPropertyOp9
 70
     0
102
RTVSPropertyOp10
 70
     0
102
RTVSPropertyOp11
 70
     0
102
RTVSPropertyOp12
 70
     0
102
RTVSPropertyOp13
 70
     0
102
RTVSPropertyOp14
 70
     2
102
RTVSPropertyOp15
 70
     0
102
RTVSPropertyOp16
 70
     0
102
RTVSPropertyOp17
 70
     0
102
RTVSPropertyOp18
 70
     0
102
RTVSPropertyOp19
 70
     0
102
RTVSPropertyOp20
 70
     0
102
RTVSPropertyOp21
 70
     0
102
RTVSPropertyOp22
 70
     0
102
RTVSPropertyOp23
 70
     0
102
RTVSPropertyOp24
 70
     0
102
RTVSPropertyOp25
 70
     0
102
RTVSPropertyOp26
 70
     0
102
RTVSPropertyOp27
 70
     0
102
RTVSPropertyOp28
 70
     1
102
RTVSPropertyOp29
 70
     1
102
RTVSPropertyOp30
 70
     1
102
RTVSPropertyOp31
 70
     1
102
RTVSPropertyOp32
 70
     1
102
RTVSPropertyOp33
 70
     1
102
RTVSPropertyOp34
 70
     1
102
RTVSPropertyOp35
 70
     1
102
RTVSPropertyOp36
 70
     1
102
RTVSPropertyOp37
 70
     0
102
RTVSPropertyOp38
 70
     0
102
RTVSPropertyOp39
 70
     0
102
RTVSPropertyOp40
 70
     0
102
RTVSPropertyOp41
 70
     0
102
RTVSPropertyOp42
 70
     0
102
RTVSPropertyOp43
 70
     0
102
RTVSPropertyOp44
 70
     0
102
RTVSPropertyOp45
 70
     1
102
RTVSPropertyOp46
 70
     0
102
RTVSPropertyOp47
 70
     0
102
RTVSPropertyOp48
 70
     0
102
RTVSPropertyOp49
 70
     1
102
RTVSPropertyOp50
 70
     0
102
RTVSPropertyOp51
 70
     0
102
RTVSPropertyOp52
 70
     0
102
RTVSPropertyOp53
 70
     0
102
RTVSPropertyOp54
 70
     0
102
RTVSPropertyOp55
 70
     1
102
RTVSPropertyOp56
 70
     0
102
RTVSPropertyOp57
 70
     0
102
RTVSPropertyOp58
 70
     0
102
RTVSPropertyOp59
 70
     0
102
RTVSPropertyOp60
 70
     0
102
RTVSPropertyOp61
 70
     0
102
RTVSPropertyOp62
 70
     0
  0
XRECORD
  5
7DC
102
{ACAD_REACTORS
330
7DB
102
}
330
7DB
100
AcDbXrecord
280
     1
102
RTVSPost2010Prop28
280
     0
102
RTVSPost2010PropOp28
 70
     1
102
RTVSPost2010Prop29
280
     1
102
RTVSPost2010PropOp29
 70
     1
102
RTVSPost2010Prop30
280
     1
102
RTVSPost2010PropOp30
 70
     1
102
RTVSPost2010Prop31
280
     0
102
RTVSPost2010PropOp31
 70
     1
102
RTVSPost2010Prop32
280
     0
102
RTVSPost2010PropOp32
 70
     1
102
RTVSPost2010Prop33
280
     0
102
RTVSPost2010PropOp33
 70
     1
102
RTVSPost2010Prop34
280
     0
102
RTVSPost2010PropOp34
 70
     1
102
RTVSPost2010Prop35
280
     0
102
RTVSPost2010PropOp35
 70
     1
102
RTVSPost2010Prop36
280
     0
102
RTVSPost2010PropOp36
 70
     1
102
RTVSPost2010Prop37
 90
       50
102
RTVSPost2010PropOp37
 70
     1
102
RTVSPost2010Prop38
140
0.0
102
RTVSPost2010PropOp38
 70
     1
102
RTVSPost2010Prop39
140
1.0
102
RTVSPost2010PropOp39
 70
     1
102
RTVSPost2010Prop40
 90
        0
102
RTVSPost2010PropOp40
 70
     1
102
RTVSPost2010Prop41ColorIndex
 90
       18
102
RTVSPost2010Prop41ColorRGB
 90
        0
102
RTVSPost2010PropOp41
 70
     1
102
RTVSPost2010Prop42
 90
       50
102
RTVSPost2010PropOp42
 70
     1
102
RTVSPost2010Prop43
 90
        3
102
RTVSPost2010PropOp43
 70
     1
102
RTVSPost2010Prop44ColorIndex
 90
        5
102
RTVSPost2010Prop44ColorRGB
 90
      255
102
RTVSPost2010PropOp44
 70
     1
102
RTVSPost2010Prop45
280
     0
102
RTVSPost2010PropOp45
 70
     1
102
RTVSPost2010Prop46
 90
       50
102
RTVSPost2010PropOp46
 70
     1
102
RTVSPost2010Prop47
 90
       50
102
RTVSPost2010PropOp47
 70
     1
102
RTVSPost2010Prop48
 90
       50
102
RTVSPost2010PropOp48
 70
     1
102
RTVSPost2010Prop49
280
     0
102
RTVSPost2010PropOp49
 70
     1
102
RTVSPost2010Prop50
 90
       50
102
RTVSPost2010PropOp50
 70
     1
102
RTVSPost2010Prop51ColorIndex
 90
      256
102
RTVSPost2010Prop51ColorRGB
 90
-16777216
102
RTVSPost2010PropOp51
 70
     0
102
RTVSPost2010Prop52
140
1.0
102
RTVSPost2010PropOp52
 70
     0
102
RTVSPost2010Prop53
 90
        2
102
RTVSPost2010PropOp53
 70
     1
102
RTVSPost2010Prop54
  1
strokes_ogs.tif
102
RTVSPost2010PropOp54
 70
     1
102
RTVSPost2010Prop55
280
     0
102
RTVSPost2010PropOp55
 70
     1
102
RTVSPost2010Prop56
140
1.0
102
RTVSPost2010PropOp56
 70
     1
102
RTVSPost2010Prop57
140
1.0
102
RTVSPost2010PropOp57
 70
     1
102
RTVSPropertyOp0
 70
     1
102
RTVSPropertyOp1
 70
     1
102
RTVSPropertyOp2
 70
     1
102
RTVSPropertyOp3
 70
     1
102
RTVSPropertyOp4
 70
     1
102
RTVSPropertyOp5
 70
     1
102
RTVSPropertyOp6
 70
     1
102
RTVSPropertyOp7
 70
     1
102
RTVSPropertyOp8
 70
     1
102
RTVSPropertyOp9
 70
     1
102
RTVSPropertyOp10
 70
     1
102
RTVSPropertyOp11
 70
     1
102
RTVSPropertyOp12
 70
     1
102
RTVSPropertyOp13
 70
     1
102
RTVSPropertyOp14
 70
     1
102
RTVSPropertyOp15
 70
     1
102
RTVSPropertyOp16
 70
     1
102
RTVSPropertyOp17
 70
     1
102
RTVSPropertyOp18
 70
     1
102
RTVSPropertyOp19
 70
     1
102
RTVSPropertyOp20
 70
     1
102
RTVSPropertyOp21
 70
     1
102
RTVSPropertyOp22
 70
     1
102
RTVSPropertyOp23
 70
     1
102
RTVSPropertyOp24
 70
     1
102
RTVSPropertyOp25
 70
     1
102
RTVSPropertyOp26
 70
     1
102
RTVSPropertyOp27
 70
     1
102
RTVSPropertyOp28
 70
     1
102
RTVSPropertyOp29
 70
     1
102
RTVSPropertyOp30
 70
     1
102
RTVSPropertyOp31
 70
     1
102
RTVSPropertyOp32
 70
     1
102
RTVSPropertyOp33
 70
     1
102
RTVSPropertyOp34
 70
     1
102
RTVSPropertyOp35
 70
     1
102
RTVSPropertyOp36
 70
     1
102
RTVSPropertyOp37
 70
     1
102
RTVSPropertyOp38
 70
     1
102
RTVSPropertyOp39
 70
     1
102
RTVSPropertyOp40
 70
     1
102
RTVSPropertyOp41
 70
     1
102
RTVSPropertyOp42
 70
     1
102
RTVSPropertyOp43
 70
     1
102
RTVSPropertyOp44
 70
     1
102
RTVSPropertyOp45
 70
     1
102
RTVSPropertyOp46
 70
     1
102
RTVSPropertyOp47
 70
     1
102
RTVSPropertyOp48
 70
     1
102
RTVSPropertyOp49
 70
     1
102
RTVSPropertyOp50
 70
     1
102
RTVSPropertyOp51
 70
     0
102
RTVSPropertyOp52
 70
     0
102
RTVSPropertyOp53
 70
     1
102
RTVSPropertyOp54
 70
     1
102
RTVSPropertyOp55
 70
     1
102
RTVSPropertyOp56
 70
     1
102
RTVSPropertyOp57
 70
     1
102
RTVSPropertyOp58
 70
     1
102
RTVSPropertyOp59
 70
     1
102
RTVSPropertyOp60
 70
     1
102
RTVSPropertyOp61
 70
     1
102
RTVSPropertyOp62
 70
     1
  0
XRECORD
  5
7EE
102
{ACAD_REACTORS
330
7ED
102
}
330
7ED
100
AcDbXrecord
280
     1
102
RTVSPost2010Prop28
280
     0
102
RTVSPost2010PropOp28
 70
     1
102
RTVSPost2010Prop29
280
     1
102
RTVSPost2010PropOp29
 70
     1
102
RTVSPost2010Prop30
280
     1
102
RTVSPost2010PropOp30
 70
     1
102
RTVSPost2010Prop31
280
     0
102
RTVSPost2010PropOp31
 70
     1
102
RTVSPost2010Prop32
280
     0
102
RTVSPost2010PropOp32
 70
     1
102
RTVSPost2010Prop33
280
     0
102
RTVSPost2010PropOp33
 70
     1
102
RTVSPost2010Prop34
280
     0
102
RTVSPost2010PropOp34
 70
     1
102
RTVSPost2010Prop35
280
     0
102
RTVSPost2010PropOp35
 70
     1
102
RTVSPost2010Prop36
280
     0
102
RTVSPost2010PropOp36
 70
     1
102
RTVSPost2010Prop37
 90
       50
102
RTVSPost2010PropOp37
 70
     0
102
RTVSPost2010Prop38
140
0.0
102
RTVSPost2010PropOp38
 70
     0
102
RTVSPost2010Prop39
140
1.0
102
RTVSPost2010PropOp39
 70
     0
102
RTVSPost2010Prop40
 90
        0
102
RTVSPost2010PropOp40
 70
     0
102
RTVSPost2010Prop41ColorIndex
 90
       18
102
RTVSPost2010Prop41ColorRGB
 90
        0
102
RTVSPost2010PropOp41
 70
     0
102
RTVSPost2010Prop42
 90
       50
102
RTVSPost2010PropOp42
 70
     0
102
RTVSPost2010Prop43
 90
        3
102
RTVSPost2010PropOp43
 70
     0
102
RTVSPost2010Prop44ColorIndex
 90
        5
102
RTVSPost2010Prop44ColorRGB
 90
      255
102
RTVSPost2010PropOp44
 70
     0
102
RTVSPost2010Prop45
280
     0
102
RTVSPost2010PropOp45
 70
     1
102
RTVSPost2010Prop46
 90
       50
102
RTVSPost2010PropOp46
 70
     0
102
RTVSPost2010Prop47
 90
       50
102
RTVSPost2010PropOp47
 70
     0
102
RTVSPost2010Prop48
 90
       50
102
RTVSPost2010PropOp48
 70
     0
102
RTVSPost2010Prop49
280
     0
102
RTVSPost2010PropOp49
 70
     1
102
RTVSPost2010Prop50
 90
       50
102
RTVSPost2010PropOp50
 70
     0
102
RTVSPost2010Prop51ColorIndex
 90
      256
102
RTVSPost2010Prop51ColorRGB
 90
-16777216
102
RTVSPost2010PropOp51
 70
     0
102
RTVSPost2010Prop52
140
1.0
102
RTVSPost2010PropOp52
 70
     0
102
RTVSPost2010Prop53
 90
        2
102
RTVSPost2010PropOp53
 70
     0
102
RTVSPost2010Prop54
  1
strokes_ogs.tif
102
RTVSPost2010PropOp54
 70
     0
102
RTVSPost2010Prop55
280
     0
102
RTVSPost2010PropOp55
 70
     1
102
RTVSPost2010Prop56
140
1.0
102
RTVSPost2010PropOp56
 70
     0
102
RTVSPost2010Prop57
140
1.0
102
RTVSPost2010PropOp57
 70
     0
102
RTVSPropertyOp0
 70
     0
102
RTVSPropertyOp1
 70
     0
102
RTVSPropertyOp2
 70
     0
102
RTVSPropertyOp3
 70
     0
102
RTVSPropertyOp4
 70
     0
102
RTVSPropertyOp5
 70
     0
102
RTVSPropertyOp6
 70
     0
102
RTVSPropertyOp7
 70
     0
102
RTVSPropertyOp8
 70
     0
102
RTVSPropertyOp9
 70
     0
102
RTVSPropertyOp10
 70
     0
102
RTVSPropertyOp11
 70
     0
102
RTVSPropertyOp12
 70
     0
102
RTVSPropertyOp13
 70
     0
102
RTVSPropertyOp14
 70
     2
102
RTVSPropertyOp15
 70
     0
102
RTVSPropertyOp16
 70
     0
102
RTVSPropertyOp17
 70
     0
102
RTVSPropertyOp18
 70
     0
102
RTVSPropertyOp19
 70
     0
102
RTVSPropertyOp20
 70
     0
102
RTVSPropertyOp21
 70
     0
102
RTVSPropertyOp22
 70
     0
102
RTVSPropertyOp23
 70
     0
102
RTVSPropertyOp24
 70
     0
102
RTVSPropertyOp25
 70
     0
102
RTVSPropertyOp26
 70
     0
102
RTVSPropertyOp27
 70
     0
102
RTVSPropertyOp28
 70
     1
102
RTVSPropertyOp29
 70
     1
102
RTVSPropertyOp30
 70
     1
102
RTVSPropertyOp31
 70
     1
102
RTVSPropertyOp32
 70
     1
102
RTVSPropertyOp33
 70
     1
102
RTVSPropertyOp34
 70
     1
102
RTVSPropertyOp35
 70
     1
102
RTVSPropertyOp36
 70
     1
102
RTVSPropertyOp37
 70
     0
102
RTVSPropertyOp38
 70
     0
102
RTVSPropertyOp39
 70
     0
102
RTVSPropertyOp40
 70
     0
102
RTVSPropertyOp41
 70
     0
102
RTVSPropertyOp42
 70
     0
102
RTVSPropertyOp43
 70
     0
102
RTVSPropertyOp44
 70
     0
102
RTVSPropertyOp45
 70
     1
102
RTVSPropertyOp46
 70
     0
102
RTVSPropertyOp47
 70
     0
102
RTVSPropertyOp48
 70
     0
102
RTVSPropertyOp49
 70
     1
102
RTVSPropertyOp50
 70
     0
102
RTVSPropertyOp51
 70
     0
102
RTVSPropertyOp52
 70
     0
102
RTVSPropertyOp53
 70
     0
102
RTVSPropertyOp54
 70
     0
102
RTVSPropertyOp55
 70
     1
102
RTVSPropertyOp56
 70
     0
102
RTVSPropertyOp57
 70
     0
102
RTVSPropertyOp58
 70
     0
102
RTVSPropertyOp59
 70
     0
102
RTVSPropertyOp60
 70
     0
102
RTVSPropertyOp61
 70
     0
102
RTVSPropertyOp62
 70
     0
  0
XRECORD
  5
7D4
102
{ACAD_REACTORS
330
7D3
102
}
330
7D3
100
AcDbXrecord
280
     1
102
RTVSPost2010Prop28
280
     0
102
RTVSPost2010PropOp28
 70
     1
102
RTVSPost2010Prop29
280
     1
102
RTVSPost2010PropOp29
 70
     1
102
RTVSPost2010Prop30
280
     1
102
RTVSPost2010PropOp30
 70
     1
102
RTVSPost2010Prop31
280
     0
102
RTVSPost2010PropOp31
 70
     1
102
RTVSPost2010Prop32
280
     0
102
RTVSPost2010PropOp32
 70
     1
102
RTVSPost2010Prop33
280
     0
102
RTVSPost2010PropOp33
 70
     1
102
RTVSPost2010Prop34
280
     0
102
RTVSPost2010PropOp34
 70
     1
102
RTVSPost2010Prop35
280
     0
102
RTVSPost2010PropOp35
 70
     1
102
RTVSPost2010Prop36
280
     0
102
RTVSPost2010PropOp36
 70
     1
102
RTVSPost2010Prop37
 90
       50
102
RTVSPost2010PropOp37
 70
     1
102
RTVSPost2010Prop38
140
0.0
102
RTVSPost2010PropOp38
 70
     1
102
RTVSPost2010Prop39
140
1.0
102
RTVSPost2010PropOp39
 70
     1
102
RTVSPost2010Prop40
 90
        0
102
RTVSPost2010PropOp40
 70
     1
102
RTVSPost2010Prop41ColorIndex
 90
       18
102
RTVSPost2010Prop41ColorRGB
 90
        0
102
RTVSPost2010PropOp41
 70
     1
102
RTVSPost2010Prop42
 90
       50
102
RTVSPost2010PropOp42
 70
     1
102
RTVSPost2010Prop43
 90
        3
102
RTVSPost2010PropOp43
 70
     1
102
RTVSPost2010Prop44ColorIndex
 90
        5
102
RTVSPost2010Prop44ColorRGB
 90
      255
102
RTVSPost2010PropOp44
 70
     1
102
RTVSPost2010Prop45
280
     0
102
RTVSPost2010PropOp45
 70
     1
102
RTVSPost2010Prop46
 90
       50
102
RTVSPost2010PropOp46
 70
     1
102
RTVSPost2010Prop47
 90
       50
102
RTVSPost2010PropOp47
 70
     1
102
RTVSPost2010Prop48
 90
       50
102
RTVSPost2010PropOp48
 70
     1
102
RTVSPost2010Prop49
280
     0
102
RTVSPost2010PropOp49
 70
     1
102
RTVSPost2010Prop50
 90
       50
102
RTVSPost2010PropOp50
 70
     1
102
RTVSPost2010Prop51ColorIndex
 90
      256
102
RTVSPost2010Prop51ColorRGB
 90
-16777216
102
RTVSPost2010PropOp51
 70
     0
102
RTVSPost2010Prop52
140
1.0
102
RTVSPost2010PropOp52
 70
     0
102
RTVSPost2010Prop53
 90
        2
102
RTVSPost2010PropOp53
 70
     1
102
RTVSPost2010Prop54
  1
strokes_ogs.tif
102
RTVSPost2010PropOp54
 70
     1
102
RTVSPost2010Prop55
280
     0
102
RTVSPost2010PropOp55
 70
     1
102
RTVSPost2010Prop56
140
1.0
102
RTVSPost2010PropOp56
 70
     1
102
RTVSPost2010Prop57
140
1.0
102
RTVSPost2010PropOp57
 70
     1
102
RTVSPropertyOp0
 70
     1
102
RTVSPropertyOp1
 70
     1
102
RTVSPropertyOp2
 70
     1
102
RTVSPropertyOp3
 70
     1
102
RTVSPropertyOp4
 70
     1
102
RTVSPropertyOp5
 70
     1
102
RTVSPropertyOp6
 70
     1
102
RTVSPropertyOp7
 70
     1
102
RTVSPropertyOp8
 70
     1
102
RTVSPropertyOp9
 70
     1
102
RTVSPropertyOp10
 70
     1
102
RTVSPropertyOp11
 70
     1
102
RTVSPropertyOp12
 70
     1
102
RTVSPropertyOp13
 70
     1
102
RTVSPropertyOp14
 70
     1
102
RTVSPropertyOp15
 70
     1
102
RTVSPropertyOp16
 70
     1
102
RTVSPropertyOp17
 70
     1
102
RTVSPropertyOp18
 70
     1
102
RTVSPropertyOp19
 70
     1
102
RTVSPropertyOp20
 70
     1
102
RTVSPropertyOp21
 70
     1
102
RTVSPropertyOp22
 70
     1
102
RTVSPropertyOp23
 70
     1
102
RTVSPropertyOp24
 70
     1
102
RTVSPropertyOp25
 70
     1
102
RTVSPropertyOp26
 70
     1
102
RTVSPropertyOp27
 70
     1
102
RTVSPropertyOp28
 70
     1
102
RTVSPropertyOp29
 70
     1
102
RTVSPropertyOp30
 70
     1
102
RTVSPropertyOp31
 70
     1
102
RTVSPropertyOp32
 70
     1
102
RTVSPropertyOp33
 70
     1
102
RTVSPropertyOp34
 70
     1
102
RTVSPropertyOp35
 70
     1
102
RTVSPropertyOp36
 70
     1
102
RTVSPropertyOp37
 70
     1
102
RTVSPropertyOp38
 70
     1
102
RTVSPropertyOp39
 70
     1
102
RTVSPropertyOp40
 70
     1
102
RTVSPropertyOp41
 70
     1
102
RTVSPropertyOp42
 70
     1
102
RTVSPropertyOp43
 70
     1
102
RTVSPropertyOp44
 70
     1
102
RTVSPropertyOp45
 70
     1
102
RTVSPropertyOp46
 70
     1
102
RTVSPropertyOp47
 70
     1
102
RTVSPropertyOp48
 70
     1
102
RTVSPropertyOp49
 70
     1
102
RTVSPropertyOp50
 70
     1
102
RTVSPropertyOp51
 70
     0
102
RTVSPropertyOp52
 70
     0
102
RTVSPropertyOp53
 70
     1
102
RTVSPropertyOp54
 70
     1
102
RTVSPropertyOp55
 70
     1
102
RTVSPropertyOp56
 70
     1
102
RTVSPropertyOp57
 70
     1
102
RTVSPropertyOp58
 70
     1
102
RTVSPropertyOp59
 70
     1
102
RTVSPropertyOp60
 70
     1
102
RTVSPropertyOp61
 70
     1
102
RTVSPropertyOp62
 70
     1
  0
XRECORD
  5
7EA
102
{ACAD_REACTORS
330
7E9
102
}
330
7E9
100
AcDbXrecord
280
     1
102
RTVSPost2010Prop28
280
     0
102
RTVSPost2010PropOp28
 70
     1
102
RTVSPost2010Prop29
280
     1
102
RTVSPost2010PropOp29
 70
     1
102
RTVSPost2010Prop30
280
     1
102
RTVSPost2010PropOp30
 70
     1
102
RTVSPost2010Prop31
280
     0
102
RTVSPost2010PropOp31
 70
     1
102
RTVSPost2010Prop32
280
     0
102
RTVSPost2010PropOp32
 70
     1
102
RTVSPost2010Prop33
280
     0
102
RTVSPost2010PropOp33
 70
     1
102
RTVSPost2010Prop34
280
     0
102
RTVSPost2010PropOp34
 70
     1
102
RTVSPost2010Prop35
280
     0
102
RTVSPost2010PropOp35
 70
     1
102
RTVSPost2010Prop36
280
     0
102
RTVSPost2010PropOp36
 70
     1
102
RTVSPost2010Prop37
 90
       50
102
RTVSPost2010PropOp37
 70
     1
102
RTVSPost2010Prop38
140
0.0
102
RTVSPost2010PropOp38
 70
     1
102
RTVSPost2010Prop39
140
1.0
102
RTVSPost2010PropOp39
 70
     1
102
RTVSPost2010Prop40
 90
        0
102
RTVSPost2010PropOp40
 70
     1
102
RTVSPost2010Prop41ColorIndex
 90
       18
102
RTVSPost2010Prop41ColorRGB
 90
        0
102
RTVSPost2010PropOp41
 70
     1
102
RTVSPost2010Prop42
 90
       50
102
RTVSPost2010PropOp42
 70
     1
102
RTVSPost2010Prop43
 90
        3
102
RTVSPost2010PropOp43
 70
     1
102
RTVSPost2010Prop44ColorIndex
 90
        5
102
RTVSPost2010Prop44ColorRGB
 90
      255
102
RTVSPost2010PropOp44
 70
     1
102
RTVSPost2010Prop45
280
     0
102
RTVSPost2010PropOp45
 70
     1
102
RTVSPost2010Prop46
 90
       50
102
RTVSPost2010PropOp46
 70
     1
102
RTVSPost2010Prop47
 90
       50
102
RTVSPost2010PropOp47
 70
     1
102
RTVSPost2010Prop48
 90
       50
102
RTVSPost2010PropOp48
 70
     1
102
RTVSPost2010Prop49
280
     0
102
RTVSPost2010PropOp49
 70
     1
102
RTVSPost2010Prop50
 90
       50
102
RTVSPost2010PropOp50
 70
     1
102
RTVSPost2010Prop51ColorIndex
 90
      256
102
RTVSPost2010Prop51ColorRGB
 90
-16777216
102
RTVSPost2010PropOp51
 70
     0
102
RTVSPost2010Prop52
140
1.0
102
RTVSPost2010PropOp52
 70
     0
102
RTVSPost2010Prop53
 90
        2
102
RTVSPost2010PropOp53
 70
     1
102
RTVSPost2010Prop54
  1
strokes_ogs.tif
102
RTVSPost2010PropOp54
 70
     1
102
RTVSPost2010Prop55
280
     0
102
RTVSPost2010PropOp55
 70
     1
102
RTVSPost2010Prop56
140
1.0
102
RTVSPost2010PropOp56
 70
     1
102
RTVSPost2010Prop57
140
1.0
102
RTVSPost2010PropOp57
 70
     1
102
RTVSPropertyOp0
 70
     1
102
RTVSPropertyOp1
 70
     1
102
RTVSPropertyOp2
 70
     1
102
RTVSPropertyOp3
 70
     1
102
RTVSPropertyOp4
 70
     1
102
RTVSPropertyOp5
 70
     1
102
RTVSPropertyOp6
 70
     1
102
RTVSPropertyOp7
 70
     1
102
RTVSPropertyOp8
 70
     1
102
RTVSPropertyOp9
 70
     1
102
RTVSPropertyOp10
 70
     1
102
RTVSPropertyOp11
 70
     1
102
RTVSPropertyOp12
 70
     1
102
RTVSPropertyOp13
 70
     1
102
RTVSPropertyOp14
 70
     1
102
RTVSPropertyOp15
 70
     1
102
RTVSPropertyOp16
 70
     1
102
RTVSPropertyOp17
 70
     1
102
RTVSPropertyOp18
 70
     1
102
RTVSPropertyOp19
 70
     1
102
RTVSPropertyOp20
 70
     1
102
RTVSPropertyOp21
 70
     1
102
RTVSPropertyOp22
 70
     1
102
RTVSPropertyOp23
 70
     1
102
RTVSPropertyOp24
 70
     1
102
RTVSPropertyOp25
 70
     1
102
RTVSPropertyOp26
 70
     1
102
RTVSPropertyOp27
 70
     1
102
RTVSPropertyOp28
 70
     1
102
RTVSPropertyOp29
 70
     1
102
RTVSPropertyOp30
 70
     1
102
RTVSPropertyOp31
 70
     1
102
RTVSPropertyOp32
 70
     1
102
RTVSPropertyOp33
 70
     1
102
RTVSPropertyOp34
 70
     1
102
RTVSPropertyOp35
 70
     1
102
RTVSPropertyOp36
 70
     1
102
RTVSPropertyOp37
 70
     1
102
RTVSPropertyOp38
 70
     1
102
RTVSPropertyOp39
 70
     1
102
RTVSPropertyOp40
 70
     1
102
RTVSPropertyOp41
 70
     1
102
RTVSPropertyOp42
 70
     1
102
RTVSPropertyOp43
 70
     1
102
RTVSPropertyOp44
 70
     1
102
RTVSPropertyOp45
 70
     1
102
RTVSPropertyOp46
 70
     1
102
RTVSPropertyOp47
 70
     1
102
RTVSPropertyOp48
 70
     1
102
RTVSPropertyOp49
 70
     1
102
RTVSPropertyOp50
 70
     1
102
RTVSPropertyOp51
 70
     0
102
RTVSPropertyOp52
 70
     0
102
RTVSPropertyOp53
 70
     1
102
RTVSPropertyOp54
 70
     1
102
RTVSPropertyOp55
 70
     1
102
RTVSPropertyOp56
 70
     1
102
RTVSPropertyOp57
 70
     1
102
RTVSPropertyOp58
 70
     1
102
RTVSPropertyOp59
 70
     1
102
RTVSPropertyOp60
 70
     1
102
RTVSPropertyOp61
 70
     1
102
RTVSPropertyOp62
 70
     1
  0
XRECORD
  5
7E8
102
{ACAD_REACTORS
330
7E7
102
}
330
7E7
100
AcDbXrecord
280
     1
102
RTVSPost2010Prop28
280
     0
102
RTVSPost2010PropOp28
 70
     1
102
RTVSPost2010Prop29
280
     1
102
RTVSPost2010PropOp29
 70
     1
102
RTVSPost2010Prop30
280
     1
102
RTVSPost2010PropOp30
 70
     1
102
RTVSPost2010Prop31
280
     0
102
RTVSPost2010PropOp31
 70
     1
102
RTVSPost2010Prop32
280
     0
102
RTVSPost2010PropOp32
 70
     1
102
RTVSPost2010Prop33
280
     0
102
RTVSPost2010PropOp33
 70
     1
102
RTVSPost2010Prop34
280
     0
102
RTVSPost2010PropOp34
 70
     1
102
RTVSPost2010Prop35
280
     0
102
RTVSPost2010PropOp35
 70
     1
102
RTVSPost2010Prop36
280
     0
102
RTVSPost2010PropOp36
 70
     1
102
RTVSPost2010Prop37
 90
       50
102
RTVSPost2010PropOp37
 70
     1
102
RTVSPost2010Prop38
140
0.0
102
RTVSPost2010PropOp38
 70
     1
102
RTVSPost2010Prop39
140
1.0
102
RTVSPost2010PropOp39
 70
     1
102
RTVSPost2010Prop40
 90
        0
102
RTVSPost2010PropOp40
 70
     1
102
RTVSPost2010Prop41ColorIndex
 90
       18
102
RTVSPost2010Prop41ColorRGB
 90
        0
102
RTVSPost2010PropOp41
 70
     1
102
RTVSPost2010Prop42
 90
       50
102
RTVSPost2010PropOp42
 70
     1
102
RTVSPost2010Prop43
 90
        3
102
RTVSPost2010PropOp43
 70
     1
102
RTVSPost2010Prop44ColorIndex
 90
        5
102
RTVSPost2010Prop44ColorRGB
 90
      255
102
RTVSPost2010PropOp44
 70
     1
102
RTVSPost2010Prop45
280
     0
102
RTVSPost2010PropOp45
 70
     1
102
RTVSPost2010Prop46
 90
       50
102
RTVSPost2010PropOp46
 70
     1
102
RTVSPost2010Prop47
 90
       50
102
RTVSPost2010PropOp47
 70
     1
102
RTVSPost2010Prop48
 90
       50
102
RTVSPost2010PropOp48
 70
     1
102
RTVSPost2010Prop49
280
     0
102
RTVSPost2010PropOp49
 70
     1
102
RTVSPost2010Prop50
 90
       50
102
RTVSPost2010PropOp50
 70
     1
102
RTVSPost2010Prop51ColorIndex
 90
      256
102
RTVSPost2010Prop51ColorRGB
 90
-16777216
102
RTVSPost2010PropOp51
 70
     0
102
RTVSPost2010Prop52
140
1.0
102
RTVSPost2010PropOp52
 70
     0
102
RTVSPost2010Prop53
 90
        2
102
RTVSPost2010PropOp53
 70
     1
102
RTVSPost2010Prop54
  1
strokes_ogs.tif
102
RTVSPost2010PropOp54
 70
     1
102
RTVSPost2010Prop55
280
     0
102
RTVSPost2010PropOp55
 70
     1
102
RTVSPost2010Prop56
140
1.0
102
RTVSPost2010PropOp56
 70
     1
102
RTVSPost2010Prop57
140
1.0
102
RTVSPost2010PropOp57
 70
     1
102
RTVSPropertyOp0
 70
     1
102
RTVSPropertyOp1
 70
     1
102
RTVSPropertyOp2
 70
     1
102
RTVSPropertyOp3
 70
     1
102
RTVSPropertyOp4
 70
     1
102
RTVSPropertyOp5
 70
     1
102
RTVSPropertyOp6
 70
     1
102
RTVSPropertyOp7
 70
     1
102
RTVSPropertyOp8
 70
     1
102
RTVSPropertyOp9
 70
     1
102
RTVSPropertyOp10
 70
     1
102
RTVSPropertyOp11
 70
     1
102
RTVSPropertyOp12
 70
     1
102
RTVSPropertyOp13
 70
     1
102
RTVSPropertyOp14
 70
     1
102
RTVSPropertyOp15
 70
     1
102
RTVSPropertyOp16
 70
     1
102
RTVSPropertyOp17
 70
     1
102
RTVSPropertyOp18
 70
     1
102
RTVSPropertyOp19
 70
     1
102
RTVSPropertyOp20
 70
     1
102
RTVSPropertyOp21
 70
     1
102
RTVSPropertyOp22
 70
     1
102
RTVSPropertyOp23
 70
     1
102
RTVSPropertyOp24
 70
     1
102
RTVSPropertyOp25
 70
     1
102
RTVSPropertyOp26
 70
     1
102
RTVSPropertyOp27
 70
     1
102
RTVSPropertyOp28
 70
     1
102
RTVSPropertyOp29
 70
     1
102
RTVSPropertyOp30
 70
     1
102
RTVSPropertyOp31
 70
     1
102
RTVSPropertyOp32
 70
     1
102
RTVSPropertyOp33
 70
     1
102
RTVSPropertyOp34
 70
     1
102
RTVSPropertyOp35
 70
     1
102
RTVSPropertyOp36
 70
     1
102
RTVSPropertyOp37
 70
     1
102
RTVSPropertyOp38
 70
     1
102
RTVSPropertyOp39
 70
     1
102
RTVSPropertyOp40
 70
     1
102
RTVSPropertyOp41
 70
     1
102
RTVSPropertyOp42
 70
     1
102
RTVSPropertyOp43
 70
     1
102
RTVSPropertyOp44
 70
     1
102
RTVSPropertyOp45
 70
     1
102
RTVSPropertyOp46
 70
     1
102
RTVSPropertyOp47
 70
     1
102
RTVSPropertyOp48
 70
     1
102
RTVSPropertyOp49
 70
     1
102
RTVSPropertyOp50
 70
     1
102
RTVSPropertyOp51
 70
     0
102
RTVSPropertyOp52
 70
     0
102
RTVSPropertyOp53
 70
     1
102
RTVSPropertyOp54
 70
     1
102
RTVSPropertyOp55
 70
     1
102
RTVSPropertyOp56
 70
     1
102
RTVSPropertyOp57
 70
     1
102
RTVSPropertyOp58
 70
     1
102
RTVSPropertyOp59
 70
     1
102
RTVSPropertyOp60
 70
     1
102
RTVSPropertyOp61
 70
     1
102
RTVSPropertyOp62
 70
     1
  0
XRECORD
  5
7E2
102
{ACAD_REACTORS
330
7E1
102
}
330
7E1
100
AcDbXrecord
280
     1
102
RTVSPost2010Prop28
280
     0
102
RTVSPost2010PropOp28
 70
     1
102
RTVSPost2010Prop29
280
     1
102
RTVSPost2010PropOp29
 70
     1
102
RTVSPost2010Prop30
280
     1
102
RTVSPost2010PropOp30
 70
     1
102
RTVSPost2010Prop31
280
     0
102
RTVSPost2010PropOp31
 70
     1
102
RTVSPost2010Prop32
280
     0
102
RTVSPost2010PropOp32
 70
     1
102
RTVSPost2010Prop33
280
     0
102
RTVSPost2010PropOp33
 70
     1
102
RTVSPost2010Prop34
280
     0
102
RTVSPost2010PropOp34
 70
     1
102
RTVSPost2010Prop35
280
     0
102
RTVSPost2010PropOp35
 70
     1
102
RTVSPost2010Prop36
280
     0
102
RTVSPost2010PropOp36
 70
     1
102
RTVSPost2010Prop37
 90
       50
102
RTVSPost2010PropOp37
 70
     1
102
RTVSPost2010Prop38
140
0.0
102
RTVSPost2010PropOp38
 70
     1
102
RTVSPost2010Prop39
140
1.0
102
RTVSPost2010PropOp39
 70
     1
102
RTVSPost2010Prop40
 90
        0
102
RTVSPost2010PropOp40
 70
     1
102
RTVSPost2010Prop41ColorIndex
 90
       18
102
RTVSPost2010Prop41ColorRGB
 90
        0
102
RTVSPost2010PropOp41
 70
     1
102
RTVSPost2010Prop42
 90
       50
102
RTVSPost2010PropOp42
 70
     1
102
RTVSPost2010Prop43
 90
        3
102
RTVSPost2010PropOp43
 70
     1
102
RTVSPost2010Prop44ColorIndex
 90
        5
102
RTVSPost2010Prop44ColorRGB
 90
      255
102
RTVSPost2010PropOp44
 70
     1
102
RTVSPost2010Prop45
280
     0
102
RTVSPost2010PropOp45
 70
     1
102
RTVSPost2010Prop46
 90
       50
102
RTVSPost2010PropOp46
 70
     1
102
RTVSPost2010Prop47
 90
       50
102
RTVSPost2010PropOp47
 70
     1
102
RTVSPost2010Prop48
 90
       50
102
RTVSPost2010PropOp48
 70
     1
102
RTVSPost2010Prop49
280
     0
102
RTVSPost2010PropOp49
 70
     1
102
RTVSPost2010Prop50
 90
       50
102
RTVSPost2010PropOp50
 70
     1
102
RTVSPost2010Prop51ColorIndex
 90
      256
102
RTVSPost2010Prop51ColorRGB
 90
-16777216
102
RTVSPost2010PropOp51
 70
     0
102
RTVSPost2010Prop52
140
1.0
102
RTVSPost2010PropOp52
 70
     0
102
RTVSPost2010Prop53
 90
        2
102
RTVSPost2010PropOp53
 70
     1
102
RTVSPost2010Prop54
  1
strokes_ogs.tif
102
RTVSPost2010PropOp54
 70
     1
102
RTVSPost2010Prop55
280
     0
102
RTVSPost2010PropOp55
 70
     1
102
RTVSPost2010Prop56
140
1.0
102
RTVSPost2010PropOp56
 70
     1
102
RTVSPost2010Prop57
140
1.0
102
RTVSPost2010PropOp57
 70
     1
102
RTVSPropertyOp0
 70
     1
102
RTVSPropertyOp1
 70
     1
102
RTVSPropertyOp2
 70
     1
102
RTVSPropertyOp3
 70
     1
102
RTVSPropertyOp4
 70
     1
102
RTVSPropertyOp5
 70
     1
102
RTVSPropertyOp6
 70
     1
102
RTVSPropertyOp7
 70
     1
102
RTVSPropertyOp8
 70
     1
102
RTVSPropertyOp9
 70
     1
102
RTVSPropertyOp10
 70
     1
102
RTVSPropertyOp11
 70
     1
102
RTVSPropertyOp12
 70
     1
102
RTVSPropertyOp13
 70
     1
102
RTVSPropertyOp14
 70
     1
102
RTVSPropertyOp15
 70
     1
102
RTVSPropertyOp16
 70
     1
102
RTVSPropertyOp17
 70
     1
102
RTVSPropertyOp18
 70
     1
102
RTVSPropertyOp19
 70
     1
102
RTVSPropertyOp20
 70
     1
102
RTVSPropertyOp21
 70
     1
102
RTVSPropertyOp22
 70
     1
102
RTVSPropertyOp23
 70
     1
102
RTVSPropertyOp24
 70
     1
102
RTVSPropertyOp25
 70
     1
102
RTVSPropertyOp26
 70
     1
102
RTVSPropertyOp27
 70
     1
102
RTVSPropertyOp28
 70
     1
102
RTVSPropertyOp29
 70
     1
102
RTVSPropertyOp30
 70
     1
102
RTVSPropertyOp31
 70
     1
102
RTVSPropertyOp32
 70
     1
102
RTVSPropertyOp33
 70
     1
102
RTVSPropertyOp34
 70
     1
102
RTVSPropertyOp35
 70
     1
102
RTVSPropertyOp36
 70
     1
102
RTVSPropertyOp37
 70
     1
102
RTVSPropertyOp38
 70
     1
102
RTVSPropertyOp39
 70
     1
102
RTVSPropertyOp40
 70
     1
102
RTVSPropertyOp41
 70
     1
102
RTVSPropertyOp42
 70
     1
102
RTVSPropertyOp43
 70
     1
102
RTVSPropertyOp44
 70
     1
102
RTVSPropertyOp45
 70
     1
102
RTVSPropertyOp46
 70
     1
102
RTVSPropertyOp47
 70
     1
102
RTVSPropertyOp48
 70
     1
102
RTVSPropertyOp49
 70
     1
102
RTVSPropertyOp50
 70
     1
102
RTVSPropertyOp51
 70
     0
102
RTVSPropertyOp52
 70
     0
102
RTVSPropertyOp53
 70
     1
102
RTVSPropertyOp54
 70
     1
102
RTVSPropertyOp55
 70
     1
102
RTVSPropertyOp56
 70
     1
102
RTVSPropertyOp57
 70
     1
102
RTVSPropertyOp58
 70
     1
102
RTVSPropertyOp59
 70
     1
102
RTVSPropertyOp60
 70
     1
102
RTVSPropertyOp61
 70
     1
102
RTVSPropertyOp62
 70
     1
  0
XRECORD
  5
7E4
102
{ACAD_REACTORS
330
7E3
102
}
330
7E3
100
AcDbXrecord
280
     1
102
RTVSPost2010Prop28
280
     0
102
RTVSPost2010PropOp28
 70
     1
102
RTVSPost2010Prop29
280
     1
102
RTVSPost2010PropOp29
 70
     1
102
RTVSPost2010Prop30
280
     1
102
RTVSPost2010PropOp30
 70
     1
102
RTVSPost2010Prop31
280
     0
102
RTVSPost2010PropOp31
 70
     1
102
RTVSPost2010Prop32
280
     0
102
RTVSPost2010PropOp32
 70
     1
102
RTVSPost2010Prop33
280
     0
102
RTVSPost2010PropOp33
 70
     1
102
RTVSPost2010Prop34
280
     0
102
RTVSPost2010PropOp34
 70
     1
102
RTVSPost2010Prop35
280
     0
102
RTVSPost2010PropOp35
 70
     1
102
RTVSPost2010Prop36
280
     0
102
RTVSPost2010PropOp36
 70
     1
102
RTVSPost2010Prop37
 90
       50
102
RTVSPost2010PropOp37
 70
     1
102
RTVSPost2010Prop38
140
0.0
102
RTVSPost2010PropOp38
 70
     1
102
RTVSPost2010Prop39
140
1.0
102
RTVSPost2010PropOp39
 70
     1
102
RTVSPost2010Prop40
 90
        0
102
RTVSPost2010PropOp40
 70
     1
102
RTVSPost2010Prop41ColorIndex
 90
       18
102
RTVSPost2010Prop41ColorRGB
 90
        0
102
RTVSPost2010PropOp41
 70
     1
102
RTVSPost2010Prop42
 90
       50
102
RTVSPost2010PropOp42
 70
     1
102
RTVSPost2010Prop43
 90
        3
102
RTVSPost2010PropOp43
 70
     1
102
RTVSPost2010Prop44ColorIndex
 90
        5
102
RTVSPost2010Prop44ColorRGB
 90
      255
102
RTVSPost2010PropOp44
 70
     1
102
RTVSPost2010Prop45
280
     0
102
RTVSPost2010PropOp45
 70
     1
102
RTVSPost2010Prop46
 90
       50
102
RTVSPost2010PropOp46
 70
     1
102
RTVSPost2010Prop47
 90
       50
102
RTVSPost2010PropOp47
 70
     1
102
RTVSPost2010Prop48
 90
       50
102
RTVSPost2010PropOp48
 70
     1
102
RTVSPost2010Prop49
280
     0
102
RTVSPost2010PropOp49
 70
     1
102
RTVSPost2010Prop50
 90
       50
102
RTVSPost2010PropOp50
 70
     1
102
RTVSPost2010Prop51ColorIndex
 90
      256
102
RTVSPost2010Prop51ColorRGB
 90
-16777216
102
RTVSPost2010PropOp51
 70
     0
102
RTVSPost2010Prop52
140
1.0
102
RTVSPost2010PropOp52
 70
     0
102
RTVSPost2010Prop53
 90
        2
102
RTVSPost2010PropOp53
 70
     1
102
RTVSPost2010Prop54
  1
strokes_ogs.tif
102
RTVSPost2010PropOp54
 70
     1
102
RTVSPost2010Prop55
280
     0
102
RTVSPost2010PropOp55
 70
     1
102
RTVSPost2010Prop56
140
1.0
102
RTVSPost2010PropOp56
 70
     1
102
RTVSPost2010Prop57
140
1.0
102
RTVSPost2010PropOp57
 70
     1
102
RTVSPropertyOp0
 70
     1
102
RTVSPropertyOp1
 70
     1
102
RTVSPropertyOp2
 70
     1
102
RTVSPropertyOp3
 70
     1
102
RTVSPropertyOp4
 70
     1
102
RTVSPropertyOp5
 70
     1
102
RTVSPropertyOp6
 70
     1
102
RTVSPropertyOp7
 70
     1
102
RTVSPropertyOp8
 70
     1
102
RTVSPropertyOp9
 70
     1
102
RTVSPropertyOp10
 70
     1
102
RTVSPropertyOp11
 70
     1
102
RTVSPropertyOp12
 70
     1
102
RTVSPropertyOp13
 70
     1
102
RTVSPropertyOp14
 70
     1
102
RTVSPropertyOp15
 70
     1
102
RTVSPropertyOp16
 70
     1
102
RTVSPropertyOp17
 70
     1
102
RTVSPropertyOp18
 70
     1
102
RTVSPropertyOp19
 70
     1
102
RTVSPropertyOp20
 70
     1
102
RTVSPropertyOp21
 70
     1
102
RTVSPropertyOp22
 70
     1
102
RTVSPropertyOp23
 70
     1
102
RTVSPropertyOp24
 70
     1
102
RTVSPropertyOp25
 70
     1
102
RTVSPropertyOp26
 70
     1
102
RTVSPropertyOp27
 70
     1
102
RTVSPropertyOp28
 70
     1
102
RTVSPropertyOp29
 70
     1
102
RTVSPropertyOp30
 70
     1
102
RTVSPropertyOp31
 70
     1
102
RTVSPropertyOp32
 70
     1
102
RTVSPropertyOp33
 70
     1
102
RTVSPropertyOp34
 70
     1
102
RTVSPropertyOp35
 70
     1
102
RTVSPropertyOp36
 70
     1
102
RTVSPropertyOp37
 70
     1
102
RTVSPropertyOp38
 70
     1
102
RTVSPropertyOp39
 70
     1
102
RTVSPropertyOp40
 70
     1
102
RTVSPropertyOp41
 70
     1
102
RTVSPropertyOp42
 70
     1
102
RTVSPropertyOp43
 70
     1
102
RTVSPropertyOp44
 70
     1
102
RTVSPropertyOp45
 70
     1
102
RTVSPropertyOp46
 70
     1
102
RTVSPropertyOp47
 70
     1
102
RTVSPropertyOp48
 70
     1
102
RTVSPropertyOp49
 70
     1
102
RTVSPropertyOp50
 70
     1
102
RTVSPropertyOp51
 70
     0
102
RTVSPropertyOp52
 70
     0
102
RTVSPropertyOp53
 70
     1
102
RTVSPropertyOp54
 70
     1
102
RTVSPropertyOp55
 70
     1
102
RTVSPropertyOp56
 70
     1
102
RTVSPropertyOp57
 70
     1
102
RTVSPropertyOp58
 70
     1
102
RTVSPropertyOp59
 70
     1
102
RTVSPropertyOp60
 70
     1
102
RTVSPropertyOp61
 70
     1
102
RTVSPropertyOp62
 70
     1
  0
XRECORD
  5
7DA
102
{ACAD_REACTORS
330
7D9
102
}
330
7D9
100
AcDbXrecord
280
     1
102
RTVSPost2010Prop28
280
     0
102
RTVSPost2010PropOp28
 70
     1
102
RTVSPost2010Prop29
280
     1
102
RTVSPost2010PropOp29
 70
     1
102
RTVSPost2010Prop30
280
     1
102
RTVSPost2010PropOp30
 70
     1
102
RTVSPost2010Prop31
280
     0
102
RTVSPost2010PropOp31
 70
     1
102
RTVSPost2010Prop32
280
     0
102
RTVSPost2010PropOp32
 70
     1
102
RTVSPost2010Prop33
280
     0
102
RTVSPost2010PropOp33
 70
     1
102
RTVSPost2010Prop34
280
     0
102
RTVSPost2010PropOp34
 70
     1
102
RTVSPost2010Prop35
280
     0
102
RTVSPost2010PropOp35
 70
     1
102
RTVSPost2010Prop36
280
     0
102
RTVSPost2010PropOp36
 70
     1
102
RTVSPost2010Prop37
 90
       50
102
RTVSPost2010PropOp37
 70
     1
102
RTVSPost2010Prop38
140
0.0
102
RTVSPost2010PropOp38
 70
     1
102
RTVSPost2010Prop39
140
1.0
102
RTVSPost2010PropOp39
 70
     1
102
RTVSPost2010Prop40
 90
        0
102
RTVSPost2010PropOp40
 70
     1
102
RTVSPost2010Prop41ColorIndex
 90
       18
102
RTVSPost2010Prop41ColorRGB
 90
        0
102
RTVSPost2010PropOp41
 70
     1
102
RTVSPost2010Prop42
 90
       50
102
RTVSPost2010PropOp42
 70
     1
102
RTVSPost2010Prop43
 90
        3
102
RTVSPost2010PropOp43
 70
     1
102
RTVSPost2010Prop44ColorIndex
 90
        5
102
RTVSPost2010Prop44ColorRGB
 90
      255
102
RTVSPost2010PropOp44
 70
     1
102
RTVSPost2010Prop45
280
     0
102
RTVSPost2010PropOp45
 70
     1
102
RTVSPost2010Prop46
 90
       50
102
RTVSPost2010PropOp46
 70
     1
102
RTVSPost2010Prop47
 90
       50
102
RTVSPost2010PropOp47
 70
     1
102
RTVSPost2010Prop48
 90
       50
102
RTVSPost2010PropOp48
 70
     1
102
RTVSPost2010Prop49
280
     0
102
RTVSPost2010PropOp49
 70
     1
102
RTVSPost2010Prop50
 90
       50
102
RTVSPost2010PropOp50
 70
     1
102
RTVSPost2010Prop51ColorIndex
 90
      256
102
RTVSPost2010Prop51ColorRGB
 90
-16777216
102
RTVSPost2010PropOp51
 70
     0
102
RTVSPost2010Prop52
140
1.0
102
RTVSPost2010PropOp52
 70
     0
102
RTVSPost2010Prop53
 90
        2
102
RTVSPost2010PropOp53
 70
     1
102
RTVSPost2010Prop54
  1
strokes_ogs.tif
102
RTVSPost2010PropOp54
 70
     1
102
RTVSPost2010Prop55
280
     0
102
RTVSPost2010PropOp55
 70
     1
102
RTVSPost2010Prop56
140
1.0
102
RTVSPost2010PropOp56
 70
     1
102
RTVSPost2010Prop57
140
1.0
102
RTVSPost2010PropOp57
 70
     1
102
RTVSPropertyOp0
 70
     1
102
RTVSPropertyOp1
 70
     1
102
RTVSPropertyOp2
 70
     1
102
RTVSPropertyOp3
 70
     1
102
RTVSPropertyOp4
 70
     1
102
RTVSPropertyOp5
 70
     1
102
RTVSPropertyOp6
 70
     1
102
RTVSPropertyOp7
 70
     1
102
RTVSPropertyOp8
 70
     1
102
RTVSPropertyOp9
 70
     1
102
RTVSPropertyOp10
 70
     1
102
RTVSPropertyOp11
 70
     1
102
RTVSPropertyOp12
 70
     1
102
RTVSPropertyOp13
 70
     1
102
RTVSPropertyOp14
 70
     1
102
RTVSPropertyOp15
 70
     1
102
RTVSPropertyOp16
 70
     1
102
RTVSPropertyOp17
 70
     1
102
RTVSPropertyOp18
 70
     1
102
RTVSPropertyOp19
 70
     1
102
RTVSPropertyOp20
 70
     1
102
RTVSPropertyOp21
 70
     1
102
RTVSPropertyOp22
 70
     1
102
RTVSPropertyOp23
 70
     1
102
RTVSPropertyOp24
 70
     1
102
RTVSPropertyOp25
 70
     1
102
RTVSPropertyOp26
 70
     1
102
RTVSPropertyOp27
 70
     1
102
RTVSPropertyOp28
 70
     1
102
RTVSPropertyOp29
 70
     1
102
RTVSPropertyOp30
 70
     1
102
RTVSPropertyOp31
 70
     1
102
RTVSPropertyOp32
 70
     1
102
RTVSPropertyOp33
 70
     1
102
RTVSPropertyOp34
 70
     1
102
RTVSPropertyOp35
 70
     1
102
RTVSPropertyOp36
 70
     1
102
RTVSPropertyOp37
 70
     1
102
RTVSPropertyOp38
 70
     1
102
RTVSPropertyOp39
 70
     1
102
RTVSPropertyOp40
 70
     1
102
RTVSPropertyOp41
 70
     1
102
RTVSPropertyOp42
 70
     1
102
RTVSPropertyOp43
 70
     1
102
RTVSPropertyOp44
 70
     1
102
RTVSPropertyOp45
 70
     1
102
RTVSPropertyOp46
 70
     1
102
RTVSPropertyOp47
 70
     1
102
RTVSPropertyOp48
 70
     1
102
RTVSPropertyOp49
 70
     1
102
RTVSPropertyOp50
 70
     1
102
RTVSPropertyOp51
 70
     0
102
RTVSPropertyOp52
 70
     0
102
RTVSPropertyOp53
 70
     1
102
RTVSPropertyOp54
 70
     1
102
RTVSPropertyOp55
 70
     1
102
RTVSPropertyOp56
 70
     1
102
RTVSPropertyOp57
 70
     1
102
RTVSPropertyOp58
 70
     1
102
RTVSPropertyOp59
 70
     1
102
RTVSPropertyOp60
 70
     1
102
RTVSPropertyOp61
 70
     1
102
RTVSPropertyOp62
 70
     1
  0
XRECORD
  5
7CE
102
{ACAD_REACTORS
330
7CD
102
}
330
7CD
100
AcDbXrecord
280
     1
102
RTVSPost2010Prop28
280
     0
102
RTVSPost2010PropOp28
 70
     1
102
RTVSPost2010Prop29
280
     1
102
RTVSPost2010PropOp29
 70
     1
102
RTVSPost2010Prop30
280
     1
102
RTVSPost2010PropOp30
 70
     1
102
RTVSPost2010Prop31
280
     0
102
RTVSPost2010PropOp31
 70
     1
102
RTVSPost2010Prop32
280
     0
102
RTVSPost2010PropOp32
 70
     1
102
RTVSPost2010Prop33
280
     0
102
RTVSPost2010PropOp33
 70
     1
102
RTVSPost2010Prop34
280
     0
102
RTVSPost2010PropOp34
 70
     1
102
RTVSPost2010Prop35
280
     0
102
RTVSPost2010PropOp35
 70
     1
102
RTVSPost2010Prop36
280
     0
102
RTVSPost2010PropOp36
 70
     1
102
RTVSPost2010Prop37
 90
       50
102
RTVSPost2010PropOp37
 70
     1
102
RTVSPost2010Prop38
140
0.0
102
RTVSPost2010PropOp38
 70
     1
102
RTVSPost2010Prop39
140
1.0
102
RTVSPost2010PropOp39
 70
     1
102
RTVSPost2010Prop40
 90
        0
102
RTVSPost2010PropOp40
 70
     1
102
RTVSPost2010Prop41ColorIndex
 90
       18
102
RTVSPost2010Prop41ColorRGB
 90
        0
102
RTVSPost2010PropOp41
 70
     1
102
RTVSPost2010Prop42
 90
       50
102
RTVSPost2010PropOp42
 70
     1
102
RTVSPost2010Prop43
 90
        3
102
RTVSPost2010PropOp43
 70
     1
102
RTVSPost2010Prop44ColorIndex
 90
        5
102
RTVSPost2010Prop44ColorRGB
 90
      255
102
RTVSPost2010PropOp44
 70
     1
102
RTVSPost2010Prop45
280
     0
102
RTVSPost2010PropOp45
 70
     1
102
RTVSPost2010Prop46
 90
       50
102
RTVSPost2010PropOp46
 70
     1
102
RTVSPost2010Prop47
 90
       50
102
RTVSPost2010PropOp47
 70
     1
102
RTVSPost2010Prop48
 90
       50
102
RTVSPost2010PropOp48
 70
     1
102
RTVSPost2010Prop49
280
     0
102
RTVSPost2010PropOp49
 70
     1
102
RTVSPost2010Prop50
 90
       50
102
RTVSPost2010PropOp50
 70
     1
102
RTVSPost2010Prop51ColorIndex
 90
      256
102
RTVSPost2010Prop51ColorRGB
 90
-16777216
102
RTVSPost2010PropOp51
 70
     0
102
RTVSPost2010Prop52
140
1.0
102
RTVSPost2010PropOp52
 70
     0
102
RTVSPost2010Prop53
 90
        2
102
RTVSPost2010PropOp53
 70
     1
102
RTVSPost2010Prop54
  1
strokes_ogs.tif
102
RTVSPost2010PropOp54
 70
     1
102
RTVSPost2010Prop55
280
     0
102
RTVSPost2010PropOp55
 70
     1
102
RTVSPost2010Prop56
140
1.0
102
RTVSPost2010PropOp56
 70
     1
102
RTVSPost2010Prop57
140
1.0
102
RTVSPost2010PropOp57
 70
     1
102
RTVSPropertyOp0
 70
     1
102
RTVSPropertyOp1
 70
     1
102
RTVSPropertyOp2
 70
     1
102
RTVSPropertyOp3
 70
     1
102
RTVSPropertyOp4
 70
     1
102
RTVSPropertyOp5
 70
     1
102
RTVSPropertyOp6
 70
     1
102
RTVSPropertyOp7
 70
     1
102
RTVSPropertyOp8
 70
     1
102
RTVSPropertyOp9
 70
     1
102
RTVSPropertyOp10
 70
     1
102
RTVSPropertyOp11
 70
     1
102
RTVSPropertyOp12
 70
     1
102
RTVSPropertyOp13
 70
     1
102
RTVSPropertyOp14
 70
     1
102
RTVSPropertyOp15
 70
     1
102
RTVSPropertyOp16
 70
     1
102
RTVSPropertyOp17
 70
     1
102
RTVSPropertyOp18
 70
     1
102
RTVSPropertyOp19
 70
     1
102
RTVSPropertyOp20
 70
     1
102
RTVSPropertyOp21
 70
     1
102
RTVSPropertyOp22
 70
     1
102
RTVSPropertyOp23
 70
     1
102
RTVSPropertyOp24
 70
     1
102
RTVSPropertyOp25
 70
     1
102
RTVSPropertyOp26
 70
     1
102
RTVSPropertyOp27
 70
     1
102
RTVSPropertyOp28
 70
     1
102
RTVSPropertyOp29
 70
     1
102
RTVSPropertyOp30
 70
     1
102
RTVSPropertyOp31
 70
     1
102
RTVSPropertyOp32
 70
     1
102
RTVSPropertyOp33
 70
     1
102
RTVSPropertyOp34
 70
     1
102
RTVSPropertyOp35
 70
     1
102
RTVSPropertyOp36
 70
     1
102
RTVSPropertyOp37
 70
     1
102
RTVSPropertyOp38
 70
     1
102
RTVSPropertyOp39
 70
     1
102
RTVSPropertyOp40
 70
     1
102
RTVSPropertyOp41
 70
     1
102
RTVSPropertyOp42
 70
     1
102
RTVSPropertyOp43
 70
     1
102
RTVSPropertyOp44
 70
     1
102
RTVSPropertyOp45
 70
     1
102
RTVSPropertyOp46
 70
     1
102
RTVSPropertyOp47
 70
     1
102
RTVSPropertyOp48
 70
     1
102
RTVSPropertyOp49
 70
     1
102
RTVSPropertyOp50
 70
     1
102
RTVSPropertyOp51
 70
     0
102
RTVSPropertyOp52
 70
     0
102
RTVSPropertyOp53
 70
     1
102
RTVSPropertyOp54
 70
     1
102
RTVSPropertyOp55
 70
     1
102
RTVSPropertyOp56
 70
     1
102
RTVSPropertyOp57
 70
     1
102
RTVSPropertyOp58
 70
     1
102
RTVSPropertyOp59
 70
     1
102
RTVSPropertyOp60
 70
     1
102
RTVSPropertyOp61
 70
     1
102
RTVSPropertyOp62
 70
     1
  0
XRECORD
  5
7E6
102
{ACAD_REACTORS
330
7E5
102
}
330
7E5
100
AcDbXrecord
280
     1
102
RTVSPost2010Prop28
280
     0
102
RTVSPost2010PropOp28
 70
     1
102
RTVSPost2010Prop29
280
     1
102
RTVSPost2010PropOp29
 70
     1
102
RTVSPost2010Prop30
280
     1
102
RTVSPost2010PropOp30
 70
     1
102
RTVSPost2010Prop31
280
     0
102
RTVSPost2010PropOp31
 70
     1
102
RTVSPost2010Prop32
280
     0
102
RTVSPost2010PropOp32
 70
     1
102
RTVSPost2010Prop33
280
     0
102
RTVSPost2010PropOp33
 70
     1
102
RTVSPost2010Prop34
280
     0
102
RTVSPost2010PropOp34
 70
     1
102
RTVSPost2010Prop35
280
     0
102
RTVSPost2010PropOp35
 70
     1
102
RTVSPost2010Prop36
280
     0
102
RTVSPost2010PropOp36
 70
     1
102
RTVSPost2010Prop37
 90
       50
102
RTVSPost2010PropOp37
 70
     1
102
RTVSPost2010Prop38
140
0.0
102
RTVSPost2010PropOp38
 70
     1
102
RTVSPost2010Prop39
140
1.0
102
RTVSPost2010PropOp39
 70
     1
102
RTVSPost2010Prop40
 90
        0
102
RTVSPost2010PropOp40
 70
     1
102
RTVSPost2010Prop41ColorIndex
 90
       18
102
RTVSPost2010Prop41ColorRGB
 90
        0
102
RTVSPost2010PropOp41
 70
     1
102
RTVSPost2010Prop42
 90
       50
102
RTVSPost2010PropOp42
 70
     1
102
RTVSPost2010Prop43
 90
        3
102
RTVSPost2010PropOp43
 70
     1
102
RTVSPost2010Prop44ColorIndex
 90
        5
102
RTVSPost2010Prop44ColorRGB
 90
      255
102
RTVSPost2010PropOp44
 70
     1
102
RTVSPost2010Prop45
280
     0
102
RTVSPost2010PropOp45
 70
     1
102
RTVSPost2010Prop46
 90
       50
102
RTVSPost2010PropOp46
 70
     1
102
RTVSPost2010Prop47
 90
       50
102
RTVSPost2010PropOp47
 70
     1
102
RTVSPost2010Prop48
 90
       50
102
RTVSPost2010PropOp48
 70
     1
102
RTVSPost2010Prop49
280
     0
102
RTVSPost2010PropOp49
 70
     1
102
RTVSPost2010Prop50
 90
       50
102
RTVSPost2010PropOp50
 70
     1
102
RTVSPost2010Prop51ColorIndex
 90
      256
102
RTVSPost2010Prop51ColorRGB
 90
-16777216
102
RTVSPost2010PropOp51
 70
     0
102
RTVSPost2010Prop52
140
1.0
102
RTVSPost2010PropOp52
 70
     0
102
RTVSPost2010Prop53
 90
        2
102
RTVSPost2010PropOp53
 70
     1
102
RTVSPost2010Prop54
  1
strokes_ogs.tif
102
RTVSPost2010PropOp54
 70
     1
102
RTVSPost2010Prop55
280
     0
102
RTVSPost2010PropOp55
 70
     1
102
RTVSPost2010Prop56
140
1.0
102
RTVSPost2010PropOp56
 70
     1
102
RTVSPost2010Prop57
140
1.0
102
RTVSPost2010PropOp57
 70
     1
102
RTVSPropertyOp0
 70
     1
102
RTVSPropertyOp1
 70
     1
102
RTVSPropertyOp2
 70
     1
102
RTVSPropertyOp3
 70
     1
102
RTVSPropertyOp4
 70
     1
102
RTVSPropertyOp5
 70
     1
102
RTVSPropertyOp6
 70
     1
102
RTVSPropertyOp7
 70
     1
102
RTVSPropertyOp8
 70
     1
102
RTVSPropertyOp9
 70
     1
102
RTVSPropertyOp10
 70
     1
102
RTVSPropertyOp11
 70
     1
102
RTVSPropertyOp12
 70
     1
102
RTVSPropertyOp13
 70
     1
102
RTVSPropertyOp14
 70
     1
102
RTVSPropertyOp15
 70
     1
102
RTVSPropertyOp16
 70
     1
102
RTVSPropertyOp17
 70
     1
102
RTVSPropertyOp18
 70
     1
102
RTVSPropertyOp19
 70
     1
102
RTVSPropertyOp20
 70
     1
102
RTVSPropertyOp21
 70
     1
102
RTVSPropertyOp22
 70
     1
102
RTVSPropertyOp23
 70
     1
102
RTVSPropertyOp24
 70
     1
102
RTVSPropertyOp25
 70
     1
102
RTVSPropertyOp26
 70
     1
102
RTVSPropertyOp27
 70
     1
102
RTVSPropertyOp28
 70
     1
102
RTVSPropertyOp29
 70
     1
102
RTVSPropertyOp30
 70
     1
102
RTVSPropertyOp31
 70
     1
102
RTVSPropertyOp32
 70
     1
102
RTVSPropertyOp33
 70
     1
102
RTVSPropertyOp34
 70
     1
102
RTVSPropertyOp35
 70
     1
102
RTVSPropertyOp36
 70
     1
102
RTVSPropertyOp37
 70
     1
102
RTVSPropertyOp38
 70
     1
102
RTVSPropertyOp39
 70
     1
102
RTVSPropertyOp40
 70
     1
102
RTVSPropertyOp41
 70
     1
102
RTVSPropertyOp42
 70
     1
102
RTVSPropertyOp43
 70
     1
102
RTVSPropertyOp44
 70
     1
102
RTVSPropertyOp45
 70
     1
102
RTVSPropertyOp46
 70
     1
102
RTVSPropertyOp47
 70
     1
102
RTVSPropertyOp48
 70
     1
102
RTVSPropertyOp49
 70
     1
102
RTVSPropertyOp50
 70
     1
102
RTVSPropertyOp51
 70
     0
102
RTVSPropertyOp52
 70
     0
102
RTVSPropertyOp53
 70
     1
102
RTVSPropertyOp54
 70
     1
102
RTVSPropertyOp55
 70
     1
102
RTVSPropertyOp56
 70
     1
102
RTVSPropertyOp57
 70
     1
102
RTVSPropertyOp58
 70
     1
102
RTVSPropertyOp59
 70
     1
102
RTVSPropertyOp60
 70
     1
102
RTVSPropertyOp61
 70
     1
102
RTVSPropertyOp62
 70
     1
  0
ENDSEC
  0
EOF
