  0
SECTION
  2
HEADER
  9
$ACADVER
  1
AC1015
  9
$ACADMAINTVER
 70
    20
  9
$DWGCODEPAGE
  3
ANSI_1252
  9
$INSBASE
 10
0.0
 20
0.0
 30
0.0
  9
$EXTMIN
 10
-30.0014931023622
 20
-141.871493
 30
0.0
  9
$EXTMAX
 10
62.26513
 20
15.782542
 30
0.0
  9
$LIMMIN
 10
0.0
 20
0.0
  9
$LIMMAX
 10
12.0
 20
9.0
  9
$ORTHOMODE
 70
     0
  9
$REGENMODE
 70
     1
  9
$FILLMODE
 70
     1
  9
$QTEXTMODE
 70
     0
  9
$MIRRTEXT
 70
     1
  9
$LTSCALE
 40
1.0
  9
$ATTMODE
 70
     1
  9
$TEXTSIZE
 40
0.11811
  9
$TRACEWID
 40
0.3937
  9
$TEXTSTYLE
  7
SANDVIK_STYLE
  9
$CLAYER
  8
1
  9
$CELTYPE
  6
ByLayer
  9
$CECOLOR
 62
   256
  9
$CELTSCALE
 40
1.0
  9
$DISPSILH
 70
     0
  9
$DIMSCALE
 40
1.0
  9
$DIMASZ
 40
0.18
  9
$DIMEXO
 40
0.0625
  9
$DIMDLI
 40
0.38
  9
$DIMRND
 40
0.0
  9
$DIMDLE
 40
0.0
  9
$DIMEXE
 40
0.18
  9
$DIMTP
 40
0.0
  9
$DIMTM
 40
0.0
  9
$DIMTXT
 40
0.18
  9
$DIMCEN
 40
0.09
  9
$DIMTSZ
 40
0.0
  9
$DIMTOL
 70
     0
  9
$DIMLIM
 70
     0
  9
$DIMTIH
 70
     1
  9
$DIMTOH
 70
     1
  9
$DIMSE1
 70
     0
  9
$DIMSE2
 70
     0
  9
$DIMTAD
 70
     0
  9
$DIMZIN
 70
     0
  9
$DIMBLK
  1

  9
$DIMASO
 70
     1
  9
$DIMSHO
 70
     1
  9
$DIMPOST
  1

  9
$DIMAPOST
  1

  9
$DIMALT
 70
     0
  9
$DIMALTD
 70
     2
  9
$DIMALTF
 40
25.4
  9
$DIMLFAC
 40
1.0
  9
$DIMTOFL
 70
     0
  9
$DIMTVP
 40
0.0
  9
$DIMTIX
 70
     0
  9
$DIMSOXD
 70
     0
  9
$DIMSAH
 70
     0
  9
$DIMBLK1
  1

  9
$DIMBLK2
  1

  9
$DIMSTYLE
  2
STANDARD
  9
$DIMCLRD
 70
     0
  9
$DIMCLRE
 70
     0
  9
$DIMCLRT
 70
     0
  9
$DIMTFAC
 40
1.0
  9
$DIMGAP
 40
0.09
  9
$DIMJUST
 70
     0
  9
$DIMSD1
 70
     0
  9
$DIMSD2
 70
     0
  9
$DIMTOLJ
 70
     1
  9
$DIMTZIN
 70
     0
  9
$DIMALTZ
 70
     0
  9
$DIMALTTZ
 70
     0
  9
$DIMUPT
 70
     0
  9
$DIMDEC
 70
     4
  9
$DIMTDEC
 70
     4
  9
$DIMALTU
 70
     2
  9
$DIMALTTD
 70
     2
  9
$DIMTXSTY
  7
STANDARD
  9
$DIMAUNIT
 70
     0
  9
$DIMADEC
 70
     0
  9
$DIMALTRND
 40
0.0
  9
$DIMAZIN
 70
     0
  9
$DIMDSEP
 70
    46
  9
$DIMATFIT
 70
     3
  9
$DIMFRAC
 70
     0
  9
$DIMLDRBLK
  1

  9
$DIMLUNIT
 70
     2
  9
$DIMLWD
 70
    -2
  9
$DIMLWE
 70
    -2
  9
$DIMTMOVE
 70
     0
  9
$LUNITS
 70
     2
  9
$LUPREC
 70
     2
  9
$SKETCHINC
 40
0.0
  9
$FILLETRAD
 40
0.0
  9
$AUNITS
 70
     0
  9
$AUPREC
 70
     2
  9
$MENU
  1
acad
  9
$ELEVATION
 40
0.0
  9
$PELEVATION
 40
0.0
  9
$THICKNESS
 40
0.0
  9
$LIMCHECK
 70
     0
  9
$CHAMFERA
 40
0.0
  9
$CHAMFERB
 40
0.0
  9
$CHAMFERC
 40
0.0
  9
$CHAMFERD
 40
0.0
  9
$SKPOLY
 70
     0
  9
$TDCREATE
 40
2456818.431879618
  9
$TDUCREATE
 40
2456818.348546285
  9
$TDUPDATE
 40
2456818.431884444
  9
$TDUUPDATE
 40
2456818.348551111
  9
$TDINDWG
 40
0.0000055440
  9
$TDUSRTIMER
 40
0.0000055440
  9
$USRTIMER
 70
     1
  9
$ANGBASE
 50
0.0
  9
$ANGDIR
 70
     0
  9
$PDMODE
 70
     0
  9
$PDSIZE
 40
0.0
  9
$PLINEWID
 40
0.0
  9
$SPLFRAME
 70
     0
  9
$SPLINETYPE
 70
     6
  9
$SPLINESEGS
 70
     8
  9
$HANDSEED
  5
85B
  9
$SURFTAB1
 70
     6
  9
$SURFTAB2
 70
     6
  9
$SURFTYPE
 70
     6
  9
$SURFU
 70
     6
  9
$SURFV
 70
     6
  9
$UCSBASE
  2

  9
$UCSNAME
  2

  9
$UCSORG
 10
0.0
 20
0.0
 30
0.0
  9
$UCSXDIR
 10
1.0
 20
0.0
 30
0.0
  9
$UCSYDIR
 10
0.0
 20
1.0
 30
0.0
  9
$UCSORTHOREF
  2

  9
$UCSORTHOVIEW
 70
     0
  9
$UCSORGTOP
 10
0.0
 20
0.0
 30
0.0
  9
$UCSORGBOTTOM
 10
0.0
 20
0.0
 30
0.0
  9
$UCSORGLEFT
 10
0.0
 20
0.0
 30
0.0
  9
$UCSORGRIGHT
 10
0.0
 20
0.0
 30
0.0
  9
$UCSORGFRONT
 10
0.0
 20
0.0
 30
0.0
  9
$UCSORGBACK
 10
0.0
 20
0.0
 30
0.0
  9
$PUCSBASE
  2

  9
$PUCSNAME
  2

  9
$PUCSORG
 10
0.0
 20
0.0
 30
0.0
  9
$PUCSXDIR
 10
1.0
 20
0.0
 30
0.0
  9
$PUCSYDIR
 10
0.0
 20
1.0
 30
0.0
  9
$PUCSORTHOREF
  2

  9
$PUCSORTHOVIEW
 70
     0
  9
$PUCSORGTOP
 10
0.0
 20
0.0
 30
0.0
  9
$PUCSORGBOTTOM
 10
0.0
 20
0.0
 30
0.0
  9
$PUCSORGLEFT
 10
0.0
 20
0.0
 30
0.0
  9
$PUCSORGRIGHT
 10
0.0
 20
0.0
 30
0.0
  9
$PUCSORGFRONT
 10
0.0
 20
0.0
 30
0.0
  9
$PUCSORGBACK
 10
0.0
 20
0.0
 30
0.0
  9
$USERI1
 70
     0
  9
$USERI2
 70
     0
  9
$USERI3
 70
     0
  9
$USERI4
 70
     0
  9
$USERI5
 70
     0
  9
$USERR1
 40
0.0
  9
$USERR2
 40
0.0
  9
$USERR3
 40
0.0
  9
$USERR4
 40
0.0
  9
$USERR5
 40
0.0
  9
$WORLDVIEW
 70
     1
  9
$SHADEDGE
 70
     3
  9
$SHADEDIF
 70
    70
  9
$TILEMODE
 70
     1
  9
$MAXACTVP
 70
    16
  9
$PINSBASE
 10
0.0
 20
0.0
 30
0.0
  9
$PLIMCHECK
 70
     0
  9
$PEXTMIN
 10
1.000000000000000E+20
 20
1.000000000000000E+20
 30
1.000000000000000E+20
  9
$PEXTMAX
 10
-1.000000000000000E+20
 20
-1.000000000000000E+20
 30
-1.000000000000000E+20
  9
$PLIMMIN
 10
0.0
 20
0.0
  9
$PLIMMAX
 10
12.0
 20
9.0
  9
$UNITMODE
 70
     0
  9
$VISRETAIN
 70
     0
  9
$PLINEGEN
 70
     0
  9
$PSLTSCALE
 70
     1
  9
$TREEDEPTH
 70
  3020
  9
$CMLSTYLE
  2
Standard
  9
$CMLJUST
 70
     0
  9
$CMLSCALE
 40
1.0
  9
$PROXYGRAPHICS
 70
     1
  9
$MEASUREMENT
 70
     0
  9
$CELWEIGHT
370
    -1
  9
$ENDCAPS
280
     0
  9
$JOINSTYLE
280
     0
  9
$LWDISPLAY
290
     0
  9
$INSUNITS
 70
     0
  9
$HYPERLINKBASE
  1

  9
$STYLESHEET
  1

  9
$XEDIT
290
     1
  9
$CEPSNTYPE
380
     0
  9
$PSTYLEMODE
290
     1
  9
$FINGERPRINTGUID
  2
{1D4311BA-F0A9-4CA8-B4ED-58EF0E6DB067}
  9
$VERSIONGUID
  2
{B68DF25B-F4C6-4144-BE3A-4D9BA8261AD1}
  9
$EXTNAMES
290
     1
  9
$PSVPSCALE
 40
0.0
  9
$OLESTARTUP
290
     0
  0
ENDSEC
  0
SECTION
  2
CLASSES
  0
CLASS
  1
ACDBDICTIONARYWDFLT
  2
AcDbDictionaryWithDefault
  3
ObjectDBX Classes
 90
        0
280
     0
281
     0
  0
CLASS
  1
MATERIAL
  2
AcDbMaterial
  3
ObjectDBX Classes
 90
     1153
280
     0
281
     0
  0
CLASS
  1
VISUALSTYLE
  2
AcDbVisualStyle
  3
ObjectDBX Classes
 90
     4095
280
     0
281
     0
  0
CLASS
  1
SCALE
  2
AcDbScale
  3
ObjectDBX Classes
 90
     1153
280
     0
281
     0
  0
CLASS
  1
TABLESTYLE
  2
AcDbTableStyle
  3
ObjectDBX Classes
 90
     4095
280
     0
281
     0
  0
CLASS
  1
MLEADERSTYLE
  2
AcDbMLeaderStyle
  3
ACDB_MLEADERSTYLE_CLASS
 90
     4095
280
     0
281
     0
  0
CLASS
  1
ACDBSECTIONVIEWSTYLE
  2
AcDbSectionViewStyle
  3
ObjectDBX Classes
 90
     1025
280
     0
281
     0
  0
CLASS
  1
ACDBDETAILVIEWSTYLE
  2
AcDbDetailViewStyle
  3
ObjectDBX Classes
 90
     1025
280
     0
281
     0
  0
CLASS
  1
EXACXREFPANELOBJECT
  2
ExAcXREFPanelObject
  3
EXAC_ESW
 90
     1025
280
     0
281
     0
  0
CLASS
  1
NPOCOLLECTION
  2
AcDbImpNonPersistentObjectsCollection
  3
ObjectDBX Classes
 90
     1153
280
     0
281
     0
  0
CLASS
  1
DICTIONARYVAR
  2
AcDbDictionaryVar
  3
ObjectDBX Classes
 90
        0
280
     0
281
     0
  0
CLASS
  1
CELLSTYLEMAP
  2
AcDbCellStyleMap
  3
ObjectDBX Classes
 90
     1152
280
     0
281
     0
  0
CLASS
  1
ACDBPLACEHOLDER
  2
AcDbPlaceHolder
  3
ObjectDBX Classes
 90
        0
280
     0
281
     0
  0
CLASS
  1
LAYOUT
  2
AcDbLayout
  3
ObjectDBX Classes
 90
        0
280
     0
281
     0
  0
ENDSEC
  0
SECTION
  2
TABLES
  0
TABLE
  2
VPORT
  5
727
330
0
100
AcDbSymbolTable
 70
     1
  0
VPORT
  5
7BE
330
727
100
AcDbSymbolTableRecord
100
AcDbViewportTableRecord
  2
*Active
 70
     0
 10
0.0
 20
0.0
 11
1.0
 21
1.0
 12
16.13181844881892
 22
-63.04447549999999
 13
0.0
 23
0.0
 14
1.0
 24
1.0
 15
0.0
 25
0.0
 16
0.0
 26
0.0
 36
1.0
 17
0.0
 27
0.0
 37
0.0
 40
176.4283592105263
 41
2.2
 42
50.0
 43
0.0
 44
0.0
 50
0.0
 51
0.0
 71
     0
 72
   100
 73
     1
 74
     1
 75
     0
 76
     0
 77
     0
 78
     0
281
     0
 65
     1
110
0.0
120
0.0
130
0.0
111
1.0
121
0.0
131
0.0
112
0.0
122
1.0
132
0.0
 79
     0
146
0.0
1001
ACAD_NAV_VCDISPLAY
1070
     3
  0
ENDTAB
  0
TABLE
  2
LTYPE
  5
724
330
0
100
AcDbSymbolTable
 70
     4
  0
LTYPE
  5
779
330
724
100
AcDbSymbolTableRecord
100
AcDbLinetypeTableRecord
  2
ByBlock
 70
     0
  3

 72
    65
 73
     0
 40
0.0
  0
LTYPE
  5
77A
330
724
100
AcDbSymbolTableRecord
100
AcDbLinetypeTableRecord
  2
ByLayer
 70
     0
  3

 72
    65
 73
     0
 40
0.0
  0
LTYPE
  5
77B
330
724
100
AcDbSymbolTableRecord
100
AcDbLinetypeTableRecord
  2
CONTINUOUS
 70
     0
  3
Solid line
 72
    65
 73
     0
 40
0.0
  0
LTYPE
  5
787
330
724
100
AcDbSymbolTableRecord
100
AcDbLinetypeTableRecord
  2
PHANTOM2
 70
     0
  3
Phantom (.5x) ___ _ _ ___ _ _ ___ _ _ ___ _ _
 72
    65
 73
     6
 40
1.25
 49
0.625
 74
     0
 49
-0.125
 74
     0
 49
0.125
 74
     0
 49
-0.125
 74
     0
 49
0.125
 74
     0
 49
-0.125
 74
     0
  0
LTYPE
  5
795
330
724
100
AcDbSymbolTableRecord
100
AcDbLinetypeTableRecord
  2
CENTER
 70
     0
  3
____ _ ____ _ ____ _ ____ _ ____ _ ____ _ ____
 72
    65
 73
     4
 40
0.1992
 49
0.1245
 74
     0
 49
-0.0249
 74
     0
 49
0.0249
 74
     0
 49
-0.0249
 74
     0
  0
LTYPE
  5
796
330
724
100
AcDbSymbolTableRecord
100
AcDbLinetypeTableRecord
  2
DASHED
 70
     0
  3
__ __ __ __ __ __ __ __ __ __ __ __ __ __ __ __
 72
    65
 73
     2
 40
0.29881
 49
0.1992
 74
     0
 49
-0.099604
 74
     0
  0
ENDTAB
  0
TABLE
  2
LAYER
  5
721
330
0
100
AcDbSymbolTable
 70
    38
  0
LAYER
  5
773
102
{ACAD_XDICTIONARY
360
7C6
102
}
330
721
100
AcDbSymbolTableRecord
100
AcDbLayerTableRecord
  2
0
 70
     0
 62
     7
  6
CONTINUOUS
370
    -3
390
72E
  0
LAYER
  5
793
102
{ACAD_XDICTIONARY
360
7C8
102
}
330
721
100
AcDbSymbolTableRecord
100
AcDbLayerTableRecord
  2
1
 70
     0
 62
     4
  6
CONTINUOUS
370
    -3
390
72E
  0
LAYER
  5
797
102
{ACAD_XDICTIONARY
360
7CA
102
}
330
721
100
AcDbSymbolTableRecord
100
AcDbLayerTableRecord
  2
61
 70
     0
 62
     5
  6
CONTINUOUS
370
    -3
390
72E
  0
LAYER
  5
798
102
{ACAD_XDICTIONARY
360
7CC
102
}
330
721
100
AcDbSymbolTableRecord
100
AcDbLayerTableRecord
  2
62
 70
     0
 62
    -5
  6
CONTINUOUS
370
    -3
390
72E
  0
LAYER
  5
799
102
{ACAD_XDICTIONARY
360
7CE
102
}
330
721
100
AcDbSymbolTableRecord
100
AcDbLayerTableRecord
  2
63
 70
     0
 62
    -5
  6
CONTINUOUS
370
    -3
390
72E
  0
LAYER
  5
79A
102
{ACAD_XDICTIONARY
360
7D0
102
}
330
721
100
AcDbSymbolTableRecord
100
AcDbLayerTableRecord
  2
64
 70
     0
 62
    -5
  6
CONTINUOUS
370
    -3
390
72E
  0
LAYER
  5
79B
102
{ACAD_XDICTIONARY
360
7D2
102
}
330
721
100
AcDbSymbolTableRecord
100
AcDbLayerTableRecord
  2
65
 70
     0
 62
    -5
  6
CONTINUOUS
370
    -3
390
72E
  0
LAYER
  5
79C
102
{ACAD_XDICTIONARY
360
7D4
102
}
330
721
100
AcDbSymbolTableRecord
100
AcDbLayerTableRecord
  2
66
 70
     0
 62
    -5
  6
CONTINUOUS
370
    -3
390
72E
  0
LAYER
  5
79D
102
{ACAD_XDICTIONARY
360
7D6
102
}
330
721
100
AcDbSymbolTableRecord
100
AcDbLayerTableRecord
  2
67
 70
     0
 62
    -5
  6
CONTINUOUS
370
    -3
390
72E
  0
LAYER
  5
79E
102
{ACAD_XDICTIONARY
360
7D8
102
}
330
721
100
AcDbSymbolTableRecord
100
AcDbLayerTableRecord
  2
68
 70
     0
 62
    -5
  6
CONTINUOUS
370
    -3
390
72E
  0
LAYER
  5
79F
102
{ACAD_XDICTIONARY
360
7DA
102
}
330
721
100
AcDbSymbolTableRecord
100
AcDbLayerTableRecord
  2
69
 70
     0
 62
    -5
  6
CONTINUOUS
370
    -3
390
72E
  0
LAYER
  5
7A0
102
{ACAD_XDICTIONARY
360
7DC
102
}
330
721
100
AcDbSymbolTableRecord
100
AcDbLayerTableRecord
  2
70
 70
     0
 62
     5
  6
CONTINUOUS
370
    -3
390
72E
  0
LAYER
  5
7A1
102
{ACAD_XDICTIONARY
360
7DE
102
}
330
721
100
AcDbSymbolTableRecord
100
AcDbLayerTableRecord
  2
2
 70
     0
 62
     7
  6
CONTINUOUS
370
    -3
390
72E
  0
LAYER
  5
7A2
102
{ACAD_XDICTIONARY
360
7E0
102
}
330
721
100
AcDbSymbolTableRecord
100
AcDbLayerTableRecord
  2
3
 70
     0
 62
     1
  6
DASHED
370
    -3
390
72E
  0
LAYER
  5
7A3
102
{ACAD_XDICTIONARY
360
7E2
102
}
330
721
100
AcDbSymbolTableRecord
100
AcDbLayerTableRecord
  2
4
 70
     0
 62
    -2
  6
CENTER
370
    -3
390
72E
  0
LAYER
  5
7A4
102
{ACAD_XDICTIONARY
360
7E4
102
}
330
721
100
AcDbSymbolTableRecord
100
AcDbLayerTableRecord
  2
5
 70
     0
 62
    -7
  6
CONTINUOUS
370
    -3
390
72E
  0
LAYER
  5
7A5
102
{ACAD_XDICTIONARY
360
7E6
102
}
330
721
100
AcDbSymbolTableRecord
100
AcDbLayerTableRecord
  2
SK1
 70
     0
 62
     4
  6
CONTINUOUS
370
    -3
390
72E
  0
LAYER
  5
7A6
102
{ACAD_XDICTIONARY
360
7E8
102
}
330
721
100
AcDbSymbolTableRecord
100
AcDbLayerTableRecord
  2
6
 70
     0
 62
     5
  6
CONTINUOUS
370
    -3
390
72E
  0
LAYER
  5
7A7
102
{ACAD_XDICTIONARY
360
7EA
102
}
330
721
100
AcDbSymbolTableRecord
100
AcDbLayerTableRecord
  2
SK2
 70
     0
 62
     7
  6
CONTINUOUS
370
    -3
390
72E
  0
LAYER
  5
7A8
102
{ACAD_XDICTIONARY
360
7EC
102
}
330
721
100
AcDbSymbolTableRecord
100
AcDbLayerTableRecord
  2
SK3
 70
     0
 62
     1
  6
DASHED
370
    -3
390
72E
  0
LAYER
  5
7A9
102
{ACAD_XDICTIONARY
360
7EE
102
}
330
721
100
AcDbSymbolTableRecord
100
AcDbLayerTableRecord
  2
SK4
 70
     0
 62
     2
  6
CENTER
370
    -3
390
72E
  0
LAYER
  5
7AA
102
{ACAD_XDICTIONARY
360
7F0
102
}
330
721
100
AcDbSymbolTableRecord
100
AcDbLayerTableRecord
  2
CUT
 70
     0
 62
    -1
  6
CONTINUOUS
370
    -3
390
72E
  0
LAYER
  5
7AB
102
{ACAD_XDICTIONARY
360
7F2
102
}
330
721
100
AcDbSymbolTableRecord
100
AcDbLayerTableRecord
  2
SK6
 70
     0
 62
     5
  6
CONTINUOUS
370
    -3
390
72E
  0
LAYER
  5
7AC
102
{ACAD_XDICTIONARY
360
7F4
102
}
330
721
100
AcDbSymbolTableRecord
100
AcDbLayerTableRecord
  2
80
 70
     0
 62
    -2
  6
CENTER
370
    -3
390
72E
  0
LAYER
  5
7AD
102
{ACAD_XDICTIONARY
360
7F6
102
}
330
721
100
AcDbSymbolTableRecord
100
AcDbLayerTableRecord
  2
81
 70
     0
 62
    -2
  6
CENTER
370
    -3
390
72E
  0
LAYER
  5
7AE
102
{ACAD_XDICTIONARY
360
7F8
102
}
330
721
100
AcDbSymbolTableRecord
100
AcDbLayerTableRecord
  2
82
 70
     0
 62
    -2
  6
CENTER
370
    -3
390
72E
  0
LAYER
  5
7AF
102
{ACAD_XDICTIONARY
360
7FA
102
}
330
721
100
AcDbSymbolTableRecord
100
AcDbLayerTableRecord
  2
NOCUT
 70
     0
 62
     7
  6
CONTINUOUS
370
    -3
390
72E
  0
LAYER
  5
7B0
102
{ACAD_XDICTIONARY
360
7FC
102
}
330
721
100
AcDbSymbolTableRecord
100
AcDbLayerTableRecord
  2
50
 70
     0
 62
    -7
  6
CONTINUOUS
370
    -3
390
72E
  0
LAYER
  5
7B1
102
{ACAD_XDICTIONARY
360
7FE
102
}
330
721
100
AcDbSymbolTableRecord
100
AcDbLayerTableRecord
  2
51
 70
     0
 62
     7
  6
CONTINUOUS
370
    -3
390
72E
  0
LAYER
  5
7B2
102
{ACAD_XDICTIONARY
360
800
102
}
330
721
100
AcDbSymbolTableRecord
100
AcDbLayerTableRecord
  2
52
 70
     0
 62
    -7
  6
CONTINUOUS
370
    -3
390
72E
  0
LAYER
  5
7B3
102
{ACAD_XDICTIONARY
360
802
102
}
330
721
100
AcDbSymbolTableRecord
100
AcDbLayerTableRecord
  2
53
 70
     0
 62
    -7
  6
CONTINUOUS
370
    -3
390
72E
  0
LAYER
  5
7B4
102
{ACAD_XDICTIONARY
360
804
102
}
330
721
100
AcDbSymbolTableRecord
100
AcDbLayerTableRecord
  2
54
 70
     0
 62
    -7
  6
CONTINUOUS
370
    -3
390
72E
  0
LAYER
  5
7B5
102
{ACAD_XDICTIONARY
360
806
102
}
330
721
100
AcDbSymbolTableRecord
100
AcDbLayerTableRecord
  2
55
 70
     0
 62
    -7
  6
CONTINUOUS
370
    -3
390
72E
  0
LAYER
  5
7B6
102
{ACAD_XDICTIONARY
360
808
102
}
330
721
100
AcDbSymbolTableRecord
100
AcDbLayerTableRecord
  2
56
 70
     0
 62
    -7
  6
CONTINUOUS
370
    -3
390
72E
  0
LAYER
  5
7B7
102
{ACAD_XDICTIONARY
360
80A
102
}
330
721
100
AcDbSymbolTableRecord
100
AcDbLayerTableRecord
  2
57
 70
     0
 62
    -7
  6
CONTINUOUS
370
    -3
390
72E
  0
LAYER
  5
7B8
102
{ACAD_XDICTIONARY
360
80C
102
}
330
721
100
AcDbSymbolTableRecord
100
AcDbLayerTableRecord
  2
58
 70
     0
 62
    -7
  6
CONTINUOUS
370
    -3
390
72E
  0
LAYER
  5
7B9
102
{ACAD_XDICTIONARY
360
80E
102
}
330
721
100
AcDbSymbolTableRecord
100
AcDbLayerTableRecord
  2
2L
 70
     0
 62
     7
  6
CONTINUOUS
370
    -3
390
72E
  0
LAYER
  5
7BA
102
{ACAD_XDICTIONARY
360
810
102
}
330
721
100
AcDbSymbolTableRecord
100
AcDbLayerTableRecord
  2
59
 70
     0
 62
    -7
  6
CONTINUOUS
370
    -3
390
72E
  0
ENDTAB
  0
TABLE
  2
STYLE
  5
722
330
0
100
AcDbSymbolTable
 70
     3
  0
STYLE
  5
774
330
722
100
AcDbSymbolTableRecord
100
AcDbTextStyleTableRecord
  2
STANDARD
 70
     0
 40
0.0
 41
1.0
 50
0.0
 71
     0
 42
0.177165
  3
simplex.shx
  4

  0
STYLE
  5
778
330
722
100
AcDbSymbolTableRecord
100
AcDbTextStyleTableRecord
  2
Annotative
 70
     0
 40
0.0
 41
1.0
 50
0.0
 71
     0
 42
0.2
  3
txt
  4

1001
AcadAnnotative
1000
AnnotativeData
1002
{
1070
     1
1070
     1
1002
}
  0
STYLE
  5
794
330
722
100
AcDbSymbolTableRecord
100
AcDbTextStyleTableRecord
  2
SANDVIK_STYLE
 70
     0
 40
0.11811
 41
1.0
 50
0.0
 71
     0
 42
0.11811
  3
simplex.shx
  4

  0
ENDTAB
  0
TABLE
  2
VIEW
  5
725
330
0
100
AcDbSymbolTable
 70
     0
  0
ENDTAB
  0
TABLE
  2
UCS
  5
726
330
0
100
AcDbSymbolTable
 70
     0
  0
ENDTAB
  0
TABLE
  2
APPID
  5
728
330
0
100
AcDbSymbolTable
 70
     4
  0
APPID
  5
775
330
728
100
AcDbSymbolTableRecord
100
AcDbRegAppTableRecord
  2
ACAD
 70
     0
  0
APPID
  5
77C
330
728
100
AcDbSymbolTableRecord
100
AcDbRegAppTableRecord
  2
AcadAnnotative
 70
     0
  0
APPID
  5
81C
330
728
100
AcDbSymbolTableRecord
100
AcDbRegAppTableRecord
  2
ACAD_NAV_VCDISPLAY
 70
     0
  0
APPID
  5
856
330
728
100
AcDbSymbolTableRecord
100
AcDbRegAppTableRecord
  2
ACAD_MLEADERVER
 70
     0
  0
ENDTAB
  0
TABLE
  2
DIMSTYLE
  5
729
330
0
100
AcDbSymbolTable
 70
     3
100
AcDbDimStyleTable
 71
     0
  0
DIMSTYLE
105
776
330
729
100
AcDbSymbolTableRecord
100
AcDbDimStyleTableRecord
  2
STANDARD
 70
     0
  4
 
 43
0.18
 44
2.5
 46
1.25
 73
     0
 74
     0
140
0.11811
141
-3.0
143
0.039
145
1.5
146
0.75
147
1.5
271
     2
272
     2
279
     2
340
794
  0
DIMSTYLE
105
777
330
729
100
AcDbSymbolTableRecord
100
AcDbDimStyleTableRecord
  2
Annotative
 70
     0
340
774
1001
AcadAnnotative
1000
AnnotativeData
1002
{
1070
     1
1070
     1
1002
}
  0
DIMSTYLE
105
7BB
330
729
100
AcDbSymbolTableRecord
100
AcDbDimStyleTableRecord
  2
SANDVIK_DIM
 70
     0
  4
 
 40
0.0
 42
0.0
 73
     0
 74
     0
 77
     1
 78
     8
173
     1
176
   256
177
   256
178
   256
271
     2
272
     2
279
     2
340
794
  0
ENDTAB
  0
TABLE
  2
BLOCK_RECORD
  5
720
330
0
100
AcDbSymbolTable
 70
     4
  0
BLOCK_RECORD
  5
78F
330
720
100
AcDbSymbolTableRecord
100
AcDbBlockTableRecord
  2
*Model_Space
340
792
  0
BLOCK_RECORD
  5
78B
330
720
100
AcDbSymbolTableRecord
100
AcDbBlockTableRecord
  2
*Paper_Space
340
78E
  0
BLOCK_RECORD
  5
7BF
330
720
100
AcDbSymbolTableRecord
100
AcDbBlockTableRecord
  2
ASSORTEDPART1
340
0
102
{BLKREFS
331
3EB
102
}
  0
BLOCK_RECORD
  5
7C0
330
720
100
AcDbSymbolTableRecord
100
AcDbBlockTableRecord
  2
ASSORTEDPART2
340
0
102
{BLKREFS
331
3EC
102
}
  0
BLOCK_RECORD
  5
7C1
330
720
100
AcDbSymbolTableRecord
100
AcDbBlockTableRecord
  2
ASSORTEDPART3
340
0
102
{BLKREFS
331
3ED
102
}
  0
BLOCK_RECORD
  5
7C2
330
720
100
AcDbSymbolTableRecord
100
AcDbBlockTableRecord
  2
ASSORTEDPART4
340
0
102
{BLKREFS
331
3EE
102
}
  0
ENDTAB
  0
ENDSEC
  0
SECTION
  2
BLOCKS
  0
BLOCK
  5
790
330
78F
100
AcDbEntity
  8
0
100
AcDbBlockBegin
  2
*Model_Space
 70
     0
 10
0.0
 20
0.0
 30
0.0
  3
*Model_Space
  1

  0
ENDBLK
  5
791
330
78F
100
AcDbEntity
  8
0
100
AcDbBlockEnd
  0
BLOCK
  5
78C
330
78B
100
AcDbEntity
 67
     1
  8
0
100
AcDbBlockBegin
  2
*Paper_Space
 70
     0
 10
0.0
 20
0.0
 30
0.0
  3
*Paper_Space
  1

  0
ENDBLK
  5
78D
330
78B
100
AcDbEntity
 67
     1
  8
0
100
AcDbBlockEnd
  0
BLOCK
  5
2
330
7BF
100
AcDbEntity
  8
0
100
AcDbBlockBegin
  2
ASSORTEDPART1
 70
     0
 10
0.0
 20
0.0
 30
0.0
  3
ASSORTEDPART1
  1

  0
LINE
  5
3
330
7BF
100
AcDbEntity
  8
0
100
AcDbLine
 10
26.113048
 20
-126.35
 30
0.0
 11
62.26513
 21
-126.35
 31
0.0
  0
LINE
  5
4
330
7BF
100
AcDbEntity
  8
0
100
AcDbLine
 10
25.613681
 20
0.0
 30
0.0
 11
62.26513
 21
0.0
 31
0.0
  0
LINE
  5
5
330
7BF
100
AcDbEntity
  8
0
100
AcDbLine
 10
60.787768
 20
-126.35
 30
0.0
 11
60.787768
 21
0.0
 31
0.0
  0
LINE
  5
6
330
7BF
100
AcDbEntity
  8
0
100
AcDbLine
 10
60.787768
 20
-126.35
 30
0.0
 11
60.59326899999999
 21
-124.872638
 31
0.0
  0
LINE
  5
7
330
7BF
100
AcDbEntity
  8
0
100
AcDbLine
 10
60.59326899999999
 20
-124.872638
 30
0.0
 11
60.982266
 21
-124.872638
 31
0.0
  0
LINE
  5
8
330
7BF
100
AcDbEntity
  8
0
100
AcDbLine
 10
60.982266
 20
-124.872638
 30
0.0
 11
60.982266
 21
-124.872638
 31
0.0
  0
LINE
  5
9
330
7BF
100
AcDbEntity
  8
0
100
AcDbLine
 10
60.982266
 20
-124.872638
 30
0.0
 11
60.787768
 21
-126.35
 31
0.0
  0
LINE
  5
A
330
7BF
100
AcDbEntity
  8
0
100
AcDbLine
 10
60.787768
 20
0.0
 30
0.0
 11
60.982266
 21
-1.477362
 31
0.0
  0
LINE
  5
B
330
7BF
100
AcDbEntity
  8
0
100
AcDbLine
 10
60.982266
 20
-1.477362
 30
0.0
 11
60.59326899999999
 21
-1.477362
 31
0.0
  0
LINE
  5
C
330
7BF
100
AcDbEntity
  8
0
100
AcDbLine
 10
60.59326899999999
 20
-1.477362
 30
0.0
 11
60.59326899999999
 21
-1.477362
 31
0.0
  0
LINE
  5
D
330
7BF
100
AcDbEntity
  8
0
100
AcDbLine
 10
60.59326899999999
 20
-1.477362
 30
0.0
 11
60.787768
 21
0.0
 31
0.0
  0
TEXT
  5
E
330
7BF
100
AcDbEntity
  8
0
100
AcDbText
 10
59.28776800000001
 20
-65.653947
 30
0.0
 40
3.0
  1
150
 50
90.0
 41
1.943121514129377
  7
SANDVIK_STYLE
 72
     5
 11
59.28776800000001
 21
-55.44796899999999
 31
0.0
100
AcDbText
  0
ENDBLK
  5
F
330
7BF
100
AcDbEntity
  8
0
100
AcDbBlockEnd
  0
BLOCK
  5
10
330
7C0
100
AcDbEntity
  8
0
100
AcDbBlockBegin
  2
ASSORTEDPART2
 70
     0
 10
0.0
 20
0.0
 30
0.0
  3
ASSORTEDPART2
  1

  0
LINE
  5
11
330
7C0
100
AcDbEntity
  8
0
100
AcDbLine
 10
26.113048
 20
-126.35
 30
0.0
 11
48.115603
 21
-126.35
 31
0.0
  0
LINE
  5
12
330
7C0
100
AcDbEntity
  8
0
100
AcDbLine
 10
25.613681
 20
-98.84999999999999
 30
0.0
 11
48.115603
 21
-98.84999999999999
 31
0.0
  0
LINE
  5
13
330
7C0
100
AcDbEntity
  8
0
100
AcDbLine
 10
46.638241
 20
-126.35
 30
0.0
 11
46.638241
 21
-98.84999999999999
 31
0.0
  0
LINE
  5
14
330
7C0
100
AcDbEntity
  8
0
100
AcDbLine
 10
46.638241
 20
-126.35
 30
0.0
 11
46.443742
 21
-124.872638
 31
0.0
  0
LINE
  5
15
330
7C0
100
AcDbEntity
  8
0
100
AcDbLine
 10
46.443742
 20
-124.872638
 30
0.0
 11
46.832739
 21
-124.872638
 31
0.0
  0
LINE
  5
16
330
7C0
100
AcDbEntity
  8
0
100
AcDbLine
 10
46.832739
 20
-124.872638
 30
0.0
 11
46.832739
 21
-124.872638
 31
0.0
  0
LINE
  5
17
330
7C0
100
AcDbEntity
  8
0
100
AcDbLine
 10
46.832739
 20
-124.872638
 30
0.0
 11
46.638241
 21
-126.35
 31
0.0
  0
LINE
  5
18
330
7C0
100
AcDbEntity
  8
0
100
AcDbLine
 10
46.638241
 20
-98.84999999999999
 30
0.0
 11
46.832739
 21
-100.327362
 31
0.0
  0
LINE
  5
19
330
7C0
100
AcDbEntity
  8
0
100
AcDbLine
 10
46.832739
 20
-100.327362
 30
0.0
 11
46.443742
 21
-100.327362
 31
0.0
  0
LINE
  5
1A
330
7C0
100
AcDbEntity
  8
0
100
AcDbLine
 10
46.443742
 20
-100.327362
 30
0.0
 11
46.443742
 21
-100.327362
 31
0.0
  0
LINE
  5
1B
330
7C0
100
AcDbEntity
  8
0
100
AcDbLine
 10
46.443742
 20
-100.327362
 30
0.0
 11
46.638241
 21
-98.84999999999999
 31
0.0
  0
TEXT
  5
1C
330
7C0
100
AcDbEntity
  8
0
100
AcDbText
 10
45.13824099999999
 20
-115.667105
 30
0.0
 40
3.0
  1
31.8
 50
90.0
 41
2.228938373983742
  7
SANDVIK_STYLE
 72
     5
 11
45.13824099999999
 21
-101.959134
 31
0.0
100
AcDbText
  0
ENDBLK
  5
1D
330
7C0
100
AcDbEntity
  8
0
100
AcDbBlockEnd
  0
BLOCK
  5
1E
330
7C1
100
AcDbEntity
  8
0
100
AcDbBlockBegin
  2
ASSORTEDPART3
 70
     0
 10
0.0
 20
0.0
 30
0.0
  3
ASSORTEDPART3
  1

  0
LINE
  5
1F
330
7C1
100
AcDbEntity
  8
0
100
AcDbLine
 10
24.875
 20
0.7386810000000001
 30
0.0
 11
24.875
 21
12.909904
 31
0.0
  0
LINE
  5
20
330
7C1
100
AcDbEntity
  8
0
100
AcDbLine
 10
0.0
 20
0.7386810000000001
 30
0.0
 11
0.0
 21
12.909904
 31
0.0
  0
LINE
  5
21
330
7C1
100
AcDbEntity
  8
0
100
AcDbLine
 10
24.875
 20
11.432542
 30
0.0
 11
0.0
 21
11.432542
 31
0.0
  0
LINE
  5
22
330
7C1
100
AcDbEntity
  8
0
100
AcDbLine
 10
24.875
 20
11.432542
 30
0.0
 11
23.397638
 21
11.238043
 31
0.0
  0
LINE
  5
23
330
7C1
100
AcDbEntity
  8
0
100
AcDbLine
 10
23.397638
 20
11.238043
 30
0.0
 11
23.397638
 21
11.62704
 31
0.0
  0
LINE
  5
24
330
7C1
100
AcDbEntity
  8
0
100
AcDbLine
 10
23.397638
 20
11.62704
 30
0.0
 11
23.397638
 21
11.62704
 31
0.0
  0
LINE
  5
25
330
7C1
100
AcDbEntity
  8
0
100
AcDbLine
 10
23.397638
 20
11.62704
 30
0.0
 11
24.875
 21
11.432542
 31
0.0
  0
LINE
  5
26
330
7C1
100
AcDbEntity
  8
0
100
AcDbLine
 10
0.0
 20
11.432542
 30
0.0
 11
1.477362
 21
11.62704
 31
0.0
  0
LINE
  5
27
330
7C1
100
AcDbEntity
  8
0
100
AcDbLine
 10
1.477362
 20
11.62704
 30
0.0
 11
1.477362
 21
11.238043
 31
0.0
  0
LINE
  5
28
330
7C1
100
AcDbEntity
  8
0
100
AcDbLine
 10
1.477362
 20
11.238043
 30
0.0
 11
1.477362
 21
11.238043
 31
0.0
  0
LINE
  5
29
330
7C1
100
AcDbEntity
  8
0
100
AcDbLine
 10
1.477362
 20
11.238043
 30
0.0
 11
0.0
 21
11.432542
 31
0.0
  0
TEXT
  5
2A
330
7C1
100
AcDbEntity
  8
0
100
AcDbText
 10
10.684868
 20
12.932542
 30
0.0
 40
3.0
  1
25
 41
1.730389534915947
  7
SANDVIK_STYLE
 72
     5
 11
17.388854
 21
12.932542
 31
0.0
100
AcDbText
  0
ENDBLK
  5
2B
330
7C1
100
AcDbEntity
  8
0
100
AcDbBlockEnd
  0
BLOCK
  5
2C
330
7C2
100
AcDbEntity
  8
0
100
AcDbBlockBegin
  2
ASSORTEDPART4
 70
     0
 10
0.0
 20
0.0
 30
0.0
  3
ASSORTEDPART4
  1

  0
LINE
  5
2D
330
7C2
100
AcDbEntity
  8
0
100
AcDbLine
 10
25.37436700000001
 20
-127.088681
 30
0.0
 11
25.37436700000001
 21
-141.871493
 31
0.0
  0
LINE
  5
2E
330
7C2
100
AcDbEntity
  8
0
100
AcDbLine
 10
0.0
 20
-122.455184
 30
0.0
 11
0.0
 21
-141.871493
 31
0.0
  0
LINE
  5
2F
330
7C2
100
AcDbEntity
  8
0
100
AcDbLine
 10
25.37436700000001
 20
-140.394131
 30
0.0
 11
0.0
 21
-140.394131
 31
0.0
  0
LINE
  5
30
330
7C2
100
AcDbEntity
  8
0
100
AcDbLine
 10
25.37436700000001
 20
-140.394131
 30
0.0
 11
23.897005
 21
-140.588629
 31
0.0
  0
LINE
  5
31
330
7C2
100
AcDbEntity
  8
0
100
AcDbLine
 10
23.897005
 20
-140.588629
 30
0.0
 11
23.897005
 21
-140.199632
 31
0.0
  0
LINE
  5
32
330
7C2
100
AcDbEntity
  8
0
100
AcDbLine
 10
23.897005
 20
-140.199632
 30
0.0
 11
23.897005
 21
-140.199632
 31
0.0
  0
LINE
  5
33
330
7C2
100
AcDbEntity
  8
0
100
AcDbLine
 10
23.897005
 20
-140.199632
 30
0.0
 11
25.37436700000001
 21
-140.394131
 31
0.0
  0
LINE
  5
34
330
7C2
100
AcDbEntity
  8
0
100
AcDbLine
 10
0.0
 20
-140.394131
 30
0.0
 11
1.477362
 21
-140.199632
 31
0.0
  0
LINE
  5
35
330
7C2
100
AcDbEntity
  8
0
100
AcDbLine
 10
1.477362
 20
-140.199632
 30
0.0
 11
1.477362
 21
-140.588629
 31
0.0
  0
LINE
  5
36
330
7C2
100
AcDbEntity
  8
0
100
AcDbLine
 10
1.477362
 20
-140.588629
 30
0.0
 11
1.477362
 21
-140.588629
 31
0.0
  0
LINE
  5
37
330
7C2
100
AcDbEntity
  8
0
100
AcDbLine
 10
1.477362
 20
-140.588629
 30
0.0
 11
0.0
 21
-140.394131
 31
0.0
  0
TEXT
  5
38
330
7C2
100
AcDbEntity
  8
0
100
AcDbText
 10
8.143762999999999
 20
-138.894131
 30
0.0
 40
3.0
  1
25.30
 41
1.94410978696909
  7
SANDVIK_STYLE
 72
     5
 11
25.353727
 21
-138.894131
 31
0.0
100
AcDbText
  0
ENDBLK
  5
39
330
7C2
100
AcDbEntity
  8
0
100
AcDbBlockEnd
  0
ENDSEC
  0
SECTION
  2
ENTITIES
  0
LINE
  5
3A
330
78F
100
AcDbEntity
  8
1
100
AcDbLine
 10
21.025
 20
-104.85
 30
0.0
 11
-0.028907
 21
-104.85
 31
0.0
  0
LINE
  5
3B
330
78F
100
AcDbEntity
  8
1
100
AcDbLine
 10
-0.028907
 20
-100.991189
 30
0.0
 11
-0.028907
 21
-104.85
 31
0.0
  0
LINE
  5
3C
330
78F
100
AcDbEntity
  8
1
100
AcDbLine
 10
24.975
 20
-100.991189
 30
0.0
 11
-0.028907
 21
-100.991189
 31
0.0
  0
LINE
  5
3D
330
78F
100
AcDbEntity
  8
1
100
AcDbLine
 10
24.975
 20
-111.209369
 30
0.0
 11
22.625
 21
-111.209369
 31
0.0
  0
LINE
  5
3E
330
78F
100
AcDbEntity
  8
1
100
AcDbLine
 10
24.975
 20
-121.724877
 30
0.0
 11
22.625
 21
-121.724877
 31
0.0
  0
LINE
  5
3F
330
78F
100
AcDbEntity
  8
1
100
AcDbLine
 10
24.975
 20
-99.35
 30
0.0
 11
-0.002182
 21
-99.35
 31
0.0
  0
LINE
  5
40
330
78F
100
AcDbEntity
  8
1
100
AcDbLine
 10
-0.002182
 20
-99.35
 30
0.0
 11
-0.028907
 21
-100.991189
 31
0.0
  0
LINE
  5
41
330
78F
100
AcDbEntity
  8
1
100
AcDbLine
 10
23.143425
 20
-121.874877
 30
0.0
 11
24.456575
 21
-121.874877
 31
0.0
  0
LINE
  5
42
330
78F
100
AcDbEntity
  8
1
100
AcDbLine
 10
24.875
 20
-98.84999999999999
 30
0.0
 11
0.0
 21
-98.84999999999999
 31
0.0
  0
LINE
  5
43
330
78F
100
AcDbEntity
  8
1
100
AcDbLine
 10
24.975
 20
-98.95000000000001
 30
0.0
 11
24.875
 21
-98.84999999999999
 31
0.0
  0
LINE
  5
44
330
78F
100
AcDbEntity
  8
1
100
AcDbLine
 10
-0.002182
 20
-99.35
 30
0.0
 11
0.0
 21
-98.84999999999999
 31
0.0
  0
LINE
  5
45
330
78F
100
AcDbEntity
  8
1
100
AcDbLine
 10
24.875
 20
0.0
 30
0.0
 11
0.0
 21
0.0
 31
0.0
  0
LINE
  5
46
330
78F
100
AcDbEntity
  8
1
100
AcDbLine
 10
24.875
 20
-98.84999999999999
 30
0.0
 11
24.875
 21
0.0
 31
0.0
  0
LINE
  5
47
330
78F
100
AcDbEntity
  8
1
100
AcDbLine
 10
0.0
 20
0.0
 30
0.0
 11
0.0
 21
-98.84999999999999
 31
0.0
  0
LINE
  5
48
330
78F
100
AcDbEntity
  8
1
100
AcDbLine
 10
25.061476
 20
-121.975001
 30
0.0
 11
22.538524
 21
-121.975001
 31
0.0
  0
LINE
  5
49
330
78F
100
AcDbEntity
  8
1
100
AcDbLine
 10
22.364868
 20
-123.958335
 30
0.0
 11
25.235132
 21
-123.958335
 31
0.0
  0
LINE
  5
4A
330
78F
100
AcDbEntity
  8
1
100
AcDbLine
 10
22.75
 20
-121.776196
 30
0.0
 11
22.538543
 21
-121.776196
 31
0.0
  0
LINE
  5
4B
330
78F
100
AcDbEntity
  8
1
100
AcDbLine
 10
22.7517
 20
-121.775982
 30
0.0
 11
22.75
 21
-121.776196
 31
0.0
  0
LINE
  5
4C
330
78F
100
AcDbEntity
  8
1
100
AcDbLine
 10
24.8483
 20
-121.775982
 30
0.0
 11
24.85
 21
-121.776196
 31
0.0
  0
LINE
  5
4D
330
78F
100
AcDbEntity
  8
1
100
AcDbLine
 10
24.85
 20
-121.776196
 30
0.0
 11
25.061457
 21
-121.776196
 31
0.0
  0
LINE
  5
4E
330
78F
100
AcDbEntity
  8
1
100
AcDbLine
 10
24.975
 20
-121.494288
 30
0.0
 11
25.061465
 21
-121.494288
 31
0.0
  0
LINE
  5
4F
330
78F
100
AcDbEntity
  8
1
100
AcDbLine
 10
22.625
 20
-121.494288
 30
0.0
 11
22.538535
 21
-121.494288
 31
0.0
  0
LINE
  5
50
330
78F
100
AcDbEntity
  8
1
100
AcDbLine
 10
24.975
 20
-119.921374
 30
0.0
 11
25.061572
 21
-119.921944
 31
0.0
  0
LINE
  5
51
330
78F
100
AcDbEntity
  8
1
100
AcDbLine
 10
25.059715
 20
-119.92195
 30
0.0
 11
25.059395
 21
-121.494287
 31
0.0
  0
LINE
  5
52
330
78F
100
AcDbEntity
  8
1
100
AcDbLine
 10
22.625
 20
-119.921374
 30
0.0
 11
22.538428
 21
-119.921944
 31
0.0
  0
LINE
  5
53
330
78F
100
AcDbEntity
  8
1
100
AcDbLine
 10
22.540285
 20
-119.92195
 30
0.0
 11
22.540605
 21
-121.494287
 31
0.0
  0
LINE
  5
54
330
78F
100
AcDbEntity
  8
1
100
AcDbLine
 10
22.625
 20
-119.714603
 30
0.0
 11
22.538415
 21
-119.714045
 31
0.0
  0
LINE
  5
55
330
78F
100
AcDbEntity
  8
1
100
AcDbLine
 10
24.975
 20
-119.714603
 30
0.0
 11
25.061585
 21
-119.714045
 31
0.0
  0
LINE
  5
56
330
78F
100
AcDbEntity
  8
1
100
AcDbLine
 10
22.540246
 20
-119.714038
 30
0.0
 11
22.539736
 21
-116.648398
 31
0.0
  0
LINE
  5
57
330
78F
100
AcDbEntity
  8
1
100
AcDbLine
 10
25.059754
 20
-119.714038
 30
0.0
 11
25.060264
 21
-116.648398
 31
0.0
  0
LINE
  5
58
330
78F
100
AcDbEntity
  8
1
100
AcDbLine
 10
22.27418
 20
-125.539883
 30
0.0
 11
21.025
 21
-124.435635
 31
0.0
  0
LINE
  5
59
330
78F
100
AcDbEntity
  8
1
100
AcDbLine
 10
22.5375
 20
-121.975011
 30
0.0
 11
22.5375
 21
-122.256908
 31
0.0
  0
LINE
  5
5A
330
78F
100
AcDbEntity
  8
1
100
AcDbLine
 10
25.0625
 20
-121.975011
 30
0.0
 11
25.0625
 21
-122.256908
 31
0.0
  0
LINE
  5
5B
330
78F
100
AcDbEntity
  8
1
100
AcDbLine
 10
21.025
 20
-104.85
 30
0.0
 11
21.025
 21
-124.435635
 31
0.0
  0
LINE
  5
5C
330
78F
100
AcDbEntity
  8
1
100
AcDbLine
 10
0.028755
 20
-105.875419
 30
0.0
 11
21.025
 21
-124.435635
 31
0.0
  0
LINE
  5
5D
330
78F
100
AcDbEntity
  8
1
100
AcDbLine
 10
22.625
 20
-121.726673
 30
0.0
 11
22.625
 21
-106.45
 31
0.0
  0
LINE
  5
5E
330
78F
100
AcDbEntity
  8
1
100
AcDbLine
 10
24.975
 20
-121.726673
 30
0.0
 11
24.975
 21
-98.95000000000001
 31
0.0
  0
LINE
  5
5F
330
78F
100
AcDbEntity
  8
81
100
AcDbLine
 10
0.0
 20
0.0
 30
0.0
 11
0.0
 21
-121.716503
 31
0.0
  0
LINE
  5
60
330
78F
100
AcDbEntity
  8
80
100
AcDbLine
 10
0.0
 20
0.0
 30
0.0
 11
0.0
 21
6.643863
 31
0.0
  0
POINT
  5
61
330
78F
100
AcDbEntity
  8
81
100
AcDbPoint
 10
25.37436700000001
 20
-126.35
 30
0.0
  0
POINT
  5
62
330
78F
100
AcDbEntity
  8
80
100
AcDbPoint
 10
0.0
 20
0.0
 30
0.0
  0
ARC
  5
63
330
78F
100
AcDbEntity
  8
1
100
AcDbCircle
 10
21.025
 20
-106.45
 30
0.0
 40
1.6
100
AcDbArc
 50
0.0
 51
90.0
  0
TEXT
  5
64
330
78F
100
AcDbEntity
  8
SK6
100
AcDbText
 10
-27.150312
 20
-72.095398
 30
0.0
 40
3.0
  1
R151.20-2525-40
 50
90.0
 41
1.785493138450358
  7
SANDVIK_STYLE
 72
     5
 11
-27.150312
 21
-19.865506
 31
0.0
100
AcDbText
  0
POLYLINE
  5
65
330
78F
100
AcDbEntity
  8
1
100
AcDb3dPolyline
 66
     1
 10
0.0
 20
0.0
 30
0.0
 70
     8
  0
VERTEX
  5
66
330
65
100
AcDbEntity
  8
1
100
AcDbVertex
100
AcDb3dPolylineVertex
 10
24.569785
 20
-121.862186
 30
0.0
 70
    32
  0
VERTEX
  5
67
330
65
100
AcDbEntity
  8
1
100
AcDbVertex
100
AcDb3dPolylineVertex
 10
24.567677
 20
-121.862624
 30
0.0
 70
    32
  0
VERTEX
  5
68
330
65
100
AcDbEntity
  8
1
100
AcDbVertex
100
AcDb3dPolylineVertex
 10
24.565569
 20
-121.863062
 30
0.0
 70
    32
  0
VERTEX
  5
69
330
65
100
AcDbEntity
  8
1
100
AcDbVertex
100
AcDb3dPolylineVertex
 10
24.563461
 20
-121.863501
 30
0.0
 70
    32
  0
VERTEX
  5
6A
330
65
100
AcDbEntity
  8
1
100
AcDbVertex
100
AcDb3dPolylineVertex
 10
24.561351
 20
-121.86393
 30
0.0
 70
    32
  0
VERTEX
  5
6B
330
65
100
AcDbEntity
  8
1
100
AcDbVertex
100
AcDb3dPolylineVertex
 10
24.559236
 20
-121.864333
 30
0.0
 70
    32
  0
VERTEX
  5
6C
330
65
100
AcDbEntity
  8
1
100
AcDbVertex
100
AcDb3dPolylineVertex
 10
24.557121
 20
-121.864735
 30
0.0
 70
    32
  0
VERTEX
  5
6D
330
65
100
AcDbEntity
  8
1
100
AcDbVertex
100
AcDb3dPolylineVertex
 10
24.555006
 20
-121.865138
 30
0.0
 70
    32
  0
VERTEX
  5
6E
330
65
100
AcDbEntity
  8
1
100
AcDbVertex
100
AcDb3dPolylineVertex
 10
24.552888
 20
-121.865524
 30
0.0
 70
    32
  0
VERTEX
  5
6F
330
65
100
AcDbEntity
  8
1
100
AcDbVertex
100
AcDb3dPolylineVertex
 10
24.550766
 20
-121.865891
 30
0.0
 70
    32
  0
VERTEX
  5
70
330
65
100
AcDbEntity
  8
1
100
AcDbVertex
100
AcDb3dPolylineVertex
 10
24.548644
 20
-121.866258
 30
0.0
 70
    32
  0
VERTEX
  5
71
330
65
100
AcDbEntity
  8
1
100
AcDbVertex
100
AcDb3dPolylineVertex
 10
24.546523
 20
-121.866625
 30
0.0
 70
    32
  0
VERTEX
  5
72
330
65
100
AcDbEntity
  8
1
100
AcDbVertex
100
AcDb3dPolylineVertex
 10
24.544397
 20
-121.866969
 30
0.0
 70
    32
  0
VERTEX
  5
73
330
65
100
AcDbEntity
  8
1
100
AcDbVertex
100
AcDb3dPolylineVertex
 10
24.54227
 20
-121.867301
 30
0.0
 70
    32
  0
VERTEX
  5
74
330
65
100
AcDbEntity
  8
1
100
AcDbVertex
100
AcDb3dPolylineVertex
 10
24.540143
 20
-121.867633
 30
0.0
 70
    32
  0
VERTEX
  5
75
330
65
100
AcDbEntity
  8
1
100
AcDbVertex
100
AcDb3dPolylineVertex
 10
24.538015
 20
-121.867965
 30
0.0
 70
    32
  0
VERTEX
  5
76
330
65
100
AcDbEntity
  8
1
100
AcDbVertex
100
AcDb3dPolylineVertex
 10
24.535884
 20
-121.868267
 30
0.0
 70
    32
  0
VERTEX
  5
77
330
65
100
AcDbEntity
  8
1
100
AcDbVertex
100
AcDb3dPolylineVertex
 10
24.53375100000001
 20
-121.868564
 30
0.0
 70
    32
  0
VERTEX
  5
78
330
65
100
AcDbEntity
  8
1
100
AcDbVertex
100
AcDb3dPolylineVertex
 10
24.531619
 20
-121.86886
 30
0.0
 70
    32
  0
VERTEX
  5
79
330
65
100
AcDbEntity
  8
1
100
AcDbVertex
100
AcDb3dPolylineVertex
 10
24.529486
 20
-121.869157
 30
0.0
 70
    32
  0
SEQEND
  5
7A
330
65
100
AcDbEntity
  8
1
  0
POLYLINE
  5
7B
330
78F
100
AcDbEntity
  8
1
100
AcDb3dPolyline
 66
     1
 10
0.0
 20
0.0
 30
0.0
 70
     8
  0
VERTEX
  5
7C
330
7B
100
AcDbEntity
  8
1
100
AcDbVertex
100
AcDb3dPolylineVertex
 10
23.030215
 20
-121.862186
 30
0.0
 70
    32
  0
VERTEX
  5
7D
330
7B
100
AcDbEntity
  8
1
100
AcDbVertex
100
AcDb3dPolylineVertex
 10
23.032323
 20
-121.862624
 30
0.0
 70
    32
  0
VERTEX
  5
7E
330
7B
100
AcDbEntity
  8
1
100
AcDbVertex
100
AcDb3dPolylineVertex
 10
23.034431
 20
-121.863062
 30
0.0
 70
    32
  0
VERTEX
  5
7F
330
7B
100
AcDbEntity
  8
1
100
AcDbVertex
100
AcDb3dPolylineVertex
 10
23.036539
 20
-121.863501
 30
0.0
 70
    32
  0
VERTEX
  5
80
330
7B
100
AcDbEntity
  8
1
100
AcDbVertex
100
AcDb3dPolylineVertex
 10
23.038649
 20
-121.86393
 30
0.0
 70
    32
  0
VERTEX
  5
81
330
7B
100
AcDbEntity
  8
1
100
AcDbVertex
100
AcDb3dPolylineVertex
 10
23.040764
 20
-121.864333
 30
0.0
 70
    32
  0
VERTEX
  5
82
330
7B
100
AcDbEntity
  8
1
100
AcDbVertex
100
AcDb3dPolylineVertex
 10
23.042879
 20
-121.864736
 30
0.0
 70
    32
  0
VERTEX
  5
83
330
7B
100
AcDbEntity
  8
1
100
AcDbVertex
100
AcDb3dPolylineVertex
 10
23.044994
 20
-121.865139
 30
0.0
 70
    32
  0
VERTEX
  5
84
330
7B
100
AcDbEntity
  8
1
100
AcDbVertex
100
AcDb3dPolylineVertex
 10
23.047112
 20
-121.865525
 30
0.0
 70
    32
  0
VERTEX
  5
85
330
7B
100
AcDbEntity
  8
1
100
AcDbVertex
100
AcDb3dPolylineVertex
 10
23.049234
 20
-121.865892
 30
0.0
 70
    32
  0
VERTEX
  5
86
330
7B
100
AcDbEntity
  8
1
100
AcDbVertex
100
AcDb3dPolylineVertex
 10
23.051355
 20
-121.866259
 30
0.0
 70
    32
  0
VERTEX
  5
87
330
7B
100
AcDbEntity
  8
1
100
AcDbVertex
100
AcDb3dPolylineVertex
 10
23.053477
 20
-121.866626
 30
0.0
 70
    32
  0
VERTEX
  5
88
330
7B
100
AcDbEntity
  8
1
100
AcDbVertex
100
AcDb3dPolylineVertex
 10
23.055602
 20
-121.86697
 30
0.0
 70
    32
  0
VERTEX
  5
89
330
7B
100
AcDbEntity
  8
1
100
AcDbVertex
100
AcDb3dPolylineVertex
 10
23.05773
 20
-121.867301
 30
0.0
 70
    32
  0
VERTEX
  5
8A
330
7B
100
AcDbEntity
  8
1
100
AcDbVertex
100
AcDb3dPolylineVertex
 10
23.059857
 20
-121.867633
 30
0.0
 70
    32
  0
VERTEX
  5
8B
330
7B
100
AcDbEntity
  8
1
100
AcDbVertex
100
AcDb3dPolylineVertex
 10
23.061985
 20
-121.867965
 30
0.0
 70
    32
  0
VERTEX
  5
8C
330
7B
100
AcDbEntity
  8
1
100
AcDbVertex
100
AcDb3dPolylineVertex
 10
23.064116
 20
-121.868267
 30
0.0
 70
    32
  0
VERTEX
  5
8D
330
7B
100
AcDbEntity
  8
1
100
AcDbVertex
100
AcDb3dPolylineVertex
 10
23.066249
 20
-121.868564
 30
0.0
 70
    32
  0
VERTEX
  5
8E
330
7B
100
AcDbEntity
  8
1
100
AcDbVertex
100
AcDb3dPolylineVertex
 10
23.068381
 20
-121.86886
 30
0.0
 70
    32
  0
VERTEX
  5
8F
330
7B
100
AcDbEntity
  8
1
100
AcDbVertex
100
AcDb3dPolylineVertex
 10
23.070514
 20
-121.869157
 30
0.0
 70
    32
  0
SEQEND
  5
90
330
7B
100
AcDbEntity
  8
1
  0
POLYLINE
  5
91
330
78F
100
AcDbEntity
  8
1
100
AcDb3dPolyline
 66
     1
 10
0.0
 20
0.0
 30
0.0
 70
     8
  0
VERTEX
  5
92
330
91
100
AcDbEntity
  8
1
100
AcDbVertex
100
AcDb3dPolylineVertex
 10
25.260661
 20
-123.462908
 30
0.0
 70
    32
  0
VERTEX
  5
93
330
91
100
AcDbEntity
  8
1
100
AcDbVertex
100
AcDb3dPolylineVertex
 10
25.127874
 20
-123.46295
 30
0.0
 70
    32
  0
VERTEX
  5
94
330
91
100
AcDbEntity
  8
1
100
AcDbVertex
100
AcDb3dPolylineVertex
 10
24.995086
 20
-123.462991
 30
0.0
 70
    32
  0
VERTEX
  5
95
330
91
100
AcDbEntity
  8
1
100
AcDbVertex
100
AcDb3dPolylineVertex
 10
24.862299
 20
-123.463033
 30
0.0
 70
    32
  0
VERTEX
  5
96
330
91
100
AcDbEntity
  8
1
100
AcDbVertex
100
AcDb3dPolylineVertex
 10
24.729512
 20
-123.463075
 30
0.0
 70
    32
  0
VERTEX
  5
97
330
91
100
AcDbEntity
  8
1
100
AcDbVertex
100
AcDb3dPolylineVertex
 10
24.596724
 20
-123.463117
 30
0.0
 70
    32
  0
VERTEX
  5
98
330
91
100
AcDbEntity
  8
1
100
AcDbVertex
100
AcDb3dPolylineVertex
 10
24.463937
 20
-123.463158
 30
0.0
 70
    32
  0
VERTEX
  5
99
330
91
100
AcDbEntity
  8
1
100
AcDbVertex
100
AcDb3dPolylineVertex
 10
24.331149
 20
-123.4632
 30
0.0
 70
    32
  0
VERTEX
  5
9A
330
91
100
AcDbEntity
  8
1
100
AcDbVertex
100
AcDb3dPolylineVertex
 10
24.198362
 20
-123.463242
 30
0.0
 70
    32
  0
VERTEX
  5
9B
330
91
100
AcDbEntity
  8
1
100
AcDbVertex
100
AcDb3dPolylineVertex
 10
24.065575
 20
-123.463284
 30
0.0
 70
    32
  0
VERTEX
  5
9C
330
91
100
AcDbEntity
  8
1
100
AcDbVertex
100
AcDb3dPolylineVertex
 10
23.932787
 20
-123.463325
 30
0.0
 70
    32
  0
VERTEX
  5
9D
330
91
100
AcDbEntity
  8
1
100
AcDbVertex
100
AcDb3dPolylineVertex
 10
23.8
 20
-123.463367
 30
0.0
 70
    32
  0
SEQEND
  5
9E
330
91
100
AcDbEntity
  8
1
  0
POLYLINE
  5
9F
330
78F
100
AcDbEntity
  8
1
100
AcDb3dPolyline
 66
     1
 10
0.0
 20
0.0
 30
0.0
 70
     8
  0
VERTEX
  5
A0
330
9F
100
AcDbEntity
  8
1
100
AcDbVertex
100
AcDb3dPolylineVertex
 10
23.799998
 20
-123.463335
 30
0.0
 70
    32
  0
VERTEX
  5
A1
330
9F
100
AcDbEntity
  8
1
100
AcDbVertex
100
AcDb3dPolylineVertex
 10
23.799998
 20
-123.35366
 30
0.0
 70
    32
  0
VERTEX
  5
A2
330
9F
100
AcDbEntity
  8
1
100
AcDbVertex
100
AcDb3dPolylineVertex
 10
23.799998
 20
-123.243985
 30
0.0
 70
    32
  0
VERTEX
  5
A3
330
9F
100
AcDbEntity
  8
1
100
AcDbVertex
100
AcDb3dPolylineVertex
 10
23.799998
 20
-123.134309
 30
0.0
 70
    32
  0
VERTEX
  5
A4
330
9F
100
AcDbEntity
  8
1
100
AcDbVertex
100
AcDb3dPolylineVertex
 10
23.799998
 20
-123.024634
 30
0.0
 70
    32
  0
VERTEX
  5
A5
330
9F
100
AcDbEntity
  8
1
100
AcDbVertex
100
AcDb3dPolylineVertex
 10
23.799998
 20
-122.914959
 30
0.0
 70
    32
  0
VERTEX
  5
A6
330
9F
100
AcDbEntity
  8
1
100
AcDbVertex
100
AcDb3dPolylineVertex
 10
23.799998
 20
-122.805284
 30
0.0
 70
    32
  0
VERTEX
  5
A7
330
9F
100
AcDbEntity
  8
1
100
AcDbVertex
100
AcDb3dPolylineVertex
 10
23.799998
 20
-122.695609
 30
0.0
 70
    32
  0
VERTEX
  5
A8
330
9F
100
AcDbEntity
  8
1
100
AcDbVertex
100
AcDb3dPolylineVertex
 10
23.799998
 20
-122.585934
 30
0.0
 70
    32
  0
VERTEX
  5
A9
330
9F
100
AcDbEntity
  8
1
100
AcDbVertex
100
AcDb3dPolylineVertex
 10
23.799998
 20
-122.476258
 30
0.0
 70
    32
  0
VERTEX
  5
AA
330
9F
100
AcDbEntity
  8
1
100
AcDbVertex
100
AcDb3dPolylineVertex
 10
23.799998
 20
-122.366583
 30
0.0
 70
    32
  0
VERTEX
  5
AB
330
9F
100
AcDbEntity
  8
1
100
AcDbVertex
100
AcDb3dPolylineVertex
 10
23.799998
 20
-122.256908
 30
0.0
 70
    32
  0
SEQEND
  5
AC
330
9F
100
AcDbEntity
  8
1
  0
POLYLINE
  5
AD
330
78F
100
AcDbEntity
  8
1
100
AcDb3dPolyline
 66
     1
 10
0.0
 20
0.0
 30
0.0
 70
     8
  0
VERTEX
  5
AE
330
AD
100
AcDbEntity
  8
1
100
AcDbVertex
100
AcDb3dPolylineVertex
 10
23.8
 20
-122.256908
 30
0.0
 70
    32
  0
VERTEX
  5
AF
330
AD
100
AcDbEntity
  8
1
100
AcDbVertex
100
AcDb3dPolylineVertex
 10
23.914679
 20
-122.256908
 30
0.0
 70
    32
  0
VERTEX
  5
B0
330
AD
100
AcDbEntity
  8
1
100
AcDbVertex
100
AcDb3dPolylineVertex
 10
24.029358
 20
-122.256908
 30
0.0
 70
    32
  0
VERTEX
  5
B1
330
AD
100
AcDbEntity
  8
1
100
AcDbVertex
100
AcDb3dPolylineVertex
 10
24.144037
 20
-122.256908
 30
0.0
 70
    32
  0
VERTEX
  5
B2
330
AD
100
AcDbEntity
  8
1
100
AcDbVertex
100
AcDb3dPolylineVertex
 10
24.258716
 20
-122.256908
 30
0.0
 70
    32
  0
VERTEX
  5
B3
330
AD
100
AcDbEntity
  8
1
100
AcDbVertex
100
AcDb3dPolylineVertex
 10
24.373395
 20
-122.256908
 30
0.0
 70
    32
  0
VERTEX
  5
B4
330
AD
100
AcDbEntity
  8
1
100
AcDbVertex
100
AcDb3dPolylineVertex
 10
24.488073
 20
-122.256908
 30
0.0
 70
    32
  0
VERTEX
  5
B5
330
AD
100
AcDbEntity
  8
1
100
AcDbVertex
100
AcDb3dPolylineVertex
 10
24.602752
 20
-122.256908
 30
0.0
 70
    32
  0
VERTEX
  5
B6
330
AD
100
AcDbEntity
  8
1
100
AcDbVertex
100
AcDb3dPolylineVertex
 10
24.717431
 20
-122.256908
 30
0.0
 70
    32
  0
VERTEX
  5
B7
330
AD
100
AcDbEntity
  8
1
100
AcDbVertex
100
AcDb3dPolylineVertex
 10
24.83211
 20
-122.256908
 30
0.0
 70
    32
  0
VERTEX
  5
B8
330
AD
100
AcDbEntity
  8
1
100
AcDbVertex
100
AcDb3dPolylineVertex
 10
24.946789
 20
-122.256908
 30
0.0
 70
    32
  0
VERTEX
  5
B9
330
AD
100
AcDbEntity
  8
1
100
AcDbVertex
100
AcDb3dPolylineVertex
 10
25.061468
 20
-122.256908
 30
0.0
 70
    32
  0
SEQEND
  5
BA
330
AD
100
AcDbEntity
  8
1
  0
POLYLINE
  5
BB
330
78F
100
AcDbEntity
  8
1
100
AcDb3dPolyline
 66
     1
 10
0.0
 20
0.0
 30
0.0
 70
     8
  0
VERTEX
  5
BC
330
BB
100
AcDbEntity
  8
1
100
AcDbVertex
100
AcDb3dPolylineVertex
 10
25.0625
 20
-122.307785
 30
0.0
 70
    32
  0
VERTEX
  5
BD
330
BB
100
AcDbEntity
  8
1
100
AcDbVertex
100
AcDb3dPolylineVertex
 10
25.0625
 20
-122.30316
 30
0.0
 70
    32
  0
VERTEX
  5
BE
330
BB
100
AcDbEntity
  8
1
100
AcDbVertex
100
AcDb3dPolylineVertex
 10
25.0625
 20
-122.298535
 30
0.0
 70
    32
  0
VERTEX
  5
BF
330
BB
100
AcDbEntity
  8
1
100
AcDbVertex
100
AcDb3dPolylineVertex
 10
25.0625
 20
-122.293909
 30
0.0
 70
    32
  0
VERTEX
  5
C0
330
BB
100
AcDbEntity
  8
1
100
AcDbVertex
100
AcDb3dPolylineVertex
 10
25.0625
 20
-122.289284
 30
0.0
 70
    32
  0
VERTEX
  5
C1
330
BB
100
AcDbEntity
  8
1
100
AcDbVertex
100
AcDb3dPolylineVertex
 10
25.0625
 20
-122.284659
 30
0.0
 70
    32
  0
VERTEX
  5
C2
330
BB
100
AcDbEntity
  8
1
100
AcDbVertex
100
AcDb3dPolylineVertex
 10
25.0625
 20
-122.280034
 30
0.0
 70
    32
  0
VERTEX
  5
C3
330
BB
100
AcDbEntity
  8
1
100
AcDbVertex
100
AcDb3dPolylineVertex
 10
25.0625
 20
-122.275409
 30
0.0
 70
    32
  0
VERTEX
  5
C4
330
BB
100
AcDbEntity
  8
1
100
AcDbVertex
100
AcDb3dPolylineVertex
 10
25.0625
 20
-122.270784
 30
0.0
 70
    32
  0
VERTEX
  5
C5
330
BB
100
AcDbEntity
  8
1
100
AcDbVertex
100
AcDb3dPolylineVertex
 10
25.0625
 20
-122.266158
 30
0.0
 70
    32
  0
VERTEX
  5
C6
330
BB
100
AcDbEntity
  8
1
100
AcDbVertex
100
AcDb3dPolylineVertex
 10
25.0625
 20
-122.261533
 30
0.0
 70
    32
  0
VERTEX
  5
C7
330
BB
100
AcDbEntity
  8
1
100
AcDbVertex
100
AcDb3dPolylineVertex
 10
25.0625
 20
-122.256908
 30
0.0
 70
    32
  0
SEQEND
  5
C8
330
BB
100
AcDbEntity
  8
1
  0
POLYLINE
  5
C9
330
78F
100
AcDbEntity
  8
1
100
AcDb3dPolyline
 66
     1
 10
0.0
 20
0.0
 30
0.0
 70
     8
  0
VERTEX
  5
CA
330
C9
100
AcDbEntity
  8
1
100
AcDbVertex
100
AcDb3dPolylineVertex
 10
25.0625
 20
-122.307785
 30
0.0
 70
    32
  0
VERTEX
  5
CB
330
C9
100
AcDbEntity
  8
1
100
AcDbVertex
100
AcDb3dPolylineVertex
 10
25.06279
 20
-122.313287
 30
0.0
 70
    32
  0
VERTEX
  5
CC
330
C9
100
AcDbEntity
  8
1
100
AcDbVertex
100
AcDb3dPolylineVertex
 10
25.063081
 20
-122.318789
 30
0.0
 70
    32
  0
VERTEX
  5
CD
330
C9
100
AcDbEntity
  8
1
100
AcDbVertex
100
AcDb3dPolylineVertex
 10
25.063371
 20
-122.324291
 30
0.0
 70
    32
  0
VERTEX
  5
CE
330
C9
100
AcDbEntity
  8
1
100
AcDbVertex
100
AcDb3dPolylineVertex
 10
25.063752
 20
-122.329783
 30
0.0
 70
    32
  0
VERTEX
  5
CF
330
C9
100
AcDbEntity
  8
1
100
AcDbVertex
100
AcDb3dPolylineVertex
 10
25.064608
 20
-122.335226
 30
0.0
 70
    32
  0
VERTEX
  5
D0
330
C9
100
AcDbEntity
  8
1
100
AcDbVertex
100
AcDb3dPolylineVertex
 10
25.065465
 20
-122.340668
 30
0.0
 70
    32
  0
VERTEX
  5
D1
330
C9
100
AcDbEntity
  8
1
100
AcDbVertex
100
AcDb3dPolylineVertex
 10
25.066322
 20
-122.346111
 30
0.0
 70
    32
  0
VERTEX
  5
D2
330
C9
100
AcDbEntity
  8
1
100
AcDbVertex
100
AcDb3dPolylineVertex
 10
25.067395
 20
-122.351507
 30
0.0
 70
    32
  0
VERTEX
  5
D3
330
C9
100
AcDbEntity
  8
1
100
AcDbVertex
100
AcDb3dPolylineVertex
 10
25.068821
 20
-122.356829
 30
0.0
 70
    32
  0
VERTEX
  5
D4
330
C9
100
AcDbEntity
  8
1
100
AcDbVertex
100
AcDb3dPolylineVertex
 10
25.070247
 20
-122.362151
 30
0.0
 70
    32
  0
VERTEX
  5
D5
330
C9
100
AcDbEntity
  8
1
100
AcDbVertex
100
AcDb3dPolylineVertex
 10
25.071673
 20
-122.367473
 30
0.0
 70
    32
  0
VERTEX
  5
D6
330
C9
100
AcDbEntity
  8
1
100
AcDbVertex
100
AcDb3dPolylineVertex
 10
25.073442
 20
-122.372683
 30
0.0
 70
    32
  0
VERTEX
  5
D7
330
C9
100
AcDbEntity
  8
1
100
AcDbVertex
100
AcDb3dPolylineVertex
 10
25.075421
 20
-122.377825
 30
0.0
 70
    32
  0
VERTEX
  5
D8
330
C9
100
AcDbEntity
  8
1
100
AcDbVertex
100
AcDb3dPolylineVertex
 10
25.077401
 20
-122.382966
 30
0.0
 70
    32
  0
VERTEX
  5
D9
330
C9
100
AcDbEntity
  8
1
100
AcDbVertex
100
AcDb3dPolylineVertex
 10
25.07938
 20
-122.388108
 30
0.0
 70
    32
  0
VERTEX
  5
DA
330
C9
100
AcDbEntity
  8
1
100
AcDbVertex
100
AcDb3dPolylineVertex
 10
25.081797
 20
-122.393055
 30
0.0
 70
    32
  0
VERTEX
  5
DB
330
C9
100
AcDbEntity
  8
1
100
AcDbVertex
100
AcDb3dPolylineVertex
 10
25.084296
 20
-122.397965
 30
0.0
 70
    32
  0
VERTEX
  5
DC
330
C9
100
AcDbEntity
  8
1
100
AcDbVertex
100
AcDb3dPolylineVertex
 10
25.086796
 20
-122.402875
 30
0.0
 70
    32
  0
VERTEX
  5
DD
330
C9
100
AcDbEntity
  8
1
100
AcDbVertex
100
AcDb3dPolylineVertex
 10
25.089295
 20
-122.407785
 30
0.0
 70
    32
  0
SEQEND
  5
DE
330
C9
100
AcDbEntity
  8
1
  0
POLYLINE
  5
DF
330
78F
100
AcDbEntity
  8
1
100
AcDb3dPolyline
 66
     1
 10
0.0
 20
0.0
 30
0.0
 70
     8
  0
VERTEX
  5
E0
330
DF
100
AcDbEntity
  8
1
100
AcDbVertex
100
AcDb3dPolylineVertex
 10
25.18767
 20
-122.578175
 30
0.0
 70
    32
  0
VERTEX
  5
E1
330
DF
100
AcDbEntity
  8
1
100
AcDbVertex
100
AcDb3dPolylineVertex
 10
25.178727
 20
-122.562685
 30
0.0
 70
    32
  0
VERTEX
  5
E2
330
DF
100
AcDbEntity
  8
1
100
AcDbVertex
100
AcDb3dPolylineVertex
 10
25.169784
 20
-122.547195
 30
0.0
 70
    32
  0
VERTEX
  5
E3
330
DF
100
AcDbEntity
  8
1
100
AcDbVertex
100
AcDb3dPolylineVertex
 10
25.16084
 20
-122.531705
 30
0.0
 70
    32
  0
VERTEX
  5
E4
330
DF
100
AcDbEntity
  8
1
100
AcDbVertex
100
AcDb3dPolylineVertex
 10
25.151897
 20
-122.516215
 30
0.0
 70
    32
  0
VERTEX
  5
E5
330
DF
100
AcDbEntity
  8
1
100
AcDbVertex
100
AcDb3dPolylineVertex
 10
25.142954
 20
-122.500725
 30
0.0
 70
    32
  0
VERTEX
  5
E6
330
DF
100
AcDbEntity
  8
1
100
AcDbVertex
100
AcDb3dPolylineVertex
 10
25.134011
 20
-122.485235
 30
0.0
 70
    32
  0
VERTEX
  5
E7
330
DF
100
AcDbEntity
  8
1
100
AcDbVertex
100
AcDb3dPolylineVertex
 10
25.125068
 20
-122.469745
 30
0.0
 70
    32
  0
VERTEX
  5
E8
330
DF
100
AcDbEntity
  8
1
100
AcDbVertex
100
AcDb3dPolylineVertex
 10
25.116124
 20
-122.454255
 30
0.0
 70
    32
  0
VERTEX
  5
E9
330
DF
100
AcDbEntity
  8
1
100
AcDbVertex
100
AcDb3dPolylineVertex
 10
25.107181
 20
-122.438765
 30
0.0
 70
    32
  0
VERTEX
  5
EA
330
DF
100
AcDbEntity
  8
1
100
AcDbVertex
100
AcDb3dPolylineVertex
 10
25.098238
 20
-122.423275
 30
0.0
 70
    32
  0
VERTEX
  5
EB
330
DF
100
AcDbEntity
  8
1
100
AcDbVertex
100
AcDb3dPolylineVertex
 10
25.089295
 20
-122.407785
 30
0.0
 70
    32
  0
SEQEND
  5
EC
330
DF
100
AcDbEntity
  8
1
  0
POLYLINE
  5
ED
330
78F
100
AcDbEntity
  8
1
100
AcDb3dPolyline
 66
     1
 10
0.0
 20
0.0
 30
0.0
 70
     8
  0
VERTEX
  5
EE
330
ED
100
AcDbEntity
  8
1
100
AcDbVertex
100
AcDb3dPolylineVertex
 10
25.214126
 20
-122.666546
 30
0.0
 70
    32
  0
VERTEX
  5
EF
330
ED
100
AcDbEntity
  8
1
100
AcDbVertex
100
AcDb3dPolylineVertex
 10
25.213609
 20
-122.661676
 30
0.0
 70
    32
  0
VERTEX
  5
F0
330
ED
100
AcDbEntity
  8
1
100
AcDbVertex
100
AcDb3dPolylineVertex
 10
25.213092
 20
-122.656806
 30
0.0
 70
    32
  0
VERTEX
  5
F1
330
ED
100
AcDbEntity
  8
1
100
AcDbVertex
100
AcDb3dPolylineVertex
 10
25.212575
 20
-122.651936
 30
0.0
 70
    32
  0
VERTEX
  5
F2
330
ED
100
AcDbEntity
  8
1
100
AcDbVertex
100
AcDb3dPolylineVertex
 10
25.211984
 20
-122.647077
 30
0.0
 70
    32
  0
VERTEX
  5
F3
330
ED
100
AcDbEntity
  8
1
100
AcDbVertex
100
AcDb3dPolylineVertex
 10
25.211023
 20
-122.642275
 30
0.0
 70
    32
  0
VERTEX
  5
F4
330
ED
100
AcDbEntity
  8
1
100
AcDbVertex
100
AcDb3dPolylineVertex
 10
25.210062
 20
-122.637473
 30
0.0
 70
    32
  0
VERTEX
  5
F5
330
ED
100
AcDbEntity
  8
1
100
AcDbVertex
100
AcDb3dPolylineVertex
 10
25.209101
 20
-122.632671
 30
0.0
 70
    32
  0
VERTEX
  5
F6
330
ED
100
AcDbEntity
  8
1
100
AcDbVertex
100
AcDb3dPolylineVertex
 10
25.20797
 20
-122.627911
 30
0.0
 70
    32
  0
VERTEX
  5
F7
330
ED
100
AcDbEntity
  8
1
100
AcDbVertex
100
AcDb3dPolylineVertex
 10
25.206565
 20
-122.62322
 30
0.0
 70
    32
  0
VERTEX
  5
F8
330
ED
100
AcDbEntity
  8
1
100
AcDbVertex
100
AcDb3dPolylineVertex
 10
25.205161
 20
-122.618528
 30
0.0
 70
    32
  0
VERTEX
  5
F9
330
ED
100
AcDbEntity
  8
1
100
AcDbVertex
100
AcDb3dPolylineVertex
 10
25.203756
 20
-122.613837
 30
0.0
 70
    32
  0
VERTEX
  5
FA
330
ED
100
AcDbEntity
  8
1
100
AcDbVertex
100
AcDb3dPolylineVertex
 10
25.202086
 20
-122.609239
 30
0.0
 70
    32
  0
VERTEX
  5
FB
330
ED
100
AcDbEntity
  8
1
100
AcDbVertex
100
AcDb3dPolylineVertex
 10
25.20025
 20
-122.604698
 30
0.0
 70
    32
  0
VERTEX
  5
FC
330
ED
100
AcDbEntity
  8
1
100
AcDbVertex
100
AcDb3dPolylineVertex
 10
25.198414
 20
-122.600158
 30
0.0
 70
    32
  0
VERTEX
  5
FD
330
ED
100
AcDbEntity
  8
1
100
AcDbVertex
100
AcDb3dPolylineVertex
 10
25.196578
 20
-122.595618
 30
0.0
 70
    32
  0
VERTEX
  5
FE
330
ED
100
AcDbEntity
  8
1
100
AcDbVertex
100
AcDb3dPolylineVertex
 10
25.194402
 20
-122.591234
 30
0.0
 70
    32
  0
VERTEX
  5
FF
330
ED
100
AcDbEntity
  8
1
100
AcDbVertex
100
AcDb3dPolylineVertex
 10
25.192158
 20
-122.586881
 30
0.0
 70
    32
  0
VERTEX
  5
100
330
ED
100
AcDbEntity
  8
1
100
AcDbVertex
100
AcDb3dPolylineVertex
 10
25.189914
 20
-122.582528
 30
0.0
 70
    32
  0
VERTEX
  5
101
330
ED
100
AcDbEntity
  8
1
100
AcDbVertex
100
AcDb3dPolylineVertex
 10
25.18767
 20
-122.578175
 30
0.0
 70
    32
  0
SEQEND
  5
102
330
ED
100
AcDbEntity
  8
1
  0
POLYLINE
  5
103
330
78F
100
AcDbEntity
  8
1
100
AcDb3dPolyline
 66
     1
 10
0.0
 20
0.0
 30
0.0
 70
     8
  0
VERTEX
  5
104
330
103
100
AcDbEntity
  8
1
100
AcDbVertex
100
AcDb3dPolylineVertex
 10
25.260658
 20
-123.46548
 30
0.0
 70
    32
  0
VERTEX
  5
105
330
103
100
AcDbEntity
  8
1
100
AcDbVertex
100
AcDb3dPolylineVertex
 10
25.256428
 20
-123.39285
 30
0.0
 70
    32
  0
VERTEX
  5
106
330
103
100
AcDbEntity
  8
1
100
AcDbVertex
100
AcDb3dPolylineVertex
 10
25.252198
 20
-123.320219
 30
0.0
 70
    32
  0
VERTEX
  5
107
330
103
100
AcDbEntity
  8
1
100
AcDbVertex
100
AcDb3dPolylineVertex
 10
25.247968
 20
-123.247589
 30
0.0
 70
    32
  0
VERTEX
  5
108
330
103
100
AcDbEntity
  8
1
100
AcDbVertex
100
AcDb3dPolylineVertex
 10
25.243738
 20
-123.174959
 30
0.0
 70
    32
  0
VERTEX
  5
109
330
103
100
AcDbEntity
  8
1
100
AcDbVertex
100
AcDb3dPolylineVertex
 10
25.239508
 20
-123.102328
 30
0.0
 70
    32
  0
VERTEX
  5
10A
330
103
100
AcDbEntity
  8
1
100
AcDbVertex
100
AcDb3dPolylineVertex
 10
25.235277
 20
-123.029698
 30
0.0
 70
    32
  0
VERTEX
  5
10B
330
103
100
AcDbEntity
  8
1
100
AcDbVertex
100
AcDb3dPolylineVertex
 10
25.231047
 20
-122.957067
 30
0.0
 70
    32
  0
VERTEX
  5
10C
330
103
100
AcDbEntity
  8
1
100
AcDbVertex
100
AcDb3dPolylineVertex
 10
25.226817
 20
-122.884437
 30
0.0
 70
    32
  0
VERTEX
  5
10D
330
103
100
AcDbEntity
  8
1
100
AcDbVertex
100
AcDb3dPolylineVertex
 10
25.222587
 20
-122.811807
 30
0.0
 70
    32
  0
VERTEX
  5
10E
330
103
100
AcDbEntity
  8
1
100
AcDbVertex
100
AcDb3dPolylineVertex
 10
25.218356
 20
-122.739176
 30
0.0
 70
    32
  0
VERTEX
  5
10F
330
103
100
AcDbEntity
  8
1
100
AcDbVertex
100
AcDb3dPolylineVertex
 10
25.214126
 20
-122.666546
 30
0.0
 70
    32
  0
SEQEND
  5
110
330
103
100
AcDbEntity
  8
1
  0
POLYLINE
  5
111
330
78F
100
AcDbEntity
  8
1
100
AcDb3dPolyline
 66
     1
 10
0.0
 20
0.0
 30
0.0
 70
     8
  0
VERTEX
  5
112
330
111
100
AcDbEntity
  8
1
100
AcDbVertex
100
AcDb3dPolylineVertex
 10
22.339313
 20
-123.465479
 30
0.0
 70
    32
  0
VERTEX
  5
113
330
111
100
AcDbEntity
  8
1
100
AcDbVertex
100
AcDb3dPolylineVertex
 10
22.343543
 20
-123.392849
 30
0.0
 70
    32
  0
VERTEX
  5
114
330
111
100
AcDbEntity
  8
1
100
AcDbVertex
100
AcDb3dPolylineVertex
 10
22.347772
 20
-123.320218
 30
0.0
 70
    32
  0
VERTEX
  5
115
330
111
100
AcDbEntity
  8
1
100
AcDbVertex
100
AcDb3dPolylineVertex
 10
22.352002
 20
-123.247588
 30
0.0
 70
    32
  0
VERTEX
  5
116
330
111
100
AcDbEntity
  8
1
100
AcDbVertex
100
AcDb3dPolylineVertex
 10
22.356232
 20
-123.174957
 30
0.0
 70
    32
  0
VERTEX
  5
117
330
111
100
AcDbEntity
  8
1
100
AcDbVertex
100
AcDb3dPolylineVertex
 10
22.360462
 20
-123.102327
 30
0.0
 70
    32
  0
VERTEX
  5
118
330
111
100
AcDbEntity
  8
1
100
AcDbVertex
100
AcDb3dPolylineVertex
 10
22.364691
 20
-123.029696
 30
0.0
 70
    32
  0
VERTEX
  5
119
330
111
100
AcDbEntity
  8
1
100
AcDbVertex
100
AcDb3dPolylineVertex
 10
22.368921
 20
-122.957066
 30
0.0
 70
    32
  0
VERTEX
  5
11A
330
111
100
AcDbEntity
  8
1
100
AcDbVertex
100
AcDb3dPolylineVertex
 10
22.373151
 20
-122.884435
 30
0.0
 70
    32
  0
VERTEX
  5
11B
330
111
100
AcDbEntity
  8
1
100
AcDbVertex
100
AcDb3dPolylineVertex
 10
22.377381
 20
-122.811805
 30
0.0
 70
    32
  0
VERTEX
  5
11C
330
111
100
AcDbEntity
  8
1
100
AcDbVertex
100
AcDb3dPolylineVertex
 10
22.381611
 20
-122.739174
 30
0.0
 70
    32
  0
VERTEX
  5
11D
330
111
100
AcDbEntity
  8
1
100
AcDbVertex
100
AcDb3dPolylineVertex
 10
22.385841
 20
-122.666544
 30
0.0
 70
    32
  0
SEQEND
  5
11E
330
111
100
AcDbEntity
  8
1
  0
POLYLINE
  5
11F
330
78F
100
AcDbEntity
  8
1
100
AcDb3dPolyline
 66
     1
 10
0.0
 20
0.0
 30
0.0
 70
     8
  0
VERTEX
  5
120
330
11F
100
AcDbEntity
  8
1
100
AcDbVertex
100
AcDb3dPolylineVertex
 10
22.385874
 20
-122.666546
 30
0.0
 70
    32
  0
VERTEX
  5
121
330
11F
100
AcDbEntity
  8
1
100
AcDbVertex
100
AcDb3dPolylineVertex
 10
22.386391
 20
-122.661676
 30
0.0
 70
    32
  0
VERTEX
  5
122
330
11F
100
AcDbEntity
  8
1
100
AcDbVertex
100
AcDb3dPolylineVertex
 10
22.386908
 20
-122.656806
 30
0.0
 70
    32
  0
VERTEX
  5
123
330
11F
100
AcDbEntity
  8
1
100
AcDbVertex
100
AcDb3dPolylineVertex
 10
22.387425
 20
-122.651936
 30
0.0
 70
    32
  0
VERTEX
  5
124
330
11F
100
AcDbEntity
  8
1
100
AcDbVertex
100
AcDb3dPolylineVertex
 10
22.388016
 20
-122.647077
 30
0.0
 70
    32
  0
VERTEX
  5
125
330
11F
100
AcDbEntity
  8
1
100
AcDbVertex
100
AcDb3dPolylineVertex
 10
22.388977
 20
-122.642275
 30
0.0
 70
    32
  0
VERTEX
  5
126
330
11F
100
AcDbEntity
  8
1
100
AcDbVertex
100
AcDb3dPolylineVertex
 10
22.389938
 20
-122.637473
 30
0.0
 70
    32
  0
VERTEX
  5
127
330
11F
100
AcDbEntity
  8
1
100
AcDbVertex
100
AcDb3dPolylineVertex
 10
22.390899
 20
-122.632671
 30
0.0
 70
    32
  0
VERTEX
  5
128
330
11F
100
AcDbEntity
  8
1
100
AcDbVertex
100
AcDb3dPolylineVertex
 10
22.39203
 20
-122.627911
 30
0.0
 70
    32
  0
VERTEX
  5
129
330
11F
100
AcDbEntity
  8
1
100
AcDbVertex
100
AcDb3dPolylineVertex
 10
22.393435
 20
-122.62322
 30
0.0
 70
    32
  0
VERTEX
  5
12A
330
11F
100
AcDbEntity
  8
1
100
AcDbVertex
100
AcDb3dPolylineVertex
 10
22.394839
 20
-122.618528
 30
0.0
 70
    32
  0
VERTEX
  5
12B
330
11F
100
AcDbEntity
  8
1
100
AcDbVertex
100
AcDb3dPolylineVertex
 10
22.396244
 20
-122.613837
 30
0.0
 70
    32
  0
VERTEX
  5
12C
330
11F
100
AcDbEntity
  8
1
100
AcDbVertex
100
AcDb3dPolylineVertex
 10
22.397914
 20
-122.609239
 30
0.0
 70
    32
  0
VERTEX
  5
12D
330
11F
100
AcDbEntity
  8
1
100
AcDbVertex
100
AcDb3dPolylineVertex
 10
22.39975
 20
-122.604698
 30
0.0
 70
    32
  0
VERTEX
  5
12E
330
11F
100
AcDbEntity
  8
1
100
AcDbVertex
100
AcDb3dPolylineVertex
 10
22.401586
 20
-122.600158
 30
0.0
 70
    32
  0
VERTEX
  5
12F
330
11F
100
AcDbEntity
  8
1
100
AcDbVertex
100
AcDb3dPolylineVertex
 10
22.403422
 20
-122.595618
 30
0.0
 70
    32
  0
VERTEX
  5
130
330
11F
100
AcDbEntity
  8
1
100
AcDbVertex
100
AcDb3dPolylineVertex
 10
22.405598
 20
-122.591234
 30
0.0
 70
    32
  0
VERTEX
  5
131
330
11F
100
AcDbEntity
  8
1
100
AcDbVertex
100
AcDb3dPolylineVertex
 10
22.407842
 20
-122.586881
 30
0.0
 70
    32
  0
VERTEX
  5
132
330
11F
100
AcDbEntity
  8
1
100
AcDbVertex
100
AcDb3dPolylineVertex
 10
22.410086
 20
-122.582528
 30
0.0
 70
    32
  0
VERTEX
  5
133
330
11F
100
AcDbEntity
  8
1
100
AcDbVertex
100
AcDb3dPolylineVertex
 10
22.41233
 20
-122.578175
 30
0.0
 70
    32
  0
SEQEND
  5
134
330
11F
100
AcDbEntity
  8
1
  0
POLYLINE
  5
135
330
78F
100
AcDbEntity
  8
1
100
AcDb3dPolyline
 66
     1
 10
0.0
 20
0.0
 30
0.0
 70
     8
  0
VERTEX
  5
136
330
135
100
AcDbEntity
  8
1
100
AcDbVertex
100
AcDb3dPolylineVertex
 10
22.412255
 20
-122.578131
 30
0.0
 70
    32
  0
VERTEX
  5
137
330
135
100
AcDbEntity
  8
1
100
AcDbVertex
100
AcDb3dPolylineVertex
 10
22.421199
 20
-122.562641
 30
0.0
 70
    32
  0
VERTEX
  5
138
330
135
100
AcDbEntity
  8
1
100
AcDbVertex
100
AcDb3dPolylineVertex
 10
22.430142
 20
-122.547151
 30
0.0
 70
    32
  0
VERTEX
  5
139
330
135
100
AcDbEntity
  8
1
100
AcDbVertex
100
AcDb3dPolylineVertex
 10
22.439086
 20
-122.531662
 30
0.0
 70
    32
  0
VERTEX
  5
13A
330
135
100
AcDbEntity
  8
1
100
AcDbVertex
100
AcDb3dPolylineVertex
 10
22.448029
 20
-122.516172
 30
0.0
 70
    32
  0
VERTEX
  5
13B
330
135
100
AcDbEntity
  8
1
100
AcDbVertex
100
AcDb3dPolylineVertex
 10
22.456973
 20
-122.500682
 30
0.0
 70
    32
  0
VERTEX
  5
13C
330
135
100
AcDbEntity
  8
1
100
AcDbVertex
100
AcDb3dPolylineVertex
 10
22.465917
 20
-122.485193
 30
0.0
 70
    32
  0
VERTEX
  5
13D
330
135
100
AcDbEntity
  8
1
100
AcDbVertex
100
AcDb3dPolylineVertex
 10
22.474861
 20
-122.469703
 30
0.0
 70
    32
  0
VERTEX
  5
13E
330
135
100
AcDbEntity
  8
1
100
AcDbVertex
100
AcDb3dPolylineVertex
 10
22.483805
 20
-122.454213
 30
0.0
 70
    32
  0
VERTEX
  5
13F
330
135
100
AcDbEntity
  8
1
100
AcDbVertex
100
AcDb3dPolylineVertex
 10
22.492748
 20
-122.438724
 30
0.0
 70
    32
  0
VERTEX
  5
140
330
135
100
AcDbEntity
  8
1
100
AcDbVertex
100
AcDb3dPolylineVertex
 10
22.501692
 20
-122.423234
 30
0.0
 70
    32
  0
VERTEX
  5
141
330
135
100
AcDbEntity
  8
1
100
AcDbVertex
100
AcDb3dPolylineVertex
 10
22.510635
 20
-122.407744
 30
0.0
 70
    32
  0
SEQEND
  5
142
330
135
100
AcDbEntity
  8
1
  0
POLYLINE
  5
143
330
78F
100
AcDbEntity
  8
1
100
AcDb3dPolyline
 66
     1
 10
0.0
 20
0.0
 30
0.0
 70
     8
  0
VERTEX
  5
144
330
143
100
AcDbEntity
  8
1
100
AcDbVertex
100
AcDb3dPolylineVertex
 10
22.5375
 20
-122.307785
 30
0.0
 70
    32
  0
VERTEX
  5
145
330
143
100
AcDbEntity
  8
1
100
AcDbVertex
100
AcDb3dPolylineVertex
 10
22.53721
 20
-122.313287
 30
0.0
 70
    32
  0
VERTEX
  5
146
330
143
100
AcDbEntity
  8
1
100
AcDbVertex
100
AcDb3dPolylineVertex
 10
22.536919
 20
-122.318789
 30
0.0
 70
    32
  0
VERTEX
  5
147
330
143
100
AcDbEntity
  8
1
100
AcDbVertex
100
AcDb3dPolylineVertex
 10
22.536629
 20
-122.324291
 30
0.0
 70
    32
  0
VERTEX
  5
148
330
143
100
AcDbEntity
  8
1
100
AcDbVertex
100
AcDb3dPolylineVertex
 10
22.536248
 20
-122.329783
 30
0.0
 70
    32
  0
VERTEX
  5
149
330
143
100
AcDbEntity
  8
1
100
AcDbVertex
100
AcDb3dPolylineVertex
 10
22.535392
 20
-122.335226
 30
0.0
 70
    32
  0
VERTEX
  5
14A
330
143
100
AcDbEntity
  8
1
100
AcDbVertex
100
AcDb3dPolylineVertex
 10
22.534535
 20
-122.340668
 30
0.0
 70
    32
  0
VERTEX
  5
14B
330
143
100
AcDbEntity
  8
1
100
AcDbVertex
100
AcDb3dPolylineVertex
 10
22.533678
 20
-122.346111
 30
0.0
 70
    32
  0
VERTEX
  5
14C
330
143
100
AcDbEntity
  8
1
100
AcDbVertex
100
AcDb3dPolylineVertex
 10
22.532605
 20
-122.351507
 30
0.0
 70
    32
  0
VERTEX
  5
14D
330
143
100
AcDbEntity
  8
1
100
AcDbVertex
100
AcDb3dPolylineVertex
 10
22.531179
 20
-122.356829
 30
0.0
 70
    32
  0
VERTEX
  5
14E
330
143
100
AcDbEntity
  8
1
100
AcDbVertex
100
AcDb3dPolylineVertex
 10
22.529753
 20
-122.362151
 30
0.0
 70
    32
  0
VERTEX
  5
14F
330
143
100
AcDbEntity
  8
1
100
AcDbVertex
100
AcDb3dPolylineVertex
 10
22.528327
 20
-122.367473
 30
0.0
 70
    32
  0
VERTEX
  5
150
330
143
100
AcDbEntity
  8
1
100
AcDbVertex
100
AcDb3dPolylineVertex
 10
22.526558
 20
-122.372683
 30
0.0
 70
    32
  0
VERTEX
  5
151
330
143
100
AcDbEntity
  8
1
100
AcDbVertex
100
AcDb3dPolylineVertex
 10
22.524579
 20
-122.377825
 30
0.0
 70
    32
  0
VERTEX
  5
152
330
143
100
AcDbEntity
  8
1
100
AcDbVertex
100
AcDb3dPolylineVertex
 10
22.522599
 20
-122.382966
 30
0.0
 70
    32
  0
VERTEX
  5
153
330
143
100
AcDbEntity
  8
1
100
AcDbVertex
100
AcDb3dPolylineVertex
 10
22.52062
 20
-122.388108
 30
0.0
 70
    32
  0
VERTEX
  5
154
330
143
100
AcDbEntity
  8
1
100
AcDbVertex
100
AcDb3dPolylineVertex
 10
22.518203
 20
-122.393055
 30
0.0
 70
    32
  0
VERTEX
  5
155
330
143
100
AcDbEntity
  8
1
100
AcDbVertex
100
AcDb3dPolylineVertex
 10
22.515704
 20
-122.397965
 30
0.0
 70
    32
  0
VERTEX
  5
156
330
143
100
AcDbEntity
  8
1
100
AcDbVertex
100
AcDb3dPolylineVertex
 10
22.513204
 20
-122.402875
 30
0.0
 70
    32
  0
VERTEX
  5
157
330
143
100
AcDbEntity
  8
1
100
AcDbVertex
100
AcDb3dPolylineVertex
 10
22.510705
 20
-122.407785
 30
0.0
 70
    32
  0
SEQEND
  5
158
330
143
100
AcDbEntity
  8
1
  0
POLYLINE
  5
159
330
78F
100
AcDbEntity
  8
1
100
AcDb3dPolyline
 66
     1
 10
0.0
 20
0.0
 30
0.0
 70
     8
  0
VERTEX
  5
15A
330
159
100
AcDbEntity
  8
1
100
AcDbVertex
100
AcDb3dPolylineVertex
 10
23.8
 20
-122.256908
 30
0.0
 70
    32
  0
VERTEX
  5
15B
330
159
100
AcDbEntity
  8
1
100
AcDbVertex
100
AcDb3dPolylineVertex
 10
23.685321
 20
-122.256908
 30
0.0
 70
    32
  0
VERTEX
  5
15C
330
159
100
AcDbEntity
  8
1
100
AcDbVertex
100
AcDb3dPolylineVertex
 10
23.570642
 20
-122.256908
 30
0.0
 70
    32
  0
VERTEX
  5
15D
330
159
100
AcDbEntity
  8
1
100
AcDbVertex
100
AcDb3dPolylineVertex
 10
23.455963
 20
-122.256908
 30
0.0
 70
    32
  0
VERTEX
  5
15E
330
159
100
AcDbEntity
  8
1
100
AcDbVertex
100
AcDb3dPolylineVertex
 10
23.341284
 20
-122.256908
 30
0.0
 70
    32
  0
VERTEX
  5
15F
330
159
100
AcDbEntity
  8
1
100
AcDbVertex
100
AcDb3dPolylineVertex
 10
23.226605
 20
-122.256908
 30
0.0
 70
    32
  0
VERTEX
  5
160
330
159
100
AcDbEntity
  8
1
100
AcDbVertex
100
AcDb3dPolylineVertex
 10
23.111927
 20
-122.256908
 30
0.0
 70
    32
  0
VERTEX
  5
161
330
159
100
AcDbEntity
  8
1
100
AcDbVertex
100
AcDb3dPolylineVertex
 10
22.997248
 20
-122.256908
 30
0.0
 70
    32
  0
VERTEX
  5
162
330
159
100
AcDbEntity
  8
1
100
AcDbVertex
100
AcDb3dPolylineVertex
 10
22.882569
 20
-122.256908
 30
0.0
 70
    32
  0
VERTEX
  5
163
330
159
100
AcDbEntity
  8
1
100
AcDbVertex
100
AcDb3dPolylineVertex
 10
22.76789
 20
-122.256908
 30
0.0
 70
    32
  0
VERTEX
  5
164
330
159
100
AcDbEntity
  8
1
100
AcDbVertex
100
AcDb3dPolylineVertex
 10
22.653211
 20
-122.256908
 30
0.0
 70
    32
  0
VERTEX
  5
165
330
159
100
AcDbEntity
  8
1
100
AcDbVertex
100
AcDb3dPolylineVertex
 10
22.538532
 20
-122.256908
 30
0.0
 70
    32
  0
SEQEND
  5
166
330
159
100
AcDbEntity
  8
1
  0
POLYLINE
  5
167
330
78F
100
AcDbEntity
  8
1
100
AcDb3dPolyline
 66
     1
 10
0.0
 20
0.0
 30
0.0
 70
     8
  0
VERTEX
  5
168
330
167
100
AcDbEntity
  8
1
100
AcDbVertex
100
AcDb3dPolylineVertex
 10
22.339339
 20
-123.463335
 30
0.0
 70
    32
  0
VERTEX
  5
169
330
167
100
AcDbEntity
  8
1
100
AcDbVertex
100
AcDb3dPolylineVertex
 10
22.472126
 20
-123.463335
 30
0.0
 70
    32
  0
VERTEX
  5
16A
330
167
100
AcDbEntity
  8
1
100
AcDbVertex
100
AcDb3dPolylineVertex
 10
22.604914
 20
-123.463335
 30
0.0
 70
    32
  0
VERTEX
  5
16B
330
167
100
AcDbEntity
  8
1
100
AcDbVertex
100
AcDb3dPolylineVertex
 10
22.737701
 20
-123.463335
 30
0.0
 70
    32
  0
VERTEX
  5
16C
330
167
100
AcDbEntity
  8
1
100
AcDbVertex
100
AcDb3dPolylineVertex
 10
22.870488
 20
-123.463335
 30
0.0
 70
    32
  0
VERTEX
  5
16D
330
167
100
AcDbEntity
  8
1
100
AcDbVertex
100
AcDb3dPolylineVertex
 10
23.003276
 20
-123.463335
 30
0.0
 70
    32
  0
VERTEX
  5
16E
330
167
100
AcDbEntity
  8
1
100
AcDbVertex
100
AcDb3dPolylineVertex
 10
23.136063
 20
-123.463335
 30
0.0
 70
    32
  0
VERTEX
  5
16F
330
167
100
AcDbEntity
  8
1
100
AcDbVertex
100
AcDb3dPolylineVertex
 10
23.268851
 20
-123.463335
 30
0.0
 70
    32
  0
VERTEX
  5
170
330
167
100
AcDbEntity
  8
1
100
AcDbVertex
100
AcDb3dPolylineVertex
 10
23.401638
 20
-123.463335
 30
0.0
 70
    32
  0
VERTEX
  5
171
330
167
100
AcDbEntity
  8
1
100
AcDbVertex
100
AcDb3dPolylineVertex
 10
23.534425
 20
-123.463335
 30
0.0
 70
    32
  0
VERTEX
  5
172
330
167
100
AcDbEntity
  8
1
100
AcDbVertex
100
AcDb3dPolylineVertex
 10
23.667213
 20
-123.463335
 30
0.0
 70
    32
  0
VERTEX
  5
173
330
167
100
AcDbEntity
  8
1
100
AcDbVertex
100
AcDb3dPolylineVertex
 10
23.8
 20
-123.463335
 30
0.0
 70
    32
  0
SEQEND
  5
174
330
167
100
AcDbEntity
  8
1
  0
POLYLINE
  5
175
330
78F
100
AcDbEntity
  8
1
100
AcDb3dPolyline
 66
     1
 10
0.0
 20
0.0
 30
0.0
 70
     8
  0
VERTEX
  5
176
330
175
100
AcDbEntity
  8
1
100
AcDbVertex
100
AcDb3dPolylineVertex
 10
22.540606
 20
-122.307784
 30
0.0
 70
    32
  0
VERTEX
  5
177
330
175
100
AcDbEntity
  8
1
100
AcDbVertex
100
AcDb3dPolylineVertex
 10
22.540605
 20
-122.303159
 30
0.0
 70
    32
  0
VERTEX
  5
178
330
175
100
AcDbEntity
  8
1
100
AcDbVertex
100
AcDb3dPolylineVertex
 10
22.540604
 20
-122.298534
 30
0.0
 70
    32
  0
VERTEX
  5
179
330
175
100
AcDbEntity
  8
1
100
AcDbVertex
100
AcDb3dPolylineVertex
 10
22.540603
 20
-122.293909
 30
0.0
 70
    32
  0
VERTEX
  5
17A
330
175
100
AcDbEntity
  8
1
100
AcDbVertex
100
AcDb3dPolylineVertex
 10
22.540602
 20
-122.289284
 30
0.0
 70
    32
  0
VERTEX
  5
17B
330
175
100
AcDbEntity
  8
1
100
AcDbVertex
100
AcDb3dPolylineVertex
 10
22.540601
 20
-122.284659
 30
0.0
 70
    32
  0
VERTEX
  5
17C
330
175
100
AcDbEntity
  8
1
100
AcDbVertex
100
AcDb3dPolylineVertex
 10
22.5406
 20
-122.280033
 30
0.0
 70
    32
  0
VERTEX
  5
17D
330
175
100
AcDbEntity
  8
1
100
AcDbVertex
100
AcDb3dPolylineVertex
 10
22.540599
 20
-122.275408
 30
0.0
 70
    32
  0
VERTEX
  5
17E
330
175
100
AcDbEntity
  8
1
100
AcDbVertex
100
AcDb3dPolylineVertex
 10
22.540598
 20
-122.270783
 30
0.0
 70
    32
  0
VERTEX
  5
17F
330
175
100
AcDbEntity
  8
1
100
AcDbVertex
100
AcDb3dPolylineVertex
 10
22.540597
 20
-122.266158
 30
0.0
 70
    32
  0
VERTEX
  5
180
330
175
100
AcDbEntity
  8
1
100
AcDbVertex
100
AcDb3dPolylineVertex
 10
22.540596
 20
-122.261533
 30
0.0
 70
    32
  0
VERTEX
  5
181
330
175
100
AcDbEntity
  8
1
100
AcDbVertex
100
AcDb3dPolylineVertex
 10
22.540595
 20
-122.256908
 30
0.0
 70
    32
  0
SEQEND
  5
182
330
175
100
AcDbEntity
  8
1
  0
POLYLINE
  5
183
330
78F
100
AcDbEntity
  8
1
100
AcDb3dPolyline
 66
     1
 10
0.0
 20
0.0
 30
0.0
 70
     8
  0
VERTEX
  5
184
330
183
100
AcDbEntity
  8
1
100
AcDbVertex
100
AcDb3dPolylineVertex
 10
25.235152
 20
-123.958336
 30
0.0
 70
    32
  0
VERTEX
  5
185
330
183
100
AcDbEntity
  8
1
100
AcDbVertex
100
AcDb3dPolylineVertex
 10
25.237456
 20
-123.91341
 30
0.0
 70
    32
  0
VERTEX
  5
186
330
183
100
AcDbEntity
  8
1
100
AcDbVertex
100
AcDb3dPolylineVertex
 10
25.239759
 20
-123.868484
 30
0.0
 70
    32
  0
VERTEX
  5
187
330
183
100
AcDbEntity
  8
1
100
AcDbVertex
100
AcDb3dPolylineVertex
 10
25.242063
 20
-123.823558
 30
0.0
 70
    32
  0
VERTEX
  5
188
330
183
100
AcDbEntity
  8
1
100
AcDbVertex
100
AcDb3dPolylineVertex
 10
25.244367
 20
-123.778632
 30
0.0
 70
    32
  0
VERTEX
  5
189
330
183
100
AcDbEntity
  8
1
100
AcDbVertex
100
AcDb3dPolylineVertex
 10
25.24667
 20
-123.733706
 30
0.0
 70
    32
  0
VERTEX
  5
18A
330
183
100
AcDbEntity
  8
1
100
AcDbVertex
100
AcDb3dPolylineVertex
 10
25.248974
 20
-123.688781
 30
0.0
 70
    32
  0
VERTEX
  5
18B
330
183
100
AcDbEntity
  8
1
100
AcDbVertex
100
AcDb3dPolylineVertex
 10
25.251277
 20
-123.643855
 30
0.0
 70
    32
  0
VERTEX
  5
18C
330
183
100
AcDbEntity
  8
1
100
AcDbVertex
100
AcDb3dPolylineVertex
 10
25.253581
 20
-123.598929
 30
0.0
 70
    32
  0
VERTEX
  5
18D
330
183
100
AcDbEntity
  8
1
100
AcDbVertex
100
AcDb3dPolylineVertex
 10
25.255884
 20
-123.554003
 30
0.0
 70
    32
  0
VERTEX
  5
18E
330
183
100
AcDbEntity
  8
1
100
AcDbVertex
100
AcDb3dPolylineVertex
 10
25.258188
 20
-123.509077
 30
0.0
 70
    32
  0
VERTEX
  5
18F
330
183
100
AcDbEntity
  8
1
100
AcDbVertex
100
AcDb3dPolylineVertex
 10
25.260492
 20
-123.464151
 30
0.0
 70
    32
  0
SEQEND
  5
190
330
183
100
AcDbEntity
  8
1
  0
POLYLINE
  5
191
330
78F
100
AcDbEntity
  8
1
100
AcDb3dPolyline
 66
     1
 10
0.0
 20
0.0
 30
0.0
 70
     8
  0
VERTEX
  5
192
330
191
100
AcDbEntity
  8
1
100
AcDbVertex
100
AcDb3dPolylineVertex
 10
22.364907
 20
-123.958339
 30
0.0
 70
    32
  0
VERTEX
  5
193
330
191
100
AcDbEntity
  8
1
100
AcDbVertex
100
AcDb3dPolylineVertex
 10
22.362604
 20
-123.913413
 30
0.0
 70
    32
  0
VERTEX
  5
194
330
191
100
AcDbEntity
  8
1
100
AcDbVertex
100
AcDb3dPolylineVertex
 10
22.360301
 20
-123.868487
 30
0.0
 70
    32
  0
VERTEX
  5
195
330
191
100
AcDbEntity
  8
1
100
AcDbVertex
100
AcDb3dPolylineVertex
 10
22.357997
 20
-123.823561
 30
0.0
 70
    32
  0
VERTEX
  5
196
330
191
100
AcDbEntity
  8
1
100
AcDbVertex
100
AcDb3dPolylineVertex
 10
22.355694
 20
-123.778635
 30
0.0
 70
    32
  0
VERTEX
  5
197
330
191
100
AcDbEntity
  8
1
100
AcDbVertex
100
AcDb3dPolylineVertex
 10
22.353391
 20
-123.733709
 30
0.0
 70
    32
  0
VERTEX
  5
198
330
191
100
AcDbEntity
  8
1
100
AcDbVertex
100
AcDb3dPolylineVertex
 10
22.351088
 20
-123.688784
 30
0.0
 70
    32
  0
VERTEX
  5
199
330
191
100
AcDbEntity
  8
1
100
AcDbVertex
100
AcDb3dPolylineVertex
 10
22.348785
 20
-123.643858
 30
0.0
 70
    32
  0
VERTEX
  5
19A
330
191
100
AcDbEntity
  8
1
100
AcDbVertex
100
AcDb3dPolylineVertex
 10
22.346482
 20
-123.598932
 30
0.0
 70
    32
  0
VERTEX
  5
19B
330
191
100
AcDbEntity
  8
1
100
AcDbVertex
100
AcDb3dPolylineVertex
 10
22.344178
 20
-123.554006
 30
0.0
 70
    32
  0
VERTEX
  5
19C
330
191
100
AcDbEntity
  8
1
100
AcDbVertex
100
AcDb3dPolylineVertex
 10
22.341875
 20
-123.50908
 30
0.0
 70
    32
  0
VERTEX
  5
19D
330
191
100
AcDbEntity
  8
1
100
AcDbVertex
100
AcDb3dPolylineVertex
 10
22.339572
 20
-123.464154
 30
0.0
 70
    32
  0
SEQEND
  5
19E
330
191
100
AcDbEntity
  8
1
  0
POLYLINE
  5
19F
330
78F
100
AcDbEntity
  8
1
100
AcDb3dPolyline
 66
     1
 10
0.0
 20
0.0
 30
0.0
 70
     8
  0
VERTEX
  5
1A0
330
19F
100
AcDbEntity
  8
1
100
AcDbVertex
100
AcDb3dPolylineVertex
 10
22.540573
 20
-121.97501
 30
0.0
 70
    32
  0
VERTEX
  5
1A1
330
19F
100
AcDbEntity
  8
1
100
AcDbVertex
100
AcDb3dPolylineVertex
 10
22.540578
 20
-121.956936
 30
0.0
 70
    32
  0
VERTEX
  5
1A2
330
19F
100
AcDbEntity
  8
1
100
AcDbVertex
100
AcDb3dPolylineVertex
 10
22.540583
 20
-121.938862
 30
0.0
 70
    32
  0
VERTEX
  5
1A3
330
19F
100
AcDbEntity
  8
1
100
AcDbVertex
100
AcDb3dPolylineVertex
 10
22.540588
 20
-121.920788
 30
0.0
 70
    32
  0
VERTEX
  5
1A4
330
19F
100
AcDbEntity
  8
1
100
AcDbVertex
100
AcDb3dPolylineVertex
 10
22.540593
 20
-121.902714
 30
0.0
 70
    32
  0
VERTEX
  5
1A5
330
19F
100
AcDbEntity
  8
1
100
AcDbVertex
100
AcDb3dPolylineVertex
 10
22.540598
 20
-121.88464
 30
0.0
 70
    32
  0
VERTEX
  5
1A6
330
19F
100
AcDbEntity
  8
1
100
AcDbVertex
100
AcDb3dPolylineVertex
 10
22.540603
 20
-121.866565
 30
0.0
 70
    32
  0
VERTEX
  5
1A7
330
19F
100
AcDbEntity
  8
1
100
AcDbVertex
100
AcDb3dPolylineVertex
 10
22.540608
 20
-121.848491
 30
0.0
 70
    32
  0
VERTEX
  5
1A8
330
19F
100
AcDbEntity
  8
1
100
AcDbVertex
100
AcDb3dPolylineVertex
 10
22.540613
 20
-121.830417
 30
0.0
 70
    32
  0
VERTEX
  5
1A9
330
19F
100
AcDbEntity
  8
1
100
AcDbVertex
100
AcDb3dPolylineVertex
 10
22.540618
 20
-121.812343
 30
0.0
 70
    32
  0
VERTEX
  5
1AA
330
19F
100
AcDbEntity
  8
1
100
AcDbVertex
100
AcDb3dPolylineVertex
 10
22.540623
 20
-121.794269
 30
0.0
 70
    32
  0
VERTEX
  5
1AB
330
19F
100
AcDbEntity
  8
1
100
AcDbVertex
100
AcDb3dPolylineVertex
 10
22.540628
 20
-121.776195
 30
0.0
 70
    32
  0
SEQEND
  5
1AC
330
19F
100
AcDbEntity
  8
1
  0
POLYLINE
  5
1AD
330
78F
100
AcDbEntity
  8
1
100
AcDb3dPolyline
 66
     1
 10
0.0
 20
0.0
 30
0.0
 70
     8
  0
VERTEX
  5
1AE
330
1AD
100
AcDbEntity
  8
1
100
AcDbVertex
100
AcDb3dPolylineVertex
 10
25.0625
 20
-121.975011
 30
0.0
 70
    32
  0
VERTEX
  5
1AF
330
1AD
100
AcDbEntity
  8
1
100
AcDbVertex
100
AcDb3dPolylineVertex
 10
25.0625
 20
-121.956937
 30
0.0
 70
    32
  0
VERTEX
  5
1B0
330
1AD
100
AcDbEntity
  8
1
100
AcDbVertex
100
AcDb3dPolylineVertex
 10
25.0625
 20
-121.938863
 30
0.0
 70
    32
  0
VERTEX
  5
1B1
330
1AD
100
AcDbEntity
  8
1
100
AcDbVertex
100
AcDb3dPolylineVertex
 10
25.0625
 20
-121.920789
 30
0.0
 70
    32
  0
VERTEX
  5
1B2
330
1AD
100
AcDbEntity
  8
1
100
AcDbVertex
100
AcDb3dPolylineVertex
 10
25.0625
 20
-121.902715
 30
0.0
 70
    32
  0
VERTEX
  5
1B3
330
1AD
100
AcDbEntity
  8
1
100
AcDbVertex
100
AcDb3dPolylineVertex
 10
25.0625
 20
-121.884641
 30
0.0
 70
    32
  0
VERTEX
  5
1B4
330
1AD
100
AcDbEntity
  8
1
100
AcDbVertex
100
AcDb3dPolylineVertex
 10
25.0625
 20
-121.866566
 30
0.0
 70
    32
  0
VERTEX
  5
1B5
330
1AD
100
AcDbEntity
  8
1
100
AcDbVertex
100
AcDb3dPolylineVertex
 10
25.0625
 20
-121.848492
 30
0.0
 70
    32
  0
VERTEX
  5
1B6
330
1AD
100
AcDbEntity
  8
1
100
AcDbVertex
100
AcDb3dPolylineVertex
 10
25.0625
 20
-121.830418
 30
0.0
 70
    32
  0
VERTEX
  5
1B7
330
1AD
100
AcDbEntity
  8
1
100
AcDbVertex
100
AcDb3dPolylineVertex
 10
25.0625
 20
-121.812344
 30
0.0
 70
    32
  0
VERTEX
  5
1B8
330
1AD
100
AcDbEntity
  8
1
100
AcDbVertex
100
AcDb3dPolylineVertex
 10
25.0625
 20
-121.79427
 30
0.0
 70
    32
  0
VERTEX
  5
1B9
330
1AD
100
AcDbEntity
  8
1
100
AcDbVertex
100
AcDb3dPolylineVertex
 10
25.0625
 20
-121.776196
 30
0.0
 70
    32
  0
SEQEND
  5
1BA
330
1AD
100
AcDbEntity
  8
1
  0
POLYLINE
  5
1BB
330
78F
100
AcDbEntity
  8
1
100
AcDb3dPolyline
 66
     1
 10
0.0
 20
0.0
 30
0.0
 70
     8
  0
VERTEX
  5
1BC
330
1BB
100
AcDbEntity
  8
1
100
AcDbVertex
100
AcDb3dPolylineVertex
 10
23.8
 20
-126.35
 30
0.0
 70
    32
  0
VERTEX
  5
1BD
330
1BB
100
AcDbEntity
  8
1
100
AcDbVertex
100
AcDb3dPolylineVertex
 10
23.914218
 20
-126.35
 30
0.0
 70
    32
  0
VERTEX
  5
1BE
330
1BB
100
AcDbEntity
  8
1
100
AcDbVertex
100
AcDb3dPolylineVertex
 10
24.028436
 20
-126.35
 30
0.0
 70
    32
  0
VERTEX
  5
1BF
330
1BB
100
AcDbEntity
  8
1
100
AcDbVertex
100
AcDb3dPolylineVertex
 10
24.142654
 20
-126.35
 30
0.0
 70
    32
  0
VERTEX
  5
1C0
330
1BB
100
AcDbEntity
  8
1
100
AcDbVertex
100
AcDb3dPolylineVertex
 10
24.256872
 20
-126.35
 30
0.0
 70
    32
  0
VERTEX
  5
1C1
330
1BB
100
AcDbEntity
  8
1
100
AcDbVertex
100
AcDb3dPolylineVertex
 10
24.37109
 20
-126.35
 30
0.0
 70
    32
  0
VERTEX
  5
1C2
330
1BB
100
AcDbEntity
  8
1
100
AcDbVertex
100
AcDb3dPolylineVertex
 10
24.485308
 20
-126.35
 30
0.0
 70
    32
  0
VERTEX
  5
1C3
330
1BB
100
AcDbEntity
  8
1
100
AcDbVertex
100
AcDb3dPolylineVertex
 10
24.599526
 20
-126.35
 30
0.0
 70
    32
  0
VERTEX
  5
1C4
330
1BB
100
AcDbEntity
  8
1
100
AcDbVertex
100
AcDb3dPolylineVertex
 10
24.713744
 20
-126.35
 30
0.0
 70
    32
  0
VERTEX
  5
1C5
330
1BB
100
AcDbEntity
  8
1
100
AcDbVertex
100
AcDb3dPolylineVertex
 10
24.827962
 20
-126.35
 30
0.0
 70
    32
  0
VERTEX
  5
1C6
330
1BB
100
AcDbEntity
  8
1
100
AcDbVertex
100
AcDb3dPolylineVertex
 10
24.94218
 20
-126.35
 30
0.0
 70
    32
  0
VERTEX
  5
1C7
330
1BB
100
AcDbEntity
  8
1
100
AcDbVertex
100
AcDb3dPolylineVertex
 10
25.056398
 20
-126.35
 30
0.0
 70
    32
  0
SEQEND
  5
1C8
330
1BB
100
AcDbEntity
  8
1
  0
POLYLINE
  5
1C9
330
78F
100
AcDbEntity
  8
1
100
AcDb3dPolyline
 66
     1
 10
0.0
 20
0.0
 30
0.0
 70
     8
  0
VERTEX
  5
1CA
330
1C9
100
AcDbEntity
  8
1
100
AcDbVertex
100
AcDb3dPolylineVertex
 10
23.799997
 20
-126.352288
 30
0.0
 70
    32
  0
VERTEX
  5
1CB
330
1C9
100
AcDbEntity
  8
1
100
AcDbVertex
100
AcDb3dPolylineVertex
 10
23.685779
 20
-126.352152
 30
0.0
 70
    32
  0
VERTEX
  5
1CC
330
1C9
100
AcDbEntity
  8
1
100
AcDbVertex
100
AcDb3dPolylineVertex
 10
23.571561
 20
-126.352017
 30
0.0
 70
    32
  0
VERTEX
  5
1CD
330
1C9
100
AcDbEntity
  8
1
100
AcDbVertex
100
AcDb3dPolylineVertex
 10
23.457344
 20
-126.351881
 30
0.0
 70
    32
  0
VERTEX
  5
1CE
330
1C9
100
AcDbEntity
  8
1
100
AcDbVertex
100
AcDb3dPolylineVertex
 10
23.343126
 20
-126.351746
 30
0.0
 70
    32
  0
VERTEX
  5
1CF
330
1C9
100
AcDbEntity
  8
1
100
AcDbVertex
100
AcDb3dPolylineVertex
 10
23.228908
 20
-126.35161
 30
0.0
 70
    32
  0
VERTEX
  5
1D0
330
1C9
100
AcDbEntity
  8
1
100
AcDbVertex
100
AcDb3dPolylineVertex
 10
23.11469
 20
-126.351475
 30
0.0
 70
    32
  0
VERTEX
  5
1D1
330
1C9
100
AcDbEntity
  8
1
100
AcDbVertex
100
AcDb3dPolylineVertex
 10
23.000472
 20
-126.351339
 30
0.0
 70
    32
  0
VERTEX
  5
1D2
330
1C9
100
AcDbEntity
  8
1
100
AcDbVertex
100
AcDb3dPolylineVertex
 10
22.886254
 20
-126.351204
 30
0.0
 70
    32
  0
VERTEX
  5
1D3
330
1C9
100
AcDbEntity
  8
1
100
AcDbVertex
100
AcDb3dPolylineVertex
 10
22.772037
 20
-126.351068
 30
0.0
 70
    32
  0
VERTEX
  5
1D4
330
1C9
100
AcDbEntity
  8
1
100
AcDbVertex
100
AcDb3dPolylineVertex
 10
22.657819
 20
-126.350933
 30
0.0
 70
    32
  0
VERTEX
  5
1D5
330
1C9
100
AcDbEntity
  8
1
100
AcDbVertex
100
AcDb3dPolylineVertex
 10
22.543601
 20
-126.350797
 30
0.0
 70
    32
  0
SEQEND
  5
1D6
330
1C9
100
AcDbEntity
  8
1
  0
POLYLINE
  5
1D7
330
78F
100
AcDbEntity
  8
1
100
AcDb3dPolyline
 66
     1
 10
0.0
 20
0.0
 30
0.0
 70
     8
  0
VERTEX
  5
1D8
330
1D7
100
AcDbEntity
  8
1
100
AcDbVertex
100
AcDb3dPolylineVertex
 10
22.543602
 20
-126.35
 30
0.0
 70
    32
  0
VERTEX
  5
1D9
330
1D7
100
AcDbEntity
  8
1
100
AcDbVertex
100
AcDb3dPolylineVertex
 10
22.533
 20
-126.349398
 30
0.0
 70
    32
  0
VERTEX
  5
1DA
330
1D7
100
AcDbEntity
  8
1
100
AcDbVertex
100
AcDb3dPolylineVertex
 10
22.522398
 20
-126.348796
 30
0.0
 70
    32
  0
VERTEX
  5
1DB
330
1D7
100
AcDbEntity
  8
1
100
AcDbVertex
100
AcDb3dPolylineVertex
 10
22.511796
 20
-126.348194
 30
0.0
 70
    32
  0
VERTEX
  5
1DC
330
1D7
100
AcDbEntity
  8
1
100
AcDbVertex
100
AcDb3dPolylineVertex
 10
22.501295
 20
-126.34672
 30
0.0
 70
    32
  0
VERTEX
  5
1DD
330
1D7
100
AcDbEntity
  8
1
100
AcDbVertex
100
AcDb3dPolylineVertex
 10
22.490837
 20
-126.344877
 30
0.0
 70
    32
  0
VERTEX
  5
1DE
330
1D7
100
AcDbEntity
  8
1
100
AcDbVertex
100
AcDb3dPolylineVertex
 10
22.48038
 20
-126.343033
 30
0.0
 70
    32
  0
VERTEX
  5
1DF
330
1D7
100
AcDbEntity
  8
1
100
AcDbVertex
100
AcDb3dPolylineVertex
 10
22.470046
 20
-126.340665
 30
0.0
 70
    32
  0
VERTEX
  5
1E0
330
1D7
100
AcDbEntity
  8
1
100
AcDbVertex
100
AcDb3dPolylineVertex
 10
22.459878
 20
-126.337604
 30
0.0
 70
    32
  0
VERTEX
  5
1E1
330
1D7
100
AcDbEntity
  8
1
100
AcDbVertex
100
AcDb3dPolylineVertex
 10
22.449709
 20
-126.334543
 30
0.0
 70
    32
  0
VERTEX
  5
1E2
330
1D7
100
AcDbEntity
  8
1
100
AcDbVertex
100
AcDb3dPolylineVertex
 10
22.439601
 20
-126.331317
 30
0.0
 70
    32
  0
VERTEX
  5
1E3
330
1D7
100
AcDbEntity
  8
1
100
AcDbVertex
100
AcDb3dPolylineVertex
 10
22.429849
 20
-126.327115
 30
0.0
 70
    32
  0
VERTEX
  5
1E4
330
1D7
100
AcDbEntity
  8
1
100
AcDbVertex
100
AcDb3dPolylineVertex
 10
22.420096
 20
-126.322913
 30
0.0
 70
    32
  0
VERTEX
  5
1E5
330
1D7
100
AcDbEntity
  8
1
100
AcDbVertex
100
AcDb3dPolylineVertex
 10
22.410344
 20
-126.318712
 30
0.0
 70
    32
  0
VERTEX
  5
1E6
330
1D7
100
AcDbEntity
  8
1
100
AcDbVertex
100
AcDb3dPolylineVertex
 10
22.40106
 20
-126.313575
 30
0.0
 70
    32
  0
VERTEX
  5
1E7
330
1D7
100
AcDbEntity
  8
1
100
AcDbVertex
100
AcDb3dPolylineVertex
 10
22.391855
 20
-126.30828
 30
0.0
 70
    32
  0
VERTEX
  5
1E8
330
1D7
100
AcDbEntity
  8
1
100
AcDbVertex
100
AcDb3dPolylineVertex
 10
22.38265
 20
-126.302986
 30
0.0
 70
    32
  0
VERTEX
  5
1E9
330
1D7
100
AcDbEntity
  8
1
100
AcDbVertex
100
AcDb3dPolylineVertex
 10
22.373839
 20
-126.297091
 30
0.0
 70
    32
  0
VERTEX
  5
1EA
330
1D7
100
AcDbEntity
  8
1
100
AcDbVertex
100
AcDb3dPolylineVertex
 10
22.365324
 20
-126.290746
 30
0.0
 70
    32
  0
VERTEX
  5
1EB
330
1D7
100
AcDbEntity
  8
1
100
AcDbVertex
100
AcDb3dPolylineVertex
 10
22.356809
 20
-126.284401
 30
0.0
 70
    32
  0
VERTEX
  5
1EC
330
1D7
100
AcDbEntity
  8
1
100
AcDbVertex
100
AcDb3dPolylineVertex
 10
22.348523
 20
-126.277783
 30
0.0
 70
    32
  0
VERTEX
  5
1ED
330
1D7
100
AcDbEntity
  8
1
100
AcDbVertex
100
AcDb3dPolylineVertex
 10
22.340808
 20
-126.270487
 30
0.0
 70
    32
  0
VERTEX
  5
1EE
330
1D7
100
AcDbEntity
  8
1
100
AcDbVertex
100
AcDb3dPolylineVertex
 10
22.333092
 20
-126.26319
 30
0.0
 70
    32
  0
VERTEX
  5
1EF
330
1D7
100
AcDbEntity
  8
1
100
AcDbVertex
100
AcDb3dPolylineVertex
 10
22.325377
 20
-126.255894
 30
0.0
 70
    32
  0
VERTEX
  5
1F0
330
1D7
100
AcDbEntity
  8
1
100
AcDbVertex
100
AcDb3dPolylineVertex
 10
22.318546
 20
-126.247763
 30
0.0
 70
    32
  0
VERTEX
  5
1F1
330
1D7
100
AcDbEntity
  8
1
100
AcDbVertex
100
AcDb3dPolylineVertex
 10
22.311715
 20
-126.239633
 30
0.0
 70
    32
  0
VERTEX
  5
1F2
330
1D7
100
AcDbEntity
  8
1
100
AcDbVertex
100
AcDb3dPolylineVertex
 10
22.304885
 20
-126.231502
 30
0.0
 70
    32
  0
VERTEX
  5
1F3
330
1D7
100
AcDbEntity
  8
1
100
AcDbVertex
100
AcDb3dPolylineVertex
 10
22.29876
 20
-126.222845
 30
0.0
 70
    32
  0
VERTEX
  5
1F4
330
1D7
100
AcDbEntity
  8
1
100
AcDbVertex
100
AcDb3dPolylineVertex
 10
22.292918
 20
-126.213978
 30
0.0
 70
    32
  0
VERTEX
  5
1F5
330
1D7
100
AcDbEntity
  8
1
100
AcDbVertex
100
AcDb3dPolylineVertex
 10
22.287076
 20
-126.20511
 30
0.0
 70
    32
  0
VERTEX
  5
1F6
330
1D7
100
AcDbEntity
  8
1
100
AcDbVertex
100
AcDb3dPolylineVertex
 10
22.281699
 20
-126.195974
 30
0.0
 70
    32
  0
VERTEX
  5
1F7
330
1D7
100
AcDbEntity
  8
1
100
AcDbVertex
100
AcDb3dPolylineVertex
 10
22.27694
 20
-126.18648
 30
0.0
 70
    32
  0
VERTEX
  5
1F8
330
1D7
100
AcDbEntity
  8
1
100
AcDbVertex
100
AcDb3dPolylineVertex
 10
22.272182
 20
-126.176987
 30
0.0
 70
    32
  0
VERTEX
  5
1F9
330
1D7
100
AcDbEntity
  8
1
100
AcDbVertex
100
AcDb3dPolylineVertex
 10
22.267587
 20
-126.167423
 30
0.0
 70
    32
  0
VERTEX
  5
1FA
330
1D7
100
AcDbEntity
  8
1
100
AcDbVertex
100
AcDb3dPolylineVertex
 10
22.263963
 20
-126.157442
 30
0.0
 70
    32
  0
VERTEX
  5
1FB
330
1D7
100
AcDbEntity
  8
1
100
AcDbVertex
100
AcDb3dPolylineVertex
 10
22.260338
 20
-126.14746
 30
0.0
 70
    32
  0
VERTEX
  5
1FC
330
1D7
100
AcDbEntity
  8
1
100
AcDbVertex
100
AcDb3dPolylineVertex
 10
22.256714
 20
-126.137479
 30
0.0
 70
    32
  0
VERTEX
  5
1FD
330
1D7
100
AcDbEntity
  8
1
100
AcDbVertex
100
AcDb3dPolylineVertex
 10
22.254093
 20
-126.127198
 30
0.0
 70
    32
  0
VERTEX
  5
1FE
330
1D7
100
AcDbEntity
  8
1
100
AcDbVertex
100
AcDb3dPolylineVertex
 10
22.251642
 20
-126.116865
 30
0.0
 70
    32
  0
VERTEX
  5
1FF
330
1D7
100
AcDbEntity
  8
1
100
AcDbVertex
100
AcDb3dPolylineVertex
 10
22.249191
 20
-126.106533
 30
0.0
 70
    32
  0
VERTEX
  5
200
330
1D7
100
AcDbEntity
  8
1
100
AcDbVertex
100
AcDb3dPolylineVertex
 10
22.247434
 20
-126.096078
 30
0.0
 70
    32
  0
VERTEX
  5
201
330
1D7
100
AcDbEntity
  8
1
100
AcDbVertex
100
AcDb3dPolylineVertex
 10
22.246202
 20
-126.08553
 30
0.0
 70
    32
  0
VERTEX
  5
202
330
1D7
100
AcDbEntity
  8
1
100
AcDbVertex
100
AcDb3dPolylineVertex
 10
22.24497
 20
-126.074983
 30
0.0
 70
    32
  0
VERTEX
  5
203
330
1D7
100
AcDbEntity
  8
1
100
AcDbVertex
100
AcDb3dPolylineVertex
 10
22.244106
 20
-126.064414
 30
0.0
 70
    32
  0
VERTEX
  5
204
330
1D7
100
AcDbEntity
  8
1
100
AcDbVertex
100
AcDb3dPolylineVertex
 10
22.244108
 20
-126.053795
 30
0.0
 70
    32
  0
VERTEX
  5
205
330
1D7
100
AcDbEntity
  8
1
100
AcDbVertex
100
AcDb3dPolylineVertex
 10
22.24411
 20
-126.043176
 30
0.0
 70
    32
  0
VERTEX
  5
206
330
1D7
100
AcDbEntity
  8
1
100
AcDbVertex
100
AcDb3dPolylineVertex
 10
22.244112
 20
-126.032557
 30
0.0
 70
    32
  0
SEQEND
  5
207
330
1D7
100
AcDbEntity
  8
1
  0
POLYLINE
  5
208
330
78F
100
AcDbEntity
  8
1
100
AcDb3dPolyline
 66
     1
 10
0.0
 20
0.0
 30
0.0
 70
     8
  0
VERTEX
  5
209
330
208
100
AcDbEntity
  8
1
100
AcDbVertex
100
AcDb3dPolylineVertex
 10
25.056398
 20
-126.35
 30
0.0
 70
    32
  0
VERTEX
  5
20A
330
208
100
AcDbEntity
  8
1
100
AcDbVertex
100
AcDb3dPolylineVertex
 10
25.066999
 20
-126.349384
 30
0.0
 70
    32
  0
VERTEX
  5
20B
330
208
100
AcDbEntity
  8
1
100
AcDbVertex
100
AcDb3dPolylineVertex
 10
25.0776
 20
-126.348768
 30
0.0
 70
    32
  0
VERTEX
  5
20C
330
208
100
AcDbEntity
  8
1
100
AcDbVertex
100
AcDb3dPolylineVertex
 10
25.088202
 20
-126.348152
 30
0.0
 70
    32
  0
VERTEX
  5
20D
330
208
100
AcDbEntity
  8
1
100
AcDbVertex
100
AcDb3dPolylineVertex
 10
25.098702
 20
-126.346673
 30
0.0
 70
    32
  0
VERTEX
  5
20E
330
208
100
AcDbEntity
  8
1
100
AcDbVertex
100
AcDb3dPolylineVertex
 10
25.10916
 20
-126.344827
 30
0.0
 70
    32
  0
VERTEX
  5
20F
330
208
100
AcDbEntity
  8
1
100
AcDbVertex
100
AcDb3dPolylineVertex
 10
25.119617
 20
-126.342982
 30
0.0
 70
    32
  0
VERTEX
  5
210
330
208
100
AcDbEntity
  8
1
100
AcDbVertex
100
AcDb3dPolylineVertex
 10
25.129951
 20
-126.340618
 30
0.0
 70
    32
  0
VERTEX
  5
211
330
208
100
AcDbEntity
  8
1
100
AcDbVertex
100
AcDb3dPolylineVertex
 10
25.140123
 20
-126.337567
 30
0.0
 70
    32
  0
VERTEX
  5
212
330
208
100
AcDbEntity
  8
1
100
AcDbVertex
100
AcDb3dPolylineVertex
 10
25.150294
 20
-126.334516
 30
0.0
 70
    32
  0
VERTEX
  5
213
330
208
100
AcDbEntity
  8
1
100
AcDbVertex
100
AcDb3dPolylineVertex
 10
25.160405
 20
-126.331299
 30
0.0
 70
    32
  0
VERTEX
  5
214
330
208
100
AcDbEntity
  8
1
100
AcDbVertex
100
AcDb3dPolylineVertex
 10
25.17016
 20
-126.327103
 30
0.0
 70
    32
  0
VERTEX
  5
215
330
208
100
AcDbEntity
  8
1
100
AcDbVertex
100
AcDb3dPolylineVertex
 10
25.179915
 20
-126.322907
 30
0.0
 70
    32
  0
VERTEX
  5
216
330
208
100
AcDbEntity
  8
1
100
AcDbVertex
100
AcDb3dPolylineVertex
 10
25.18967
 20
-126.318711
 30
0.0
 70
    32
  0
VERTEX
  5
217
330
208
100
AcDbEntity
  8
1
100
AcDbVertex
100
AcDb3dPolylineVertex
 10
25.198954
 20
-126.313573
 30
0.0
 70
    32
  0
VERTEX
  5
218
330
208
100
AcDbEntity
  8
1
100
AcDbVertex
100
AcDb3dPolylineVertex
 10
25.208158
 20
-126.308277
 30
0.0
 70
    32
  0
VERTEX
  5
219
330
208
100
AcDbEntity
  8
1
100
AcDbVertex
100
AcDb3dPolylineVertex
 10
25.217362
 20
-126.302981
 30
0.0
 70
    32
  0
VERTEX
  5
21A
330
208
100
AcDbEntity
  8
1
100
AcDbVertex
100
AcDb3dPolylineVertex
 10
25.226172
 20
-126.297085
 30
0.0
 70
    32
  0
VERTEX
  5
21B
330
208
100
AcDbEntity
  8
1
100
AcDbVertex
100
AcDb3dPolylineVertex
 10
25.234686
 20
-126.290738
 30
0.0
 70
    32
  0
VERTEX
  5
21C
330
208
100
AcDbEntity
  8
1
100
AcDbVertex
100
AcDb3dPolylineVertex
 10
25.243199
 20
-126.284391
 30
0.0
 70
    32
  0
VERTEX
  5
21D
330
208
100
AcDbEntity
  8
1
100
AcDbVertex
100
AcDb3dPolylineVertex
 10
25.251484
 20
-126.277772
 30
0.0
 70
    32
  0
VERTEX
  5
21E
330
208
100
AcDbEntity
  8
1
100
AcDbVertex
100
AcDb3dPolylineVertex
 10
25.2592
 20
-126.270476
 30
0.0
 70
    32
  0
VERTEX
  5
21F
330
208
100
AcDbEntity
  8
1
100
AcDbVertex
100
AcDb3dPolylineVertex
 10
25.266916
 20
-126.263181
 30
0.0
 70
    32
  0
VERTEX
  5
220
330
208
100
AcDbEntity
  8
1
100
AcDbVertex
100
AcDb3dPolylineVertex
 10
25.274632
 20
-126.255885
 30
0.0
 70
    32
  0
VERTEX
  5
221
330
208
100
AcDbEntity
  8
1
100
AcDbVertex
100
AcDb3dPolylineVertex
 10
25.281464
 20
-126.247755
 30
0.0
 70
    32
  0
VERTEX
  5
222
330
208
100
AcDbEntity
  8
1
100
AcDbVertex
100
AcDb3dPolylineVertex
 10
25.288295
 20
-126.239625
 30
0.0
 70
    32
  0
VERTEX
  5
223
330
208
100
AcDbEntity
  8
1
100
AcDbVertex
100
AcDb3dPolylineVertex
 10
25.295126
 20
-126.231495
 30
0.0
 70
    32
  0
VERTEX
  5
224
330
208
100
AcDbEntity
  8
1
100
AcDbVertex
100
AcDb3dPolylineVertex
 10
25.30125
 20
-126.222837
 30
0.0
 70
    32
  0
VERTEX
  5
225
330
208
100
AcDbEntity
  8
1
100
AcDbVertex
100
AcDb3dPolylineVertex
 10
25.30709
 20
-126.213968
 30
0.0
 70
    32
  0
VERTEX
  5
226
330
208
100
AcDbEntity
  8
1
100
AcDbVertex
100
AcDb3dPolylineVertex
 10
25.31293
 20
-126.205099
 30
0.0
 70
    32
  0
VERTEX
  5
227
330
208
100
AcDbEntity
  8
1
100
AcDbVertex
100
AcDb3dPolylineVertex
 10
25.318305
 20
-126.195962
 30
0.0
 70
    32
  0
VERTEX
  5
228
330
208
100
AcDbEntity
  8
1
100
AcDbVertex
100
AcDb3dPolylineVertex
 10
25.323062
 20
-126.186468
 30
0.0
 70
    32
  0
VERTEX
  5
229
330
208
100
AcDbEntity
  8
1
100
AcDbVertex
100
AcDb3dPolylineVertex
 10
25.327819
 20
-126.176974
 30
0.0
 70
    32
  0
VERTEX
  5
22A
330
208
100
AcDbEntity
  8
1
100
AcDbVertex
100
AcDb3dPolylineVertex
 10
25.332414
 20
-126.16741
 30
0.0
 70
    32
  0
VERTEX
  5
22B
330
208
100
AcDbEntity
  8
1
100
AcDbVertex
100
AcDb3dPolylineVertex
 10
25.336044
 20
-126.15743
 30
0.0
 70
    32
  0
VERTEX
  5
22C
330
208
100
AcDbEntity
  8
1
100
AcDbVertex
100
AcDb3dPolylineVertex
 10
25.339674
 20
-126.147451
 30
0.0
 70
    32
  0
VERTEX
  5
22D
330
208
100
AcDbEntity
  8
1
100
AcDbVertex
100
AcDb3dPolylineVertex
 10
25.343304
 20
-126.137472
 30
0.0
 70
    32
  0
VERTEX
  5
22E
330
208
100
AcDbEntity
  8
1
100
AcDbVertex
100
AcDb3dPolylineVertex
 10
25.345935
 20
-126.127192
 30
0.0
 70
    32
  0
VERTEX
  5
22F
330
208
100
AcDbEntity
  8
1
100
AcDbVertex
100
AcDb3dPolylineVertex
 10
25.348396
 20
-126.116862
 30
0.0
 70
    32
  0
VERTEX
  5
230
330
208
100
AcDbEntity
  8
1
100
AcDbVertex
100
AcDb3dPolylineVertex
 10
25.350856
 20
-126.106532
 30
0.0
 70
    32
  0
VERTEX
  5
231
330
208
100
AcDbEntity
  8
1
100
AcDbVertex
100
AcDb3dPolylineVertex
 10
25.352617
 20
-126.096078
 30
0.0
 70
    32
  0
VERTEX
  5
232
330
208
100
AcDbEntity
  8
1
100
AcDbVertex
100
AcDb3dPolylineVertex
 10
25.353847
 20
-126.085531
 30
0.0
 70
    32
  0
VERTEX
  5
233
330
208
100
AcDbEntity
  8
1
100
AcDbVertex
100
AcDb3dPolylineVertex
 10
25.355077
 20
-126.074983
 30
0.0
 70
    32
  0
VERTEX
  5
234
330
208
100
AcDbEntity
  8
1
100
AcDbVertex
100
AcDb3dPolylineVertex
 10
25.355936
 20
-126.064414
 30
0.0
 70
    32
  0
VERTEX
  5
235
330
208
100
AcDbEntity
  8
1
100
AcDbVertex
100
AcDb3dPolylineVertex
 10
25.35592
 20
-126.053795
 30
0.0
 70
    32
  0
VERTEX
  5
236
330
208
100
AcDbEntity
  8
1
100
AcDbVertex
100
AcDb3dPolylineVertex
 10
25.355904
 20
-126.043176
 30
0.0
 70
    32
  0
VERTEX
  5
237
330
208
100
AcDbEntity
  8
1
100
AcDbVertex
100
AcDb3dPolylineVertex
 10
25.355888
 20
-126.032557
 30
0.0
 70
    32
  0
SEQEND
  5
238
330
208
100
AcDbEntity
  8
1
  0
POLYLINE
  5
239
330
78F
100
AcDbEntity
  8
1
100
AcDb3dPolyline
 66
     1
 10
0.0
 20
0.0
 30
0.0
 70
     8
  0
VERTEX
  5
23A
330
239
100
AcDbEntity
  8
1
100
AcDbVertex
100
AcDb3dPolylineVertex
 10
25.235093
 20
-123.958338
 30
0.0
 70
    32
  0
VERTEX
  5
23B
330
239
100
AcDbEntity
  8
1
100
AcDbVertex
100
AcDb3dPolylineVertex
 10
25.246074
 20
-124.146903
 30
0.0
 70
    32
  0
VERTEX
  5
23C
330
239
100
AcDbEntity
  8
1
100
AcDbVertex
100
AcDb3dPolylineVertex
 10
25.257054
 20
-124.335469
 30
0.0
 70
    32
  0
VERTEX
  5
23D
330
239
100
AcDbEntity
  8
1
100
AcDbVertex
100
AcDb3dPolylineVertex
 10
25.268035
 20
-124.524034
 30
0.0
 70
    32
  0
VERTEX
  5
23E
330
239
100
AcDbEntity
  8
1
100
AcDbVertex
100
AcDb3dPolylineVertex
 10
25.279015
 20
-124.712599
 30
0.0
 70
    32
  0
VERTEX
  5
23F
330
239
100
AcDbEntity
  8
1
100
AcDbVertex
100
AcDb3dPolylineVertex
 10
25.289996
 20
-124.901164
 30
0.0
 70
    32
  0
VERTEX
  5
240
330
239
100
AcDbEntity
  8
1
100
AcDbVertex
100
AcDb3dPolylineVertex
 10
25.300977
 20
-125.08973
 30
0.0
 70
    32
  0
VERTEX
  5
241
330
239
100
AcDbEntity
  8
1
100
AcDbVertex
100
AcDb3dPolylineVertex
 10
25.311958
 20
-125.278295
 30
0.0
 70
    32
  0
VERTEX
  5
242
330
239
100
AcDbEntity
  8
1
100
AcDbVertex
100
AcDb3dPolylineVertex
 10
25.322939
 20
-125.46686
 30
0.0
 70
    32
  0
VERTEX
  5
243
330
239
100
AcDbEntity
  8
1
100
AcDbVertex
100
AcDb3dPolylineVertex
 10
25.333919
 20
-125.655425
 30
0.0
 70
    32
  0
VERTEX
  5
244
330
239
100
AcDbEntity
  8
1
100
AcDbVertex
100
AcDb3dPolylineVertex
 10
25.3449
 20
-125.843991
 30
0.0
 70
    32
  0
VERTEX
  5
245
330
239
100
AcDbEntity
  8
1
100
AcDbVertex
100
AcDb3dPolylineVertex
 10
25.355881
 20
-126.032556
 30
0.0
 70
    32
  0
SEQEND
  5
246
330
239
100
AcDbEntity
  8
1
  0
POLYLINE
  5
247
330
78F
100
AcDbEntity
  8
1
100
AcDb3dPolyline
 66
     1
 10
0.0
 20
0.0
 30
0.0
 70
     8
  0
VERTEX
  5
248
330
247
100
AcDbEntity
  8
1
100
AcDbVertex
100
AcDb3dPolylineVertex
 10
22.364848
 20
-123.958334
 30
0.0
 70
    32
  0
VERTEX
  5
249
330
247
100
AcDbEntity
  8
1
100
AcDbVertex
100
AcDb3dPolylineVertex
 10
22.353865
 20
-124.146899
 30
0.0
 70
    32
  0
VERTEX
  5
24A
330
247
100
AcDbEntity
  8
1
100
AcDbVertex
100
AcDb3dPolylineVertex
 10
22.342883
 20
-124.335464
 30
0.0
 70
    32
  0
VERTEX
  5
24B
330
247
100
AcDbEntity
  8
1
100
AcDbVertex
100
AcDb3dPolylineVertex
 10
22.3319
 20
-124.52403
 30
0.0
 70
    32
  0
VERTEX
  5
24C
330
247
100
AcDbEntity
  8
1
100
AcDbVertex
100
AcDb3dPolylineVertex
 10
22.320917
 20
-124.712595
 30
0.0
 70
    32
  0
VERTEX
  5
24D
330
247
100
AcDbEntity
  8
1
100
AcDbVertex
100
AcDb3dPolylineVertex
 10
22.309935
 20
-124.90116
 30
0.0
 70
    32
  0
VERTEX
  5
24E
330
247
100
AcDbEntity
  8
1
100
AcDbVertex
100
AcDb3dPolylineVertex
 10
22.298952
 20
-125.089725
 30
0.0
 70
    32
  0
VERTEX
  5
24F
330
247
100
AcDbEntity
  8
1
100
AcDbVertex
100
AcDb3dPolylineVertex
 10
22.28797
 20
-125.27829
 30
0.0
 70
    32
  0
VERTEX
  5
250
330
247
100
AcDbEntity
  8
1
100
AcDbVertex
100
AcDb3dPolylineVertex
 10
22.276987
 20
-125.466855
 30
0.0
 70
    32
  0
VERTEX
  5
251
330
247
100
AcDbEntity
  8
1
100
AcDbVertex
100
AcDb3dPolylineVertex
 10
22.266005
 20
-125.655421
 30
0.0
 70
    32
  0
VERTEX
  5
252
330
247
100
AcDbEntity
  8
1
100
AcDbVertex
100
AcDb3dPolylineVertex
 10
22.255022
 20
-125.843986
 30
0.0
 70
    32
  0
VERTEX
  5
253
330
247
100
AcDbEntity
  8
1
100
AcDbVertex
100
AcDb3dPolylineVertex
 10
22.24404
 20
-126.032551
 30
0.0
 70
    32
  0
SEQEND
  5
254
330
247
100
AcDbEntity
  8
1
  0
POLYLINE
  5
255
330
78F
100
AcDbEntity
  8
1
100
AcDb3dPolyline
 66
     1
 10
0.0
 20
0.0
 30
0.0
 70
     8
  0
VERTEX
  5
256
330
255
100
AcDbEntity
  8
1
100
AcDbVertex
100
AcDb3dPolylineVertex
 10
25.059395
 20
-121.494288
 30
0.0
 70
    32
  0
VERTEX
  5
257
330
255
100
AcDbEntity
  8
1
100
AcDbVertex
100
AcDb3dPolylineVertex
 10
25.059392
 20
-121.513082
 30
0.0
 70
    32
  0
VERTEX
  5
258
330
255
100
AcDbEntity
  8
1
100
AcDbVertex
100
AcDb3dPolylineVertex
 10
25.059388
 20
-121.531876
 30
0.0
 70
    32
  0
VERTEX
  5
259
330
255
100
AcDbEntity
  8
1
100
AcDbVertex
100
AcDb3dPolylineVertex
 10
25.059385
 20
-121.55067
 30
0.0
 70
    32
  0
VERTEX
  5
25A
330
255
100
AcDbEntity
  8
1
100
AcDbVertex
100
AcDb3dPolylineVertex
 10
25.059381
 20
-121.5694629999999
 30
0.0
 70
    32
  0
VERTEX
  5
25B
330
255
100
AcDbEntity
  8
1
100
AcDbVertex
100
AcDb3dPolylineVertex
 10
25.059378
 20
-121.588257
 30
0.0
 70
    32
  0
VERTEX
  5
25C
330
255
100
AcDbEntity
  8
1
100
AcDbVertex
100
AcDb3dPolylineVertex
 10
25.059376
 20
-121.607051
 30
0.0
 70
    32
  0
VERTEX
  5
25D
330
255
100
AcDbEntity
  8
1
100
AcDbVertex
100
AcDb3dPolylineVertex
 10
25.059374
 20
-121.625845
 30
0.0
 70
    32
  0
VERTEX
  5
25E
330
255
100
AcDbEntity
  8
1
100
AcDbVertex
100
AcDb3dPolylineVertex
 10
25.059371
 20
-121.6446389999999
 30
0.0
 70
    32
  0
VERTEX
  5
25F
330
255
100
AcDbEntity
  8
1
100
AcDbVertex
100
AcDb3dPolylineVertex
 10
25.059369
 20
-121.663433
 30
0.0
 70
    32
  0
VERTEX
  5
260
330
255
100
AcDbEntity
  8
1
100
AcDbVertex
100
AcDb3dPolylineVertex
 10
25.059368
 20
-121.682227
 30
0.0
 70
    32
  0
VERTEX
  5
261
330
255
100
AcDbEntity
  8
1
100
AcDbVertex
100
AcDb3dPolylineVertex
 10
25.059367
 20
-121.701021
 30
0.0
 70
    32
  0
VERTEX
  5
262
330
255
100
AcDbEntity
  8
1
100
AcDbVertex
100
AcDb3dPolylineVertex
 10
25.059367
 20
-121.719814
 30
0.0
 70
    32
  0
VERTEX
  5
263
330
255
100
AcDbEntity
  8
1
100
AcDbVertex
100
AcDb3dPolylineVertex
 10
25.059367
 20
-121.738608
 30
0.0
 70
    32
  0
VERTEX
  5
264
330
255
100
AcDbEntity
  8
1
100
AcDbVertex
100
AcDb3dPolylineVertex
 10
25.059369
 20
-121.757402
 30
0.0
 70
    32
  0
VERTEX
  5
265
330
255
100
AcDbEntity
  8
1
100
AcDbVertex
100
AcDb3dPolylineVertex
 10
25.059372
 20
-121.776196
 30
0.0
 70
    32
  0
SEQEND
  5
266
330
255
100
AcDbEntity
  8
1
  0
POLYLINE
  5
267
330
78F
100
AcDbEntity
  8
1
100
AcDb3dPolyline
 66
     1
 10
0.0
 20
0.0
 30
0.0
 70
     8
  0
VERTEX
  5
268
330
267
100
AcDbEntity
  8
1
100
AcDbVertex
100
AcDb3dPolylineVertex
 10
22.540605
 20
-121.494288
 30
0.0
 70
    32
  0
VERTEX
  5
269
330
267
100
AcDbEntity
  8
1
100
AcDbVertex
100
AcDb3dPolylineVertex
 10
22.540608
 20
-121.513082
 30
0.0
 70
    32
  0
VERTEX
  5
26A
330
267
100
AcDbEntity
  8
1
100
AcDbVertex
100
AcDb3dPolylineVertex
 10
22.540612
 20
-121.531876
 30
0.0
 70
    32
  0
VERTEX
  5
26B
330
267
100
AcDbEntity
  8
1
100
AcDbVertex
100
AcDb3dPolylineVertex
 10
22.540615
 20
-121.55067
 30
0.0
 70
    32
  0
VERTEX
  5
26C
330
267
100
AcDbEntity
  8
1
100
AcDbVertex
100
AcDb3dPolylineVertex
 10
22.540619
 20
-121.5694629999999
 30
0.0
 70
    32
  0
VERTEX
  5
26D
330
267
100
AcDbEntity
  8
1
100
AcDbVertex
100
AcDb3dPolylineVertex
 10
22.540622
 20
-121.588257
 30
0.0
 70
    32
  0
VERTEX
  5
26E
330
267
100
AcDbEntity
  8
1
100
AcDbVertex
100
AcDb3dPolylineVertex
 10
22.540624
 20
-121.607051
 30
0.0
 70
    32
  0
VERTEX
  5
26F
330
267
100
AcDbEntity
  8
1
100
AcDbVertex
100
AcDb3dPolylineVertex
 10
22.540626
 20
-121.625845
 30
0.0
 70
    32
  0
VERTEX
  5
270
330
267
100
AcDbEntity
  8
1
100
AcDbVertex
100
AcDb3dPolylineVertex
 10
22.540629
 20
-121.6446389999999
 30
0.0
 70
    32
  0
VERTEX
  5
271
330
267
100
AcDbEntity
  8
1
100
AcDbVertex
100
AcDb3dPolylineVertex
 10
22.540631
 20
-121.663433
 30
0.0
 70
    32
  0
VERTEX
  5
272
330
267
100
AcDbEntity
  8
1
100
AcDbVertex
100
AcDb3dPolylineVertex
 10
22.540632
 20
-121.682227
 30
0.0
 70
    32
  0
VERTEX
  5
273
330
267
100
AcDbEntity
  8
1
100
AcDbVertex
100
AcDb3dPolylineVertex
 10
22.540633
 20
-121.701021
 30
0.0
 70
    32
  0
VERTEX
  5
274
330
267
100
AcDbEntity
  8
1
100
AcDbVertex
100
AcDb3dPolylineVertex
 10
22.540633
 20
-121.719814
 30
0.0
 70
    32
  0
VERTEX
  5
275
330
267
100
AcDbEntity
  8
1
100
AcDbVertex
100
AcDb3dPolylineVertex
 10
22.540633
 20
-121.738608
 30
0.0
 70
    32
  0
VERTEX
  5
276
330
267
100
AcDbEntity
  8
1
100
AcDbVertex
100
AcDb3dPolylineVertex
 10
22.540631
 20
-121.757402
 30
0.0
 70
    32
  0
VERTEX
  5
277
330
267
100
AcDbEntity
  8
1
100
AcDbVertex
100
AcDb3dPolylineVertex
 10
22.540628
 20
-121.776196
 30
0.0
 70
    32
  0
SEQEND
  5
278
330
267
100
AcDbEntity
  8
1
  0
POLYLINE
  5
279
330
78F
100
AcDbEntity
  8
1
100
AcDb3dPolyline
 66
     1
 10
0.0
 20
0.0
 30
0.0
 70
     8
  0
VERTEX
  5
27A
330
279
100
AcDbEntity
  8
1
100
AcDbVertex
100
AcDb3dPolylineVertex
 10
22.540285
 20
-119.92195
 30
0.0
 70
    32
  0
VERTEX
  5
27B
330
279
100
AcDbEntity
  8
1
100
AcDbVertex
100
AcDb3dPolylineVertex
 10
22.540282
 20
-119.908089
 30
0.0
 70
    32
  0
VERTEX
  5
27C
330
279
100
AcDbEntity
  8
1
100
AcDbVertex
100
AcDb3dPolylineVertex
 10
22.54028
 20
-119.894229
 30
0.0
 70
    32
  0
VERTEX
  5
27D
330
279
100
AcDbEntity
  8
1
100
AcDbVertex
100
AcDb3dPolylineVertex
 10
22.540277
 20
-119.880368
 30
0.0
 70
    32
  0
VERTEX
  5
27E
330
279
100
AcDbEntity
  8
1
100
AcDbVertex
100
AcDb3dPolylineVertex
 10
22.540274
 20
-119.866507
 30
0.0
 70
    32
  0
VERTEX
  5
27F
330
279
100
AcDbEntity
  8
1
100
AcDbVertex
100
AcDb3dPolylineVertex
 10
22.540271
 20
-119.852646
 30
0.0
 70
    32
  0
VERTEX
  5
280
330
279
100
AcDbEntity
  8
1
100
AcDbVertex
100
AcDb3dPolylineVertex
 10
22.540268
 20
-119.838786
 30
0.0
 70
    32
  0
VERTEX
  5
281
330
279
100
AcDbEntity
  8
1
100
AcDbVertex
100
AcDb3dPolylineVertex
 10
22.540265
 20
-119.824925
 30
0.0
 70
    32
  0
VERTEX
  5
282
330
279
100
AcDbEntity
  8
1
100
AcDbVertex
100
AcDb3dPolylineVertex
 10
22.540263
 20
-119.811064
 30
0.0
 70
    32
  0
VERTEX
  5
283
330
279
100
AcDbEntity
  8
1
100
AcDbVertex
100
AcDb3dPolylineVertex
 10
22.540261
 20
-119.797203
 30
0.0
 70
    32
  0
VERTEX
  5
284
330
279
100
AcDbEntity
  8
1
100
AcDbVertex
100
AcDb3dPolylineVertex
 10
22.540259
 20
-119.783343
 30
0.0
 70
    32
  0
VERTEX
  5
285
330
279
100
AcDbEntity
  8
1
100
AcDbVertex
100
AcDb3dPolylineVertex
 10
22.540256
 20
-119.769482
 30
0.0
 70
    32
  0
VERTEX
  5
286
330
279
100
AcDbEntity
  8
1
100
AcDbVertex
100
AcDb3dPolylineVertex
 10
22.540253
 20
-119.755621
 30
0.0
 70
    32
  0
VERTEX
  5
287
330
279
100
AcDbEntity
  8
1
100
AcDbVertex
100
AcDb3dPolylineVertex
 10
22.540251
 20
-119.74176
 30
0.0
 70
    32
  0
VERTEX
  5
288
330
279
100
AcDbEntity
  8
1
100
AcDbVertex
100
AcDb3dPolylineVertex
 10
22.540248
 20
-119.7279
 30
0.0
 70
    32
  0
VERTEX
  5
289
330
279
100
AcDbEntity
  8
1
100
AcDbVertex
100
AcDb3dPolylineVertex
 10
22.540246
 20
-119.714039
 30
0.0
 70
    32
  0
SEQEND
  5
28A
330
279
100
AcDbEntity
  8
1
  0
POLYLINE
  5
28B
330
78F
100
AcDbEntity
  8
1
100
AcDb3dPolyline
 66
     1
 10
0.0
 20
0.0
 30
0.0
 70
     8
  0
VERTEX
  5
28C
330
28B
100
AcDbEntity
  8
1
100
AcDbVertex
100
AcDb3dPolylineVertex
 10
25.059715
 20
-119.92195
 30
0.0
 70
    32
  0
VERTEX
  5
28D
330
28B
100
AcDbEntity
  8
1
100
AcDbVertex
100
AcDb3dPolylineVertex
 10
25.059718
 20
-119.908089
 30
0.0
 70
    32
  0
VERTEX
  5
28E
330
28B
100
AcDbEntity
  8
1
100
AcDbVertex
100
AcDb3dPolylineVertex
 10
25.05972
 20
-119.894229
 30
0.0
 70
    32
  0
VERTEX
  5
28F
330
28B
100
AcDbEntity
  8
1
100
AcDbVertex
100
AcDb3dPolylineVertex
 10
25.059723
 20
-119.880368
 30
0.0
 70
    32
  0
VERTEX
  5
290
330
28B
100
AcDbEntity
  8
1
100
AcDbVertex
100
AcDb3dPolylineVertex
 10
25.059726
 20
-119.866507
 30
0.0
 70
    32
  0
VERTEX
  5
291
330
28B
100
AcDbEntity
  8
1
100
AcDbVertex
100
AcDb3dPolylineVertex
 10
25.059729
 20
-119.852646
 30
0.0
 70
    32
  0
VERTEX
  5
292
330
28B
100
AcDbEntity
  8
1
100
AcDbVertex
100
AcDb3dPolylineVertex
 10
25.059732
 20
-119.838786
 30
0.0
 70
    32
  0
VERTEX
  5
293
330
28B
100
AcDbEntity
  8
1
100
AcDbVertex
100
AcDb3dPolylineVertex
 10
25.059735
 20
-119.824925
 30
0.0
 70
    32
  0
VERTEX
  5
294
330
28B
100
AcDbEntity
  8
1
100
AcDbVertex
100
AcDb3dPolylineVertex
 10
25.059737
 20
-119.811064
 30
0.0
 70
    32
  0
VERTEX
  5
295
330
28B
100
AcDbEntity
  8
1
100
AcDbVertex
100
AcDb3dPolylineVertex
 10
25.059739
 20
-119.797203
 30
0.0
 70
    32
  0
VERTEX
  5
296
330
28B
100
AcDbEntity
  8
1
100
AcDbVertex
100
AcDb3dPolylineVertex
 10
25.059741
 20
-119.783343
 30
0.0
 70
    32
  0
VERTEX
  5
297
330
28B
100
AcDbEntity
  8
1
100
AcDbVertex
100
AcDb3dPolylineVertex
 10
25.059744
 20
-119.769482
 30
0.0
 70
    32
  0
VERTEX
  5
298
330
28B
100
AcDbEntity
  8
1
100
AcDbVertex
100
AcDb3dPolylineVertex
 10
25.059747
 20
-119.755621
 30
0.0
 70
    32
  0
VERTEX
  5
299
330
28B
100
AcDbEntity
  8
1
100
AcDbVertex
100
AcDb3dPolylineVertex
 10
25.059749
 20
-119.74176
 30
0.0
 70
    32
  0
VERTEX
  5
29A
330
28B
100
AcDbEntity
  8
1
100
AcDbVertex
100
AcDb3dPolylineVertex
 10
25.059752
 20
-119.7279
 30
0.0
 70
    32
  0
VERTEX
  5
29B
330
28B
100
AcDbEntity
  8
1
100
AcDbVertex
100
AcDb3dPolylineVertex
 10
25.059754
 20
-119.714039
 30
0.0
 70
    32
  0
SEQEND
  5
29C
330
28B
100
AcDbEntity
  8
1
  0
POLYLINE
  5
29D
330
78F
100
AcDbEntity
  8
1
100
AcDb3dPolyline
 66
     1
 10
0.0
 20
0.0
 30
0.0
 70
     8
  0
VERTEX
  5
29E
330
29D
100
AcDbEntity
  8
1
100
AcDbVertex
100
AcDb3dPolylineVertex
 10
22.5375
 20
-116.6484
 30
0.0
 70
    32
  0
VERTEX
  5
29F
330
29D
100
AcDbEntity
  8
1
100
AcDbVertex
100
AcDb3dPolylineVertex
 10
22.53757
 20
-116.64477
 30
0.0
 70
    32
  0
VERTEX
  5
2A0
330
29D
100
AcDbEntity
  8
1
100
AcDbVertex
100
AcDb3dPolylineVertex
 10
22.53764
 20
-116.64114
 30
0.0
 70
    32
  0
VERTEX
  5
2A1
330
29D
100
AcDbEntity
  8
1
100
AcDbVertex
100
AcDb3dPolylineVertex
 10
22.53771
 20
-116.637509
 30
0.0
 70
    32
  0
VERTEX
  5
2A2
330
29D
100
AcDbEntity
  8
1
100
AcDbVertex
100
AcDb3dPolylineVertex
 10
22.537894
 20
-116.633884
 30
0.0
 70
    32
  0
VERTEX
  5
2A3
330
29D
100
AcDbEntity
  8
1
100
AcDbVertex
100
AcDb3dPolylineVertex
 10
22.538105
 20
-116.630259
 30
0.0
 70
    32
  0
VERTEX
  5
2A4
330
29D
100
AcDbEntity
  8
1
100
AcDbVertex
100
AcDb3dPolylineVertex
 10
22.538315
 20
-116.626634
 30
0.0
 70
    32
  0
VERTEX
  5
2A5
330
29D
100
AcDbEntity
  8
1
100
AcDbVertex
100
AcDb3dPolylineVertex
 10
22.538613
 20
-116.623016
 30
0.0
 70
    32
  0
VERTEX
  5
2A6
330
29D
100
AcDbEntity
  8
1
100
AcDbVertex
100
AcDb3dPolylineVertex
 10
22.538963
 20
-116.619402
 30
0.0
 70
    32
  0
VERTEX
  5
2A7
330
29D
100
AcDbEntity
  8
1
100
AcDbVertex
100
AcDb3dPolylineVertex
 10
22.539312
 20
-116.615788
 30
0.0
 70
    32
  0
VERTEX
  5
2A8
330
29D
100
AcDbEntity
  8
1
100
AcDbVertex
100
AcDb3dPolylineVertex
 10
22.539723
 20
-116.612181
 30
0.0
 70
    32
  0
VERTEX
  5
2A9
330
29D
100
AcDbEntity
  8
1
100
AcDbVertex
100
AcDb3dPolylineVertex
 10
22.540212
 20
-116.608583
 30
0.0
 70
    32
  0
VERTEX
  5
2AA
330
29D
100
AcDbEntity
  8
1
100
AcDbVertex
100
AcDb3dPolylineVertex
 10
22.540701
 20
-116.604985
 30
0.0
 70
    32
  0
VERTEX
  5
2AB
330
29D
100
AcDbEntity
  8
1
100
AcDbVertex
100
AcDb3dPolylineVertex
 10
22.541223
 20
-116.601393
 30
0.0
 70
    32
  0
VERTEX
  5
2AC
330
29D
100
AcDbEntity
  8
1
100
AcDbVertex
100
AcDb3dPolylineVertex
 10
22.541851
 20
-116.597817
 30
0.0
 70
    32
  0
VERTEX
  5
2AD
330
29D
100
AcDbEntity
  8
1
100
AcDbVertex
100
AcDb3dPolylineVertex
 10
22.542478
 20
-116.59424
 30
0.0
 70
    32
  0
VERTEX
  5
2AE
330
29D
100
AcDbEntity
  8
1
100
AcDbVertex
100
AcDb3dPolylineVertex
 10
22.543112
 20
-116.590665
 30
0.0
 70
    32
  0
VERTEX
  5
2AF
330
29D
100
AcDbEntity
  8
1
100
AcDbVertex
100
AcDb3dPolylineVertex
 10
22.543877
 20
-116.587116
 30
0.0
 70
    32
  0
VERTEX
  5
2B0
330
29D
100
AcDbEntity
  8
1
100
AcDbVertex
100
AcDb3dPolylineVertex
 10
22.544642
 20
-116.583567
 30
0.0
 70
    32
  0
VERTEX
  5
2B1
330
29D
100
AcDbEntity
  8
1
100
AcDbVertex
100
AcDb3dPolylineVertex
 10
22.545408
 20
-116.580017
 30
0.0
 70
    32
  0
VERTEX
  5
2B2
330
29D
100
AcDbEntity
  8
1
100
AcDbVertex
100
AcDb3dPolylineVertex
 10
22.54629
 20
-116.576496
 30
0.0
 70
    32
  0
VERTEX
  5
2B3
330
29D
100
AcDbEntity
  8
1
100
AcDbVertex
100
AcDb3dPolylineVertex
 10
22.547193
 20
-116.572979
 30
0.0
 70
    32
  0
VERTEX
  5
2B4
330
29D
100
AcDbEntity
  8
1
100
AcDbVertex
100
AcDb3dPolylineVertex
 10
22.548095
 20
-116.569462
 30
0.0
 70
    32
  0
VERTEX
  5
2B5
330
29D
100
AcDbEntity
  8
1
100
AcDbVertex
100
AcDb3dPolylineVertex
 10
22.549087
 20
-116.56597
 30
0.0
 70
    32
  0
VERTEX
  5
2B6
330
29D
100
AcDbEntity
  8
1
100
AcDbVertex
100
AcDb3dPolylineVertex
 10
22.550125
 20
-116.56249
 30
0.0
 70
    32
  0
VERTEX
  5
2B7
330
29D
100
AcDbEntity
  8
1
100
AcDbVertex
100
AcDb3dPolylineVertex
 10
22.551162
 20
-116.559011
 30
0.0
 70
    32
  0
VERTEX
  5
2B8
330
29D
100
AcDbEntity
  8
1
100
AcDbVertex
100
AcDb3dPolylineVertex
 10
22.552262
 20
-116.555551
 30
0.0
 70
    32
  0
VERTEX
  5
2B9
330
29D
100
AcDbEntity
  8
1
100
AcDbVertex
100
AcDb3dPolylineVertex
 10
22.553433
 20
-116.552114
 30
0.0
 70
    32
  0
VERTEX
  5
2BA
330
29D
100
AcDbEntity
  8
1
100
AcDbVertex
100
AcDb3dPolylineVertex
 10
22.554604
 20
-116.548677
 30
0.0
 70
    32
  0
VERTEX
  5
2BB
330
29D
100
AcDbEntity
  8
1
100
AcDbVertex
100
AcDb3dPolylineVertex
 10
22.55581
 20
-116.545253
 30
0.0
 70
    32
  0
VERTEX
  5
2BC
330
29D
100
AcDbEntity
  8
1
100
AcDbVertex
100
AcDb3dPolylineVertex
 10
22.557113
 20
-116.541864
 30
0.0
 70
    32
  0
VERTEX
  5
2BD
330
29D
100
AcDbEntity
  8
1
100
AcDbVertex
100
AcDb3dPolylineVertex
 10
22.558416
 20
-116.538475
 30
0.0
 70
    32
  0
VERTEX
  5
2BE
330
29D
100
AcDbEntity
  8
1
100
AcDbVertex
100
AcDb3dPolylineVertex
 10
22.559728
 20
-116.53509
 30
0.0
 70
    32
  0
VERTEX
  5
2BF
330
29D
100
AcDbEntity
  8
1
100
AcDbVertex
100
AcDb3dPolylineVertex
 10
22.561161
 20
-116.531754
 30
0.0
 70
    32
  0
VERTEX
  5
2C0
330
29D
100
AcDbEntity
  8
1
100
AcDbVertex
100
AcDb3dPolylineVertex
 10
22.562594
 20
-116.528418
 30
0.0
 70
    32
  0
VERTEX
  5
2C1
330
29D
100
AcDbEntity
  8
1
100
AcDbVertex
100
AcDb3dPolylineVertex
 10
22.564027
 20
-116.525081
 30
0.0
 70
    32
  0
VERTEX
  5
2C2
330
29D
100
AcDbEntity
  8
1
100
AcDbVertex
100
AcDb3dPolylineVertex
 10
22.565572
 20
-116.521796
 30
0.0
 70
    32
  0
VERTEX
  5
2C3
330
29D
100
AcDbEntity
  8
1
100
AcDbVertex
100
AcDb3dPolylineVertex
 10
22.567133
 20
-116.518518
 30
0.0
 70
    32
  0
VERTEX
  5
2C4
330
29D
100
AcDbEntity
  8
1
100
AcDbVertex
100
AcDb3dPolylineVertex
 10
22.568694
 20
-116.51524
 30
0.0
 70
    32
  0
VERTEX
  5
2C5
330
29D
100
AcDbEntity
  8
1
100
AcDbVertex
100
AcDb3dPolylineVertex
 10
22.570341
 20
-116.512004
 30
0.0
 70
    32
  0
VERTEX
  5
2C6
330
29D
100
AcDbEntity
  8
1
100
AcDbVertex
100
AcDb3dPolylineVertex
 10
22.572028
 20
-116.508789
 30
0.0
 70
    32
  0
VERTEX
  5
2C7
330
29D
100
AcDbEntity
  8
1
100
AcDbVertex
100
AcDb3dPolylineVertex
 10
22.573715
 20
-116.505574
 30
0.0
 70
    32
  0
VERTEX
  5
2C8
330
29D
100
AcDbEntity
  8
1
100
AcDbVertex
100
AcDb3dPolylineVertex
 10
22.575462
 20
-116.502391
 30
0.0
 70
    32
  0
VERTEX
  5
2C9
330
29D
100
AcDbEntity
  8
1
100
AcDbVertex
100
AcDb3dPolylineVertex
 10
22.577272
 20
-116.499244
 30
0.0
 70
    32
  0
VERTEX
  5
2CA
330
29D
100
AcDbEntity
  8
1
100
AcDbVertex
100
AcDb3dPolylineVertex
 10
22.579083
 20
-116.496097
 30
0.0
 70
    32
  0
VERTEX
  5
2CB
330
29D
100
AcDbEntity
  8
1
100
AcDbVertex
100
AcDb3dPolylineVertex
 10
22.580927
 20
-116.49297
 30
0.0
 70
    32
  0
VERTEX
  5
2CC
330
29D
100
AcDbEntity
  8
1
100
AcDbVertex
100
AcDb3dPolylineVertex
 10
22.582858
 20
-116.489895
 30
0.0
 70
    32
  0
VERTEX
  5
2CD
330
29D
100
AcDbEntity
  8
1
100
AcDbVertex
100
AcDb3dPolylineVertex
 10
22.584789
 20
-116.48682
 30
0.0
 70
    32
  0
VERTEX
  5
2CE
330
29D
100
AcDbEntity
  8
1
100
AcDbVertex
100
AcDb3dPolylineVertex
 10
22.586728
 20
-116.483751
 30
0.0
 70
    32
  0
VERTEX
  5
2CF
330
29D
100
AcDbEntity
  8
1
100
AcDbVertex
100
AcDb3dPolylineVertex
 10
22.588777
 20
-116.480753
 30
0.0
 70
    32
  0
VERTEX
  5
2D0
330
29D
100
AcDbEntity
  8
1
100
AcDbVertex
100
AcDb3dPolylineVertex
 10
22.590825
 20
-116.477755
 30
0.0
 70
    32
  0
VERTEX
  5
2D1
330
29D
100
AcDbEntity
  8
1
100
AcDbVertex
100
AcDb3dPolylineVertex
 10
22.592874
 20
-116.474757
 30
0.0
 70
    32
  0
VERTEX
  5
2D2
330
29D
100
AcDbEntity
  8
1
100
AcDbVertex
100
AcDb3dPolylineVertex
 10
22.595021
 20
-116.47183
 30
0.0
 70
    32
  0
VERTEX
  5
2D3
330
29D
100
AcDbEntity
  8
1
100
AcDbVertex
100
AcDb3dPolylineVertex
 10
22.597184
 20
-116.468914
 30
0.0
 70
    32
  0
VERTEX
  5
2D4
330
29D
100
AcDbEntity
  8
1
100
AcDbVertex
100
AcDb3dPolylineVertex
 10
22.599348
 20
-116.465998
 30
0.0
 70
    32
  0
VERTEX
  5
2D5
330
29D
100
AcDbEntity
  8
1
100
AcDbVertex
100
AcDb3dPolylineVertex
 10
22.601584
 20
-116.463138
 30
0.0
 70
    32
  0
VERTEX
  5
2D6
330
29D
100
AcDbEntity
  8
1
100
AcDbVertex
100
AcDb3dPolylineVertex
 10
22.60386
 20
-116.460309
 30
0.0
 70
    32
  0
VERTEX
  5
2D7
330
29D
100
AcDbEntity
  8
1
100
AcDbVertex
100
AcDb3dPolylineVertex
 10
22.606136
 20
-116.45748
 30
0.0
 70
    32
  0
VERTEX
  5
2D8
330
29D
100
AcDbEntity
  8
1
100
AcDbVertex
100
AcDb3dPolylineVertex
 10
22.60846
 20
-116.454691
 30
0.0
 70
    32
  0
VERTEX
  5
2D9
330
29D
100
AcDbEntity
  8
1
100
AcDbVertex
100
AcDb3dPolylineVertex
 10
22.610844
 20
-116.451953
 30
0.0
 70
    32
  0
VERTEX
  5
2DA
330
29D
100
AcDbEntity
  8
1
100
AcDbVertex
100
AcDb3dPolylineVertex
 10
22.613228
 20
-116.449214
 30
0.0
 70
    32
  0
VERTEX
  5
2DB
330
29D
100
AcDbEntity
  8
1
100
AcDbVertex
100
AcDb3dPolylineVertex
 10
22.615636
 20
-116.446497
 30
0.0
 70
    32
  0
VERTEX
  5
2DC
330
29D
100
AcDbEntity
  8
1
100
AcDbVertex
100
AcDb3dPolylineVertex
 10
22.618123
 20
-116.443852
 30
0.0
 70
    32
  0
VERTEX
  5
2DD
330
29D
100
AcDbEntity
  8
1
100
AcDbVertex
100
AcDb3dPolylineVertex
 10
22.620611
 20
-116.441207
 30
0.0
 70
    32
  0
VERTEX
  5
2DE
330
29D
100
AcDbEntity
  8
1
100
AcDbVertex
100
AcDb3dPolylineVertex
 10
22.623098
 20
-116.438562
 30
0.0
 70
    32
  0
SEQEND
  5
2DF
330
29D
100
AcDbEntity
  8
1
  0
POLYLINE
  5
2E0
330
78F
100
AcDbEntity
  8
1
100
AcDb3dPolyline
 66
     1
 10
0.0
 20
0.0
 30
0.0
 70
     8
  0
VERTEX
  5
2E1
330
2E0
100
AcDbEntity
  8
1
100
AcDbVertex
100
AcDb3dPolylineVertex
 10
25.0625
 20
-116.648386
 30
0.0
 70
    32
  0
VERTEX
  5
2E2
330
2E0
100
AcDbEntity
  8
1
100
AcDbVertex
100
AcDb3dPolylineVertex
 10
25.062429
 20
-116.644597
 30
0.0
 70
    32
  0
VERTEX
  5
2E3
330
2E0
100
AcDbEntity
  8
1
100
AcDbVertex
100
AcDb3dPolylineVertex
 10
25.062358
 20
-116.640808
 30
0.0
 70
    32
  0
VERTEX
  5
2E4
330
2E0
100
AcDbEntity
  8
1
100
AcDbVertex
100
AcDb3dPolylineVertex
 10
25.062287
 20
-116.637019
 30
0.0
 70
    32
  0
VERTEX
  5
2E5
330
2E0
100
AcDbEntity
  8
1
100
AcDbVertex
100
AcDb3dPolylineVertex
 10
25.06209800000001
 20
-116.633234
 30
0.0
 70
    32
  0
VERTEX
  5
2E6
330
2E0
100
AcDbEntity
  8
1
100
AcDbVertex
100
AcDb3dPolylineVertex
 10
25.061879
 20
-116.62945
 30
0.0
 70
    32
  0
VERTEX
  5
2E7
330
2E0
100
AcDbEntity
  8
1
100
AcDbVertex
100
AcDb3dPolylineVertex
 10
25.061661
 20
-116.625667
 30
0.0
 70
    32
  0
VERTEX
  5
2E8
330
2E0
100
AcDbEntity
  8
1
100
AcDbVertex
100
AcDb3dPolylineVertex
 10
25.061351
 20
-116.621891
 30
0.0
 70
    32
  0
VERTEX
  5
2E9
330
2E0
100
AcDbEntity
  8
1
100
AcDbVertex
100
AcDb3dPolylineVertex
 10
25.060981
 20
-116.618119
 30
0.0
 70
    32
  0
VERTEX
  5
2EA
330
2E0
100
AcDbEntity
  8
1
100
AcDbVertex
100
AcDb3dPolylineVertex
 10
25.060611
 20
-116.614347
 30
0.0
 70
    32
  0
VERTEX
  5
2EB
330
2E0
100
AcDbEntity
  8
1
100
AcDbVertex
100
AcDb3dPolylineVertex
 10
25.060179
 20
-116.610583
 30
0.0
 70
    32
  0
VERTEX
  5
2EC
330
2E0
100
AcDbEntity
  8
1
100
AcDbVertex
100
AcDb3dPolylineVertex
 10
25.059655
 20
-116.60683
 30
0.0
 70
    32
  0
VERTEX
  5
2ED
330
2E0
100
AcDbEntity
  8
1
100
AcDbVertex
100
AcDb3dPolylineVertex
 10
25.059131
 20
-116.603076
 30
0.0
 70
    32
  0
VERTEX
  5
2EE
330
2E0
100
AcDbEntity
  8
1
100
AcDbVertex
100
AcDb3dPolylineVertex
 10
25.058575
 20
-116.599328
 30
0.0
 70
    32
  0
VERTEX
  5
2EF
330
2E0
100
AcDbEntity
  8
1
100
AcDbVertex
100
AcDb3dPolylineVertex
 10
25.05789500000001
 20
-116.5956
 30
0.0
 70
    32
  0
VERTEX
  5
2F0
330
2E0
100
AcDbEntity
  8
1
100
AcDbVertex
100
AcDb3dPolylineVertex
 10
25.057215
 20
-116.591871
 30
0.0
 70
    32
  0
VERTEX
  5
2F1
330
2E0
100
AcDbEntity
  8
1
100
AcDbVertex
100
AcDb3dPolylineVertex
 10
25.056535
 20
-116.588143
 30
0.0
 70
    32
  0
VERTEX
  5
2F2
330
2E0
100
AcDbEntity
  8
1
100
AcDbVertex
100
AcDb3dPolylineVertex
 10
25.055699
 20
-116.584447
 30
0.0
 70
    32
  0
VERTEX
  5
2F3
330
2E0
100
AcDbEntity
  8
1
100
AcDbVertex
100
AcDb3dPolylineVertex
 10
25.054862
 20
-116.58075
 30
0.0
 70
    32
  0
VERTEX
  5
2F4
330
2E0
100
AcDbEntity
  8
1
100
AcDbVertex
100
AcDb3dPolylineVertex
 10
25.054026
 20
-116.577054
 30
0.0
 70
    32
  0
VERTEX
  5
2F5
330
2E0
100
AcDbEntity
  8
1
100
AcDbVertex
100
AcDb3dPolylineVertex
 10
25.053068
 20
-116.573388
 30
0.0
 70
    32
  0
VERTEX
  5
2F6
330
2E0
100
AcDbEntity
  8
1
100
AcDbVertex
100
AcDb3dPolylineVertex
 10
25.05208
 20
-116.569729
 30
0.0
 70
    32
  0
VERTEX
  5
2F7
330
2E0
100
AcDbEntity
  8
1
100
AcDbVertex
100
AcDb3dPolylineVertex
 10
25.051091
 20
-116.566071
 30
0.0
 70
    32
  0
VERTEX
  5
2F8
330
2E0
100
AcDbEntity
  8
1
100
AcDbVertex
100
AcDb3dPolylineVertex
 10
25.050014
 20
-116.562438
 30
0.0
 70
    32
  0
VERTEX
  5
2F9
330
2E0
100
AcDbEntity
  8
1
100
AcDbVertex
100
AcDb3dPolylineVertex
 10
25.048875
 20
-116.558823
 30
0.0
 70
    32
  0
VERTEX
  5
2FA
330
2E0
100
AcDbEntity
  8
1
100
AcDbVertex
100
AcDb3dPolylineVertex
 10
25.047736
 20
-116.555208
 30
0.0
 70
    32
  0
VERTEX
  5
2FB
330
2E0
100
AcDbEntity
  8
1
100
AcDbVertex
100
AcDb3dPolylineVertex
 10
25.046541
 20
-116.551613
 30
0.0
 70
    32
  0
VERTEX
  5
2FC
330
2E0
100
AcDbEntity
  8
1
100
AcDbVertex
100
AcDb3dPolylineVertex
 10
25.045255
 20
-116.548048
 30
0.0
 70
    32
  0
VERTEX
  5
2FD
330
2E0
100
AcDbEntity
  8
1
100
AcDbVertex
100
AcDb3dPolylineVertex
 10
25.04397
 20
-116.544483
 30
0.0
 70
    32
  0
VERTEX
  5
2FE
330
2E0
100
AcDbEntity
  8
1
100
AcDbVertex
100
AcDb3dPolylineVertex
 10
25.042658
 20
-116.540928
 30
0.0
 70
    32
  0
VERTEX
  5
2FF
330
2E0
100
AcDbEntity
  8
1
100
AcDbVertex
100
AcDb3dPolylineVertex
 10
25.041228
 20
-116.537418
 30
0.0
 70
    32
  0
VERTEX
  5
300
330
2E0
100
AcDbEntity
  8
1
100
AcDbVertex
100
AcDb3dPolylineVertex
 10
25.039798
 20
-116.533909
 30
0.0
 70
    32
  0
VERTEX
  5
301
330
2E0
100
AcDbEntity
  8
1
100
AcDbVertex
100
AcDb3dPolylineVertex
 10
25.038368
 20
-116.530399
 30
0.0
 70
    32
  0
VERTEX
  5
302
330
2E0
100
AcDbEntity
  8
1
100
AcDbVertex
100
AcDb3dPolylineVertex
 10
25.036801
 20
-116.526948
 30
0.0
 70
    32
  0
VERTEX
  5
303
330
2E0
100
AcDbEntity
  8
1
100
AcDbVertex
100
AcDb3dPolylineVertex
 10
25.035231
 20
-116.523499
 30
0.0
 70
    32
  0
VERTEX
  5
304
330
2E0
100
AcDbEntity
  8
1
100
AcDbVertex
100
AcDb3dPolylineVertex
 10
25.03366
 20
-116.52005
 30
0.0
 70
    32
  0
VERTEX
  5
305
330
2E0
100
AcDbEntity
  8
1
100
AcDbVertex
100
AcDb3dPolylineVertex
 10
25.031986
 20
-116.516651
 30
0.0
 70
    32
  0
VERTEX
  5
306
330
2E0
100
AcDbEntity
  8
1
100
AcDbVertex
100
AcDb3dPolylineVertex
 10
25.03028
 20
-116.513267
 30
0.0
 70
    32
  0
VERTEX
  5
307
330
2E0
100
AcDbEntity
  8
1
100
AcDbVertex
100
AcDb3dPolylineVertex
 10
25.028573
 20
-116.509883
 30
0.0
 70
    32
  0
VERTEX
  5
308
330
2E0
100
AcDbEntity
  8
1
100
AcDbVertex
100
AcDb3dPolylineVertex
 10
25.026795
 20
-116.506537
 30
0.0
 70
    32
  0
VERTEX
  5
309
330
2E0
100
AcDbEntity
  8
1
100
AcDbVertex
100
AcDb3dPolylineVertex
 10
25.024959
 20
-116.503221
 30
0.0
 70
    32
  0
VERTEX
  5
30A
330
2E0
100
AcDbEntity
  8
1
100
AcDbVertex
100
AcDb3dPolylineVertex
 10
25.023123
 20
-116.499906
 30
0.0
 70
    32
  0
VERTEX
  5
30B
330
2E0
100
AcDbEntity
  8
1
100
AcDbVertex
100
AcDb3dPolylineVertex
 10
25.021243
 20
-116.496616
 30
0.0
 70
    32
  0
VERTEX
  5
30C
330
2E0
100
AcDbEntity
  8
1
100
AcDbVertex
100
AcDb3dPolylineVertex
 10
25.019278
 20
-116.493376
 30
0.0
 70
    32
  0
VERTEX
  5
30D
330
2E0
100
AcDbEntity
  8
1
100
AcDbVertex
100
AcDb3dPolylineVertex
 10
25.017313
 20
-116.490135
 30
0.0
 70
    32
  0
VERTEX
  5
30E
330
2E0
100
AcDbEntity
  8
1
100
AcDbVertex
100
AcDb3dPolylineVertex
 10
25.015333
 20
-116.486904
 30
0.0
 70
    32
  0
VERTEX
  5
30F
330
2E0
100
AcDbEntity
  8
1
100
AcDbVertex
100
AcDb3dPolylineVertex
 10
25.013239
 20
-116.483745
 30
0.0
 70
    32
  0
VERTEX
  5
310
330
2E0
100
AcDbEntity
  8
1
100
AcDbVertex
100
AcDb3dPolylineVertex
 10
25.011145
 20
-116.480587
 30
0.0
 70
    32
  0
VERTEX
  5
311
330
2E0
100
AcDbEntity
  8
1
100
AcDbVertex
100
AcDb3dPolylineVertex
 10
25.009051
 20
-116.477428
 30
0.0
 70
    32
  0
VERTEX
  5
312
330
2E0
100
AcDbEntity
  8
1
100
AcDbVertex
100
AcDb3dPolylineVertex
 10
25.006841
 20
-116.474349
 30
0.0
 70
    32
  0
VERTEX
  5
313
330
2E0
100
AcDbEntity
  8
1
100
AcDbVertex
100
AcDb3dPolylineVertex
 10
25.004618
 20
-116.47128
 30
0.0
 70
    32
  0
VERTEX
  5
314
330
2E0
100
AcDbEntity
  8
1
100
AcDbVertex
100
AcDb3dPolylineVertex
 10
25.002396
 20
-116.46821
 30
0.0
 70
    32
  0
VERTEX
  5
315
330
2E0
100
AcDbEntity
  8
1
100
AcDbVertex
100
AcDb3dPolylineVertex
 10
25.000086
 20
-116.465206
 30
0.0
 70
    32
  0
VERTEX
  5
316
330
2E0
100
AcDbEntity
  8
1
100
AcDbVertex
100
AcDb3dPolylineVertex
 10
24.997736
 20
-116.462233
 30
0.0
 70
    32
  0
VERTEX
  5
317
330
2E0
100
AcDbEntity
  8
1
100
AcDbVertex
100
AcDb3dPolylineVertex
 10
24.995386
 20
-116.45926
 30
0.0
 70
    32
  0
VERTEX
  5
318
330
2E0
100
AcDbEntity
  8
1
100
AcDbVertex
100
AcDb3dPolylineVertex
 10
24.992979
 20
-116.456334
 30
0.0
 70
    32
  0
VERTEX
  5
319
330
2E0
100
AcDbEntity
  8
1
100
AcDbVertex
100
AcDb3dPolylineVertex
 10
24.990508
 20
-116.453461
 30
0.0
 70
    32
  0
VERTEX
  5
31A
330
2E0
100
AcDbEntity
  8
1
100
AcDbVertex
100
AcDb3dPolylineVertex
 10
24.988036
 20
-116.450588
 30
0.0
 70
    32
  0
VERTEX
  5
31B
330
2E0
100
AcDbEntity
  8
1
100
AcDbVertex
100
AcDb3dPolylineVertex
 10
24.985537
 20
-116.44774
 30
0.0
 70
    32
  0
VERTEX
  5
31C
330
2E0
100
AcDbEntity
  8
1
100
AcDbVertex
100
AcDb3dPolylineVertex
 10
24.98295
 20
-116.44497
 30
0.0
 70
    32
  0
VERTEX
  5
31D
330
2E0
100
AcDbEntity
  8
1
100
AcDbVertex
100
AcDb3dPolylineVertex
 10
24.980363
 20
-116.442201
 30
0.0
 70
    32
  0
VERTEX
  5
31E
330
2E0
100
AcDbEntity
  8
1
100
AcDbVertex
100
AcDb3dPolylineVertex
 10
24.977776
 20
-116.439431
 30
0.0
 70
    32
  0
SEQEND
  5
31F
330
2E0
100
AcDbEntity
  8
1
  0
POLYLINE
  5
320
330
78F
100
AcDbEntity
  8
1
100
AcDb3dPolyline
 66
     1
 10
0.0
 20
0.0
 30
0.0
 70
     8
  0
VERTEX
  5
321
330
320
100
AcDbEntity
  8
1
100
AcDbVertex
100
AcDb3dPolylineVertex
 10
24.529486
 20
-121.869157
 30
0.0
 70
    32
  0
VERTEX
  5
322
330
320
100
AcDbEntity
  8
1
100
AcDbVertex
100
AcDb3dPolylineVertex
 10
24.525663
 20
-121.869625
 30
0.0
 70
    32
  0
VERTEX
  5
323
330
320
100
AcDbEntity
  8
1
100
AcDbVertex
100
AcDb3dPolylineVertex
 10
24.52184
 20
-121.870092
 30
0.0
 70
    32
  0
VERTEX
  5
324
330
320
100
AcDbEntity
  8
1
100
AcDbVertex
100
AcDb3dPolylineVertex
 10
24.518016
 20
-121.87056
 30
0.0
 70
    32
  0
VERTEX
  5
325
330
320
100
AcDbEntity
  8
1
100
AcDbVertex
100
AcDb3dPolylineVertex
 10
24.514193
 20
-121.871027
 30
0.0
 70
    32
  0
VERTEX
  5
326
330
320
100
AcDbEntity
  8
1
100
AcDbVertex
100
AcDb3dPolylineVertex
 10
24.510365
 20
-121.871448
 30
0.0
 70
    32
  0
VERTEX
  5
327
330
320
100
AcDbEntity
  8
1
100
AcDbVertex
100
AcDb3dPolylineVertex
 10
24.506533
 20
-121.871839
 30
0.0
 70
    32
  0
VERTEX
  5
328
330
320
100
AcDbEntity
  8
1
100
AcDbVertex
100
AcDb3dPolylineVertex
 10
24.502701
 20
-121.872229
 30
0.0
 70
    32
  0
VERTEX
  5
329
330
320
100
AcDbEntity
  8
1
100
AcDbVertex
100
AcDb3dPolylineVertex
 10
24.498869
 20
-121.872619
 30
0.0
 70
    32
  0
VERTEX
  5
32A
330
320
100
AcDbEntity
  8
1
100
AcDbVertex
100
AcDb3dPolylineVertex
 10
24.495033
 20
-121.872965
 30
0.0
 70
    32
  0
VERTEX
  5
32B
330
320
100
AcDbEntity
  8
1
100
AcDbVertex
100
AcDb3dPolylineVertex
 10
24.491193
 20
-121.873266
 30
0.0
 70
    32
  0
VERTEX
  5
32C
330
320
100
AcDbEntity
  8
1
100
AcDbVertex
100
AcDb3dPolylineVertex
 10
24.487353
 20
-121.873568
 30
0.0
 70
    32
  0
VERTEX
  5
32D
330
320
100
AcDbEntity
  8
1
100
AcDbVertex
100
AcDb3dPolylineVertex
 10
24.483514
 20
-121.873869
 30
0.0
 70
    32
  0
VERTEX
  5
32E
330
320
100
AcDbEntity
  8
1
100
AcDbVertex
100
AcDb3dPolylineVertex
 10
24.479669
 20
-121.874097
 30
0.0
 70
    32
  0
VERTEX
  5
32F
330
320
100
AcDbEntity
  8
1
100
AcDbVertex
100
AcDb3dPolylineVertex
 10
24.475822
 20
-121.874293
 30
0.0
 70
    32
  0
VERTEX
  5
330
330
320
100
AcDbEntity
  8
1
100
AcDbVertex
100
AcDb3dPolylineVertex
 10
24.471976
 20
-121.87449
 30
0.0
 70
    32
  0
VERTEX
  5
331
330
320
100
AcDbEntity
  8
1
100
AcDbVertex
100
AcDb3dPolylineVertex
 10
24.468128
 20
-121.874662
 30
0.0
 70
    32
  0
VERTEX
  5
332
330
320
100
AcDbEntity
  8
1
100
AcDbVertex
100
AcDb3dPolylineVertex
 10
24.464277
 20
-121.874734
 30
0.0
 70
    32
  0
VERTEX
  5
333
330
320
100
AcDbEntity
  8
1
100
AcDbVertex
100
AcDb3dPolylineVertex
 10
24.460426
 20
-121.874805
 30
0.0
 70
    32
  0
VERTEX
  5
334
330
320
100
AcDbEntity
  8
1
100
AcDbVertex
100
AcDb3dPolylineVertex
 10
24.456575
 20
-121.874877
 30
0.0
 70
    32
  0
SEQEND
  5
335
330
320
100
AcDbEntity
  8
1
  0
POLYLINE
  5
336
330
78F
100
AcDbEntity
  8
1
100
AcDb3dPolyline
 66
     1
 10
0.0
 20
0.0
 30
0.0
 70
     8
  0
VERTEX
  5
337
330
336
100
AcDbEntity
  8
1
100
AcDbVertex
100
AcDb3dPolylineVertex
 10
23.070514
 20
-121.869157
 30
0.0
 70
    32
  0
VERTEX
  5
338
330
336
100
AcDbEntity
  8
1
100
AcDbVertex
100
AcDb3dPolylineVertex
 10
23.074337
 20
-121.869625
 30
0.0
 70
    32
  0
VERTEX
  5
339
330
336
100
AcDbEntity
  8
1
100
AcDbVertex
100
AcDb3dPolylineVertex
 10
23.07816
 20
-121.870092
 30
0.0
 70
    32
  0
VERTEX
  5
33A
330
336
100
AcDbEntity
  8
1
100
AcDbVertex
100
AcDb3dPolylineVertex
 10
23.081984
 20
-121.87056
 30
0.0
 70
    32
  0
VERTEX
  5
33B
330
336
100
AcDbEntity
  8
1
100
AcDbVertex
100
AcDb3dPolylineVertex
 10
23.085807
 20
-121.871027
 30
0.0
 70
    32
  0
VERTEX
  5
33C
330
336
100
AcDbEntity
  8
1
100
AcDbVertex
100
AcDb3dPolylineVertex
 10
23.089635
 20
-121.871448
 30
0.0
 70
    32
  0
VERTEX
  5
33D
330
336
100
AcDbEntity
  8
1
100
AcDbVertex
100
AcDb3dPolylineVertex
 10
23.093467
 20
-121.871839
 30
0.0
 70
    32
  0
VERTEX
  5
33E
330
336
100
AcDbEntity
  8
1
100
AcDbVertex
100
AcDb3dPolylineVertex
 10
23.097299
 20
-121.872229
 30
0.0
 70
    32
  0
VERTEX
  5
33F
330
336
100
AcDbEntity
  8
1
100
AcDbVertex
100
AcDb3dPolylineVertex
 10
23.101131
 20
-121.872619
 30
0.0
 70
    32
  0
VERTEX
  5
340
330
336
100
AcDbEntity
  8
1
100
AcDbVertex
100
AcDb3dPolylineVertex
 10
23.104967
 20
-121.872965
 30
0.0
 70
    32
  0
VERTEX
  5
341
330
336
100
AcDbEntity
  8
1
100
AcDbVertex
100
AcDb3dPolylineVertex
 10
23.108807
 20
-121.873266
 30
0.0
 70
    32
  0
VERTEX
  5
342
330
336
100
AcDbEntity
  8
1
100
AcDbVertex
100
AcDb3dPolylineVertex
 10
23.112647
 20
-121.873568
 30
0.0
 70
    32
  0
VERTEX
  5
343
330
336
100
AcDbEntity
  8
1
100
AcDbVertex
100
AcDb3dPolylineVertex
 10
23.116486
 20
-121.873869
 30
0.0
 70
    32
  0
VERTEX
  5
344
330
336
100
AcDbEntity
  8
1
100
AcDbVertex
100
AcDb3dPolylineVertex
 10
23.120331
 20
-121.874097
 30
0.0
 70
    32
  0
VERTEX
  5
345
330
336
100
AcDbEntity
  8
1
100
AcDbVertex
100
AcDb3dPolylineVertex
 10
23.124178
 20
-121.874293
 30
0.0
 70
    32
  0
VERTEX
  5
346
330
336
100
AcDbEntity
  8
1
100
AcDbVertex
100
AcDb3dPolylineVertex
 10
23.128024
 20
-121.87449
 30
0.0
 70
    32
  0
VERTEX
  5
347
330
336
100
AcDbEntity
  8
1
100
AcDbVertex
100
AcDb3dPolylineVertex
 10
23.131872
 20
-121.874662
 30
0.0
 70
    32
  0
VERTEX
  5
348
330
336
100
AcDbEntity
  8
1
100
AcDbVertex
100
AcDb3dPolylineVertex
 10
23.135723
 20
-121.874734
 30
0.0
 70
    32
  0
VERTEX
  5
349
330
336
100
AcDbEntity
  8
1
100
AcDbVertex
100
AcDb3dPolylineVertex
 10
23.139574
 20
-121.874805
 30
0.0
 70
    32
  0
VERTEX
  5
34A
330
336
100
AcDbEntity
  8
1
100
AcDbVertex
100
AcDb3dPolylineVertex
 10
23.143425
 20
-121.874877
 30
0.0
 70
    32
  0
SEQEND
  5
34B
330
336
100
AcDbEntity
  8
1
  0
POLYLINE
  5
34C
330
78F
100
AcDbEntity
  8
1
100
AcDb3dPolyline
 66
     1
 10
0.0
 20
0.0
 30
0.0
 70
     8
  0
VERTEX
  5
34D
330
34C
100
AcDbEntity
  8
1
100
AcDbVertex
100
AcDb3dPolylineVertex
 10
24.569785
 20
-121.862186
 30
0.0
 70
    32
  0
VERTEX
  5
34E
330
34C
100
AcDbEntity
  8
1
100
AcDbVertex
100
AcDb3dPolylineVertex
 10
24.577965
 20
-121.860335
 30
0.0
 70
    32
  0
VERTEX
  5
34F
330
34C
100
AcDbEntity
  8
1
100
AcDbVertex
100
AcDb3dPolylineVertex
 10
24.586144
 20
-121.858479
 30
0.0
 70
    32
  0
VERTEX
  5
350
330
34C
100
AcDbEntity
  8
1
100
AcDbVertex
100
AcDb3dPolylineVertex
 10
24.59429500000001
 20
-121.856504
 30
0.0
 70
    32
  0
VERTEX
  5
351
330
34C
100
AcDbEntity
  8
1
100
AcDbVertex
100
AcDb3dPolylineVertex
 10
24.602446
 20
-121.85453
 30
0.0
 70
    32
  0
VERTEX
  5
352
330
34C
100
AcDbEntity
  8
1
100
AcDbVertex
100
AcDb3dPolylineVertex
 10
24.610569
 20
-121.852445
 30
0.0
 70
    32
  0
VERTEX
  5
353
330
34C
100
AcDbEntity
  8
1
100
AcDbVertex
100
AcDb3dPolylineVertex
 10
24.618693
 20
-121.850358
 30
0.0
 70
    32
  0
VERTEX
  5
354
330
34C
100
AcDbEntity
  8
1
100
AcDbVertex
100
AcDb3dPolylineVertex
 10
24.626793
 20
-121.848187
 30
0.0
 70
    32
  0
VERTEX
  5
355
330
34C
100
AcDbEntity
  8
1
100
AcDbVertex
100
AcDb3dPolylineVertex
 10
24.63489
 20
-121.845999
 30
0.0
 70
    32
  0
VERTEX
  5
356
330
34C
100
AcDbEntity
  8
1
100
AcDbVertex
100
AcDb3dPolylineVertex
 10
24.642971
 20
-121.843756
 30
0.0
 70
    32
  0
VERTEX
  5
357
330
34C
100
AcDbEntity
  8
1
100
AcDbVertex
100
AcDb3dPolylineVertex
 10
24.651041
 20
-121.841474
 30
0.0
 70
    32
  0
VERTEX
  5
358
330
34C
100
AcDbEntity
  8
1
100
AcDbVertex
100
AcDb3dPolylineVertex
 10
24.659106
 20
-121.839172
 30
0.0
 70
    32
  0
VERTEX
  5
359
330
34C
100
AcDbEntity
  8
1
100
AcDbVertex
100
AcDb3dPolylineVertex
 10
24.667151
 20
-121.836803
 30
0.0
 70
    32
  0
VERTEX
  5
35A
330
34C
100
AcDbEntity
  8
1
100
AcDbVertex
100
AcDb3dPolylineVertex
 10
24.675197
 20
-121.834435
 30
0.0
 70
    32
  0
VERTEX
  5
35B
330
34C
100
AcDbEntity
  8
1
100
AcDbVertex
100
AcDb3dPolylineVertex
 10
24.683223
 20
-121.832002
 30
0.0
 70
    32
  0
VERTEX
  5
35C
330
34C
100
AcDbEntity
  8
1
100
AcDbVertex
100
AcDb3dPolylineVertex
 10
24.691244
 20
-121.829553
 30
0.0
 70
    32
  0
VERTEX
  5
35D
330
34C
100
AcDbEntity
  8
1
100
AcDbVertex
100
AcDb3dPolylineVertex
 10
24.699259
 20
-121.827082
 30
0.0
 70
    32
  0
VERTEX
  5
35E
330
34C
100
AcDbEntity
  8
1
100
AcDbVertex
100
AcDb3dPolylineVertex
 10
24.707257
 20
-121.824559
 30
0.0
 70
    32
  0
VERTEX
  5
35F
330
34C
100
AcDbEntity
  8
1
100
AcDbVertex
100
AcDb3dPolylineVertex
 10
24.715255
 20
-121.822036
 30
0.0
 70
    32
  0
VERTEX
  5
360
330
34C
100
AcDbEntity
  8
1
100
AcDbVertex
100
AcDb3dPolylineVertex
 10
24.723237
 20
-121.819463
 30
0.0
 70
    32
  0
VERTEX
  5
361
330
34C
100
AcDbEntity
  8
1
100
AcDbVertex
100
AcDb3dPolylineVertex
 10
24.731213
 20
-121.816869
 30
0.0
 70
    32
  0
VERTEX
  5
362
330
34C
100
AcDbEntity
  8
1
100
AcDbVertex
100
AcDb3dPolylineVertex
 10
24.739189
 20
-121.814276
 30
0.0
 70
    32
  0
VERTEX
  5
363
330
34C
100
AcDbEntity
  8
1
100
AcDbVertex
100
AcDb3dPolylineVertex
 10
24.747151
 20
-121.81164
 30
0.0
 70
    32
  0
VERTEX
  5
364
330
34C
100
AcDbEntity
  8
1
100
AcDbVertex
100
AcDb3dPolylineVertex
 10
24.755099
 20
-121.808963
 30
0.0
 70
    32
  0
VERTEX
  5
365
330
34C
100
AcDbEntity
  8
1
100
AcDbVertex
100
AcDb3dPolylineVertex
 10
24.763048
 20
-121.806291
 30
0.0
 70
    32
  0
VERTEX
  5
366
330
34C
100
AcDbEntity
  8
1
100
AcDbVertex
100
AcDb3dPolylineVertex
 10
24.770984
 20
-121.803577
 30
0.0
 70
    32
  0
VERTEX
  5
367
330
34C
100
AcDbEntity
  8
1
100
AcDbVertex
100
AcDb3dPolylineVertex
 10
24.77891
 20
-121.800836
 30
0.0
 70
    32
  0
VERTEX
  5
368
330
34C
100
AcDbEntity
  8
1
100
AcDbVertex
100
AcDb3dPolylineVertex
 10
24.786838
 20
-121.7981
 30
0.0
 70
    32
  0
VERTEX
  5
369
330
34C
100
AcDbEntity
  8
1
100
AcDbVertex
100
AcDb3dPolylineVertex
 10
24.794751
 20
-121.795319
 30
0.0
 70
    32
  0
VERTEX
  5
36A
330
34C
100
AcDbEntity
  8
1
100
AcDbVertex
100
AcDb3dPolylineVertex
 10
24.802656
 20
-121.792518
 30
0.0
 70
    32
  0
VERTEX
  5
36B
330
34C
100
AcDbEntity
  8
1
100
AcDbVertex
100
AcDb3dPolylineVertex
 10
24.810563
 20
-121.78972
 30
0.0
 70
    32
  0
VERTEX
  5
36C
330
34C
100
AcDbEntity
  8
1
100
AcDbVertex
100
AcDb3dPolylineVertex
 10
24.818453
 20
-121.786879
 30
0.0
 70
    32
  0
VERTEX
  5
36D
330
34C
100
AcDbEntity
  8
1
100
AcDbVertex
100
AcDb3dPolylineVertex
 10
24.826339
 20
-121.784023
 30
0.0
 70
    32
  0
VERTEX
  5
36E
330
34C
100
AcDbEntity
  8
1
100
AcDbVertex
100
AcDb3dPolylineVertex
 10
24.834225
 20
-121.781168
 30
0.0
 70
    32
  0
VERTEX
  5
36F
330
34C
100
AcDbEntity
  8
1
100
AcDbVertex
100
AcDb3dPolylineVertex
 10
24.842095
 20
-121.77827
 30
0.0
 70
    32
  0
VERTEX
  5
370
330
34C
100
AcDbEntity
  8
1
100
AcDbVertex
100
AcDb3dPolylineVertex
 10
24.849961
 20
-121.77536
 30
0.0
 70
    32
  0
VERTEX
  5
371
330
34C
100
AcDbEntity
  8
1
100
AcDbVertex
100
AcDb3dPolylineVertex
 10
24.857827
 20
-121.772451
 30
0.0
 70
    32
  0
VERTEX
  5
372
330
34C
100
AcDbEntity
  8
1
100
AcDbVertex
100
AcDb3dPolylineVertex
 10
24.865678
 20
-121.769502
 30
0.0
 70
    32
  0
VERTEX
  5
373
330
34C
100
AcDbEntity
  8
1
100
AcDbVertex
100
AcDb3dPolylineVertex
 10
24.873525
 20
-121.76654
 30
0.0
 70
    32
  0
VERTEX
  5
374
330
34C
100
AcDbEntity
  8
1
100
AcDbVertex
100
AcDb3dPolylineVertex
 10
24.881372
 20
-121.76358
 30
0.0
 70
    32
  0
VERTEX
  5
375
330
34C
100
AcDbEntity
  8
1
100
AcDbVertex
100
AcDb3dPolylineVertex
 10
24.889204
 20
-121.760582
 30
0.0
 70
    32
  0
VERTEX
  5
376
330
34C
100
AcDbEntity
  8
1
100
AcDbVertex
100
AcDb3dPolylineVertex
 10
24.897031
 20
-121.757569
 30
0.0
 70
    32
  0
VERTEX
  5
377
330
34C
100
AcDbEntity
  8
1
100
AcDbVertex
100
AcDb3dPolylineVertex
 10
24.90486
 20
-121.754561
 30
0.0
 70
    32
  0
VERTEX
  5
378
330
34C
100
AcDbEntity
  8
1
100
AcDbVertex
100
AcDb3dPolylineVertex
 10
24.912675
 20
-121.751517
 30
0.0
 70
    32
  0
VERTEX
  5
379
330
34C
100
AcDbEntity
  8
1
100
AcDbVertex
100
AcDb3dPolylineVertex
 10
24.920483
 20
-121.748456
 30
0.0
 70
    32
  0
VERTEX
  5
37A
330
34C
100
AcDbEntity
  8
1
100
AcDbVertex
100
AcDb3dPolylineVertex
 10
24.928294
 20
-121.745401
 30
0.0
 70
    32
  0
VERTEX
  5
37B
330
34C
100
AcDbEntity
  8
1
100
AcDbVertex
100
AcDb3dPolylineVertex
 10
24.936092
 20
-121.742314
 30
0.0
 70
    32
  0
VERTEX
  5
37C
330
34C
100
AcDbEntity
  8
1
100
AcDbVertex
100
AcDb3dPolylineVertex
 10
24.943882
 20
-121.739206
 30
0.0
 70
    32
  0
VERTEX
  5
37D
330
34C
100
AcDbEntity
  8
1
100
AcDbVertex
100
AcDb3dPolylineVertex
 10
24.951674
 20
-121.736104
 30
0.0
 70
    32
  0
VERTEX
  5
37E
330
34C
100
AcDbEntity
  8
1
100
AcDbVertex
100
AcDb3dPolylineVertex
 10
24.959456
 20
-121.732977
 30
0.0
 70
    32
  0
VERTEX
  5
37F
330
34C
100
AcDbEntity
  8
1
100
AcDbVertex
100
AcDb3dPolylineVertex
 10
24.967228
 20
-121.729824
 30
0.0
 70
    32
  0
VERTEX
  5
380
330
34C
100
AcDbEntity
  8
1
100
AcDbVertex
100
AcDb3dPolylineVertex
 10
24.975
 20
-121.726673
 30
0.0
 70
    32
  0
SEQEND
  5
381
330
34C
100
AcDbEntity
  8
1
  0
POLYLINE
  5
382
330
78F
100
AcDbEntity
  8
1
100
AcDb3dPolyline
 66
     1
 10
0.0
 20
0.0
 30
0.0
 70
     8
  0
VERTEX
  5
383
330
382
100
AcDbEntity
  8
1
100
AcDbVertex
100
AcDb3dPolylineVertex
 10
22.625
 20
-121.726673
 30
0.0
 70
    32
  0
VERTEX
  5
384
330
382
100
AcDbEntity
  8
1
100
AcDbVertex
100
AcDb3dPolylineVertex
 10
22.632777
 20
-121.729814
 30
0.0
 70
    32
  0
VERTEX
  5
385
330
382
100
AcDbEntity
  8
1
100
AcDbVertex
100
AcDb3dPolylineVertex
 10
22.640553
 20
-121.732955
 30
0.0
 70
    32
  0
VERTEX
  5
386
330
382
100
AcDbEntity
  8
1
100
AcDbVertex
100
AcDb3dPolylineVertex
 10
22.64833
 20
-121.736095
 30
0.0
 70
    32
  0
VERTEX
  5
387
330
382
100
AcDbEntity
  8
1
100
AcDbVertex
100
AcDb3dPolylineVertex
 10
22.656113
 20
-121.73922
 30
0.0
 70
    32
  0
VERTEX
  5
388
330
382
100
AcDbEntity
  8
1
100
AcDbVertex
100
AcDb3dPolylineVertex
 10
22.66391
 20
-121.742309
 30
0.0
 70
    32
  0
VERTEX
  5
389
330
382
100
AcDbEntity
  8
1
100
AcDbVertex
100
AcDb3dPolylineVertex
 10
22.671711
 20
-121.745388
 30
0.0
 70
    32
  0
VERTEX
  5
38A
330
382
100
AcDbEntity
  8
1
100
AcDbVertex
100
AcDb3dPolylineVertex
 10
22.679511
 20
-121.74847
 30
0.0
 70
    32
  0
VERTEX
  5
38B
330
382
100
AcDbEntity
  8
1
100
AcDbVertex
100
AcDb3dPolylineVertex
 10
22.687325
 20
-121.751515
 30
0.0
 70
    32
  0
VERTEX
  5
38C
330
382
100
AcDbEntity
  8
1
100
AcDbVertex
100
AcDb3dPolylineVertex
 10
22.695145
 20
-121.754547
 30
0.0
 70
    32
  0
VERTEX
  5
38D
330
382
100
AcDbEntity
  8
1
100
AcDbVertex
100
AcDb3dPolylineVertex
 10
22.702963
 20
-121.757583
 30
0.0
 70
    32
  0
VERTEX
  5
38E
330
382
100
AcDbEntity
  8
1
100
AcDbVertex
100
AcDb3dPolylineVertex
 10
22.710795
 20
-121.760583
 30
0.0
 70
    32
  0
VERTEX
  5
38F
330
382
100
AcDbEntity
  8
1
100
AcDbVertex
100
AcDb3dPolylineVertex
 10
22.718634
 20
-121.763565
 30
0.0
 70
    32
  0
VERTEX
  5
390
330
382
100
AcDbEntity
  8
1
100
AcDbVertex
100
AcDb3dPolylineVertex
 10
22.72647
 20
-121.766553
 30
0.0
 70
    32
  0
VERTEX
  5
391
330
382
100
AcDbEntity
  8
1
100
AcDbVertex
100
AcDb3dPolylineVertex
 10
22.73432
 20
-121.769505
 30
0.0
 70
    32
  0
VERTEX
  5
392
330
382
100
AcDbEntity
  8
1
100
AcDbVertex
100
AcDb3dPolylineVertex
 10
22.742179
 20
-121.772436
 30
0.0
 70
    32
  0
VERTEX
  5
393
330
382
100
AcDbEntity
  8
1
100
AcDbVertex
100
AcDb3dPolylineVertex
 10
22.750034
 20
-121.775372
 30
0.0
 70
    32
  0
VERTEX
  5
394
330
382
100
AcDbEntity
  8
1
100
AcDbVertex
100
AcDb3dPolylineVertex
 10
22.757903
 20
-121.778274
 30
0.0
 70
    32
  0
VERTEX
  5
395
330
382
100
AcDbEntity
  8
1
100
AcDbVertex
100
AcDb3dPolylineVertex
 10
22.765781
 20
-121.781152
 30
0.0
 70
    32
  0
VERTEX
  5
396
330
382
100
AcDbEntity
  8
1
100
AcDbVertex
100
AcDb3dPolylineVertex
 10
22.773656
 20
-121.784036
 30
0.0
 70
    32
  0
VERTEX
  5
397
330
382
100
AcDbEntity
  8
1
100
AcDbVertex
100
AcDb3dPolylineVertex
 10
22.781546
 20
-121.786882
 30
0.0
 70
    32
  0
VERTEX
  5
398
330
382
100
AcDbEntity
  8
1
100
AcDbVertex
100
AcDb3dPolylineVertex
 10
22.789443
 20
-121.789704
 30
0.0
 70
    32
  0
VERTEX
  5
399
330
382
100
AcDbEntity
  8
1
100
AcDbVertex
100
AcDb3dPolylineVertex
 10
22.797339
 20
-121.792532
 30
0.0
 70
    32
  0
VERTEX
  5
39A
330
382
100
AcDbEntity
  8
1
100
AcDbVertex
100
AcDb3dPolylineVertex
 10
22.805249
 20
-121.795318
 30
0.0
 70
    32
  0
VERTEX
  5
39B
330
382
100
AcDbEntity
  8
1
100
AcDbVertex
100
AcDb3dPolylineVertex
 10
22.813167
 20
-121.798084
 30
0.0
 70
    32
  0
VERTEX
  5
39C
330
382
100
AcDbEntity
  8
1
100
AcDbVertex
100
AcDb3dPolylineVertex
 10
22.821084
 20
-121.800852
 30
0.0
 70
    32
  0
VERTEX
  5
39D
330
382
100
AcDbEntity
  8
1
100
AcDbVertex
100
AcDb3dPolylineVertex
 10
22.829017
 20
-121.803573
 30
0.0
 70
    32
  0
VERTEX
  5
39E
330
382
100
AcDbEntity
  8
1
100
AcDbVertex
100
AcDb3dPolylineVertex
 10
22.836956
 20
-121.806278
 30
0.0
 70
    32
  0
VERTEX
  5
39F
330
382
100
AcDbEntity
  8
1
100
AcDbVertex
100
AcDb3dPolylineVertex
 10
22.844896
 20
-121.808978
 30
0.0
 70
    32
  0
VERTEX
  5
3A0
330
382
100
AcDbEntity
  8
1
100
AcDbVertex
100
AcDb3dPolylineVertex
 10
22.852853
 20
-121.811629
 30
0.0
 70
    32
  0
VERTEX
  5
3A1
330
382
100
AcDbEntity
  8
1
100
AcDbVertex
100
AcDb3dPolylineVertex
 10
22.860812
 20
-121.814274
 30
0.0
 70
    32
  0
VERTEX
  5
3A2
330
382
100
AcDbEntity
  8
1
100
AcDbVertex
100
AcDb3dPolylineVertex
 10
22.868778
 20
-121.816895
 30
0.0
 70
    32
  0
VERTEX
  5
3A3
330
382
100
AcDbEntity
  8
1
100
AcDbVertex
100
AcDb3dPolylineVertex
 10
22.87676
 20
-121.819472
 30
0.0
 70
    32
  0
VERTEX
  5
3A4
330
382
100
AcDbEntity
  8
1
100
AcDbVertex
100
AcDb3dPolylineVertex
 10
22.884745
 20
-121.822036
 30
0.0
 70
    32
  0
VERTEX
  5
3A5
330
382
100
AcDbEntity
  8
1
100
AcDbVertex
100
AcDb3dPolylineVertex
 10
22.892743
 20
-121.824559
 30
0.0
 70
    32
  0
VERTEX
  5
3A6
330
382
100
AcDbEntity
  8
1
100
AcDbVertex
100
AcDb3dPolylineVertex
 10
22.900741
 20
-121.827082
 30
0.0
 70
    32
  0
VERTEX
  5
3A7
330
382
100
AcDbEntity
  8
1
100
AcDbVertex
100
AcDb3dPolylineVertex
 10
22.908756
 20
-121.829553
 30
0.0
 70
    32
  0
VERTEX
  5
3A8
330
382
100
AcDbEntity
  8
1
100
AcDbVertex
100
AcDb3dPolylineVertex
 10
22.916777
 20
-121.832002
 30
0.0
 70
    32
  0
VERTEX
  5
3A9
330
382
100
AcDbEntity
  8
1
100
AcDbVertex
100
AcDb3dPolylineVertex
 10
22.924803
 20
-121.834435
 30
0.0
 70
    32
  0
VERTEX
  5
3AA
330
382
100
AcDbEntity
  8
1
100
AcDbVertex
100
AcDb3dPolylineVertex
 10
22.932849
 20
-121.836803
 30
0.0
 70
    32
  0
VERTEX
  5
3AB
330
382
100
AcDbEntity
  8
1
100
AcDbVertex
100
AcDb3dPolylineVertex
 10
22.940894
 20
-121.839172
 30
0.0
 70
    32
  0
VERTEX
  5
3AC
330
382
100
AcDbEntity
  8
1
100
AcDbVertex
100
AcDb3dPolylineVertex
 10
22.948959
 20
-121.841474
 30
0.0
 70
    32
  0
VERTEX
  5
3AD
330
382
100
AcDbEntity
  8
1
100
AcDbVertex
100
AcDb3dPolylineVertex
 10
22.957029
 20
-121.843756
 30
0.0
 70
    32
  0
VERTEX
  5
3AE
330
382
100
AcDbEntity
  8
1
100
AcDbVertex
100
AcDb3dPolylineVertex
 10
22.96511
 20
-121.845999
 30
0.0
 70
    32
  0
VERTEX
  5
3AF
330
382
100
AcDbEntity
  8
1
100
AcDbVertex
100
AcDb3dPolylineVertex
 10
22.973207
 20
-121.848187
 30
0.0
 70
    32
  0
VERTEX
  5
3B0
330
382
100
AcDbEntity
  8
1
100
AcDbVertex
100
AcDb3dPolylineVertex
 10
22.981307
 20
-121.850358
 30
0.0
 70
    32
  0
VERTEX
  5
3B1
330
382
100
AcDbEntity
  8
1
100
AcDbVertex
100
AcDb3dPolylineVertex
 10
22.989431
 20
-121.852445
 30
0.0
 70
    32
  0
VERTEX
  5
3B2
330
382
100
AcDbEntity
  8
1
100
AcDbVertex
100
AcDb3dPolylineVertex
 10
22.997554
 20
-121.85453
 30
0.0
 70
    32
  0
VERTEX
  5
3B3
330
382
100
AcDbEntity
  8
1
100
AcDbVertex
100
AcDb3dPolylineVertex
 10
23.005705
 20
-121.856504
 30
0.0
 70
    32
  0
VERTEX
  5
3B4
330
382
100
AcDbEntity
  8
1
100
AcDbVertex
100
AcDb3dPolylineVertex
 10
23.013856
 20
-121.858479
 30
0.0
 70
    32
  0
VERTEX
  5
3B5
330
382
100
AcDbEntity
  8
1
100
AcDbVertex
100
AcDb3dPolylineVertex
 10
23.022035
 20
-121.860335
 30
0.0
 70
    32
  0
VERTEX
  5
3B6
330
382
100
AcDbEntity
  8
1
100
AcDbVertex
100
AcDb3dPolylineVertex
 10
23.030215
 20
-121.862186
 30
0.0
 70
    32
  0
SEQEND
  5
3B7
330
382
100
AcDbEntity
  8
1
  0
POLYLINE
  5
3B8
330
78F
100
AcDbEntity
  8
1
100
AcDb3dPolyline
 66
     1
 10
0.0
 20
0.0
 30
0.0
 70
     8
  0
VERTEX
  5
3B9
330
3B8
100
AcDbEntity
  8
1
100
AcDbVertex
100
AcDb3dPolylineVertex
 10
0.028755
 20
-105.875419
 30
0.0
 70
    32
  0
VERTEX
  5
3BA
330
3B8
100
AcDbEntity
  8
1
100
AcDbVertex
100
AcDb3dPolylineVertex
 10
0.028448
 20
-105.854037
 30
0.0
 70
    32
  0
VERTEX
  5
3BB
330
3B8
100
AcDbEntity
  8
1
100
AcDbVertex
100
AcDb3dPolylineVertex
 10
0.028141
 20
-105.832655
 30
0.0
 70
    32
  0
VERTEX
  5
3BC
330
3B8
100
AcDbEntity
  8
1
100
AcDbVertex
100
AcDb3dPolylineVertex
 10
0.027834
 20
-105.811274
 30
0.0
 70
    32
  0
VERTEX
  5
3BD
330
3B8
100
AcDbEntity
  8
1
100
AcDbVertex
100
AcDb3dPolylineVertex
 10
0.027528
 20
-105.789892
 30
0.0
 70
    32
  0
VERTEX
  5
3BE
330
3B8
100
AcDbEntity
  8
1
100
AcDbVertex
100
AcDb3dPolylineVertex
 10
0.027221
 20
-105.76851
 30
0.0
 70
    32
  0
VERTEX
  5
3BF
330
3B8
100
AcDbEntity
  8
1
100
AcDbVertex
100
AcDb3dPolylineVertex
 10
0.026905
 20
-105.747128
 30
0.0
 70
    32
  0
VERTEX
  5
3C0
330
3B8
100
AcDbEntity
  8
1
100
AcDbVertex
100
AcDb3dPolylineVertex
 10
0.026579
 20
-105.725747
 30
0.0
 70
    32
  0
VERTEX
  5
3C1
330
3B8
100
AcDbEntity
  8
1
100
AcDbVertex
100
AcDb3dPolylineVertex
 10
0.026248
 20
-105.704365
 30
0.0
 70
    32
  0
VERTEX
  5
3C2
330
3B8
100
AcDbEntity
  8
1
100
AcDbVertex
100
AcDb3dPolylineVertex
 10
0.025917
 20
-105.682984
 30
0.0
 70
    32
  0
VERTEX
  5
3C3
330
3B8
100
AcDbEntity
  8
1
100
AcDbVertex
100
AcDb3dPolylineVertex
 10
0.025588
 20
-105.661602
 30
0.0
 70
    32
  0
VERTEX
  5
3C4
330
3B8
100
AcDbEntity
  8
1
100
AcDbVertex
100
AcDb3dPolylineVertex
 10
0.025247
 20
-105.640221
 30
0.0
 70
    32
  0
VERTEX
  5
3C5
330
3B8
100
AcDbEntity
  8
1
100
AcDbVertex
100
AcDb3dPolylineVertex
 10
0.024897
 20
-105.61884
 30
0.0
 70
    32
  0
VERTEX
  5
3C6
330
3B8
100
AcDbEntity
  8
1
100
AcDbVertex
100
AcDb3dPolylineVertex
 10
0.024544
 20
-105.597459
 30
0.0
 70
    32
  0
VERTEX
  5
3C7
330
3B8
100
AcDbEntity
  8
1
100
AcDbVertex
100
AcDb3dPolylineVertex
 10
0.024195
 20
-105.576078
 30
0.0
 70
    32
  0
VERTEX
  5
3C8
330
3B8
100
AcDbEntity
  8
1
100
AcDbVertex
100
AcDb3dPolylineVertex
 10
0.023836
 20
-105.554697
 30
0.0
 70
    32
  0
VERTEX
  5
3C9
330
3B8
100
AcDbEntity
  8
1
100
AcDbVertex
100
AcDb3dPolylineVertex
 10
0.023465
 20
-105.5333159999999
 30
0.0
 70
    32
  0
VERTEX
  5
3CA
330
3B8
100
AcDbEntity
  8
1
100
AcDbVertex
100
AcDb3dPolylineVertex
 10
0.023088
 20
-105.511935
 30
0.0
 70
    32
  0
VERTEX
  5
3CB
330
3B8
100
AcDbEntity
  8
1
100
AcDbVertex
100
AcDb3dPolylineVertex
 10
0.022714
 20
-105.490555
 30
0.0
 70
    32
  0
VERTEX
  5
3CC
330
3B8
100
AcDbEntity
  8
1
100
AcDbVertex
100
AcDb3dPolylineVertex
 10
0.022332
 20
-105.469174
 30
0.0
 70
    32
  0
VERTEX
  5
3CD
330
3B8
100
AcDbEntity
  8
1
100
AcDbVertex
100
AcDb3dPolylineVertex
 10
0.021933
 20
-105.447794
 30
0.0
 70
    32
  0
VERTEX
  5
3CE
330
3B8
100
AcDbEntity
  8
1
100
AcDbVertex
100
AcDb3dPolylineVertex
 10
0.021529
 20
-105.426414
 30
0.0
 70
    32
  0
VERTEX
  5
3CF
330
3B8
100
AcDbEntity
  8
1
100
AcDbVertex
100
AcDb3dPolylineVertex
 10
0.021129
 20
-105.405033
 30
0.0
 70
    32
  0
VERTEX
  5
3D0
330
3B8
100
AcDbEntity
  8
1
100
AcDbVertex
100
AcDb3dPolylineVertex
 10
0.020714
 20
-105.383653
 30
0.0
 70
    32
  0
VERTEX
  5
3D1
330
3B8
100
AcDbEntity
  8
1
100
AcDbVertex
100
AcDb3dPolylineVertex
 10
0.020281
 20
-105.362274
 30
0.0
 70
    32
  0
VERTEX
  5
3D2
330
3B8
100
AcDbEntity
  8
1
100
AcDbVertex
100
AcDb3dPolylineVertex
 10
0.019846
 20
-105.340894
 30
0.0
 70
    32
  0
VERTEX
  5
3D3
330
3B8
100
AcDbEntity
  8
1
100
AcDbVertex
100
AcDb3dPolylineVertex
 10
0.019411
 20
-105.319514
 30
0.0
 70
    32
  0
VERTEX
  5
3D4
330
3B8
100
AcDbEntity
  8
1
100
AcDbVertex
100
AcDb3dPolylineVertex
 10
0.018951
 20
-105.298135
 30
0.0
 70
    32
  0
VERTEX
  5
3D5
330
3B8
100
AcDbEntity
  8
1
100
AcDbVertex
100
AcDb3dPolylineVertex
 10
0.018478
 20
-105.276757
 30
0.0
 70
    32
  0
VERTEX
  5
3D6
330
3B8
100
AcDbEntity
  8
1
100
AcDbVertex
100
AcDb3dPolylineVertex
 10
0.018011
 20
-105.255378
 30
0.0
 70
    32
  0
VERTEX
  5
3D7
330
3B8
100
AcDbEntity
  8
1
100
AcDbVertex
100
AcDb3dPolylineVertex
 10
0.017517
 20
-105.233999
 30
0.0
 70
    32
  0
VERTEX
  5
3D8
330
3B8
100
AcDbEntity
  8
1
100
AcDbVertex
100
AcDb3dPolylineVertex
 10
0.017002
 20
-105.212622
 30
0.0
 70
    32
  0
VERTEX
  5
3D9
330
3B8
100
AcDbEntity
  8
1
100
AcDbVertex
100
AcDb3dPolylineVertex
 10
0.016492
 20
-105.191244
 30
0.0
 70
    32
  0
VERTEX
  5
3DA
330
3B8
100
AcDbEntity
  8
1
100
AcDbVertex
100
AcDb3dPolylineVertex
 10
0.015951
 20
-105.169867
 30
0.0
 70
    32
  0
VERTEX
  5
3DB
330
3B8
100
AcDbEntity
  8
1
100
AcDbVertex
100
AcDb3dPolylineVertex
 10
0.015385
 20
-105.14849
 30
0.0
 70
    32
  0
VERTEX
  5
3DC
330
3B8
100
AcDbEntity
  8
1
100
AcDbVertex
100
AcDb3dPolylineVertex
 10
0.014821
 20
-105.127113
 30
0.0
 70
    32
  0
VERTEX
  5
3DD
330
3B8
100
AcDbEntity
  8
1
100
AcDbVertex
100
AcDb3dPolylineVertex
 10
0.014211
 20
-105.105738
 30
0.0
 70
    32
  0
VERTEX
  5
3DE
330
3B8
100
AcDbEntity
  8
1
100
AcDbVertex
100
AcDb3dPolylineVertex
 10
0.013584
 20
-105.084363
 30
0.0
 70
    32
  0
VERTEX
  5
3DF
330
3B8
100
AcDbEntity
  8
1
100
AcDbVertex
100
AcDb3dPolylineVertex
 10
0.012934
 20
-105.062989
 30
0.0
 70
    32
  0
VERTEX
  5
3E0
330
3B8
100
AcDbEntity
  8
1
100
AcDbVertex
100
AcDb3dPolylineVertex
 10
0.01223
 20
-105.041617
 30
0.0
 70
    32
  0
VERTEX
  5
3E1
330
3B8
100
AcDbEntity
  8
1
100
AcDbVertex
100
AcDb3dPolylineVertex
 10
0.011514
 20
-105.020245
 30
0.0
 70
    32
  0
VERTEX
  5
3E2
330
3B8
100
AcDbEntity
  8
1
100
AcDbVertex
100
AcDb3dPolylineVertex
 10
0.010718
 20
-104.998876
 30
0.0
 70
    32
  0
VERTEX
  5
3E3
330
3B8
100
AcDbEntity
  8
1
100
AcDbVertex
100
AcDb3dPolylineVertex
 10
0.009897
 20
-104.977507
 30
0.0
 70
    32
  0
VERTEX
  5
3E4
330
3B8
100
AcDbEntity
  8
1
100
AcDbVertex
100
AcDb3dPolylineVertex
 10
0.008971
 20
-104.956143
 30
0.0
 70
    32
  0
VERTEX
  5
3E5
330
3B8
100
AcDbEntity
  8
1
100
AcDbVertex
100
AcDb3dPolylineVertex
 10
0.007959
 20
-104.934783
 30
0.0
 70
    32
  0
VERTEX
  5
3E6
330
3B8
100
AcDbEntity
  8
1
100
AcDbVertex
100
AcDb3dPolylineVertex
 10
0.006785
 20
-104.913432
 30
0.0
 70
    32
  0
VERTEX
  5
3E7
330
3B8
100
AcDbEntity
  8
1
100
AcDbVertex
100
AcDb3dPolylineVertex
 10
0.005426
 20
-104.892091
 30
0.0
 70
    32
  0
VERTEX
  5
3E8
330
3B8
100
AcDbEntity
  8
1
100
AcDbVertex
100
AcDb3dPolylineVertex
 10
0.003607
 20
-104.870787
 30
0.0
 70
    32
  0
VERTEX
  5
3E9
330
3B8
100
AcDbEntity
  8
1
100
AcDbVertex
100
AcDb3dPolylineVertex
 10
-0.000545
 20
-104.85
 30
0.0
 70
    32
  0
SEQEND
  5
3EA
330
3B8
100
AcDbEntity
  8
1
  0
INSERT
  5
3EB
330
78F
100
AcDbEntity
  8
SK2
100
AcDbBlockReference
  2
ASSORTEDPART1
 10
0.0
 20
0.0
 30
0.0
  0
INSERT
  5
3EC
330
78F
100
AcDbEntity
  8
SK2
100
AcDbBlockReference
  2
ASSORTEDPART2
 10
0.0
 20
0.0
 30
0.0
  0
INSERT
  5
3ED
330
78F
100
AcDbEntity
  8
SK2
100
AcDbBlockReference
  2
ASSORTEDPART3
 10
0.0
 20
0.0
 30
0.0
  0
INSERT
  5
3EE
330
78F
100
AcDbEntity
  8
SK2
100
AcDbBlockReference
  2
ASSORTEDPART4
 10
0.0
 20
0.0
 30
0.0
  0
ENDSEC
  0
SECTION
  2
OBJECTS
  0
DICTIONARY
  5
72B
330
0
100
AcDbDictionary
281
     1
  3
ACAD_CIP_PREVIOUS_PRODUCT_INFO
350
7C3
  3
ACAD_COLOR
350
781
  3
ACAD_DETAILVIEWSTYLE
350
789
  3
ACAD_GROUP
350
72C
  3
ACAD_LAYOUT
350
780
  3
ACAD_MATERIAL
350
72F
  3
ACAD_MLEADERSTYLE
350
784
  3
ACAD_MLINESTYLE
350
77D
  3
ACAD_PLOTSETTINGS
350
77F
  3
ACAD_PLOTSTYLENAME
350
72D
  3
ACAD_SCALELIST
350
761
  3
ACAD_SECTIONVIEWSTYLE
350
786
  3
ACAD_TABLESTYLE
350
782
  3
ACAD_VISUALSTYLE
350
748
  3
ACDB_RECOMPOSE_DATA
350
81F
  3
AcDbVariableDictionary
350
812
  3
DWGPROPS
350
820
  0
DICTIONARY
  5
7C6
330
773
100
AcDbDictionary
280
     1
281
     1
  3
ADSK_XREC_LAYER_RECONCILED
360
7C7
  0
DICTIONARY
  5
7C8
330
793
100
AcDbDictionary
280
     1
281
     1
  3
ADSK_XREC_LAYER_RECONCILED
360
7C9
  0
DICTIONARY
  5
7CA
330
797
100
AcDbDictionary
280
     1
281
     1
  3
ADSK_XREC_LAYER_RECONCILED
360
7CB
  0
DICTIONARY
  5
7CC
330
798
100
AcDbDictionary
280
     1
281
     1
  3
ADSK_XREC_LAYER_RECONCILED
360
7CD
  0
DICTIONARY
  5
7CE
330
799
100
AcDbDictionary
280
     1
281
     1
  3
ADSK_XREC_LAYER_RECONCILED
360
7CF
  0
DICTIONARY
  5
7D0
330
79A
100
AcDbDictionary
280
     1
281
     1
  3
ADSK_XREC_LAYER_RECONCILED
360
7D1
  0
DICTIONARY
  5
7D2
330
79B
100
AcDbDictionary
280
     1
281
     1
  3
ADSK_XREC_LAYER_RECONCILED
360
7D3
  0
DICTIONARY
  5
7D4
330
79C
100
AcDbDictionary
280
     1
281
     1
  3
ADSK_XREC_LAYER_RECONCILED
360
7D5
  0
DICTIONARY
  5
7D6
330
79D
100
AcDbDictionary
280
     1
281
     1
  3
ADSK_XREC_LAYER_RECONCILED
360
7D7
  0
DICTIONARY
  5
7D8
330
79E
100
AcDbDictionary
280
     1
281
     1
  3
ADSK_XREC_LAYER_RECONCILED
360
7D9
  0
DICTIONARY
  5
7DA
330
79F
100
AcDbDictionary
280
     1
281
     1
  3
ADSK_XREC_LAYER_RECONCILED
360
7DB
  0
DICTIONARY
  5
7DC
330
7A0
100
AcDbDictionary
280
     1
281
     1
  3
ADSK_XREC_LAYER_RECONCILED
360
7DD
  0
DICTIONARY
  5
7DE
330
7A1
100
AcDbDictionary
280
     1
281
     1
  3
ADSK_XREC_LAYER_RECONCILED
360
7DF
  0
DICTIONARY
  5
7E0
330
7A2
100
AcDbDictionary
280
     1
281
     1
  3
ADSK_XREC_LAYER_RECONCILED
360
7E1
  0
DICTIONARY
  5
7E2
330
7A3
100
AcDbDictionary
280
     1
281
     1
  3
ADSK_XREC_LAYER_RECONCILED
360
7E3
  0
DICTIONARY
  5
7E4
330
7A4
100
AcDbDictionary
280
     1
281
     1
  3
ADSK_XREC_LAYER_RECONCILED
360
7E5
  0
DICTIONARY
  5
7E6
330
7A5
100
AcDbDictionary
280
     1
281
     1
  3
ADSK_XREC_LAYER_RECONCILED
360
7E7
  0
DICTIONARY
  5
7E8
330
7A6
100
AcDbDictionary
280
     1
281
     1
  3
ADSK_XREC_LAYER_RECONCILED
360
7E9
  0
DICTIONARY
  5
7EA
330
7A7
100
AcDbDictionary
280
     1
281
     1
  3
ADSK_XREC_LAYER_RECONCILED
360
7EB
  0
DICTIONARY
  5
7EC
330
7A8
100
AcDbDictionary
280
     1
281
     1
  3
ADSK_XREC_LAYER_RECONCILED
360
7ED
  0
DICTIONARY
  5
7EE
330
7A9
100
AcDbDictionary
280
     1
281
     1
  3
ADSK_XREC_LAYER_RECONCILED
360
7EF
  0
DICTIONARY
  5
7F0
330
7AA
100
AcDbDictionary
280
     1
281
     1
  3
ADSK_XREC_LAYER_RECONCILED
360
7F1
  0
DICTIONARY
  5
7F2
330
7AB
100
AcDbDictionary
280
     1
281
     1
  3
ADSK_XREC_LAYER_RECONCILED
360
7F3
  0
DICTIONARY
  5
7F4
330
7AC
100
AcDbDictionary
280
     1
281
     1
  3
ADSK_XREC_LAYER_RECONCILED
360
7F5
  0
DICTIONARY
  5
7F6
330
7AD
100
AcDbDictionary
280
     1
281
     1
  3
ADSK_XREC_LAYER_RECONCILED
360
7F7
  0
DICTIONARY
  5
7F8
330
7AE
100
AcDbDictionary
280
     1
281
     1
  3
ADSK_XREC_LAYER_RECONCILED
360
7F9
  0
DICTIONARY
  5
7FA
330
7AF
100
AcDbDictionary
280
     1
281
     1
  3
ADSK_XREC_LAYER_RECONCILED
360
7FB
  0
DICTIONARY
  5
7FC
330
7B0
100
AcDbDictionary
280
     1
281
     1
  3
ADSK_XREC_LAYER_RECONCILED
360
7FD
  0
DICTIONARY
  5
7FE
330
7B1
100
AcDbDictionary
280
     1
281
     1
  3
ADSK_XREC_LAYER_RECONCILED
360
7FF
  0
DICTIONARY
  5
800
330
7B2
100
AcDbDictionary
280
     1
281
     1
  3
ADSK_XREC_LAYER_RECONCILED
360
801
  0
DICTIONARY
  5
802
330
7B3
100
AcDbDictionary
280
     1
281
     1
  3
ADSK_XREC_LAYER_RECONCILED
360
803
  0
DICTIONARY
  5
804
330
7B4
100
AcDbDictionary
280
     1
281
     1
  3
ADSK_XREC_LAYER_RECONCILED
360
805
  0
DICTIONARY
  5
806
330
7B5
100
AcDbDictionary
280
     1
281
     1
  3
ADSK_XREC_LAYER_RECONCILED
360
807
  0
DICTIONARY
  5
808
330
7B6
100
AcDbDictionary
280
     1
281
     1
  3
ADSK_XREC_LAYER_RECONCILED
360
809
  0
DICTIONARY
  5
80A
330
7B7
100
AcDbDictionary
280
     1
281
     1
  3
ADSK_XREC_LAYER_RECONCILED
360
80B
  0
DICTIONARY
  5
80C
330
7B8
100
AcDbDictionary
280
     1
281
     1
  3
ADSK_XREC_LAYER_RECONCILED
360
80D
  0
DICTIONARY
  5
80E
330
7B9
100
AcDbDictionary
280
     1
281
     1
  3
ADSK_XREC_LAYER_RECONCILED
360
80F
  0
DICTIONARY
  5
810
330
7BA
100
AcDbDictionary
280
     1
281
     1
  3
ADSK_XREC_LAYER_RECONCILED
360
811
  0
XRECORD
  5
7C3
102
{ACAD_REACTORS
330
72B
102
}
330
72B
100
AcDbXrecord
280
     1
300
AMECH_PP
300
2013
300
PDSU_F_S
  0
DICTIONARY
  5
781
102
{ACAD_REACTORS
330
72B
102
}
330
72B
100
AcDbDictionary
281
     1
  0
DICTIONARY
  5
789
102
{ACAD_REACTORS
330
72B
102
}
330
72B
100
AcDbDictionary
281
     1
  3
Imperial24
350
78A
  0
DICTIONARY
  5
72C
102
{ACAD_REACTORS
330
72B
102
}
330
72B
100
AcDbDictionary
281
     1
  0
DICTIONARY
  5
780
102
{ACAD_REACTORS
330
72B
102
}
330
72B
100
AcDbDictionary
281
     1
  3
Layout1
350
78E
  3
Model
350
792
  0
DICTIONARY
  5
72F
102
{ACAD_REACTORS
330
72B
102
}
330
72B
100
AcDbDictionary
281
     1
  3
ByBlock
350
738
  3
ByLayer
350
730
  3
Global
350
740
  0
DICTIONARY
  5
784
102
{ACAD_REACTORS
330
72B
102
}
330
72B
100
AcDbDictionary
281
     1
  3
Standard
350
785
  0
DICTIONARY
  5
77D
102
{ACAD_REACTORS
330
72B
102
}
330
72B
100
AcDbDictionary
281
     1
  3
Standard
350
77E
  0
DICTIONARY
  5
77F
102
{ACAD_REACTORS
330
72B
102
}
330
72B
100
AcDbDictionary
281
     1
  0
ACDBDICTIONARYWDFLT
  5
72D
102
{ACAD_REACTORS
330
72B
102
}
330
72B
100
AcDbDictionary
281
     1
  3
Normal
350
72E
100
AcDbDictionaryWithDefault
340
72E
  0
DICTIONARY
  5
761
102
{ACAD_REACTORS
330
72B
102
}
330
72B
100
AcDbDictionary
281
     1
  3
A0
350
762
  3
A1
350
763
  3
A2
350
764
  3
A3
350
765
  3
A4
350
766
  3
A5
350
767
  3
A6
350
768
  3
A7
350
769
  3
A8
350
76A
  3
A9
350
76B
  3
B0
350
76C
  3
B1
350
76D
  3
B2
350
76E
  3
B3
350
76F
  3
B4
350
770
  3
B5
350
771
  3
B6
350
772
  0
DICTIONARY
  5
786
102
{ACAD_REACTORS
330
72B
102
}
330
72B
100
AcDbDictionary
281
     1
  3
Imperial24
350
788
  0
DICTIONARY
  5
782
102
{ACAD_REACTORS
330
72B
102
}
330
72B
100
AcDbDictionary
281
     1
  3
Standard
350
783
  0
DICTIONARY
  5
748
102
{ACAD_REACTORS
330
72B
102
}
330
72B
100
AcDbDictionary
281
     1
  3
2dWireframe
350
74E
  3
Basic
350
74D
  3
Brighten
350
754
  3
ColorChange
350
758
  3
Conceptual
350
751
  3
Dim
350
753
  3
EdgeColorOff
350
760
  3
Facepattern
350
757
  3
Flat
350
749
  3
FlatWithEdges
350
74A
  3
Gouraud
350
74B
  3
GouraudWithEdges
350
74C
  3
Hidden
350
750
  3
JitterOff
350
75E
  3
Linepattern
350
756
  3
OverhangOff
350
75F
  3
Realistic
350
752
  3
Shaded
350
75D
  3
Shaded with edges
350
75C
  3
Shades of Gray
350
759
  3
Sketchy
350
75A
  3
Thicken
350
755
  3
Wireframe
350
74F
  3
X-Ray
350
75B
  0
XRECORD
  5
81F
102
{ACAD_REACTORS
330
72B
102
}
330
72B
100
AcDbXrecord
280
     1
 90
        1
330
783
  0
DICTIONARY
  5
812
102
{ACAD_REACTORS
330
72B
102
}
330
72B
100
AcDbDictionary
281
     1
  3
CANNOSCALE
350
817
  3
CMLEADERSTYLE
350
814
  3
CTABLESTYLE
350
813
  3
CVIEWDETAILSTYLE
350
815
  3
CVIEWSECTIONSTYLE
350
816
  3
DIMASSOC
350
81A
  3
INDEXCTL
350
819
  3
SORTENTS
350
818
  3
XCLIPFRAME
350
81B
  0
XRECORD
  5
820
102
{ACAD_REACTORS
330
72B
102
}
330
72B
100
AcDbXrecord
280
     1
  1
DWGPROPS COOKIE
  2

  3

  4

  6

  7

  8
Micke
  9

300
=
301
=
302
=
303
=
304
=
305
=
306
=
307
=
308
=
309
=
 40
0.0000048263888889
 41
2456818.431879618
 42
2456818.431884444
  1

 90
        0
  0
XRECORD
  5
7C7
102
{ACAD_REACTORS
330
7C6
102
}
330
7C6
100
AcDbXrecord
280
     1
290
     1
  0
XRECORD
  5
7C9
102
{ACAD_REACTORS
330
7C8
102
}
330
7C8
100
AcDbXrecord
280
     1
290
     1
  0
XRECORD
  5
7CB
102
{ACAD_REACTORS
330
7CA
102
}
330
7CA
100
AcDbXrecord
280
     1
290
     1
  0
XRECORD
  5
7CD
102
{ACAD_REACTORS
330
7CC
102
}
330
7CC
100
AcDbXrecord
280
     1
290
     1
  0
XRECORD
  5
7CF
102
{ACAD_REACTORS
330
7CE
102
}
330
7CE
100
AcDbXrecord
280
     1
290
     1
  0
XRECORD
  5
7D1
102
{ACAD_REACTORS
330
7D0
102
}
330
7D0
100
AcDbXrecord
280
     1
290
     1
  0
XRECORD
  5
7D3
102
{ACAD_REACTORS
330
7D2
102
}
330
7D2
100
AcDbXrecord
280
     1
290
     1
  0
XRECORD
  5
7D5
102
{ACAD_REACTORS
330
7D4
102
}
330
7D4
100
AcDbXrecord
280
     1
290
     1
  0
XRECORD
  5
7D7
102
{ACAD_REACTORS
330
7D6
102
}
330
7D6
100
AcDbXrecord
280
     1
290
     1
  0
XRECORD
  5
7D9
102
{ACAD_REACTORS
330
7D8
102
}
330
7D8
100
AcDbXrecord
280
     1
290
     1
  0
XRECORD
  5
7DB
102
{ACAD_REACTORS
330
7DA
102
}
330
7DA
100
AcDbXrecord
280
     1
290
     1
  0
XRECORD
  5
7DD
102
{ACAD_REACTORS
330
7DC
102
}
330
7DC
100
AcDbXrecord
280
     1
290
     1
  0
XRECORD
  5
7DF
102
{ACAD_REACTORS
330
7DE
102
}
330
7DE
100
AcDbXrecord
280
     1
290
     1
  0
XRECORD
  5
7E1
102
{ACAD_REACTORS
330
7E0
102
}
330
7E0
100
AcDbXrecord
280
     1
290
     1
  0
XRECORD
  5
7E3
102
{ACAD_REACTORS
330
7E2
102
}
330
7E2
100
AcDbXrecord
280
     1
290
     1
  0
XRECORD
  5
7E5
102
{ACAD_REACTORS
330
7E4
102
}
330
7E4
100
AcDbXrecord
280
     1
290
     1
  0
XRECORD
  5
7E7
102
{ACAD_REACTORS
330
7E6
102
}
330
7E6
100
AcDbXrecord
280
     1
290
     1
  0
XRECORD
  5
7E9
102
{ACAD_REACTORS
330
7E8
102
}
330
7E8
100
AcDbXrecord
280
     1
290
     1
  0
XRECORD
  5
7EB
102
{ACAD_REACTORS
330
7EA
102
}
330
7EA
100
AcDbXrecord
280
     1
290
     1
  0
XRECORD
  5
7ED
102
{ACAD_REACTORS
330
7EC
102
}
330
7EC
100
AcDbXrecord
280
     1
290
     1
  0
XRECORD
  5
7EF
102
{ACAD_REACTORS
330
7EE
102
}
330
7EE
100
AcDbXrecord
280
     1
290
     1
  0
XRECORD
  5
7F1
102
{ACAD_REACTORS
330
7F0
102
}
330
7F0
100
AcDbXrecord
280
     1
290
     1
  0
XRECORD
  5
7F3
102
{ACAD_REACTORS
330
7F2
102
}
330
7F2
100
AcDbXrecord
280
     1
290
     1
  0
XRECORD
  5
7F5
102
{ACAD_REACTORS
330
7F4
102
}
330
7F4
100
AcDbXrecord
280
     1
290
     1
  0
XRECORD
  5
7F7
102
{ACAD_REACTORS
330
7F6
102
}
330
7F6
100
AcDbXrecord
280
     1
290
     1
  0
XRECORD
  5
7F9
102
{ACAD_REACTORS
330
7F8
102
}
330
7F8
100
AcDbXrecord
280
     1
290
     1
  0
XRECORD
  5
7FB
102
{ACAD_REACTORS
330
7FA
102
}
330
7FA
100
AcDbXrecord
280
     1
290
     1
  0
XRECORD
  5
7FD
102
{ACAD_REACTORS
330
7FC
102
}
330
7FC
100
AcDbXrecord
280
     1
290
     1
  0
XRECORD
  5
7FF
102
{ACAD_REACTORS
330
7FE
102
}
330
7FE
100
AcDbXrecord
280
     1
290
     1
  0
XRECORD
  5
801
102
{ACAD_REACTORS
330
800
102
}
330
800
100
AcDbXrecord
280
     1
290
     1
  0
XRECORD
  5
803
102
{ACAD_REACTORS
330
802
102
}
330
802
100
AcDbXrecord
280
     1
290
     1
  0
XRECORD
  5
805
102
{ACAD_REACTORS
330
804
102
}
330
804
100
AcDbXrecord
280
     1
290
     1
  0
XRECORD
  5
807
102
{ACAD_REACTORS
330
806
102
}
330
806
100
AcDbXrecord
280
     1
290
     1
  0
XRECORD
  5
809
102
{ACAD_REACTORS
330
808
102
}
330
808
100
AcDbXrecord
280
     1
290
     1
  0
XRECORD
  5
80B
102
{ACAD_REACTORS
330
80A
102
}
330
80A
100
AcDbXrecord
280
     1
290
     1
  0
XRECORD
  5
80D
102
{ACAD_REACTORS
330
80C
102
}
330
80C
100
AcDbXrecord
280
     1
290
     1
  0
XRECORD
  5
80F
102
{ACAD_REACTORS
330
80E
102
}
330
80E
100
AcDbXrecord
280
     1
290
     1
  0
XRECORD
  5
811
102
{ACAD_REACTORS
330
810
102
}
330
810
100
AcDbXrecord
280
     1
290
     1
  0
ACDBDETAILVIEWSTYLE
  5
78A
102
{ACAD_REACTORS
330
789
102
}
330
789
100
AcDbModelDocViewStyle
 70
     0
  3
Imperial24
290
     0
100
AcDbDetailViewStyle
 70
     0
 71
     0
 90
        3
 71
     1
340
774
 40
0.24
340
0
 40
0.24
300

 40
0.36
280
     3
 71
     2
340
77B
 90
       25
 71
     3
340
774
 40
0.24
 90
        1
 40
0.75
 90
        1
300
%<\AcVar ViewType \f "%tc1">% %<\AcVar ViewDetailId>%\PSCALE %<\AcVar ViewScale \f "%sn">%
 71
     4
340
77B
 90
       25
340
77B
 90
       25
280
     0
  0
LAYOUT
  5
78E
102
{ACAD_XDICTIONARY
360
857
102
}
102
{ACAD_REACTORS
330
780
102
}
330
780
100
AcDbPlotSettings
  1

  2
Brother DCP-9020CDW Printer
  4

  6

 40
0.0
 41
0.0
 42
0.0
 43
0.0
 44
0.0
 45
0.0
 46
0.0
 47
0.0
 48
0.0
 49
0.0
140
0.0
141
0.0
142
1.0
143
1.0
 70
   688
 72
     0
 73
     0
 74
     5
  7

 75
    16
147
1.0
148
0.0
149
0.0
100
AcDbLayout
  1
Layout1
 70
     1
 71
     1
 10
0.0
 20
0.0
 11
12.0
 21
9.0
 12
0.0
 22
0.0
 32
0.0
 14
1.000000000000000E+20
 24
1.000000000000000E+20
 34
1.000000000000000E+20
 15
-1.000000000000000E+20
 25
-1.000000000000000E+20
 35
-1.000000000000000E+20
146
0.0
 13
0.0
 23
0.0
 33
0.0
 16
1.0
 26
0.0
 36
0.0
 17
0.0
 27
1.0
 37
0.0
 76
     0
330
78B
  0
LAYOUT
  5
792
102
{ACAD_XDICTIONARY
360
859
102
}
102
{ACAD_REACTORS
330
780
102
}
330
780
100
AcDbPlotSettings
  1

  2
Brother DCP-9020CDW Printer
  4

  6

 40
0.0
 41
0.0
 42
0.0
 43
0.0
 44
0.0
 45
0.0
 46
0.0
 47
0.0
 48
0.0
 49
0.0
140
0.0
141
0.0
142
1.0
143
1.0
 70
  1712
 72
     0
 73
     0
 74
     0
  7

 75
     0
147
1.0
148
0.0
149
0.0
100
AcDbLayout
  1
Model
 70
     1
 71
     0
 10
0.0
 20
0.0
 11
12.0
 21
9.0
 12
0.0
 22
0.0
 32
0.0
 14
0.0
 24
0.0
 34
0.0
 15
0.0
 25
0.0
 35
0.0
146
0.0
 13
0.0
 23
0.0
 33
0.0
 16
1.0
 26
0.0
 36
0.0
 17
0.0
 27
1.0
 37
0.0
 76
     0
330
78F
331
7BE
  0
MATERIAL
  5
738
102
{ACAD_XDICTIONARY
360
739
102
}
102
{ACAD_REACTORS
330
72F
102
}
330
72F
100
AcDbMaterial
  1
ByBlock
 72
     0
 43
0.0208333333333333
 43
0.0
 43
0.0
 43
0.0
 43
0.0
 43
0.0208333333333333
 43
0.0
 43
0.0
 43
0.0
 43
0.0
 43
1.0
 43
0.0
 43
0.0
 43
0.0
 43
0.0
 43
1.0
 77
     0
 47
0.0208333333333333
 47
0.0
 47
0.0
 47
0.0
 47
0.0
 47
0.0208333333333333
 47
0.0
 47
0.0
 47
0.0
 47
0.0
 47
1.0
 47
0.0
 47
0.0
 47
0.0
 47
0.0
 47
1.0
171
     0
 49
0.0208333333333333
 49
0.0
 49
0.0
 49
0.0
 49
0.0
 49
0.0208333333333333
 49
0.0
 49
0.0
 49
0.0
 49
0.0
 49
1.0
 49
0.0
 49
0.0
 49
0.0
 49
0.0
 49
1.0
175
     0
142
0.0208333333333333
142
0.0
142
0.0
142
0.0
142
0.0
142
0.0208333333333333
142
0.0
142
0.0
142
0.0
142
0.0
142
1.0
142
0.0
142
0.0
142
0.0
142
0.0
142
1.0
179
     0
144
0.0208333333333333
144
0.0
144
0.0
144
0.0
144
0.0
144
0.0208333333333333
144
0.0
144
0.0
144
0.0
144
0.0
144
1.0
144
0.0
144
0.0
144
0.0
144
0.0
144
1.0
147
0.0208333333333333
147
0.0
147
0.0
147
0.0
147
0.0
147
0.0208333333333333
147
0.0
147
0.0
147
0.0
147
0.0
147
1.0
147
0.0
147
0.0
147
0.0
147
0.0
147
1.0
  0
MATERIAL
  5
730
102
{ACAD_XDICTIONARY
360
731
102
}
102
{ACAD_REACTORS
330
72F
102
}
330
72F
100
AcDbMaterial
  1
ByLayer
 72
     0
 43
0.0208333333333333
 43
0.0
 43
0.0
 43
0.0
 43
0.0
 43
0.0208333333333333
 43
0.0
 43
0.0
 43
0.0
 43
0.0
 43
1.0
 43
0.0
 43
0.0
 43
0.0
 43
0.0
 43
1.0
 77
     0
 47
0.0208333333333333
 47
0.0
 47
0.0
 47
0.0
 47
0.0
 47
0.0208333333333333
 47
0.0
 47
0.0
 47
0.0
 47
0.0
 47
1.0
 47
0.0
 47
0.0
 47
0.0
 47
0.0
 47
1.0
171
     0
 49
0.0208333333333333
 49
0.0
 49
0.0
 49
0.0
 49
0.0
 49
0.0208333333333333
 49
0.0
 49
0.0
 49
0.0
 49
0.0
 49
1.0
 49
0.0
 49
0.0
 49
0.0
 49
0.0
 49
1.0
175
     0
142
0.0208333333333333
142
0.0
142
0.0
142
0.0
142
0.0
142
0.0208333333333333
142
0.0
142
0.0
142
0.0
142
0.0
142
1.0
142
0.0
142
0.0
142
0.0
142
0.0
142
1.0
179
     0
144
0.0208333333333333
144
0.0
144
0.0
144
0.0
144
0.0
144
0.0208333333333333
144
0.0
144
0.0
144
0.0
144
0.0
144
1.0
144
0.0
144
0.0
144
0.0
144
0.0
144
1.0
147
0.0208333333333333
147
0.0
147
0.0
147
0.0
147
0.0
147
0.0208333333333333
147
0.0
147
0.0
147
0.0
147
0.0
147
1.0
147
0.0
147
0.0
147
0.0
147
0.0
147
1.0
  0
MATERIAL
  5
740
102
{ACAD_XDICTIONARY
360
741
102
}
102
{ACAD_REACTORS
330
72F
102
}
330
72F
100
AcDbMaterial
  1
Global
 72
     0
 43
0.0208333333333333
 43
0.0
 43
0.0
 43
0.0
 43
0.0
 43
0.0208333333333333
 43
0.0
 43
0.0
 43
0.0
 43
0.0
 43
1.0
 43
0.0
 43
0.0
 43
0.0
 43
0.0
 43
1.0
 77
     0
 47
0.0208333333333333
 47
0.0
 47
0.0
 47
0.0
 47
0.0
 47
0.0208333333333333
 47
0.0
 47
0.0
 47
0.0
 47
0.0
 47
1.0
 47
0.0
 47
0.0
 47
0.0
 47
0.0
 47
1.0
171
     0
 49
0.0208333333333333
 49
0.0
 49
0.0
 49
0.0
 49
0.0
 49
0.0208333333333333
 49
0.0
 49
0.0
 49
0.0
 49
0.0
 49
1.0
 49
0.0
 49
0.0
 49
0.0
 49
0.0
 49
1.0
175
     0
142
0.0208333333333333
142
0.0
142
0.0
142
0.0
142
0.0
142
0.0208333333333333
142
0.0
142
0.0
142
0.0
142
0.0
142
1.0
142
0.0
142
0.0
142
0.0
142
0.0
142
1.0
179
     0
144
0.0208333333333333
144
0.0
144
0.0
144
0.0
144
0.0
144
0.0208333333333333
144
0.0
144
0.0
144
0.0
144
0.0
144
1.0
144
0.0
144
0.0
144
0.0
144
0.0
144
1.0
147
0.0208333333333333
147
0.0
147
0.0
147
0.0
147
0.0
147
0.0208333333333333
147
0.0
147
0.0
147
0.0
147
0.0
147
1.0
147
0.0
147
0.0
147
0.0
147
0.0
147
1.0
  0
MLEADERSTYLE
  5
785
102
{ACAD_REACTORS
330
784
102
}
330
784
100
AcDbMLeaderStyle
170
     2
171
     1
172
     0
 90
        2
 40
0.0
 41
0.0
173
     1
 91
-1056964608
340
779
 92
       -2
290
     1
 42
0.09
291
     1
 43
0.36
  3
Standard
 44
0.18
300

342
774
174
     1
178
     6
175
     1
176
     0
 93
-1056964608
 45
0.18
292
     0
297
     0
 46
0.18
 94
-1056964608
 47
1.0
 49
1.0
140
1.0
293
     1
141
0.0
294
     1
177
     0
142
1.0
295
     0
296
     0
143
0.125
1001
ACAD_MLEADERVER
1070
     2
  0
MLINESTYLE
  5
77E
102
{ACAD_REACTORS
330
77D
102
}
330
77D
100
AcDbMlineStyle
  2
STANDARD
 70
     0
  3

 62
   256
 51
90.0
 52
90.0
 71
     2
 49
0.5
 62
   256
  6
BYLAYER
 49
-0.5
 62
   256
  6
BYLAYER
  0
ACDBPLACEHOLDER
  5
72E
102
{ACAD_REACTORS
330
72D
102
}
330
72D
  0
SCALE
  5
762
102
{ACAD_REACTORS
330
761
102
}
330
761
100
AcDbScale
 70
     0
300
1:1
140
1.0
141
1.0
290
     1
  0
SCALE
  5
763
102
{ACAD_REACTORS
330
761
102
}
330
761
100
AcDbScale
 70
     0
300
1/128" = 1'-0"
140
0.0078125
141
12.0
290
     0
  0
SCALE
  5
764
102
{ACAD_REACTORS
330
761
102
}
330
761
100
AcDbScale
 70
     0
300
1/64" = 1'-0"
140
0.015625
141
12.0
290
     0
  0
SCALE
  5
765
102
{ACAD_REACTORS
330
761
102
}
330
761
100
AcDbScale
 70
     0
300
1/32" = 1'-0"
140
0.03125
141
12.0
290
     0
  0
SCALE
  5
766
102
{ACAD_REACTORS
330
761
102
}
330
761
100
AcDbScale
 70
     0
300
1/16" = 1'-0"
140
0.0625
141
12.0
290
     0
  0
SCALE
  5
767
102
{ACAD_REACTORS
330
761
102
}
330
761
100
AcDbScale
 70
     0
300
3/32" = 1'-0"
140
0.09375
141
12.0
290
     0
  0
SCALE
  5
768
102
{ACAD_REACTORS
330
761
102
}
330
761
100
AcDbScale
 70
     0
300
1/8" = 1'-0"
140
0.125
141
12.0
290
     0
  0
SCALE
  5
769
102
{ACAD_REACTORS
330
761
102
}
330
761
100
AcDbScale
 70
     0
300
3/16" = 1'-0"
140
0.1875
141
12.0
290
     0
  0
SCALE
  5
76A
102
{ACAD_REACTORS
330
761
102
}
330
761
100
AcDbScale
 70
     0
300
1/4" = 1'-0"
140
0.25
141
12.0
290
     0
  0
SCALE
  5
76B
102
{ACAD_REACTORS
330
761
102
}
330
761
100
AcDbScale
 70
     0
300
3/8" = 1'-0"
140
0.375
141
12.0
290
     0
  0
SCALE
  5
76C
102
{ACAD_REACTORS
330
761
102
}
330
761
100
AcDbScale
 70
     0
300
1/2" = 1'-0"
140
0.5
141
12.0
290
     0
  0
SCALE
  5
76D
102
{ACAD_REACTORS
330
761
102
}
330
761
100
AcDbScale
 70
     0
300
3/4" = 1'-0"
140
0.75
141
12.0
290
     0
  0
SCALE
  5
76E
102
{ACAD_REACTORS
330
761
102
}
330
761
100
AcDbScale
 70
     0
300
1" = 1'-0"
140
1.0
141
12.0
290
     0
  0
SCALE
  5
76F
102
{ACAD_REACTORS
330
761
102
}
330
761
100
AcDbScale
 70
     0
300
1-1/2" = 1'-0"
140
1.5
141
12.0
290
     0
  0
SCALE
  5
770
102
{ACAD_REACTORS
330
761
102
}
330
761
100
AcDbScale
 70
     0
300
3" = 1'-0"
140
3.0
141
12.0
290
     0
  0
SCALE
  5
771
102
{ACAD_REACTORS
330
761
102
}
330
761
100
AcDbScale
 70
     0
300
6" = 1'-0"
140
6.0
141
12.0
290
     0
  0
SCALE
  5
772
102
{ACAD_REACTORS
330
761
102
}
330
761
100
AcDbScale
 70
     0
300
1'-0" = 1'-0"
140
12.0
141
12.0
290
     0
  0
ACDBSECTIONVIEWSTYLE
  5
788
102
{ACAD_REACTORS
330
786
102
}
330
786
100
AcDbModelDocViewStyle
 70
     0
  3
Imperial24
290
     0
100
AcDbSectionViewStyle
 70
     0
 71
     0
 90
       78
 71
     1
340
774
 40
0.24
340
0
340
0
 40
0.24
300
I, O, Q, S, X, Z
 40
0.48
 90
        3
 40
0.18
 90
        1
 71
     2
340
787
 90
       25
340
77B
 90
       50
 40
0.24
 40
0.0
 40
0.24
 71
     3
340
774
 40
0.24
 90
        1
 40
0.75
 90
        1
300
%<\AcVar ViewType \f "%tc1">% %<\AcVar ViewSectionStartId>%-%<\AcVar ViewSectionEndId>%\PSCALE %<\AcVar ViewScale \f "%sn">%
 71
     4
300
ANSI31
 40
1.0
 90
        0
290
     0
290
     0
 90
        6
 40
0.0
 40
1.570796326794896
 40
0.2617993877991494
 40
1.308996938995747
 40
-0.2617993877991494
 40
1.832595714594046
  0
TABLESTYLE
  5
783
102
{ACAD_XDICTIONARY
360
81D
102
}
102
{ACAD_REACTORS
330
782
102
}
330
782
100
AcDbTableStyle
  3
Standard
 70
     0
 71
     0
 40
0.06
 41
0.06
280
     0
281
     0
  7
STANDARD
140
0.18
170
     2
 62
     0
 63
     7
283
     0
274
    -2
284
     1
 64
     0
275
    -2
285
     1
 65
     0
276
    -2
286
     1
 66
     0
277
    -2
287
     1
 67
     0
278
    -2
288
     1
 68
     0
279
    -2
289
     1
 69
     0
  7
STANDARD
140
0.25
170
     5
 62
     0
 63
     7
283
     0
274
    -2
284
     1
 64
     0
275
    -2
285
     1
 65
     0
276
    -2
286
     1
 66
     0
277
    -2
287
     1
 67
     0
278
    -2
288
     1
 68
     0
279
    -2
289
     1
 69
     0
  7
STANDARD
140
0.18
170
     5
 62
     0
 63
     7
283
     0
274
    -2
284
     1
 64
     0
275
    -2
285
     1
 65
     0
276
    -2
286
     1
 66
     0
277
    -2
287
     1
 67
     0
278
    -2
288
     1
 68
     0
279
    -2
289
     1
 69
     0
  0
VISUALSTYLE
  5
74E
102
{ACAD_XDICTIONARY
360
82F
102
}
102
{ACAD_REACTORS
330
748
102
}
330
748
100
AcDbVisualStyle
  2
2dWireframe
 70
     4
 71
     0
 72
     2
 73
     0
 90
        0
 40
-0.6
 41
-30.0
 62
     5
 63
     7
 74
     1
 91
        4
 64
     7
 65
   257
 75
     1
175
     1
 42
1.0
 92
        0
 66
   257
 43
1.0
 76
     1
 77
     6
 78
     2
 67
     7
 79
     5
170
     0
171
     0
290
     0
174
     0
 93
        1
 44
0.0
173
     0
291
     0
 45
0.0
1001
ACAD
1000
AcDbSavedByObjectVersion
1070
     0
  0
VISUALSTYLE
  5
74D
102
{ACAD_XDICTIONARY
360
82D
102
}
102
{ACAD_REACTORS
330
748
102
}
330
748
100
AcDbVisualStyle
  2
Basic
 70
     7
 71
     1
 72
     0
 73
     1
 90
        0
 40
-0.6
 41
-30.0
 62
     5
 63
     7
 74
     0
 91
        4
 64
     7
 65
   257
 75
     1
175
     1
 42
1.0
 92
        8
 66
     7
 43
1.0
 76
     1
 77
     6
 78
     2
 67
     7
 79
     5
170
     0
171
     0
290
     0
174
     0
 93
        1
 44
0.0
173
     0
291
     1
 45
0.0
1001
ACAD
1000
AcDbSavedByObjectVersion
1070
     0
  0
VISUALSTYLE
  5
754
102
{ACAD_XDICTIONARY
360
83B
102
}
102
{ACAD_REACTORS
330
748
102
}
330
748
100
AcDbVisualStyle
  2
Brighten
 70
    12
 71
     2
 72
     2
 73
     0
 90
        0
 40
-0.6
 41
-30.0
 62
     5
 63
     7
 74
     1
 91
        4
 64
     7
 65
   257
 75
     1
175
     1
 42
1.0
 92
        8
 66
     7
 43
1.0
 76
     1
 77
     6
 78
     2
 67
     7
 79
     5
170
     0
171
     0
290
     0
174
     0
 93
        1
 44
50.0
173
     0
291
     1
 45
0.0
1001
ACAD
1000
AcDbSavedByObjectVersion
1070
     0
  0
VISUALSTYLE
  5
758
102
{ACAD_XDICTIONARY
360
843
102
}
102
{ACAD_REACTORS
330
748
102
}
330
748
100
AcDbVisualStyle
  2
ColorChange
 70
    16
 71
     2
 72
     2
 73
     3
 90
        0
 40
-0.6
 41
-30.0
 62
     5
 63
     8
 74
     1
 91
        4
 64
     7
 65
   257
 75
     1
175
     1
 42
1.0
 92
        8
 66
     8
 43
1.0
 76
     1
 77
     6
 78
     2
 67
     7
 79
     5
170
     0
171
     0
290
     0
174
     0
 93
        1
 44
0.0
173
     0
291
     1
 45
0.0
1001
ACAD
1000
AcDbSavedByObjectVersion
1070
     0
  0
VISUALSTYLE
  5
751
102
{ACAD_XDICTIONARY
360
835
102
}
102
{ACAD_REACTORS
330
748
102
}
330
748
100
AcDbVisualStyle
  2
Conceptual
 70
     9
 71
     3
 72
     2
 73
     0
 90
        0
 40
-0.6
 41
-30.0
 62
     5
 63
     7
 74
     2
 91
        2
 64
     7
 65
   257
 75
     1
175
     1
 42
179.0
 92
        8
 66
     7
 43
1.0
 76
     1
 77
     6
 78
     2
 67
     7
 79
     3
170
     0
171
     0
290
     0
174
     0
 93
        1
 44
0.0
173
     0
291
     0
 45
0.0
1001
ACAD
1000
AcDbSavedByObjectVersion
1070
     0
  0
VISUALSTYLE
  5
753
102
{ACAD_XDICTIONARY
360
839
102
}
102
{ACAD_REACTORS
330
748
102
}
330
748
100
AcDbVisualStyle
  2
Dim
 70
    11
 71
     2
 72
     2
 73
     0
 90
        0
 40
-0.6
 41
-30.0
 62
     5
 63
     7
 74
     1
 91
        4
 64
     7
 65
   257
 75
     1
175
     1
 42
1.0
 92
        8
 66
     7
 43
1.0
 76
     1
 77
     6
 78
     2
 67
     7
 79
     5
170
     0
171
     0
290
     0
174
     0
 93
        1
 44
-50.0
173
     0
291
     1
 45
0.0
1001
ACAD
1000
AcDbSavedByObjectVersion
1070
     0
  0
VISUALSTYLE
  5
760
102
{ACAD_XDICTIONARY
360
853
102
}
102
{ACAD_REACTORS
330
748
102
}
330
748
100
AcDbVisualStyle
  2
EdgeColorOff
 70
    22
 71
     2
 72
     2
 73
     0
 90
        0
 40
-0.6
 41
-30.0
 62
     5
 63
     7
 74
     1
 91
        4
 64
     7
 65
   257
 75
     1
175
     1
 42
1.0
 92
        8
 66
     7
 43
1.0
 76
     1
 77
     6
 78
     2
 67
     7
 79
     5
170
     0
171
     0
290
     0
174
     0
 93
        1
 44
0.0
173
     0
291
     1
 45
0.0
1001
ACAD
1000
AcDbSavedByObjectVersion
1070
     0
  0
VISUALSTYLE
  5
757
102
{ACAD_XDICTIONARY
360
841
102
}
102
{ACAD_REACTORS
330
748
102
}
330
748
100
AcDbVisualStyle
  2
Facepattern
 70
    15
 71
     2
 72
     2
 73
     0
 90
        0
 40
-0.6
 41
-30.0
 62
     5
 63
     7
 74
     1
 91
        4
 64
     7
 65
   257
 75
     1
175
     1
 42
1.0
 92
        8
 66
     7
 43
1.0
 76
     1
 77
     6
 78
     2
 67
     7
 79
     5
170
     0
171
     0
290
     0
174
     0
 93
        1
 44
0.0
173
     0
291
     1
 45
0.0
1001
ACAD
1000
AcDbSavedByObjectVersion
1070
     0
  0
VISUALSTYLE
  5
749
102
{ACAD_XDICTIONARY
360
825
102
}
102
{ACAD_REACTORS
330
748
102
}
330
748
100
AcDbVisualStyle
  2
Flat
 70
     0
 71
     2
 72
     1
 73
     1
 90
        2
 40
-0.6
 41
30.0
 62
     5
 63
     7
 74
     0
 91
        0
 64
     7
 65
   257
 75
     1
175
     1
 42
1.0
 92
        8
 66
     7
 43
1.0
 76
     1
 77
     6
 78
     2
 67
     7
 79
     5
170
     0
171
     0
290
     0
174
     0
 93
       13
 44
0.0
173
     0
291
     1
 45
0.0
1001
ACAD
1000
AcDbSavedByObjectVersion
1070
     0
  0
VISUALSTYLE
  5
74A
102
{ACAD_XDICTIONARY
360
827
102
}
102
{ACAD_REACTORS
330
748
102
}
330
748
100
AcDbVisualStyle
  2
FlatWithEdges
 70
     1
 71
     2
 72
     1
 73
     1
 90
        2
 40
-0.6
 41
30.0
 62
     5
 63
     7
 74
     1
 91
        0
 64
     7
 65
   257
 75
     1
175
     1
 42
1.0
 92
        0
 66
   257
 43
1.0
 76
     1
 77
     6
 78
     2
 67
     7
 79
     5
170
     0
171
     0
290
     0
174
     0
 93
       13
 44
0.0
173
     0
291
     1
 45
0.0
1001
ACAD
1000
AcDbSavedByObjectVersion
1070
     0
  0
VISUALSTYLE
  5
74B
102
{ACAD_XDICTIONARY
360
829
102
}
102
{ACAD_REACTORS
330
748
102
}
330
748
100
AcDbVisualStyle
  2
Gouraud
 70
     2
 71
     2
 72
     2
 73
     1
 90
        2
 40
-0.6
 41
30.0
 62
     5
 63
     7
 74
     0
 91
        0
 64
     7
 65
   257
 75
     1
175
     1
 42
1.0
 92
        0
 66
     7
 43
1.0
 76
     1
 77
     6
 78
     2
 67
     7
 79
     5
170
     0
171
     0
290
     0
174
     0
 93
       13
 44
0.0
173
     0
291
     1
 45
0.0
1001
ACAD
1000
AcDbSavedByObjectVersion
1070
     0
  0
VISUALSTYLE
  5
74C
102
{ACAD_XDICTIONARY
360
82B
102
}
102
{ACAD_REACTORS
330
748
102
}
330
748
100
AcDbVisualStyle
  2
GouraudWithEdges
 70
     3
 71
     2
 72
     2
 73
     1
 90
        2
 40
-0.6
 41
30.0
 62
     5
 63
     7
 74
     1
 91
        0
 64
     7
 65
   257
 75
     1
175
     1
 42
1.0
 92
        0
 66
   257
 43
1.0
 76
     1
 77
     6
 78
     2
 67
     7
 79
     5
170
     0
171
     0
290
     0
174
     0
 93
       13
 44
0.0
173
     0
291
     1
 45
0.0
1001
ACAD
1000
AcDbSavedByObjectVersion
1070
     0
  0
VISUALSTYLE
  5
750
102
{ACAD_XDICTIONARY
360
833
102
}
102
{ACAD_REACTORS
330
748
102
}
330
748
100
AcDbVisualStyle
  2
Hidden
 70
     6
 71
     1
 72
     2
 73
     2
 90
        0
 40
-0.6
 41
-30.0
 62
     5
 63
     7
 74
     2
 91
        2
 64
     7
 65
   257
 75
     2
175
     1
 42
40.0
 92
        0
 66
   257
 43
1.0
 76
     1
 77
     6
 78
     2
 67
     7
 79
     3
170
     0
171
     0
290
     0
174
     0
 93
        1
 44
0.0
173
     0
291
     0
 45
0.0
1001
ACAD
1000
AcDbSavedByObjectVersion
1070
     0
  0
VISUALSTYLE
  5
75E
102
{ACAD_XDICTIONARY
360
84F
102
}
102
{ACAD_REACTORS
330
748
102
}
330
748
100
AcDbVisualStyle
  2
JitterOff
 70
    20
 71
     2
 72
     2
 73
     0
 90
        0
 40
-0.6
 41
-30.0
 62
     5
 63
     7
 74
     1
 91
        4
 64
     7
 65
   257
 75
     1
175
     1
 42
1.0
 92
       10
 66
     7
 43
1.0
 76
     1
 77
     6
 78
     2
 67
     7
 79
     5
170
     0
171
     0
290
     0
174
     0
 93
        1
 44
0.0
173
     0
291
     1
 45
0.0
1001
ACAD
1000
AcDbSavedByObjectVersion
1070
     0
  0
VISUALSTYLE
  5
756
102
{ACAD_XDICTIONARY
360
83F
102
}
102
{ACAD_REACTORS
330
748
102
}
330
748
100
AcDbVisualStyle
  2
Linepattern
 70
    14
 71
     2
 72
     2
 73
     0
 90
        0
 40
-0.6
 41
-30.0
 62
     5
 63
     7
 74
     1
 91
        4
 64
     7
 65
   257
 75
     7
175
     7
 42
1.0
 92
        8
 66
     7
 43
1.0
 76
     1
 77
     6
 78
     2
 67
     7
 79
     5
170
     0
171
     0
290
     0
174
     0
 93
        1
 44
0.0
173
     0
291
     1
 45
0.0
1001
ACAD
1000
AcDbSavedByObjectVersion
1070
     0
  0
VISUALSTYLE
  5
75F
102
{ACAD_XDICTIONARY
360
851
102
}
102
{ACAD_REACTORS
330
748
102
}
330
748
100
AcDbVisualStyle
  2
OverhangOff
 70
    21
 71
     2
 72
     2
 73
     0
 90
        0
 40
-0.6
 41
-30.0
 62
     5
 63
     7
 74
     1
 91
        4
 64
     7
 65
   257
 75
     1
175
     1
 42
1.0
 92
        9
 66
     7
 43
1.0
 76
     1
 77
     6
 78
     2
 67
     7
 79
     5
170
     0
171
     0
290
     0
174
     0
 93
        1
 44
0.0
173
     0
291
     1
 45
0.0
1001
ACAD
1000
AcDbSavedByObjectVersion
1070
     0
  0
VISUALSTYLE
  5
752
102
{ACAD_XDICTIONARY
360
837
102
}
102
{ACAD_REACTORS
330
748
102
}
330
748
100
AcDbVisualStyle
  2
Realistic
 70
     8
 71
     2
 72
     3
 73
     0
 90
        2
 40
-0.6
 41
30.0
 62
     5
 63
     7
 74
     0
 91
        0
 64
     7
 65
   257
 75
     1
175
     1
 42
1.0
 92
        8
 66
   257
 43
1.0
 76
     1
 77
     6
 78
     2
 67
     7
 79
     3
170
     0
171
     0
290
     0
174
     0
 93
       13
 44
0.0
173
     0
291
     0
 45
0.0
1001
ACAD
1000
AcDbSavedByObjectVersion
1070
     0
  0
VISUALSTYLE
  5
75D
102
{ACAD_XDICTIONARY
360
84D
102
}
102
{ACAD_REACTORS
330
748
102
}
330
748
100
AcDbVisualStyle
  2
Shaded
 70
    27
 71
     2
 72
     2
 73
     1
 90
        2
 40
-0.6
 41
30.0
 62
     5
 63
     7
 74
     0
 91
        4
 64
     7
 65
   257
 75
     1
175
     1
 42
1.0
 92
        8
 66
   257
 43
1.0
 76
     1
 77
     6
 78
     2
 67
     8
 79
     3
170
     0
171
     0
290
     0
174
     0
 93
        5
 44
0.0
173
     0
291
     0
 45
0.0
1001
ACAD
1000
AcDbSavedByObjectVersion
1070
     0
  0
VISUALSTYLE
  5
75C
102
{ACAD_XDICTIONARY
360
84B
102
}
102
{ACAD_REACTORS
330
748
102
}
330
748
100
AcDbVisualStyle
  2
Shaded with edges
 70
    26
 71
     2
 72
     2
 73
     1
 90
        2
 40
-0.6
 41
30.0
 62
     5
 63
     7
 74
     1
 91
       10
 64
     7
 65
   257
 75
     2
175
     1
 42
1.0
 92
        8
 66
   257
 43
1.0
 76
     1
 77
     6
 78
     2
 67
     7
 79
     3
170
     0
171
     0
290
     0
174
     0
 93
        5
 44
0.0
173
     0
291
     0
 45
0.0
1001
ACAD
1000
AcDbSavedByObjectVersion
1070
     0
  0
VISUALSTYLE
  5
759
102
{ACAD_XDICTIONARY
360
845
102
}
102
{ACAD_REACTORS
330
748
102
}
330
748
100
AcDbVisualStyle
  2
Shades of Gray
 70
    23
 71
     2
 72
     2
 73
     3
 90
        0
 40
-0.6
 41
-30.0
 62
     5
 63
     7
 74
     2
 91
        2
 64
     7
 65
     7
 75
     1
175
     1
 42
40.0
 92
        8
 66
     7
 43
1.0
 76
     1
 77
     6
 78
     2
 67
     7
 79
     3
170
     0
171
     0
290
     0
174
     0
 93
        1
 44
0.0
173
     0
291
     0
 45
0.0
1001
ACAD
1000
AcDbSavedByObjectVersion
1070
     0
  0
VISUALSTYLE
  5
75A
102
{ACAD_XDICTIONARY
360
847
102
}
102
{ACAD_REACTORS
330
748
102
}
330
748
100
AcDbVisualStyle
  2
Sketchy
 70
    24
 71
     1
 72
     2
 73
     2
 90
        0
 40
-0.6
 41
-30.0
 62
     5
 63
     7
 74
     2
 91
        2
 64
     7
 65
     7
 75
     1
175
     1
 42
40.0
 92
       11
 66
     7
 43
1.0
 76
     1
 77
     6
 78
     2
 67
     7
 79
     6
170
     0
171
     0
290
     0
174
     0
 93
        1
 44
0.0
173
     0
291
     0
 45
0.0
1001
ACAD
1000
AcDbSavedByObjectVersion
1070
     0
  0
VISUALSTYLE
  5
755
102
{ACAD_XDICTIONARY
360
83D
102
}
102
{ACAD_REACTORS
330
748
102
}
330
748
100
AcDbVisualStyle
  2
Thicken
 70
    13
 71
     2
 72
     2
 73
     0
 90
        0
 40
-0.6
 41
-30.0
 62
     5
 63
     7
 74
     1
 91
        4
 64
     7
 65
   257
 75
     1
175
     1
 42
1.0
 92
       12
 66
     7
 43
1.0
 76
     1
 77
     6
 78
     2
 67
     7
 79
     5
170
     0
171
     0
290
     0
174
     0
 93
        1
 44
0.0
173
     0
291
     1
 45
0.0
1001
ACAD
1000
AcDbSavedByObjectVersion
1070
     0
  0
VISUALSTYLE
  5
74F
102
{ACAD_XDICTIONARY
360
831
102
}
102
{ACAD_REACTORS
330
748
102
}
330
748
100
AcDbVisualStyle
  2
Wireframe
 70
     5
 71
     0
 72
     2
 73
     0
 90
        0
 40
-0.6
 41
-30.0
 62
     5
 63
     7
 74
     1
 91
        4
 64
     7
 65
   257
 75
     1
175
     1
 42
1.0
 92
        0
 66
   257
 43
1.0
 76
     1
 77
     6
 78
     2
 67
     7
 79
     3
170
     0
171
     0
290
     0
174
     0
 93
        1
 44
0.0
173
     0
291
     0
 45
0.0
1001
ACAD
1000
AcDbSavedByObjectVersion
1070
     0
  0
VISUALSTYLE
  5
75B
102
{ACAD_XDICTIONARY
360
849
102
}
102
{ACAD_REACTORS
330
748
102
}
330
748
100
AcDbVisualStyle
  2
X-Ray
 70
    25
 71
     2
 72
     2
 73
     1
 90
        1
 40
0.5
 41
-30.0
 62
     5
 63
     7
 74
     1
 91
        0
 64
     7
 65
   257
 75
     1
175
     1
 42
1.0
 92
        8
 66
     7
 43
1.0
 76
     1
 77
     6
 78
     2
 67
     7
 79
     3
170
     0
171
     0
290
     0
174
     0
 93
       13
 44
0.0
173
     0
291
     0
 45
0.0
1001
ACAD
1000
AcDbSavedByObjectVersion
1070
     0
  0
DICTIONARYVAR
  5
817
102
{ACAD_REACTORS
330
812
102
}
330
812
100
DictionaryVariables
280
     0
  1
1:1
  0
DICTIONARYVAR
  5
814
102
{ACAD_REACTORS
330
812
102
}
330
812
100
DictionaryVariables
280
     0
  1
STANDARD
  0
DICTIONARYVAR
  5
813
102
{ACAD_REACTORS
330
812
102
}
330
812
100
DictionaryVariables
280
     0
  1
STANDARD
  0
DICTIONARYVAR
  5
815
102
{ACAD_REACTORS
330
812
102
}
330
812
100
DictionaryVariables
280
     0
  1
Imperial24
  0
DICTIONARYVAR
  5
816
102
{ACAD_REACTORS
330
812
102
}
330
812
100
DictionaryVariables
280
     0
  1
Imperial24
  0
DICTIONARYVAR
  5
81A
102
{ACAD_REACTORS
330
812
102
}
330
812
100
DictionaryVariables
280
     0
  1
1
  0
DICTIONARYVAR
  5
819
102
{ACAD_REACTORS
330
812
102
}
330
812
100
DictionaryVariables
280
     0
  1
0
  0
DICTIONARYVAR
  5
818
102
{ACAD_REACTORS
330
812
102
}
330
812
100
DictionaryVariables
280
     0
  1
127
  0
DICTIONARYVAR
  5
81B
102
{ACAD_REACTORS
330
812
102
}
330
812
100
DictionaryVariables
280
     0
  1
2
  0
DICTIONARY
  5
857
330
78E
100
AcDbDictionary
280
     1
281
     1
  3
ACAD_XREC_ROUNDTRIP
360
858
  0
DICTIONARY
  5
859
330
792
100
AcDbDictionary
280
     1
281
     1
  3
ACAD_XREC_ROUNDTRIP
360
85A
  0
DICTIONARY
  5
739
330
738
100
AcDbDictionary
280
     1
281
     1
  3
ACAD_XREC_ROUNDTRIP
360
823
  3
BUMPTILE
360
73B
  3
DIFFUSETILE
360
73A
  3
OPACITYTILE
360
73E
  3
REFLECTIONTILE
360
73D
  3
REFRACTIONTILE
360
73F
  3
SPECULARTILE
360
73C
  0
DICTIONARY
  5
731
330
730
100
AcDbDictionary
280
     1
281
     1
  3
ACAD_XREC_ROUNDTRIP
360
822
  3
BUMPTILE
360
733
  3
DIFFUSETILE
360
732
  3
OPACITYTILE
360
736
  3
REFLECTIONTILE
360
735
  3
REFRACTIONTILE
360
737
  3
SPECULARTILE
360
734
  0
DICTIONARY
  5
741
330
740
100
AcDbDictionary
280
     1
281
     1
  3
ACAD_XREC_ROUNDTRIP
360
824
  3
BUMPTILE
360
743
  3
DIFFUSETILE
360
742
  3
OPACITYTILE
360
746
  3
REFLECTIONTILE
360
745
  3
REFRACTIONTILE
360
747
  3
SPECULARTILE
360
744
  0
DICTIONARY
  5
81D
330
783
100
AcDbDictionary
280
     1
281
     1
  3
ACAD_ROUNDTRIP_2008_TABLESTYLE_CELLSTYLEMAP
360
81E
  3
ACAD_XREC_ROUNDTRIP
360
855
  0
DICTIONARY
  5
82F
330
74E
100
AcDbDictionary
280
     1
281
     1
  3
ACAD_XREC_ROUNDTRIP
360
830
  0
DICTIONARY
  5
82D
330
74D
100
AcDbDictionary
280
     1
281
     1
  3
ACAD_XREC_ROUNDTRIP
360
82E
  0
DICTIONARY
  5
83B
330
754
100
AcDbDictionary
280
     1
281
     1
  3
ACAD_XREC_ROUNDTRIP
360
83C
  0
DICTIONARY
  5
843
330
758
100
AcDbDictionary
280
     1
281
     1
  3
ACAD_XREC_ROUNDTRIP
360
844
  0
DICTIONARY
  5
835
330
751
100
AcDbDictionary
280
     1
281
     1
  3
ACAD_XREC_ROUNDTRIP
360
836
  0
DICTIONARY
  5
839
330
753
100
AcDbDictionary
280
     1
281
     1
  3
ACAD_XREC_ROUNDTRIP
360
83A
  0
DICTIONARY
  5
853
330
760
100
AcDbDictionary
280
     1
281
     1
  3
ACAD_XREC_ROUNDTRIP
360
854
  0
DICTIONARY
  5
841
330
757
100
AcDbDictionary
280
     1
281
     1
  3
ACAD_XREC_ROUNDTRIP
360
842
  0
DICTIONARY
  5
825
330
749
100
AcDbDictionary
280
     1
281
     1
  3
ACAD_XREC_ROUNDTRIP
360
826
  0
DICTIONARY
  5
827
330
74A
100
AcDbDictionary
280
     1
281
     1
  3
ACAD_XREC_ROUNDTRIP
360
828
  0
DICTIONARY
  5
829
330
74B
100
AcDbDictionary
280
     1
281
     1
  3
ACAD_XREC_ROUNDTRIP
360
82A
  0
DICTIONARY
  5
82B
330
74C
100
AcDbDictionary
280
     1
281
     1
  3
ACAD_XREC_ROUNDTRIP
360
82C
  0
DICTIONARY
  5
833
330
750
100
AcDbDictionary
280
     1
281
     1
  3
ACAD_XREC_ROUNDTRIP
360
834
  0
DICTIONARY
  5
84F
330
75E
100
AcDbDictionary
280
     1
281
     1
  3
ACAD_XREC_ROUNDTRIP
360
850
  0
DICTIONARY
  5
83F
330
756
100
AcDbDictionary
280
     1
281
     1
  3
ACAD_XREC_ROUNDTRIP
360
840
  0
DICTIONARY
  5
851
330
75F
100
AcDbDictionary
280
     1
281
     1
  3
ACAD_XREC_ROUNDTRIP
360
852
  0
DICTIONARY
  5
837
330
752
100
AcDbDictionary
280
     1
281
     1
  3
ACAD_XREC_ROUNDTRIP
360
838
  0
DICTIONARY
  5
84D
330
75D
100
AcDbDictionary
280
     1
281
     1
  3
ACAD_XREC_ROUNDTRIP
360
84E
  0
DICTIONARY
  5
84B
330
75C
100
AcDbDictionary
280
     1
281
     1
  3
ACAD_XREC_ROUNDTRIP
360
84C
  0
DICTIONARY
  5
845
330
759
100
AcDbDictionary
280
     1
281
     1
  3
ACAD_XREC_ROUNDTRIP
360
846
  0
DICTIONARY
  5
847
330
75A
100
AcDbDictionary
280
     1
281
     1
  3
ACAD_XREC_ROUNDTRIP
360
848
  0
DICTIONARY
  5
83D
330
755
100
AcDbDictionary
280
     1
281
     1
  3
ACAD_XREC_ROUNDTRIP
360
83E
  0
DICTIONARY
  5
831
330
74F
100
AcDbDictionary
280
     1
281
     1
  3
ACAD_XREC_ROUNDTRIP
360
832
  0
DICTIONARY
  5
849
330
75B
100
AcDbDictionary
280
     1
281
     1
  3
ACAD_XREC_ROUNDTRIP
360
84A
  0
XRECORD
  5
858
102
{ACAD_REACTORS
330
857
102
}
330
857
100
AcDbXrecord
280
     1
102
SHADEPLOT
 70
     0
102
SHADEPLOTRESLEVEL
 70
     2
102
SHADEPLOTCUSTOMDPI
 70
   300
  0
XRECORD
  5
85A
102
{ACAD_REACTORS
330
859
102
}
330
859
100
AcDbXrecord
280
     1
102
SHADEPLOT
 70
     0
102
SHADEPLOTRESLEVEL
 70
     2
102
SHADEPLOTCUSTOMDPI
 70
   300
  0
XRECORD
  5
823
102
{ACAD_REACTORS
330
739
102
}
330
739
100
AcDbXrecord
280
     1
102
MATERIAL
148
0.0
149
0.0
149
0.0
 93
        0
 94
      127
282
     0
 72
     0
 77
     0
171
     0
175
     0
179
     0
273
     0
  0
XRECORD
  5
73B
102
{ACAD_REACTORS
330
739
102
}
330
739
100
AcDbXrecord
280
     1
270
     1
271
     1
  0
XRECORD
  5
73A
102
{ACAD_REACTORS
330
739
102
}
330
739
100
AcDbXrecord
280
     1
270
     1
271
     1
  0
XRECORD
  5
73E
102
{ACAD_REACTORS
330
739
102
}
330
739
100
AcDbXrecord
280
     1
270
     1
271
     1
  0
XRECORD
  5
73D
102
{ACAD_REACTORS
330
739
102
}
330
739
100
AcDbXrecord
280
     1
270
     1
271
     1
  0
XRECORD
  5
73F
102
{ACAD_REACTORS
330
739
102
}
330
739
100
AcDbXrecord
280
     1
270
     1
271
     1
  0
XRECORD
  5
73C
102
{ACAD_REACTORS
330
739
102
}
330
739
100
AcDbXrecord
280
     1
270
     1
271
     1
  0
XRECORD
  5
822
102
{ACAD_REACTORS
330
731
102
}
330
731
100
AcDbXrecord
280
     1
102
MATERIAL
148
0.0
149
0.0
149
0.0
 93
        0
 94
      127
282
     0
 72
     0
 77
     0
171
     0
175
     0
179
     0
273
     0
  0
XRECORD
  5
733
102
{ACAD_REACTORS
330
731
102
}
330
731
100
AcDbXrecord
280
     1
270
     1
271
     1
  0
XRECORD
  5
732
102
{ACAD_REACTORS
330
731
102
}
330
731
100
AcDbXrecord
280
     1
270
     1
271
     1
  0
XRECORD
  5
736
102
{ACAD_REACTORS
330
731
102
}
330
731
100
AcDbXrecord
280
     1
270
     1
271
     1
  0
XRECORD
  5
735
102
{ACAD_REACTORS
330
731
102
}
330
731
100
AcDbXrecord
280
     1
270
     1
271
     1
  0
XRECORD
  5
737
102
{ACAD_REACTORS
330
731
102
}
330
731
100
AcDbXrecord
280
     1
270
     1
271
     1
  0
XRECORD
  5
734
102
{ACAD_REACTORS
330
731
102
}
330
731
100
AcDbXrecord
280
     1
270
     1
271
     1
  0
XRECORD
  5
824
102
{ACAD_REACTORS
330
741
102
}
330
741
100
AcDbXrecord
280
     1
102
MATERIAL
148
0.0
149
0.0
149
0.0
 93
        0
 94
      127
282
     0
 72
     0
 77
     0
171
     0
175
     0
179
     0
273
     0
  0
XRECORD
  5
743
102
{ACAD_REACTORS
330
741
102
}
330
741
100
AcDbXrecord
280
     1
270
     1
271
     1
  0
XRECORD
  5
742
102
{ACAD_REACTORS
330
741
102
}
330
741
100
AcDbXrecord
280
     1
270
     1
271
     1
  0
XRECORD
  5
746
102
{ACAD_REACTORS
330
741
102
}
330
741
100
AcDbXrecord
280
     1
270
     1
271
     1
  0
XRECORD
  5
745
102
{ACAD_REACTORS
330
741
102
}
330
741
100
AcDbXrecord
280
     1
270
     1
271
     1
  0
XRECORD
  5
747
102
{ACAD_REACTORS
330
741
102
}
330
741
100
AcDbXrecord
280
     1
270
     1
271
     1
  0
XRECORD
  5
744
102
{ACAD_REACTORS
330
741
102
}
330
741
100
AcDbXrecord
280
     1
270
     1
271
     1
  0
CELLSTYLEMAP
  5
81E
102
{ACAD_REACTORS
330
81D
102
}
330
81D
100
AcDbCellStyleMap
 90
        3
300
CELLSTYLE
  1
TABLEFORMAT_BEGIN
 90
        5
170
     1
 91
        0
 92
    32768
 62
   257
 93
        1
300
CONTENTFORMAT
  1
CONTENTFORMAT_BEGIN
 90
        0
 91
        0
 92
      512
 93
        0
300

 40
0.0
140
1.0
 94
        5
 62
     0
340
774
144
0.25
309
CONTENTFORMAT_END
171
     0
 94
        0
309
TABLEFORMAT_END
  1
CELLSTYLE_BEGIN
 90
        1
 91
        1
300
_TITLE
309
CELLSTYLE_END
300
CELLSTYLE
  1
TABLEFORMAT_BEGIN
 90
        5
170
     1
 91
        0
 92
        0
 62
   257
 93
        1
300
CONTENTFORMAT
  1
CONTENTFORMAT_BEGIN
 90
        0
 91
        0
 92
      512
 93
        0
300

 40
0.0
140
1.0
 94
        5
 62
     0
340
774
144
0.18
309
CONTENTFORMAT_END
171
     0
 94
        0
309
TABLEFORMAT_END
  1
CELLSTYLE_BEGIN
 90
        2
 91
        1
300
_HEADER
309
CELLSTYLE_END
300
CELLSTYLE
  1
TABLEFORMAT_BEGIN
 90
        5
170
     1
 91
        0
 92
        0
 62
   257
 93
        1
300
CONTENTFORMAT
  1
CONTENTFORMAT_BEGIN
 90
        0
 91
        0
 92
      512
 93
        0
300

 40
0.0
140
1.0
 94
        2
 62
     0
340
774
144
0.18
309
CONTENTFORMAT_END
171
     0
 94
        0
309
TABLEFORMAT_END
  1
CELLSTYLE_BEGIN
 90
        3
 91
        2
300
_DATA
309
CELLSTYLE_END
  0
XRECORD
  5
855
102
{ACAD_REACTORS
330
81D
102
}
330
81D
100
AcDbXrecord
280
     1
102
ACAD_ROUNDTRIP_PRE2007_TABLESTYLE
 90
      512
 91
        0
  1

 92
      512
 93
        0
  2

 94
      512
 95
        0
  3

  0
XRECORD
  5
830
102
{ACAD_REACTORS
330
82F
102
}
330
82F
100
AcDbXrecord
280
     1
102
RTVSPost2010Prop28
280
     1
102
RTVSPost2010PropOp28
 70
     1
102
RTVSPost2010Prop29
280
     1
102
RTVSPost2010PropOp29
 70
     1
102
RTVSPost2010Prop30
280
     0
102
RTVSPost2010PropOp30
 70
     1
102
RTVSPost2010Prop31
280
     0
102
RTVSPost2010PropOp31
 70
     1
102
RTVSPost2010Prop32
280
     0
102
RTVSPost2010PropOp32
 70
     1
102
RTVSPost2010Prop33
280
     0
102
RTVSPost2010PropOp33
 70
     1
102
RTVSPost2010Prop34
280
     0
102
RTVSPost2010PropOp34
 70
     1
102
RTVSPost2010Prop35
280
     0
102
RTVSPost2010PropOp35
 70
     1
102
RTVSPost2010Prop36
280
     0
102
RTVSPost2010PropOp36
 70
     1
102
RTVSPost2010Prop37
 90
       50
102
RTVSPost2010PropOp37
 70
     1
102
RTVSPost2010Prop38
140
0.0
102
RTVSPost2010PropOp38
 70
     1
102
RTVSPost2010Prop39
140
1.0
102
RTVSPost2010PropOp39
 70
     1
102
RTVSPost2010Prop40
 90
        0
102
RTVSPost2010PropOp40
 70
     1
102
RTVSPost2010Prop41ColorIndex
 90
       18
102
RTVSPost2010Prop41ColorRGB
 90
        0
102
RTVSPost2010PropOp41
 70
     1
102
RTVSPost2010Prop42
 90
       50
102
RTVSPost2010PropOp42
 70
     1
102
RTVSPost2010Prop43
 90
        3
102
RTVSPost2010PropOp43
 70
     1
102
RTVSPost2010Prop44ColorIndex
 90
        5
102
RTVSPost2010Prop44ColorRGB
 90
      255
102
RTVSPost2010PropOp44
 70
     1
102
RTVSPost2010Prop45
280
     0
102
RTVSPost2010PropOp45
 70
     1
102
RTVSPost2010Prop46
 90
       50
102
RTVSPost2010PropOp46
 70
     1
102
RTVSPost2010Prop47
 90
       50
102
RTVSPost2010PropOp47
 70
     1
102
RTVSPost2010Prop48
 90
       50
102
RTVSPost2010PropOp48
 70
     1
102
RTVSPost2010Prop49
280
     0
102
RTVSPost2010PropOp49
 70
     1
102
RTVSPost2010Prop50
 90
       50
102
RTVSPost2010PropOp50
 70
     1
102
RTVSPost2010Prop51ColorIndex
 90
      256
102
RTVSPost2010Prop51ColorRGB
 90
-16777216
102
RTVSPost2010PropOp51
 70
     0
102
RTVSPost2010Prop52
140
1.0
102
RTVSPost2010PropOp52
 70
     0
102
RTVSPost2010Prop53
 90
        2
102
RTVSPost2010PropOp53
 70
     1
102
RTVSPost2010Prop54
  1
strokes_ogs.tif
102
RTVSPost2010PropOp54
 70
     1
102
RTVSPost2010Prop55
280
     0
102
RTVSPost2010PropOp55
 70
     1
102
RTVSPost2010Prop56
140
1.0
102
RTVSPost2010PropOp56
 70
     1
102
RTVSPost2010Prop57
140
1.0
102
RTVSPost2010PropOp57
 70
     1
102
RTVSPropertyOp0
 70
     1
102
RTVSPropertyOp1
 70
     1
102
RTVSPropertyOp2
 70
     1
102
RTVSPropertyOp3
 70
     1
102
RTVSPropertyOp4
 70
     1
102
RTVSPropertyOp5
 70
     1
102
RTVSPropertyOp6
 70
     1
102
RTVSPropertyOp7
 70
     1
102
RTVSPropertyOp8
 70
     1
102
RTVSPropertyOp9
 70
     1
102
RTVSPropertyOp10
 70
     1
102
RTVSPropertyOp11
 70
     1
102
RTVSPropertyOp12
 70
     1
102
RTVSPropertyOp13
 70
     1
102
RTVSPropertyOp14
 70
     1
102
RTVSPropertyOp15
 70
     1
102
RTVSPropertyOp16
 70
     1
102
RTVSPropertyOp17
 70
     1
102
RTVSPropertyOp18
 70
     1
102
RTVSPropertyOp19
 70
     1
102
RTVSPropertyOp20
 70
     1
102
RTVSPropertyOp21
 70
     1
102
RTVSPropertyOp22
 70
     1
102
RTVSPropertyOp23
 70
     1
102
RTVSPropertyOp24
 70
     1
102
RTVSPropertyOp25
 70
     1
102
RTVSPropertyOp26
 70
     1
102
RTVSPropertyOp27
 70
     1
102
RTVSPropertyOp28
 70
     1
102
RTVSPropertyOp29
 70
     1
102
RTVSPropertyOp30
 70
     1
102
RTVSPropertyOp31
 70
     1
102
RTVSPropertyOp32
 70
     1
102
RTVSPropertyOp33
 70
     1
102
RTVSPropertyOp34
 70
     1
102
RTVSPropertyOp35
 70
     1
102
RTVSPropertyOp36
 70
     1
102
RTVSPropertyOp37
 70
     1
102
RTVSPropertyOp38
 70
     1
102
RTVSPropertyOp39
 70
     1
102
RTVSPropertyOp40
 70
     1
102
RTVSPropertyOp41
 70
     1
102
RTVSPropertyOp42
 70
     1
102
RTVSPropertyOp43
 70
     1
102
RTVSPropertyOp44
 70
     1
102
RTVSPropertyOp45
 70
     1
102
RTVSPropertyOp46
 70
     1
102
RTVSPropertyOp47
 70
     1
102
RTVSPropertyOp48
 70
     1
102
RTVSPropertyOp49
 70
     1
102
RTVSPropertyOp50
 70
     1
102
RTVSPropertyOp51
 70
     0
102
RTVSPropertyOp52
 70
     0
102
RTVSPropertyOp53
 70
     1
102
RTVSPropertyOp54
 70
     1
102
RTVSPropertyOp55
 70
     1
102
RTVSPropertyOp56
 70
     1
102
RTVSPropertyOp57
 70
     1
102
RTVSPropertyOp58
 70
     1
102
RTVSPropertyOp59
 70
     1
102
RTVSPropertyOp60
 70
     1
102
RTVSPropertyOp61
 70
     1
102
RTVSPropertyOp62
 70
     1
  0
XRECORD
  5
82E
102
{ACAD_REACTORS
330
82D
102
}
330
82D
100
AcDbXrecord
280
     1
102
RTVSPost2010Prop28
280
     0
102
RTVSPost2010PropOp28
 70
     1
102
RTVSPost2010Prop29
280
     1
102
RTVSPost2010PropOp29
 70
     1
102
RTVSPost2010Prop30
280
     1
102
RTVSPost2010PropOp30
 70
     1
102
RTVSPost2010Prop31
280
     0
102
RTVSPost2010PropOp31
 70
     1
102
RTVSPost2010Prop32
280
     0
102
RTVSPost2010PropOp32
 70
     1
102
RTVSPost2010Prop33
280
     0
102
RTVSPost2010PropOp33
 70
     1
102
RTVSPost2010Prop34
280
     0
102
RTVSPost2010PropOp34
 70
     1
102
RTVSPost2010Prop35
280
     0
102
RTVSPost2010PropOp35
 70
     1
102
RTVSPost2010Prop36
280
     0
102
RTVSPost2010PropOp36
 70
     1
102
RTVSPost2010Prop37
 90
       50
102
RTVSPost2010PropOp37
 70
     1
102
RTVSPost2010Prop38
140
0.0
102
RTVSPost2010PropOp38
 70
     1
102
RTVSPost2010Prop39
140
1.0
102
RTVSPost2010PropOp39
 70
     1
102
RTVSPost2010Prop40
 90
        0
102
RTVSPost2010PropOp40
 70
     1
102
RTVSPost2010Prop41ColorIndex
 90
       18
102
RTVSPost2010Prop41ColorRGB
 90
        0
102
RTVSPost2010PropOp41
 70
     1
102
RTVSPost2010Prop42
 90
       50
102
RTVSPost2010PropOp42
 70
     1
102
RTVSPost2010Prop43
 90
        3
102
RTVSPost2010PropOp43
 70
     1
102
RTVSPost2010Prop44ColorIndex
 90
        5
102
RTVSPost2010Prop44ColorRGB
 90
      255
102
RTVSPost2010PropOp44
 70
     1
102
RTVSPost2010Prop45
280
     0
102
RTVSPost2010PropOp45
 70
     1
102
RTVSPost2010Prop46
 90
       50
102
RTVSPost2010PropOp46
 70
     1
102
RTVSPost2010Prop47
 90
       50
102
RTVSPost2010PropOp47
 70
     1
102
RTVSPost2010Prop48
 90
       50
102
RTVSPost2010PropOp48
 70
     1
102
RTVSPost2010Prop49
280
     0
102
RTVSPost2010PropOp49
 70
     1
102
RTVSPost2010Prop50
 90
       50
102
RTVSPost2010PropOp50
 70
     1
102
RTVSPost2010Prop51ColorIndex
 90
      256
102
RTVSPost2010Prop51ColorRGB
 90
-16777216
102
RTVSPost2010PropOp51
 70
     0
102
RTVSPost2010Prop52
140
1.0
102
RTVSPost2010PropOp52
 70
     0
102
RTVSPost2010Prop53
 90
        2
102
RTVSPost2010PropOp53
 70
     1
102
RTVSPost2010Prop54
  1
strokes_ogs.tif
102
RTVSPost2010PropOp54
 70
     1
102
RTVSPost2010Prop55
280
     0
102
RTVSPost2010PropOp55
 70
     1
102
RTVSPost2010Prop56
140
1.0
102
RTVSPost2010PropOp56
 70
     1
102
RTVSPost2010Prop57
140
1.0
102
RTVSPost2010PropOp57
 70
     1
102
RTVSPropertyOp0
 70
     1
102
RTVSPropertyOp1
 70
     1
102
RTVSPropertyOp2
 70
     1
102
RTVSPropertyOp3
 70
     1
102
RTVSPropertyOp4
 70
     1
102
RTVSPropertyOp5
 70
     1
102
RTVSPropertyOp6
 70
     1
102
RTVSPropertyOp7
 70
     1
102
RTVSPropertyOp8
 70
     1
102
RTVSPropertyOp9
 70
     1
102
RTVSPropertyOp10
 70
     1
102
RTVSPropertyOp11
 70
     1
102
RTVSPropertyOp12
 70
     1
102
RTVSPropertyOp13
 70
     1
102
RTVSPropertyOp14
 70
     1
102
RTVSPropertyOp15
 70
     1
102
RTVSPropertyOp16
 70
     1
102
RTVSPropertyOp17
 70
     1
102
RTVSPropertyOp18
 70
     1
102
RTVSPropertyOp19
 70
     1
102
RTVSPropertyOp20
 70
     1
102
RTVSPropertyOp21
 70
     1
102
RTVSPropertyOp22
 70
     1
102
RTVSPropertyOp23
 70
     1
102
RTVSPropertyOp24
 70
     1
102
RTVSPropertyOp25
 70
     1
102
RTVSPropertyOp26
 70
     1
102
RTVSPropertyOp27
 70
     1
102
RTVSPropertyOp28
 70
     1
102
RTVSPropertyOp29
 70
     1
102
RTVSPropertyOp30
 70
     1
102
RTVSPropertyOp31
 70
     1
102
RTVSPropertyOp32
 70
     1
102
RTVSPropertyOp33
 70
     1
102
RTVSPropertyOp34
 70
     1
102
RTVSPropertyOp35
 70
     1
102
RTVSPropertyOp36
 70
     1
102
RTVSPropertyOp37
 70
     1
102
RTVSPropertyOp38
 70
     1
102
RTVSPropertyOp39
 70
     1
102
RTVSPropertyOp40
 70
     1
102
RTVSPropertyOp41
 70
     1
102
RTVSPropertyOp42
 70
     1
102
RTVSPropertyOp43
 70
     1
102
RTVSPropertyOp44
 70
     1
102
RTVSPropertyOp45
 70
     1
102
RTVSPropertyOp46
 70
     1
102
RTVSPropertyOp47
 70
     1
102
RTVSPropertyOp48
 70
     1
102
RTVSPropertyOp49
 70
     1
102
RTVSPropertyOp50
 70
     1
102
RTVSPropertyOp51
 70
     0
102
RTVSPropertyOp52
 70
     0
102
RTVSPropertyOp53
 70
     1
102
RTVSPropertyOp54
 70
     1
102
RTVSPropertyOp55
 70
     1
102
RTVSPropertyOp56
 70
     1
102
RTVSPropertyOp57
 70
     1
102
RTVSPropertyOp58
 70
     1
102
RTVSPropertyOp59
 70
     1
102
RTVSPropertyOp60
 70
     1
102
RTVSPropertyOp61
 70
     1
102
RTVSPropertyOp62
 70
     1
  0
XRECORD
  5
83C
102
{ACAD_REACTORS
330
83B
102
}
330
83B
100
AcDbXrecord
280
     1
102
RTVSPost2010Prop28
280
     0
102
RTVSPost2010PropOp28
 70
     1
102
RTVSPost2010Prop29
280
     1
102
RTVSPost2010PropOp29
 70
     1
102
RTVSPost2010Prop30
280
     1
102
RTVSPost2010PropOp30
 70
     1
102
RTVSPost2010Prop31
280
     0
102
RTVSPost2010PropOp31
 70
     1
102
RTVSPost2010Prop32
280
     0
102
RTVSPost2010PropOp32
 70
     1
102
RTVSPost2010Prop33
280
     0
102
RTVSPost2010PropOp33
 70
     1
102
RTVSPost2010Prop34
280
     0
102
RTVSPost2010PropOp34
 70
     1
102
RTVSPost2010Prop35
280
     0
102
RTVSPost2010PropOp35
 70
     1
102
RTVSPost2010Prop36
280
     0
102
RTVSPost2010PropOp36
 70
     1
102
RTVSPost2010Prop37
 90
       50
102
RTVSPost2010PropOp37
 70
     1
102
RTVSPost2010Prop38
140
0.0
102
RTVSPost2010PropOp38
 70
     1
102
RTVSPost2010Prop39
140
1.0
102
RTVSPost2010PropOp39
 70
     1
102
RTVSPost2010Prop40
 90
        0
102
RTVSPost2010PropOp40
 70
     1
102
RTVSPost2010Prop41ColorIndex
 90
       18
102
RTVSPost2010Prop41ColorRGB
 90
        0
102
RTVSPost2010PropOp41
 70
     1
102
RTVSPost2010Prop42
 90
       50
102
RTVSPost2010PropOp42
 70
     1
102
RTVSPost2010Prop43
 90
        3
102
RTVSPost2010PropOp43
 70
     1
102
RTVSPost2010Prop44ColorIndex
 90
        5
102
RTVSPost2010Prop44ColorRGB
 90
      255
102
RTVSPost2010PropOp44
 70
     1
102
RTVSPost2010Prop45
280
     0
102
RTVSPost2010PropOp45
 70
     1
102
RTVSPost2010Prop46
 90
       50
102
RTVSPost2010PropOp46
 70
     1
102
RTVSPost2010Prop47
 90
       50
102
RTVSPost2010PropOp47
 70
     1
102
RTVSPost2010Prop48
 90
       50
102
RTVSPost2010PropOp48
 70
     1
102
RTVSPost2010Prop49
280
     0
102
RTVSPost2010PropOp49
 70
     1
102
RTVSPost2010Prop50
 90
       50
102
RTVSPost2010PropOp50
 70
     1
102
RTVSPost2010Prop51ColorIndex
 90
      256
102
RTVSPost2010Prop51ColorRGB
 90
-16777216
102
RTVSPost2010PropOp51
 70
     0
102
RTVSPost2010Prop52
140
1.0
102
RTVSPost2010PropOp52
 70
     0
102
RTVSPost2010Prop53
 90
        2
102
RTVSPost2010PropOp53
 70
     1
102
RTVSPost2010Prop54
  1
strokes_ogs.tif
102
RTVSPost2010PropOp54
 70
     1
102
RTVSPost2010Prop55
280
     0
102
RTVSPost2010PropOp55
 70
     1
102
RTVSPost2010Prop56
140
1.0
102
RTVSPost2010PropOp56
 70
     1
102
RTVSPost2010Prop57
140
1.0
102
RTVSPost2010PropOp57
 70
     1
102
RTVSPropertyOp0
 70
     1
102
RTVSPropertyOp1
 70
     1
102
RTVSPropertyOp2
 70
     1
102
RTVSPropertyOp3
 70
     1
102
RTVSPropertyOp4
 70
     1
102
RTVSPropertyOp5
 70
     1
102
RTVSPropertyOp6
 70
     1
102
RTVSPropertyOp7
 70
     1
102
RTVSPropertyOp8
 70
     1
102
RTVSPropertyOp9
 70
     1
102
RTVSPropertyOp10
 70
     1
102
RTVSPropertyOp11
 70
     1
102
RTVSPropertyOp12
 70
     1
102
RTVSPropertyOp13
 70
     1
102
RTVSPropertyOp14
 70
     1
102
RTVSPropertyOp15
 70
     1
102
RTVSPropertyOp16
 70
     1
102
RTVSPropertyOp17
 70
     1
102
RTVSPropertyOp18
 70
     1
102
RTVSPropertyOp19
 70
     1
102
RTVSPropertyOp20
 70
     1
102
RTVSPropertyOp21
 70
     1
102
RTVSPropertyOp22
 70
     1
102
RTVSPropertyOp23
 70
     1
102
RTVSPropertyOp24
 70
     1
102
RTVSPropertyOp25
 70
     1
102
RTVSPropertyOp26
 70
     1
102
RTVSPropertyOp27
 70
     1
102
RTVSPropertyOp28
 70
     1
102
RTVSPropertyOp29
 70
     1
102
RTVSPropertyOp30
 70
     1
102
RTVSPropertyOp31
 70
     1
102
RTVSPropertyOp32
 70
     1
102
RTVSPropertyOp33
 70
     1
102
RTVSPropertyOp34
 70
     1
102
RTVSPropertyOp35
 70
     1
102
RTVSPropertyOp36
 70
     1
102
RTVSPropertyOp37
 70
     1
102
RTVSPropertyOp38
 70
     1
102
RTVSPropertyOp39
 70
     1
102
RTVSPropertyOp40
 70
     1
102
RTVSPropertyOp41
 70
     1
102
RTVSPropertyOp42
 70
     1
102
RTVSPropertyOp43
 70
     1
102
RTVSPropertyOp44
 70
     1
102
RTVSPropertyOp45
 70
     1
102
RTVSPropertyOp46
 70
     1
102
RTVSPropertyOp47
 70
     1
102
RTVSPropertyOp48
 70
     1
102
RTVSPropertyOp49
 70
     1
102
RTVSPropertyOp50
 70
     1
102
RTVSPropertyOp51
 70
     0
102
RTVSPropertyOp52
 70
     0
102
RTVSPropertyOp53
 70
     1
102
RTVSPropertyOp54
 70
     1
102
RTVSPropertyOp55
 70
     1
102
RTVSPropertyOp56
 70
     1
102
RTVSPropertyOp57
 70
     1
102
RTVSPropertyOp58
 70
     1
102
RTVSPropertyOp59
 70
     1
102
RTVSPropertyOp60
 70
     1
102
RTVSPropertyOp61
 70
     1
102
RTVSPropertyOp62
 70
     1
  0
XRECORD
  5
844
102
{ACAD_REACTORS
330
843
102
}
330
843
100
AcDbXrecord
280
     1
102
RTVSPost2010Prop28
280
     0
102
RTVSPost2010PropOp28
 70
     1
102
RTVSPost2010Prop29
280
     1
102
RTVSPost2010PropOp29
 70
     1
102
RTVSPost2010Prop30
280
     1
102
RTVSPost2010PropOp30
 70
     1
102
RTVSPost2010Prop31
280
     0
102
RTVSPost2010PropOp31
 70
     1
102
RTVSPost2010Prop32
280
     0
102
RTVSPost2010PropOp32
 70
     1
102
RTVSPost2010Prop33
280
     0
102
RTVSPost2010PropOp33
 70
     1
102
RTVSPost2010Prop34
280
     0
102
RTVSPost2010PropOp34
 70
     1
102
RTVSPost2010Prop35
280
     0
102
RTVSPost2010PropOp35
 70
     1
102
RTVSPost2010Prop36
280
     0
102
RTVSPost2010PropOp36
 70
     1
102
RTVSPost2010Prop37
 90
       50
102
RTVSPost2010PropOp37
 70
     1
102
RTVSPost2010Prop38
140
0.0
102
RTVSPost2010PropOp38
 70
     1
102
RTVSPost2010Prop39
140
1.0
102
RTVSPost2010PropOp39
 70
     1
102
RTVSPost2010Prop40
 90
        0
102
RTVSPost2010PropOp40
 70
     1
102
RTVSPost2010Prop41ColorIndex
 90
       18
102
RTVSPost2010Prop41ColorRGB
 90
        0
102
RTVSPost2010PropOp41
 70
     1
102
RTVSPost2010Prop42
 90
       50
102
RTVSPost2010PropOp42
 70
     1
102
RTVSPost2010Prop43
 90
        3
102
RTVSPost2010PropOp43
 70
     1
102
RTVSPost2010Prop44ColorIndex
 90
        5
102
RTVSPost2010Prop44ColorRGB
 90
      255
102
RTVSPost2010PropOp44
 70
     1
102
RTVSPost2010Prop45
280
     0
102
RTVSPost2010PropOp45
 70
     1
102
RTVSPost2010Prop46
 90
       50
102
RTVSPost2010PropOp46
 70
     1
102
RTVSPost2010Prop47
 90
       50
102
RTVSPost2010PropOp47
 70
     1
102
RTVSPost2010Prop48
 90
       50
102
RTVSPost2010PropOp48
 70
     1
102
RTVSPost2010Prop49
280
     0
102
RTVSPost2010PropOp49
 70
     1
102
RTVSPost2010Prop50
 90
       50
102
RTVSPost2010PropOp50
 70
     1
102
RTVSPost2010Prop51ColorIndex
 90
      256
102
RTVSPost2010Prop51ColorRGB
 90
-16777216
102
RTVSPost2010PropOp51
 70
     0
102
RTVSPost2010Prop52
140
1.0
102
RTVSPost2010PropOp52
 70
     0
102
RTVSPost2010Prop53
 90
        2
102
RTVSPost2010PropOp53
 70
     1
102
RTVSPost2010Prop54
  1
strokes_ogs.tif
102
RTVSPost2010PropOp54
 70
     1
102
RTVSPost2010Prop55
280
     0
102
RTVSPost2010PropOp55
 70
     1
102
RTVSPost2010Prop56
140
1.0
102
RTVSPost2010PropOp56
 70
     1
102
RTVSPost2010Prop57
140
1.0
102
RTVSPost2010PropOp57
 70
     1
102
RTVSPropertyOp0
 70
     1
102
RTVSPropertyOp1
 70
     1
102
RTVSPropertyOp2
 70
     1
102
RTVSPropertyOp3
 70
     1
102
RTVSPropertyOp4
 70
     1
102
RTVSPropertyOp5
 70
     1
102
RTVSPropertyOp6
 70
     1
102
RTVSPropertyOp7
 70
     1
102
RTVSPropertyOp8
 70
     1
102
RTVSPropertyOp9
 70
     1
102
RTVSPropertyOp10
 70
     1
102
RTVSPropertyOp11
 70
     1
102
RTVSPropertyOp12
 70
     1
102
RTVSPropertyOp13
 70
     1
102
RTVSPropertyOp14
 70
     1
102
RTVSPropertyOp15
 70
     1
102
RTVSPropertyOp16
 70
     1
102
RTVSPropertyOp17
 70
     1
102
RTVSPropertyOp18
 70
     1
102
RTVSPropertyOp19
 70
     1
102
RTVSPropertyOp20
 70
     1
102
RTVSPropertyOp21
 70
     1
102
RTVSPropertyOp22
 70
     1
102
RTVSPropertyOp23
 70
     1
102
RTVSPropertyOp24
 70
     1
102
RTVSPropertyOp25
 70
     1
102
RTVSPropertyOp26
 70
     1
102
RTVSPropertyOp27
 70
     1
102
RTVSPropertyOp28
 70
     1
102
RTVSPropertyOp29
 70
     1
102
RTVSPropertyOp30
 70
     1
102
RTVSPropertyOp31
 70
     1
102
RTVSPropertyOp32
 70
     1
102
RTVSPropertyOp33
 70
     1
102
RTVSPropertyOp34
 70
     1
102
RTVSPropertyOp35
 70
     1
102
RTVSPropertyOp36
 70
     1
102
RTVSPropertyOp37
 70
     1
102
RTVSPropertyOp38
 70
     1
102
RTVSPropertyOp39
 70
     1
102
RTVSPropertyOp40
 70
     1
102
RTVSPropertyOp41
 70
     1
102
RTVSPropertyOp42
 70
     1
102
RTVSPropertyOp43
 70
     1
102
RTVSPropertyOp44
 70
     1
102
RTVSPropertyOp45
 70
     1
102
RTVSPropertyOp46
 70
     1
102
RTVSPropertyOp47
 70
     1
102
RTVSPropertyOp48
 70
     1
102
RTVSPropertyOp49
 70
     1
102
RTVSPropertyOp50
 70
     1
102
RTVSPropertyOp51
 70
     0
102
RTVSPropertyOp52
 70
     0
102
RTVSPropertyOp53
 70
     1
102
RTVSPropertyOp54
 70
     1
102
RTVSPropertyOp55
 70
     1
102
RTVSPropertyOp56
 70
     1
102
RTVSPropertyOp57
 70
     1
102
RTVSPropertyOp58
 70
     1
102
RTVSPropertyOp59
 70
     1
102
RTVSPropertyOp60
 70
     1
102
RTVSPropertyOp61
 70
     1
102
RTVSPropertyOp62
 70
     1
  0
XRECORD
  5
836
102
{ACAD_REACTORS
330
835
102
}
330
835
100
AcDbXrecord
280
     1
102
RTVSPost2010Prop28
280
     0
102
RTVSPost2010PropOp28
 70
     1
102
RTVSPost2010Prop29
280
     1
102
RTVSPost2010PropOp29
 70
     1
102
RTVSPost2010Prop30
280
     1
102
RTVSPost2010PropOp30
 70
     1
102
RTVSPost2010Prop31
280
     0
102
RTVSPost2010PropOp31
 70
     1
102
RTVSPost2010Prop32
280
     0
102
RTVSPost2010PropOp32
 70
     1
102
RTVSPost2010Prop33
280
     0
102
RTVSPost2010PropOp33
 70
     1
102
RTVSPost2010Prop34
280
     0
102
RTVSPost2010PropOp34
 70
     1
102
RTVSPost2010Prop35
280
     0
102
RTVSPost2010PropOp35
 70
     1
102
RTVSPost2010Prop36
280
     0
102
RTVSPost2010PropOp36
 70
     1
102
RTVSPost2010Prop37
 90
       50
102
RTVSPost2010PropOp37
 70
     1
102
RTVSPost2010Prop38
140
0.0
102
RTVSPost2010PropOp38
 70
     1
102
RTVSPost2010Prop39
140
1.0
102
RTVSPost2010PropOp39
 70
     1
102
RTVSPost2010Prop40
 90
        0
102
RTVSPost2010PropOp40
 70
     1
102
RTVSPost2010Prop41ColorIndex
 90
       18
102
RTVSPost2010Prop41ColorRGB
 90
        0
102
RTVSPost2010PropOp41
 70
     1
102
RTVSPost2010Prop42
 90
       50
102
RTVSPost2010PropOp42
 70
     1
102
RTVSPost2010Prop43
 90
        3
102
RTVSPost2010PropOp43
 70
     1
102
RTVSPost2010Prop44ColorIndex
 90
        5
102
RTVSPost2010Prop44ColorRGB
 90
      255
102
RTVSPost2010PropOp44
 70
     1
102
RTVSPost2010Prop45
280
     0
102
RTVSPost2010PropOp45
 70
     1
102
RTVSPost2010Prop46
 90
       50
102
RTVSPost2010PropOp46
 70
     1
102
RTVSPost2010Prop47
 90
       50
102
RTVSPost2010PropOp47
 70
     1
102
RTVSPost2010Prop48
 90
       50
102
RTVSPost2010PropOp48
 70
     1
102
RTVSPost2010Prop49
280
     0
102
RTVSPost2010PropOp49
 70
     1
102
RTVSPost2010Prop50
 90
       50
102
RTVSPost2010PropOp50
 70
     1
102
RTVSPost2010Prop51ColorIndex
 90
      256
102
RTVSPost2010Prop51ColorRGB
 90
-16777216
102
RTVSPost2010PropOp51
 70
     0
102
RTVSPost2010Prop52
140
1.0
102
RTVSPost2010PropOp52
 70
     0
102
RTVSPost2010Prop53
 90
        2
102
RTVSPost2010PropOp53
 70
     1
102
RTVSPost2010Prop54
  1
strokes_ogs.tif
102
RTVSPost2010PropOp54
 70
     1
102
RTVSPost2010Prop55
280
     0
102
RTVSPost2010PropOp55
 70
     1
102
RTVSPost2010Prop56
140
1.0
102
RTVSPost2010PropOp56
 70
     1
102
RTVSPost2010Prop57
140
1.0
102
RTVSPost2010PropOp57
 70
     1
102
RTVSPropertyOp0
 70
     1
102
RTVSPropertyOp1
 70
     1
102
RTVSPropertyOp2
 70
     1
102
RTVSPropertyOp3
 70
     1
102
RTVSPropertyOp4
 70
     1
102
RTVSPropertyOp5
 70
     1
102
RTVSPropertyOp6
 70
     1
102
RTVSPropertyOp7
 70
     1
102
RTVSPropertyOp8
 70
     1
102
RTVSPropertyOp9
 70
     1
102
RTVSPropertyOp10
 70
     1
102
RTVSPropertyOp11
 70
     1
102
RTVSPropertyOp12
 70
     1
102
RTVSPropertyOp13
 70
     1
102
RTVSPropertyOp14
 70
     1
102
RTVSPropertyOp15
 70
     1
102
RTVSPropertyOp16
 70
     1
102
RTVSPropertyOp17
 70
     1
102
RTVSPropertyOp18
 70
     1
102
RTVSPropertyOp19
 70
     1
102
RTVSPropertyOp20
 70
     1
102
RTVSPropertyOp21
 70
     1
102
RTVSPropertyOp22
 70
     1
102
RTVSPropertyOp23
 70
     1
102
RTVSPropertyOp24
 70
     1
102
RTVSPropertyOp25
 70
     1
102
RTVSPropertyOp26
 70
     1
102
RTVSPropertyOp27
 70
     1
102
RTVSPropertyOp28
 70
     1
102
RTVSPropertyOp29
 70
     1
102
RTVSPropertyOp30
 70
     1
102
RTVSPropertyOp31
 70
     1
102
RTVSPropertyOp32
 70
     1
102
RTVSPropertyOp33
 70
     1
102
RTVSPropertyOp34
 70
     1
102
RTVSPropertyOp35
 70
     1
102
RTVSPropertyOp36
 70
     1
102
RTVSPropertyOp37
 70
     1
102
RTVSPropertyOp38
 70
     1
102
RTVSPropertyOp39
 70
     1
102
RTVSPropertyOp40
 70
     1
102
RTVSPropertyOp41
 70
     1
102
RTVSPropertyOp42
 70
     1
102
RTVSPropertyOp43
 70
     1
102
RTVSPropertyOp44
 70
     1
102
RTVSPropertyOp45
 70
     1
102
RTVSPropertyOp46
 70
     1
102
RTVSPropertyOp47
 70
     1
102
RTVSPropertyOp48
 70
     1
102
RTVSPropertyOp49
 70
     1
102
RTVSPropertyOp50
 70
     1
102
RTVSPropertyOp51
 70
     0
102
RTVSPropertyOp52
 70
     0
102
RTVSPropertyOp53
 70
     1
102
RTVSPropertyOp54
 70
     1
102
RTVSPropertyOp55
 70
     1
102
RTVSPropertyOp56
 70
     1
102
RTVSPropertyOp57
 70
     1
102
RTVSPropertyOp58
 70
     1
102
RTVSPropertyOp59
 70
     1
102
RTVSPropertyOp60
 70
     1
102
RTVSPropertyOp61
 70
     1
102
RTVSPropertyOp62
 70
     1
  0
XRECORD
  5
83A
102
{ACAD_REACTORS
330
839
102
}
330
839
100
AcDbXrecord
280
     1
102
RTVSPost2010Prop28
280
     0
102
RTVSPost2010PropOp28
 70
     1
102
RTVSPost2010Prop29
280
     1
102
RTVSPost2010PropOp29
 70
     1
102
RTVSPost2010Prop30
280
     1
102
RTVSPost2010PropOp30
 70
     1
102
RTVSPost2010Prop31
280
     0
102
RTVSPost2010PropOp31
 70
     1
102
RTVSPost2010Prop32
280
     0
102
RTVSPost2010PropOp32
 70
     1
102
RTVSPost2010Prop33
280
     0
102
RTVSPost2010PropOp33
 70
     1
102
RTVSPost2010Prop34
280
     0
102
RTVSPost2010PropOp34
 70
     1
102
RTVSPost2010Prop35
280
     0
102
RTVSPost2010PropOp35
 70
     1
102
RTVSPost2010Prop36
280
     0
102
RTVSPost2010PropOp36
 70
     1
102
RTVSPost2010Prop37
 90
       50
102
RTVSPost2010PropOp37
 70
     1
102
RTVSPost2010Prop38
140
0.0
102
RTVSPost2010PropOp38
 70
     1
102
RTVSPost2010Prop39
140
1.0
102
RTVSPost2010PropOp39
 70
     1
102
RTVSPost2010Prop40
 90
        0
102
RTVSPost2010PropOp40
 70
     1
102
RTVSPost2010Prop41ColorIndex
 90
       18
102
RTVSPost2010Prop41ColorRGB
 90
        0
102
RTVSPost2010PropOp41
 70
     1
102
RTVSPost2010Prop42
 90
       50
102
RTVSPost2010PropOp42
 70
     1
102
RTVSPost2010Prop43
 90
        3
102
RTVSPost2010PropOp43
 70
     1
102
RTVSPost2010Prop44ColorIndex
 90
        5
102
RTVSPost2010Prop44ColorRGB
 90
      255
102
RTVSPost2010PropOp44
 70
     1
102
RTVSPost2010Prop45
280
     0
102
RTVSPost2010PropOp45
 70
     1
102
RTVSPost2010Prop46
 90
       50
102
RTVSPost2010PropOp46
 70
     1
102
RTVSPost2010Prop47
 90
       50
102
RTVSPost2010PropOp47
 70
     1
102
RTVSPost2010Prop48
 90
       50
102
RTVSPost2010PropOp48
 70
     1
102
RTVSPost2010Prop49
280
     0
102
RTVSPost2010PropOp49
 70
     1
102
RTVSPost2010Prop50
 90
       50
102
RTVSPost2010PropOp50
 70
     1
102
RTVSPost2010Prop51ColorIndex
 90
      256
102
RTVSPost2010Prop51ColorRGB
 90
-16777216
102
RTVSPost2010PropOp51
 70
     0
102
RTVSPost2010Prop52
140
1.0
102
RTVSPost2010PropOp52
 70
     0
102
RTVSPost2010Prop53
 90
        2
102
RTVSPost2010PropOp53
 70
     1
102
RTVSPost2010Prop54
  1
strokes_ogs.tif
102
RTVSPost2010PropOp54
 70
     1
102
RTVSPost2010Prop55
280
     0
102
RTVSPost2010PropOp55
 70
     1
102
RTVSPost2010Prop56
140
1.0
102
RTVSPost2010PropOp56
 70
     1
102
RTVSPost2010Prop57
140
1.0
102
RTVSPost2010PropOp57
 70
     1
102
RTVSPropertyOp0
 70
     1
102
RTVSPropertyOp1
 70
     1
102
RTVSPropertyOp2
 70
     1
102
RTVSPropertyOp3
 70
     1
102
RTVSPropertyOp4
 70
     1
102
RTVSPropertyOp5
 70
     1
102
RTVSPropertyOp6
 70
     1
102
RTVSPropertyOp7
 70
     1
102
RTVSPropertyOp8
 70
     1
102
RTVSPropertyOp9
 70
     1
102
RTVSPropertyOp10
 70
     1
102
RTVSPropertyOp11
 70
     1
102
RTVSPropertyOp12
 70
     1
102
RTVSPropertyOp13
 70
     1
102
RTVSPropertyOp14
 70
     1
102
RTVSPropertyOp15
 70
     1
102
RTVSPropertyOp16
 70
     1
102
RTVSPropertyOp17
 70
     1
102
RTVSPropertyOp18
 70
     1
102
RTVSPropertyOp19
 70
     1
102
RTVSPropertyOp20
 70
     1
102
RTVSPropertyOp21
 70
     1
102
RTVSPropertyOp22
 70
     1
102
RTVSPropertyOp23
 70
     1
102
RTVSPropertyOp24
 70
     1
102
RTVSPropertyOp25
 70
     1
102
RTVSPropertyOp26
 70
     1
102
RTVSPropertyOp27
 70
     1
102
RTVSPropertyOp28
 70
     1
102
RTVSPropertyOp29
 70
     1
102
RTVSPropertyOp30
 70
     1
102
RTVSPropertyOp31
 70
     1
102
RTVSPropertyOp32
 70
     1
102
RTVSPropertyOp33
 70
     1
102
RTVSPropertyOp34
 70
     1
102
RTVSPropertyOp35
 70
     1
102
RTVSPropertyOp36
 70
     1
102
RTVSPropertyOp37
 70
     1
102
RTVSPropertyOp38
 70
     1
102
RTVSPropertyOp39
 70
     1
102
RTVSPropertyOp40
 70
     1
102
RTVSPropertyOp41
 70
     1
102
RTVSPropertyOp42
 70
     1
102
RTVSPropertyOp43
 70
     1
102
RTVSPropertyOp44
 70
     1
102
RTVSPropertyOp45
 70
     1
102
RTVSPropertyOp46
 70
     1
102
RTVSPropertyOp47
 70
     1
102
RTVSPropertyOp48
 70
     1
102
RTVSPropertyOp49
 70
     1
102
RTVSPropertyOp50
 70
     1
102
RTVSPropertyOp51
 70
     0
102
RTVSPropertyOp52
 70
     0
102
RTVSPropertyOp53
 70
     1
102
RTVSPropertyOp54
 70
     1
102
RTVSPropertyOp55
 70
     1
102
RTVSPropertyOp56
 70
     1
102
RTVSPropertyOp57
 70
     1
102
RTVSPropertyOp58
 70
     1
102
RTVSPropertyOp59
 70
     1
102
RTVSPropertyOp60
 70
     1
102
RTVSPropertyOp61
 70
     1
102
RTVSPropertyOp62
 70
     1
  0
XRECORD
  5
854
102
{ACAD_REACTORS
330
853
102
}
330
853
100
AcDbXrecord
280
     1
102
RTVSPost2010Prop28
280
     0
102
RTVSPost2010PropOp28
 70
     1
102
RTVSPost2010Prop29
280
     1
102
RTVSPost2010PropOp29
 70
     1
102
RTVSPost2010Prop30
280
     1
102
RTVSPost2010PropOp30
 70
     1
102
RTVSPost2010Prop31
280
     0
102
RTVSPost2010PropOp31
 70
     1
102
RTVSPost2010Prop32
280
     0
102
RTVSPost2010PropOp32
 70
     1
102
RTVSPost2010Prop33
280
     0
102
RTVSPost2010PropOp33
 70
     1
102
RTVSPost2010Prop34
280
     0
102
RTVSPost2010PropOp34
 70
     1
102
RTVSPost2010Prop35
280
     0
102
RTVSPost2010PropOp35
 70
     1
102
RTVSPost2010Prop36
280
     0
102
RTVSPost2010PropOp36
 70
     1
102
RTVSPost2010Prop37
 90
       50
102
RTVSPost2010PropOp37
 70
     0
102
RTVSPost2010Prop38
140
0.0
102
RTVSPost2010PropOp38
 70
     0
102
RTVSPost2010Prop39
140
1.0
102
RTVSPost2010PropOp39
 70
     0
102
RTVSPost2010Prop40
 90
        0
102
RTVSPost2010PropOp40
 70
     0
102
RTVSPost2010Prop41ColorIndex
 90
       18
102
RTVSPost2010Prop41ColorRGB
 90
        0
102
RTVSPost2010PropOp41
 70
     0
102
RTVSPost2010Prop42
 90
       50
102
RTVSPost2010PropOp42
 70
     0
102
RTVSPost2010Prop43
 90
        3
102
RTVSPost2010PropOp43
 70
     0
102
RTVSPost2010Prop44ColorIndex
 90
        5
102
RTVSPost2010Prop44ColorRGB
 90
      255
102
RTVSPost2010PropOp44
 70
     0
102
RTVSPost2010Prop45
280
     0
102
RTVSPost2010PropOp45
 70
     1
102
RTVSPost2010Prop46
 90
       50
102
RTVSPost2010PropOp46
 70
     0
102
RTVSPost2010Prop47
 90
       50
102
RTVSPost2010PropOp47
 70
     0
102
RTVSPost2010Prop48
 90
       50
102
RTVSPost2010PropOp48
 70
     0
102
RTVSPost2010Prop49
280
     0
102
RTVSPost2010PropOp49
 70
     1
102
RTVSPost2010Prop50
 90
       50
102
RTVSPost2010PropOp50
 70
     0
102
RTVSPost2010Prop51ColorIndex
 90
      256
102
RTVSPost2010Prop51ColorRGB
 90
-16777216
102
RTVSPost2010PropOp51
 70
     0
102
RTVSPost2010Prop52
140
1.0
102
RTVSPost2010PropOp52
 70
     0
102
RTVSPost2010Prop53
 90
        2
102
RTVSPost2010PropOp53
 70
     0
102
RTVSPost2010Prop54
  1
strokes_ogs.tif
102
RTVSPost2010PropOp54
 70
     0
102
RTVSPost2010Prop55
280
     0
102
RTVSPost2010PropOp55
 70
     1
102
RTVSPost2010Prop56
140
1.0
102
RTVSPost2010PropOp56
 70
     0
102
RTVSPost2010Prop57
140
1.0
102
RTVSPost2010PropOp57
 70
     0
102
RTVSPropertyOp0
 70
     0
102
RTVSPropertyOp1
 70
     0
102
RTVSPropertyOp2
 70
     0
102
RTVSPropertyOp3
 70
     0
102
RTVSPropertyOp4
 70
     0
102
RTVSPropertyOp5
 70
     0
102
RTVSPropertyOp6
 70
     0
102
RTVSPropertyOp7
 70
     0
102
RTVSPropertyOp8
 70
     0
102
RTVSPropertyOp9
 70
     0
102
RTVSPropertyOp10
 70
     0
102
RTVSPropertyOp11
 70
     0
102
RTVSPropertyOp12
 70
     0
102
RTVSPropertyOp13
 70
     0
102
RTVSPropertyOp14
 70
     2
102
RTVSPropertyOp15
 70
     0
102
RTVSPropertyOp16
 70
     0
102
RTVSPropertyOp17
 70
     0
102
RTVSPropertyOp18
 70
     0
102
RTVSPropertyOp19
 70
     0
102
RTVSPropertyOp20
 70
     0
102
RTVSPropertyOp21
 70
     0
102
RTVSPropertyOp22
 70
     0
102
RTVSPropertyOp23
 70
     0
102
RTVSPropertyOp24
 70
     0
102
RTVSPropertyOp25
 70
     0
102
RTVSPropertyOp26
 70
     0
102
RTVSPropertyOp27
 70
     0
102
RTVSPropertyOp28
 70
     1
102
RTVSPropertyOp29
 70
     1
102
RTVSPropertyOp30
 70
     1
102
RTVSPropertyOp31
 70
     1
102
RTVSPropertyOp32
 70
     1
102
RTVSPropertyOp33
 70
     1
102
RTVSPropertyOp34
 70
     1
102
RTVSPropertyOp35
 70
     1
102
RTVSPropertyOp36
 70
     1
102
RTVSPropertyOp37
 70
     0
102
RTVSPropertyOp38
 70
     0
102
RTVSPropertyOp39
 70
     0
102
RTVSPropertyOp40
 70
     0
102
RTVSPropertyOp41
 70
     0
102
RTVSPropertyOp42
 70
     0
102
RTVSPropertyOp43
 70
     0
102
RTVSPropertyOp44
 70
     0
102
RTVSPropertyOp45
 70
     1
102
RTVSPropertyOp46
 70
     0
102
RTVSPropertyOp47
 70
     0
102
RTVSPropertyOp48
 70
     0
102
RTVSPropertyOp49
 70
     1
102
RTVSPropertyOp50
 70
     0
102
RTVSPropertyOp51
 70
     0
102
RTVSPropertyOp52
 70
     0
102
RTVSPropertyOp53
 70
     0
102
RTVSPropertyOp54
 70
     0
102
RTVSPropertyOp55
 70
     1
102
RTVSPropertyOp56
 70
     0
102
RTVSPropertyOp57
 70
     0
102
RTVSPropertyOp58
 70
     0
102
RTVSPropertyOp59
 70
     0
102
RTVSPropertyOp60
 70
     0
102
RTVSPropertyOp61
 70
     0
102
RTVSPropertyOp62
 70
     0
  0
XRECORD
  5
842
102
{ACAD_REACTORS
330
841
102
}
330
841
100
AcDbXrecord
280
     1
102
RTVSPost2010Prop28
280
     0
102
RTVSPost2010PropOp28
 70
     1
102
RTVSPost2010Prop29
280
     1
102
RTVSPost2010PropOp29
 70
     1
102
RTVSPost2010Prop30
280
     1
102
RTVSPost2010PropOp30
 70
     1
102
RTVSPost2010Prop31
280
     0
102
RTVSPost2010PropOp31
 70
     1
102
RTVSPost2010Prop32
280
     0
102
RTVSPost2010PropOp32
 70
     1
102
RTVSPost2010Prop33
280
     0
102
RTVSPost2010PropOp33
 70
     1
102
RTVSPost2010Prop34
280
     0
102
RTVSPost2010PropOp34
 70
     1
102
RTVSPost2010Prop35
280
     0
102
RTVSPost2010PropOp35
 70
     1
102
RTVSPost2010Prop36
280
     0
102
RTVSPost2010PropOp36
 70
     1
102
RTVSPost2010Prop37
 90
       50
102
RTVSPost2010PropOp37
 70
     1
102
RTVSPost2010Prop38
140
0.0
102
RTVSPost2010PropOp38
 70
     1
102
RTVSPost2010Prop39
140
1.0
102
RTVSPost2010PropOp39
 70
     1
102
RTVSPost2010Prop40
 90
        0
102
RTVSPost2010PropOp40
 70
     1
102
RTVSPost2010Prop41ColorIndex
 90
       18
102
RTVSPost2010Prop41ColorRGB
 90
        0
102
RTVSPost2010PropOp41
 70
     1
102
RTVSPost2010Prop42
 90
       50
102
RTVSPost2010PropOp42
 70
     1
102
RTVSPost2010Prop43
 90
        3
102
RTVSPost2010PropOp43
 70
     1
102
RTVSPost2010Prop44ColorIndex
 90
        5
102
RTVSPost2010Prop44ColorRGB
 90
      255
102
RTVSPost2010PropOp44
 70
     1
102
RTVSPost2010Prop45
280
     0
102
RTVSPost2010PropOp45
 70
     1
102
RTVSPost2010Prop46
 90
       50
102
RTVSPost2010PropOp46
 70
     1
102
RTVSPost2010Prop47
 90
       50
102
RTVSPost2010PropOp47
 70
     1
102
RTVSPost2010Prop48
 90
       50
102
RTVSPost2010PropOp48
 70
     1
102
RTVSPost2010Prop49
280
     0
102
RTVSPost2010PropOp49
 70
     1
102
RTVSPost2010Prop50
 90
       50
102
RTVSPost2010PropOp50
 70
     1
102
RTVSPost2010Prop51ColorIndex
 90
      256
102
RTVSPost2010Prop51ColorRGB
 90
-16777216
102
RTVSPost2010PropOp51
 70
     0
102
RTVSPost2010Prop52
140
1.0
102
RTVSPost2010PropOp52
 70
     0
102
RTVSPost2010Prop53
 90
        2
102
RTVSPost2010PropOp53
 70
     1
102
RTVSPost2010Prop54
  1
strokes_ogs.tif
102
RTVSPost2010PropOp54
 70
     1
102
RTVSPost2010Prop55
280
     0
102
RTVSPost2010PropOp55
 70
     1
102
RTVSPost2010Prop56
140
1.0
102
RTVSPost2010PropOp56
 70
     1
102
RTVSPost2010Prop57
140
1.0
102
RTVSPost2010PropOp57
 70
     1
102
RTVSPropertyOp0
 70
     1
102
RTVSPropertyOp1
 70
     1
102
RTVSPropertyOp2
 70
     1
102
RTVSPropertyOp3
 70
     1
102
RTVSPropertyOp4
 70
     1
102
RTVSPropertyOp5
 70
     1
102
RTVSPropertyOp6
 70
     1
102
RTVSPropertyOp7
 70
     1
102
RTVSPropertyOp8
 70
     1
102
RTVSPropertyOp9
 70
     1
102
RTVSPropertyOp10
 70
     1
102
RTVSPropertyOp11
 70
     1
102
RTVSPropertyOp12
 70
     1
102
RTVSPropertyOp13
 70
     1
102
RTVSPropertyOp14
 70
     1
102
RTVSPropertyOp15
 70
     1
102
RTVSPropertyOp16
 70
     1
102
RTVSPropertyOp17
 70
     1
102
RTVSPropertyOp18
 70
     1
102
RTVSPropertyOp19
 70
     1
102
RTVSPropertyOp20
 70
     1
102
RTVSPropertyOp21
 70
     1
102
RTVSPropertyOp22
 70
     1
102
RTVSPropertyOp23
 70
     1
102
RTVSPropertyOp24
 70
     1
102
RTVSPropertyOp25
 70
     1
102
RTVSPropertyOp26
 70
     1
102
RTVSPropertyOp27
 70
     1
102
RTVSPropertyOp28
 70
     1
102
RTVSPropertyOp29
 70
     1
102
RTVSPropertyOp30
 70
     1
102
RTVSPropertyOp31
 70
     1
102
RTVSPropertyOp32
 70
     1
102
RTVSPropertyOp33
 70
     1
102
RTVSPropertyOp34
 70
     1
102
RTVSPropertyOp35
 70
     1
102
RTVSPropertyOp36
 70
     1
102
RTVSPropertyOp37
 70
     1
102
RTVSPropertyOp38
 70
     1
102
RTVSPropertyOp39
 70
     1
102
RTVSPropertyOp40
 70
     1
102
RTVSPropertyOp41
 70
     1
102
RTVSPropertyOp42
 70
     1
102
RTVSPropertyOp43
 70
     1
102
RTVSPropertyOp44
 70
     1
102
RTVSPropertyOp45
 70
     1
102
RTVSPropertyOp46
 70
     1
102
RTVSPropertyOp47
 70
     1
102
RTVSPropertyOp48
 70
     1
102
RTVSPropertyOp49
 70
     1
102
RTVSPropertyOp50
 70
     1
102
RTVSPropertyOp51
 70
     0
102
RTVSPropertyOp52
 70
     0
102
RTVSPropertyOp53
 70
     1
102
RTVSPropertyOp54
 70
     1
102
RTVSPropertyOp55
 70
     1
102
RTVSPropertyOp56
 70
     1
102
RTVSPropertyOp57
 70
     1
102
RTVSPropertyOp58
 70
     1
102
RTVSPropertyOp59
 70
     1
102
RTVSPropertyOp60
 70
     1
102
RTVSPropertyOp61
 70
     1
102
RTVSPropertyOp62
 70
     1
  0
XRECORD
  5
826
102
{ACAD_REACTORS
330
825
102
}
330
825
100
AcDbXrecord
280
     1
102
RTVSPost2010Prop28
280
     0
102
RTVSPost2010PropOp28
 70
     1
102
RTVSPost2010Prop29
280
     1
102
RTVSPost2010PropOp29
 70
     1
102
RTVSPost2010Prop30
280
     1
102
RTVSPost2010PropOp30
 70
     1
102
RTVSPost2010Prop31
280
     0
102
RTVSPost2010PropOp31
 70
     1
102
RTVSPost2010Prop32
280
     0
102
RTVSPost2010PropOp32
 70
     1
102
RTVSPost2010Prop33
280
     0
102
RTVSPost2010PropOp33
 70
     1
102
RTVSPost2010Prop34
280
     0
102
RTVSPost2010PropOp34
 70
     1
102
RTVSPost2010Prop35
280
     0
102
RTVSPost2010PropOp35
 70
     1
102
RTVSPost2010Prop36
280
     0
102
RTVSPost2010PropOp36
 70
     1
102
RTVSPost2010Prop37
 90
       50
102
RTVSPost2010PropOp37
 70
     1
102
RTVSPost2010Prop38
140
0.0
102
RTVSPost2010PropOp38
 70
     1
102
RTVSPost2010Prop39
140
1.0
102
RTVSPost2010PropOp39
 70
     1
102
RTVSPost2010Prop40
 90
        0
102
RTVSPost2010PropOp40
 70
     1
102
RTVSPost2010Prop41ColorIndex
 90
       18
102
RTVSPost2010Prop41ColorRGB
 90
        0
102
RTVSPost2010PropOp41
 70
     1
102
RTVSPost2010Prop42
 90
       50
102
RTVSPost2010PropOp42
 70
     1
102
RTVSPost2010Prop43
 90
        3
102
RTVSPost2010PropOp43
 70
     1
102
RTVSPost2010Prop44ColorIndex
 90
        5
102
RTVSPost2010Prop44ColorRGB
 90
      255
102
RTVSPost2010PropOp44
 70
     1
102
RTVSPost2010Prop45
280
     0
102
RTVSPost2010PropOp45
 70
     1
102
RTVSPost2010Prop46
 90
       50
102
RTVSPost2010PropOp46
 70
     1
102
RTVSPost2010Prop47
 90
       50
102
RTVSPost2010PropOp47
 70
     1
102
RTVSPost2010Prop48
 90
       50
102
RTVSPost2010PropOp48
 70
     1
102
RTVSPost2010Prop49
280
     0
102
RTVSPost2010PropOp49
 70
     1
102
RTVSPost2010Prop50
 90
       50
102
RTVSPost2010PropOp50
 70
     1
102
RTVSPost2010Prop51ColorIndex
 90
      256
102
RTVSPost2010Prop51ColorRGB
 90
-16777216
102
RTVSPost2010PropOp51
 70
     0
102
RTVSPost2010Prop52
140
1.0
102
RTVSPost2010PropOp52
 70
     0
102
RTVSPost2010Prop53
 90
        2
102
RTVSPost2010PropOp53
 70
     1
102
RTVSPost2010Prop54
  1
strokes_ogs.tif
102
RTVSPost2010PropOp54
 70
     1
102
RTVSPost2010Prop55
280
     0
102
RTVSPost2010PropOp55
 70
     1
102
RTVSPost2010Prop56
140
1.0
102
RTVSPost2010PropOp56
 70
     1
102
RTVSPost2010Prop57
140
1.0
102
RTVSPost2010PropOp57
 70
     1
102
RTVSPropertyOp0
 70
     1
102
RTVSPropertyOp1
 70
     1
102
RTVSPropertyOp2
 70
     1
102
RTVSPropertyOp3
 70
     1
102
RTVSPropertyOp4
 70
     1
102
RTVSPropertyOp5
 70
     1
102
RTVSPropertyOp6
 70
     1
102
RTVSPropertyOp7
 70
     1
102
RTVSPropertyOp8
 70
     1
102
RTVSPropertyOp9
 70
     1
102
RTVSPropertyOp10
 70
     1
102
RTVSPropertyOp11
 70
     1
102
RTVSPropertyOp12
 70
     1
102
RTVSPropertyOp13
 70
     1
102
RTVSPropertyOp14
 70
     1
102
RTVSPropertyOp15
 70
     1
102
RTVSPropertyOp16
 70
     1
102
RTVSPropertyOp17
 70
     1
102
RTVSPropertyOp18
 70
     1
102
RTVSPropertyOp19
 70
     1
102
RTVSPropertyOp20
 70
     1
102
RTVSPropertyOp21
 70
     1
102
RTVSPropertyOp22
 70
     1
102
RTVSPropertyOp23
 70
     1
102
RTVSPropertyOp24
 70
     1
102
RTVSPropertyOp25
 70
     1
102
RTVSPropertyOp26
 70
     1
102
RTVSPropertyOp27
 70
     1
102
RTVSPropertyOp28
 70
     1
102
RTVSPropertyOp29
 70
     1
102
RTVSPropertyOp30
 70
     1
102
RTVSPropertyOp31
 70
     1
102
RTVSPropertyOp32
 70
     1
102
RTVSPropertyOp33
 70
     1
102
RTVSPropertyOp34
 70
     1
102
RTVSPropertyOp35
 70
     1
102
RTVSPropertyOp36
 70
     1
102
RTVSPropertyOp37
 70
     1
102
RTVSPropertyOp38
 70
     1
102
RTVSPropertyOp39
 70
     1
102
RTVSPropertyOp40
 70
     1
102
RTVSPropertyOp41
 70
     1
102
RTVSPropertyOp42
 70
     1
102
RTVSPropertyOp43
 70
     1
102
RTVSPropertyOp44
 70
     1
102
RTVSPropertyOp45
 70
     1
102
RTVSPropertyOp46
 70
     1
102
RTVSPropertyOp47
 70
     1
102
RTVSPropertyOp48
 70
     1
102
RTVSPropertyOp49
 70
     1
102
RTVSPropertyOp50
 70
     1
102
RTVSPropertyOp51
 70
     0
102
RTVSPropertyOp52
 70
     0
102
RTVSPropertyOp53
 70
     1
102
RTVSPropertyOp54
 70
     1
102
RTVSPropertyOp55
 70
     1
102
RTVSPropertyOp56
 70
     1
102
RTVSPropertyOp57
 70
     1
102
RTVSPropertyOp58
 70
     1
102
RTVSPropertyOp59
 70
     1
102
RTVSPropertyOp60
 70
     1
102
RTVSPropertyOp61
 70
     1
102
RTVSPropertyOp62
 70
     1
  0
XRECORD
  5
828
102
{ACAD_REACTORS
330
827
102
}
330
827
100
AcDbXrecord
280
     1
102
RTVSPost2010Prop28
280
     0
102
RTVSPost2010PropOp28
 70
     1
102
RTVSPost2010Prop29
280
     1
102
RTVSPost2010PropOp29
 70
     1
102
RTVSPost2010Prop30
280
     1
102
RTVSPost2010PropOp30
 70
     1
102
RTVSPost2010Prop31
280
     0
102
RTVSPost2010PropOp31
 70
     1
102
RTVSPost2010Prop32
280
     0
102
RTVSPost2010PropOp32
 70
     1
102
RTVSPost2010Prop33
280
     0
102
RTVSPost2010PropOp33
 70
     1
102
RTVSPost2010Prop34
280
     0
102
RTVSPost2010PropOp34
 70
     1
102
RTVSPost2010Prop35
280
     0
102
RTVSPost2010PropOp35
 70
     1
102
RTVSPost2010Prop36
280
     0
102
RTVSPost2010PropOp36
 70
     1
102
RTVSPost2010Prop37
 90
       50
102
RTVSPost2010PropOp37
 70
     1
102
RTVSPost2010Prop38
140
0.0
102
RTVSPost2010PropOp38
 70
     1
102
RTVSPost2010Prop39
140
1.0
102
RTVSPost2010PropOp39
 70
     1
102
RTVSPost2010Prop40
 90
        0
102
RTVSPost2010PropOp40
 70
     1
102
RTVSPost2010Prop41ColorIndex
 90
       18
102
RTVSPost2010Prop41ColorRGB
 90
        0
102
RTVSPost2010PropOp41
 70
     1
102
RTVSPost2010Prop42
 90
       50
102
RTVSPost2010PropOp42
 70
     1
102
RTVSPost2010Prop43
 90
        3
102
RTVSPost2010PropOp43
 70
     1
102
RTVSPost2010Prop44ColorIndex
 90
        5
102
RTVSPost2010Prop44ColorRGB
 90
      255
102
RTVSPost2010PropOp44
 70
     1
102
RTVSPost2010Prop45
280
     0
102
RTVSPost2010PropOp45
 70
     1
102
RTVSPost2010Prop46
 90
       50
102
RTVSPost2010PropOp46
 70
     1
102
RTVSPost2010Prop47
 90
       50
102
RTVSPost2010PropOp47
 70
     1
102
RTVSPost2010Prop48
 90
       50
102
RTVSPost2010PropOp48
 70
     1
102
RTVSPost2010Prop49
280
     0
102
RTVSPost2010PropOp49
 70
     1
102
RTVSPost2010Prop50
 90
       50
102
RTVSPost2010PropOp50
 70
     1
102
RTVSPost2010Prop51ColorIndex
 90
      256
102
RTVSPost2010Prop51ColorRGB
 90
-16777216
102
RTVSPost2010PropOp51
 70
     0
102
RTVSPost2010Prop52
140
1.0
102
RTVSPost2010PropOp52
 70
     0
102
RTVSPost2010Prop53
 90
        2
102
RTVSPost2010PropOp53
 70
     1
102
RTVSPost2010Prop54
  1
strokes_ogs.tif
102
RTVSPost2010PropOp54
 70
     1
102
RTVSPost2010Prop55
280
     0
102
RTVSPost2010PropOp55
 70
     1
102
RTVSPost2010Prop56
140
1.0
102
RTVSPost2010PropOp56
 70
     1
102
RTVSPost2010Prop57
140
1.0
102
RTVSPost2010PropOp57
 70
     1
102
RTVSPropertyOp0
 70
     1
102
RTVSPropertyOp1
 70
     1
102
RTVSPropertyOp2
 70
     1
102
RTVSPropertyOp3
 70
     1
102
RTVSPropertyOp4
 70
     1
102
RTVSPropertyOp5
 70
     1
102
RTVSPropertyOp6
 70
     1
102
RTVSPropertyOp7
 70
     1
102
RTVSPropertyOp8
 70
     1
102
RTVSPropertyOp9
 70
     1
102
RTVSPropertyOp10
 70
     1
102
RTVSPropertyOp11
 70
     1
102
RTVSPropertyOp12
 70
     1
102
RTVSPropertyOp13
 70
     1
102
RTVSPropertyOp14
 70
     1
102
RTVSPropertyOp15
 70
     1
102
RTVSPropertyOp16
 70
     1
102
RTVSPropertyOp17
 70
     1
102
RTVSPropertyOp18
 70
     1
102
RTVSPropertyOp19
 70
     1
102
RTVSPropertyOp20
 70
     1
102
RTVSPropertyOp21
 70
     1
102
RTVSPropertyOp22
 70
     1
102
RTVSPropertyOp23
 70
     1
102
RTVSPropertyOp24
 70
     1
102
RTVSPropertyOp25
 70
     1
102
RTVSPropertyOp26
 70
     1
102
RTVSPropertyOp27
 70
     1
102
RTVSPropertyOp28
 70
     1
102
RTVSPropertyOp29
 70
     1
102
RTVSPropertyOp30
 70
     1
102
RTVSPropertyOp31
 70
     1
102
RTVSPropertyOp32
 70
     1
102
RTVSPropertyOp33
 70
     1
102
RTVSPropertyOp34
 70
     1
102
RTVSPropertyOp35
 70
     1
102
RTVSPropertyOp36
 70
     1
102
RTVSPropertyOp37
 70
     1
102
RTVSPropertyOp38
 70
     1
102
RTVSPropertyOp39
 70
     1
102
RTVSPropertyOp40
 70
     1
102
RTVSPropertyOp41
 70
     1
102
RTVSPropertyOp42
 70
     1
102
RTVSPropertyOp43
 70
     1
102
RTVSPropertyOp44
 70
     1
102
RTVSPropertyOp45
 70
     1
102
RTVSPropertyOp46
 70
     1
102
RTVSPropertyOp47
 70
     1
102
RTVSPropertyOp48
 70
     1
102
RTVSPropertyOp49
 70
     1
102
RTVSPropertyOp50
 70
     1
102
RTVSPropertyOp51
 70
     0
102
RTVSPropertyOp52
 70
     0
102
RTVSPropertyOp53
 70
     1
102
RTVSPropertyOp54
 70
     1
102
RTVSPropertyOp55
 70
     1
102
RTVSPropertyOp56
 70
     1
102
RTVSPropertyOp57
 70
     1
102
RTVSPropertyOp58
 70
     1
102
RTVSPropertyOp59
 70
     1
102
RTVSPropertyOp60
 70
     1
102
RTVSPropertyOp61
 70
     1
102
RTVSPropertyOp62
 70
     1
  0
XRECORD
  5
82A
102
{ACAD_REACTORS
330
829
102
}
330
829
100
AcDbXrecord
280
     1
102
RTVSPost2010Prop28
280
     0
102
RTVSPost2010PropOp28
 70
     1
102
RTVSPost2010Prop29
280
     1
102
RTVSPost2010PropOp29
 70
     1
102
RTVSPost2010Prop30
280
     1
102
RTVSPost2010PropOp30
 70
     1
102
RTVSPost2010Prop31
280
     0
102
RTVSPost2010PropOp31
 70
     1
102
RTVSPost2010Prop32
280
     0
102
RTVSPost2010PropOp32
 70
     1
102
RTVSPost2010Prop33
280
     0
102
RTVSPost2010PropOp33
 70
     1
102
RTVSPost2010Prop34
280
     0
102
RTVSPost2010PropOp34
 70
     1
102
RTVSPost2010Prop35
280
     0
102
RTVSPost2010PropOp35
 70
     1
102
RTVSPost2010Prop36
280
     0
102
RTVSPost2010PropOp36
 70
     1
102
RTVSPost2010Prop37
 90
       50
102
RTVSPost2010PropOp37
 70
     1
102
RTVSPost2010Prop38
140
0.0
102
RTVSPost2010PropOp38
 70
     1
102
RTVSPost2010Prop39
140
1.0
102
RTVSPost2010PropOp39
 70
     1
102
RTVSPost2010Prop40
 90
        0
102
RTVSPost2010PropOp40
 70
     1
102
RTVSPost2010Prop41ColorIndex
 90
       18
102
RTVSPost2010Prop41ColorRGB
 90
        0
102
RTVSPost2010PropOp41
 70
     1
102
RTVSPost2010Prop42
 90
       50
102
RTVSPost2010PropOp42
 70
     1
102
RTVSPost2010Prop43
 90
        3
102
RTVSPost2010PropOp43
 70
     1
102
RTVSPost2010Prop44ColorIndex
 90
        5
102
RTVSPost2010Prop44ColorRGB
 90
      255
102
RTVSPost2010PropOp44
 70
     1
102
RTVSPost2010Prop45
280
     0
102
RTVSPost2010PropOp45
 70
     1
102
RTVSPost2010Prop46
 90
       50
102
RTVSPost2010PropOp46
 70
     1
102
RTVSPost2010Prop47
 90
       50
102
RTVSPost2010PropOp47
 70
     1
102
RTVSPost2010Prop48
 90
       50
102
RTVSPost2010PropOp48
 70
     1
102
RTVSPost2010Prop49
280
     0
102
RTVSPost2010PropOp49
 70
     1
102
RTVSPost2010Prop50
 90
       50
102
RTVSPost2010PropOp50
 70
     1
102
RTVSPost2010Prop51ColorIndex
 90
      256
102
RTVSPost2010Prop51ColorRGB
 90
-16777216
102
RTVSPost2010PropOp51
 70
     0
102
RTVSPost2010Prop52
140
1.0
102
RTVSPost2010PropOp52
 70
     0
102
RTVSPost2010Prop53
 90
        2
102
RTVSPost2010PropOp53
 70
     1
102
RTVSPost2010Prop54
  1
strokes_ogs.tif
102
RTVSPost2010PropOp54
 70
     1
102
RTVSPost2010Prop55
280
     0
102
RTVSPost2010PropOp55
 70
     1
102
RTVSPost2010Prop56
140
1.0
102
RTVSPost2010PropOp56
 70
     1
102
RTVSPost2010Prop57
140
1.0
102
RTVSPost2010PropOp57
 70
     1
102
RTVSPropertyOp0
 70
     1
102
RTVSPropertyOp1
 70
     1
102
RTVSPropertyOp2
 70
     1
102
RTVSPropertyOp3
 70
     1
102
RTVSPropertyOp4
 70
     1
102
RTVSPropertyOp5
 70
     1
102
RTVSPropertyOp6
 70
     1
102
RTVSPropertyOp7
 70
     1
102
RTVSPropertyOp8
 70
     1
102
RTVSPropertyOp9
 70
     1
102
RTVSPropertyOp10
 70
     1
102
RTVSPropertyOp11
 70
     1
102
RTVSPropertyOp12
 70
     1
102
RTVSPropertyOp13
 70
     1
102
RTVSPropertyOp14
 70
     1
102
RTVSPropertyOp15
 70
     1
102
RTVSPropertyOp16
 70
     1
102
RTVSPropertyOp17
 70
     1
102
RTVSPropertyOp18
 70
     1
102
RTVSPropertyOp19
 70
     1
102
RTVSPropertyOp20
 70
     1
102
RTVSPropertyOp21
 70
     1
102
RTVSPropertyOp22
 70
     1
102
RTVSPropertyOp23
 70
     1
102
RTVSPropertyOp24
 70
     1
102
RTVSPropertyOp25
 70
     1
102
RTVSPropertyOp26
 70
     1
102
RTVSPropertyOp27
 70
     1
102
RTVSPropertyOp28
 70
     1
102
RTVSPropertyOp29
 70
     1
102
RTVSPropertyOp30
 70
     1
102
RTVSPropertyOp31
 70
     1
102
RTVSPropertyOp32
 70
     1
102
RTVSPropertyOp33
 70
     1
102
RTVSPropertyOp34
 70
     1
102
RTVSPropertyOp35
 70
     1
102
RTVSPropertyOp36
 70
     1
102
RTVSPropertyOp37
 70
     1
102
RTVSPropertyOp38
 70
     1
102
RTVSPropertyOp39
 70
     1
102
RTVSPropertyOp40
 70
     1
102
RTVSPropertyOp41
 70
     1
102
RTVSPropertyOp42
 70
     1
102
RTVSPropertyOp43
 70
     1
102
RTVSPropertyOp44
 70
     1
102
RTVSPropertyOp45
 70
     1
102
RTVSPropertyOp46
 70
     1
102
RTVSPropertyOp47
 70
     1
102
RTVSPropertyOp48
 70
     1
102
RTVSPropertyOp49
 70
     1
102
RTVSPropertyOp50
 70
     1
102
RTVSPropertyOp51
 70
     0
102
RTVSPropertyOp52
 70
     0
102
RTVSPropertyOp53
 70
     1
102
RTVSPropertyOp54
 70
     1
102
RTVSPropertyOp55
 70
     1
102
RTVSPropertyOp56
 70
     1
102
RTVSPropertyOp57
 70
     1
102
RTVSPropertyOp58
 70
     1
102
RTVSPropertyOp59
 70
     1
102
RTVSPropertyOp60
 70
     1
102
RTVSPropertyOp61
 70
     1
102
RTVSPropertyOp62
 70
     1
  0
XRECORD
  5
82C
102
{ACAD_REACTORS
330
82B
102
}
330
82B
100
AcDbXrecord
280
     1
102
RTVSPost2010Prop28
280
     0
102
RTVSPost2010PropOp28
 70
     1
102
RTVSPost2010Prop29
280
     1
102
RTVSPost2010PropOp29
 70
     1
102
RTVSPost2010Prop30
280
     1
102
RTVSPost2010PropOp30
 70
     1
102
RTVSPost2010Prop31
280
     0
102
RTVSPost2010PropOp31
 70
     1
102
RTVSPost2010Prop32
280
     0
102
RTVSPost2010PropOp32
 70
     1
102
RTVSPost2010Prop33
280
     0
102
RTVSPost2010PropOp33
 70
     1
102
RTVSPost2010Prop34
280
     0
102
RTVSPost2010PropOp34
 70
     1
102
RTVSPost2010Prop35
280
     0
102
RTVSPost2010PropOp35
 70
     1
102
RTVSPost2010Prop36
280
     0
102
RTVSPost2010PropOp36
 70
     1
102
RTVSPost2010Prop37
 90
       50
102
RTVSPost2010PropOp37
 70
     1
102
RTVSPost2010Prop38
140
0.0
102
RTVSPost2010PropOp38
 70
     1
102
RTVSPost2010Prop39
140
1.0
102
RTVSPost2010PropOp39
 70
     1
102
RTVSPost2010Prop40
 90
        0
102
RTVSPost2010PropOp40
 70
     1
102
RTVSPost2010Prop41ColorIndex
 90
       18
102
RTVSPost2010Prop41ColorRGB
 90
        0
102
RTVSPost2010PropOp41
 70
     1
102
RTVSPost2010Prop42
 90
       50
102
RTVSPost2010PropOp42
 70
     1
102
RTVSPost2010Prop43
 90
        3
102
RTVSPost2010PropOp43
 70
     1
102
RTVSPost2010Prop44ColorIndex
 90
        5
102
RTVSPost2010Prop44ColorRGB
 90
      255
102
RTVSPost2010PropOp44
 70
     1
102
RTVSPost2010Prop45
280
     0
102
RTVSPost2010PropOp45
 70
     1
102
RTVSPost2010Prop46
 90
       50
102
RTVSPost2010PropOp46
 70
     1
102
RTVSPost2010Prop47
 90
       50
102
RTVSPost2010PropOp47
 70
     1
102
RTVSPost2010Prop48
 90
       50
102
RTVSPost2010PropOp48
 70
     1
102
RTVSPost2010Prop49
280
     0
102
RTVSPost2010PropOp49
 70
     1
102
RTVSPost2010Prop50
 90
       50
102
RTVSPost2010PropOp50
 70
     1
102
RTVSPost2010Prop51ColorIndex
 90
      256
102
RTVSPost2010Prop51ColorRGB
 90
-16777216
102
RTVSPost2010PropOp51
 70
     0
102
RTVSPost2010Prop52
140
1.0
102
RTVSPost2010PropOp52
 70
     0
102
RTVSPost2010Prop53
 90
        2
102
RTVSPost2010PropOp53
 70
     1
102
RTVSPost2010Prop54
  1
strokes_ogs.tif
102
RTVSPost2010PropOp54
 70
     1
102
RTVSPost2010Prop55
280
     0
102
RTVSPost2010PropOp55
 70
     1
102
RTVSPost2010Prop56
140
1.0
102
RTVSPost2010PropOp56
 70
     1
102
RTVSPost2010Prop57
140
1.0
102
RTVSPost2010PropOp57
 70
     1
102
RTVSPropertyOp0
 70
     1
102
RTVSPropertyOp1
 70
     1
102
RTVSPropertyOp2
 70
     1
102
RTVSPropertyOp3
 70
     1
102
RTVSPropertyOp4
 70
     1
102
RTVSPropertyOp5
 70
     1
102
RTVSPropertyOp6
 70
     1
102
RTVSPropertyOp7
 70
     1
102
RTVSPropertyOp8
 70
     1
102
RTVSPropertyOp9
 70
     1
102
RTVSPropertyOp10
 70
     1
102
RTVSPropertyOp11
 70
     1
102
RTVSPropertyOp12
 70
     1
102
RTVSPropertyOp13
 70
     1
102
RTVSPropertyOp14
 70
     1
102
RTVSPropertyOp15
 70
     1
102
RTVSPropertyOp16
 70
     1
102
RTVSPropertyOp17
 70
     1
102
RTVSPropertyOp18
 70
     1
102
RTVSPropertyOp19
 70
     1
102
RTVSPropertyOp20
 70
     1
102
RTVSPropertyOp21
 70
     1
102
RTVSPropertyOp22
 70
     1
102
RTVSPropertyOp23
 70
     1
102
RTVSPropertyOp24
 70
     1
102
RTVSPropertyOp25
 70
     1
102
RTVSPropertyOp26
 70
     1
102
RTVSPropertyOp27
 70
     1
102
RTVSPropertyOp28
 70
     1
102
RTVSPropertyOp29
 70
     1
102
RTVSPropertyOp30
 70
     1
102
RTVSPropertyOp31
 70
     1
102
RTVSPropertyOp32
 70
     1
102
RTVSPropertyOp33
 70
     1
102
RTVSPropertyOp34
 70
     1
102
RTVSPropertyOp35
 70
     1
102
RTVSPropertyOp36
 70
     1
102
RTVSPropertyOp37
 70
     1
102
RTVSPropertyOp38
 70
     1
102
RTVSPropertyOp39
 70
     1
102
RTVSPropertyOp40
 70
     1
102
RTVSPropertyOp41
 70
     1
102
RTVSPropertyOp42
 70
     1
102
RTVSPropertyOp43
 70
     1
102
RTVSPropertyOp44
 70
     1
102
RTVSPropertyOp45
 70
     1
102
RTVSPropertyOp46
 70
     1
102
RTVSPropertyOp47
 70
     1
102
RTVSPropertyOp48
 70
     1
102
RTVSPropertyOp49
 70
     1
102
RTVSPropertyOp50
 70
     1
102
RTVSPropertyOp51
 70
     0
102
RTVSPropertyOp52
 70
     0
102
RTVSPropertyOp53
 70
     1
102
RTVSPropertyOp54
 70
     1
102
RTVSPropertyOp55
 70
     1
102
RTVSPropertyOp56
 70
     1
102
RTVSPropertyOp57
 70
     1
102
RTVSPropertyOp58
 70
     1
102
RTVSPropertyOp59
 70
     1
102
RTVSPropertyOp60
 70
     1
102
RTVSPropertyOp61
 70
     1
102
RTVSPropertyOp62
 70
     1
  0
XRECORD
  5
834
102
{ACAD_REACTORS
330
833
102
}
330
833
100
AcDbXrecord
280
     1
102
RTVSPost2010Prop28
280
     0
102
RTVSPost2010PropOp28
 70
     1
102
RTVSPost2010Prop29
280
     1
102
RTVSPost2010PropOp29
 70
     1
102
RTVSPost2010Prop30
280
     1
102
RTVSPost2010PropOp30
 70
     1
102
RTVSPost2010Prop31
280
     0
102
RTVSPost2010PropOp31
 70
     1
102
RTVSPost2010Prop32
280
     0
102
RTVSPost2010PropOp32
 70
     1
102
RTVSPost2010Prop33
280
     0
102
RTVSPost2010PropOp33
 70
     1
102
RTVSPost2010Prop34
280
     0
102
RTVSPost2010PropOp34
 70
     1
102
RTVSPost2010Prop35
280
     0
102
RTVSPost2010PropOp35
 70
     1
102
RTVSPost2010Prop36
280
     0
102
RTVSPost2010PropOp36
 70
     1
102
RTVSPost2010Prop37
 90
       50
102
RTVSPost2010PropOp37
 70
     1
102
RTVSPost2010Prop38
140
0.0
102
RTVSPost2010PropOp38
 70
     1
102
RTVSPost2010Prop39
140
1.0
102
RTVSPost2010PropOp39
 70
     1
102
RTVSPost2010Prop40
 90
        0
102
RTVSPost2010PropOp40
 70
     1
102
RTVSPost2010Prop41ColorIndex
 90
       18
102
RTVSPost2010Prop41ColorRGB
 90
        0
102
RTVSPost2010PropOp41
 70
     1
102
RTVSPost2010Prop42
 90
       50
102
RTVSPost2010PropOp42
 70
     1
102
RTVSPost2010Prop43
 90
        3
102
RTVSPost2010PropOp43
 70
     1
102
RTVSPost2010Prop44ColorIndex
 90
        5
102
RTVSPost2010Prop44ColorRGB
 90
      255
102
RTVSPost2010PropOp44
 70
     1
102
RTVSPost2010Prop45
280
     0
102
RTVSPost2010PropOp45
 70
     1
102
RTVSPost2010Prop46
 90
       50
102
RTVSPost2010PropOp46
 70
     1
102
RTVSPost2010Prop47
 90
       50
102
RTVSPost2010PropOp47
 70
     1
102
RTVSPost2010Prop48
 90
       50
102
RTVSPost2010PropOp48
 70
     1
102
RTVSPost2010Prop49
280
     0
102
RTVSPost2010PropOp49
 70
     1
102
RTVSPost2010Prop50
 90
       50
102
RTVSPost2010PropOp50
 70
     1
102
RTVSPost2010Prop51ColorIndex
 90
      256
102
RTVSPost2010Prop51ColorRGB
 90
-16777216
102
RTVSPost2010PropOp51
 70
     0
102
RTVSPost2010Prop52
140
1.0
102
RTVSPost2010PropOp52
 70
     0
102
RTVSPost2010Prop53
 90
        2
102
RTVSPost2010PropOp53
 70
     1
102
RTVSPost2010Prop54
  1
strokes_ogs.tif
102
RTVSPost2010PropOp54
 70
     1
102
RTVSPost2010Prop55
280
     0
102
RTVSPost2010PropOp55
 70
     1
102
RTVSPost2010Prop56
140
1.0
102
RTVSPost2010PropOp56
 70
     1
102
RTVSPost2010Prop57
140
1.0
102
RTVSPost2010PropOp57
 70
     1
102
RTVSPropertyOp0
 70
     1
102
RTVSPropertyOp1
 70
     1
102
RTVSPropertyOp2
 70
     1
102
RTVSPropertyOp3
 70
     1
102
RTVSPropertyOp4
 70
     1
102
RTVSPropertyOp5
 70
     1
102
RTVSPropertyOp6
 70
     1
102
RTVSPropertyOp7
 70
     1
102
RTVSPropertyOp8
 70
     1
102
RTVSPropertyOp9
 70
     1
102
RTVSPropertyOp10
 70
     1
102
RTVSPropertyOp11
 70
     1
102
RTVSPropertyOp12
 70
     1
102
RTVSPropertyOp13
 70
     1
102
RTVSPropertyOp14
 70
     1
102
RTVSPropertyOp15
 70
     1
102
RTVSPropertyOp16
 70
     1
102
RTVSPropertyOp17
 70
     1
102
RTVSPropertyOp18
 70
     1
102
RTVSPropertyOp19
 70
     1
102
RTVSPropertyOp20
 70
     1
102
RTVSPropertyOp21
 70
     1
102
RTVSPropertyOp22
 70
     1
102
RTVSPropertyOp23
 70
     1
102
RTVSPropertyOp24
 70
     1
102
RTVSPropertyOp25
 70
     1
102
RTVSPropertyOp26
 70
     1
102
RTVSPropertyOp27
 70
     1
102
RTVSPropertyOp28
 70
     1
102
RTVSPropertyOp29
 70
     1
102
RTVSPropertyOp30
 70
     1
102
RTVSPropertyOp31
 70
     1
102
RTVSPropertyOp32
 70
     1
102
RTVSPropertyOp33
 70
     1
102
RTVSPropertyOp34
 70
     1
102
RTVSPropertyOp35
 70
     1
102
RTVSPropertyOp36
 70
     1
102
RTVSPropertyOp37
 70
     1
102
RTVSPropertyOp38
 70
     1
102
RTVSPropertyOp39
 70
     1
102
RTVSPropertyOp40
 70
     1
102
RTVSPropertyOp41
 70
     1
102
RTVSPropertyOp42
 70
     1
102
RTVSPropertyOp43
 70
     1
102
RTVSPropertyOp44
 70
     1
102
RTVSPropertyOp45
 70
     1
102
RTVSPropertyOp46
 70
     1
102
RTVSPropertyOp47
 70
     1
102
RTVSPropertyOp48
 70
     1
102
RTVSPropertyOp49
 70
     1
102
RTVSPropertyOp50
 70
     1
102
RTVSPropertyOp51
 70
     0
102
RTVSPropertyOp52
 70
     0
102
RTVSPropertyOp53
 70
     1
102
RTVSPropertyOp54
 70
     1
102
RTVSPropertyOp55
 70
     1
102
RTVSPropertyOp56
 70
     1
102
RTVSPropertyOp57
 70
     1
102
RTVSPropertyOp58
 70
     1
102
RTVSPropertyOp59
 70
     1
102
RTVSPropertyOp60
 70
     1
102
RTVSPropertyOp61
 70
     1
102
RTVSPropertyOp62
 70
     1
  0
XRECORD
  5
850
102
{ACAD_REACTORS
330
84F
102
}
330
84F
100
AcDbXrecord
280
     1
102
RTVSPost2010Prop28
280
     0
102
RTVSPost2010PropOp28
 70
     1
102
RTVSPost2010Prop29
280
     1
102
RTVSPost2010PropOp29
 70
     1
102
RTVSPost2010Prop30
280
     1
102
RTVSPost2010PropOp30
 70
     1
102
RTVSPost2010Prop31
280
     0
102
RTVSPost2010PropOp31
 70
     1
102
RTVSPost2010Prop32
280
     0
102
RTVSPost2010PropOp32
 70
     1
102
RTVSPost2010Prop33
280
     0
102
RTVSPost2010PropOp33
 70
     1
102
RTVSPost2010Prop34
280
     0
102
RTVSPost2010PropOp34
 70
     1
102
RTVSPost2010Prop35
280
     0
102
RTVSPost2010PropOp35
 70
     1
102
RTVSPost2010Prop36
280
     0
102
RTVSPost2010PropOp36
 70
     1
102
RTVSPost2010Prop37
 90
       50
102
RTVSPost2010PropOp37
 70
     0
102
RTVSPost2010Prop38
140
0.0
102
RTVSPost2010PropOp38
 70
     0
102
RTVSPost2010Prop39
140
1.0
102
RTVSPost2010PropOp39
 70
     0
102
RTVSPost2010Prop40
 90
        0
102
RTVSPost2010PropOp40
 70
     0
102
RTVSPost2010Prop41ColorIndex
 90
       18
102
RTVSPost2010Prop41ColorRGB
 90
        0
102
RTVSPost2010PropOp41
 70
     0
102
RTVSPost2010Prop42
 90
       50
102
RTVSPost2010PropOp42
 70
     0
102
RTVSPost2010Prop43
 90
        3
102
RTVSPost2010PropOp43
 70
     0
102
RTVSPost2010Prop44ColorIndex
 90
        5
102
RTVSPost2010Prop44ColorRGB
 90
      255
102
RTVSPost2010PropOp44
 70
     0
102
RTVSPost2010Prop45
280
     0
102
RTVSPost2010PropOp45
 70
     1
102
RTVSPost2010Prop46
 90
       50
102
RTVSPost2010PropOp46
 70
     0
102
RTVSPost2010Prop47
 90
       50
102
RTVSPost2010PropOp47
 70
     0
102
RTVSPost2010Prop48
 90
       50
102
RTVSPost2010PropOp48
 70
     0
102
RTVSPost2010Prop49
280
     0
102
RTVSPost2010PropOp49
 70
     1
102
RTVSPost2010Prop50
 90
       50
102
RTVSPost2010PropOp50
 70
     0
102
RTVSPost2010Prop51ColorIndex
 90
      256
102
RTVSPost2010Prop51ColorRGB
 90
-16777216
102
RTVSPost2010PropOp51
 70
     0
102
RTVSPost2010Prop52
140
1.0
102
RTVSPost2010PropOp52
 70
     0
102
RTVSPost2010Prop53
 90
        2
102
RTVSPost2010PropOp53
 70
     0
102
RTVSPost2010Prop54
  1
strokes_ogs.tif
102
RTVSPost2010PropOp54
 70
     0
102
RTVSPost2010Prop55
280
     0
102
RTVSPost2010PropOp55
 70
     1
102
RTVSPost2010Prop56
140
1.0
102
RTVSPost2010PropOp56
 70
     0
102
RTVSPost2010Prop57
140
1.0
102
RTVSPost2010PropOp57
 70
     0
102
RTVSPropertyOp0
 70
     0
102
RTVSPropertyOp1
 70
     0
102
RTVSPropertyOp2
 70
     0
102
RTVSPropertyOp3
 70
     0
102
RTVSPropertyOp4
 70
     0
102
RTVSPropertyOp5
 70
     0
102
RTVSPropertyOp6
 70
     0
102
RTVSPropertyOp7
 70
     0
102
RTVSPropertyOp8
 70
     0
102
RTVSPropertyOp9
 70
     0
102
RTVSPropertyOp10
 70
     0
102
RTVSPropertyOp11
 70
     0
102
RTVSPropertyOp12
 70
     0
102
RTVSPropertyOp13
 70
     0
102
RTVSPropertyOp14
 70
     2
102
RTVSPropertyOp15
 70
     0
102
RTVSPropertyOp16
 70
     0
102
RTVSPropertyOp17
 70
     0
102
RTVSPropertyOp18
 70
     0
102
RTVSPropertyOp19
 70
     0
102
RTVSPropertyOp20
 70
     0
102
RTVSPropertyOp21
 70
     0
102
RTVSPropertyOp22
 70
     0
102
RTVSPropertyOp23
 70
     0
102
RTVSPropertyOp24
 70
     0
102
RTVSPropertyOp25
 70
     0
102
RTVSPropertyOp26
 70
     0
102
RTVSPropertyOp27
 70
     0
102
RTVSPropertyOp28
 70
     1
102
RTVSPropertyOp29
 70
     1
102
RTVSPropertyOp30
 70
     1
102
RTVSPropertyOp31
 70
     1
102
RTVSPropertyOp32
 70
     1
102
RTVSPropertyOp33
 70
     1
102
RTVSPropertyOp34
 70
     1
102
RTVSPropertyOp35
 70
     1
102
RTVSPropertyOp36
 70
     1
102
RTVSPropertyOp37
 70
     0
102
RTVSPropertyOp38
 70
     0
102
RTVSPropertyOp39
 70
     0
102
RTVSPropertyOp40
 70
     0
102
RTVSPropertyOp41
 70
     0
102
RTVSPropertyOp42
 70
     0
102
RTVSPropertyOp43
 70
     0
102
RTVSPropertyOp44
 70
     0
102
RTVSPropertyOp45
 70
     1
102
RTVSPropertyOp46
 70
     0
102
RTVSPropertyOp47
 70
     0
102
RTVSPropertyOp48
 70
     0
102
RTVSPropertyOp49
 70
     1
102
RTVSPropertyOp50
 70
     0
102
RTVSPropertyOp51
 70
     0
102
RTVSPropertyOp52
 70
     0
102
RTVSPropertyOp53
 70
     0
102
RTVSPropertyOp54
 70
     0
102
RTVSPropertyOp55
 70
     1
102
RTVSPropertyOp56
 70
     0
102
RTVSPropertyOp57
 70
     0
102
RTVSPropertyOp58
 70
     0
102
RTVSPropertyOp59
 70
     0
102
RTVSPropertyOp60
 70
     0
102
RTVSPropertyOp61
 70
     0
102
RTVSPropertyOp62
 70
     0
  0
XRECORD
  5
840
102
{ACAD_REACTORS
330
83F
102
}
330
83F
100
AcDbXrecord
280
     1
102
RTVSPost2010Prop28
280
     0
102
RTVSPost2010PropOp28
 70
     1
102
RTVSPost2010Prop29
280
     1
102
RTVSPost2010PropOp29
 70
     1
102
RTVSPost2010Prop30
280
     1
102
RTVSPost2010PropOp30
 70
     1
102
RTVSPost2010Prop31
280
     0
102
RTVSPost2010PropOp31
 70
     1
102
RTVSPost2010Prop32
280
     0
102
RTVSPost2010PropOp32
 70
     1
102
RTVSPost2010Prop33
280
     0
102
RTVSPost2010PropOp33
 70
     1
102
RTVSPost2010Prop34
280
     0
102
RTVSPost2010PropOp34
 70
     1
102
RTVSPost2010Prop35
280
     0
102
RTVSPost2010PropOp35
 70
     1
102
RTVSPost2010Prop36
280
     0
102
RTVSPost2010PropOp36
 70
     1
102
RTVSPost2010Prop37
 90
       50
102
RTVSPost2010PropOp37
 70
     1
102
RTVSPost2010Prop38
140
0.0
102
RTVSPost2010PropOp38
 70
     1
102
RTVSPost2010Prop39
140
1.0
102
RTVSPost2010PropOp39
 70
     1
102
RTVSPost2010Prop40
 90
        0
102
RTVSPost2010PropOp40
 70
     1
102
RTVSPost2010Prop41ColorIndex
 90
       18
102
RTVSPost2010Prop41ColorRGB
 90
        0
102
RTVSPost2010PropOp41
 70
     1
102
RTVSPost2010Prop42
 90
       50
102
RTVSPost2010PropOp42
 70
     1
102
RTVSPost2010Prop43
 90
        3
102
RTVSPost2010PropOp43
 70
     1
102
RTVSPost2010Prop44ColorIndex
 90
        5
102
RTVSPost2010Prop44ColorRGB
 90
      255
102
RTVSPost2010PropOp44
 70
     1
102
RTVSPost2010Prop45
280
     0
102
RTVSPost2010PropOp45
 70
     1
102
RTVSPost2010Prop46
 90
       50
102
RTVSPost2010PropOp46
 70
     1
102
RTVSPost2010Prop47
 90
       50
102
RTVSPost2010PropOp47
 70
     1
102
RTVSPost2010Prop48
 90
       50
102
RTVSPost2010PropOp48
 70
     1
102
RTVSPost2010Prop49
280
     0
102
RTVSPost2010PropOp49
 70
     1
102
RTVSPost2010Prop50
 90
       50
102
RTVSPost2010PropOp50
 70
     1
102
RTVSPost2010Prop51ColorIndex
 90
      256
102
RTVSPost2010Prop51ColorRGB
 90
-16777216
102
RTVSPost2010PropOp51
 70
     0
102
RTVSPost2010Prop52
140
1.0
102
RTVSPost2010PropOp52
 70
     0
102
RTVSPost2010Prop53
 90
        2
102
RTVSPost2010PropOp53
 70
     1
102
RTVSPost2010Prop54
  1
strokes_ogs.tif
102
RTVSPost2010PropOp54
 70
     1
102
RTVSPost2010Prop55
280
     0
102
RTVSPost2010PropOp55
 70
     1
102
RTVSPost2010Prop56
140
1.0
102
RTVSPost2010PropOp56
 70
     1
102
RTVSPost2010Prop57
140
1.0
102
RTVSPost2010PropOp57
 70
     1
102
RTVSPropertyOp0
 70
     1
102
RTVSPropertyOp1
 70
     1
102
RTVSPropertyOp2
 70
     1
102
RTVSPropertyOp3
 70
     1
102
RTVSPropertyOp4
 70
     1
102
RTVSPropertyOp5
 70
     1
102
RTVSPropertyOp6
 70
     1
102
RTVSPropertyOp7
 70
     1
102
RTVSPropertyOp8
 70
     1
102
RTVSPropertyOp9
 70
     1
102
RTVSPropertyOp10
 70
     1
102
RTVSPropertyOp11
 70
     1
102
RTVSPropertyOp12
 70
     1
102
RTVSPropertyOp13
 70
     1
102
RTVSPropertyOp14
 70
     1
102
RTVSPropertyOp15
 70
     1
102
RTVSPropertyOp16
 70
     1
102
RTVSPropertyOp17
 70
     1
102
RTVSPropertyOp18
 70
     1
102
RTVSPropertyOp19
 70
     1
102
RTVSPropertyOp20
 70
     1
102
RTVSPropertyOp21
 70
     1
102
RTVSPropertyOp22
 70
     1
102
RTVSPropertyOp23
 70
     1
102
RTVSPropertyOp24
 70
     1
102
RTVSPropertyOp25
 70
     1
102
RTVSPropertyOp26
 70
     1
102
RTVSPropertyOp27
 70
     1
102
RTVSPropertyOp28
 70
     1
102
RTVSPropertyOp29
 70
     1
102
RTVSPropertyOp30
 70
     1
102
RTVSPropertyOp31
 70
     1
102
RTVSPropertyOp32
 70
     1
102
RTVSPropertyOp33
 70
     1
102
RTVSPropertyOp34
 70
     1
102
RTVSPropertyOp35
 70
     1
102
RTVSPropertyOp36
 70
     1
102
RTVSPropertyOp37
 70
     1
102
RTVSPropertyOp38
 70
     1
102
RTVSPropertyOp39
 70
     1
102
RTVSPropertyOp40
 70
     1
102
RTVSPropertyOp41
 70
     1
102
RTVSPropertyOp42
 70
     1
102
RTVSPropertyOp43
 70
     1
102
RTVSPropertyOp44
 70
     1
102
RTVSPropertyOp45
 70
     1
102
RTVSPropertyOp46
 70
     1
102
RTVSPropertyOp47
 70
     1
102
RTVSPropertyOp48
 70
     1
102
RTVSPropertyOp49
 70
     1
102
RTVSPropertyOp50
 70
     1
102
RTVSPropertyOp51
 70
     0
102
RTVSPropertyOp52
 70
     0
102
RTVSPropertyOp53
 70
     1
102
RTVSPropertyOp54
 70
     1
102
RTVSPropertyOp55
 70
     1
102
RTVSPropertyOp56
 70
     1
102
RTVSPropertyOp57
 70
     1
102
RTVSPropertyOp58
 70
     1
102
RTVSPropertyOp59
 70
     1
102
RTVSPropertyOp60
 70
     1
102
RTVSPropertyOp61
 70
     1
102
RTVSPropertyOp62
 70
     1
  0
XRECORD
  5
852
102
{ACAD_REACTORS
330
851
102
}
330
851
100
AcDbXrecord
280
     1
102
RTVSPost2010Prop28
280
     0
102
RTVSPost2010PropOp28
 70
     1
102
RTVSPost2010Prop29
280
     1
102
RTVSPost2010PropOp29
 70
     1
102
RTVSPost2010Prop30
280
     1
102
RTVSPost2010PropOp30
 70
     1
102
RTVSPost2010Prop31
280
     0
102
RTVSPost2010PropOp31
 70
     1
102
RTVSPost2010Prop32
280
     0
102
RTVSPost2010PropOp32
 70
     1
102
RTVSPost2010Prop33
280
     0
102
RTVSPost2010PropOp33
 70
     1
102
RTVSPost2010Prop34
280
     0
102
RTVSPost2010PropOp34
 70
     1
102
RTVSPost2010Prop35
280
     0
102
RTVSPost2010PropOp35
 70
     1
102
RTVSPost2010Prop36
280
     0
102
RTVSPost2010PropOp36
 70
     1
102
RTVSPost2010Prop37
 90
       50
102
RTVSPost2010PropOp37
 70
     0
102
RTVSPost2010Prop38
140
0.0
102
RTVSPost2010PropOp38
 70
     0
102
RTVSPost2010Prop39
140
1.0
102
RTVSPost2010PropOp39
 70
     0
102
RTVSPost2010Prop40
 90
        0
102
RTVSPost2010PropOp40
 70
     0
102
RTVSPost2010Prop41ColorIndex
 90
       18
102
RTVSPost2010Prop41ColorRGB
 90
        0
102
RTVSPost2010PropOp41
 70
     0
102
RTVSPost2010Prop42
 90
       50
102
RTVSPost2010PropOp42
 70
     0
102
RTVSPost2010Prop43
 90
        3
102
RTVSPost2010PropOp43
 70
     0
102
RTVSPost2010Prop44ColorIndex
 90
        5
102
RTVSPost2010Prop44ColorRGB
 90
      255
102
RTVSPost2010PropOp44
 70
     0
102
RTVSPost2010Prop45
280
     0
102
RTVSPost2010PropOp45
 70
     1
102
RTVSPost2010Prop46
 90
       50
102
RTVSPost2010PropOp46
 70
     0
102
RTVSPost2010Prop47
 90
       50
102
RTVSPost2010PropOp47
 70
     0
102
RTVSPost2010Prop48
 90
       50
102
RTVSPost2010PropOp48
 70
     0
102
RTVSPost2010Prop49
280
     0
102
RTVSPost2010PropOp49
 70
     1
102
RTVSPost2010Prop50
 90
       50
102
RTVSPost2010PropOp50
 70
     0
102
RTVSPost2010Prop51ColorIndex
 90
      256
102
RTVSPost2010Prop51ColorRGB
 90
-16777216
102
RTVSPost2010PropOp51
 70
     0
102
RTVSPost2010Prop52
140
1.0
102
RTVSPost2010PropOp52
 70
     0
102
RTVSPost2010Prop53
 90
        2
102
RTVSPost2010PropOp53
 70
     0
102
RTVSPost2010Prop54
  1
strokes_ogs.tif
102
RTVSPost2010PropOp54
 70
     0
102
RTVSPost2010Prop55
280
     0
102
RTVSPost2010PropOp55
 70
     1
102
RTVSPost2010Prop56
140
1.0
102
RTVSPost2010PropOp56
 70
     0
102
RTVSPost2010Prop57
140
1.0
102
RTVSPost2010PropOp57
 70
     0
102
RTVSPropertyOp0
 70
     0
102
RTVSPropertyOp1
 70
     0
102
RTVSPropertyOp2
 70
     0
102
RTVSPropertyOp3
 70
     0
102
RTVSPropertyOp4
 70
     0
102
RTVSPropertyOp5
 70
     0
102
RTVSPropertyOp6
 70
     0
102
RTVSPropertyOp7
 70
     0
102
RTVSPropertyOp8
 70
     0
102
RTVSPropertyOp9
 70
     0
102
RTVSPropertyOp10
 70
     0
102
RTVSPropertyOp11
 70
     0
102
RTVSPropertyOp12
 70
     0
102
RTVSPropertyOp13
 70
     0
102
RTVSPropertyOp14
 70
     2
102
RTVSPropertyOp15
 70
     0
102
RTVSPropertyOp16
 70
     0
102
RTVSPropertyOp17
 70
     0
102
RTVSPropertyOp18
 70
     0
102
RTVSPropertyOp19
 70
     0
102
RTVSPropertyOp20
 70
     0
102
RTVSPropertyOp21
 70
     0
102
RTVSPropertyOp22
 70
     0
102
RTVSPropertyOp23
 70
     0
102
RTVSPropertyOp24
 70
     0
102
RTVSPropertyOp25
 70
     0
102
RTVSPropertyOp26
 70
     0
102
RTVSPropertyOp27
 70
     0
102
RTVSPropertyOp28
 70
     1
102
RTVSPropertyOp29
 70
     1
102
RTVSPropertyOp30
 70
     1
102
RTVSPropertyOp31
 70
     1
102
RTVSPropertyOp32
 70
     1
102
RTVSPropertyOp33
 70
     1
102
RTVSPropertyOp34
 70
     1
102
RTVSPropertyOp35
 70
     1
102
RTVSPropertyOp36
 70
     1
102
RTVSPropertyOp37
 70
     0
102
RTVSPropertyOp38
 70
     0
102
RTVSPropertyOp39
 70
     0
102
RTVSPropertyOp40
 70
     0
102
RTVSPropertyOp41
 70
     0
102
RTVSPropertyOp42
 70
     0
102
RTVSPropertyOp43
 70
     0
102
RTVSPropertyOp44
 70
     0
102
RTVSPropertyOp45
 70
     1
102
RTVSPropertyOp46
 70
     0
102
RTVSPropertyOp47
 70
     0
102
RTVSPropertyOp48
 70
     0
102
RTVSPropertyOp49
 70
     1
102
RTVSPropertyOp50
 70
     0
102
RTVSPropertyOp51
 70
     0
102
RTVSPropertyOp52
 70
     0
102
RTVSPropertyOp53
 70
     0
102
RTVSPropertyOp54
 70
     0
102
RTVSPropertyOp55
 70
     1
102
RTVSPropertyOp56
 70
     0
102
RTVSPropertyOp57
 70
     0
102
RTVSPropertyOp58
 70
     0
102
RTVSPropertyOp59
 70
     0
102
RTVSPropertyOp60
 70
     0
102
RTVSPropertyOp61
 70
     0
102
RTVSPropertyOp62
 70
     0
  0
XRECORD
  5
838
102
{ACAD_REACTORS
330
837
102
}
330
837
100
AcDbXrecord
280
     1
102
RTVSPost2010Prop28
280
     0
102
RTVSPost2010PropOp28
 70
     1
102
RTVSPost2010Prop29
280
     1
102
RTVSPost2010PropOp29
 70
     1
102
RTVSPost2010Prop30
280
     1
102
RTVSPost2010PropOp30
 70
     1
102
RTVSPost2010Prop31
280
     0
102
RTVSPost2010PropOp31
 70
     1
102
RTVSPost2010Prop32
280
     0
102
RTVSPost2010PropOp32
 70
     1
102
RTVSPost2010Prop33
280
     0
102
RTVSPost2010PropOp33
 70
     1
102
RTVSPost2010Prop34
280
     0
102
RTVSPost2010PropOp34
 70
     1
102
RTVSPost2010Prop35
280
     0
102
RTVSPost2010PropOp35
 70
     1
102
RTVSPost2010Prop36
280
     0
102
RTVSPost2010PropOp36
 70
     1
102
RTVSPost2010Prop37
 90
       50
102
RTVSPost2010PropOp37
 70
     1
102
RTVSPost2010Prop38
140
0.0
102
RTVSPost2010PropOp38
 70
     1
102
RTVSPost2010Prop39
140
1.0
102
RTVSPost2010PropOp39
 70
     1
102
RTVSPost2010Prop40
 90
        0
102
RTVSPost2010PropOp40
 70
     1
102
RTVSPost2010Prop41ColorIndex
 90
       18
102
RTVSPost2010Prop41ColorRGB
 90
        0
102
RTVSPost2010PropOp41
 70
     1
102
RTVSPost2010Prop42
 90
       50
102
RTVSPost2010PropOp42
 70
     1
102
RTVSPost2010Prop43
 90
        3
102
RTVSPost2010PropOp43
 70
     1
102
RTVSPost2010Prop44ColorIndex
 90
        5
102
RTVSPost2010Prop44ColorRGB
 90
      255
102
RTVSPost2010PropOp44
 70
     1
102
RTVSPost2010Prop45
280
     0
102
RTVSPost2010PropOp45
 70
     1
102
RTVSPost2010Prop46
 90
       50
102
RTVSPost2010PropOp46
 70
     1
102
RTVSPost2010Prop47
 90
       50
102
RTVSPost2010PropOp47
 70
     1
102
RTVSPost2010Prop48
 90
       50
102
RTVSPost2010PropOp48
 70
     1
102
RTVSPost2010Prop49
280
     0
102
RTVSPost2010PropOp49
 70
     1
102
RTVSPost2010Prop50
 90
       50
102
RTVSPost2010PropOp50
 70
     1
102
RTVSPost2010Prop51ColorIndex
 90
      256
102
RTVSPost2010Prop51ColorRGB
 90
-16777216
102
RTVSPost2010PropOp51
 70
     0
102
RTVSPost2010Prop52
140
1.0
102
RTVSPost2010PropOp52
 70
     0
102
RTVSPost2010Prop53
 90
        2
102
RTVSPost2010PropOp53
 70
     1
102
RTVSPost2010Prop54
  1
strokes_ogs.tif
102
RTVSPost2010PropOp54
 70
     1
102
RTVSPost2010Prop55
280
     0
102
RTVSPost2010PropOp55
 70
     1
102
RTVSPost2010Prop56
140
1.0
102
RTVSPost2010PropOp56
 70
     1
102
RTVSPost2010Prop57
140
1.0
102
RTVSPost2010PropOp57
 70
     1
102
RTVSPropertyOp0
 70
     1
102
RTVSPropertyOp1
 70
     1
102
RTVSPropertyOp2
 70
     1
102
RTVSPropertyOp3
 70
     1
102
RTVSPropertyOp4
 70
     1
102
RTVSPropertyOp5
 70
     1
102
RTVSPropertyOp6
 70
     1
102
RTVSPropertyOp7
 70
     1
102
RTVSPropertyOp8
 70
     1
102
RTVSPropertyOp9
 70
     1
102
RTVSPropertyOp10
 70
     1
102
RTVSPropertyOp11
 70
     1
102
RTVSPropertyOp12
 70
     1
102
RTVSPropertyOp13
 70
     1
102
RTVSPropertyOp14
 70
     1
102
RTVSPropertyOp15
 70
     1
102
RTVSPropertyOp16
 70
     1
102
RTVSPropertyOp17
 70
     1
102
RTVSPropertyOp18
 70
     1
102
RTVSPropertyOp19
 70
     1
102
RTVSPropertyOp20
 70
     1
102
RTVSPropertyOp21
 70
     1
102
RTVSPropertyOp22
 70
     1
102
RTVSPropertyOp23
 70
     1
102
RTVSPropertyOp24
 70
     1
102
RTVSPropertyOp25
 70
     1
102
RTVSPropertyOp26
 70
     1
102
RTVSPropertyOp27
 70
     1
102
RTVSPropertyOp28
 70
     1
102
RTVSPropertyOp29
 70
     1
102
RTVSPropertyOp30
 70
     1
102
RTVSPropertyOp31
 70
     1
102
RTVSPropertyOp32
 70
     1
102
RTVSPropertyOp33
 70
     1
102
RTVSPropertyOp34
 70
     1
102
RTVSPropertyOp35
 70
     1
102
RTVSPropertyOp36
 70
     1
102
RTVSPropertyOp37
 70
     1
102
RTVSPropertyOp38
 70
     1
102
RTVSPropertyOp39
 70
     1
102
RTVSPropertyOp40
 70
     1
102
RTVSPropertyOp41
 70
     1
102
RTVSPropertyOp42
 70
     1
102
RTVSPropertyOp43
 70
     1
102
RTVSPropertyOp44
 70
     1
102
RTVSPropertyOp45
 70
     1
102
RTVSPropertyOp46
 70
     1
102
RTVSPropertyOp47
 70
     1
102
RTVSPropertyOp48
 70
     1
102
RTVSPropertyOp49
 70
     1
102
RTVSPropertyOp50
 70
     1
102
RTVSPropertyOp51
 70
     0
102
RTVSPropertyOp52
 70
     0
102
RTVSPropertyOp53
 70
     1
102
RTVSPropertyOp54
 70
     1
102
RTVSPropertyOp55
 70
     1
102
RTVSPropertyOp56
 70
     1
102
RTVSPropertyOp57
 70
     1
102
RTVSPropertyOp58
 70
     1
102
RTVSPropertyOp59
 70
     1
102
RTVSPropertyOp60
 70
     1
102
RTVSPropertyOp61
 70
     1
102
RTVSPropertyOp62
 70
     1
  0
XRECORD
  5
84E
102
{ACAD_REACTORS
330
84D
102
}
330
84D
100
AcDbXrecord
280
     1
102
RTVSPost2010Prop28
280
     0
102
RTVSPost2010PropOp28
 70
     1
102
RTVSPost2010Prop29
280
     1
102
RTVSPost2010PropOp29
 70
     1
102
RTVSPost2010Prop30
280
     1
102
RTVSPost2010PropOp30
 70
     1
102
RTVSPost2010Prop31
280
     0
102
RTVSPost2010PropOp31
 70
     1
102
RTVSPost2010Prop32
280
     0
102
RTVSPost2010PropOp32
 70
     1
102
RTVSPost2010Prop33
280
     0
102
RTVSPost2010PropOp33
 70
     1
102
RTVSPost2010Prop34
280
     0
102
RTVSPost2010PropOp34
 70
     1
102
RTVSPost2010Prop35
280
     0
102
RTVSPost2010PropOp35
 70
     1
102
RTVSPost2010Prop36
280
     0
102
RTVSPost2010PropOp36
 70
     1
102
RTVSPost2010Prop37
 90
       50
102
RTVSPost2010PropOp37
 70
     1
102
RTVSPost2010Prop38
140
0.0
102
RTVSPost2010PropOp38
 70
     1
102
RTVSPost2010Prop39
140
1.0
102
RTVSPost2010PropOp39
 70
     1
102
RTVSPost2010Prop40
 90
        0
102
RTVSPost2010PropOp40
 70
     1
102
RTVSPost2010Prop41ColorIndex
 90
       18
102
RTVSPost2010Prop41ColorRGB
 90
        0
102
RTVSPost2010PropOp41
 70
     1
102
RTVSPost2010Prop42
 90
       50
102
RTVSPost2010PropOp42
 70
     1
102
RTVSPost2010Prop43
 90
        3
102
RTVSPost2010PropOp43
 70
     1
102
RTVSPost2010Prop44ColorIndex
 90
        5
102
RTVSPost2010Prop44ColorRGB
 90
      255
102
RTVSPost2010PropOp44
 70
     1
102
RTVSPost2010Prop45
280
     0
102
RTVSPost2010PropOp45
 70
     1
102
RTVSPost2010Prop46
 90
       50
102
RTVSPost2010PropOp46
 70
     1
102
RTVSPost2010Prop47
 90
       50
102
RTVSPost2010PropOp47
 70
     1
102
RTVSPost2010Prop48
 90
       50
102
RTVSPost2010PropOp48
 70
     1
102
RTVSPost2010Prop49
280
     0
102
RTVSPost2010PropOp49
 70
     1
102
RTVSPost2010Prop50
 90
       50
102
RTVSPost2010PropOp50
 70
     1
102
RTVSPost2010Prop51ColorIndex
 90
      256
102
RTVSPost2010Prop51ColorRGB
 90
-16777216
102
RTVSPost2010PropOp51
 70
     0
102
RTVSPost2010Prop52
140
1.0
102
RTVSPost2010PropOp52
 70
     0
102
RTVSPost2010Prop53
 90
        2
102
RTVSPost2010PropOp53
 70
     1
102
RTVSPost2010Prop54
  1
strokes_ogs.tif
102
RTVSPost2010PropOp54
 70
     1
102
RTVSPost2010Prop55
280
     0
102
RTVSPost2010PropOp55
 70
     1
102
RTVSPost2010Prop56
140
1.0
102
RTVSPost2010PropOp56
 70
     1
102
RTVSPost2010Prop57
140
1.0
102
RTVSPost2010PropOp57
 70
     1
102
RTVSPropertyOp0
 70
     1
102
RTVSPropertyOp1
 70
     1
102
RTVSPropertyOp2
 70
     1
102
RTVSPropertyOp3
 70
     1
102
RTVSPropertyOp4
 70
     1
102
RTVSPropertyOp5
 70
     1
102
RTVSPropertyOp6
 70
     1
102
RTVSPropertyOp7
 70
     1
102
RTVSPropertyOp8
 70
     1
102
RTVSPropertyOp9
 70
     1
102
RTVSPropertyOp10
 70
     1
102
RTVSPropertyOp11
 70
     1
102
RTVSPropertyOp12
 70
     1
102
RTVSPropertyOp13
 70
     1
102
RTVSPropertyOp14
 70
     1
102
RTVSPropertyOp15
 70
     1
102
RTVSPropertyOp16
 70
     1
102
RTVSPropertyOp17
 70
     1
102
RTVSPropertyOp18
 70
     1
102
RTVSPropertyOp19
 70
     1
102
RTVSPropertyOp20
 70
     1
102
RTVSPropertyOp21
 70
     1
102
RTVSPropertyOp22
 70
     1
102
RTVSPropertyOp23
 70
     1
102
RTVSPropertyOp24
 70
     1
102
RTVSPropertyOp25
 70
     1
102
RTVSPropertyOp26
 70
     1
102
RTVSPropertyOp27
 70
     1
102
RTVSPropertyOp28
 70
     1
102
RTVSPropertyOp29
 70
     1
102
RTVSPropertyOp30
 70
     1
102
RTVSPropertyOp31
 70
     1
102
RTVSPropertyOp32
 70
     1
102
RTVSPropertyOp33
 70
     1
102
RTVSPropertyOp34
 70
     1
102
RTVSPropertyOp35
 70
     1
102
RTVSPropertyOp36
 70
     1
102
RTVSPropertyOp37
 70
     1
102
RTVSPropertyOp38
 70
     1
102
RTVSPropertyOp39
 70
     1
102
RTVSPropertyOp40
 70
     1
102
RTVSPropertyOp41
 70
     1
102
RTVSPropertyOp42
 70
     1
102
RTVSPropertyOp43
 70
     1
102
RTVSPropertyOp44
 70
     1
102
RTVSPropertyOp45
 70
     1
102
RTVSPropertyOp46
 70
     1
102
RTVSPropertyOp47
 70
     1
102
RTVSPropertyOp48
 70
     1
102
RTVSPropertyOp49
 70
     1
102
RTVSPropertyOp50
 70
     1
102
RTVSPropertyOp51
 70
     0
102
RTVSPropertyOp52
 70
     0
102
RTVSPropertyOp53
 70
     1
102
RTVSPropertyOp54
 70
     1
102
RTVSPropertyOp55
 70
     1
102
RTVSPropertyOp56
 70
     1
102
RTVSPropertyOp57
 70
     1
102
RTVSPropertyOp58
 70
     1
102
RTVSPropertyOp59
 70
     1
102
RTVSPropertyOp60
 70
     1
102
RTVSPropertyOp61
 70
     1
102
RTVSPropertyOp62
 70
     1
  0
XRECORD
  5
84C
102
{ACAD_REACTORS
330
84B
102
}
330
84B
100
AcDbXrecord
280
     1
102
RTVSPost2010Prop28
280
     0
102
RTVSPost2010PropOp28
 70
     1
102
RTVSPost2010Prop29
280
     1
102
RTVSPost2010PropOp29
 70
     1
102
RTVSPost2010Prop30
280
     1
102
RTVSPost2010PropOp30
 70
     1
102
RTVSPost2010Prop31
280
     0
102
RTVSPost2010PropOp31
 70
     1
102
RTVSPost2010Prop32
280
     0
102
RTVSPost2010PropOp32
 70
     1
102
RTVSPost2010Prop33
280
     0
102
RTVSPost2010PropOp33
 70
     1
102
RTVSPost2010Prop34
280
     0
102
RTVSPost2010PropOp34
 70
     1
102
RTVSPost2010Prop35
280
     0
102
RTVSPost2010PropOp35
 70
     1
102
RTVSPost2010Prop36
280
     0
102
RTVSPost2010PropOp36
 70
     1
102
RTVSPost2010Prop37
 90
       50
102
RTVSPost2010PropOp37
 70
     1
102
RTVSPost2010Prop38
140
0.0
102
RTVSPost2010PropOp38
 70
     1
102
RTVSPost2010Prop39
140
1.0
102
RTVSPost2010PropOp39
 70
     1
102
RTVSPost2010Prop40
 90
        0
102
RTVSPost2010PropOp40
 70
     1
102
RTVSPost2010Prop41ColorIndex
 90
       18
102
RTVSPost2010Prop41ColorRGB
 90
        0
102
RTVSPost2010PropOp41
 70
     1
102
RTVSPost2010Prop42
 90
       50
102
RTVSPost2010PropOp42
 70
     1
102
RTVSPost2010Prop43
 90
        3
102
RTVSPost2010PropOp43
 70
     1
102
RTVSPost2010Prop44ColorIndex
 90
        5
102
RTVSPost2010Prop44ColorRGB
 90
      255
102
RTVSPost2010PropOp44
 70
     1
102
RTVSPost2010Prop45
280
     0
102
RTVSPost2010PropOp45
 70
     1
102
RTVSPost2010Prop46
 90
       50
102
RTVSPost2010PropOp46
 70
     1
102
RTVSPost2010Prop47
 90
       50
102
RTVSPost2010PropOp47
 70
     1
102
RTVSPost2010Prop48
 90
       50
102
RTVSPost2010PropOp48
 70
     1
102
RTVSPost2010Prop49
280
     0
102
RTVSPost2010PropOp49
 70
     1
102
RTVSPost2010Prop50
 90
       50
102
RTVSPost2010PropOp50
 70
     1
102
RTVSPost2010Prop51ColorIndex
 90
      256
102
RTVSPost2010Prop51ColorRGB
 90
-16777216
102
RTVSPost2010PropOp51
 70
     0
102
RTVSPost2010Prop52
140
1.0
102
RTVSPost2010PropOp52
 70
     0
102
RTVSPost2010Prop53
 90
        2
102
RTVSPost2010PropOp53
 70
     1
102
RTVSPost2010Prop54
  1
strokes_ogs.tif
102
RTVSPost2010PropOp54
 70
     1
102
RTVSPost2010Prop55
280
     0
102
RTVSPost2010PropOp55
 70
     1
102
RTVSPost2010Prop56
140
1.0
102
RTVSPost2010PropOp56
 70
     1
102
RTVSPost2010Prop57
140
1.0
102
RTVSPost2010PropOp57
 70
     1
102
RTVSPropertyOp0
 70
     1
102
RTVSPropertyOp1
 70
     1
102
RTVSPropertyOp2
 70
     1
102
RTVSPropertyOp3
 70
     1
102
RTVSPropertyOp4
 70
     1
102
RTVSPropertyOp5
 70
     1
102
RTVSPropertyOp6
 70
     1
102
RTVSPropertyOp7
 70
     1
102
RTVSPropertyOp8
 70
     1
102
RTVSPropertyOp9
 70
     1
102
RTVSPropertyOp10
 70
     1
102
RTVSPropertyOp11
 70
     1
102
RTVSPropertyOp12
 70
     1
102
RTVSPropertyOp13
 70
     1
102
RTVSPropertyOp14
 70
     1
102
RTVSPropertyOp15
 70
     1
102
RTVSPropertyOp16
 70
     1
102
RTVSPropertyOp17
 70
     1
102
RTVSPropertyOp18
 70
     1
102
RTVSPropertyOp19
 70
     1
102
RTVSPropertyOp20
 70
     1
102
RTVSPropertyOp21
 70
     1
102
RTVSPropertyOp22
 70
     1
102
RTVSPropertyOp23
 70
     1
102
RTVSPropertyOp24
 70
     1
102
RTVSPropertyOp25
 70
     1
102
RTVSPropertyOp26
 70
     1
102
RTVSPropertyOp27
 70
     1
102
RTVSPropertyOp28
 70
     1
102
RTVSPropertyOp29
 70
     1
102
RTVSPropertyOp30
 70
     1
102
RTVSPropertyOp31
 70
     1
102
RTVSPropertyOp32
 70
     1
102
RTVSPropertyOp33
 70
     1
102
RTVSPropertyOp34
 70
     1
102
RTVSPropertyOp35
 70
     1
102
RTVSPropertyOp36
 70
     1
102
RTVSPropertyOp37
 70
     1
102
RTVSPropertyOp38
 70
     1
102
RTVSPropertyOp39
 70
     1
102
RTVSPropertyOp40
 70
     1
102
RTVSPropertyOp41
 70
     1
102
RTVSPropertyOp42
 70
     1
102
RTVSPropertyOp43
 70
     1
102
RTVSPropertyOp44
 70
     1
102
RTVSPropertyOp45
 70
     1
102
RTVSPropertyOp46
 70
     1
102
RTVSPropertyOp47
 70
     1
102
RTVSPropertyOp48
 70
     1
102
RTVSPropertyOp49
 70
     1
102
RTVSPropertyOp50
 70
     1
102
RTVSPropertyOp51
 70
     0
102
RTVSPropertyOp52
 70
     0
102
RTVSPropertyOp53
 70
     1
102
RTVSPropertyOp54
 70
     1
102
RTVSPropertyOp55
 70
     1
102
RTVSPropertyOp56
 70
     1
102
RTVSPropertyOp57
 70
     1
102
RTVSPropertyOp58
 70
     1
102
RTVSPropertyOp59
 70
     1
102
RTVSPropertyOp60
 70
     1
102
RTVSPropertyOp61
 70
     1
102
RTVSPropertyOp62
 70
     1
  0
XRECORD
  5
846
102
{ACAD_REACTORS
330
845
102
}
330
845
100
AcDbXrecord
280
     1
102
RTVSPost2010Prop28
280
     0
102
RTVSPost2010PropOp28
 70
     1
102
RTVSPost2010Prop29
280
     1
102
RTVSPost2010PropOp29
 70
     1
102
RTVSPost2010Prop30
280
     1
102
RTVSPost2010PropOp30
 70
     1
102
RTVSPost2010Prop31
280
     0
102
RTVSPost2010PropOp31
 70
     1
102
RTVSPost2010Prop32
280
     0
102
RTVSPost2010PropOp32
 70
     1
102
RTVSPost2010Prop33
280
     0
102
RTVSPost2010PropOp33
 70
     1
102
RTVSPost2010Prop34
280
     0
102
RTVSPost2010PropOp34
 70
     1
102
RTVSPost2010Prop35
280
     0
102
RTVSPost2010PropOp35
 70
     1
102
RTVSPost2010Prop36
280
     0
102
RTVSPost2010PropOp36
 70
     1
102
RTVSPost2010Prop37
 90
       50
102
RTVSPost2010PropOp37
 70
     1
102
RTVSPost2010Prop38
140
0.0
102
RTVSPost2010PropOp38
 70
     1
102
RTVSPost2010Prop39
140
1.0
102
RTVSPost2010PropOp39
 70
     1
102
RTVSPost2010Prop40
 90
        0
102
RTVSPost2010PropOp40
 70
     1
102
RTVSPost2010Prop41ColorIndex
 90
       18
102
RTVSPost2010Prop41ColorRGB
 90
        0
102
RTVSPost2010PropOp41
 70
     1
102
RTVSPost2010Prop42
 90
       50
102
RTVSPost2010PropOp42
 70
     1
102
RTVSPost2010Prop43
 90
        3
102
RTVSPost2010PropOp43
 70
     1
102
RTVSPost2010Prop44ColorIndex
 90
        5
102
RTVSPost2010Prop44ColorRGB
 90
      255
102
RTVSPost2010PropOp44
 70
     1
102
RTVSPost2010Prop45
280
     0
102
RTVSPost2010PropOp45
 70
     1
102
RTVSPost2010Prop46
 90
       50
102
RTVSPost2010PropOp46
 70
     1
102
RTVSPost2010Prop47
 90
       50
102
RTVSPost2010PropOp47
 70
     1
102
RTVSPost2010Prop48
 90
       50
102
RTVSPost2010PropOp48
 70
     1
102
RTVSPost2010Prop49
280
     0
102
RTVSPost2010PropOp49
 70
     1
102
RTVSPost2010Prop50
 90
       50
102
RTVSPost2010PropOp50
 70
     1
102
RTVSPost2010Prop51ColorIndex
 90
      256
102
RTVSPost2010Prop51ColorRGB
 90
-16777216
102
RTVSPost2010PropOp51
 70
     0
102
RTVSPost2010Prop52
140
1.0
102
RTVSPost2010PropOp52
 70
     0
102
RTVSPost2010Prop53
 90
        2
102
RTVSPost2010PropOp53
 70
     1
102
RTVSPost2010Prop54
  1
strokes_ogs.tif
102
RTVSPost2010PropOp54
 70
     1
102
RTVSPost2010Prop55
280
     0
102
RTVSPost2010PropOp55
 70
     1
102
RTVSPost2010Prop56
140
1.0
102
RTVSPost2010PropOp56
 70
     1
102
RTVSPost2010Prop57
140
1.0
102
RTVSPost2010PropOp57
 70
     1
102
RTVSPropertyOp0
 70
     1
102
RTVSPropertyOp1
 70
     1
102
RTVSPropertyOp2
 70
     1
102
RTVSPropertyOp3
 70
     1
102
RTVSPropertyOp4
 70
     1
102
RTVSPropertyOp5
 70
     1
102
RTVSPropertyOp6
 70
     1
102
RTVSPropertyOp7
 70
     1
102
RTVSPropertyOp8
 70
     1
102
RTVSPropertyOp9
 70
     1
102
RTVSPropertyOp10
 70
     1
102
RTVSPropertyOp11
 70
     1
102
RTVSPropertyOp12
 70
     1
102
RTVSPropertyOp13
 70
     1
102
RTVSPropertyOp14
 70
     1
102
RTVSPropertyOp15
 70
     1
102
RTVSPropertyOp16
 70
     1
102
RTVSPropertyOp17
 70
     1
102
RTVSPropertyOp18
 70
     1
102
RTVSPropertyOp19
 70
     1
102
RTVSPropertyOp20
 70
     1
102
RTVSPropertyOp21
 70
     1
102
RTVSPropertyOp22
 70
     1
102
RTVSPropertyOp23
 70
     1
102
RTVSPropertyOp24
 70
     1
102
RTVSPropertyOp25
 70
     1
102
RTVSPropertyOp26
 70
     1
102
RTVSPropertyOp27
 70
     1
102
RTVSPropertyOp28
 70
     1
102
RTVSPropertyOp29
 70
     1
102
RTVSPropertyOp30
 70
     1
102
RTVSPropertyOp31
 70
     1
102
RTVSPropertyOp32
 70
     1
102
RTVSPropertyOp33
 70
     1
102
RTVSPropertyOp34
 70
     1
102
RTVSPropertyOp35
 70
     1
102
RTVSPropertyOp36
 70
     1
102
RTVSPropertyOp37
 70
     1
102
RTVSPropertyOp38
 70
     1
102
RTVSPropertyOp39
 70
     1
102
RTVSPropertyOp40
 70
     1
102
RTVSPropertyOp41
 70
     1
102
RTVSPropertyOp42
 70
     1
102
RTVSPropertyOp43
 70
     1
102
RTVSPropertyOp44
 70
     1
102
RTVSPropertyOp45
 70
     1
102
RTVSPropertyOp46
 70
     1
102
RTVSPropertyOp47
 70
     1
102
RTVSPropertyOp48
 70
     1
102
RTVSPropertyOp49
 70
     1
102
RTVSPropertyOp50
 70
     1
102
RTVSPropertyOp51
 70
     0
102
RTVSPropertyOp52
 70
     0
102
RTVSPropertyOp53
 70
     1
102
RTVSPropertyOp54
 70
     1
102
RTVSPropertyOp55
 70
     1
102
RTVSPropertyOp56
 70
     1
102
RTVSPropertyOp57
 70
     1
102
RTVSPropertyOp58
 70
     1
102
RTVSPropertyOp59
 70
     1
102
RTVSPropertyOp60
 70
     1
102
RTVSPropertyOp61
 70
     1
102
RTVSPropertyOp62
 70
     1
  0
XRECORD
  5
848
102
{ACAD_REACTORS
330
847
102
}
330
847
100
AcDbXrecord
280
     1
102
RTVSPost2010Prop28
280
     0
102
RTVSPost2010PropOp28
 70
     1
102
RTVSPost2010Prop29
280
     1
102
RTVSPost2010PropOp29
 70
     1
102
RTVSPost2010Prop30
280
     1
102
RTVSPost2010PropOp30
 70
     1
102
RTVSPost2010Prop31
280
     0
102
RTVSPost2010PropOp31
 70
     1
102
RTVSPost2010Prop32
280
     0
102
RTVSPost2010PropOp32
 70
     1
102
RTVSPost2010Prop33
280
     0
102
RTVSPost2010PropOp33
 70
     1
102
RTVSPost2010Prop34
280
     0
102
RTVSPost2010PropOp34
 70
     1
102
RTVSPost2010Prop35
280
     0
102
RTVSPost2010PropOp35
 70
     1
102
RTVSPost2010Prop36
280
     0
102
RTVSPost2010PropOp36
 70
     1
102
RTVSPost2010Prop37
 90
       50
102
RTVSPost2010PropOp37
 70
     1
102
RTVSPost2010Prop38
140
0.0
102
RTVSPost2010PropOp38
 70
     1
102
RTVSPost2010Prop39
140
1.0
102
RTVSPost2010PropOp39
 70
     1
102
RTVSPost2010Prop40
 90
        0
102
RTVSPost2010PropOp40
 70
     1
102
RTVSPost2010Prop41ColorIndex
 90
       18
102
RTVSPost2010Prop41ColorRGB
 90
        0
102
RTVSPost2010PropOp41
 70
     1
102
RTVSPost2010Prop42
 90
       50
102
RTVSPost2010PropOp42
 70
     1
102
RTVSPost2010Prop43
 90
        3
102
RTVSPost2010PropOp43
 70
     1
102
RTVSPost2010Prop44ColorIndex
 90
        5
102
RTVSPost2010Prop44ColorRGB
 90
      255
102
RTVSPost2010PropOp44
 70
     1
102
RTVSPost2010Prop45
280
     0
102
RTVSPost2010PropOp45
 70
     1
102
RTVSPost2010Prop46
 90
       50
102
RTVSPost2010PropOp46
 70
     1
102
RTVSPost2010Prop47
 90
       50
102
RTVSPost2010PropOp47
 70
     1
102
RTVSPost2010Prop48
 90
       50
102
RTVSPost2010PropOp48
 70
     1
102
RTVSPost2010Prop49
280
     0
102
RTVSPost2010PropOp49
 70
     1
102
RTVSPost2010Prop50
 90
       50
102
RTVSPost2010PropOp50
 70
     1
102
RTVSPost2010Prop51ColorIndex
 90
      256
102
RTVSPost2010Prop51ColorRGB
 90
-16777216
102
RTVSPost2010PropOp51
 70
     0
102
RTVSPost2010Prop52
140
1.0
102
RTVSPost2010PropOp52
 70
     0
102
RTVSPost2010Prop53
 90
        2
102
RTVSPost2010PropOp53
 70
     1
102
RTVSPost2010Prop54
  1
strokes_ogs.tif
102
RTVSPost2010PropOp54
 70
     1
102
RTVSPost2010Prop55
280
     0
102
RTVSPost2010PropOp55
 70
     1
102
RTVSPost2010Prop56
140
1.0
102
RTVSPost2010PropOp56
 70
     1
102
RTVSPost2010Prop57
140
1.0
102
RTVSPost2010PropOp57
 70
     1
102
RTVSPropertyOp0
 70
     1
102
RTVSPropertyOp1
 70
     1
102
RTVSPropertyOp2
 70
     1
102
RTVSPropertyOp3
 70
     1
102
RTVSPropertyOp4
 70
     1
102
RTVSPropertyOp5
 70
     1
102
RTVSPropertyOp6
 70
     1
102
RTVSPropertyOp7
 70
     1
102
RTVSPropertyOp8
 70
     1
102
RTVSPropertyOp9
 70
     1
102
RTVSPropertyOp10
 70
     1
102
RTVSPropertyOp11
 70
     1
102
RTVSPropertyOp12
 70
     1
102
RTVSPropertyOp13
 70
     1
102
RTVSPropertyOp14
 70
     1
102
RTVSPropertyOp15
 70
     1
102
RTVSPropertyOp16
 70
     1
102
RTVSPropertyOp17
 70
     1
102
RTVSPropertyOp18
 70
     1
102
RTVSPropertyOp19
 70
     1
102
RTVSPropertyOp20
 70
     1
102
RTVSPropertyOp21
 70
     1
102
RTVSPropertyOp22
 70
     1
102
RTVSPropertyOp23
 70
     1
102
RTVSPropertyOp24
 70
     1
102
RTVSPropertyOp25
 70
     1
102
RTVSPropertyOp26
 70
     1
102
RTVSPropertyOp27
 70
     1
102
RTVSPropertyOp28
 70
     1
102
RTVSPropertyOp29
 70
     1
102
RTVSPropertyOp30
 70
     1
102
RTVSPropertyOp31
 70
     1
102
RTVSPropertyOp32
 70
     1
102
RTVSPropertyOp33
 70
     1
102
RTVSPropertyOp34
 70
     1
102
RTVSPropertyOp35
 70
     1
102
RTVSPropertyOp36
 70
     1
102
RTVSPropertyOp37
 70
     1
102
RTVSPropertyOp38
 70
     1
102
RTVSPropertyOp39
 70
     1
102
RTVSPropertyOp40
 70
     1
102
RTVSPropertyOp41
 70
     1
102
RTVSPropertyOp42
 70
     1
102
RTVSPropertyOp43
 70
     1
102
RTVSPropertyOp44
 70
     1
102
RTVSPropertyOp45
 70
     1
102
RTVSPropertyOp46
 70
     1
102
RTVSPropertyOp47
 70
     1
102
RTVSPropertyOp48
 70
     1
102
RTVSPropertyOp49
 70
     1
102
RTVSPropertyOp50
 70
     1
102
RTVSPropertyOp51
 70
     0
102
RTVSPropertyOp52
 70
     0
102
RTVSPropertyOp53
 70
     1
102
RTVSPropertyOp54
 70
     1
102
RTVSPropertyOp55
 70
     1
102
RTVSPropertyOp56
 70
     1
102
RTVSPropertyOp57
 70
     1
102
RTVSPropertyOp58
 70
     1
102
RTVSPropertyOp59
 70
     1
102
RTVSPropertyOp60
 70
     1
102
RTVSPropertyOp61
 70
     1
102
RTVSPropertyOp62
 70
     1
  0
XRECORD
  5
83E
102
{ACAD_REACTORS
330
83D
102
}
330
83D
100
AcDbXrecord
280
     1
102
RTVSPost2010Prop28
280
     0
102
RTVSPost2010PropOp28
 70
     1
102
RTVSPost2010Prop29
280
     1
102
RTVSPost2010PropOp29
 70
     1
102
RTVSPost2010Prop30
280
     1
102
RTVSPost2010PropOp30
 70
     1
102
RTVSPost2010Prop31
280
     0
102
RTVSPost2010PropOp31
 70
     1
102
RTVSPost2010Prop32
280
     0
102
RTVSPost2010PropOp32
 70
     1
102
RTVSPost2010Prop33
280
     0
102
RTVSPost2010PropOp33
 70
     1
102
RTVSPost2010Prop34
280
     0
102
RTVSPost2010PropOp34
 70
     1
102
RTVSPost2010Prop35
280
     0
102
RTVSPost2010PropOp35
 70
     1
102
RTVSPost2010Prop36
280
     0
102
RTVSPost2010PropOp36
 70
     1
102
RTVSPost2010Prop37
 90
       50
102
RTVSPost2010PropOp37
 70
     1
102
RTVSPost2010Prop38
140
0.0
102
RTVSPost2010PropOp38
 70
     1
102
RTVSPost2010Prop39
140
1.0
102
RTVSPost2010PropOp39
 70
     1
102
RTVSPost2010Prop40
 90
        0
102
RTVSPost2010PropOp40
 70
     1
102
RTVSPost2010Prop41ColorIndex
 90
       18
102
RTVSPost2010Prop41ColorRGB
 90
        0
102
RTVSPost2010PropOp41
 70
     1
102
RTVSPost2010Prop42
 90
       50
102
RTVSPost2010PropOp42
 70
     1
102
RTVSPost2010Prop43
 90
        3
102
RTVSPost2010PropOp43
 70
     1
102
RTVSPost2010Prop44ColorIndex
 90
        5
102
RTVSPost2010Prop44ColorRGB
 90
      255
102
RTVSPost2010PropOp44
 70
     1
102
RTVSPost2010Prop45
280
     0
102
RTVSPost2010PropOp45
 70
     1
102
RTVSPost2010Prop46
 90
       50
102
RTVSPost2010PropOp46
 70
     1
102
RTVSPost2010Prop47
 90
       50
102
RTVSPost2010PropOp47
 70
     1
102
RTVSPost2010Prop48
 90
       50
102
RTVSPost2010PropOp48
 70
     1
102
RTVSPost2010Prop49
280
     0
102
RTVSPost2010PropOp49
 70
     1
102
RTVSPost2010Prop50
 90
       50
102
RTVSPost2010PropOp50
 70
     1
102
RTVSPost2010Prop51ColorIndex
 90
      256
102
RTVSPost2010Prop51ColorRGB
 90
-16777216
102
RTVSPost2010PropOp51
 70
     0
102
RTVSPost2010Prop52
140
1.0
102
RTVSPost2010PropOp52
 70
     0
102
RTVSPost2010Prop53
 90
        2
102
RTVSPost2010PropOp53
 70
     1
102
RTVSPost2010Prop54
  1
strokes_ogs.tif
102
RTVSPost2010PropOp54
 70
     1
102
RTVSPost2010Prop55
280
     0
102
RTVSPost2010PropOp55
 70
     1
102
RTVSPost2010Prop56
140
1.0
102
RTVSPost2010PropOp56
 70
     1
102
RTVSPost2010Prop57
140
1.0
102
RTVSPost2010PropOp57
 70
     1
102
RTVSPropertyOp0
 70
     1
102
RTVSPropertyOp1
 70
     1
102
RTVSPropertyOp2
 70
     1
102
RTVSPropertyOp3
 70
     1
102
RTVSPropertyOp4
 70
     1
102
RTVSPropertyOp5
 70
     1
102
RTVSPropertyOp6
 70
     1
102
RTVSPropertyOp7
 70
     1
102
RTVSPropertyOp8
 70
     1
102
RTVSPropertyOp9
 70
     1
102
RTVSPropertyOp10
 70
     1
102
RTVSPropertyOp11
 70
     1
102
RTVSPropertyOp12
 70
     1
102
RTVSPropertyOp13
 70
     1
102
RTVSPropertyOp14
 70
     1
102
RTVSPropertyOp15
 70
     1
102
RTVSPropertyOp16
 70
     1
102
RTVSPropertyOp17
 70
     1
102
RTVSPropertyOp18
 70
     1
102
RTVSPropertyOp19
 70
     1
102
RTVSPropertyOp20
 70
     1
102
RTVSPropertyOp21
 70
     1
102
RTVSPropertyOp22
 70
     1
102
RTVSPropertyOp23
 70
     1
102
RTVSPropertyOp24
 70
     1
102
RTVSPropertyOp25
 70
     1
102
RTVSPropertyOp26
 70
     1
102
RTVSPropertyOp27
 70
     1
102
RTVSPropertyOp28
 70
     1
102
RTVSPropertyOp29
 70
     1
102
RTVSPropertyOp30
 70
     1
102
RTVSPropertyOp31
 70
     1
102
RTVSPropertyOp32
 70
     1
102
RTVSPropertyOp33
 70
     1
102
RTVSPropertyOp34
 70
     1
102
RTVSPropertyOp35
 70
     1
102
RTVSPropertyOp36
 70
     1
102
RTVSPropertyOp37
 70
     1
102
RTVSPropertyOp38
 70
     1
102
RTVSPropertyOp39
 70
     1
102
RTVSPropertyOp40
 70
     1
102
RTVSPropertyOp41
 70
     1
102
RTVSPropertyOp42
 70
     1
102
RTVSPropertyOp43
 70
     1
102
RTVSPropertyOp44
 70
     1
102
RTVSPropertyOp45
 70
     1
102
RTVSPropertyOp46
 70
     1
102
RTVSPropertyOp47
 70
     1
102
RTVSPropertyOp48
 70
     1
102
RTVSPropertyOp49
 70
     1
102
RTVSPropertyOp50
 70
     1
102
RTVSPropertyOp51
 70
     0
102
RTVSPropertyOp52
 70
     0
102
RTVSPropertyOp53
 70
     1
102
RTVSPropertyOp54
 70
     1
102
RTVSPropertyOp55
 70
     1
102
RTVSPropertyOp56
 70
     1
102
RTVSPropertyOp57
 70
     1
102
RTVSPropertyOp58
 70
     1
102
RTVSPropertyOp59
 70
     1
102
RTVSPropertyOp60
 70
     1
102
RTVSPropertyOp61
 70
     1
102
RTVSPropertyOp62
 70
     1
  0
XRECORD
  5
832
102
{ACAD_REACTORS
330
831
102
}
330
831
100
AcDbXrecord
280
     1
102
RTVSPost2010Prop28
280
     0
102
RTVSPost2010PropOp28
 70
     1
102
RTVSPost2010Prop29
280
     1
102
RTVSPost2010PropOp29
 70
     1
102
RTVSPost2010Prop30
280
     1
102
RTVSPost2010PropOp30
 70
     1
102
RTVSPost2010Prop31
280
     0
102
RTVSPost2010PropOp31
 70
     1
102
RTVSPost2010Prop32
280
     0
102
RTVSPost2010PropOp32
 70
     1
102
RTVSPost2010Prop33
280
     0
102
RTVSPost2010PropOp33
 70
     1
102
RTVSPost2010Prop34
280
     0
102
RTVSPost2010PropOp34
 70
     1
102
RTVSPost2010Prop35
280
     0
102
RTVSPost2010PropOp35
 70
     1
102
RTVSPost2010Prop36
280
     0
102
RTVSPost2010PropOp36
 70
     1
102
RTVSPost2010Prop37
 90
       50
102
RTVSPost2010PropOp37
 70
     1
102
RTVSPost2010Prop38
140
0.0
102
RTVSPost2010PropOp38
 70
     1
102
RTVSPost2010Prop39
140
1.0
102
RTVSPost2010PropOp39
 70
     1
102
RTVSPost2010Prop40
 90
        0
102
RTVSPost2010PropOp40
 70
     1
102
RTVSPost2010Prop41ColorIndex
 90
       18
102
RTVSPost2010Prop41ColorRGB
 90
        0
102
RTVSPost2010PropOp41
 70
     1
102
RTVSPost2010Prop42
 90
       50
102
RTVSPost2010PropOp42
 70
     1
102
RTVSPost2010Prop43
 90
        3
102
RTVSPost2010PropOp43
 70
     1
102
RTVSPost2010Prop44ColorIndex
 90
        5
102
RTVSPost2010Prop44ColorRGB
 90
      255
102
RTVSPost2010PropOp44
 70
     1
102
RTVSPost2010Prop45
280
     0
102
RTVSPost2010PropOp45
 70
     1
102
RTVSPost2010Prop46
 90
       50
102
RTVSPost2010PropOp46
 70
     1
102
RTVSPost2010Prop47
 90
       50
102
RTVSPost2010PropOp47
 70
     1
102
RTVSPost2010Prop48
 90
       50
102
RTVSPost2010PropOp48
 70
     1
102
RTVSPost2010Prop49
280
     0
102
RTVSPost2010PropOp49
 70
     1
102
RTVSPost2010Prop50
 90
       50
102
RTVSPost2010PropOp50
 70
     1
102
RTVSPost2010Prop51ColorIndex
 90
      256
102
RTVSPost2010Prop51ColorRGB
 90
-16777216
102
RTVSPost2010PropOp51
 70
     0
102
RTVSPost2010Prop52
140
1.0
102
RTVSPost2010PropOp52
 70
     0
102
RTVSPost2010Prop53
 90
        2
102
RTVSPost2010PropOp53
 70
     1
102
RTVSPost2010Prop54
  1
strokes_ogs.tif
102
RTVSPost2010PropOp54
 70
     1
102
RTVSPost2010Prop55
280
     0
102
RTVSPost2010PropOp55
 70
     1
102
RTVSPost2010Prop56
140
1.0
102
RTVSPost2010PropOp56
 70
     1
102
RTVSPost2010Prop57
140
1.0
102
RTVSPost2010PropOp57
 70
     1
102
RTVSPropertyOp0
 70
     1
102
RTVSPropertyOp1
 70
     1
102
RTVSPropertyOp2
 70
     1
102
RTVSPropertyOp3
 70
     1
102
RTVSPropertyOp4
 70
     1
102
RTVSPropertyOp5
 70
     1
102
RTVSPropertyOp6
 70
     1
102
RTVSPropertyOp7
 70
     1
102
RTVSPropertyOp8
 70
     1
102
RTVSPropertyOp9
 70
     1
102
RTVSPropertyOp10
 70
     1
102
RTVSPropertyOp11
 70
     1
102
RTVSPropertyOp12
 70
     1
102
RTVSPropertyOp13
 70
     1
102
RTVSPropertyOp14
 70
     1
102
RTVSPropertyOp15
 70
     1
102
RTVSPropertyOp16
 70
     1
102
RTVSPropertyOp17
 70
     1
102
RTVSPropertyOp18
 70
     1
102
RTVSPropertyOp19
 70
     1
102
RTVSPropertyOp20
 70
     1
102
RTVSPropertyOp21
 70
     1
102
RTVSPropertyOp22
 70
     1
102
RTVSPropertyOp23
 70
     1
102
RTVSPropertyOp24
 70
     1
102
RTVSPropertyOp25
 70
     1
102
RTVSPropertyOp26
 70
     1
102
RTVSPropertyOp27
 70
     1
102
RTVSPropertyOp28
 70
     1
102
RTVSPropertyOp29
 70
     1
102
RTVSPropertyOp30
 70
     1
102
RTVSPropertyOp31
 70
     1
102
RTVSPropertyOp32
 70
     1
102
RTVSPropertyOp33
 70
     1
102
RTVSPropertyOp34
 70
     1
102
RTVSPropertyOp35
 70
     1
102
RTVSPropertyOp36
 70
     1
102
RTVSPropertyOp37
 70
     1
102
RTVSPropertyOp38
 70
     1
102
RTVSPropertyOp39
 70
     1
102
RTVSPropertyOp40
 70
     1
102
RTVSPropertyOp41
 70
     1
102
RTVSPropertyOp42
 70
     1
102
RTVSPropertyOp43
 70
     1
102
RTVSPropertyOp44
 70
     1
102
RTVSPropertyOp45
 70
     1
102
RTVSPropertyOp46
 70
     1
102
RTVSPropertyOp47
 70
     1
102
RTVSPropertyOp48
 70
     1
102
RTVSPropertyOp49
 70
     1
102
RTVSPropertyOp50
 70
     1
102
RTVSPropertyOp51
 70
     0
102
RTVSPropertyOp52
 70
     0
102
RTVSPropertyOp53
 70
     1
102
RTVSPropertyOp54
 70
     1
102
RTVSPropertyOp55
 70
     1
102
RTVSPropertyOp56
 70
     1
102
RTVSPropertyOp57
 70
     1
102
RTVSPropertyOp58
 70
     1
102
RTVSPropertyOp59
 70
     1
102
RTVSPropertyOp60
 70
     1
102
RTVSPropertyOp61
 70
     1
102
RTVSPropertyOp62
 70
     1
  0
XRECORD
  5
84A
102
{ACAD_REACTORS
330
849
102
}
330
849
100
AcDbXrecord
280
     1
102
RTVSPost2010Prop28
280
     0
102
RTVSPost2010PropOp28
 70
     1
102
RTVSPost2010Prop29
280
     1
102
RTVSPost2010PropOp29
 70
     1
102
RTVSPost2010Prop30
280
     1
102
RTVSPost2010PropOp30
 70
     1
102
RTVSPost2010Prop31
280
     0
102
RTVSPost2010PropOp31
 70
     1
102
RTVSPost2010Prop32
280
     0
102
RTVSPost2010PropOp32
 70
     1
102
RTVSPost2010Prop33
280
     0
102
RTVSPost2010PropOp33
 70
     1
102
RTVSPost2010Prop34
280
     0
102
RTVSPost2010PropOp34
 70
     1
102
RTVSPost2010Prop35
280
     0
102
RTVSPost2010PropOp35
 70
     1
102
RTVSPost2010Prop36
280
     0
102
RTVSPost2010PropOp36
 70
     1
102
RTVSPost2010Prop37
 90
       50
102
RTVSPost2010PropOp37
 70
     1
102
RTVSPost2010Prop38
140
0.0
102
RTVSPost2010PropOp38
 70
     1
102
RTVSPost2010Prop39
140
1.0
102
RTVSPost2010PropOp39
 70
     1
102
RTVSPost2010Prop40
 90
        0
102
RTVSPost2010PropOp40
 70
     1
102
RTVSPost2010Prop41ColorIndex
 90
       18
102
RTVSPost2010Prop41ColorRGB
 90
        0
102
RTVSPost2010PropOp41
 70
     1
102
RTVSPost2010Prop42
 90
       50
102
RTVSPost2010PropOp42
 70
     1
102
RTVSPost2010Prop43
 90
        3
102
RTVSPost2010PropOp43
 70
     1
102
RTVSPost2010Prop44ColorIndex
 90
        5
102
RTVSPost2010Prop44ColorRGB
 90
      255
102
RTVSPost2010PropOp44
 70
     1
102
RTVSPost2010Prop45
280
     0
102
RTVSPost2010PropOp45
 70
     1
102
RTVSPost2010Prop46
 90
       50
102
RTVSPost2010PropOp46
 70
     1
102
RTVSPost2010Prop47
 90
       50
102
RTVSPost2010PropOp47
 70
     1
102
RTVSPost2010Prop48
 90
       50
102
RTVSPost2010PropOp48
 70
     1
102
RTVSPost2010Prop49
280
     0
102
RTVSPost2010PropOp49
 70
     1
102
RTVSPost2010Prop50
 90
       50
102
RTVSPost2010PropOp50
 70
     1
102
RTVSPost2010Prop51ColorIndex
 90
      256
102
RTVSPost2010Prop51ColorRGB
 90
-16777216
102
RTVSPost2010PropOp51
 70
     0
102
RTVSPost2010Prop52
140
1.0
102
RTVSPost2010PropOp52
 70
     0
102
RTVSPost2010Prop53
 90
        2
102
RTVSPost2010PropOp53
 70
     1
102
RTVSPost2010Prop54
  1
strokes_ogs.tif
102
RTVSPost2010PropOp54
 70
     1
102
RTVSPost2010Prop55
280
     0
102
RTVSPost2010PropOp55
 70
     1
102
RTVSPost2010Prop56
140
1.0
102
RTVSPost2010PropOp56
 70
     1
102
RTVSPost2010Prop57
140
1.0
102
RTVSPost2010PropOp57
 70
     1
102
RTVSPropertyOp0
 70
     1
102
RTVSPropertyOp1
 70
     1
102
RTVSPropertyOp2
 70
     1
102
RTVSPropertyOp3
 70
     1
102
RTVSPropertyOp4
 70
     1
102
RTVSPropertyOp5
 70
     1
102
RTVSPropertyOp6
 70
     1
102
RTVSPropertyOp7
 70
     1
102
RTVSPropertyOp8
 70
     1
102
RTVSPropertyOp9
 70
     1
102
RTVSPropertyOp10
 70
     1
102
RTVSPropertyOp11
 70
     1
102
RTVSPropertyOp12
 70
     1
102
RTVSPropertyOp13
 70
     1
102
RTVSPropertyOp14
 70
     1
102
RTVSPropertyOp15
 70
     1
102
RTVSPropertyOp16
 70
     1
102
RTVSPropertyOp17
 70
     1
102
RTVSPropertyOp18
 70
     1
102
RTVSPropertyOp19
 70
     1
102
RTVSPropertyOp20
 70
     1
102
RTVSPropertyOp21
 70
     1
102
RTVSPropertyOp22
 70
     1
102
RTVSPropertyOp23
 70
     1
102
RTVSPropertyOp24
 70
     1
102
RTVSPropertyOp25
 70
     1
102
RTVSPropertyOp26
 70
     1
102
RTVSPropertyOp27
 70
     1
102
RTVSPropertyOp28
 70
     1
102
RTVSPropertyOp29
 70
     1
102
RTVSPropertyOp30
 70
     1
102
RTVSPropertyOp31
 70
     1
102
RTVSPropertyOp32
 70
     1
102
RTVSPropertyOp33
 70
     1
102
RTVSPropertyOp34
 70
     1
102
RTVSPropertyOp35
 70
     1
102
RTVSPropertyOp36
 70
     1
102
RTVSPropertyOp37
 70
     1
102
RTVSPropertyOp38
 70
     1
102
RTVSPropertyOp39
 70
     1
102
RTVSPropertyOp40
 70
     1
102
RTVSPropertyOp41
 70
     1
102
RTVSPropertyOp42
 70
     1
102
RTVSPropertyOp43
 70
     1
102
RTVSPropertyOp44
 70
     1
102
RTVSPropertyOp45
 70
     1
102
RTVSPropertyOp46
 70
     1
102
RTVSPropertyOp47
 70
     1
102
RTVSPropertyOp48
 70
     1
102
RTVSPropertyOp49
 70
     1
102
RTVSPropertyOp50
 70
     1
102
RTVSPropertyOp51
 70
     0
102
RTVSPropertyOp52
 70
     0
102
RTVSPropertyOp53
 70
     1
102
RTVSPropertyOp54
 70
     1
102
RTVSPropertyOp55
 70
     1
102
RTVSPropertyOp56
 70
     1
102
RTVSPropertyOp57
 70
     1
102
RTVSPropertyOp58
 70
     1
102
RTVSPropertyOp59
 70
     1
102
RTVSPropertyOp60
 70
     1
102
RTVSPropertyOp61
 70
     1
102
RTVSPropertyOp62
 70
     1
  0
ENDSEC
  0
EOF
