  0
SECTION
  2
HEADER
  9
$ACADVER
  1
AC1009
  9
$DWGCODEPAGE
  3
ansi_1252
  9
$INSBASE
 10
0.0
 20
0.0
 30
0.0
  9
$EXTMIN
 10
0.0
 20
0.0
 30
0.0
  9
$EXTMAX
 10
420.0
 20
297.0
 30
0.0
  9
$LIMMIN
 10
0.0
 20
0.0
  9
$LIMMAX
 10
420.0
 20
297.0
  9
$ORTHOMODE
 70
     0
  9
$REGENMODE
 70
     1
  9
$FILLMODE
 70
     1
  9
$QTEXTMODE
 70
     0
  9
$MIRRTEXT
 70
     1
  9
$DRAGMODE
 70
     2
  9
$LTSCALE
 40
1.0
  9
$OSMODE
 70
    37
  9
$ATTMODE
 70
     1
  9
$TEXTSIZE
 40
2.5
  9
$TRACEWID
 40
1.0
  9
$TEXTSTYLE
  7
STANDARD
  9
$CLAYER
  8
0
  9
$CELTYPE
  6
BYLAYER
  9
$CECOLOR
 62
   256
  9
$DIMSCALE
 40
1.0
  9
$DIMASZ
 40
2.5
  9
$DIMEXO
 40
0.625
  9
$DIMDLI
 40
3.75
  9
$DIMRND
 40
0.0
  9
$DIMDLE
 40
0.0
  9
$DIMEXE
 40
1.25
  9
$DIMTP
 40
0.0
  9
$DIMTM
 40
0.0
  9
$DIMTXT
 40
2.5
  9
$DIMCEN
 40
2.5
  9
$DIMTSZ
 40
0.0
  9
$DIMTOL
 70
     0
  9
$DIMLIM
 70
     0
  9
$DIMTIH
 70
     0
  9
$DIMTOH
 70
     0
  9
$DIMSE1
 70
     0
  9
$DIMSE2
 70
     0
  9
$DIMTAD
 70
     1
  9
$DIMZIN
 70
     8
  9
$DIMBLK
  1

  9
$DIMASO
 70
     1
  9
$DIMSHO
 70
     1
  9
$DIMPOST
  1

  9
$DIMAPOST
  1

  9
$DIMALT
 70
     0
  9
$DIMALTD
 70
     3
  9
$DIMALTF
 40
0.0393700787
  9
$DIMLFAC
 40
1.0
  9
$DIMTOFL
 70
     1
  9
$DIMTVP
 40
0.0
  9
$DIMTIX
 70
     0
  9
$DIMSOXD
 70
     0
  9
$DIMSAH
 70
     0
  9
$DIMBLK1
  1

  9
$DIMBLK2
  1

  9
$DIMSTYLE
  2
ISO-25
  9
$DIMCLRD
 70
     0
  9
$DIMCLRE
 70
     0
  9
$DIMCLRT
 70
     0
  9
$DIMTFAC
 40
1.0
  9
$DIMGAP
 40
0.625
  9
$LUNITS
 70
     2
  9
$LUPREC
 70
     4
  9
$SKETCHINC
 40
1.0
  9
$FILLETRAD
 40
10.0
  9
$AUNITS
 70
     0
  9
$AUPREC
 70
     0
  9
$MENU
  1
.
  9
$ELEVATION
 40
0.0
  9
$PELEVATION
 40
0.0
  9
$THICKNESS
 40
0.0
  9
$LIMCHECK
 70
     0
  9
$CHAMFERA
 40
10.0
  9
$CHAMFERB
 40
10.0
  9
$SKPOLY
 70
     0
  9
$TDCREATE
 40
2457352.459896308
  9
$TDUPDATE
 40
2457352.459897535
  9
$TDINDWG
 40
0.0000000116
  9
$TDUSRTIMER
 40
0.0000000116
  9
$USRTIMER
 70
     1
  9
$ANGBASE
 50
0.0
  9
$ANGDIR
 70
     0
  9
$PDMODE
 70
     0
  9
$PDSIZE
 40
0.0
  9
$PLINEWID
 40
0.0
  9
$COORDS
 70
     1
  9
$SPLFRAME
 70
     0
  9
$SPLINETYPE
 70
     6
  9
$SPLINESEGS
 70
     8
  9
$ATTDIA
 70
     0
  9
$ATTREQ
 70
     1
  9
$HANDLING
 70
     1
  9
$HANDSEED
  5
1BA
  9
$SURFTAB1
 70
     6
  9
$SURFTAB2
 70
     6
  9
$SURFTYPE
 70
     6
  9
$SURFU
 70
     6
  9
$SURFV
 70
     6
  9
$UCSNAME
  2

  9
$UCSORG
 10
0.0
 20
0.0
 30
0.0
  9
$UCSXDIR
 10
1.0
 20
0.0
 30
0.0
  9
$UCSYDIR
 10
0.0
 20
1.0
 30
0.0
  9
$PUCSNAME
  2

  9
$PUCSORG
 10
0.0
 20
0.0
 30
0.0
  9
$PUCSXDIR
 10
1.0
 20
0.0
 30
0.0
  9
$PUCSYDIR
 10
0.0
 20
1.0
 30
0.0
  9
$USERI1
 70
     0
  9
$USERI2
 70
     0
  9
$USERI3
 70
     0
  9
$USERI4
 70
     0
  9
$USERI5
 70
     0
  9
$USERR1
 40
0.0
  9
$USERR2
 40
0.0
  9
$USERR3
 40
0.0
  9
$USERR4
 40
0.0
  9
$USERR5
 40
0.0
  9
$WORLDVIEW
 70
     1
  9
$SHADEDGE
 70
     3
  9
$SHADEDIF
 70
    70
  9
$TILEMODE
 70
     1
  9
$MAXACTVP
 70
    64
  9
$PLIMCHECK
 70
     0
  9
$PEXTMIN
 10
0.0
 20
0.0
 30
0.0
  9
$PEXTMAX
 10
420.0
 20
297.0
 30
0.0
  9
$PLIMMIN
 10
0.0
 20
0.0
  9
$PLIMMAX
 10
420.0
 20
297.0
  9
$UNITMODE
 70
     0
  9
$VISRETAIN
 70
     1
  9
$PLINEGEN
 70
     0
  9
$PSLTSCALE
 70
     1
  0
ENDSEC
  0
SECTION
  2
TABLES
  0
TABLE
  2
VPORT
 70
     1
  0
VPORT
  2
*ACTIVE
 70
     0
 10
0.0
 20
0.0
 11
1.0
 21
1.0
 12
344.1869158879
 22
148.5
 13
0.0
 23
0.0
 14
10.0
 24
10.0
 15
10.0
 25
10.0
 16
0.0
 26
0.0
 36
1.0
 17
0.0
 27
0.0
 37
0.0
 40
297.0
 41
1.9729729729
 42
50.0
 43
0.0
 44
0.0
 50
0.0
 51
0.0
 71
     0
 72
   100
 73
     1
 74
     3
 75
     0
 76
     0
 77
     0
 78
     0
  0
ENDTAB
  0
TABLE
  2
LTYPE
 70
     3
  0
LTYPE
  2
CONTINUOUS
 70
     0
  3
Solid line
 72
    65
 73
     0
 40
0.0
  0
LTYPE
  2
HIDDEN2
 70
     0
  3
Hidden (.5x) _ _ _ _ _ _ _ _ _ _ _ _ _ _ _ _ _ 
 72
    65
 73
     2
 40
4.7625
 49
3.175
 49
-1.5875
  0
LTYPE
  2
CENTER2
 70
     0
  3
Center (.5x) ___ _ ___ _ ___ _ ___ _ ___ _ ___
 72
    65
 73
     4
 40
28.575
 49
19.05
 49
-3.175
 49
3.175
 49
-3.175
  0
ENDTAB
  0
TABLE
  2
LAYER
 70
    10
  0
LAYER
  2
0
 70
     0
 62
     7
  6
CONTINUOUS
  0
LAYER
  2
80
 70
     0
 62
     7
  6
CONTINUOUS
  0
LAYER
  2
1
 70
     0
 62
     7
  6
CONTINUOUS
  0
LAYER
  2
SK1
 70
     0
 62
     7
  6
CONTINUOUS
  0
LAYER
  2
SK3
 70
     0
 62
     7
  6
CONTINUOUS
  0
LAYER
  2
SK4
 70
     0
 62
     7
  6
CONTINUOUS
  0
LAYER
  2
4
 70
     0
 62
     7
  6
CONTINUOUS
  0
LAYER
  2
81
 70
     0
 62
     7
  6
CONTINUOUS
  0
LAYER
  2
SK6
 70
     0
 62
     7
  6
CONTINUOUS
  0
LAYER
  2
SK2
 70
     0
 62
     7
  6
CONTINUOUS
  0
ENDTAB
  0
TABLE
  2
STYLE
 70
     3
  0
STYLE
  2
STANDARD
 70
     0
 40
0.0
 41
1.0
 50
0.0
 71
     0
 42
2.5
  3
txt
  4

  0
STYLE
  2
SEACAD_AHARONI
 70
     0
 40
0.0
 41
1.0
 50
0.0
 71
     0
 42
0.2
  3
ahronbd.ttf
  4

  0
STYLE
  2
SEACAD_SOLID_EDGE_ANSI1_SY
 70
     0
 40
0.0
 41
1.0
 50
0.0
 71
     0
 42
0.2
  3
semeca1.ttf
  4

  0
ENDTAB
  0
TABLE
  2
VIEW
 70
     0
  0
ENDTAB
  0
TABLE
  2
UCS
 70
     0
  0
ENDTAB
  0
TABLE
  2
APPID
 70
     1
  0
APPID
  2
ACAD
 70
     0
  0
ENDTAB
  0
TABLE
  2
DIMSTYLE
 70
     1
  0
DIMSTYLE
  2
ISO-25
 70
     0
  3

  4

  5

  6

  7

 40
1.0
 41
2.5
 42
0.625
 43
3.75
 44
1.25
 45
0.0
 46
0.0
 47
0.0
 48
0.0
140
2.5
141
2.5
142
0.0
143
0.0393700787
144
1.0
145
0.0
146
1.0
147
0.625
 71
     0
 72
     0
 73
     0
 74
     0
 75
     0
 76
     0
 77
     1
 78
     8
170
     0
171
     3
172
     1
173
     0
174
     0
175
     0
176
     0
177
     0
178
     0
  0
ENDTAB
  0
ENDSEC
  0
SECTION
  2
BLOCKS
  0
BLOCK
  8
0
  2
$MODEL_SPACE
 70
     0
 10
0.0
 20
0.0
 30
0.0
  3
$MODEL_SPACE
  1

  0
ENDBLK
  5
21
  8
0
  0
BLOCK
 67
     1
  8
0
  2
$PAPER_SPACE
 70
     0
 10
0.0
 20
0.0
 30
0.0
  3
$PAPER_SPACE
  1

  0
ENDBLK
  5
1D
 67
     1
  8
0
  0
BLOCK
  8
0
  2
SEANNOT_GROUP
 70
     0
 10
0.0
 20
0.0
 30
0.0
  3
SEANNOT_GROUP
  1

  0
TEXT
  5
12F
  8
SK6
  6
CONTINUOUS
 62
     5
 10
148.3012843276
 20
-11.4592570931
 30
0.0
 40
3.5
  1
C5-LCI80-000110
  7
SEACAD_AHARONI
 11
148.3012843276
 21
-7.9592570931
 31
0.0
 73
     3
  0
ENDBLK
  5
131
  8
0
  0
BLOCK
  8
0
  2
GDIMGGROUP
 70
     0
 10
0.0
 20
0.0
 30
0.0
  3
GDIMGGROUP
  1

  0
POLYLINE
  5
135
  8
SK2
  6
CONTINUOUS
 62
     7
 66
     1
 10
0.0
 20
0.0
 30
0.0
  0
VERTEX
  5
17D
  8
SK2
  6
CONTINUOUS
 62
     7
 10
-3.500000108
 20
-75.719767668
 30
0.0
  0
VERTEX
  5
17E
  8
SK2
  6
CONTINUOUS
 62
     7
 10
-3.500000108
 20
-74.5531009653
 30
0.0
  0
VERTEX
  5
17F
  8
SK2
  6
CONTINUOUS
 62
     7
 10
0.0
 20
-75.1364343166
 30
0.0
  0
VERTEX
  5
180
  8
SK2
  6
CONTINUOUS
 62
     7
 10
-3.500000108
 20
-75.719767668
 30
0.0
  0
SEQEND
  5
1B8
  8
SK2
  6
CONTINUOUS
 62
     7
  0
POLYLINE
  5
136
  8
SK2
  6
CONTINUOUS
 62
     7
 66
     1
 10
0.0
 20
0.0
 30
0.0
  0
VERTEX
  5
181
  8
SK2
  6
CONTINUOUS
 62
     7
 10
-16.4999994449
 20
-75.719767668
 30
0.0
  0
VERTEX
  5
182
  8
SK2
  6
CONTINUOUS
 62
     7
 10
-16.4999994449
 20
-74.5531009653
 30
0.0
  0
VERTEX
  5
183
  8
SK2
  6
CONTINUOUS
 62
     7
 10
-19.999999553
 20
-75.1364343166
 30
0.0
  0
VERTEX
  5
184
  8
SK2
  6
CONTINUOUS
 62
     7
 10
-16.4999994449
 20
-75.719767668
 30
0.0
  0
SEQEND
  5
1B7
  8
SK2
  6
CONTINUOUS
 62
     7
  0
LINE
  5
137
  8
SK2
  6
CONTINUOUS
 62
     7
 10
0.0
 20
-57.0000000596
 30
0.0
 11
0.0
 21
-76.8864343707
 31
0.0
  0
LINE
  5
138
  8
SK2
  6
CONTINUOUS
 62
     7
 10
-20.0
 20
-38.0179527117
 30
0.0
 11
-20.0
 21
-76.8864343707
 31
0.0
  0
LINE
  5
139
  8
SK2
  6
CONTINUOUS
 62
     7
 10
0.0
 20
-75.1364343166
 30
0.0
 11
-19.999999553
 21
-75.1364343166
 31
0.0
  0
TEXT
  5
13A
  8
SK2
  6
CONTINUOUS
 62
     7
 10
-12.981481258
 20
-74.2614343166
 30
0.0
 40
3.5
  1
20
  7
SEACAD_AHARONI
 11
-12.981481258
 21
-70.7614343166
 31
0.0
 73
     3
  0
ENDBLK
  5
13C
  8
0
  0
BLOCK
  8
0
  2
GDIMGGROUP1
 70
     0
 10
0.0
 20
0.0
 30
0.0
  3
GDIMGGROUP1
  1

  0
POLYLINE
  5
13F
  8
SK2
  6
CONTINUOUS
 62
     7
 66
     1
 10
0.0
 20
0.0
 30
0.0
  0
VERTEX
  5
185
  8
SK2
  6
CONTINUOUS
 62
     7
 10
-3.500000108
 20
-90.741706439
 30
0.0
  0
VERTEX
  5
186
  8
SK2
  6
CONTINUOUS
 62
     7
 10
-3.500000108
 20
-89.5750397363
 30
0.0
  0
VERTEX
  5
187
  8
SK2
  6
CONTINUOUS
 62
     7
 10
0.0
 20
-90.1583730876
 30
0.0
  0
VERTEX
  5
188
  8
SK2
  6
CONTINUOUS
 62
     7
 10
-3.500000108
 20
-90.741706439
 30
0.0
  0
SEQEND
  5
1B6
  8
SK2
  6
CONTINUOUS
 62
     7
  0
POLYLINE
  5
140
  8
SK2
  6
CONTINUOUS
 62
     7
 66
     1
 10
0.0
 20
0.0
 30
0.0
  0
VERTEX
  5
189
  8
SK2
  6
CONTINUOUS
 62
     7
 10
-71.5000028722
 20
-90.741706439
 30
0.0
  0
VERTEX
  5
18A
  8
SK2
  6
CONTINUOUS
 62
     7
 10
-71.5000028722
 20
-89.5750397363
 30
0.0
  0
VERTEX
  5
18B
  8
SK2
  6
CONTINUOUS
 62
     7
 10
-75.0000029802
 20
-90.1583730876
 30
0.0
  0
VERTEX
  5
18C
  8
SK2
  6
CONTINUOUS
 62
     7
 10
-71.5000028722
 20
-90.741706439
 30
0.0
  0
SEQEND
  5
1B5
  8
SK2
  6
CONTINUOUS
 62
     7
  0
LINE
  5
141
  8
SK2
  6
CONTINUOUS
 62
     7
 10
0.0
 20
-57.0
 30
0.0
 11
0.0
 21
-91.9083731417
 31
0.0
  0
LINE
  5
142
  8
SK2
  6
CONTINUOUS
 62
     7
 10
-75.0
 20
-29.556624327
 30
0.0
 11
-75.0
 21
-91.9083731417
 31
0.0
  0
LINE
  5
143
  8
SK2
  6
CONTINUOUS
 62
     7
 10
0.0
 20
-90.1583730876
 30
0.0
 11
-75.0000029802
 21
-90.1583730876
 31
0.0
  0
TEXT
  5
144
  8
SK2
  6
CONTINUOUS
 62
     7
 10
-40.7407422309
 20
-89.2833730876
 30
0.0
 40
3.5
  1
75
  7
SEACAD_AHARONI
 11
-40.7407422309
 21
-85.7833730876
 31
0.0
 73
     3
  0
ENDBLK
  5
146
  8
0
  0
BLOCK
  8
0
  2
GDIMGGROUP2
 70
     0
 10
0.0
 20
0.0
 30
0.0
  3
GDIMGGROUP2
  1

  0
POLYLINE
  5
149
  8
SK2
  6
CONTINUOUS
 62
     7
 66
     1
 10
0.0
 20
0.0
 30
0.0
  0
VERTEX
  5
18D
  8
SK2
  6
CONTINUOUS
 62
     7
 10
-139.9895620129
 20
36.499999892
 30
0.0
  0
VERTEX
  5
18E
  8
SK2
  6
CONTINUOUS
 62
     7
 10
-138.8228953102
 20
36.499999892
 30
0.0
  0
VERTEX
  5
18F
  8
SK2
  6
CONTINUOUS
 62
     7
 10
-139.4062286615
 20
40.0
 30
0.0
  0
VERTEX
  5
190
  8
SK2
  6
CONTINUOUS
 62
     7
 10
-139.9895620129
 20
36.499999892
 30
0.0
  0
SEQEND
  5
1B4
  8
SK2
  6
CONTINUOUS
 62
     7
  0
POLYLINE
  5
14A
  8
SK2
  6
CONTINUOUS
 62
     7
 66
     1
 10
0.0
 20
0.0
 30
0.0
  0
VERTEX
  5
191
  8
SK2
  6
CONTINUOUS
 62
     7
 10
-139.9895620129
 20
-36.4999981038
 30
0.0
  0
VERTEX
  5
192
  8
SK2
  6
CONTINUOUS
 62
     7
 10
-138.8228953102
 20
-36.4999981038
 30
0.0
  0
VERTEX
  5
193
  8
SK2
  6
CONTINUOUS
 62
     7
 10
-139.4062286615
 20
-39.9999982119
 30
0.0
  0
VERTEX
  5
194
  8
SK2
  6
CONTINUOUS
 62
     7
 10
-139.9895620129
 20
-36.4999981038
 30
0.0
  0
SEQEND
  5
1B3
  8
SK2
  6
CONTINUOUS
 62
     7
  0
LINE
  5
14B
  8
SK2
  6
CONTINUOUS
 62
     7
 10
-10.0
 20
40.0
 30
0.0
 11
-141.1562287156
 21
40.0
 31
0.0
  0
LINE
  5
14C
  8
SK2
  6
CONTINUOUS
 62
     7
 10
-6.0
 20
-40.0
 30
0.0
 11
-141.1562287156
 21
-40.0
 31
0.0
  0
LINE
  5
14D
  8
SK2
  6
CONTINUOUS
 62
     7
 10
-139.4062286615
 20
40.0
 30
0.0
 11
-139.4062286615
 21
-39.9999982119
 31
0.0
  0
TEXT
  5
14E
  8
SK2
  6
CONTINUOUS
 62
     7
 10
-140.2812286615
 20
0.2391334477
 30
0.0
 40
3.5
  1
80
 50
90.0
  7
SEACAD_AHARONI
 11
-143.7812286615
 21
0.2391334477
 31
0.0
 73
     3
  0
TEXT
  5
150
  8
SK2
  6
CONTINUOUS
 62
     7
 10
-140.2812286615
 20
-6.2020946225
 30
0.0
 40
3.5
  1
O
 50
90.0
  7
SEACAD_SOLID_EDGE_ANSI1_SY
 11
-143.7812286615
 21
-6.2020946225
 31
0.0
 73
     3
  0
ENDBLK
  5
152
  8
0
  0
BLOCK
  8
0
  2
GDIMGGROUP3
 70
     0
 10
0.0
 20
0.0
 30
0.0
  3
GDIMGGROUP3
  1

  0
POLYLINE
  5
155
  8
SK2
  6
CONTINUOUS
 62
     7
 66
     1
 10
0.0
 20
0.0
 30
0.0
  0
VERTEX
  5
195
  8
SK2
  6
CONTINUOUS
 62
     7
 10
-120.4439493796
 20
28.039999892
 30
0.0
  0
VERTEX
  5
196
  8
SK2
  6
CONTINUOUS
 62
     7
 10
-119.277282677
 20
28.039999892
 30
0.0
  0
VERTEX
  5
197
  8
SK2
  6
CONTINUOUS
 62
     7
 10
-119.8606160283
 20
31.54
 30
0.0
  0
VERTEX
  5
198
  8
SK2
  6
CONTINUOUS
 62
     7
 10
-120.4439493796
 20
28.039999892
 30
0.0
  0
SEQEND
  5
1B2
  8
SK2
  6
CONTINUOUS
 62
     7
  0
POLYLINE
  5
156
  8
SK2
  6
CONTINUOUS
 62
     7
 66
     1
 10
0.0
 20
0.0
 30
0.0
  0
VERTEX
  5
199
  8
SK2
  6
CONTINUOUS
 62
     7
 10
-120.4439493796
 20
-28.0399977891
 30
0.0
  0
VERTEX
  5
19A
  8
SK2
  6
CONTINUOUS
 62
     7
 10
-119.277282677
 20
-28.0399977891
 30
0.0
  0
VERTEX
  5
19B
  8
SK2
  6
CONTINUOUS
 62
     7
 10
-119.8606160283
 20
-31.5399978971
 30
0.0
  0
VERTEX
  5
19C
  8
SK2
  6
CONTINUOUS
 62
     7
 10
-120.4439493796
 20
-28.0399977891
 30
0.0
  0
SEQEND
  5
1B1
  8
SK2
  6
CONTINUOUS
 62
     7
  0
LINE
  5
157
  8
SK2
  6
CONTINUOUS
 62
     7
 10
-48.9999991655
 20
31.54
 30
0.0
 11
-121.6106160823
 21
31.54
 31
0.0
  0
LINE
  5
158
  8
SK2
  6
CONTINUOUS
 62
     7
 10
-34.5
 20
-31.54
 30
0.0
 11
-121.6106160823
 21
-31.54
 31
0.0
  0
LINE
  5
159
  8
SK2
  6
CONTINUOUS
 62
     7
 10
-119.8606160283
 20
31.54
 30
0.0
 11
-119.8606160283
 21
-31.5399978971
 31
0.0
  0
TEXT
  5
15A
  8
SK2
  6
CONTINUOUS
 62
     7
 10
-120.7356160283
 20
-0.0201256542
 30
0.0
 40
3.5
  1
63
 50
90.0
  7
SEACAD_AHARONI
 11
-124.2356160283
 21
-0.0201256542
 31
0.0
 73
     3
  0
TEXT
  5
15B
  8
SK2
  6
CONTINUOUS
 62
     7
 10
-120.7356160283
 20
-6.4613537244
 30
0.0
 40
3.5
  1
O
 50
90.0
  7
SEACAD_SOLID_EDGE_ANSI1_SY
 11
-124.2356160283
 21
-6.4613537244
 31
0.0
 73
     3
  0
ENDBLK
  5
15D
  8
0
  0
BLOCK
  8
0
  2
GDIMGGROUP4
 70
     0
 10
0.0
 20
0.0
 30
0.0
  3
GDIMGGROUP4
  1

  0
POLYLINE
  5
160
  8
SK2
  6
CONTINUOUS
 62
     7
 66
     1
 10
0.0
 20
0.0
 30
0.0
  0
VERTEX
  5
19D
  8
SK2
  6
CONTINUOUS
 62
     7
 10
-100.506628432
 20
27.499999892
 30
0.0
  0
VERTEX
  5
19E
  8
SK2
  6
CONTINUOUS
 62
     7
 10
-99.3399617293
 20
27.499999892
 30
0.0
  0
VERTEX
  5
19F
  8
SK2
  6
CONTINUOUS
 62
     7
 10
-99.9232950807
 20
31.0
 30
0.0
  0
VERTEX
  5
1A0
  8
SK2
  6
CONTINUOUS
 62
     7
 10
-100.506628432
 20
27.499999892
 30
0.0
  0
SEQEND
  5
1B0
  8
SK2
  6
CONTINUOUS
 62
     7
  0
POLYLINE
  5
161
  8
SK2
  6
CONTINUOUS
 62
     7
 66
     1
 10
0.0
 20
0.0
 30
0.0
  0
VERTEX
  5
1A1
  8
SK2
  6
CONTINUOUS
 62
     7
 10
-100.506628432
 20
-27.4999988787
 30
0.0
  0
VERTEX
  5
1A2
  8
SK2
  6
CONTINUOUS
 62
     7
 10
-99.3399617293
 20
-27.4999988787
 30
0.0
  0
VERTEX
  5
1A3
  8
SK2
  6
CONTINUOUS
 62
     7
 10
-99.9232950807
 20
-30.9999989867
 30
0.0
  0
VERTEX
  5
1A4
  8
SK2
  6
CONTINUOUS
 62
     7
 10
-100.506628432
 20
-27.4999988787
 30
0.0
  0
SEQEND
  5
1AF
  8
SK2
  6
CONTINUOUS
 62
     7
  0
LINE
  5
162
  8
SK2
  6
CONTINUOUS
 62
     7
 10
-67.5
 20
31.0
 30
0.0
 11
-101.6732951347
 21
31.0
 31
0.0
  0
LINE
  5
163
  8
SK2
  6
CONTINUOUS
 62
     7
 10
-66.5
 20
-31.0
 30
0.0
 11
-101.6732951347
 21
-31.0
 31
0.0
  0
LINE
  5
164
  8
SK2
  6
CONTINUOUS
 62
     7
 10
-99.9232950807
 20
31.0
 30
0.0
 11
-99.9232950807
 21
-30.9999989867
 31
0.0
  0
TEXT
  5
165
  8
SK2
  6
CONTINUOUS
 62
     7
 10
-100.7982950807
 20
-0.020126199
 30
0.0
 40
3.5
  1
62
 50
90.0
  7
SEACAD_AHARONI
 11
-104.2982950807
 21
-0.020126199
 31
0.0
 73
     3
  0
TEXT
  5
166
  8
SK2
  6
CONTINUOUS
 62
     7
 10
-100.7982950807
 20
-6.4613542692
 30
0.0
 40
3.5
  1
O
 50
90.0
  7
SEACAD_SOLID_EDGE_ANSI1_SY
 11
-104.2982950807
 21
-6.4613542692
 31
0.0
 73
     3
  0
ENDBLK
  5
168
  8
0
  0
BLOCK
  8
0
  2
GDIMGGROUP5
 70
     0
 10
0.0
 20
0.0
 30
0.0
  3
GDIMGGROUP5
  1

  0
POLYLINE
  5
16B
  8
SK2
  6
CONTINUOUS
 62
     7
 66
     1
 10
0.0
 20
0.0
 30
0.0
  0
VERTEX
  5
1A5
  8
SK2
  6
CONTINUOUS
 62
     7
 10
3.500000108
 20
-75.7197676084
 30
0.0
  0
VERTEX
  5
1A6
  8
SK2
  6
CONTINUOUS
 62
     7
 10
3.500000108
 20
-74.5531009057
 30
0.0
  0
VERTEX
  5
1A7
  8
SK2
  6
CONTINUOUS
 62
     7
 10
0.0
 20
-75.136434257
 30
0.0
  0
VERTEX
  5
1A8
  8
SK2
  6
CONTINUOUS
 62
     7
 10
3.500000108
 20
-75.7197676084
 30
0.0
  0
SEQEND
  5
1AE
  8
SK2
  6
CONTINUOUS
 62
     7
  0
POLYLINE
  5
16C
  8
SK2
  6
CONTINUOUS
 62
     7
 66
     1
 10
0.0
 20
0.0
 30
0.0
  0
VERTEX
  5
1A9
  8
SK2
  6
CONTINUOUS
 62
     7
 10
106.4999992959
 20
-75.7197676084
 30
0.0
  0
VERTEX
  5
1AA
  8
SK2
  6
CONTINUOUS
 62
     7
 10
106.4999992959
 20
-74.5531009057
 30
0.0
  0
VERTEX
  5
1AB
  8
SK2
  6
CONTINUOUS
 62
     7
 10
109.999999404
 20
-75.136434257
 30
0.0
  0
VERTEX
  5
1AC
  8
SK2
  6
CONTINUOUS
 62
     7
 10
106.4999992959
 20
-75.7197676084
 30
0.0
  0
SEQEND
  5
1AD
  8
SK2
  6
CONTINUOUS
 62
     7
  0
LINE
  5
16D
  8
SK2
  6
CONTINUOUS
 62
     7
 10
0.0
 20
-57.0
 30
0.0
 11
0.0
 21
-76.886434311
 31
0.0
  0
LINE
  5
16E
  8
SK2
  6
CONTINUOUS
 62
     7
 10
110.0
 20
0.00064
 30
0.0
 11
110.0
 21
-76.886434311
 31
0.0
  0
LINE
  5
16F
  8
SK2
  6
CONTINUOUS
 62
     7
 10
0.0
 20
-75.136434257
 30
0.0
 11
109.999999404
 21
-75.136434257
 31
0.0
  0
TEXT
  5
170
  8
SK2
  6
CONTINUOUS
 62
     7
 10
51.499999702
 20
-74.261434257
 30
0.0
 40
3.5
  1
110
  7
SEACAD_AHARONI
 11
51.499999702
 21
-70.761434257
 31
0.0
 73
     3
  0
ENDBLK
  5
172
  8
0
  0
ENDSEC
  0
SECTION
  2
ENTITIES
  0
POINT
  5
40
  8
80
  6
CONTINUOUS
 62
     1
 10
0.0
 20
0.0
 30
0.0
  0
LINE
  5
42
  8
1
  6
CONTINUOUS
 62
     1
 10
-3.2
 20
62.0
 30
0.0
 11
-3.2805932335
 21
62.0805932335
 31
0.0
  0
LINE
  5
43
  8
1
  6
CONTINUOUS
 62
     1
 10
-7.7194067665
 20
62.0805932335
 30
0.0
 11
-7.8
 21
62.0
 31
0.0
  0
ARC
  5
44
  8
1
  6
CONTINUOUS
 62
     1
 10
-8.2850921915
 20
62.6462786584
 30
0.0
 40
0.8000000000000003
 50
315.0
 51
349.4642892789
  0
ARC
  5
45
  8
1
  6
CONTINUOUS
 62
     1
 10
-2.7149078085
 20
62.6462786584
 30
0.0
 40
0.8000000000000005
 50
190.5357107211
 51
225.0
  0
LINE
  5
46
  8
1
  6
CONTINUOUS
 62
     1
 10
-0.5
 20
62.0
 30
0.0
 11
-10.5
 21
62.0
 31
0.0
  0
LINE
  5
47
  8
1
  6
CONTINUOUS
 62
     1
 10
-0.5
 20
60.0
 30
0.0
 11
-10.5
 21
60.0
 31
0.0
  0
LINE
  5
48
  8
1
  6
CONTINUOUS
 62
     1
 10
-0.5
 20
62.0
 30
0.0
 11
-0.5
 21
60.0
 31
0.0
  0
LINE
  5
49
  8
1
  6
CONTINUOUS
 62
     1
 10
-10.5
 20
62.0
 30
0.0
 11
-10.5
 21
60.0
 31
0.0
  0
LINE
  5
4A
  8
1
  6
CONTINUOUS
 62
     1
 10
18.0
 20
60.0
 30
0.0
 11
1.5
 21
60.0
 31
0.0
  0
LINE
  5
4B
  8
1
  6
CONTINUOUS
 62
     1
 10
1.5
 20
60.0
 30
0.0
 11
0.5
 21
60.0
 31
0.0
  0
LINE
  5
4C
  8
1
  6
CONTINUOUS
 62
     1
 10
1.5
 20
60.0
 30
0.0
 11
1.5
 21
69.5
 31
0.0
  0
LINE
  5
4D
  8
1
  6
CONTINUOUS
 62
     1
 10
18.0
 20
60.0
 30
0.0
 11
18.0
 21
69.5
 31
0.0
  0
LINE
  5
4E
  8
1
  6
CONTINUOUS
 62
     1
 10
19.0
 20
60.0
 30
0.0
 11
19.0
 21
69.5
 31
0.0
  0
LINE
  5
4F
  8
1
  6
CONTINUOUS
 62
     1
 10
-10.5
 20
62.5
 30
0.0
 11
-10.5
 21
69.5
 31
0.0
  0
LINE
  5
50
  8
1
  6
CONTINUOUS
 62
     1
 10
-10.5
 20
62.5
 30
0.0
 11
0.5
 21
62.5
 31
0.0
  0
LINE
  5
51
  8
1
  6
CONTINUOUS
 62
     1
 10
0.5
 20
62.5
 30
0.0
 11
0.5
 21
60.0
 31
0.0
  0
LINE
  5
52
  8
1
  6
CONTINUOUS
 62
     1
 10
19.0
 20
69.5
 30
0.0
 11
18.0
 21
69.5
 31
0.0
  0
LINE
  5
53
  8
1
  6
CONTINUOUS
 62
     1
 10
17.7928932188
 20
70.0
 30
0.0
 11
18.5
 21
70.0
 31
0.0
  0
LINE
  5
54
  8
1
  6
CONTINUOUS
 62
     1
 10
1.5658262488
 20
70.0
 30
0.0
 11
17.7928932188
 21
70.0
 31
0.0
  0
LINE
  5
55
  8
1
  6
CONTINUOUS
 62
     1
 10
-10.0
 20
70.0
 30
0.0
 11
1.5658262488
 21
70.0
 31
0.0
  0
LINE
  5
56
  8
1
  6
CONTINUOUS
 62
     1
 10
1.5
 20
69.5
 30
0.0
 11
-10.5
 21
69.5
 31
0.0
  0
LINE
  5
57
  8
1
  6
CONTINUOUS
 62
     1
 10
18.0
 20
69.5
 30
0.0
 11
1.5
 21
69.5
 31
0.0
  0
LINE
  5
58
  8
1
  6
CONTINUOUS
 62
     1
 10
-10.0
 20
70.0
 30
0.0
 11
-10.5
 21
69.5
 31
0.0
  0
LINE
  5
59
  8
1
  6
CONTINUOUS
 62
     1
 10
1.5658262488
 20
70.0
 30
0.0
 11
1.5
 21
69.5
 31
0.0
  0
LINE
  5
5A
  8
1
  6
CONTINUOUS
 62
     1
 10
19.0
 20
69.5
 30
0.0
 11
18.5
 21
70.0
 31
0.0
  0
LINE
  5
5B
  8
1
  6
CONTINUOUS
 62
     1
 10
17.7928932188
 20
70.0
 30
0.0
 11
18.0
 21
69.5
 31
0.0
  0
LINE
  5
5C
  8
1
  6
CONTINUOUS
 62
     1
 10
142.540673326
 20
58.9
 30
0.0
 11
142.540673326
 21
54.1
 31
0.0
  0
ARC
  5
5D
  8
1
  6
CONTINUOUS
 62
     1
 10
132.8329444464
 20
56.5
 30
0.0
 40
9.999999999999993
 50
13.8865403626
 51
23.5508884503
  0
ARC
  5
5E
  8
1
  6
CONTINUOUS
 62
     1
 10
132.8329444464
 20
56.5
 30
0.0
 40
9.999999999999991
 50
336.4491115497
 51
346.1134596374
  0
LINE
  5
5F
  8
1
  6
CONTINUOUS
 62
     1
 10
89.4
 20
0.3923393759
 30
0.0
 11
84.6
 21
0.3923393759
 31
0.0
  0
ARC
  5
60
  8
1
  6
CONTINUOUS
 62
     1
 10
87.0
 20
10.1000682555
 30
0.0
 40
10.0
 50
283.8865403626
 51
286.2588079533
  0
ARC
  5
61
  8
1
  6
CONTINUOUS
 62
     1
 10
87.0
 20
10.1000682555
 30
0.0
 40
9.999999999999998
 50
253.7411920467
 51
256.1134596374
  0
LINE
  5
62
  8
1
  6
CONTINUOUS
 62
     1
 10
130.6
 20
0.3923393759
 30
0.0
 11
135.4
 21
0.3923393759
 31
0.0
  0
ARC
  5
63
  8
1
  6
CONTINUOUS
 62
     1
 10
133.0
 20
10.1000682555
 30
0.0
 40
9.999999999999998
 50
283.8865403626
 51
286.2588079533
  0
ARC
  5
64
  8
1
  6
CONTINUOUS
 62
     1
 10
133.0
 20
10.1000682555
 30
0.0
 40
9.999999999999998
 50
253.7411920467
 51
256.1134596374
  0
LINE
  5
65
  8
1
  6
CONTINUOUS
 62
     1
 10
-7.8865
 20
71.0
 30
0.0
 11
-3.1135
 21
71.0
 31
0.0
  0
LINE
  5
66
  8
1
  6
CONTINUOUS
 62
     1
 10
-8.5
 20
70.6457956099
 30
0.0
 11
-2.5
 21
70.6457956099
 31
0.0
  0
LINE
  5
67
  8
1
  6
CONTINUOUS
 62
     1
 10
-2.5
 20
70.6457956099
 30
0.0
 11
-3.1135
 21
71.0
 31
0.0
  0
LINE
  5
68
  8
1
  6
CONTINUOUS
 62
     1
 10
-7.8865
 20
71.0
 30
0.0
 11
-8.5
 21
70.6457956099
 31
0.0
  0
LINE
  5
69
  8
1
  6
CONTINUOUS
 62
     1
 10
-2.5
 20
70.0
 30
0.0
 11
-2.5
 21
70.6457956099
 31
0.0
  0
LINE
  5
6A
  8
1
  6
CONTINUOUS
 62
     1
 10
-8.5
 20
70.6457956099
 30
0.0
 11
-8.5
 21
70.0
 31
0.0
  0
LINE
  5
6C
  8
SK1
  6
CONTINUOUS
 62
     1
 10
-49.0
 20
31.5408
 30
0.0
 11
-49.0
 21
-31.53952
 31
0.0
  0
LINE
  5
6D
  8
SK1
  6
CONTINUOUS
 62
     1
 10
-75.0
 20
29.556624327
 30
0.0
 11
-75.0
 21
-29.556624327
 31
0.0
  0
LINE
  5
6E
  8
SK1
  6
CONTINUOUS
 62
     1
 10
-72.5
 20
31.0
 30
0.0
 11
-72.5
 21
-31.0
 31
0.0
  0
LINE
  5
6F
  8
SK1
  6
CONTINUOUS
 62
     1
 10
-70.1
 20
31.0
 30
0.0
 11
-70.1
 21
-31.0
 31
0.0
  0
LINE
  5
70
  8
SK1
  6
CONTINUOUS
 62
     1
 10
-67.5
 20
31.0
 30
0.0
 11
-67.5
 21
-31.0
 31
0.0
  0
LINE
  5
71
  8
SK1
  6
CONTINUOUS
 62
     1
 10
-65.5
 20
31.0
 30
0.0
 11
-65.5
 21
-31.0
 31
0.0
  0
LINE
  5
72
  8
SK1
  6
CONTINUOUS
 62
     1
 10
-57.5
 20
30.9226497308
 30
0.0
 11
-57.5
 21
-30.9226497308
 31
0.0
  0
LINE
  5
73
  8
SK1
  6
CONTINUOUS
 62
     1
 10
-56.5
 20
31.5
 30
0.0
 11
-56.5
 21
-31.5
 31
0.0
  0
LINE
  5
74
  8
SK1
  6
CONTINUOUS
 62
     1
 10
-55.6
 20
31.5
 30
0.0
 11
-55.6
 21
-31.5
 31
0.0
  0
LINE
  5
75
  8
SK1
  6
CONTINUOUS
 62
     1
 10
-53.0
 20
31.5
 30
0.0
 11
-53.0
 21
-31.5
 31
0.0
  0
LINE
  5
76
  8
SK1
  6
CONTINUOUS
 62
     1
 10
-49.0
 20
-31.54
 30
0.0
 11
-20.0
 21
-31.54
 31
0.0
  0
LINE
  5
77
  8
SK1
  6
CONTINUOUS
 62
     1
 10
-20.0
 20
31.54
 30
0.0
 11
-49.0
 21
31.54
 31
0.0
  0
LINE
  5
78
  8
SK1
  6
CONTINUOUS
 62
     1
 10
-72.5
 20
31.0
 30
0.0
 11
-75.0
 21
29.556624327
 31
0.0
  0
LINE
  5
79
  8
SK1
  6
CONTINUOUS
 62
     1
 10
-75.0
 20
-29.556624327
 30
0.0
 11
-72.5
 21
-31.0
 31
0.0
  0
LINE
  5
7A
  8
SK1
  6
CONTINUOUS
 62
     1
 10
-72.5
 20
-31.0
 30
0.0
 11
-70.1
 21
-31.0
 31
0.0
  0
LINE
  5
7B
  8
SK1
  6
CONTINUOUS
 62
     1
 10
-70.1
 20
31.0
 30
0.0
 11
-72.5
 21
31.0
 31
0.0
  0
LINE
  5
7C
  8
SK1
  6
CONTINUOUS
 62
     1
 10
-70.1
 20
-29.4
 30
0.0
 11
-69.9
 21
-29.4
 31
0.0
  0
LINE
  5
7D
  8
SK1
  6
CONTINUOUS
 62
     1
 10
-69.9
 20
29.4
 30
0.0
 11
-70.1
 21
29.4
 31
0.0
  0
LINE
  5
7E
  8
SK1
  6
CONTINUOUS
 62
     1
 10
-67.5
 20
-31.0
 30
0.0
 11
-65.5
 21
-31.0
 31
0.0
  0
LINE
  5
7F
  8
SK1
  6
CONTINUOUS
 62
     1
 10
-65.5
 20
31.0
 30
0.0
 11
-67.5
 21
31.0
 31
0.0
  0
LINE
  5
80
  8
SK1
  6
CONTINUOUS
 62
     1
 10
-65.5
 20
-28.0
 30
0.0
 11
-57.5
 21
-28.0
 31
0.0
  0
LINE
  5
81
  8
SK1
  6
CONTINUOUS
 62
     1
 10
-57.5
 20
28.0
 30
0.0
 11
-65.5
 21
28.0
 31
0.0
  0
LINE
  5
82
  8
SK1
  6
CONTINUOUS
 62
     1
 10
-56.5
 20
31.5
 30
0.0
 11
-57.5
 21
30.9226497308
 31
0.0
  0
LINE
  5
83
  8
SK1
  6
CONTINUOUS
 62
     1
 10
-57.5
 20
-30.9226497308
 30
0.0
 11
-56.5
 21
-31.5
 31
0.0
  0
LINE
  5
84
  8
SK1
  6
CONTINUOUS
 62
     1
 10
-56.5
 20
-31.5
 30
0.0
 11
-55.6
 21
-31.5
 31
0.0
  0
LINE
  5
85
  8
SK1
  6
CONTINUOUS
 62
     1
 10
-55.6
 20
31.5
 30
0.0
 11
-56.5
 21
31.5
 31
0.0
  0
LINE
  5
86
  8
SK1
  6
CONTINUOUS
 62
     1
 10
-53.2
 20
-29.9
 30
0.0
 11
-53.0
 21
-29.9
 31
0.0
  0
LINE
  5
87
  8
SK1
  6
CONTINUOUS
 62
     1
 10
-53.0
 20
29.9
 30
0.0
 11
-53.2
 21
29.9
 31
0.0
  0
LINE
  5
88
  8
SK1
  6
CONTINUOUS
 62
     1
 10
-53.0
 20
-31.5
 30
0.0
 11
-49.0
 21
-31.5
 31
0.0
  0
LINE
  5
89
  8
SK1
  6
CONTINUOUS
 62
     1
 10
-49.0
 20
31.5
 30
0.0
 11
-53.0
 21
31.5
 31
0.0
  0
LINE
  5
8A
  8
SK1
  6
CONTINUOUS
 62
     1
 10
-69.9
 20
30.25
 30
0.0
 11
-69.9
 21
-30.25
 31
0.0
  0
ARC
  5
8B
  8
SK1
  6
CONTINUOUS
 62
     1
 10
-69.15
 20
-30.25
 30
0.0
 40
0.7500000000000007
 50
180.0
 51
270.0
  0
ARC
  5
8C
  8
SK1
  6
CONTINUOUS
 62
     1
 10
-69.15
 20
30.25
 30
0.0
 40
0.7500000000000007
 50
90.0
 51
180.0
  0
LINE
  5
8D
  8
SK1
  6
CONTINUOUS
 62
     1
 10
-69.15
 20
-31.0
 30
0.0
 11
-68.25
 21
-31.0
 31
0.0
  0
LINE
  5
8E
  8
SK1
  6
CONTINUOUS
 62
     1
 10
-68.25
 20
31.0
 30
0.0
 11
-69.15
 21
31.0
 31
0.0
  0
ARC
  5
8F
  8
SK1
  6
CONTINUOUS
 62
     1
 10
-68.25
 20
-30.25
 30
0.0
 40
0.7500000000000007
 50
270.0
 51
0.0
  0
ARC
  5
90
  8
SK1
  6
CONTINUOUS
 62
     1
 10
-68.25
 20
30.25
 30
0.0
 40
0.7500000000000007
 50
0.0
 51
90.0
  0
LINE
  5
91
  8
SK1
  6
CONTINUOUS
 62
     1
 10
-53.2
 20
-30.9
 30
0.0
 11
-53.2
 21
30.9
 31
0.0
  0
ARC
  5
92
  8
SK1
  6
CONTINUOUS
 62
     1
 10
-53.8
 20
30.9
 30
0.0
 40
0.6000000000000033
 50
0.0
 51
90.0
  0
ARC
  5
93
  8
SK1
  6
CONTINUOUS
 62
     1
 10
-53.8
 20
-30.9
 30
0.0
 40
0.6000000000000033
 50
270.0
 51
0.0
  0
LINE
  5
94
  8
SK1
  6
CONTINUOUS
 62
     1
 10
-53.8
 20
31.5
 30
0.0
 11
-55.0
 21
31.5
 31
0.0
  0
LINE
  5
95
  8
SK1
  6
CONTINUOUS
 62
     1
 10
-55.0
 20
-31.5
 30
0.0
 11
-53.8
 21
-31.5
 31
0.0
  0
ARC
  5
96
  8
SK1
  6
CONTINUOUS
 62
     1
 10
-55.0
 20
30.9
 30
0.0
 40
0.6000000000000033
 50
90.0
 51
180.0
  0
ARC
  5
97
  8
SK1
  6
CONTINUOUS
 62
     1
 10
-55.0
 20
-30.9
 30
0.0
 40
0.6000000000000033
 50
180.0
 51
270.0
  0
LINE
  5
98
  8
1
  6
CONTINUOUS
 62
     1
 10
31.0
 20
53.0
 30
0.0
 11
31.0
 21
39.0
 31
0.0
  0
LINE
  5
99
  8
1
  6
CONTINUOUS
 62
     1
 10
30.0
 20
54.0
 30
0.0
 11
30.0
 21
38.0
 31
0.0
  0
LINE
  5
9A
  8
1
  6
CONTINUOUS
 62
     1
 10
21.335
 20
54.0
 30
0.0
 11
21.335
 21
38.0
 31
0.0
  0
LINE
  5
9B
  8
SK1
  6
CONTINUOUS
 62
     1
 10
-13.08
 20
51.0
 30
0.0
 11
-13.08
 21
41.0
 31
0.0
  0
LINE
  5
9C
  8
SK1
  6
CONTINUOUS
 62
     1
 10
-14.0
 20
50.08
 30
0.0
 11
-14.0
 21
41.92
 31
0.0
  0
LINE
  5
9D
  8
1
  6
CONTINUOUS
 62
     1
 10
30.0
 20
38.0
 30
0.0
 11
31.0
 21
39.0
 31
0.0
  0
LINE
  5
9E
  8
1
  6
CONTINUOUS
 62
     1
 10
31.0
 20
53.0
 30
0.0
 11
30.0
 21
54.0
 31
0.0
  0
LINE
  5
9F
  8
1
  6
CONTINUOUS
 62
     1
 10
21.335
 20
38.0
 30
0.0
 11
30.0
 21
38.0
 31
0.0
  0
LINE
  5
A0
  8
1
  6
CONTINUOUS
 62
     1
 10
30.0
 20
54.0
 30
0.0
 11
21.335
 21
54.0
 31
0.0
  0
LINE
  5
A1
  8
1
  6
CONTINUOUS
 62
     1
 10
21.335
 20
54.0
 30
0.0
 11
21.0
 21
53.665
 31
0.0
  0
LINE
  5
A2
  8
1
  6
CONTINUOUS
 62
     1
 10
21.0
 20
38.335
 30
0.0
 11
21.335
 21
38.0
 31
0.0
  0
LINE
  5
A3
  8
SK1
  6
CONTINUOUS
 62
     1
 10
-13.08
 20
41.0
 30
0.0
 11
0.0
 21
41.0
 31
0.0
  0
LINE
  5
A4
  8
SK1
  6
CONTINUOUS
 62
     1
 10
0.0
 20
51.0
 30
0.0
 11
-13.08
 21
51.0
 31
0.0
  0
LINE
  5
A5
  8
SK1
  6
CONTINUOUS
 62
     1
 10
-13.08
 20
51.0
 30
0.0
 11
-14.0
 21
50.08
 31
0.0
  0
LINE
  5
A6
  8
SK1
  6
CONTINUOUS
 62
     1
 10
-14.0
 20
41.92
 30
0.0
 11
-13.08
 21
41.0
 31
0.0
  0
LINE
  5
A7
  8
1
  6
CONTINUOUS
 62
     1
 10
21.0
 20
38.0
 30
0.0
 11
21.0
 21
54.0
 31
0.0
  0
LINE
  5
A8
  8
1
  6
CONTINUOUS
 62
     1
 10
20.0
 20
38.0
 30
0.0
 11
21.0
 21
38.0
 31
0.0
  0
LINE
  5
A9
  8
1
  6
CONTINUOUS
 62
     1
 10
21.0
 20
54.0
 30
0.0
 11
20.0
 21
54.0
 31
0.0
  0
LINE
  5
AA
  8
1
  6
CONTINUOUS
 62
     1
 10
85.0
 20
0.00064
 30
0.0
 11
135.0
 21
0.00064
 31
0.0
  0
LINE
  5
AB
  8
1
  6
CONTINUOUS
 62
     1
 10
141.175
 20
0.5
 30
0.0
 11
78.825
 21
0.5
 31
0.0
  0
LINE
  5
AC
  8
1
  6
CONTINUOUS
 62
     1
 10
78.325
 20
1.0
 30
0.0
 11
78.325
 21
8.0
 31
0.0
  0
LINE
  5
AD
  8
1
  6
CONTINUOUS
 62
     1
 10
141.675
 20
1.0
 30
0.0
 11
141.675
 21
8.0
 31
0.0
  0
LINE
  5
AE
  8
1
  6
CONTINUOUS
 62
     1
 10
78.325
 20
1.0
 30
0.0
 11
141.675
 21
1.0
 31
0.0
  0
LINE
  5
AF
  8
1
  6
CONTINUOUS
 62
     1
 10
141.175
 20
0.5
 30
0.0
 11
141.675
 21
1.0
 31
0.0
  0
LINE
  5
B0
  8
1
  6
CONTINUOUS
 62
     1
 10
78.325
 20
1.0
 30
0.0
 11
78.825
 21
0.5
 31
0.0
  0
LINE
  5
B1
  8
1
  6
CONTINUOUS
 62
     1
 10
135.0
 20
0.0
 30
0.0
 11
135.0
 21
0.3923393759
 31
0.0
  0
LINE
  5
B2
  8
1
  6
CONTINUOUS
 62
     1
 10
85.0
 20
0.3923393759
 30
0.0
 11
85.0
 21
0.0
 31
0.0
  0
LINE
  5
B3
  8
1
  6
CONTINUOUS
 62
     1
 10
31.0
 20
-39.0
 30
0.0
 11
31.0
 21
-53.0
 31
0.0
  0
LINE
  5
B4
  8
1
  6
CONTINUOUS
 62
     1
 10
30.0
 20
-38.0
 30
0.0
 11
30.0
 21
-54.0
 31
0.0
  0
LINE
  5
B5
  8
1
  6
CONTINUOUS
 62
     1
 10
21.335
 20
-38.0
 30
0.0
 11
21.335
 21
-54.0
 31
0.0
  0
LINE
  5
B6
  8
SK1
  6
CONTINUOUS
 62
     1
 10
-13.08
 20
-41.0
 30
0.0
 11
-13.08
 21
-51.0
 31
0.0
  0
LINE
  5
B7
  8
SK1
  6
CONTINUOUS
 62
     1
 10
-14.0
 20
-41.92
 30
0.0
 11
-14.0
 21
-50.08
 31
0.0
  0
LINE
  5
B8
  8
1
  6
CONTINUOUS
 62
     1
 10
30.0
 20
-54.0
 30
0.0
 11
31.0
 21
-53.0
 31
0.0
  0
LINE
  5
B9
  8
1
  6
CONTINUOUS
 62
     1
 10
31.0
 20
-39.0
 30
0.0
 11
30.0
 21
-38.0
 31
0.0
  0
LINE
  5
BA
  8
1
  6
CONTINUOUS
 62
     1
 10
21.335
 20
-54.0
 30
0.0
 11
30.0
 21
-54.0
 31
0.0
  0
LINE
  5
BB
  8
1
  6
CONTINUOUS
 62
     1
 10
30.0
 20
-38.0
 30
0.0
 11
21.335
 21
-38.0
 31
0.0
  0
LINE
  5
BC
  8
1
  6
CONTINUOUS
 62
     1
 10
21.335
 20
-38.0
 30
0.0
 11
21.0
 21
-38.335
 31
0.0
  0
LINE
  5
BD
  8
1
  6
CONTINUOUS
 62
     1
 10
21.0
 20
-53.665
 30
0.0
 11
21.335
 21
-54.0
 31
0.0
  0
LINE
  5
BE
  8
SK1
  6
CONTINUOUS
 62
     1
 10
-13.08
 20
-51.0
 30
0.0
 11
0.0
 21
-51.0
 31
0.0
  0
LINE
  5
BF
  8
SK1
  6
CONTINUOUS
 62
     1
 10
0.0
 20
-41.0
 30
0.0
 11
-13.08
 21
-41.0
 31
0.0
  0
LINE
  5
C0
  8
SK1
  6
CONTINUOUS
 62
     1
 10
-13.08
 20
-41.0
 30
0.0
 11
-14.0
 21
-41.92
 31
0.0
  0
LINE
  5
C1
  8
SK1
  6
CONTINUOUS
 62
     1
 10
-14.0
 20
-50.08
 30
0.0
 11
-13.08
 21
-51.0
 31
0.0
  0
LINE
  5
C2
  8
1
  6
CONTINUOUS
 62
     1
 10
20.0
 20
-57.0
 30
0.0
 11
20.0
 21
-59.75
 31
0.0
  0
LINE
  5
C3
  8
1
  6
CONTINUOUS
 62
     1
 10
0.0
 20
-57.0
 30
0.0
 11
0.0
 21
-60.0
 31
0.0
  0
LINE
  5
C4
  8
1
  6
CONTINUOUS
 62
     1
 10
0.0
 20
57.0
 30
0.0
 11
0.0
 21
-57.0
 31
0.0
  0
LINE
  5
C5
  8
1
  6
CONTINUOUS
 62
     1
 10
0.0
 20
60.0
 30
0.0
 11
0.0
 21
57.0
 31
0.0
  0
LINE
  5
C6
  8
1
  6
CONTINUOUS
 62
     1
 10
20.0
 20
-57.0
 30
0.0
 11
0.0
 21
-57.0
 31
0.0
  0
LINE
  5
C7
  8
1
  6
CONTINUOUS
 62
     1
 10
20.0
 20
57.0
 30
0.0
 11
0.0
 21
57.0
 31
0.0
  0
LINE
  5
C8
  8
SK1
  6
CONTINUOUS
 62
     1
 10
-10.0
 20
40.0
 30
0.0
 11
-10.0
 21
-40.0
 31
0.0
  0
LINE
  5
C9
  8
SK1
  6
CONTINUOUS
 62
     1
 10
-10.4330127019
 20
39.75
 30
0.0
 11
-10.4330127019
 21
-39.75
 31
0.0
  0
LINE
  5
CA
  8
SK1
  6
CONTINUOUS
 62
     1
 10
-17.0
 20
39.75
 30
0.0
 11
-17.0
 21
-39.75
 31
0.0
  0
LINE
  5
CB
  8
SK1
  6
CONTINUOUS
 62
     1
 10
-20.0
 20
38.0179491924
 30
0.0
 11
-20.0
 21
-38.0179491924
 31
0.0
  0
LINE
  5
CC
  8
SK1
  6
CONTINUOUS
 62
     1
 10
-0.1147997808
 20
40.25
 30
0.0
 11
-0.1147997808
 21
-40.25
 31
0.0
  0
LINE
  5
CD
  8
SK1
  6
CONTINUOUS
 62
     1
 10
-2.0
 20
40.0
 30
0.0
 11
-2.0
 21
-40.0
 31
0.0
  0
LINE
  5
CE
  8
1
  6
CONTINUOUS
 62
     1
 10
20.0
 20
25.0
 30
0.0
 11
20.0
 21
57.0
 31
0.0
  0
LINE
  5
CF
  8
1
  6
CONTINUOUS
 62
     1
 10
94.0
 20
25.0
 30
0.0
 11
94.0
 21
78.0
 31
0.0
  0
LINE
  5
D0
  8
1
  6
CONTINUOUS
 62
     1
 10
94.0
 20
25.0
 30
0.0
 11
20.0
 21
25.0
 31
0.0
  0
LINE
  5
D1
  8
1
  6
CONTINUOUS
 62
     1
 10
20.0
 20
-10.0
 30
0.0
 11
20.0
 21
-57.0
 31
0.0
  0
LINE
  5
D2
  8
1
  6
CONTINUOUS
 62
     1
 10
125.1715728753
 20
8.0
 30
0.0
 11
66.656241353
 21
8.0
 31
0.0
  0
LINE
  5
D3
  8
1
  6
CONTINUOUS
 62
     1
 10
126.0
 20
78.0
 30
0.0
 11
126.0
 21
10.0
 31
0.0
  0
LINE
  5
D4
  8
1
  6
CONTINUOUS
 62
     1
 10
54.8203314817
 20
-10.0
 30
0.0
 11
20.0
 21
-10.0
 31
0.0
  0
LINE
  5
D5
  8
1
  6
CONTINUOUS
 62
     1
 10
54.8203314817
 20
-10.0
 30
0.0
 11
65.4545201149
 21
10.0
 31
0.0
  0
LINE
  5
D6
  8
1
  6
CONTINUOUS
 62
     1
 10
65.4545201149
 20
10.0
 30
0.0
 11
126.0
 21
10.0
 31
0.0
  0
LINE
  5
D7
  8
1
  6
CONTINUOUS
 62
     1
 10
126.0
 20
78.0
 30
0.0
 11
94.0
 21
78.0
 31
0.0
  0
LINE
  5
D8
  8
1
  6
CONTINUOUS
 62
     1
 10
125.1715728753
 20
80.0
 30
0.0
 11
140.0
 21
80.0
 31
0.0
  0
LINE
  5
D9
  8
1
  6
CONTINUOUS
 62
     1
 10
94.8284271247
 20
80.0
 30
0.0
 11
125.1715728753
 21
80.0
 31
0.0
  0
LINE
  5
DA
  8
1
  6
CONTINUOUS
 62
     1
 10
70.4895923599
 20
80.0
 30
0.0
 11
94.8284271247
 21
80.0
 31
0.0
  0
LINE
  5
DB
  8
1
  6
CONTINUOUS
 62
     1
 10
61.6507575951
 20
80.0
 30
0.0
 11
70.4895923599
 21
80.0
 31
0.0
  0
LINE
  5
DC
  8
1
  6
CONTINUOUS
 62
     1
 10
50.5
 20
80.0
 30
0.0
 11
61.6507575951
 21
80.0
 31
0.0
  0
LINE
  5
DD
  8
1
  6
CONTINUOUS
 62
     1
 10
142.0
 20
10.0
 30
0.0
 11
142.0
 21
78.0
 31
0.0
  0
LINE
  5
DE
  8
1
  6
CONTINUOUS
 62
     1
 10
142.0
 20
10.0
 30
0.0
 11
142.0
 21
8.25
 31
0.0
  0
LINE
  5
DF
  8
1
  6
CONTINUOUS
 62
     1
 10
61.6507575951
 20
78.0
 30
0.0
 11
51.3284271247
 21
78.0
 31
0.0
  0
LINE
  5
E0
  8
1
  6
CONTINUOUS
 62
     1
 10
69.0753787975
 20
78.0
 30
0.0
 11
61.6507575951
 21
78.0
 31
0.0
  0
LINE
  5
E1
  8
1
  6
CONTINUOUS
 62
     1
 10
94.0
 20
78.0
 30
0.0
 11
69.0753787975
 21
78.0
 31
0.0
  0
LINE
  5
E2
  8
1
  6
CONTINUOUS
 62
     1
 10
142.0
 20
78.0
 30
0.0
 11
126.0
 21
78.0
 31
0.0
  0
LINE
  5
E3
  8
1
  6
CONTINUOUS
 62
     1
 10
126.0
 20
10.0
 30
0.0
 11
142.0
 21
10.0
 31
0.0
  0
LINE
  5
E4
  8
1
  6
CONTINUOUS
 62
     1
 10
66.656241353
 20
8.0
 30
0.0
 11
57.0854715831
 21
-10.0
 31
0.0
  0
LINE
  5
E5
  8
1
  6
CONTINUOUS
 62
     1
 10
57.0854715831
 20
-10.0
 30
0.0
 11
54.8203314817
 21
-10.0
 31
0.0
  0
LINE
  5
E6
  8
1
  6
CONTINUOUS
 62
     1
 10
142.0
 20
78.0
 30
0.0
 11
140.0
 21
80.0
 31
0.0
  0
LINE
  5
E7
  8
1
  6
CONTINUOUS
 62
     1
 10
126.0
 20
78.0
 30
0.0
 11
125.1715728753
 21
80.0
 31
0.0
  0
LINE
  5
E8
  8
1
  6
CONTINUOUS
 62
     1
 10
94.8284271247
 20
80.0
 30
0.0
 11
94.0
 21
78.0
 31
0.0
  0
LINE
  5
E9
  8
1
  6
CONTINUOUS
 62
     1
 10
65.4545201149
 20
10.0
 30
0.0
 11
66.656241353
 21
8.0
 31
0.0
  0
LINE
  5
EA
  8
1
  6
CONTINUOUS
 62
     1
 10
125.1715728753
 20
8.0
 30
0.0
 11
126.0
 21
10.0
 31
0.0
  0
LINE
  5
EB
  8
1
  6
CONTINUOUS
 62
     1
 10
30.5
 20
60.0
 30
0.0
 11
20.3388430195
 21
60.0
 31
0.0
  0
LINE
  5
EC
  8
1
  6
CONTINUOUS
 62
     1
 10
30.5
 20
-60.0
 30
0.0
 11
20.3388430195
 21
-60.0
 31
0.0
  0
LINE
  5
ED
  8
1
  6
CONTINUOUS
 62
     1
 10
51.3284271247
 20
78.0
 30
0.0
 11
30.5
 21
57.1715728753
 31
0.0
  0
LINE
  5
EE
  8
1
  6
CONTINUOUS
 62
     1
 10
30.5
 20
60.0
 30
0.0
 11
50.5
 21
80.0
 31
0.0
  0
LINE
  5
EF
  8
1
  6
CONTINUOUS
 62
     1
 10
50.5
 20
80.0
 30
0.0
 11
51.3284271247
 21
78.0
 31
0.0
  0
LINE
  5
F0
  8
1
  6
CONTINUOUS
 62
     1
 10
57.0854715831
 20
-10.0
 30
0.0
 11
32.2658951857
 21
-56.6788341892
 31
0.0
  0
LINE
  5
F1
  8
1
  6
CONTINUOUS
 62
     1
 10
32.2658951857
 20
-56.6788341892
 30
0.0
 11
30.4999999381
 21
-60.0000001164
 31
0.0
  0
LINE
  5
F2
  8
1
  6
CONTINUOUS
 62
     1
 10
30.5
 20
-60.0000000916
 30
0.0
 11
30.5
 21
-59.7624969163
 31
0.0
  0
LINE
  5
F3
  8
1
  6
CONTINUOUS
 62
     1
 10
30.5
 20
-59.7624969163
 30
0.0
 11
29.478587691
 21
-58.0267927836
 31
0.0
  0
LINE
  5
F4
  8
1
  6
CONTINUOUS
 62
     1
 10
29.4785872968
 20
-58.0267932061
 30
0.0
 11
30.5
 21
-55.7398910636
 31
0.0
  0
LINE
  5
F5
  8
1
  6
CONTINUOUS
 62
     1
 10
30.5
 20
-55.7398910636
 30
0.0
 11
54.8203314817
 21
-10.0
 31
0.0
  0
POLYLINE
  5
F6
  8
1
  6
CONTINUOUS
 62
     1
 66
     1
 10
0.0
 20
0.0
 30
0.0
  0
VERTEX
  5
17A
  8
1
  6
CONTINUOUS
 62
     1
 10
31.3424485585
 20
57.9661492645
 30
0.0
  0
VERTEX
  5
17B
  8
1
  6
CONTINUOUS
 62
     1
 10
30.9215641843
 20
57.5811641904
 30
0.0
  0
VERTEX
  5
17C
  8
1
  6
CONTINUOUS
 62
     1
 10
30.5
 20
57.1715728753
 30
0.0
  0
SEQEND
  5
1B9
  8
1
  6
CONTINUOUS
 62
     1
  0
LINE
  5
F7
  8
1
  6
CONTINUOUS
 62
     1
 10
31.3424485585
 20
57.9661492645
 30
0.0
 11
30.5
 21
60.0
 31
0.0
  0
LINE
  5
F8
  8
1
  6
CONTINUOUS
 62
     1
 10
30.5
 20
-55.7398910636
 30
0.0
 11
32.2658951857
 21
-56.6788341892
 31
0.0
  0
LINE
  5
F9
  8
1
  6
CONTINUOUS
 62
     1
 10
141.75
 20
8.0
 30
0.0
 11
125.1715728753
 21
8.0
 31
0.0
  0
LINE
  5
FA
  8
1
  6
CONTINUOUS
 62
     1
 10
141.75
 20
8.0
 30
0.0
 11
142.0
 21
8.25
 31
0.0
  0
LINE
  5
FB
  8
1
  6
CONTINUOUS
 62
     1
 10
19.75
 20
60.0
 30
0.0
 11
0.0
 21
60.0
 31
0.0
  0
LINE
  5
FC
  8
1
  6
CONTINUOUS
 62
     1
 10
19.75
 20
60.0
 30
0.0
 11
20.3388430195
 21
60.0
 31
0.0
  0
ARC
  5
FD
  8
1
  6
CONTINUOUS
 62
     1
 10
31.6819842536
 20
93.4331077068
 30
0.0
 40
35.46858364295769
 50
251.7429076962
 51
269.4515072929
  0
LINE
  5
FE
  8
1
  6
CONTINUOUS
 62
     1
 10
20.5703380726
 20
59.75
 30
0.0
 11
20.0
 21
59.75
 31
0.0
  0
LINE
  5
FF
  8
1
  6
CONTINUOUS
 62
     1
 10
20.0
 20
59.75
 30
0.0
 11
20.0
 21
57.0
 31
0.0
  0
LINE
  5
100
  8
1
  6
CONTINUOUS
 62
     1
 10
20.0
 20
59.75
 30
0.0
 11
19.75
 21
60.0
 31
0.0
  0
LINE
  5
101
  8
1
  6
CONTINUOUS
 62
     1
 10
20.3388430195
 20
60.0
 30
0.0
 11
20.5703380726
 21
59.75
 31
0.0
  0
ARC
  5
102
  8
1
  6
CONTINUOUS
 62
     1
 10
31.9631725142
 20
-94.7585878904
 30
0.0
 40
36.81572901214135
 50
93.8696646893
 51
108.0264270139
  0
LINE
  5
103
  8
1
  6
CONTINUOUS
 62
     1
 10
20.0
 20
-59.75
 30
0.0
 11
20.5703380726
 21
-59.75
 31
0.0
  0
LINE
  5
104
  8
1
  6
CONTINUOUS
 62
     1
 10
20.5703380726
 20
-59.75
 30
0.0
 11
20.3388430195
 21
-60.0
 31
0.0
  0
LINE
  5
105
  8
1
  6
CONTINUOUS
 62
     1
 10
19.75
 20
-60.0
 30
0.0
 11
0.0
 21
-60.0
 31
0.0
  0
LINE
  5
106
  8
1
  6
CONTINUOUS
 62
     1
 10
20.3388430195
 20
-60.0
 30
0.0
 11
19.75
 21
-60.0
 31
0.0
  0
LINE
  5
107
  8
1
  6
CONTINUOUS
 62
     1
 10
19.75
 20
-60.0
 30
0.0
 11
20.0
 21
-59.75
 31
0.0
  0
LINE
  5
108
  8
SK1
  6
CONTINUOUS
 62
     1
 10
-10.0
 20
-40.0
 30
0.0
 11
-2.0
 21
-40.0
 31
0.0
  0
LINE
  5
109
  8
SK1
  6
CONTINUOUS
 62
     1
 10
-2.0
 20
40.0
 30
0.0
 11
-10.0
 21
40.0
 31
0.0
  0
LINE
  5
10A
  8
SK1
  6
CONTINUOUS
 62
     1
 10
-10.0
 20
40.0
 30
0.0
 11
-10.4330127019
 21
39.75
 31
0.0
  0
LINE
  5
10B
  8
SK1
  6
CONTINUOUS
 62
     1
 10
-10.4330127019
 20
-39.75
 30
0.0
 11
-10.0
 21
-40.0
 31
0.0
  0
LINE
  5
10C
  8
SK1
  6
CONTINUOUS
 62
     1
 10
-17.0
 20
-39.75
 30
0.0
 11
-10.4330127019
 21
-39.75
 31
0.0
  0
LINE
  5
10D
  8
SK1
  6
CONTINUOUS
 62
     1
 10
-10.4330127019
 20
39.75
 30
0.0
 11
-17.0
 21
39.75
 31
0.0
  0
LINE
  5
10E
  8
SK1
  6
CONTINUOUS
 62
     1
 10
-17.0
 20
39.75
 30
0.0
 11
-20.0
 21
38.0179491924
 31
0.0
  0
LINE
  5
10F
  8
SK1
  6
CONTINUOUS
 62
     1
 10
-20.0
 20
-38.0179491924
 30
0.0
 11
-17.0
 21
-39.75
 31
0.0
  0
LINE
  5
110
  8
SK1
  6
CONTINUOUS
 62
     1
 10
-0.1147997808
 20
-40.25
 30
0.0
 11
0.0
 21
-40.25
 31
0.0
  0
LINE
  5
111
  8
SK1
  6
CONTINUOUS
 62
     1
 10
0.0
 20
40.25
 30
0.0
 11
-0.1147997808
 21
40.25
 31
0.0
  0
LINE
  5
112
  8
SK1
  6
CONTINUOUS
 62
     1
 10
-2.0
 20
-40.0
 30
0.0
 11
-1.69904426
 21
-39.8904610688
 31
0.0
  0
LINE
  5
113
  8
SK1
  6
CONTINUOUS
 62
     1
 10
-1.69904426
 20
39.8904610688
 30
0.0
 11
-2.0
 21
40.0
 31
0.0
  0
ARC
  5
114
  8
SK1
  6
CONTINUOUS
 62
     1
 10
-1.186014045
 20
-41.3
 30
0.0
 40
1.500000000000003
 50
44.4270040008
 51
110.0
  0
ARC
  5
115
  8
SK1
  6
CONTINUOUS
 62
     1
 10
-1.186014045
 20
41.3
 30
0.0
 40
1.5
 50
250.0
 51
315.5729959992
  0
LINE
  5
116
  8
1
  6
CONTINUOUS
 62
     1
 10
21.0
 20
-54.0
 30
0.0
 11
21.0
 21
-38.0
 31
0.0
  0
LINE
  5
117
  8
1
  6
CONTINUOUS
 62
     1
 10
20.0
 20
-54.0
 30
0.0
 11
21.0
 21
-54.0
 31
0.0
  0
LINE
  5
118
  8
1
  6
CONTINUOUS
 62
     1
 10
21.0
 20
-38.0
 30
0.0
 11
20.0
 21
-38.0
 31
0.0
  0
LINE
  5
11B
  8
SK3
  6
HIDDEN2
 62
     7
 10
93.1600551923
 20
29.4
 30
0.0
 11
92.4736104046
 21
1.8057724829
 31
0.0
  0
LINE
  5
11C
  8
SK3
  6
HIDDEN2
 62
     7
 10
92.4736104046
 20
1.8057724829
 30
0.0
 11
91.9936508624
 21
0.5
 31
0.0
  0
LINE
  5
11D
  8
SK3
  6
HIDDEN2
 62
     7
 10
126.8382076683
 20
29.4
 30
0.0
 11
127.5249606211
 21
1.8057724829
 31
0.0
  0
LINE
  5
11E
  8
SK3
  6
HIDDEN2
 62
     7
 10
127.5249606211
 20
1.8057724829
 30
0.0
 11
128.0066519672
 21
0.5
 31
0.0
  0
LINE
  5
121
  8
SK4
  6
CENTER2
 62
     7
 10
-18.3302784003
 20
46.0
 30
0.0
 11
36.0147458172
 21
46.0
 31
0.0
  0
LINE
  5
122
  8
SK4
  6
CENTER2
 62
     7
 10
-18.3302784003
 20
-46.0
 30
0.0
 11
33.8800590614
 21
-46.0
 31
0.0
  0
LINE
  5
123
  8
SK4
  6
CENTER2
 62
     7
 10
-79.3227215432
 20
0.0
 30
0.0
 11
4.5413300417
 21
0.0
 31
0.0
  0
LINE
  5
124
  8
SK4
  6
CENTER2
 62
     7
 10
110.0
 20
-4.688205756
 30
0.0
 11
110.0
 21
84.6925391139
 31
0.0
  0
LINE
  5
126
  8
4
  6
CENTER2
 62
     7
 10
110.0
 20
-4.688205756
 30
0.0
 11
110.0
 21
32.5966052617
 31
0.0
  0
LINE
  5
127
  8
80
  6
CONTINUOUS
 62
     7
 10
0.0
 20
0.0
 30
0.0
 11
-20.0
 21
0.0
 31
0.0
  0
LINE
  5
129
  8
81
  6
CONTINUOUS
 62
     7
 10
110.0
 20
0.0004
 30
0.0
 11
110.0
 21
-19.9996
 31
0.0
  0
POINT
  5
12A
  8
81
  6
CONTINUOUS
 62
     7
 10
110.0
 20
0.0004
 30
0.0
  0
INSERT
  5
12D
  8
SK6
  2
SEANNOT_GROUP
 10
0.0
 20
0.0
 30
0.0
  0
INSERT
  5
134
  8
SK2
  2
GDIMGGROUP
 10
0.0
 20
0.0
 30
0.0
  0
INSERT
  5
13E
  8
SK2
  2
GDIMGGROUP1
 10
0.0
 20
0.0
 30
0.0
  0
INSERT
  5
148
  8
SK2
  2
GDIMGGROUP2
 10
0.0
 20
0.0
 30
0.0
  0
INSERT
  5
154
  8
SK2
  2
GDIMGGROUP3
 10
0.0
 20
0.0
 30
0.0
  0
INSERT
  5
15F
  8
SK2
  2
GDIMGGROUP4
 10
0.0
 20
0.0
 30
0.0
  0
INSERT
  5
16A
  8
SK2
  2
GDIMGGROUP5
 10
0.0
 20
0.0
 30
0.0
  0
ENDSEC
  0
EOF
