  0
SECTION
  2
HEADER
  9
$ACADVER
  1
AC1015
  9
$ACADMAINTVER
 70
    20
  9
$DWGCODEPAGE
  3
ANSI_1252
  9
$INSBASE
 10
0.0
 20
0.0
 30
0.0
  9
$EXTMIN
 10
-15.593319
 20
-23.27102900000001
 30
0.0
  9
$EXTMAX
 10
80.19173999999999
 20
37.98275
 30
0.0
  9
$LIMMIN
 10
0.0
 20
0.0
  9
$LIMMAX
 10
12.0
 20
9.0
  9
$ORTHOMODE
 70
     0
  9
$REGENMODE
 70
     1
  9
$FILLMODE
 70
     1
  9
$QTEXTMODE
 70
     0
  9
$MIRRTEXT
 70
     1
  9
$LTSCALE
 40
1.0
  9
$ATTMODE
 70
     1
  9
$TEXTSIZE
 40
3.0
  9
$TRACEWID
 40
10.0
  9
$TEXTSTYLE
  7
SANDVIK_STYLE
  9
$CLAYER
  8
1
  9
$CELTYPE
  6
ByLayer
  9
$CECOLOR
 62
   256
  9
$CELTSCALE
 40
1.0
  9
$DISPSILH
 70
     0
  9
$DIMSCALE
 40
1.0
  9
$DIMASZ
 40
0.18
  9
$DIMEXO
 40
0.0625
  9
$DIMDLI
 40
0.38
  9
$DIMRND
 40
0.0
  9
$DIMDLE
 40
0.0
  9
$DIMEXE
 40
0.18
  9
$DIMTP
 40
0.0
  9
$DIMTM
 40
0.0
  9
$DIMTXT
 40
0.18
  9
$DIMCEN
 40
0.09
  9
$DIMTSZ
 40
0.0
  9
$DIMTOL
 70
     0
  9
$DIMLIM
 70
     0
  9
$DIMTIH
 70
     1
  9
$DIMTOH
 70
     1
  9
$DIMSE1
 70
     0
  9
$DIMSE2
 70
     0
  9
$DIMTAD
 70
     0
  9
$DIMZIN
 70
     0
  9
$DIMBLK
  1

  9
$DIMASO
 70
     1
  9
$DIMSHO
 70
     1
  9
$DIMPOST
  1

  9
$DIMAPOST
  1

  9
$DIMALT
 70
     0
  9
$DIMALTD
 70
     2
  9
$DIMALTF
 40
25.4
  9
$DIMLFAC
 40
1.0
  9
$DIMTOFL
 70
     0
  9
$DIMTVP
 40
0.0
  9
$DIMTIX
 70
     0
  9
$DIMSOXD
 70
     0
  9
$DIMSAH
 70
     0
  9
$DIMBLK1
  1

  9
$DIMBLK2
  1

  9
$DIMSTYLE
  2
STANDARD
  9
$DIMCLRD
 70
     0
  9
$DIMCLRE
 70
     0
  9
$DIMCLRT
 70
     0
  9
$DIMTFAC
 40
1.0
  9
$DIMGAP
 40
0.09
  9
$DIMJUST
 70
     0
  9
$DIMSD1
 70
     0
  9
$DIMSD2
 70
     0
  9
$DIMTOLJ
 70
     1
  9
$DIMTZIN
 70
     0
  9
$DIMALTZ
 70
     0
  9
$DIMALTTZ
 70
     0
  9
$DIMUPT
 70
     0
  9
$DIMDEC
 70
     4
  9
$DIMTDEC
 70
     4
  9
$DIMALTU
 70
     2
  9
$DIMALTTD
 70
     2
  9
$DIMTXSTY
  7
STANDARD
  9
$DIMAUNIT
 70
     0
  9
$DIMADEC
 70
     0
  9
$DIMALTRND
 40
0.0
  9
$DIMAZIN
 70
     0
  9
$DIMDSEP
 70
    46
  9
$DIMATFIT
 70
     3
  9
$DIMFRAC
 70
     0
  9
$DIMLDRBLK
  1

  9
$DIMLUNIT
 70
     2
  9
$DIMLWD
 70
    -2
  9
$DIMLWE
 70
    -2
  9
$DIMTMOVE
 70
     0
  9
$LUNITS
 70
     2
  9
$LUPREC
 70
     2
  9
$SKETCHINC
 40
0.0
  9
$FILLETRAD
 40
0.0
  9
$AUNITS
 70
     0
  9
$AUPREC
 70
     2
  9
$MENU
  1
acad
  9
$ELEVATION
 40
0.0
  9
$PELEVATION
 40
0.0
  9
$THICKNESS
 40
0.0
  9
$LIMCHECK
 70
     0
  9
$CHAMFERA
 40
0.0
  9
$CHAMFERB
 40
0.0
  9
$CHAMFERC
 40
0.0
  9
$CHAMFERD
 40
0.0
  9
$SKPOLY
 70
     0
  9
$TDCREATE
 40
2456818.319570185
  9
$TDUCREATE
 40
2456818.236236852
  9
$TDUPDATE
 40
2456818.319574722
  9
$TDUUPDATE
 40
2456818.236241389
  9
$TDINDWG
 40
0.0000053472
  9
$TDUSRTIMER
 40
0.0000053472
  9
$USRTIMER
 70
     1
  9
$ANGBASE
 50
0.0
  9
$ANGDIR
 70
     0
  9
$PDMODE
 70
     0
  9
$PDSIZE
 40
0.0
  9
$PLINEWID
 40
0.0
  9
$SPLFRAME
 70
     0
  9
$SPLINETYPE
 70
     6
  9
$SPLINESEGS
 70
     8
  9
$HANDSEED
  5
53A
  9
$SURFTAB1
 70
     6
  9
$SURFTAB2
 70
     6
  9
$SURFTYPE
 70
     6
  9
$SURFU
 70
     6
  9
$SURFV
 70
     6
  9
$UCSBASE
  2

  9
$UCSNAME
  2

  9
$UCSORG
 10
0.0
 20
0.0
 30
0.0
  9
$UCSXDIR
 10
1.0
 20
0.0
 30
0.0
  9
$UCSYDIR
 10
0.0
 20
1.0
 30
0.0
  9
$UCSORTHOREF
  2

  9
$UCSORTHOVIEW
 70
     0
  9
$UCSORGTOP
 10
0.0
 20
0.0
 30
0.0
  9
$UCSORGBOTTOM
 10
0.0
 20
0.0
 30
0.0
  9
$UCSORGLEFT
 10
0.0
 20
0.0
 30
0.0
  9
$UCSORGRIGHT
 10
0.0
 20
0.0
 30
0.0
  9
$UCSORGFRONT
 10
0.0
 20
0.0
 30
0.0
  9
$UCSORGBACK
 10
0.0
 20
0.0
 30
0.0
  9
$PUCSBASE
  2

  9
$PUCSNAME
  2

  9
$PUCSORG
 10
0.0
 20
0.0
 30
0.0
  9
$PUCSXDIR
 10
1.0
 20
0.0
 30
0.0
  9
$PUCSYDIR
 10
0.0
 20
1.0
 30
0.0
  9
$PUCSORTHOREF
  2

  9
$PUCSORTHOVIEW
 70
     0
  9
$PUCSORGTOP
 10
0.0
 20
0.0
 30
0.0
  9
$PUCSORGBOTTOM
 10
0.0
 20
0.0
 30
0.0
  9
$PUCSORGLEFT
 10
0.0
 20
0.0
 30
0.0
  9
$PUCSORGRIGHT
 10
0.0
 20
0.0
 30
0.0
  9
$PUCSORGFRONT
 10
0.0
 20
0.0
 30
0.0
  9
$PUCSORGBACK
 10
0.0
 20
0.0
 30
0.0
  9
$USERI1
 70
     0
  9
$USERI2
 70
     0
  9
$USERI3
 70
     0
  9
$USERI4
 70
     0
  9
$USERI5
 70
     0
  9
$USERR1
 40
0.0
  9
$USERR2
 40
0.0
  9
$USERR3
 40
0.0
  9
$USERR4
 40
0.0
  9
$USERR5
 40
0.0
  9
$WORLDVIEW
 70
     1
  9
$SHADEDGE
 70
     3
  9
$SHADEDIF
 70
    70
  9
$TILEMODE
 70
     1
  9
$MAXACTVP
 70
    16
  9
$PINSBASE
 10
0.0
 20
0.0
 30
0.0
  9
$PLIMCHECK
 70
     0
  9
$PEXTMIN
 10
1.000000000000000E+20
 20
1.000000000000000E+20
 30
1.000000000000000E+20
  9
$PEXTMAX
 10
-1.000000000000000E+20
 20
-1.000000000000000E+20
 30
-1.000000000000000E+20
  9
$PLIMMIN
 10
0.0
 20
0.0
  9
$PLIMMAX
 10
12.0
 20
9.0
  9
$UNITMODE
 70
     0
  9
$VISRETAIN
 70
     0
  9
$PLINEGEN
 70
     0
  9
$PSLTSCALE
 70
     1
  9
$TREEDEPTH
 70
  3020
  9
$CMLSTYLE
  2
Standard
  9
$CMLJUST
 70
     0
  9
$CMLSCALE
 40
1.0
  9
$PROXYGRAPHICS
 70
     1
  9
$MEASUREMENT
 70
     0
  9
$CELWEIGHT
370
    -1
  9
$ENDCAPS
280
     0
  9
$JOINSTYLE
280
     0
  9
$LWDISPLAY
290
     0
  9
$INSUNITS
 70
     0
  9
$HYPERLINKBASE
  1

  9
$STYLESHEET
  1

  9
$XEDIT
290
     1
  9
$CEPSNTYPE
380
     0
  9
$PSTYLEMODE
290
     1
  9
$FINGERPRINTGUID
  2
{FA5898CE-036D-4333-A014-139A89E349C0}
  9
$VERSIONGUID
  2
{D4A4BE1F-AA2C-4942-9302-D7C1C70E62BA}
  9
$EXTNAMES
290
     1
  9
$PSVPSCALE
 40
0.0
  9
$OLESTARTUP
290
     0
  0
ENDSEC
  0
SECTION
  2
CLASSES
  0
CLASS
  1
ACDBDICTIONARYWDFLT
  2
AcDbDictionaryWithDefault
  3
ObjectDBX Classes
 90
        0
280
     0
281
     0
  0
CLASS
  1
MATERIAL
  2
AcDbMaterial
  3
ObjectDBX Classes
 90
     1153
280
     0
281
     0
  0
CLASS
  1
VISUALSTYLE
  2
AcDbVisualStyle
  3
ObjectDBX Classes
 90
     4095
280
     0
281
     0
  0
CLASS
  1
SCALE
  2
AcDbScale
  3
ObjectDBX Classes
 90
     1153
280
     0
281
     0
  0
CLASS
  1
TABLESTYLE
  2
AcDbTableStyle
  3
ObjectDBX Classes
 90
     4095
280
     0
281
     0
  0
CLASS
  1
MLEADERSTYLE
  2
AcDbMLeaderStyle
  3
ACDB_MLEADERSTYLE_CLASS
 90
     4095
280
     0
281
     0
  0
CLASS
  1
ACDBSECTIONVIEWSTYLE
  2
AcDbSectionViewStyle
  3
ObjectDBX Classes
 90
     1025
280
     0
281
     0
  0
CLASS
  1
ACDBDETAILVIEWSTYLE
  2
AcDbDetailViewStyle
  3
ObjectDBX Classes
 90
     1025
280
     0
281
     0
  0
CLASS
  1
EXACXREFPANELOBJECT
  2
ExAcXREFPanelObject
  3
EXAC_ESW
 90
     1025
280
     0
281
     0
  0
CLASS
  1
NPOCOLLECTION
  2
AcDbImpNonPersistentObjectsCollection
  3
ObjectDBX Classes
 90
     1153
280
     0
281
     0
  0
CLASS
  1
DICTIONARYVAR
  2
AcDbDictionaryVar
  3
ObjectDBX Classes
 90
        0
280
     0
281
     0
  0
CLASS
  1
CELLSTYLEMAP
  2
AcDbCellStyleMap
  3
ObjectDBX Classes
 90
     1152
280
     0
281
     0
  0
CLASS
  1
ACDBPLACEHOLDER
  2
AcDbPlaceHolder
  3
ObjectDBX Classes
 90
        0
280
     0
281
     0
  0
CLASS
  1
LAYOUT
  2
AcDbLayout
  3
ObjectDBX Classes
 90
        0
280
     0
281
     0
  0
ENDSEC
  0
SECTION
  2
TABLES
  0
TABLE
  2
VPORT
  5
407
330
0
100
AcDbSymbolTable
 70
     1
  0
VPORT
  5
49E
330
407
100
AcDbSymbolTableRecord
100
AcDbViewportTableRecord
  2
*Active
 70
     0
 10
0.0
 20
0.0
 11
1.0
 21
1.0
 12
32.2992105
 22
7.355860499999998
 13
0.0
 23
0.0
 14
1.0
 24
1.0
 15
0.0
 25
0.0
 16
0.0
 26
0.0
 36
1.0
 17
0.0
 27
0.0
 37
0.0
 40
68.54822158160555
 41
2.2
 42
50.0
 43
0.0
 44
0.0
 50
0.0
 51
0.0
 71
     0
 72
   100
 73
     1
 74
     1
 75
     0
 76
     0
 77
     0
 78
     0
281
     0
 65
     1
110
0.0
120
0.0
130
0.0
111
1.0
121
0.0
131
0.0
112
0.0
122
1.0
132
0.0
 79
     0
146
0.0
1001
ACAD_NAV_VCDISPLAY
1070
     3
  0
ENDTAB
  0
TABLE
  2
LTYPE
  5
404
330
0
100
AcDbSymbolTable
 70
     4
  0
LTYPE
  5
459
330
404
100
AcDbSymbolTableRecord
100
AcDbLinetypeTableRecord
  2
ByBlock
 70
     0
  3

 72
    65
 73
     0
 40
0.0
  0
LTYPE
  5
45A
330
404
100
AcDbSymbolTableRecord
100
AcDbLinetypeTableRecord
  2
ByLayer
 70
     0
  3

 72
    65
 73
     0
 40
0.0
  0
LTYPE
  5
45B
330
404
100
AcDbSymbolTableRecord
100
AcDbLinetypeTableRecord
  2
CONTINUOUS
 70
     0
  3
Solid line
 72
    65
 73
     0
 40
0.0
  0
LTYPE
  5
467
330
404
100
AcDbSymbolTableRecord
100
AcDbLinetypeTableRecord
  2
PHANTOM2
 70
     0
  3
Phantom (.5x) ___ _ _ ___ _ _ ___ _ _ ___ _ _
 72
    65
 73
     6
 40
1.25
 49
0.625
 74
     0
 49
-0.125
 74
     0
 49
0.125
 74
     0
 49
-0.125
 74
     0
 49
0.125
 74
     0
 49
-0.125
 74
     0
  0
LTYPE
  5
475
330
404
100
AcDbSymbolTableRecord
100
AcDbLinetypeTableRecord
  2
CENTER
 70
     0
  3
____ _ ____ _ ____ _ ____ _ ____ _ ____ _ ____
 72
    65
 73
     4
 40
5.059897
 49
3.162434999999999
 74
     0
 49
-0.6324870000000001
 74
     0
 49
0.6324870000000001
 74
     0
 49
-0.6324870000000001
 74
     0
  0
LTYPE
  5
476
330
404
100
AcDbSymbolTableRecord
100
AcDbLinetypeTableRecord
  2
DASHED
 70
     0
  3
__ __ __ __ __ __ __ __ __ __ __ __ __ __ __ __
 72
    65
 73
     2
 40
7.589844999999999
 49
5.059897
 74
     0
 49
-2.529948
 74
     0
  0
ENDTAB
  0
TABLE
  2
LAYER
  5
401
330
0
100
AcDbSymbolTable
 70
    38
  0
LAYER
  5
453
102
{ACAD_XDICTIONARY
360
4A6
102
}
330
401
100
AcDbSymbolTableRecord
100
AcDbLayerTableRecord
  2
0
 70
     0
 62
     7
  6
CONTINUOUS
370
    -3
390
40E
  0
LAYER
  5
473
102
{ACAD_XDICTIONARY
360
4A8
102
}
330
401
100
AcDbSymbolTableRecord
100
AcDbLayerTableRecord
  2
1
 70
     0
 62
     4
  6
CONTINUOUS
370
    -3
390
40E
  0
LAYER
  5
477
102
{ACAD_XDICTIONARY
360
4AA
102
}
330
401
100
AcDbSymbolTableRecord
100
AcDbLayerTableRecord
  2
61
 70
     0
 62
     5
  6
CONTINUOUS
370
    -3
390
40E
  0
LAYER
  5
478
102
{ACAD_XDICTIONARY
360
4AC
102
}
330
401
100
AcDbSymbolTableRecord
100
AcDbLayerTableRecord
  2
62
 70
     0
 62
    -5
  6
CONTINUOUS
370
    -3
390
40E
  0
LAYER
  5
479
102
{ACAD_XDICTIONARY
360
4AE
102
}
330
401
100
AcDbSymbolTableRecord
100
AcDbLayerTableRecord
  2
63
 70
     0
 62
    -5
  6
CONTINUOUS
370
    -3
390
40E
  0
LAYER
  5
47A
102
{ACAD_XDICTIONARY
360
4B0
102
}
330
401
100
AcDbSymbolTableRecord
100
AcDbLayerTableRecord
  2
64
 70
     0
 62
    -5
  6
CONTINUOUS
370
    -3
390
40E
  0
LAYER
  5
47B
102
{ACAD_XDICTIONARY
360
4B2
102
}
330
401
100
AcDbSymbolTableRecord
100
AcDbLayerTableRecord
  2
65
 70
     0
 62
    -5
  6
CONTINUOUS
370
    -3
390
40E
  0
LAYER
  5
47C
102
{ACAD_XDICTIONARY
360
4B4
102
}
330
401
100
AcDbSymbolTableRecord
100
AcDbLayerTableRecord
  2
66
 70
     0
 62
    -5
  6
CONTINUOUS
370
    -3
390
40E
  0
LAYER
  5
47D
102
{ACAD_XDICTIONARY
360
4B6
102
}
330
401
100
AcDbSymbolTableRecord
100
AcDbLayerTableRecord
  2
67
 70
     0
 62
    -5
  6
CONTINUOUS
370
    -3
390
40E
  0
LAYER
  5
47E
102
{ACAD_XDICTIONARY
360
4B8
102
}
330
401
100
AcDbSymbolTableRecord
100
AcDbLayerTableRecord
  2
68
 70
     0
 62
    -5
  6
CONTINUOUS
370
    -3
390
40E
  0
LAYER
  5
47F
102
{ACAD_XDICTIONARY
360
4BA
102
}
330
401
100
AcDbSymbolTableRecord
100
AcDbLayerTableRecord
  2
69
 70
     0
 62
    -5
  6
CONTINUOUS
370
    -3
390
40E
  0
LAYER
  5
480
102
{ACAD_XDICTIONARY
360
4BC
102
}
330
401
100
AcDbSymbolTableRecord
100
AcDbLayerTableRecord
  2
70
 70
     0
 62
     5
  6
CONTINUOUS
370
    -3
390
40E
  0
LAYER
  5
481
102
{ACAD_XDICTIONARY
360
4BE
102
}
330
401
100
AcDbSymbolTableRecord
100
AcDbLayerTableRecord
  2
2
 70
     0
 62
     7
  6
CONTINUOUS
370
    -3
390
40E
  0
LAYER
  5
482
102
{ACAD_XDICTIONARY
360
4C0
102
}
330
401
100
AcDbSymbolTableRecord
100
AcDbLayerTableRecord
  2
3
 70
     0
 62
     1
  6
DASHED
370
    -3
390
40E
  0
LAYER
  5
483
102
{ACAD_XDICTIONARY
360
4C2
102
}
330
401
100
AcDbSymbolTableRecord
100
AcDbLayerTableRecord
  2
4
 70
     0
 62
    -2
  6
CENTER
370
    -3
390
40E
  0
LAYER
  5
484
102
{ACAD_XDICTIONARY
360
4C4
102
}
330
401
100
AcDbSymbolTableRecord
100
AcDbLayerTableRecord
  2
5
 70
     0
 62
    -7
  6
CONTINUOUS
370
    -3
390
40E
  0
LAYER
  5
485
102
{ACAD_XDICTIONARY
360
4C6
102
}
330
401
100
AcDbSymbolTableRecord
100
AcDbLayerTableRecord
  2
SK1
 70
     0
 62
     4
  6
CONTINUOUS
370
    -3
390
40E
  0
LAYER
  5
486
102
{ACAD_XDICTIONARY
360
4C8
102
}
330
401
100
AcDbSymbolTableRecord
100
AcDbLayerTableRecord
  2
6
 70
     0
 62
     5
  6
CONTINUOUS
370
    -3
390
40E
  0
LAYER
  5
487
102
{ACAD_XDICTIONARY
360
4CA
102
}
330
401
100
AcDbSymbolTableRecord
100
AcDbLayerTableRecord
  2
SK2
 70
     0
 62
     7
  6
CONTINUOUS
370
    -3
390
40E
  0
LAYER
  5
488
102
{ACAD_XDICTIONARY
360
4CC
102
}
330
401
100
AcDbSymbolTableRecord
100
AcDbLayerTableRecord
  2
SK3
 70
     0
 62
     1
  6
DASHED
370
    -3
390
40E
  0
LAYER
  5
489
102
{ACAD_XDICTIONARY
360
4CE
102
}
330
401
100
AcDbSymbolTableRecord
100
AcDbLayerTableRecord
  2
SK4
 70
     0
 62
     2
  6
CENTER
370
    -3
390
40E
  0
LAYER
  5
48A
102
{ACAD_XDICTIONARY
360
4D0
102
}
330
401
100
AcDbSymbolTableRecord
100
AcDbLayerTableRecord
  2
CUT
 70
     0
 62
    -1
  6
CONTINUOUS
370
    -3
390
40E
  0
LAYER
  5
48B
102
{ACAD_XDICTIONARY
360
4D2
102
}
330
401
100
AcDbSymbolTableRecord
100
AcDbLayerTableRecord
  2
SK6
 70
     0
 62
     5
  6
CONTINUOUS
370
    -3
390
40E
  0
LAYER
  5
48C
102
{ACAD_XDICTIONARY
360
4D4
102
}
330
401
100
AcDbSymbolTableRecord
100
AcDbLayerTableRecord
  2
80
 70
     0
 62
    -2
  6
CENTER
370
    -3
390
40E
  0
LAYER
  5
48D
102
{ACAD_XDICTIONARY
360
4D6
102
}
330
401
100
AcDbSymbolTableRecord
100
AcDbLayerTableRecord
  2
81
 70
     0
 62
    -2
  6
CENTER
370
    -3
390
40E
  0
LAYER
  5
48E
102
{ACAD_XDICTIONARY
360
4D8
102
}
330
401
100
AcDbSymbolTableRecord
100
AcDbLayerTableRecord
  2
82
 70
     0
 62
    -2
  6
CENTER
370
    -3
390
40E
  0
LAYER
  5
48F
102
{ACAD_XDICTIONARY
360
4DA
102
}
330
401
100
AcDbSymbolTableRecord
100
AcDbLayerTableRecord
  2
NOCUT
 70
     0
 62
     7
  6
CONTINUOUS
370
    -3
390
40E
  0
LAYER
  5
490
102
{ACAD_XDICTIONARY
360
4DC
102
}
330
401
100
AcDbSymbolTableRecord
100
AcDbLayerTableRecord
  2
50
 70
     0
 62
    -7
  6
CONTINUOUS
370
    -3
390
40E
  0
LAYER
  5
491
102
{ACAD_XDICTIONARY
360
4DE
102
}
330
401
100
AcDbSymbolTableRecord
100
AcDbLayerTableRecord
  2
51
 70
     0
 62
     7
  6
CONTINUOUS
370
    -3
390
40E
  0
LAYER
  5
492
102
{ACAD_XDICTIONARY
360
4E0
102
}
330
401
100
AcDbSymbolTableRecord
100
AcDbLayerTableRecord
  2
52
 70
     0
 62
    -7
  6
CONTINUOUS
370
    -3
390
40E
  0
LAYER
  5
493
102
{ACAD_XDICTIONARY
360
4E2
102
}
330
401
100
AcDbSymbolTableRecord
100
AcDbLayerTableRecord
  2
53
 70
     0
 62
    -7
  6
CONTINUOUS
370
    -3
390
40E
  0
LAYER
  5
494
102
{ACAD_XDICTIONARY
360
4E4
102
}
330
401
100
AcDbSymbolTableRecord
100
AcDbLayerTableRecord
  2
54
 70
     0
 62
    -7
  6
CONTINUOUS
370
    -3
390
40E
  0
LAYER
  5
495
102
{ACAD_XDICTIONARY
360
4E6
102
}
330
401
100
AcDbSymbolTableRecord
100
AcDbLayerTableRecord
  2
55
 70
     0
 62
    -7
  6
CONTINUOUS
370
    -3
390
40E
  0
LAYER
  5
496
102
{ACAD_XDICTIONARY
360
4E8
102
}
330
401
100
AcDbSymbolTableRecord
100
AcDbLayerTableRecord
  2
56
 70
     0
 62
    -7
  6
CONTINUOUS
370
    -3
390
40E
  0
LAYER
  5
497
102
{ACAD_XDICTIONARY
360
4EA
102
}
330
401
100
AcDbSymbolTableRecord
100
AcDbLayerTableRecord
  2
57
 70
     0
 62
    -7
  6
CONTINUOUS
370
    -3
390
40E
  0
LAYER
  5
498
102
{ACAD_XDICTIONARY
360
4EC
102
}
330
401
100
AcDbSymbolTableRecord
100
AcDbLayerTableRecord
  2
58
 70
     0
 62
    -7
  6
CONTINUOUS
370
    -3
390
40E
  0
LAYER
  5
499
102
{ACAD_XDICTIONARY
360
4EE
102
}
330
401
100
AcDbSymbolTableRecord
100
AcDbLayerTableRecord
  2
2L
 70
     0
 62
     7
  6
CONTINUOUS
370
    -3
390
40E
  0
LAYER
  5
49A
102
{ACAD_XDICTIONARY
360
4F0
102
}
330
401
100
AcDbSymbolTableRecord
100
AcDbLayerTableRecord
  2
59
 70
     0
 62
    -7
  6
CONTINUOUS
370
    -3
390
40E
  0
ENDTAB
  0
TABLE
  2
STYLE
  5
402
330
0
100
AcDbSymbolTable
 70
     3
  0
STYLE
  5
454
330
402
100
AcDbSymbolTableRecord
100
AcDbTextStyleTableRecord
  2
STANDARD
 70
     0
 40
0.0
 41
1.0
 50
0.0
 71
     0
 42
4.5
  3
simplex.shx
  4

  0
STYLE
  5
458
330
402
100
AcDbSymbolTableRecord
100
AcDbTextStyleTableRecord
  2
Annotative
 70
     0
 40
0.0
 41
1.0
 50
0.0
 71
     0
 42
0.2
  3
txt
  4

1001
AcadAnnotative
1000
AnnotativeData
1002
{
1070
     1
1070
     1
1002
}
  0
STYLE
  5
474
330
402
100
AcDbSymbolTableRecord
100
AcDbTextStyleTableRecord
  2
SANDVIK_STYLE
 70
     0
 40
3.0
 41
1.0
 50
0.0
 71
     0
 42
3.0
  3
simplex.shx
  4

  0
ENDTAB
  0
TABLE
  2
VIEW
  5
405
330
0
100
AcDbSymbolTable
 70
     0
  0
ENDTAB
  0
TABLE
  2
UCS
  5
406
330
0
100
AcDbSymbolTable
 70
     0
  0
ENDTAB
  0
TABLE
  2
APPID
  5
408
330
0
100
AcDbSymbolTable
 70
     4
  0
APPID
  5
455
330
408
100
AcDbSymbolTableRecord
100
AcDbRegAppTableRecord
  2
ACAD
 70
     0
  0
APPID
  5
45C
330
408
100
AcDbSymbolTableRecord
100
AcDbRegAppTableRecord
  2
AcadAnnotative
 70
     0
  0
APPID
  5
4FC
330
408
100
AcDbSymbolTableRecord
100
AcDbRegAppTableRecord
  2
ACAD_NAV_VCDISPLAY
 70
     0
  0
APPID
  5
535
330
408
100
AcDbSymbolTableRecord
100
AcDbRegAppTableRecord
  2
ACAD_MLEADERVER
 70
     0
  0
ENDTAB
  0
TABLE
  2
DIMSTYLE
  5
409
330
0
100
AcDbSymbolTable
 70
     3
100
AcDbDimStyleTable
 71
     0
  0
DIMSTYLE
105
456
330
409
100
AcDbSymbolTableRecord
100
AcDbDimStyleTableRecord
  2
STANDARD
 70
     0
  4
 
 41
3.0
 42
2.5
 43
10.0
 44
2.5
 46
1.25
 73
     0
 74
     0
140
3.0
141
-3.0
143
0.039
145
1.5
146
0.75
147
1.5
271
     2
272
     2
279
     2
340
474
  0
DIMSTYLE
105
457
330
409
100
AcDbSymbolTableRecord
100
AcDbDimStyleTableRecord
  2
Annotative
 70
     0
340
454
1001
AcadAnnotative
1000
AnnotativeData
1002
{
1070
     1
1070
     1
1002
}
  0
DIMSTYLE
105
49B
330
409
100
AcDbSymbolTableRecord
100
AcDbDimStyleTableRecord
  2
SANDVIK_DIM
 70
     0
  4
 
 40
0.0
 41
4.57
 42
0.0
 44
5.0
 73
     0
 74
     0
 77
     1
 78
     8
140
4.5
147
2.299999999999999
176
   256
177
   256
178
   256
271
     2
272
     2
279
     2
340
474
  0
ENDTAB
  0
TABLE
  2
BLOCK_RECORD
  5
400
330
0
100
AcDbSymbolTable
 70
     3
  0
BLOCK_RECORD
  5
46F
330
400
100
AcDbSymbolTableRecord
100
AcDbBlockTableRecord
  2
*Model_Space
340
472
  0
BLOCK_RECORD
  5
46B
330
400
100
AcDbSymbolTableRecord
100
AcDbBlockTableRecord
  2
*Paper_Space
340
46E
  0
BLOCK_RECORD
  5
49F
330
400
100
AcDbSymbolTableRecord
100
AcDbBlockTableRecord
  2
*D0
340
0
102
{BLKREFS
331
396
102
}
  0
BLOCK_RECORD
  5
4A0
330
400
100
AcDbSymbolTableRecord
100
AcDbBlockTableRecord
  2
*D1
340
0
102
{BLKREFS
331
398
102
}
  0
BLOCK_RECORD
  5
4A1
330
400
100
AcDbSymbolTableRecord
100
AcDbBlockTableRecord
  2
*D2
340
0
102
{BLKREFS
331
39A
102
}
  0
ENDTAB
  0
ENDSEC
  0
SECTION
  2
BLOCKS
  0
BLOCK
  5
470
330
46F
100
AcDbEntity
  8
0
100
AcDbBlockBegin
  2
*Model_Space
 70
     0
 10
0.0
 20
0.0
 30
0.0
  3
*Model_Space
  1

  0
ENDBLK
  5
471
330
46F
100
AcDbEntity
  8
0
100
AcDbBlockEnd
  0
BLOCK
  5
46C
330
46B
100
AcDbEntity
 67
     1
  8
0
100
AcDbBlockBegin
  2
*Paper_Space
 70
     0
 10
0.0
 20
0.0
 30
0.0
  3
*Paper_Space
  1

  0
ENDBLK
  5
46D
330
46B
100
AcDbEntity
 67
     1
  8
0
100
AcDbBlockEnd
  0
BLOCK
  5
2
330
49F
100
AcDbEntity
  8
0
100
AcDbBlockBegin
  2
*D0
 70
     1
 10
0.0
 20
0.0
 30
0.0
  3
*D0
  1

  0
LINE
  5
3
330
49F
100
AcDbEntity
  8
0
100
AcDbLine
 10
0.0
 20
9.9
 30
0.0
 11
0.0
 21
34.9
 31
0.0
  0
LINE
  5
4
330
49F
100
AcDbEntity
  8
0
100
AcDbLine
 10
60.0
 20
8.0
 30
0.0
 11
60.0
 21
34.9
 31
0.0
  0
LINE
  5
5
330
49F
100
AcDbEntity
  8
0
100
AcDbLine
 10
2.5
 20
33.9
 30
0.0
 11
57.5
 21
33.9
 31
0.0
  0
LINE
  5
6
330
49F
100
AcDbEntity
  8
0
100
AcDbLine
 10
2.5
 20
34.316667
 30
0.0
 11
2.5
 21
33.483333
 31
0.0
  0
LINE
  5
7
330
49F
100
AcDbEntity
  8
0
100
AcDbLine
 10
2.5
 20
33.483333
 30
0.0
 11
0.0
 21
33.9
 31
0.0
  0
LINE
  5
8
330
49F
100
AcDbEntity
  8
0
100
AcDbLine
 10
0.0
 20
33.9
 30
0.0
 11
0.0
 21
33.9
 31
0.0
  0
LINE
  5
9
330
49F
100
AcDbEntity
  8
0
100
AcDbLine
 10
0.0
 20
33.9
 30
0.0
 11
2.5
 21
34.316667
 31
0.0
  0
LINE
  5
A
330
49F
100
AcDbEntity
  8
0
100
AcDbLine
 10
57.5
 20
34.316667
 30
0.0
 11
57.5
 21
33.483333
 31
0.0
  0
LINE
  5
B
330
49F
100
AcDbEntity
  8
0
100
AcDbLine
 10
57.5
 20
33.483333
 30
0.0
 11
60.0
 21
33.9
 31
0.0
  0
LINE
  5
C
330
49F
100
AcDbEntity
  8
0
100
AcDbLine
 10
60.0
 20
33.9
 30
0.0
 11
60.0
 21
33.9
 31
0.0
  0
LINE
  5
D
330
49F
100
AcDbEntity
  8
0
100
AcDbLine
 10
60.0
 20
33.9
 30
0.0
 11
57.5
 21
34.316667
 31
0.0
  0
ENDBLK
  5
E
330
49F
100
AcDbEntity
  8
0
100
AcDbBlockEnd
  0
BLOCK
  5
F
330
4A0
100
AcDbEntity
  8
0
100
AcDbBlockBegin
  2
*D1
 70
     1
 10
0.0
 20
0.0
 30
0.0
  3
*D1
  1

  0
LINE
  5
10
330
4A0
100
AcDbEntity
  8
0
100
AcDbLine
 10
61.0
 20
7.0
 30
0.0
 11
80.19173999999999
 21
7.0
 31
0.0
  0
LINE
  5
11
330
4A0
100
AcDbEntity
  8
0
100
AcDbLine
 10
61.0
 20
-7.0
 30
0.0
 11
80.19173999999999
 21
-7.0
 31
0.0
  0
LINE
  5
12
330
4A0
100
AcDbEntity
  8
0
100
AcDbLine
 10
79.19173999999999
 20
4.5
 30
0.0
 11
79.19173999999999
 21
-4.5
 31
0.0
  0
LINE
  5
13
330
4A0
100
AcDbEntity
  8
0
100
AcDbLine
 10
78.77507299999999
 20
4.5
 30
0.0
 11
79.608407
 21
4.5
 31
0.0
  0
LINE
  5
14
330
4A0
100
AcDbEntity
  8
0
100
AcDbLine
 10
79.608407
 20
4.5
 30
0.0
 11
79.19173999999999
 21
7.0
 31
0.0
  0
LINE
  5
15
330
4A0
100
AcDbEntity
  8
0
100
AcDbLine
 10
79.19173999999999
 20
7.0
 30
0.0
 11
79.19173999999999
 21
7.0
 31
0.0
  0
LINE
  5
16
330
4A0
100
AcDbEntity
  8
0
100
AcDbLine
 10
79.19173999999999
 20
7.0
 30
0.0
 11
78.77507299999999
 21
4.5
 31
0.0
  0
LINE
  5
17
330
4A0
100
AcDbEntity
  8
0
100
AcDbLine
 10
78.77507299999999
 20
-4.5
 30
0.0
 11
79.608407
 21
-4.5
 31
0.0
  0
LINE
  5
18
330
4A0
100
AcDbEntity
  8
0
100
AcDbLine
 10
79.608407
 20
-4.5
 30
0.0
 11
79.19173999999999
 21
-7.0
 31
0.0
  0
LINE
  5
19
330
4A0
100
AcDbEntity
  8
0
100
AcDbLine
 10
79.19173999999999
 20
-7.0
 30
0.0
 11
79.19173999999999
 21
-7.0
 31
0.0
  0
LINE
  5
1A
330
4A0
100
AcDbEntity
  8
0
100
AcDbLine
 10
79.19173999999999
 20
-7.0
 30
0.0
 11
78.77507299999999
 21
-4.5
 31
0.0
  0
ENDBLK
  5
1B
330
4A0
100
AcDbEntity
  8
0
100
AcDbBlockEnd
  0
BLOCK
  5
1C
330
4A1
100
AcDbEntity
  8
0
100
AcDbBlockBegin
  2
*D2
 70
     1
 10
0.0
 20
0.0
 30
0.0
  3
*D2
  1

  0
LINE
  5
1D
330
4A1
100
AcDbEntity
  8
0
100
AcDbLine
 10
60.0
 20
8.0
 30
0.0
 11
60.0
 21
24.9
 31
0.0
  0
LINE
  5
1E
330
4A1
100
AcDbEntity
  8
0
100
AcDbLine
 10
15.0
 20
8.0
 30
0.0
 11
15.0
 21
24.9
 31
0.0
  0
LINE
  5
1F
330
4A1
100
AcDbEntity
  8
0
100
AcDbLine
 10
57.5
 20
23.9
 30
0.0
 11
17.5
 21
23.9
 31
0.0
  0
LINE
  5
20
330
4A1
100
AcDbEntity
  8
0
100
AcDbLine
 10
57.5
 20
24.316667
 30
0.0
 11
57.5
 21
23.483333
 31
0.0
  0
LINE
  5
21
330
4A1
100
AcDbEntity
  8
0
100
AcDbLine
 10
57.5
 20
23.483333
 30
0.0
 11
60.0
 21
23.9
 31
0.0
  0
LINE
  5
22
330
4A1
100
AcDbEntity
  8
0
100
AcDbLine
 10
60.0
 20
23.9
 30
0.0
 11
60.0
 21
23.9
 31
0.0
  0
LINE
  5
23
330
4A1
100
AcDbEntity
  8
0
100
AcDbLine
 10
60.0
 20
23.9
 30
0.0
 11
57.5
 21
24.316667
 31
0.0
  0
LINE
  5
24
330
4A1
100
AcDbEntity
  8
0
100
AcDbLine
 10
17.5
 20
24.316667
 30
0.0
 11
17.5
 21
23.483333
 31
0.0
  0
LINE
  5
25
330
4A1
100
AcDbEntity
  8
0
100
AcDbLine
 10
17.5
 20
23.483333
 30
0.0
 11
15.0
 21
23.9
 31
0.0
  0
LINE
  5
26
330
4A1
100
AcDbEntity
  8
0
100
AcDbLine
 10
15.0
 20
23.9
 30
0.0
 11
15.0
 21
23.9
 31
0.0
  0
LINE
  5
27
330
4A1
100
AcDbEntity
  8
0
100
AcDbLine
 10
15.0
 20
23.9
 30
0.0
 11
17.5
 21
24.316667
 31
0.0
  0
ENDBLK
  5
28
330
4A1
100
AcDbEntity
  8
0
100
AcDbBlockEnd
  0
ENDSEC
  0
SECTION
  2
ENTITIES
  0
LINE
  5
29
330
46F
100
AcDbEntity
  8
1
100
AcDbLine
 10
59.5
 20
0.418228
 30
0.0
 11
59.5
 21
3.205995999999999
 31
0.0
  0
LINE
  5
2A
330
46F
100
AcDbEntity
  8
1
100
AcDbLine
 10
54.849891
 20
2.9399
 30
0.0
 11
54.849891
 21
1.752120999999999
 31
0.0
  0
LINE
  5
2B
330
46F
100
AcDbEntity
  8
1
100
AcDbLine
 10
54.849891
 20
1.752120999999999
 30
0.0
 11
54.37091500000001
 21
3.170609999999999
 31
0.0
  0
LINE
  5
2C
330
46F
100
AcDbEntity
  8
1
100
AcDbLine
 10
60.0
 20
2.140975
 30
0.0
 11
59.5
 21
2.488090999999999
 31
0.0
  0
LINE
  5
2D
330
46F
100
AcDbEntity
  8
1
100
AcDbLine
 10
51.531277
 20
0.217873
 30
0.0
 11
51.41747
 21
0.373308
 31
0.0
  0
LINE
  5
2E
330
46F
100
AcDbEntity
  8
1
100
AcDbLine
 10
51.41747
 20
0.373308
 30
0.0
 11
51.306846
 21
0.531386
 31
0.0
  0
LINE
  5
2F
330
46F
100
AcDbEntity
  8
1
100
AcDbLine
 10
51.306846
 20
0.531386
 30
0.0
 11
51.199405
 21
0.692005
 31
0.0
  0
LINE
  5
30
330
46F
100
AcDbEntity
  8
1
100
AcDbLine
 10
51.199405
 20
0.692005
 30
0.0
 11
51.09507999999999
 21
0.8553709999999998
 31
0.0
  0
LINE
  5
31
330
46F
100
AcDbEntity
  8
1
100
AcDbLine
 10
51.09507999999999
 20
0.8553709999999998
 30
0.0
 11
50.993939
 21
1.021039999999999
 31
0.0
  0
LINE
  5
32
330
46F
100
AcDbEntity
  8
1
100
AcDbLine
 10
50.993939
 20
1.021039999999999
 30
0.0
 11
50.896174
 21
1.187930999999999
 31
0.0
  0
LINE
  5
33
330
46F
100
AcDbEntity
  8
1
100
AcDbLine
 10
50.896174
 20
1.187930999999999
 30
0.0
 11
50.801859
 21
1.355814999999999
 31
0.0
  0
LINE
  5
34
330
46F
100
AcDbEntity
  8
1
100
AcDbLine
 10
50.801859
 20
1.355814999999999
 30
0.0
 11
50.71092199999999
 21
1.524652999999999
 31
0.0
  0
LINE
  5
35
330
46F
100
AcDbEntity
  8
1
100
AcDbLine
 10
50.71092199999999
 20
1.524652999999999
 30
0.0
 11
50.62334400000001
 21
1.693656
 31
0.0
  0
LINE
  5
36
330
46F
100
AcDbEntity
  8
1
100
AcDbLine
 10
50.62334400000001
 20
1.693656
 30
0.0
 11
50.539072
 21
1.862795
 31
0.0
  0
LINE
  5
37
330
46F
100
AcDbEntity
  8
1
100
AcDbLine
 10
50.539072
 20
1.862795
 30
0.0
 11
50.458159
 21
2.031817999999999
 31
0.0
  0
LINE
  5
38
330
46F
100
AcDbEntity
  8
1
100
AcDbLine
 10
50.458159
 20
2.031817999999999
 30
0.0
 11
50.380747
 21
2.199627999999999
 31
0.0
  0
LINE
  5
39
330
46F
100
AcDbEntity
  8
1
100
AcDbLine
 10
50.380747
 20
2.199627999999999
 30
0.0
 11
50.306837
 21
2.366124
 31
0.0
  0
LINE
  5
3A
330
46F
100
AcDbEntity
  8
1
100
AcDbLine
 10
50.306837
 20
2.366124
 30
0.0
 11
50.23642699999999
 21
2.531161999999999
 31
0.0
  0
LINE
  5
3B
330
46F
100
AcDbEntity
  8
1
100
AcDbLine
 10
50.23642699999999
 20
2.531161999999999
 30
0.0
 11
50.16964999999999
 21
2.693640999999999
 31
0.0
  0
LINE
  5
3C
330
46F
100
AcDbEntity
  8
1
100
AcDbLine
 10
50.16964999999999
 20
2.693640999999999
 30
0.0
 11
50.10654999999999
 21
2.853152
 31
0.0
  0
LINE
  5
3D
330
46F
100
AcDbEntity
  8
1
100
AcDbLine
 10
50.10654999999999
 20
2.853152
 30
0.0
 11
50.047083
 21
3.009941999999999
 31
0.0
  0
LINE
  5
3E
330
46F
100
AcDbEntity
  8
1
100
AcDbLine
 10
50.047083
 20
3.009941999999999
 30
0.0
 11
49.991248
 21
3.163931
 31
0.0
  0
LINE
  5
3F
330
46F
100
AcDbEntity
  8
1
100
AcDbLine
 10
8.0
 20
-6.666666
 30
0.0
 11
8.0
 21
6.666666
 31
0.0
  0
LINE
  5
40
330
46F
100
AcDbEntity
  8
1
100
AcDbLine
 10
54.849891
 20
1.752120999999999
 30
0.0
 11
60.0
 21
3.362323
 31
0.0
  0
LINE
  5
41
330
46F
100
AcDbEntity
  8
1
100
AcDbLine
 10
58.617059
 20
-2.768364
 30
0.0
 11
58.28866099999999
 21
-2.8774
 31
0.0
  0
LINE
  5
42
330
46F
100
AcDbEntity
  8
1
100
AcDbLine
 10
58.28866099999999
 20
-2.8774
 30
0.0
 11
57.95988799999999
 21
-2.985538999999999
 31
0.0
  0
LINE
  5
43
330
46F
100
AcDbEntity
  8
1
100
AcDbLine
 10
57.95988799999999
 20
-2.985538999999999
 30
0.0
 11
57.630741
 21
-3.092783
 31
0.0
  0
LINE
  5
44
330
46F
100
AcDbEntity
  8
1
100
AcDbLine
 10
57.630741
 20
-3.092783
 30
0.0
 11
57.30114799999999
 21
-3.199154999999999
 31
0.0
  0
LINE
  5
45
330
46F
100
AcDbEntity
  8
1
100
AcDbLine
 10
57.30114799999999
 20
-3.199154999999999
 30
0.0
 11
56.97118
 21
-3.304631999999999
 31
0.0
  0
LINE
  5
46
330
46F
100
AcDbEntity
  8
1
100
AcDbLine
 10
56.97118
 20
-3.304631999999999
 30
0.0
 11
56.641049
 21
-3.409144
 31
0.0
  0
LINE
  5
47
330
46F
100
AcDbEntity
  8
1
100
AcDbLine
 10
56.641049
 20
-3.409144
 30
0.0
 11
56.310826
 21
-3.512669999999999
 31
0.0
  0
LINE
  5
48
330
46F
100
AcDbEntity
  8
1
100
AcDbLine
 10
56.310826
 20
-3.512669999999999
 30
0.0
 11
55.98044
 21
-3.61523
 31
0.0
  0
LINE
  5
49
330
46F
100
AcDbEntity
  8
1
100
AcDbLine
 10
55.98044
 20
-3.61523
 30
0.0
 11
55.649891
 21
-3.716825
 31
0.0
  0
LINE
  5
4A
330
46F
100
AcDbEntity
  8
1
100
AcDbLine
 10
58.508762
 20
-2.443639
 30
0.0
 11
58.19221500000001
 21
-2.550793999999999
 31
0.0
  0
LINE
  5
4B
330
46F
100
AcDbEntity
  8
1
100
AcDbLine
 10
58.19221500000001
 20
-2.550793999999999
 30
0.0
 11
57.875351
 21
-2.657293999999999
 31
0.0
  0
LINE
  5
4C
330
46F
100
AcDbEntity
  8
1
100
AcDbLine
 10
57.875351
 20
-2.657293999999999
 30
0.0
 11
57.55817099999999
 21
-2.763108
 31
0.0
  0
LINE
  5
4D
330
46F
100
AcDbEntity
  8
1
100
AcDbLine
 10
57.55817099999999
 20
-2.763108
 30
0.0
 11
57.24062199999999
 21
-2.868205
 31
0.0
  0
LINE
  5
4E
330
46F
100
AcDbEntity
  8
1
100
AcDbLine
 10
57.24062199999999
 20
-2.868205
 30
0.0
 11
56.92275600000001
 21
-2.972559999999999
 31
0.0
  0
LINE
  5
4F
330
46F
100
AcDbEntity
  8
1
100
AcDbLine
 10
56.92275600000001
 20
-2.972559999999999
 30
0.0
 11
56.60473399999999
 21
-3.07614
 31
0.0
  0
LINE
  5
50
330
46F
100
AcDbEntity
  8
1
100
AcDbLine
 10
56.60473399999999
 20
-3.07614
 30
0.0
 11
56.28661
 21
-3.178916
 31
0.0
  0
LINE
  5
51
330
46F
100
AcDbEntity
  8
1
100
AcDbLine
 10
56.28661
 20
-3.178916
 30
0.0
 11
55.968329
 21
-3.280862999999999
 31
0.0
  0
LINE
  5
52
330
46F
100
AcDbEntity
  8
1
100
AcDbLine
 10
55.968329
 20
-3.280862999999999
 30
0.0
 11
55.649891
 21
-3.381951
 31
0.0
  0
LINE
  5
53
330
46F
100
AcDbEntity
  8
1
100
AcDbLine
 10
54.43758
 20
-2.083756
 30
0.0
 11
54.876594
 21
-1.928566
 31
0.0
  0
LINE
  5
54
330
46F
100
AcDbEntity
  8
1
100
AcDbLine
 10
54.876594
 20
-1.928566
 30
0.0
 11
55.310788
 21
-1.773133999999999
 31
0.0
  0
LINE
  5
55
330
46F
100
AcDbEntity
  8
1
100
AcDbLine
 10
55.310788
 20
-1.773133999999999
 30
0.0
 11
55.740163
 21
-1.617462
 31
0.0
  0
LINE
  5
56
330
46F
100
AcDbEntity
  8
1
100
AcDbLine
 10
55.740163
 20
-1.617462
 30
0.0
 11
56.164738
 21
-1.46152
 31
0.0
  0
LINE
  5
57
330
46F
100
AcDbEntity
  8
1
100
AcDbLine
 10
56.164738
 20
-1.46152
 30
0.0
 11
56.58449399999999
 21
-1.305336999999999
 31
0.0
  0
LINE
  5
58
330
46F
100
AcDbEntity
  8
1
100
AcDbLine
 10
56.58449399999999
 20
-1.305336999999999
 30
0.0
 11
56.999366
 21
-1.148994999999999
 31
0.0
  0
LINE
  5
59
330
46F
100
AcDbEntity
  8
1
100
AcDbLine
 10
56.999366
 20
-1.148994999999999
 30
0.0
 11
57.409333
 21
-0.9925229999999999
 31
0.0
  0
LINE
  5
5A
330
46F
100
AcDbEntity
  8
1
100
AcDbLine
 10
57.409333
 20
-0.9925229999999999
 30
0.0
 11
57.814415
 21
-0.835893
 31
0.0
  0
LINE
  5
5B
330
46F
100
AcDbEntity
  8
1
100
AcDbLine
 10
58.1
 20
-0.673012
 30
0.0
 11
57.601214
 21
-0.867918
 31
0.0
  0
LINE
  5
5C
330
46F
100
AcDbEntity
  8
1
100
AcDbLine
 10
57.601214
 20
-0.867918
 30
0.0
 11
57.09476399999999
 21
-1.062583999999999
 31
0.0
  0
LINE
  5
5D
330
46F
100
AcDbEntity
  8
1
100
AcDbLine
 10
57.09476399999999
 20
-1.062583999999999
 30
0.0
 11
56.580651
 21
-1.257012
 31
0.0
  0
LINE
  5
5E
330
46F
100
AcDbEntity
  8
1
100
AcDbLine
 10
56.580651
 20
-1.257012
 30
0.0
 11
56.058257
 21
-1.451462999999999
 31
0.0
  0
LINE
  5
5F
330
46F
100
AcDbEntity
  8
1
100
AcDbLine
 10
56.058257
 20
-1.451462999999999
 30
0.0
 11
55.52819799999999
 21
-1.645674999999999
 31
0.0
  0
LINE
  5
60
330
46F
100
AcDbEntity
  8
1
100
AcDbLine
 10
55.52819799999999
 20
-1.645674999999999
 30
0.0
 11
54.992325
 21
-1.838863
 31
0.0
  0
LINE
  5
61
330
46F
100
AcDbEntity
  8
1
100
AcDbLine
 10
54.992325
 20
-1.838863
 30
0.0
 11
54.450555
 21
-2.031032
 31
0.0
  0
LINE
  5
62
330
46F
100
AcDbEntity
  8
1
100
AcDbLine
 10
58.1
 20
0.8528450000000001
 30
0.0
 11
57.45024
 21
0.678342
 31
0.0
  0
LINE
  5
63
330
46F
100
AcDbEntity
  8
1
100
AcDbLine
 10
59.5
 20
1.991872
 30
0.0
 11
54.720712
 21
0.497608
 31
0.0
  0
LINE
  5
64
330
46F
100
AcDbEntity
  8
1
100
AcDbLine
 10
54.43758
 20
-6.611858999999999
 30
0.0
 11
54.876594
 21
-6.575997999999999
 31
0.0
  0
LINE
  5
65
330
46F
100
AcDbEntity
  8
1
100
AcDbLine
 10
54.876594
 20
-6.575997999999999
 30
0.0
 11
55.310788
 21
-6.53664
 31
0.0
  0
LINE
  5
66
330
46F
100
AcDbEntity
  8
1
100
AcDbLine
 10
55.310788
 20
-6.53664
 30
0.0
 11
55.740163
 21
-6.493786
 31
0.0
  0
LINE
  5
67
330
46F
100
AcDbEntity
  8
1
100
AcDbLine
 10
55.740163
 20
-6.493786
 30
0.0
 11
56.164738
 21
-6.447394
 31
0.0
  0
LINE
  5
68
330
46F
100
AcDbEntity
  8
1
100
AcDbLine
 10
56.164738
 20
-6.447394
 30
0.0
 11
56.58449399999999
 21
-6.397504
 31
0.0
  0
LINE
  5
69
330
46F
100
AcDbEntity
  8
1
100
AcDbLine
 10
56.58449399999999
 20
-6.397504
 30
0.0
 11
56.999366
 21
-6.344244
 31
0.0
  0
LINE
  5
6A
330
46F
100
AcDbEntity
  8
1
100
AcDbLine
 10
56.999366
 20
-6.344244
 30
0.0
 11
57.409333
 21
-6.287654999999999
 31
0.0
  0
LINE
  5
6B
330
46F
100
AcDbEntity
  8
1
100
AcDbLine
 10
57.409333
 20
-6.287654999999999
 30
0.0
 11
57.814415
 21
-6.227697
 31
0.0
  0
LINE
  5
6C
330
46F
100
AcDbEntity
  8
1
100
AcDbLine
 10
57.814415
 20
-6.227697
 30
0.0
 11
58.214614
 21
-6.164367999999999
 31
0.0
  0
LINE
  5
6D
330
46F
100
AcDbEntity
  8
1
100
AcDbLine
 10
58.1
 20
-5.299641999999999
 30
0.0
 11
57.776387
 21
-5.352424
 31
0.0
  0
LINE
  5
6E
330
46F
100
AcDbEntity
  8
1
100
AcDbLine
 10
57.776387
 20
-5.352424
 30
0.0
 11
57.45024
 21
-5.404374999999999
 31
0.0
  0
LINE
  5
6F
330
46F
100
AcDbEntity
  8
1
100
AcDbLine
 10
57.45024
 20
-5.404374999999999
 30
0.0
 11
57.12155799999999
 21
-5.455494999999999
 31
0.0
  0
LINE
  5
70
330
46F
100
AcDbEntity
  8
1
100
AcDbLine
 10
57.12155799999999
 20
-5.455494999999999
 30
0.0
 11
56.790262
 21
-5.505804
 31
0.0
  0
LINE
  5
71
330
46F
100
AcDbEntity
  8
1
100
AcDbLine
 10
56.790262
 20
-5.505804
 30
0.0
 11
56.456431
 21
-5.555282
 31
0.0
  0
LINE
  5
72
330
46F
100
AcDbEntity
  8
1
100
AcDbLine
 10
56.456431
 20
-5.555282
 30
0.0
 11
56.120302
 21
-5.603867
 31
0.0
  0
LINE
  5
73
330
46F
100
AcDbEntity
  8
1
100
AcDbLine
 10
56.120302
 20
-5.603867
 30
0.0
 11
55.781955
 21
-5.651542
 31
0.0
  0
LINE
  5
74
330
46F
100
AcDbEntity
  8
1
100
AcDbLine
 10
55.781955
 20
-5.651542
 30
0.0
 11
55.44131
 21
-5.698323999999999
 31
0.0
  0
LINE
  5
75
330
46F
100
AcDbEntity
  8
1
100
AcDbLine
 10
55.44131
 20
-5.698323999999999
 30
0.0
 11
55.09836700000001
 21
-5.744214
 31
0.0
  0
LINE
  5
76
330
46F
100
AcDbEntity
  8
1
100
AcDbLine
 10
58.1
 20
-6.080513999999999
 30
0.0
 11
57.515186
 21
-6.171281999999999
 31
0.0
  0
LINE
  5
77
330
46F
100
AcDbEntity
  8
1
100
AcDbLine
 10
57.515186
 20
-6.171281999999999
 30
0.0
 11
56.920243
 21
-6.254738999999999
 31
0.0
  0
LINE
  5
78
330
46F
100
AcDbEntity
  8
1
100
AcDbLine
 10
56.920243
 20
-6.254738999999999
 30
0.0
 11
56.315169
 21
-6.330886
 31
0.0
  0
LINE
  5
79
330
46F
100
AcDbEntity
  8
1
100
AcDbLine
 10
56.315169
 20
-6.330886
 30
0.0
 11
55.69893
 21
-6.399931999999999
 31
0.0
  0
LINE
  5
7A
330
46F
100
AcDbEntity
  8
1
100
AcDbLine
 10
55.69893
 20
-6.399931999999999
 30
0.0
 11
55.072561
 21
-6.461664999999999
 31
0.0
  0
LINE
  5
7B
330
46F
100
AcDbEntity
  8
1
100
AcDbLine
 10
55.072561
 20
-6.461664999999999
 30
0.0
 11
54.439171
 21
-6.515458999999999
 31
0.0
  0
LINE
  5
7C
330
46F
100
AcDbEntity
  8
1
100
AcDbLine
 10
8.0
 20
-6.666666
 30
0.0
 11
50.528552
 21
-6.666666
 31
0.0
  0
LINE
  5
7D
330
46F
100
AcDbEntity
  8
1
100
AcDbLine
 10
52.667234
 20
-4.390312
 30
0.0
 11
52.68301700000001
 21
-4.363694
 31
0.0
  0
LINE
  5
7E
330
46F
100
AcDbEntity
  8
1
100
AcDbLine
 10
52.68301700000001
 20
-4.363694
 30
0.0
 11
52.700688
 21
-4.336444
 31
0.0
  0
LINE
  5
7F
330
46F
100
AcDbEntity
  8
1
100
AcDbLine
 10
52.700688
 20
-4.336444
 30
0.0
 11
52.72025799999999
 21
-4.308572999999999
 31
0.0
  0
LINE
  5
80
330
46F
100
AcDbEntity
  8
1
100
AcDbLine
 10
52.72025799999999
 20
-4.308572999999999
 30
0.0
 11
52.74179300000001
 21
-4.279874999999999
 31
0.0
  0
LINE
  5
81
330
46F
100
AcDbEntity
  8
1
100
AcDbLine
 10
52.74179300000001
 20
-4.279874999999999
 30
0.0
 11
52.765251
 21
-4.250586
 31
0.0
  0
LINE
  5
82
330
46F
100
AcDbEntity
  8
1
100
AcDbLine
 10
52.765251
 20
-4.250586
 30
0.0
 11
52.79047900000001
 21
-4.221383
 31
0.0
  0
LINE
  5
83
330
46F
100
AcDbEntity
  8
1
100
AcDbLine
 10
52.79047900000001
 20
-4.221383
 30
0.0
 11
52.817538
 21
-4.192317
 31
0.0
  0
LINE
  5
84
330
46F
100
AcDbEntity
  8
1
100
AcDbLine
 10
52.817538
 20
-4.192317
 30
0.0
 11
52.84638799999999
 21
-4.163366
 31
0.0
  0
LINE
  5
85
330
46F
100
AcDbEntity
  8
1
100
AcDbLine
 10
52.84638799999999
 20
-4.163366
 30
0.0
 11
52.876718
 21
-4.135089999999999
 31
0.0
  0
LINE
  5
86
330
46F
100
AcDbEntity
  8
1
100
AcDbLine
 10
52.876718
 20
-4.135089999999999
 30
0.0
 11
52.90852199999999
 21
-4.107569999999999
 31
0.0
  0
LINE
  5
87
330
46F
100
AcDbEntity
  8
1
100
AcDbLine
 10
52.90852199999999
 20
-4.107569999999999
 30
0.0
 11
52.941821
 21
-4.080746999999999
 31
0.0
  0
LINE
  5
88
330
46F
100
AcDbEntity
  8
1
100
AcDbLine
 10
52.941821
 20
-4.080746999999999
 30
0.0
 11
52.97633900000001
 21
-4.054959999999999
 31
0.0
  0
LINE
  5
89
330
46F
100
AcDbEntity
  8
1
100
AcDbLine
 10
52.97633900000001
 20
-4.054959999999999
 30
0.0
 11
53.012154
 21
-4.03021
 31
0.0
  0
LINE
  5
8A
330
46F
100
AcDbEntity
  8
1
100
AcDbLine
 10
53.012154
 20
-4.03021
 30
0.0
 11
53.04919599999999
 21
-4.006514
 31
0.0
  0
LINE
  5
8B
330
46F
100
AcDbEntity
  8
1
100
AcDbLine
 10
53.04919599999999
 20
-4.006514
 30
0.0
 11
53.08696199999999
 21
-3.984221999999999
 31
0.0
  0
LINE
  5
8C
330
46F
100
AcDbEntity
  8
1
100
AcDbLine
 10
53.08696199999999
 20
-3.984221999999999
 30
0.0
 11
53.12561500000001
 21
-3.963326999999999
 31
0.0
  0
LINE
  5
8D
330
46F
100
AcDbEntity
  8
1
100
AcDbLine
 10
53.12561500000001
 20
-3.963326999999999
 30
0.0
 11
53.16499
 21
-3.943844999999999
 31
0.0
  0
LINE
  5
8E
330
46F
100
AcDbEntity
  8
1
100
AcDbLine
 10
53.16499
 20
-3.943844999999999
 30
0.0
 11
53.204081
 21
-3.926133
 31
0.0
  0
LINE
  5
8F
330
46F
100
AcDbEntity
  8
1
100
AcDbLine
 10
53.204081
 20
-3.926133
 30
0.0
 11
53.24279399999999
 21
-3.910302999999999
 31
0.0
  0
LINE
  5
90
330
46F
100
AcDbEntity
  8
1
100
AcDbLine
 10
53.24279399999999
 20
-3.910302999999999
 30
0.0
 11
53.281205
 21
-3.896226
 31
0.0
  0
LINE
  5
91
330
46F
100
AcDbEntity
  8
1
100
AcDbLine
 10
53.281205
 20
-3.896226
 30
0.0
 11
53.31856
 21
-3.883883999999999
 31
0.0
  0
LINE
  5
92
330
46F
100
AcDbEntity
  8
1
100
AcDbLine
 10
53.31856
 20
-3.883883999999999
 30
0.0
 11
53.35461899999999
 21
-3.873344
 31
0.0
  0
LINE
  5
93
330
46F
100
AcDbEntity
  8
1
100
AcDbLine
 10
53.35461899999999
 20
-3.873344
 30
0.0
 11
53.39302599999999
 21
-3.863705
 31
0.0
  0
LINE
  5
94
330
46F
100
AcDbEntity
  8
1
100
AcDbLine
 10
54.720712
 20
-3.946836
 30
0.0
 11
54.59255899999999
 21
-3.987912
 31
0.0
  0
LINE
  5
95
330
46F
100
AcDbEntity
  8
1
100
AcDbLine
 10
54.59255899999999
 20
-3.987912
 30
0.0
 11
54.464499
 21
-4.030975999999999
 31
0.0
  0
LINE
  5
96
330
46F
100
AcDbEntity
  8
1
100
AcDbLine
 10
54.464499
 20
-4.030975999999999
 30
0.0
 11
54.336625
 21
-4.075997
 31
0.0
  0
LINE
  5
97
330
46F
100
AcDbEntity
  8
1
100
AcDbLine
 10
54.336625
 20
-4.075997
 30
0.0
 11
54.209031
 21
-4.122943
 31
0.0
  0
LINE
  5
98
330
46F
100
AcDbEntity
  8
1
100
AcDbLine
 10
54.209031
 20
-4.122943
 30
0.0
 11
54.081808
 21
-4.171777999999999
 31
0.0
  0
LINE
  5
99
330
46F
100
AcDbEntity
  8
1
100
AcDbLine
 10
54.081808
 20
-4.171777999999999
 30
0.0
 11
53.955049
 21
-4.222466999999999
 31
0.0
  0
LINE
  5
9A
330
46F
100
AcDbEntity
  8
1
100
AcDbLine
 10
51.531277
 20
-5.661482
 30
0.0
 11
51.417438
 21
-5.577747
 31
0.0
  0
LINE
  5
9B
330
46F
100
AcDbEntity
  8
1
100
AcDbLine
 10
51.417438
 20
-5.577747
 30
0.0
 11
51.306869
 21
-5.489442999999999
 31
0.0
  0
LINE
  5
9C
330
46F
100
AcDbEntity
  8
1
100
AcDbLine
 10
51.306869
 20
-5.489442999999999
 30
0.0
 11
51.19957
 21
-5.396461
 31
0.0
  0
LINE
  5
9D
330
46F
100
AcDbEntity
  8
1
100
AcDbLine
 10
51.19957
 20
-5.396461
 30
0.0
 11
51.095528
 21
-5.298551999999999
 31
0.0
  0
LINE
  5
9E
330
46F
100
AcDbEntity
  8
1
100
AcDbLine
 10
51.095528
 20
-5.298551999999999
 30
0.0
 11
50.994756
 21
-5.195749
 31
0.0
  0
LINE
  5
9F
330
46F
100
AcDbEntity
  8
1
100
AcDbLine
 10
50.994756
 20
-5.195749
 30
0.0
 11
50.897289
 21
-5.088415
 31
0.0
  0
LINE
  5
A0
330
46F
100
AcDbEntity
  8
1
100
AcDbLine
 10
50.897289
 20
-5.088415
 30
0.0
 11
50.803102
 21
-4.976456999999999
 31
0.0
  0
LINE
  5
A1
330
46F
100
AcDbEntity
  8
1
100
AcDbLine
 10
50.803102
 20
-4.976456999999999
 30
0.0
 11
50.71222099999999
 21
-4.859874999999999
 31
0.0
  0
LINE
  5
A2
330
46F
100
AcDbEntity
  8
1
100
AcDbLine
 10
50.71222099999999
 20
-4.859874999999999
 30
0.0
 11
50.624749
 21
-4.739265
 31
0.0
  0
LINE
  5
A3
330
46F
100
AcDbEntity
  8
1
100
AcDbLine
 10
50.624749
 20
-4.739265
 30
0.0
 11
50.540713
 21
-4.614683999999999
 31
0.0
  0
LINE
  5
A4
330
46F
100
AcDbEntity
  8
1
100
AcDbLine
 10
50.540713
 20
-4.614683999999999
 30
0.0
 11
50.460087
 21
-4.486123
 31
0.0
  0
LINE
  5
A5
330
46F
100
AcDbEntity
  8
1
100
AcDbLine
 10
50.460087
 20
-4.486123
 30
0.0
 11
50.382895
 21
-4.354182999999999
 31
0.0
  0
LINE
  5
A6
330
46F
100
AcDbEntity
  8
1
100
AcDbLine
 10
50.382895
 20
-4.354182999999999
 30
0.0
 11
50.30917
 21
-4.219043
 31
0.0
  0
LINE
  5
A7
330
46F
100
AcDbEntity
  8
1
100
AcDbLine
 10
50.30917
 20
-4.219043
 30
0.0
 11
50.238879
 21
-4.080682
 31
0.0
  0
LINE
  5
A8
330
46F
100
AcDbEntity
  8
1
100
AcDbLine
 10
50.238879
 20
-4.080682
 30
0.0
 11
50.17194899999999
 21
-3.939456999999999
 31
0.0
  0
LINE
  5
A9
330
46F
100
AcDbEntity
  8
1
100
AcDbLine
 10
50.17194899999999
 20
-3.939456999999999
 30
0.0
 11
50.10835499999999
 21
-3.795565
 31
0.0
  0
LINE
  5
AA
330
46F
100
AcDbEntity
  8
1
100
AcDbLine
 10
50.10835499999999
 20
-3.795565
 30
0.0
 11
50.048121
 21
-3.649016
 31
0.0
  0
LINE
  5
AB
330
46F
100
AcDbEntity
  8
1
100
AcDbLine
 10
50.048121
 20
-3.649016
 30
0.0
 11
49.991248
 21
-3.499912
 31
0.0
  0
LINE
  5
AC
330
46F
100
AcDbEntity
  8
1
100
AcDbLine
 10
53.39302599999999
 20
-3.863705
 30
0.0
 11
53.423427
 21
-3.857079
 31
0.0
  0
LINE
  5
AD
330
46F
100
AcDbEntity
  8
1
100
AcDbLine
 10
53.423427
 20
-3.857079
 30
0.0
 11
53.456057
 21
-3.851034999999999
 31
0.0
  0
LINE
  5
AE
330
46F
100
AcDbEntity
  8
1
100
AcDbLine
 10
53.456057
 20
-3.851034999999999
 30
0.0
 11
53.48751899999999
 21
-3.846379
 31
0.0
  0
LINE
  5
AF
330
46F
100
AcDbEntity
  8
1
100
AcDbLine
 10
53.48751899999999
 20
-3.846379
 30
0.0
 11
53.517866
 21
-3.842869
 31
0.0
  0
LINE
  5
B0
330
46F
100
AcDbEntity
  8
1
100
AcDbLine
 10
53.517866
 20
-3.842869
 30
0.0
 11
53.54706700000001
 21
-3.840474
 31
0.0
  0
LINE
  5
B1
330
46F
100
AcDbEntity
  8
1
100
AcDbLine
 10
53.54706700000001
 20
-3.840474
 30
0.0
 11
53.57514
 21
-3.839204
 31
0.0
  0
LINE
  5
B2
330
46F
100
AcDbEntity
  8
1
100
AcDbLine
 10
53.57514
 20
-3.839204
 30
0.0
 11
53.602208
 21
-3.838893
 31
0.0
  0
LINE
  5
B3
330
46F
100
AcDbEntity
  8
1
100
AcDbLine
 10
53.602208
 20
-3.838893
 30
0.0
 11
53.62827199999999
 21
-3.839508999999999
 31
0.0
  0
LINE
  5
B4
330
46F
100
AcDbEntity
  8
1
100
AcDbLine
 10
53.62827199999999
 20
-3.839508999999999
 30
0.0
 11
53.653322
 21
-3.841066999999999
 31
0.0
  0
LINE
  5
B5
330
46F
100
AcDbEntity
  8
1
100
AcDbLine
 10
53.653322
 20
-3.841066999999999
 30
0.0
 11
53.677472
 21
-3.843478999999999
 31
0.0
  0
LINE
  5
B6
330
46F
100
AcDbEntity
  8
1
100
AcDbLine
 10
53.677472
 20
-3.843478999999999
 30
0.0
 11
53.700811
 21
-3.846745999999999
 31
0.0
  0
LINE
  5
B7
330
46F
100
AcDbEntity
  8
1
100
AcDbLine
 10
53.700811
 20
-3.846745999999999
 30
0.0
 11
53.723243
 21
-3.850855
 31
0.0
  0
LINE
  5
B8
330
46F
100
AcDbEntity
  8
1
100
AcDbLine
 10
53.723243
 20
-3.850855
 30
0.0
 11
53.744598
 21
-3.855681999999999
 31
0.0
  0
LINE
  5
B9
330
46F
100
AcDbEntity
  8
1
100
AcDbLine
 10
53.744598
 20
-3.855681999999999
 30
0.0
 11
53.764837
 21
-3.861233
 31
0.0
  0
LINE
  5
BA
330
46F
100
AcDbEntity
  8
1
100
AcDbLine
 10
53.764837
 20
-3.861233
 30
0.0
 11
53.78399399999999
 21
-3.867491
 31
0.0
  0
LINE
  5
BB
330
46F
100
AcDbEntity
  8
1
100
AcDbLine
 10
53.78399399999999
 20
-3.867491
 30
0.0
 11
53.802016
 21
-3.874294
 31
0.0
  0
LINE
  5
BC
330
46F
100
AcDbEntity
  8
1
100
AcDbLine
 10
53.802016
 20
-3.874294
 30
0.0
 11
53.818847
 21
-3.881620999999999
 31
0.0
  0
LINE
  5
BD
330
46F
100
AcDbEntity
  8
1
100
AcDbLine
 10
53.818847
 20
-3.881620999999999
 30
0.0
 11
53.83454
 21
-3.889483
 31
0.0
  0
LINE
  5
BE
330
46F
100
AcDbEntity
  8
1
100
AcDbLine
 10
53.83454
 20
-3.889483
 30
0.0
 11
53.84921
 21
-3.897766999999999
 31
0.0
  0
LINE
  5
BF
330
46F
100
AcDbEntity
  8
1
100
AcDbLine
 10
53.84921
 20
-3.897766999999999
 30
0.0
 11
53.862852
 21
-3.90646
 31
0.0
  0
LINE
  5
C0
330
46F
100
AcDbEntity
  8
1
100
AcDbLine
 10
53.862852
 20
-3.90646
 30
0.0
 11
53.87546700000001
 21
-3.915568
 31
0.0
  0
LINE
  5
C1
330
46F
100
AcDbEntity
  8
1
100
AcDbLine
 10
53.87546700000001
 20
-3.915568
 30
0.0
 11
53.88718
 21
-3.925022
 31
0.0
  0
LINE
  5
C2
330
46F
100
AcDbEntity
  8
1
100
AcDbLine
 10
53.88718
 20
-3.925022
 30
0.0
 11
53.897978
 21
-3.934775
 31
0.0
  0
LINE
  5
C3
330
46F
100
AcDbEntity
  8
1
100
AcDbLine
 10
53.897978
 20
-3.934775
 30
0.0
 11
53.90787099999999
 21
-3.944867999999999
 31
0.0
  0
LINE
  5
C4
330
46F
100
AcDbEntity
  8
1
100
AcDbLine
 10
53.90787099999999
 20
-3.944867999999999
 30
0.0
 11
53.917017
 21
-3.955354
 31
0.0
  0
LINE
  5
C5
330
46F
100
AcDbEntity
  8
1
100
AcDbLine
 10
53.917017
 20
-3.955354
 30
0.0
 11
53.925449
 21
-3.966216999999999
 31
0.0
  0
LINE
  5
C6
330
46F
100
AcDbEntity
  8
1
100
AcDbLine
 10
53.925449
 20
-3.966216999999999
 30
0.0
 11
53.93313199999999
 21
-3.977469999999999
 31
0.0
  0
LINE
  5
C7
330
46F
100
AcDbEntity
  8
1
100
AcDbLine
 10
53.93313199999999
 20
-3.977469999999999
 30
0.0
 11
53.94012299999999
 21
-3.989193
 31
0.0
  0
LINE
  5
C8
330
46F
100
AcDbEntity
  8
1
100
AcDbLine
 10
53.94012299999999
 20
-3.989193
 30
0.0
 11
53.946456
 21
-4.001422999999999
 31
0.0
  0
LINE
  5
C9
330
46F
100
AcDbEntity
  8
1
100
AcDbLine
 10
53.946456
 20
-4.001422999999999
 30
0.0
 11
53.95209499999999
 21
-4.014122
 31
0.0
  0
LINE
  5
CA
330
46F
100
AcDbEntity
  8
1
100
AcDbLine
 10
53.95209499999999
 20
-4.014122
 30
0.0
 11
53.957
 21
-4.027263999999999
 31
0.0
  0
LINE
  5
CB
330
46F
100
AcDbEntity
  8
1
100
AcDbLine
 10
53.957
 20
-4.027263999999999
 30
0.0
 11
53.961164
 21
-4.040855999999999
 31
0.0
  0
LINE
  5
CC
330
46F
100
AcDbEntity
  8
1
100
AcDbLine
 10
53.961164
 20
-4.040855999999999
 30
0.0
 11
53.964593
 21
-4.054891999999999
 31
0.0
  0
LINE
  5
CD
330
46F
100
AcDbEntity
  8
1
100
AcDbLine
 10
53.964593
 20
-4.054891999999999
 30
0.0
 11
53.967261
 21
-4.069326
 31
0.0
  0
LINE
  5
CE
330
46F
100
AcDbEntity
  8
1
100
AcDbLine
 10
53.967261
 20
-4.069326
 30
0.0
 11
53.96917099999999
 21
-4.084093
 31
0.0
  0
LINE
  5
CF
330
46F
100
AcDbEntity
  8
1
100
AcDbLine
 10
53.96917099999999
 20
-4.084093
 30
0.0
 11
53.97031899999999
 21
-4.09926
 31
0.0
  0
LINE
  5
D0
330
46F
100
AcDbEntity
  8
1
100
AcDbLine
 10
53.97031899999999
 20
-4.09926
 30
0.0
 11
53.97067299999999
 21
-4.114976
 31
0.0
  0
LINE
  5
D1
330
46F
100
AcDbEntity
  8
1
100
AcDbLine
 10
53.97067299999999
 20
-4.114976
 30
0.0
 11
53.97026199999999
 21
-4.131250999999999
 31
0.0
  0
LINE
  5
D2
330
46F
100
AcDbEntity
  8
1
100
AcDbLine
 10
53.97026199999999
 20
-4.131250999999999
 30
0.0
 11
53.96905699999999
 21
-4.148077999999999
 31
0.0
  0
LINE
  5
D3
330
46F
100
AcDbEntity
  8
1
100
AcDbLine
 10
53.96905699999999
 20
-4.148077999999999
 30
0.0
 11
53.96694399999999
 21
-4.165598
 31
0.0
  0
LINE
  5
D4
330
46F
100
AcDbEntity
  8
1
100
AcDbLine
 10
53.96694399999999
 20
-4.165598
 30
0.0
 11
53.963885
 21
-4.183855999999999
 31
0.0
  0
LINE
  5
D5
330
46F
100
AcDbEntity
  8
1
100
AcDbLine
 10
53.963885
 20
-4.183855999999999
 30
0.0
 11
53.95991999999999
 21
-4.202812
 31
0.0
  0
LINE
  5
D6
330
46F
100
AcDbEntity
  8
1
100
AcDbLine
 10
53.95991999999999
 20
-4.202812
 30
0.0
 11
53.955049
 21
-4.222466999999999
 31
0.0
  0
LINE
  5
D7
330
46F
100
AcDbEntity
  8
1
100
AcDbLine
 10
54.439171
 20
-6.515458999999999
 30
0.0
 11
53.79865
 21
-6.561233
 31
0.0
  0
LINE
  5
D8
330
46F
100
AcDbEntity
  8
1
100
AcDbLine
 10
53.79865
 20
-6.561233
 30
0.0
 11
53.15110799999999
 21
-6.599066
 31
0.0
  0
LINE
  5
D9
330
46F
100
AcDbEntity
  8
1
100
AcDbLine
 10
53.15110799999999
 20
-6.599066
 30
0.0
 11
52.49998399999999
 21
-6.628564999999999
 31
0.0
  0
LINE
  5
DA
330
46F
100
AcDbEntity
  8
1
100
AcDbLine
 10
52.49998399999999
 20
-6.628564999999999
 30
0.0
 11
51.846423
 21
-6.649599
 31
0.0
  0
LINE
  5
DB
330
46F
100
AcDbEntity
  8
1
100
AcDbLine
 10
51.846423
 20
-6.649599
 30
0.0
 11
51.189279
 21
-6.662299
 31
0.0
  0
LINE
  5
DC
330
46F
100
AcDbEntity
  8
1
100
AcDbLine
 10
51.189279
 20
-6.662299
 30
0.0
 11
50.528552
 21
-6.666666
 31
0.0
  0
LINE
  5
DD
330
46F
100
AcDbEntity
  8
1
100
AcDbLine
 10
55.09836700000001
 20
-5.744214
 30
0.0
 11
54.972959
 21
-5.759848
 31
0.0
  0
LINE
  5
DE
330
46F
100
AcDbEntity
  8
1
100
AcDbLine
 10
54.972959
 20
-5.759848
 30
0.0
 11
54.84509499999999
 21
-5.773781999999999
 31
0.0
  0
LINE
  5
DF
330
46F
100
AcDbEntity
  8
1
100
AcDbLine
 10
54.84509499999999
 20
-5.773781999999999
 30
0.0
 11
54.714775
 21
-5.786045999999999
 31
0.0
  0
LINE
  5
E0
330
46F
100
AcDbEntity
  8
1
100
AcDbLine
 10
54.714775
 20
-5.786045999999999
 30
0.0
 11
54.58191899999999
 21
-5.796702999999999
 31
0.0
  0
LINE
  5
E1
330
46F
100
AcDbEntity
  8
1
100
AcDbLine
 10
54.58191899999999
 20
-5.796702999999999
 30
0.0
 11
54.446606
 21
-5.805748
 31
0.0
  0
LINE
  5
E2
330
46F
100
AcDbEntity
  8
1
100
AcDbLine
 10
54.446606
 20
-5.805748
 30
0.0
 11
54.309077
 21
-5.813115999999999
 31
0.0
  0
LINE
  5
E3
330
46F
100
AcDbEntity
  8
1
100
AcDbLine
 10
54.309077
 20
-5.813115999999999
 30
0.0
 11
54.169281
 21
-5.818805999999999
 31
0.0
  0
LINE
  5
E4
330
46F
100
AcDbEntity
  8
1
100
AcDbLine
 10
54.169281
 20
-5.818805999999999
 30
0.0
 11
54.027269
 21
-5.822854
 31
0.0
  0
LINE
  5
E5
330
46F
100
AcDbEntity
  8
1
100
AcDbLine
 10
54.027269
 20
-5.822854
 30
0.0
 11
53.883438
 21
-5.825236
 31
0.0
  0
LINE
  5
E6
330
46F
100
AcDbEntity
  8
1
100
AcDbLine
 10
53.883438
 20
-5.825236
 30
0.0
 11
53.73785600000001
 21
-5.825941999999999
 31
0.0
  0
LINE
  5
E7
330
46F
100
AcDbEntity
  8
1
100
AcDbLine
 10
53.73785600000001
 20
-5.825941999999999
 30
0.0
 11
53.590456
 21
-5.824991999999999
 31
0.0
  0
LINE
  5
E8
330
46F
100
AcDbEntity
  8
1
100
AcDbLine
 10
53.590456
 20
-5.824991999999999
 30
0.0
 11
53.441435
 21
-5.822405
 31
0.0
  0
LINE
  5
E9
330
46F
100
AcDbEntity
  8
1
100
AcDbLine
 10
53.441435
 20
-5.822405
 30
0.0
 11
53.290869
 21
-5.818169
 31
0.0
  0
LINE
  5
EA
330
46F
100
AcDbEntity
  8
1
100
AcDbLine
 10
53.290869
 20
-5.818169
 30
0.0
 11
53.138681
 21
-5.812278
 31
0.0
  0
LINE
  5
EB
330
46F
100
AcDbEntity
  8
1
100
AcDbLine
 10
53.138681
 20
-5.812278
 30
0.0
 11
52.98484000000001
 21
-5.804751
 31
0.0
  0
LINE
  5
EC
330
46F
100
AcDbEntity
  8
1
100
AcDbLine
 10
52.98484000000001
 20
-5.804751
 30
0.0
 11
52.829288
 21
-5.795561
 31
0.0
  0
LINE
  5
ED
330
46F
100
AcDbEntity
  8
1
100
AcDbLine
 10
52.829288
 20
-5.795561
 30
0.0
 11
52.672083
 21
-5.784691999999999
 31
0.0
  0
LINE
  5
EE
330
46F
100
AcDbEntity
  8
1
100
AcDbLine
 10
52.672083
 20
-5.784691999999999
 30
0.0
 11
52.51336
 21
-5.772173999999999
 31
0.0
  0
LINE
  5
EF
330
46F
100
AcDbEntity
  8
1
100
AcDbLine
 10
52.51336
 20
-5.772173999999999
 30
0.0
 11
52.353094
 21
-5.757967999999999
 31
0.0
  0
LINE
  5
F0
330
46F
100
AcDbEntity
  8
1
100
AcDbLine
 10
52.353094
 20
-5.757967999999999
 30
0.0
 11
52.19130999999999
 21
-5.742048
 31
0.0
  0
LINE
  5
F1
330
46F
100
AcDbEntity
  8
1
100
AcDbLine
 10
52.19130999999999
 20
-5.742048
 30
0.0
 11
52.028215
 21
-5.724472
 31
0.0
  0
LINE
  5
F2
330
46F
100
AcDbEntity
  8
1
100
AcDbLine
 10
52.028215
 20
-5.724472
 30
0.0
 11
51.86387899999999
 21
-5.705227999999999
 31
0.0
  0
LINE
  5
F3
330
46F
100
AcDbEntity
  8
1
100
AcDbLine
 10
51.86387899999999
 20
-5.705227999999999
 30
0.0
 11
51.698233
 21
-5.684247
 31
0.0
  0
LINE
  5
F4
330
46F
100
AcDbEntity
  8
1
100
AcDbLine
 10
51.698233
 20
-5.684247
 30
0.0
 11
51.531277
 21
-5.661482
 31
0.0
  0
LINE
  5
F5
330
46F
100
AcDbEntity
  8
1
100
AcDbLine
 10
53.42434100000001
 20
-4.991831999999999
 30
0.0
 11
53.412547
 21
-4.994542
 31
0.0
  0
LINE
  5
F6
330
46F
100
AcDbEntity
  8
1
100
AcDbLine
 10
53.412547
 20
-4.994542
 30
0.0
 11
53.372613
 21
-5.002911
 31
0.0
  0
LINE
  5
F7
330
46F
100
AcDbEntity
  8
1
100
AcDbLine
 10
53.372613
 20
-5.002911
 30
0.0
 11
53.332089
 21
-5.010156999999999
 31
0.0
  0
LINE
  5
F8
330
46F
100
AcDbEntity
  8
1
100
AcDbLine
 10
53.332089
 20
-5.010156999999999
 30
0.0
 11
53.291009
 21
-5.016246999999999
 31
0.0
  0
LINE
  5
F9
330
46F
100
AcDbEntity
  8
1
100
AcDbLine
 10
53.291009
 20
-5.016246999999999
 30
0.0
 11
53.24980899999999
 21
-5.021091999999999
 31
0.0
  0
LINE
  5
FA
330
46F
100
AcDbEntity
  8
1
100
AcDbLine
 10
53.24980899999999
 20
-5.021091999999999
 30
0.0
 11
53.20854399999999
 21
-5.024684999999999
 31
0.0
  0
LINE
  5
FB
330
46F
100
AcDbEntity
  8
1
100
AcDbLine
 10
53.20854399999999
 20
-5.024684999999999
 30
0.0
 11
53.167217
 21
-5.027033999999999
 31
0.0
  0
LINE
  5
FC
330
46F
100
AcDbEntity
  8
1
100
AcDbLine
 10
53.167217
 20
-5.027033999999999
 30
0.0
 11
53.126203
 21
-5.028106
 31
0.0
  0
LINE
  5
FD
330
46F
100
AcDbEntity
  8
1
100
AcDbLine
 10
53.126203
 20
-5.028106
 30
0.0
 11
53.08561700000001
 21
-5.027927
 31
0.0
  0
LINE
  5
FE
330
46F
100
AcDbEntity
  8
1
100
AcDbLine
 10
53.08561700000001
 20
-5.027927
 30
0.0
 11
53.045403
 21
-5.026527999999999
 31
0.0
  0
LINE
  5
FF
330
46F
100
AcDbEntity
  8
1
100
AcDbLine
 10
53.045403
 20
-5.026527999999999
 30
0.0
 11
53.005677
 21
-5.023912
 31
0.0
  0
LINE
  5
100
330
46F
100
AcDbEntity
  8
1
100
AcDbLine
 10
53.005677
 20
-5.023912
 30
0.0
 11
52.966454
 21
-5.020101999999999
 31
0.0
  0
LINE
  5
101
330
46F
100
AcDbEntity
  8
1
100
AcDbLine
 10
52.966454
 20
-5.020101999999999
 30
0.0
 11
52.92777499999999
 21
-5.015133
 31
0.0
  0
LINE
  5
102
330
46F
100
AcDbEntity
  8
1
100
AcDbLine
 10
52.92777499999999
 20
-5.015133
 30
0.0
 11
52.88979499999999
 21
-5.009021999999999
 31
0.0
  0
LINE
  5
103
330
46F
100
AcDbEntity
  8
1
100
AcDbLine
 10
52.88979499999999
 20
-5.009021999999999
 30
0.0
 11
52.85254499999999
 21
-5.001802999999999
 31
0.0
  0
LINE
  5
104
330
46F
100
AcDbEntity
  8
1
100
AcDbLine
 10
52.85254499999999
 20
-5.001802999999999
 30
0.0
 11
52.816045
 21
-4.993519999999999
 31
0.0
  0
LINE
  5
105
330
46F
100
AcDbEntity
  8
1
100
AcDbLine
 10
52.816045
 20
-4.993519999999999
 30
0.0
 11
52.780434
 21
-4.984202999999999
 31
0.0
  0
LINE
  5
106
330
46F
100
AcDbEntity
  8
1
100
AcDbLine
 10
52.780434
 20
-4.984202999999999
 30
0.0
 11
52.74575
 21
-4.973901999999999
 31
0.0
  0
LINE
  5
107
330
46F
100
AcDbEntity
  8
1
100
AcDbLine
 10
52.74575
 20
-4.973901999999999
 30
0.0
 11
52.711998
 21
-4.962657
 31
0.0
  0
LINE
  5
108
330
46F
100
AcDbEntity
  8
1
100
AcDbLine
 10
52.711998
 20
-4.962657
 30
0.0
 11
52.67926
 21
-4.950505
 31
0.0
  0
LINE
  5
109
330
46F
100
AcDbEntity
  8
1
100
AcDbLine
 10
52.67926
 20
-4.950505
 30
0.0
 11
52.647575
 21
-4.937485999999999
 31
0.0
  0
LINE
  5
10A
330
46F
100
AcDbEntity
  8
1
100
AcDbLine
 10
52.647575
 20
-4.937485999999999
 30
0.0
 11
52.616942
 21
-4.923652999999999
 31
0.0
  0
LINE
  5
10B
330
46F
100
AcDbEntity
  8
1
100
AcDbLine
 10
52.616942
 20
-4.923652999999999
 30
0.0
 11
52.587375
 21
-4.909054
 31
0.0
  0
LINE
  5
10C
330
46F
100
AcDbEntity
  8
1
100
AcDbLine
 10
52.587375
 20
-4.909054
 30
0.0
 11
52.581889
 21
-4.894320999999999
 31
0.0
  0
LINE
  5
10D
330
46F
100
AcDbEntity
  8
1
100
AcDbLine
 10
52.581889
 20
-4.894320999999999
 30
0.0
 11
52.57697199999999
 21
-4.878764
 31
0.0
  0
LINE
  5
10E
330
46F
100
AcDbEntity
  8
1
100
AcDbLine
 10
52.57697199999999
 20
-4.878764
 30
0.0
 11
52.572623
 21
-4.862383999999999
 31
0.0
  0
LINE
  5
10F
330
46F
100
AcDbEntity
  8
1
100
AcDbLine
 10
52.572623
 20
-4.862383999999999
 30
0.0
 11
52.56879
 21
-4.845145999999999
 31
0.0
  0
LINE
  5
110
330
46F
100
AcDbEntity
  8
1
100
AcDbLine
 10
52.56879
 20
-4.845145999999999
 30
0.0
 11
52.565525
 21
-4.827086
 31
0.0
  0
LINE
  5
111
330
46F
100
AcDbEntity
  8
1
100
AcDbLine
 10
52.565525
 20
-4.827086
 30
0.0
 11
52.56298799999999
 21
-4.808309999999999
 31
0.0
  0
LINE
  5
112
330
46F
100
AcDbEntity
  8
1
100
AcDbLine
 10
52.56298799999999
 20
-4.808309999999999
 30
0.0
 11
52.561197
 21
-4.788791
 31
0.0
  0
LINE
  5
113
330
46F
100
AcDbEntity
  8
1
100
AcDbLine
 10
52.561197
 20
-4.788791
 30
0.0
 11
52.56013499999999
 21
-4.768557
 31
0.0
  0
LINE
  5
114
330
46F
100
AcDbEntity
  8
1
100
AcDbLine
 10
52.56013499999999
 20
-4.768557
 30
0.0
 11
52.559904
 21
-4.747796
 31
0.0
  0
LINE
  5
115
330
46F
100
AcDbEntity
  8
1
100
AcDbLine
 10
52.559904
 20
-4.747796
 30
0.0
 11
52.560517
 21
-4.726544999999999
 31
0.0
  0
LINE
  5
116
330
46F
100
AcDbEntity
  8
1
100
AcDbLine
 10
52.560517
 20
-4.726544999999999
 30
0.0
 11
52.561964
 21
-4.704769999999999
 31
0.0
  0
LINE
  5
117
330
46F
100
AcDbEntity
  8
1
100
AcDbLine
 10
52.561964
 20
-4.704769999999999
 30
0.0
 11
52.56430600000001
 21
-4.682541
 31
0.0
  0
LINE
  5
118
330
46F
100
AcDbEntity
  8
1
100
AcDbLine
 10
52.56430600000001
 20
-4.682541
 30
0.0
 11
52.56754499999999
 21
-4.659872
 31
0.0
  0
LINE
  5
119
330
46F
100
AcDbEntity
  8
1
100
AcDbLine
 10
52.56754499999999
 20
-4.659872
 30
0.0
 11
52.571684
 21
-4.636753999999999
 31
0.0
  0
LINE
  5
11A
330
46F
100
AcDbEntity
  8
1
100
AcDbLine
 10
52.571684
 20
-4.636753999999999
 30
0.0
 11
52.57679
 21
-4.613231999999999
 31
0.0
  0
LINE
  5
11B
330
46F
100
AcDbEntity
  8
1
100
AcDbLine
 10
52.57679
 20
-4.613231999999999
 30
0.0
 11
52.58288100000001
 21
-4.589271
 31
0.0
  0
LINE
  5
11C
330
46F
100
AcDbEntity
  8
1
100
AcDbLine
 10
52.58288100000001
 20
-4.589271
 30
0.0
 11
52.58994699999999
 21
-4.564912
 31
0.0
  0
LINE
  5
11D
330
46F
100
AcDbEntity
  8
1
100
AcDbLine
 10
52.58994699999999
 20
-4.564912
 30
0.0
 11
52.598011
 21
-4.540318
 31
0.0
  0
LINE
  5
11E
330
46F
100
AcDbEntity
  8
1
100
AcDbLine
 10
52.598011
 20
-4.540318
 30
0.0
 11
52.607103
 21
-4.515475
 31
0.0
  0
LINE
  5
11F
330
46F
100
AcDbEntity
  8
1
100
AcDbLine
 10
52.607103
 20
-4.515475
 30
0.0
 11
52.617202
 21
-4.490404999999999
 31
0.0
  0
LINE
  5
120
330
46F
100
AcDbEntity
  8
1
100
AcDbLine
 10
52.617202
 20
-4.490404999999999
 30
0.0
 11
52.628265
 21
-4.465326999999999
 31
0.0
  0
LINE
  5
121
330
46F
100
AcDbEntity
  8
1
100
AcDbLine
 10
52.628265
 20
-4.465326999999999
 30
0.0
 11
52.640281
 21
-4.440319999999999
 31
0.0
  0
LINE
  5
122
330
46F
100
AcDbEntity
  8
1
100
AcDbLine
 10
52.640281
 20
-4.440319999999999
 30
0.0
 11
52.65326899999999
 21
-4.415312999999999
 31
0.0
  0
LINE
  5
123
330
46F
100
AcDbEntity
  8
1
100
AcDbLine
 10
52.65326899999999
 20
-4.415312999999999
 30
0.0
 11
52.667234
 21
-4.390312
 31
0.0
  0
LINE
  5
124
330
46F
100
AcDbEntity
  8
1
100
AcDbLine
 10
52.587375
 20
-4.909054
 30
0.0
 11
52.46088199999999
 21
-4.987091999999999
 31
0.0
  0
LINE
  5
125
330
46F
100
AcDbEntity
  8
1
100
AcDbLine
 10
52.46088199999999
 20
-4.987091999999999
 30
0.0
 11
52.33642299999999
 21
-5.066691999999999
 31
0.0
  0
LINE
  5
126
330
46F
100
AcDbEntity
  8
1
100
AcDbLine
 10
52.33642299999999
 20
-5.066691999999999
 30
0.0
 11
52.21410800000001
 21
-5.147783
 31
0.0
  0
LINE
  5
127
330
46F
100
AcDbEntity
  8
1
100
AcDbLine
 10
52.21410800000001
 20
-5.147783
 30
0.0
 11
52.094049
 21
-5.230292999999999
 31
0.0
  0
LINE
  5
128
330
46F
100
AcDbEntity
  8
1
100
AcDbLine
 10
52.094049
 20
-5.230292999999999
 30
0.0
 11
51.976352
 21
-5.314147
 31
0.0
  0
LINE
  5
129
330
46F
100
AcDbEntity
  8
1
100
AcDbLine
 10
51.976352
 20
-5.314147
 30
0.0
 11
51.86112399999999
 21
-5.399270999999999
 31
0.0
  0
LINE
  5
12A
330
46F
100
AcDbEntity
  8
1
100
AcDbLine
 10
51.86112399999999
 20
-5.399270999999999
 30
0.0
 11
51.748468
 21
-5.485584999999999
 31
0.0
  0
LINE
  5
12B
330
46F
100
AcDbEntity
  8
1
100
AcDbLine
 10
51.748468
 20
-5.485584999999999
 30
0.0
 11
51.638486
 21
-5.573014999999999
 31
0.0
  0
LINE
  5
12C
330
46F
100
AcDbEntity
  8
1
100
AcDbLine
 10
51.638486
 20
-5.573014999999999
 30
0.0
 11
51.531277
 21
-5.661482
 31
0.0
  0
LINE
  5
12D
330
46F
100
AcDbEntity
  8
1
100
AcDbLine
 10
54.073349
 20
-4.483166
 30
0.0
 11
54.07182800000001
 21
-4.496666
 31
0.0
  0
LINE
  5
12E
330
46F
100
AcDbEntity
  8
1
100
AcDbLine
 10
54.07182800000001
 20
-4.496666
 30
0.0
 11
54.069513
 21
-4.510511
 31
0.0
  0
LINE
  5
12F
330
46F
100
AcDbEntity
  8
1
100
AcDbLine
 10
54.069513
 20
-4.510511
 30
0.0
 11
54.06639300000001
 21
-4.524683
 31
0.0
  0
LINE
  5
130
330
46F
100
AcDbEntity
  8
1
100
AcDbLine
 10
54.06639300000001
 20
-4.524683
 30
0.0
 11
54.06246899999999
 21
-4.539187999999999
 31
0.0
  0
LINE
  5
131
330
46F
100
AcDbEntity
  8
1
100
AcDbLine
 10
54.06246899999999
 20
-4.539187999999999
 30
0.0
 11
54.057713
 21
-4.553984999999999
 31
0.0
  0
LINE
  5
132
330
46F
100
AcDbEntity
  8
1
100
AcDbLine
 10
54.057713
 20
-4.553984999999999
 30
0.0
 11
54.052077
 21
-4.568980999999999
 31
0.0
  0
LINE
  5
133
330
46F
100
AcDbEntity
  8
1
100
AcDbLine
 10
54.052077
 20
-4.568980999999999
 30
0.0
 11
54.04554
 21
-4.584151
 31
0.0
  0
LINE
  5
134
330
46F
100
AcDbEntity
  8
1
100
AcDbLine
 10
54.04554
 20
-4.584151
 30
0.0
 11
54.038105
 21
-4.599483
 31
0.0
  0
LINE
  5
135
330
46F
100
AcDbEntity
  8
1
100
AcDbLine
 10
54.038105
 20
-4.599483
 30
0.0
 11
54.02975600000001
 21
-4.614913999999999
 31
0.0
  0
LINE
  5
136
330
46F
100
AcDbEntity
  8
1
100
AcDbLine
 10
54.02975600000001
 20
-4.614913999999999
 30
0.0
 11
54.020507
 21
-4.630387999999999
 31
0.0
  0
LINE
  5
137
330
46F
100
AcDbEntity
  8
1
100
AcDbLine
 10
54.020507
 20
-4.630387999999999
 30
0.0
 11
54.010334
 21
-4.645923
 31
0.0
  0
LINE
  5
138
330
46F
100
AcDbEntity
  8
1
100
AcDbLine
 10
54.010334
 20
-4.645923
 30
0.0
 11
53.999165
 21
-4.661569999999999
 31
0.0
  0
LINE
  5
139
330
46F
100
AcDbEntity
  8
1
100
AcDbLine
 10
53.999165
 20
-4.661569999999999
 30
0.0
 11
53.986976
 21
-4.677323
 31
0.0
  0
LINE
  5
13A
330
46F
100
AcDbEntity
  8
1
100
AcDbLine
 10
53.986976
 20
-4.677323
 30
0.0
 11
53.973773
 21
-4.693137
 31
0.0
  0
LINE
  5
13B
330
46F
100
AcDbEntity
  8
1
100
AcDbLine
 10
53.973773
 20
-4.693137
 30
0.0
 11
53.95952600000001
 21
-4.708994999999999
 31
0.0
  0
LINE
  5
13C
330
46F
100
AcDbEntity
  8
1
100
AcDbLine
 10
53.95952600000001
 20
-4.708994999999999
 30
0.0
 11
53.944235
 21
-4.724859999999999
 31
0.0
  0
LINE
  5
13D
330
46F
100
AcDbEntity
  8
1
100
AcDbLine
 10
53.944235
 20
-4.724859999999999
 30
0.0
 11
53.927886
 21
-4.740712
 31
0.0
  0
LINE
  5
13E
330
46F
100
AcDbEntity
  8
1
100
AcDbLine
 10
53.927886
 20
-4.740712
 30
0.0
 11
53.91041999999999
 21
-4.756562999999999
 31
0.0
  0
LINE
  5
13F
330
46F
100
AcDbEntity
  8
1
100
AcDbLine
 10
53.91041999999999
 20
-4.756562999999999
 30
0.0
 11
53.891867
 21
-4.77235
 31
0.0
  0
LINE
  5
140
330
46F
100
AcDbEntity
  8
1
100
AcDbLine
 10
53.891867
 20
-4.77235
 30
0.0
 11
53.87218299999999
 21
-4.788066999999999
 31
0.0
  0
LINE
  5
141
330
46F
100
AcDbEntity
  8
1
100
AcDbLine
 10
53.87218299999999
 20
-4.788066999999999
 30
0.0
 11
53.851199
 21
-4.803795
 31
0.0
  0
LINE
  5
142
330
46F
100
AcDbEntity
  8
1
100
AcDbLine
 10
53.851199
 20
-4.803795
 30
0.0
 11
53.82888499999999
 21
-4.819497
 31
0.0
  0
LINE
  5
143
330
46F
100
AcDbEntity
  8
1
100
AcDbLine
 10
53.82888499999999
 20
-4.819497
 30
0.0
 11
53.80524699999999
 21
-4.835106999999999
 31
0.0
  0
LINE
  5
144
330
46F
100
AcDbEntity
  8
1
100
AcDbLine
 10
53.80524699999999
 20
-4.835106999999999
 30
0.0
 11
53.780166
 21
-4.850634999999999
 31
0.0
  0
LINE
  5
145
330
46F
100
AcDbEntity
  8
1
100
AcDbLine
 10
53.780166
 20
-4.850634999999999
 30
0.0
 11
53.75358199999999
 21
-4.866039999999999
 31
0.0
  0
LINE
  5
146
330
46F
100
AcDbEntity
  8
1
100
AcDbLine
 10
53.75358199999999
 20
-4.866039999999999
 30
0.0
 11
53.72552800000001
 21
-4.881228
 31
0.0
  0
LINE
  5
147
330
46F
100
AcDbEntity
  8
1
100
AcDbLine
 10
53.72552800000001
 20
-4.881228
 30
0.0
 11
53.696023
 21
-4.896124999999999
 31
0.0
  0
LINE
  5
148
330
46F
100
AcDbEntity
  8
1
100
AcDbLine
 10
53.696023
 20
-4.896124999999999
 30
0.0
 11
53.66499799999999
 21
-4.910680999999999
 31
0.0
  0
LINE
  5
149
330
46F
100
AcDbEntity
  8
1
100
AcDbLine
 10
53.66499799999999
 20
-4.910680999999999
 30
0.0
 11
53.632506
 21
-4.924795999999999
 31
0.0
  0
LINE
  5
14A
330
46F
100
AcDbEntity
  8
1
100
AcDbLine
 10
53.632506
 20
-4.924795999999999
 30
0.0
 11
53.59875699999999
 21
-4.938323
 31
0.0
  0
LINE
  5
14B
330
46F
100
AcDbEntity
  8
1
100
AcDbLine
 10
53.59875699999999
 20
-4.938323
 30
0.0
 11
53.56374999999999
 21
-4.951194999999999
 31
0.0
  0
LINE
  5
14C
330
46F
100
AcDbEntity
  8
1
100
AcDbLine
 10
53.56374999999999
 20
-4.951194999999999
 30
0.0
 11
53.527492
 21
-4.963348
 31
0.0
  0
LINE
  5
14D
330
46F
100
AcDbEntity
  8
1
100
AcDbLine
 10
53.527492
 20
-4.963348
 30
0.0
 11
53.490214
 21
-4.974656999999999
 31
0.0
  0
LINE
  5
14E
330
46F
100
AcDbEntity
  8
1
100
AcDbLine
 10
53.490214
 20
-4.974656999999999
 30
0.0
 11
53.451878
 21
-4.985079999999999
 31
0.0
  0
LINE
  5
14F
330
46F
100
AcDbEntity
  8
1
100
AcDbLine
 10
53.451878
 20
-4.985079999999999
 30
0.0
 11
53.42434100000001
 21
-4.991831999999999
 31
0.0
  0
LINE
  5
150
330
46F
100
AcDbEntity
  8
1
100
AcDbLine
 10
54.293661
 20
-6.593949
 30
0.0
 11
54.293661
 21
-6.525857
 31
0.0
  0
LINE
  5
151
330
46F
100
AcDbEntity
  8
1
100
AcDbLine
 10
53.955049
 20
-4.222466999999999
 30
0.0
 11
53.968262
 21
-4.234882999999999
 31
0.0
  0
LINE
  5
152
330
46F
100
AcDbEntity
  8
1
100
AcDbLine
 10
53.968262
 20
-4.234882999999999
 30
0.0
 11
53.9806
 21
-4.247321
 31
0.0
  0
LINE
  5
153
330
46F
100
AcDbEntity
  8
1
100
AcDbLine
 10
53.9806
 20
-4.247321
 30
0.0
 11
53.99206899999999
 21
-4.259768
 31
0.0
  0
LINE
  5
154
330
46F
100
AcDbEntity
  8
1
100
AcDbLine
 10
53.99206899999999
 20
-4.259768
 30
0.0
 11
54.00265899999999
 21
-4.272213999999999
 31
0.0
  0
LINE
  5
155
330
46F
100
AcDbEntity
  8
1
100
AcDbLine
 10
54.00265899999999
 20
-4.272213999999999
 30
0.0
 11
54.012391
 21
-4.284641999999999
 31
0.0
  0
LINE
  5
156
330
46F
100
AcDbEntity
  8
1
100
AcDbLine
 10
54.012391
 20
-4.284641999999999
 30
0.0
 11
54.02132099999999
 21
-4.29703
 31
0.0
  0
LINE
  5
157
330
46F
100
AcDbEntity
  8
1
100
AcDbLine
 10
54.02132099999999
 20
-4.29703
 30
0.0
 11
54.02944399999999
 21
-4.309351
 31
0.0
  0
LINE
  5
158
330
46F
100
AcDbEntity
  8
1
100
AcDbLine
 10
54.02944399999999
 20
-4.309351
 30
0.0
 11
54.036777
 21
-4.321610999999999
 31
0.0
  0
LINE
  5
159
330
46F
100
AcDbEntity
  8
1
100
AcDbLine
 10
54.036777
 20
-4.321610999999999
 30
0.0
 11
54.043401
 21
-4.333830999999999
 31
0.0
  0
LINE
  5
15A
330
46F
100
AcDbEntity
  8
1
100
AcDbLine
 10
54.043401
 20
-4.333830999999999
 30
0.0
 11
54.04931600000001
 21
-4.345973
 31
0.0
  0
LINE
  5
15B
330
46F
100
AcDbEntity
  8
1
100
AcDbLine
 10
54.04931600000001
 20
-4.345973
 30
0.0
 11
54.054532
 21
-4.35806
 31
0.0
  0
LINE
  5
15C
330
46F
100
AcDbEntity
  8
1
100
AcDbLine
 10
54.054532
 20
-4.35806
 30
0.0
 11
54.059134
 21
-4.370207999999999
 31
0.0
  0
LINE
  5
15D
330
46F
100
AcDbEntity
  8
1
100
AcDbLine
 10
54.059134
 20
-4.370207999999999
 30
0.0
 11
54.063141
 21
-4.382433999999999
 31
0.0
  0
LINE
  5
15E
330
46F
100
AcDbEntity
  8
1
100
AcDbLine
 10
54.063141
 20
-4.382433999999999
 30
0.0
 11
54.06653399999999
 21
-4.394707
 31
0.0
  0
LINE
  5
15F
330
46F
100
AcDbEntity
  8
1
100
AcDbLine
 10
54.06653399999999
 20
-4.394707
 30
0.0
 11
54.06932499999999
 21
-4.407075999999999
 31
0.0
  0
LINE
  5
160
330
46F
100
AcDbEntity
  8
1
100
AcDbLine
 10
54.06932499999999
 20
-4.407075999999999
 30
0.0
 11
54.071521
 21
-4.419541
 31
0.0
  0
LINE
  5
161
330
46F
100
AcDbEntity
  8
1
100
AcDbLine
 10
54.071521
 20
-4.419541
 30
0.0
 11
54.073112
 21
-4.432085999999999
 31
0.0
  0
LINE
  5
162
330
46F
100
AcDbEntity
  8
1
100
AcDbLine
 10
54.073112
 20
-4.432085999999999
 30
0.0
 11
54.07409399999999
 21
-4.444726
 31
0.0
  0
LINE
  5
163
330
46F
100
AcDbEntity
  8
1
100
AcDbLine
 10
54.07409399999999
 20
-4.444726
 30
0.0
 11
54.07446
 21
-4.457462
 31
0.0
  0
LINE
  5
164
330
46F
100
AcDbEntity
  8
1
100
AcDbLine
 10
54.07446
 20
-4.457462
 30
0.0
 11
54.074213
 21
-4.470277999999999
 31
0.0
  0
LINE
  5
165
330
46F
100
AcDbEntity
  8
1
100
AcDbLine
 10
54.074213
 20
-4.470277999999999
 30
0.0
 11
54.073349
 21
-4.483166
 31
0.0
  0
LINE
  5
166
330
46F
100
AcDbEntity
  8
1
100
AcDbLine
 10
54.691175
 20
-6.810471999999999
 30
0.0
 11
54.662599
 21
-6.804175999999999
 31
0.0
  0
LINE
  5
167
330
46F
100
AcDbEntity
  8
1
100
AcDbLine
 10
54.662599
 20
-6.804175999999999
 30
0.0
 11
54.60039599999999
 21
-6.785584
 31
0.0
  0
LINE
  5
168
330
46F
100
AcDbEntity
  8
1
100
AcDbLine
 10
54.60039599999999
 20
-6.785584
 30
0.0
 11
54.538337
 21
-6.760349
 31
0.0
  0
LINE
  5
169
330
46F
100
AcDbEntity
  8
1
100
AcDbLine
 10
54.538337
 20
-6.760349
 30
0.0
 11
54.47661599999999
 21
-6.72856
 31
0.0
  0
LINE
  5
16A
330
46F
100
AcDbEntity
  8
1
100
AcDbLine
 10
54.47661599999999
 20
-6.72856
 30
0.0
 11
54.415294
 21
-6.690244999999999
 31
0.0
  0
LINE
  5
16B
330
46F
100
AcDbEntity
  8
1
100
AcDbLine
 10
54.415294
 20
-6.690244999999999
 30
0.0
 11
54.354309
 21
-6.645374999999999
 31
0.0
  0
LINE
  5
16C
330
46F
100
AcDbEntity
  8
1
100
AcDbLine
 10
54.354309
 20
-6.645374999999999
 30
0.0
 11
54.293661
 21
-6.593949
 31
0.0
  0
LINE
  5
16D
330
46F
100
AcDbEntity
  8
1
100
AcDbLine
 10
55.658538
 20
-6.999999
 30
0.0
 11
54.69126
 21
-6.810491999999999
 31
0.0
  0
LINE
  5
16E
330
46F
100
AcDbEntity
  8
1
100
AcDbLine
 10
54.293661
 20
-6.593949
 30
0.0
 11
54.43758
 21
-6.611858999999999
 31
0.0
  0
LINE
  5
16F
330
46F
100
AcDbEntity
  8
1
100
AcDbLine
 10
54.450555
 20
-2.031032
 30
0.0
 11
53.90297
 21
-2.222175999999999
 31
0.0
  0
LINE
  5
170
330
46F
100
AcDbEntity
  8
1
100
AcDbLine
 10
53.90297
 20
-2.222175999999999
 30
0.0
 11
53.351666
 21
-2.411490999999999
 31
0.0
  0
LINE
  5
171
330
46F
100
AcDbEntity
  8
1
100
AcDbLine
 10
53.351666
 20
-2.411490999999999
 30
0.0
 11
52.796552
 21
-2.598978999999999
 31
0.0
  0
LINE
  5
172
330
46F
100
AcDbEntity
  8
1
100
AcDbLine
 10
52.796552
 20
-2.598978999999999
 30
0.0
 11
52.23772
 21
-2.784634999999999
 31
0.0
  0
LINE
  5
173
330
46F
100
AcDbEntity
  8
1
100
AcDbLine
 10
52.23772
 20
-2.784634999999999
 30
0.0
 11
51.677536
 21
-2.96764
 31
0.0
  0
LINE
  5
174
330
46F
100
AcDbEntity
  8
1
100
AcDbLine
 10
51.677536
 20
-2.96764
 30
0.0
 11
51.11679099999999
 21
-3.147716999999999
 31
0.0
  0
LINE
  5
175
330
46F
100
AcDbEntity
  8
1
100
AcDbLine
 10
51.11679099999999
 20
-3.147716999999999
 30
0.0
 11
50.554695
 21
-3.325141
 31
0.0
  0
LINE
  5
176
330
46F
100
AcDbEntity
  8
1
100
AcDbLine
 10
50.554695
 20
-3.325141
 30
0.0
 11
49.991248
 21
-3.499912
 31
0.0
  0
LINE
  5
177
330
46F
100
AcDbEntity
  8
1
100
AcDbLine
 10
54.04989399999999
 20
0.213004
 30
0.0
 11
54.04263199999999
 21
0.208033
 31
0.0
  0
LINE
  5
178
330
46F
100
AcDbEntity
  8
1
100
AcDbLine
 10
54.04263199999999
 20
0.208033
 30
0.0
 11
54.034347
 21
0.202937
 31
0.0
  0
LINE
  5
179
330
46F
100
AcDbEntity
  8
1
100
AcDbLine
 10
54.034347
 20
0.202937
 30
0.0
 11
54.025031
 21
0.197729
 31
0.0
  0
LINE
  5
17A
330
46F
100
AcDbEntity
  8
1
100
AcDbLine
 10
54.025031
 20
0.197729
 30
0.0
 11
54.014699
 21
0.192437
 31
0.0
  0
LINE
  5
17B
330
46F
100
AcDbEntity
  8
1
100
AcDbLine
 10
54.014699
 20
0.192437
 30
0.0
 11
54.00332399999999
 21
0.187062
 31
0.0
  0
LINE
  5
17C
330
46F
100
AcDbEntity
  8
1
100
AcDbLine
 10
54.00332399999999
 20
0.187062
 30
0.0
 11
53.99082299999999
 21
0.181582
 31
0.0
  0
LINE
  5
17D
330
46F
100
AcDbEntity
  8
1
100
AcDbLine
 10
53.99082299999999
 20
0.181582
 30
0.0
 11
53.977166
 21
0.176011
 31
0.0
  0
LINE
  5
17E
330
46F
100
AcDbEntity
  8
1
100
AcDbLine
 10
53.977166
 20
0.176011
 30
0.0
 11
53.962362
 21
0.170378
 31
0.0
  0
LINE
  5
17F
330
46F
100
AcDbEntity
  8
1
100
AcDbLine
 10
53.962362
 20
0.170378
 30
0.0
 11
53.946388
 21
0.164692
 31
0.0
  0
LINE
  5
180
330
46F
100
AcDbEntity
  8
1
100
AcDbLine
 10
53.946388
 20
0.164692
 30
0.0
 11
53.929264
 21
0.158982
 31
0.0
  0
LINE
  5
181
330
46F
100
AcDbEntity
  8
1
100
AcDbLine
 10
53.929264
 20
0.158982
 30
0.0
 11
53.91095400000001
 21
0.153256
 31
0.0
  0
LINE
  5
182
330
46F
100
AcDbEntity
  8
1
100
AcDbLine
 10
53.91095400000001
 20
0.153256
 30
0.0
 11
53.891346
 21
0.147502
 31
0.0
  0
LINE
  5
183
330
46F
100
AcDbEntity
  8
1
100
AcDbLine
 10
53.891346
 20
0.147502
 30
0.0
 11
53.870449
 21
0.141754
 31
0.0
  0
LINE
  5
184
330
46F
100
AcDbEntity
  8
1
100
AcDbLine
 10
53.870449
 20
0.141754
 30
0.0
 11
53.84823199999999
 21
0.13603
 31
0.0
  0
LINE
  5
185
330
46F
100
AcDbEntity
  8
1
100
AcDbLine
 10
53.84823199999999
 20
0.13603
 30
0.0
 11
53.82451999999999
 21
0.130313
 31
0.0
  0
LINE
  5
186
330
46F
100
AcDbEntity
  8
1
100
AcDbLine
 10
53.82451999999999
 20
0.130313
 30
0.0
 11
53.799268
 21
0.124632
 31
0.0
  0
LINE
  5
187
330
46F
100
AcDbEntity
  8
1
100
AcDbLine
 10
53.799268
 20
0.124632
 30
0.0
 11
53.77249
 21
0.11903
 31
0.0
  0
LINE
  5
188
330
46F
100
AcDbEntity
  8
1
100
AcDbLine
 10
53.77249
 20
0.11903
 30
0.0
 11
53.74409100000001
 21
0.113529
 31
0.0
  0
LINE
  5
189
330
46F
100
AcDbEntity
  8
1
100
AcDbLine
 10
53.74409100000001
 20
0.113529
 30
0.0
 11
53.713979
 21
0.108142
 31
0.0
  0
LINE
  5
18A
330
46F
100
AcDbEntity
  8
1
100
AcDbLine
 10
53.713979
 20
0.108142
 30
0.0
 11
53.682218
 21
0.102931
 31
0.0
  0
LINE
  5
18B
330
46F
100
AcDbEntity
  8
1
100
AcDbLine
 10
53.682218
 20
0.102931
 30
0.0
 11
53.64895
 21
0.097978
 31
0.0
  0
LINE
  5
18C
330
46F
100
AcDbEntity
  8
1
100
AcDbLine
 10
53.64895
 20
0.097978
 30
0.0
 11
53.614144
 21
0.09329
 31
0.0
  0
LINE
  5
18D
330
46F
100
AcDbEntity
  8
1
100
AcDbLine
 10
53.614144
 20
0.09329
 30
0.0
 11
53.577824
 21
0.088902
 31
0.0
  0
LINE
  5
18E
330
46F
100
AcDbEntity
  8
1
100
AcDbLine
 10
53.577824
 20
0.088902
 30
0.0
 11
53.540229
 21
0.084923
 31
0.0
  0
LINE
  5
18F
330
46F
100
AcDbEntity
  8
1
100
AcDbLine
 10
53.540229
 20
0.084923
 30
0.0
 11
53.50132399999999
 21
0.081342
 31
0.0
  0
LINE
  5
190
330
46F
100
AcDbEntity
  8
1
100
AcDbLine
 10
53.50132399999999
 20
0.081342
 30
0.0
 11
53.461162
 21
0.078172
 31
0.0
  0
LINE
  5
191
330
46F
100
AcDbEntity
  8
1
100
AcDbLine
 10
53.461162
 20
0.078172
 30
0.0
 11
53.420116
 21
0.075534
 31
0.0
  0
LINE
  5
192
330
46F
100
AcDbEntity
  8
1
100
AcDbLine
 10
53.420116
 20
0.075534
 30
0.0
 11
53.37817199999999
 21
0.073401
 31
0.0
  0
LINE
  5
193
330
46F
100
AcDbEntity
  8
1
100
AcDbLine
 10
53.37817199999999
 20
0.073401
 30
0.0
 11
53.335388
 21
0.071756
 31
0.0
  0
LINE
  5
194
330
46F
100
AcDbEntity
  8
1
100
AcDbLine
 10
53.335388
 20
0.071756
 30
0.0
 11
53.29226600000001
 21
0.070704
 31
0.0
  0
LINE
  5
195
330
46F
100
AcDbEntity
  8
1
100
AcDbLine
 10
53.29226600000001
 20
0.070704
 30
0.0
 11
53.24884499999999
 21
0.070207
 31
0.0
  0
LINE
  5
196
330
46F
100
AcDbEntity
  8
1
100
AcDbLine
 10
53.24884499999999
 20
0.070207
 30
0.0
 11
53.20515
 21
0.070212
 31
0.0
  0
LINE
  5
197
330
46F
100
AcDbEntity
  8
1
100
AcDbLine
 10
53.20515
 20
0.070212
 30
0.0
 11
53.16167199999999
 21
0.070791
 31
0.0
  0
LINE
  5
198
330
46F
100
AcDbEntity
  8
1
100
AcDbLine
 10
53.16167199999999
 20
0.070791
 30
0.0
 11
53.11854499999999
 21
0.071888
 31
0.0
  0
LINE
  5
199
330
46F
100
AcDbEntity
  8
1
100
AcDbLine
 10
53.11854499999999
 20
0.071888
 30
0.0
 11
53.075704
 21
0.073439
 31
0.0
  0
LINE
  5
19A
330
46F
100
AcDbEntity
  8
1
100
AcDbLine
 10
53.075704
 20
0.073439
 30
0.0
 11
53.033345
 21
0.075489
 31
0.0
  0
LINE
  5
19B
330
46F
100
AcDbEntity
  8
1
100
AcDbLine
 10
53.033345
 20
0.075489
 30
0.0
 11
52.991505
 21
0.077987
 31
0.0
  0
LINE
  5
19C
330
46F
100
AcDbEntity
  8
1
100
AcDbLine
 10
52.991505
 20
0.077987
 30
0.0
 11
52.950213
 21
0.080867
 31
0.0
  0
LINE
  5
19D
330
46F
100
AcDbEntity
  8
1
100
AcDbLine
 10
52.950213
 20
0.080867
 30
0.0
 11
52.90964999999999
 21
0.084156
 31
0.0
  0
LINE
  5
19E
330
46F
100
AcDbEntity
  8
1
100
AcDbLine
 10
52.90964999999999
 20
0.084156
 30
0.0
 11
52.86985
 21
0.087806
 31
0.0
  0
LINE
  5
19F
330
46F
100
AcDbEntity
  8
1
100
AcDbLine
 10
52.86985
 20
0.087806
 30
0.0
 11
52.83084
 21
0.091752
 31
0.0
  0
LINE
  5
1A0
330
46F
100
AcDbEntity
  8
1
100
AcDbLine
 10
52.83084
 20
0.091752
 30
0.0
 11
52.792798
 21
0.096008
 31
0.0
  0
LINE
  5
1A1
330
46F
100
AcDbEntity
  8
1
100
AcDbLine
 10
52.792798
 20
0.096008
 30
0.0
 11
52.75576899999999
 21
0.100523
 31
0.0
  0
LINE
  5
1A2
330
46F
100
AcDbEntity
  8
1
100
AcDbLine
 10
52.75576899999999
 20
0.100523
 30
0.0
 11
52.71976
 21
0.105246
 31
0.0
  0
LINE
  5
1A3
330
46F
100
AcDbEntity
  8
1
100
AcDbLine
 10
52.71976
 20
0.105246
 30
0.0
 11
52.684885
 21
0.110177
 31
0.0
  0
LINE
  5
1A4
330
46F
100
AcDbEntity
  8
1
100
AcDbLine
 10
52.684885
 20
0.110177
 30
0.0
 11
52.651198
 21
0.115289
 31
0.0
  0
LINE
  5
1A5
330
46F
100
AcDbEntity
  8
1
100
AcDbLine
 10
52.651198
 20
0.115289
 30
0.0
 11
52.618688
 21
0.120521
 31
0.0
  0
LINE
  5
1A6
330
46F
100
AcDbEntity
  8
1
100
AcDbLine
 10
52.618688
 20
0.120521
 30
0.0
 11
52.587375
 21
0.125833
 31
0.0
  0
LINE
  5
1A7
330
46F
100
AcDbEntity
  8
1
100
AcDbLine
 10
52.734342
 20
0.5854350000000001
 30
0.0
 11
52.74177299999999
 21
0.590748
 31
0.0
  0
LINE
  5
1A8
330
46F
100
AcDbEntity
  8
1
100
AcDbLine
 10
52.74177299999999
 20
0.590748
 30
0.0
 11
52.765289
 21
0.6065430000000001
 31
0.0
  0
LINE
  5
1A9
330
46F
100
AcDbEntity
  8
1
100
AcDbLine
 10
52.765289
 20
0.6065430000000001
 30
0.0
 11
52.79059
 21
0.6217930000000001
 31
0.0
  0
LINE
  5
1AA
330
46F
100
AcDbEntity
  8
1
100
AcDbLine
 10
52.79059
 20
0.6217930000000001
 30
0.0
 11
52.81774
 21
0.636463
 31
0.0
  0
LINE
  5
1AB
330
46F
100
AcDbEntity
  8
1
100
AcDbLine
 10
52.81774
 20
0.636463
 30
0.0
 11
52.846697
 21
0.6506300000000001
 31
0.0
  0
LINE
  5
1AC
330
46F
100
AcDbEntity
  8
1
100
AcDbLine
 10
52.846697
 20
0.6506300000000001
 30
0.0
 11
52.877136
 21
0.6639510000000001
 31
0.0
  0
LINE
  5
1AD
330
46F
100
AcDbEntity
  8
1
100
AcDbLine
 10
52.877136
 20
0.6639510000000001
 30
0.0
 11
52.90905
 21
0.6763819999999999
 31
0.0
  0
LINE
  5
1AE
330
46F
100
AcDbEntity
  8
1
100
AcDbLine
 10
52.90905
 20
0.6763819999999999
 30
0.0
 11
52.94246
 21
0.6879999999999999
 31
0.0
  0
LINE
  5
1AF
330
46F
100
AcDbEntity
  8
1
100
AcDbLine
 10
52.94246
 20
0.6879999999999999
 30
0.0
 11
52.97707299999999
 21
0.698631
 31
0.0
  0
LINE
  5
1B0
330
46F
100
AcDbEntity
  8
1
100
AcDbLine
 10
52.97707299999999
 20
0.698631
 30
0.0
 11
53.012963
 21
0.708265
 31
0.0
  0
LINE
  5
1B1
330
46F
100
AcDbEntity
  8
1
100
AcDbLine
 10
53.012963
 20
0.708265
 30
0.0
 11
53.050063
 21
0.716935
 31
0.0
  0
LINE
  5
1B2
330
46F
100
AcDbEntity
  8
1
100
AcDbLine
 10
53.050063
 20
0.716935
 30
0.0
 11
53.087852
 21
0.72452
 31
0.0
  0
LINE
  5
1B3
330
46F
100
AcDbEntity
  8
1
100
AcDbLine
 10
53.087852
 20
0.72452
 30
0.0
 11
53.12648299999999
 21
0.730974
 31
0.0
  0
LINE
  5
1B4
330
46F
100
AcDbEntity
  8
1
100
AcDbLine
 10
53.12648299999999
 20
0.730974
 30
0.0
 11
53.165799
 21
0.736347
 31
0.0
  0
LINE
  5
1B5
330
46F
100
AcDbEntity
  8
1
100
AcDbLine
 10
53.165799
 20
0.736347
 30
0.0
 11
53.20480899999999
 21
0.7406229999999999
 31
0.0
  0
LINE
  5
1B6
330
46F
100
AcDbEntity
  8
1
100
AcDbLine
 10
53.20480899999999
 20
0.7406229999999999
 30
0.0
 11
53.243412
 21
0.7437090000000001
 31
0.0
  0
LINE
  5
1B7
330
46F
100
AcDbEntity
  8
1
100
AcDbLine
 10
53.243412
 20
0.7437090000000001
 30
0.0
 11
53.281691
 21
0.7456680000000001
 31
0.0
  0
LINE
  5
1B8
330
46F
100
AcDbEntity
  8
1
100
AcDbLine
 10
53.281691
 20
0.7456680000000001
 30
0.0
 11
53.318913
 21
0.7467020000000001
 31
0.0
  0
LINE
  5
1B9
330
46F
100
AcDbEntity
  8
1
100
AcDbLine
 10
53.318913
 20
0.7467020000000001
 30
0.0
 11
53.35484499999999
 21
0.746771
 31
0.0
  0
LINE
  5
1BA
330
46F
100
AcDbEntity
  8
1
100
AcDbLine
 10
53.35484499999999
 20
0.746771
 30
0.0
 11
53.389699
 21
0.745868
 31
0.0
  0
LINE
  5
1BB
330
46F
100
AcDbEntity
  8
1
100
AcDbLine
 10
53.389699
 20
0.745868
 30
0.0
 11
53.42340899999999
 21
0.7442340000000001
 31
0.0
  0
LINE
  5
1BC
330
46F
100
AcDbEntity
  8
1
100
AcDbLine
 10
53.42340899999999
 20
0.7442340000000001
 30
0.0
 11
53.455928
 21
0.7418770000000001
 31
0.0
  0
LINE
  5
1BD
330
46F
100
AcDbEntity
  8
1
100
AcDbLine
 10
53.455928
 20
0.7418770000000001
 30
0.0
 11
53.487287
 21
0.7387500000000001
 31
0.0
  0
LINE
  5
1BE
330
46F
100
AcDbEntity
  8
1
100
AcDbLine
 10
53.487287
 20
0.7387500000000001
 30
0.0
 11
53.517541
 21
0.7350300000000001
 31
0.0
  0
LINE
  5
1BF
330
46F
100
AcDbEntity
  8
1
100
AcDbLine
 10
53.517541
 20
0.7350300000000001
 30
0.0
 11
53.54665999999999
 21
0.730727
 31
0.0
  0
LINE
  5
1C0
330
46F
100
AcDbEntity
  8
1
100
AcDbLine
 10
53.54665999999999
 20
0.730727
 30
0.0
 11
53.574663
 21
0.725799
 31
0.0
  0
LINE
  5
1C1
330
46F
100
AcDbEntity
  8
1
100
AcDbLine
 10
53.574663
 20
0.725799
 30
0.0
 11
53.60167399999999
 21
0.720348
 31
0.0
  0
LINE
  5
1C2
330
46F
100
AcDbEntity
  8
1
100
AcDbLine
 10
53.60167399999999
 20
0.720348
 30
0.0
 11
53.62769399999999
 21
0.714382
 31
0.0
  0
LINE
  5
1C3
330
46F
100
AcDbEntity
  8
1
100
AcDbLine
 10
53.62769399999999
 20
0.714382
 30
0.0
 11
53.652716
 21
0.707871
 31
0.0
  0
LINE
  5
1C4
330
46F
100
AcDbEntity
  8
1
100
AcDbLine
 10
53.652716
 20
0.707871
 30
0.0
 11
53.676851
 21
0.700853
 31
0.0
  0
LINE
  5
1C5
330
46F
100
AcDbEntity
  8
1
100
AcDbLine
 10
53.676851
 20
0.700853
 30
0.0
 11
53.700192
 21
0.6932890000000001
 31
0.0
  0
LINE
  5
1C6
330
46F
100
AcDbEntity
  8
1
100
AcDbLine
 10
53.700192
 20
0.6932890000000001
 30
0.0
 11
53.722641
 21
0.6852010000000001
 31
0.0
  0
LINE
  5
1C7
330
46F
100
AcDbEntity
  8
1
100
AcDbLine
 10
53.722641
 20
0.6852010000000001
 30
0.0
 11
53.74402299999999
 21
0.6767170000000001
 31
0.0
  0
LINE
  5
1C8
330
46F
100
AcDbEntity
  8
1
100
AcDbLine
 10
53.74402299999999
 20
0.6767170000000001
 30
0.0
 11
53.764298
 21
0.6678220000000001
 31
0.0
  0
LINE
  5
1C9
330
46F
100
AcDbEntity
  8
1
100
AcDbLine
 10
53.764298
 20
0.6678220000000001
 30
0.0
 11
53.78350199999999
 21
0.658517
 31
0.0
  0
LINE
  5
1CA
330
46F
100
AcDbEntity
  8
1
100
AcDbLine
 10
53.78350199999999
 20
0.658517
 30
0.0
 11
53.80157
 21
0.648948
 31
0.0
  0
LINE
  5
1CB
330
46F
100
AcDbEntity
  8
1
100
AcDbLine
 10
53.80157
 20
0.648948
 30
0.0
 11
53.81844499999999
 21
0.639135
 31
0.0
  0
LINE
  5
1CC
330
46F
100
AcDbEntity
  8
1
100
AcDbLine
 10
53.81844499999999
 20
0.639135
 30
0.0
 11
53.834181
 21
0.629048
 31
0.0
  0
LINE
  5
1CD
330
46F
100
AcDbEntity
  8
1
100
AcDbLine
 10
53.834181
 20
0.629048
 30
0.0
 11
53.848892
 21
0.6187620000000001
 31
0.0
  0
LINE
  5
1CE
330
46F
100
AcDbEntity
  8
1
100
AcDbLine
 10
53.848892
 20
0.6187620000000001
 30
0.0
 11
53.862572
 21
0.608287
 31
0.0
  0
LINE
  5
1CF
330
46F
100
AcDbEntity
  8
1
100
AcDbLine
 10
53.862572
 20
0.608287
 30
0.0
 11
53.875225
 21
0.5976040000000001
 31
0.0
  0
LINE
  5
1D0
330
46F
100
AcDbEntity
  8
1
100
AcDbLine
 10
53.875225
 20
0.5976040000000001
 30
0.0
 11
53.88697099999999
 21
0.586759
 31
0.0
  0
LINE
  5
1D1
330
46F
100
AcDbEntity
  8
1
100
AcDbLine
 10
53.88697099999999
 20
0.586759
 30
0.0
 11
53.897799
 21
0.575788
 31
0.0
  0
LINE
  5
1D2
330
46F
100
AcDbEntity
  8
1
100
AcDbLine
 10
53.897799
 20
0.575788
 30
0.0
 11
53.90772099999999
 21
0.564648
 31
0.0
  0
LINE
  5
1D3
330
46F
100
AcDbEntity
  8
1
100
AcDbLine
 10
53.90772099999999
 20
0.564648
 30
0.0
 11
53.916892
 21
0.553264
 31
0.0
  0
LINE
  5
1D4
330
46F
100
AcDbEntity
  8
1
100
AcDbLine
 10
53.916892
 20
0.553264
 30
0.0
 11
53.925345
 21
0.5416400000000001
 31
0.0
  0
LINE
  5
1D5
330
46F
100
AcDbEntity
  8
1
100
AcDbLine
 10
53.925345
 20
0.5416400000000001
 30
0.0
 11
53.93304699999999
 21
0.529768
 31
0.0
  0
LINE
  5
1D6
330
46F
100
AcDbEntity
  8
1
100
AcDbLine
 10
53.93304699999999
 20
0.529768
 30
0.0
 11
53.940056
 21
0.5175600000000001
 31
0.0
  0
LINE
  5
1D7
330
46F
100
AcDbEntity
  8
1
100
AcDbLine
 10
53.940056
 20
0.5175600000000001
 30
0.0
 11
53.946403
 21
0.5049739999999999
 31
0.0
  0
LINE
  5
1D8
330
46F
100
AcDbEntity
  8
1
100
AcDbLine
 10
53.946403
 20
0.5049739999999999
 30
0.0
 11
53.952056
 21
0.4920520000000001
 31
0.0
  0
LINE
  5
1D9
330
46F
100
AcDbEntity
  8
1
100
AcDbLine
 10
53.952056
 20
0.4920520000000001
 30
0.0
 11
53.956972
 21
0.478822
 31
0.0
  0
LINE
  5
1DA
330
46F
100
AcDbEntity
  8
1
100
AcDbLine
 10
53.956972
 20
0.478822
 30
0.0
 11
53.961146
 21
0.46528
 31
0.0
  0
LINE
  5
1DB
330
46F
100
AcDbEntity
  8
1
100
AcDbLine
 10
53.961146
 20
0.46528
 30
0.0
 11
53.96458199999999
 21
0.451431
 31
0.0
  0
LINE
  5
1DC
330
46F
100
AcDbEntity
  8
1
100
AcDbLine
 10
53.96458199999999
 20
0.451431
 30
0.0
 11
53.967256
 21
0.437323
 31
0.0
  0
LINE
  5
1DD
330
46F
100
AcDbEntity
  8
1
100
AcDbLine
 10
53.967256
 20
0.437323
 30
0.0
 11
53.96916899999999
 21
0.423018
 31
0.0
  0
LINE
  5
1DE
330
46F
100
AcDbEntity
  8
1
100
AcDbLine
 10
53.96916899999999
 20
0.423018
 30
0.0
 11
53.970318
 21
0.408454
 31
0.0
  0
LINE
  5
1DF
330
46F
100
AcDbEntity
  8
1
100
AcDbLine
 10
53.970318
 20
0.408454
 30
0.0
 11
53.97067299999999
 21
0.3935
 31
0.0
  0
LINE
  5
1E0
330
46F
100
AcDbEntity
  8
1
100
AcDbLine
 10
53.97067299999999
 20
0.3935
 30
0.0
 11
53.97026
 21
0.378147
 31
0.0
  0
LINE
  5
1E1
330
46F
100
AcDbEntity
  8
1
100
AcDbLine
 10
53.97026
 20
0.378147
 30
0.0
 11
53.969052
 21
0.362406
 31
0.0
  0
LINE
  5
1E2
330
46F
100
AcDbEntity
  8
1
100
AcDbLine
 10
53.969052
 20
0.362406
 30
0.0
 11
53.966938
 21
0.346173
 31
0.0
  0
LINE
  5
1E3
330
46F
100
AcDbEntity
  8
1
100
AcDbLine
 10
53.966938
 20
0.346173
 30
0.0
 11
53.96388
 21
0.32942
 31
0.0
  0
LINE
  5
1E4
330
46F
100
AcDbEntity
  8
1
100
AcDbLine
 10
53.96388
 20
0.32942
 30
0.0
 11
53.959916
 21
0.312182
 31
0.0
  0
LINE
  5
1E5
330
46F
100
AcDbEntity
  8
1
100
AcDbLine
 10
53.959916
 20
0.312182
 30
0.0
 11
53.955049
 21
0.294464
 31
0.0
  0
LINE
  5
1E6
330
46F
100
AcDbEntity
  8
1
100
AcDbLine
 10
55.09836700000001
 20
0.058137
 30
0.0
 11
54.954798
 21
0.022997
 31
0.0
  0
LINE
  5
1E7
330
46F
100
AcDbEntity
  8
1
100
AcDbLine
 10
54.954798
 20
0.022997
 30
0.0
 11
54.808057
 21
-0.007981
 31
0.0
  0
LINE
  5
1E8
330
46F
100
AcDbEntity
  8
1
100
AcDbLine
 10
54.808057
 20
-0.007981
 30
0.0
 11
54.658145
 21
-0.034798
 31
0.0
  0
LINE
  5
1E9
330
46F
100
AcDbEntity
  8
1
100
AcDbLine
 10
54.658145
 20
-0.034798
 30
0.0
 11
54.504926
 21
-0.05753
 31
0.0
  0
LINE
  5
1EA
330
46F
100
AcDbEntity
  8
1
100
AcDbLine
 10
54.504926
 20
-0.05753
 30
0.0
 11
54.34853399999999
 21
-0.076101
 31
0.0
  0
LINE
  5
1EB
330
46F
100
AcDbEntity
  8
1
100
AcDbLine
 10
54.34853399999999
 20
-0.076101
 30
0.0
 11
54.18938
 21
-0.090271
 31
0.0
  0
LINE
  5
1EC
330
46F
100
AcDbEntity
  8
1
100
AcDbLine
 10
54.18938
 20
-0.090271
 30
0.0
 11
54.027409
 21
-0.099973
 31
0.0
  0
LINE
  5
1ED
330
46F
100
AcDbEntity
  8
1
100
AcDbLine
 10
54.027409
 20
-0.099973
 30
0.0
 11
53.862676
 21
-0.105277
 31
0.0
  0
LINE
  5
1EE
330
46F
100
AcDbEntity
  8
1
100
AcDbLine
 10
53.862676
 20
-0.105277
 30
0.0
 11
53.695751
 21
-0.106148
 31
0.0
  0
LINE
  5
1EF
330
46F
100
AcDbEntity
  8
1
100
AcDbLine
 10
53.695751
 20
-0.106148
 30
0.0
 11
53.526817
 21
-0.102547
 31
0.0
  0
LINE
  5
1F0
330
46F
100
AcDbEntity
  8
1
100
AcDbLine
 10
53.526817
 20
-0.102547
 30
0.0
 11
53.35569200000001
 21
-0.094513
 31
0.0
  0
LINE
  5
1F1
330
46F
100
AcDbEntity
  8
1
100
AcDbLine
 10
53.35569200000001
 20
-0.094513
 30
0.0
 11
53.18239699999999
 21
-0.082141
 31
0.0
  0
LINE
  5
1F2
330
46F
100
AcDbEntity
  8
1
100
AcDbLine
 10
53.18239699999999
 20
-0.082141
 30
0.0
 11
53.00689699999999
 21
-0.065409
 31
0.0
  0
LINE
  5
1F3
330
46F
100
AcDbEntity
  8
1
100
AcDbLine
 10
53.00689699999999
 20
-0.065409
 30
0.0
 11
52.829227
 21
-0.044337
 31
0.0
  0
LINE
  5
1F4
330
46F
100
AcDbEntity
  8
1
100
AcDbLine
 10
52.829227
 20
-0.044337
 30
0.0
 11
52.64951800000001
 21
-0.019073
 31
0.0
  0
LINE
  5
1F5
330
46F
100
AcDbEntity
  8
1
100
AcDbLine
 10
52.64951800000001
 20
-0.019073
 30
0.0
 11
52.467716
 21
0.010413
 31
0.0
  0
LINE
  5
1F6
330
46F
100
AcDbEntity
  8
1
100
AcDbLine
 10
52.467716
 20
0.010413
 30
0.0
 11
52.283875
 21
0.044089
 31
0.0
  0
LINE
  5
1F7
330
46F
100
AcDbEntity
  8
1
100
AcDbLine
 10
52.283875
 20
0.044089
 30
0.0
 11
52.098281
 21
0.081701
 31
0.0
  0
LINE
  5
1F8
330
46F
100
AcDbEntity
  8
1
100
AcDbLine
 10
52.098281
 20
0.081701
 30
0.0
 11
51.911032
 21
0.123162
 31
0.0
  0
LINE
  5
1F9
330
46F
100
AcDbEntity
  8
1
100
AcDbLine
 10
51.911032
 20
0.123162
 30
0.0
 11
51.72202999999999
 21
0.168554
 31
0.0
  0
LINE
  5
1FA
330
46F
100
AcDbEntity
  8
1
100
AcDbLine
 10
51.72202999999999
 20
0.168554
 30
0.0
 11
51.531277
 21
0.217873
 31
0.0
  0
LINE
  5
1FB
330
46F
100
AcDbEntity
  8
1
100
AcDbLine
 10
52.587375
 20
0.125833
 30
0.0
 11
52.581889
 21
0.140816
 31
0.0
  0
LINE
  5
1FC
330
46F
100
AcDbEntity
  8
1
100
AcDbLine
 10
52.581889
 20
0.140816
 30
0.0
 11
52.57697199999999
 21
0.156209
 31
0.0
  0
LINE
  5
1FD
330
46F
100
AcDbEntity
  8
1
100
AcDbLine
 10
52.57697199999999
 20
0.156209
 30
0.0
 11
52.572623
 21
0.172013
 31
0.0
  0
LINE
  5
1FE
330
46F
100
AcDbEntity
  8
1
100
AcDbLine
 10
52.572623
 20
0.172013
 30
0.0
 11
52.56879
 21
0.188284
 31
0.0
  0
LINE
  5
1FF
330
46F
100
AcDbEntity
  8
1
100
AcDbLine
 10
52.56879
 20
0.188284
 30
0.0
 11
52.565525
 21
0.204967
 31
0.0
  0
LINE
  5
200
330
46F
100
AcDbEntity
  8
1
100
AcDbLine
 10
52.565525
 20
0.204967
 30
0.0
 11
52.56298799999999
 21
0.221899
 31
0.0
  0
LINE
  5
201
330
46F
100
AcDbEntity
  8
1
100
AcDbLine
 10
52.56298799999999
 20
0.221899
 30
0.0
 11
52.561197
 21
0.2390929999999999
 31
0.0
  0
LINE
  5
202
330
46F
100
AcDbEntity
  8
1
100
AcDbLine
 10
52.561197
 20
0.2390929999999999
 30
0.0
 11
52.56013499999999
 21
0.256539
 31
0.0
  0
LINE
  5
203
330
46F
100
AcDbEntity
  8
1
100
AcDbLine
 10
52.56013499999999
 20
0.256539
 30
0.0
 11
52.559904
 21
0.274034
 31
0.0
  0
LINE
  5
204
330
46F
100
AcDbEntity
  8
1
100
AcDbLine
 10
52.559904
 20
0.274034
 30
0.0
 11
52.560517
 21
0.291546
 31
0.0
  0
LINE
  5
205
330
46F
100
AcDbEntity
  8
1
100
AcDbLine
 10
52.560517
 20
0.291546
 30
0.0
 11
52.561964
 21
0.309112
 31
0.0
  0
LINE
  5
206
330
46F
100
AcDbEntity
  8
1
100
AcDbLine
 10
52.561964
 20
0.309112
 30
0.0
 11
52.56430600000001
 21
0.32665
 31
0.0
  0
LINE
  5
207
330
46F
100
AcDbEntity
  8
1
100
AcDbLine
 10
52.56430600000001
 20
0.32665
 30
0.0
 11
52.56754499999999
 21
0.344154
 31
0.0
  0
LINE
  5
208
330
46F
100
AcDbEntity
  8
1
100
AcDbLine
 10
52.56754499999999
 20
0.344154
 30
0.0
 11
52.571684
 21
0.361639
 31
0.0
  0
LINE
  5
209
330
46F
100
AcDbEntity
  8
1
100
AcDbLine
 10
52.571684
 20
0.361639
 30
0.0
 11
52.57679
 21
0.37904
 31
0.0
  0
LINE
  5
20A
330
46F
100
AcDbEntity
  8
1
100
AcDbLine
 10
52.57679
 20
0.37904
 30
0.0
 11
52.58288100000001
 21
0.396392
 31
0.0
  0
LINE
  5
20B
330
46F
100
AcDbEntity
  8
1
100
AcDbLine
 10
52.58288100000001
 20
0.396392
 30
0.0
 11
52.58994699999999
 21
0.413673
 31
0.0
  0
LINE
  5
20C
330
46F
100
AcDbEntity
  8
1
100
AcDbLine
 10
52.58994699999999
 20
0.413673
 30
0.0
 11
52.598011
 21
0.430746
 31
0.0
  0
LINE
  5
20D
330
46F
100
AcDbEntity
  8
1
100
AcDbLine
 10
52.598011
 20
0.430746
 30
0.0
 11
52.607103
 21
0.44762
 31
0.0
  0
LINE
  5
20E
330
46F
100
AcDbEntity
  8
1
100
AcDbLine
 10
52.607103
 20
0.44762
 30
0.0
 11
52.617202
 21
0.464298
 31
0.0
  0
LINE
  5
20F
330
46F
100
AcDbEntity
  8
1
100
AcDbLine
 10
52.617202
 20
0.464298
 30
0.0
 11
52.628265
 21
0.480623
 31
0.0
  0
LINE
  5
210
330
46F
100
AcDbEntity
  8
1
100
AcDbLine
 10
52.628265
 20
0.480623
 30
0.0
 11
52.640281
 21
0.496551
 31
0.0
  0
LINE
  5
211
330
46F
100
AcDbEntity
  8
1
100
AcDbLine
 10
52.640281
 20
0.496551
 30
0.0
 11
52.65326899999999
 21
0.51214
 31
0.0
  0
LINE
  5
212
330
46F
100
AcDbEntity
  8
1
100
AcDbLine
 10
52.65326899999999
 20
0.51214
 30
0.0
 11
52.667234
 21
0.5273979999999999
 31
0.0
  0
LINE
  5
213
330
46F
100
AcDbEntity
  8
1
100
AcDbLine
 10
52.667234
 20
0.5273979999999999
 30
0.0
 11
52.682976
 21
0.543338
 31
0.0
  0
LINE
  5
214
330
46F
100
AcDbEntity
  8
1
100
AcDbLine
 10
52.682976
 20
0.543338
 30
0.0
 11
52.700629
 21
0.5591680000000001
 31
0.0
  0
LINE
  5
215
330
46F
100
AcDbEntity
  8
1
100
AcDbLine
 10
52.700629
 20
0.5591680000000001
 30
0.0
 11
52.720205
 21
0.5749050000000001
 31
0.0
  0
LINE
  5
216
330
46F
100
AcDbEntity
  8
1
100
AcDbLine
 10
52.720205
 20
0.5749050000000001
 30
0.0
 11
52.734342
 21
0.5854350000000001
 31
0.0
  0
LINE
  5
217
330
46F
100
AcDbEntity
  8
1
100
AcDbLine
 10
52.587375
 20
0.125833
 30
0.0
 11
52.46088199999999
 21
0.124773
 31
0.0
  0
LINE
  5
218
330
46F
100
AcDbEntity
  8
1
100
AcDbLine
 10
52.46088199999999
 20
0.124773
 30
0.0
 11
52.33642299999999
 21
0.126548
 31
0.0
  0
LINE
  5
219
330
46F
100
AcDbEntity
  8
1
100
AcDbLine
 10
52.33642299999999
 20
0.126548
 30
0.0
 11
52.21410800000001
 21
0.131156
 31
0.0
  0
LINE
  5
21A
330
46F
100
AcDbEntity
  8
1
100
AcDbLine
 10
52.21410800000001
 20
0.131156
 30
0.0
 11
52.094049
 21
0.138591
 31
0.0
  0
LINE
  5
21B
330
46F
100
AcDbEntity
  8
1
100
AcDbLine
 10
52.094049
 20
0.138591
 30
0.0
 11
51.976352
 21
0.148849
 31
0.0
  0
LINE
  5
21C
330
46F
100
AcDbEntity
  8
1
100
AcDbLine
 10
51.976352
 20
0.148849
 30
0.0
 11
51.86112399999999
 21
0.161919
 31
0.0
  0
LINE
  5
21D
330
46F
100
AcDbEntity
  8
1
100
AcDbLine
 10
51.86112399999999
 20
0.161919
 30
0.0
 11
51.748468
 21
0.177789
 31
0.0
  0
LINE
  5
21E
330
46F
100
AcDbEntity
  8
1
100
AcDbLine
 10
51.748468
 20
0.177789
 30
0.0
 11
51.638486
 21
0.196447
 31
0.0
  0
LINE
  5
21F
330
46F
100
AcDbEntity
  8
1
100
AcDbLine
 10
51.638486
 20
0.196447
 30
0.0
 11
51.531277
 21
0.217873
 31
0.0
  0
LINE
  5
220
330
46F
100
AcDbEntity
  8
1
100
AcDbLine
 10
55.649891
 20
-3.381951
 30
0.0
 11
55.649891
 21
-3.716825
 31
0.0
  0
LINE
  5
221
330
46F
100
AcDbEntity
  8
1
100
AcDbLine
 10
54.43758
 20
-2.083756
 30
0.0
 11
54.44812399999999
 21
-2.141262999999999
 31
0.0
  0
LINE
  5
222
330
46F
100
AcDbEntity
  8
1
100
AcDbLine
 10
54.44812399999999
 20
-2.141262999999999
 30
0.0
 11
54.461831
 21
-2.198983
 31
0.0
  0
LINE
  5
223
330
46F
100
AcDbEntity
  8
1
100
AcDbLine
 10
54.461831
 20
-2.198983
 30
0.0
 11
54.4787
 21
-2.256923
 31
0.0
  0
LINE
  5
224
330
46F
100
AcDbEntity
  8
1
100
AcDbLine
 10
54.4787
 20
-2.256923
 30
0.0
 11
54.498576
 21
-2.315163999999999
 31
0.0
  0
LINE
  5
225
330
46F
100
AcDbEntity
  8
1
100
AcDbLine
 10
54.498576
 20
-2.315163999999999
 30
0.0
 11
54.521615
 21
-2.373645
 31
0.0
  0
LINE
  5
226
330
46F
100
AcDbEntity
  8
1
100
AcDbLine
 10
54.521615
 20
-2.373645
 30
0.0
 11
54.548287
 21
-2.432173
 31
0.0
  0
LINE
  5
227
330
46F
100
AcDbEntity
  8
1
100
AcDbLine
 10
54.548287
 20
-2.432173
 30
0.0
 11
54.578743
 21
-2.490924999999999
 31
0.0
  0
LINE
  5
228
330
46F
100
AcDbEntity
  8
1
100
AcDbLine
 10
54.578743
 20
-2.490924999999999
 30
0.0
 11
54.612832
 21
-2.549750999999999
 31
0.0
  0
LINE
  5
229
330
46F
100
AcDbEntity
  8
1
100
AcDbLine
 10
54.612832
 20
-2.549750999999999
 30
0.0
 11
54.650575
 21
-2.607971
 31
0.0
  0
LINE
  5
22A
330
46F
100
AcDbEntity
  8
1
100
AcDbLine
 10
54.650575
 20
-2.607971
 30
0.0
 11
54.692025
 21
-2.665506
 31
0.0
  0
LINE
  5
22B
330
46F
100
AcDbEntity
  8
1
100
AcDbLine
 10
54.692025
 20
-2.665506
 30
0.0
 11
54.737129
 21
-2.722472999999999
 31
0.0
  0
LINE
  5
22C
330
46F
100
AcDbEntity
  8
1
100
AcDbLine
 10
54.737129
 20
-2.722472999999999
 30
0.0
 11
54.78574
 21
-2.778497
 31
0.0
  0
LINE
  5
22D
330
46F
100
AcDbEntity
  8
1
100
AcDbLine
 10
54.78574
 20
-2.778497
 30
0.0
 11
54.837786
 21
-2.833469
 31
0.0
  0
LINE
  5
22E
330
46F
100
AcDbEntity
  8
1
100
AcDbLine
 10
54.837786
 20
-2.833469
 30
0.0
 11
54.893339
 21
-2.887534
 31
0.0
  0
LINE
  5
22F
330
46F
100
AcDbEntity
  8
1
100
AcDbLine
 10
54.893339
 20
-2.887534
 30
0.0
 11
54.952475
 21
-2.940713
 31
0.0
  0
LINE
  5
230
330
46F
100
AcDbEntity
  8
1
100
AcDbLine
 10
54.952475
 20
-2.940713
 30
0.0
 11
55.01515699999999
 21
-2.993011999999999
 31
0.0
  0
LINE
  5
231
330
46F
100
AcDbEntity
  8
1
100
AcDbLine
 10
55.01515699999999
 20
-2.993011999999999
 30
0.0
 11
55.08142199999999
 21
-3.044459999999999
 31
0.0
  0
LINE
  5
232
330
46F
100
AcDbEntity
  8
1
100
AcDbLine
 10
55.08142199999999
 20
-3.044459999999999
 30
0.0
 11
55.15144599999999
 21
-3.095113
 31
0.0
  0
LINE
  5
233
330
46F
100
AcDbEntity
  8
1
100
AcDbLine
 10
55.15144599999999
 20
-3.095113
 30
0.0
 11
55.225329
 21
-3.145051
 31
0.0
  0
LINE
  5
234
330
46F
100
AcDbEntity
  8
1
100
AcDbLine
 10
55.225329
 20
-3.145051
 30
0.0
 11
55.30297199999999
 21
-3.194227
 31
0.0
  0
LINE
  5
235
330
46F
100
AcDbEntity
  8
1
100
AcDbLine
 10
55.30297199999999
 20
-3.194227
 30
0.0
 11
55.38426099999999
 21
-3.242506
 31
0.0
  0
LINE
  5
236
330
46F
100
AcDbEntity
  8
1
100
AcDbLine
 10
55.38426099999999
 20
-3.242506
 30
0.0
 11
55.46915799999999
 21
-3.289852999999999
 31
0.0
  0
LINE
  5
237
330
46F
100
AcDbEntity
  8
1
100
AcDbLine
 10
55.46915799999999
 20
-3.289852999999999
 30
0.0
 11
55.557702
 21
-3.33633
 31
0.0
  0
LINE
  5
238
330
46F
100
AcDbEntity
  8
1
100
AcDbLine
 10
55.557702
 20
-3.33633
 30
0.0
 11
55.649891
 21
-3.381951
 31
0.0
  0
LINE
  5
239
330
46F
100
AcDbEntity
  8
1
100
AcDbLine
 10
54.293661
 20
-2.119797999999999
 30
0.0
 11
54.293661
 21
-2.085799
 31
0.0
  0
LINE
  5
23A
330
46F
100
AcDbEntity
  8
1
100
AcDbLine
 10
54.849891
 20
-3.880101999999999
 30
0.0
 11
54.78735
 21
-3.695574999999999
 31
0.0
  0
LINE
  5
23B
330
46F
100
AcDbEntity
  8
1
100
AcDbLine
 10
54.78735
 20
-3.695574999999999
 30
0.0
 11
54.72493599999999
 21
-3.508101
 31
0.0
  0
LINE
  5
23C
330
46F
100
AcDbEntity
  8
1
100
AcDbLine
 10
54.72493599999999
 20
-3.508101
 30
0.0
 11
54.66264999999999
 21
-3.317679
 31
0.0
  0
LINE
  5
23D
330
46F
100
AcDbEntity
  8
1
100
AcDbLine
 10
54.66264999999999
 20
-3.317679
 30
0.0
 11
54.600415
 21
-3.124068999999999
 31
0.0
  0
LINE
  5
23E
330
46F
100
AcDbEntity
  8
1
100
AcDbLine
 10
54.600415
 20
-3.124068999999999
 30
0.0
 11
54.53830799999999
 21
-2.927509999999999
 31
0.0
  0
LINE
  5
23F
330
46F
100
AcDbEntity
  8
1
100
AcDbLine
 10
54.53830799999999
 20
-2.927509999999999
 30
0.0
 11
54.476556
 21
-2.728731
 31
0.0
  0
LINE
  5
240
330
46F
100
AcDbEntity
  8
1
100
AcDbLine
 10
54.476556
 20
-2.728731
 30
0.0
 11
54.415236
 21
-2.527973999999999
 31
0.0
  0
LINE
  5
241
330
46F
100
AcDbEntity
  8
1
100
AcDbLine
 10
54.415236
 20
-2.527973999999999
 30
0.0
 11
54.354271
 21
-2.324996
 31
0.0
  0
LINE
  5
242
330
46F
100
AcDbEntity
  8
1
100
AcDbLine
 10
54.354271
 20
-2.324996
 30
0.0
 11
54.293661
 21
-2.119797999999999
 31
0.0
  0
LINE
  5
243
330
46F
100
AcDbEntity
  8
1
100
AcDbLine
 10
54.073349
 20
0.239468
 30
0.0
 11
54.07172199999999
 21
0.235557
 31
0.0
  0
LINE
  5
244
330
46F
100
AcDbEntity
  8
1
100
AcDbLine
 10
54.07172199999999
 20
0.235557
 30
0.0
 11
54.069203
 21
0.231412
 31
0.0
  0
LINE
  5
245
330
46F
100
AcDbEntity
  8
1
100
AcDbLine
 10
54.069203
 20
0.231412
 30
0.0
 11
54.065776
 21
0.227059
 31
0.0
  0
LINE
  5
246
330
46F
100
AcDbEntity
  8
1
100
AcDbLine
 10
54.065776
 20
0.227059
 30
0.0
 11
54.061442
 21
0.222531
 31
0.0
  0
LINE
  5
247
330
46F
100
AcDbEntity
  8
1
100
AcDbLine
 10
54.061442
 20
0.222531
 30
0.0
 11
54.05616999999999
 21
0.21785
 31
0.0
  0
LINE
  5
248
330
46F
100
AcDbEntity
  8
1
100
AcDbLine
 10
54.05616999999999
 20
0.21785
 30
0.0
 11
54.04989399999999
 21
0.213004
 31
0.0
  0
LINE
  5
249
330
46F
100
AcDbEntity
  8
1
100
AcDbLine
 10
53.955049
 20
0.294464
 30
0.0
 11
53.96822499999999
 21
0.292679
 31
0.0
  0
LINE
  5
24A
330
46F
100
AcDbEntity
  8
1
100
AcDbLine
 10
53.96822499999999
 20
0.292679
 30
0.0
 11
53.980534
 21
0.2908139999999999
 31
0.0
  0
LINE
  5
24B
330
46F
100
AcDbEntity
  8
1
100
AcDbLine
 10
53.980534
 20
0.2908139999999999
 30
0.0
 11
53.991983
 21
0.288864
 31
0.0
  0
LINE
  5
24C
330
46F
100
AcDbEntity
  8
1
100
AcDbLine
 10
53.991983
 20
0.288864
 30
0.0
 11
54.002561
 21
0.2868110000000001
 31
0.0
  0
LINE
  5
24D
330
46F
100
AcDbEntity
  8
1
100
AcDbLine
 10
54.002561
 20
0.2868110000000001
 30
0.0
 11
54.012289
 21
0.284662
 31
0.0
  0
LINE
  5
24E
330
46F
100
AcDbEntity
  8
1
100
AcDbLine
 10
54.012289
 20
0.284662
 30
0.0
 11
54.021218
 21
0.282443
 31
0.0
  0
LINE
  5
24F
330
46F
100
AcDbEntity
  8
1
100
AcDbLine
 10
54.021218
 20
0.282443
 30
0.0
 11
54.02934699999999
 21
0.28015
 31
0.0
  0
LINE
  5
250
330
46F
100
AcDbEntity
  8
1
100
AcDbLine
 10
54.02934699999999
 20
0.28015
 30
0.0
 11
54.036689
 21
0.2777719999999999
 31
0.0
  0
LINE
  5
251
330
46F
100
AcDbEntity
  8
1
100
AcDbLine
 10
54.036689
 20
0.2777719999999999
 30
0.0
 11
54.043323
 21
0.27533
 31
0.0
  0
LINE
  5
252
330
46F
100
AcDbEntity
  8
1
100
AcDbLine
 10
54.043323
 20
0.27533
 30
0.0
 11
54.04925
 21
0.272829
 31
0.0
  0
LINE
  5
253
330
46F
100
AcDbEntity
  8
1
100
AcDbLine
 10
54.04925
 20
0.272829
 30
0.0
 11
54.05448
 21
0.270251
 31
0.0
  0
LINE
  5
254
330
46F
100
AcDbEntity
  8
1
100
AcDbLine
 10
54.05448
 20
0.270251
 30
0.0
 11
54.05909300000001
 21
0.267582
 31
0.0
  0
LINE
  5
255
330
46F
100
AcDbEntity
  8
1
100
AcDbLine
 10
54.05909300000001
 20
0.267582
 30
0.0
 11
54.06311099999999
 21
0.264829
 31
0.0
  0
LINE
  5
256
330
46F
100
AcDbEntity
  8
1
100
AcDbLine
 10
54.06311099999999
 20
0.264829
 30
0.0
 11
54.066513
 21
0.261987
 31
0.0
  0
LINE
  5
257
330
46F
100
AcDbEntity
  8
1
100
AcDbLine
 10
54.066513
 20
0.261987
 30
0.0
 11
54.069313
 21
0.259048
 31
0.0
  0
LINE
  5
258
330
46F
100
AcDbEntity
  8
1
100
AcDbLine
 10
54.069313
 20
0.259048
 30
0.0
 11
54.071514
 21
0.256016
 31
0.0
  0
LINE
  5
259
330
46F
100
AcDbEntity
  8
1
100
AcDbLine
 10
54.071514
 20
0.256016
 30
0.0
 11
54.07310899999999
 21
0.252892
 31
0.0
  0
LINE
  5
25A
330
46F
100
AcDbEntity
  8
1
100
AcDbLine
 10
54.07310899999999
 20
0.252892
 30
0.0
 11
54.07409300000001
 21
0.249672
 31
0.0
  0
LINE
  5
25B
330
46F
100
AcDbEntity
  8
1
100
AcDbLine
 10
54.07409300000001
 20
0.249672
 30
0.0
 11
54.074461
 21
0.246357
 31
0.0
  0
LINE
  5
25C
330
46F
100
AcDbEntity
  8
1
100
AcDbLine
 10
54.074461
 20
0.246357
 30
0.0
 11
54.074214
 21
0.242954
 31
0.0
  0
LINE
  5
25D
330
46F
100
AcDbEntity
  8
1
100
AcDbLine
 10
54.074214
 20
0.242954
 30
0.0
 11
54.073349
 21
0.239468
 31
0.0
  0
LINE
  5
25E
330
46F
100
AcDbEntity
  8
1
100
AcDbLine
 10
54.293661
 20
-2.119797999999999
 30
0.0
 11
54.43758
 21
-2.083756
 31
0.0
  0
LINE
  5
25F
330
46F
100
AcDbEntity
  8
1
100
AcDbLine
 10
56.120302
 20
0.325498
 30
0.0
 11
55.44131
 21
0.147507
 31
0.0
  0
LINE
  5
260
330
46F
100
AcDbEntity
  8
1
100
AcDbLine
 10
55.44131
 20
0.147507
 30
0.0
 11
55.09836700000001
 21
0.058137
 31
0.0
  0
LINE
  5
261
330
46F
100
AcDbEntity
  8
1
100
AcDbLine
 10
56.790262
 20
0.5025370000000001
 30
0.0
 11
56.120302
 21
0.325498
 31
0.0
  0
LINE
  5
262
330
46F
100
AcDbEntity
  8
1
100
AcDbLine
 10
57.45024
 20
0.678342
 30
0.0
 11
56.790262
 21
0.5025370000000001
 31
0.0
  0
LINE
  5
263
330
46F
100
AcDbEntity
  8
1
100
AcDbLine
 10
54.720712
 20
0.497608
 30
0.0
 11
54.59255899999999
 21
0.45855
 31
0.0
  0
LINE
  5
264
330
46F
100
AcDbEntity
  8
1
100
AcDbLine
 10
54.59255899999999
 20
0.45855
 30
0.0
 11
54.464499
 21
0.421537
 31
0.0
  0
LINE
  5
265
330
46F
100
AcDbEntity
  8
1
100
AcDbLine
 10
54.464499
 20
0.421537
 30
0.0
 11
54.336625
 21
0.386598
 31
0.0
  0
LINE
  5
266
330
46F
100
AcDbEntity
  8
1
100
AcDbLine
 10
54.336625
 20
0.386598
 30
0.0
 11
54.209031
 21
0.353757
 31
0.0
  0
LINE
  5
267
330
46F
100
AcDbEntity
  8
1
100
AcDbLine
 10
54.209031
 20
0.353757
 30
0.0
 11
54.081808
 21
0.323038
 31
0.0
  0
LINE
  5
268
330
46F
100
AcDbEntity
  8
1
100
AcDbLine
 10
54.081808
 20
0.323038
 30
0.0
 11
53.955049
 21
0.294464
 31
0.0
  0
LINE
  5
269
330
46F
100
AcDbEntity
  8
1
100
AcDbLine
 10
54.849891
 20
-3.880101999999999
 30
0.0
 11
55.244613
 21
-3.800345999999999
 31
0.0
  0
LINE
  5
26A
330
46F
100
AcDbEntity
  8
1
100
AcDbLine
 10
55.244613
 20
-3.800345999999999
 30
0.0
 11
55.649891
 21
-3.716825
 31
0.0
  0
LINE
  5
26B
330
46F
100
AcDbEntity
  8
1
100
AcDbLine
 10
55.08645699999999
 20
-3.832483999999999
 30
0.0
 11
54.720712
 21
-3.946836
 31
0.0
  0
LINE
  5
26C
330
46F
100
AcDbEntity
  8
1
100
AcDbLine
 10
60.0
 20
-5.958192999999999
 30
0.0
 11
60.0
 21
-3.190722999999999
 31
0.0
  0
LINE
  5
26D
330
46F
100
AcDbEntity
  8
1
100
AcDbLine
 10
59.5
 20
-4.773462999999999
 30
0.0
 11
59.5
 21
-2.175008
 31
0.0
  0
LINE
  5
26E
330
46F
100
AcDbEntity
  8
1
100
AcDbLine
 10
58.1
 20
-5.299641999999999
 30
0.0
 11
58.1
 21
-6.080513999999999
 31
0.0
  0
LINE
  5
26F
330
46F
100
AcDbEntity
  8
1
100
AcDbLine
 10
59.5
 20
-4.773462999999999
 30
0.0
 11
59.368067
 21
-4.906894999999999
 31
0.0
  0
LINE
  5
270
330
46F
100
AcDbEntity
  8
1
100
AcDbLine
 10
59.368067
 20
-4.906894999999999
 30
0.0
 11
59.230274
 21
-5.043299
 31
0.0
  0
LINE
  5
271
330
46F
100
AcDbEntity
  8
1
100
AcDbLine
 10
59.230274
 20
-5.043299
 30
0.0
 11
59.08662299999999
 21
-5.182679
 31
0.0
  0
LINE
  5
272
330
46F
100
AcDbEntity
  8
1
100
AcDbLine
 10
59.08662299999999
 20
-5.182679
 30
0.0
 11
58.93717500000001
 21
-5.325066
 31
0.0
  0
LINE
  5
273
330
46F
100
AcDbEntity
  8
1
100
AcDbLine
 10
58.93717500000001
 20
-5.325066
 30
0.0
 11
58.781868
 21
-5.470425999999999
 31
0.0
  0
LINE
  5
274
330
46F
100
AcDbEntity
  8
1
100
AcDbLine
 10
58.781868
 20
-5.470425999999999
 30
0.0
 11
58.620515
 21
-5.618662
 31
0.0
  0
LINE
  5
275
330
46F
100
AcDbEntity
  8
1
100
AcDbLine
 10
58.620515
 20
-5.618662
 30
0.0
 11
58.45305500000001
 21
-5.769737
 31
0.0
  0
LINE
  5
276
330
46F
100
AcDbEntity
  8
1
100
AcDbLine
 10
58.45305500000001
 20
-5.769737
 30
0.0
 11
58.27955
 21
-5.923687999999999
 31
0.0
  0
LINE
  5
277
330
46F
100
AcDbEntity
  8
1
100
AcDbLine
 10
58.27955
 20
-5.923687999999999
 30
0.0
 11
58.1
 21
-6.080513999999999
 31
0.0
  0
LINE
  5
278
330
46F
100
AcDbEntity
  8
1
100
AcDbLine
 10
60.0
 20
-5.958192999999999
 30
0.0
 11
58.55050799999999
 21
-6.999999
 31
0.0
  0
LINE
  5
279
330
46F
100
AcDbEntity
  8
1
100
AcDbLine
 10
60.0
 20
-4.881141999999999
 30
0.0
 11
58.214614
 21
-6.164367999999999
 31
0.0
  0
LINE
  5
27A
330
46F
100
AcDbEntity
  8
1
100
AcDbLine
 10
59.5
 20
-4.055213
 30
0.0
 11
59.364226
 21
-4.182291
 31
0.0
  0
LINE
  5
27B
330
46F
100
AcDbEntity
  8
1
100
AcDbLine
 10
59.364226
 20
-4.182291
 30
0.0
 11
59.223562
 21
-4.312147
 31
0.0
  0
LINE
  5
27C
330
46F
100
AcDbEntity
  8
1
100
AcDbLine
 10
59.223562
 20
-4.312147
 30
0.0
 11
59.078008
 21
-4.444782
 31
0.0
  0
LINE
  5
27D
330
46F
100
AcDbEntity
  8
1
100
AcDbLine
 10
59.078008
 20
-4.444782
 30
0.0
 11
58.92763699999999
 21
-4.580168
 31
0.0
  0
LINE
  5
27E
330
46F
100
AcDbEntity
  8
1
100
AcDbLine
 10
58.92763699999999
 20
-4.580168
 30
0.0
 11
58.772376
 21
-4.718332
 31
0.0
  0
LINE
  5
27F
330
46F
100
AcDbEntity
  8
1
100
AcDbLine
 10
58.772376
 20
-4.718332
 30
0.0
 11
58.61200400000001
 21
-4.859353999999999
 31
0.0
  0
LINE
  5
280
330
46F
100
AcDbEntity
  8
1
100
AcDbLine
 10
58.61200400000001
 20
-4.859353999999999
 30
0.0
 11
58.44644699999999
 21
-5.003258999999999
 31
0.0
  0
LINE
  5
281
330
46F
100
AcDbEntity
  8
1
100
AcDbLine
 10
58.44644699999999
 20
-5.003258999999999
 30
0.0
 11
58.27577900000001
 21
-5.150021999999999
 31
0.0
  0
LINE
  5
282
330
46F
100
AcDbEntity
  8
1
100
AcDbLine
 10
58.27577900000001
 20
-5.150021999999999
 30
0.0
 11
58.1
 21
-5.299641999999999
 31
0.0
  0
LINE
  5
283
330
46F
100
AcDbEntity
  8
1
100
AcDbLine
 10
59.5
 20
-4.444443999999999
 30
0.0
 11
60.0
 21
-4.444443999999999
 31
0.0
  0
LINE
  5
284
330
46F
100
AcDbEntity
  8
1
100
AcDbLine
 10
59.5
 20
-4.638945999999999
 30
0.0
 11
60.0
 21
-4.638945999999999
 31
0.0
  0
LINE
  5
285
330
46F
100
AcDbEntity
  8
1
100
AcDbLine
 10
60.0
 20
-1.838995
 30
0.0
 11
60.0
 21
2.140975
 31
0.0
  0
LINE
  5
286
330
46F
100
AcDbEntity
  8
1
100
AcDbLine
 10
58.508762
 20
-2.443639
 30
0.0
 11
58.47089699999999
 21
-2.236238999999999
 31
0.0
  0
LINE
  5
287
330
46F
100
AcDbEntity
  8
1
100
AcDbLine
 10
58.47089699999999
 20
-2.236238999999999
 30
0.0
 11
58.43431999999999
 21
-2.031671999999999
 31
0.0
  0
LINE
  5
288
330
46F
100
AcDbEntity
  8
1
100
AcDbLine
 10
58.43431999999999
 20
-2.031671999999999
 30
0.0
 11
58.399032
 21
-1.829938999999999
 31
0.0
  0
LINE
  5
289
330
46F
100
AcDbEntity
  8
1
100
AcDbLine
 10
58.399032
 20
-1.829938999999999
 30
0.0
 11
58.36502199999999
 21
-1.631034999999999
 31
0.0
  0
LINE
  5
28A
330
46F
100
AcDbEntity
  8
1
100
AcDbLine
 10
58.36502199999999
 20
-1.631034999999999
 30
0.0
 11
58.3323
 21
-1.434965
 31
0.0
  0
LINE
  5
28B
330
46F
100
AcDbEntity
  8
1
100
AcDbLine
 10
58.3323
 20
-1.434965
 30
0.0
 11
58.30089499999999
 21
-1.241738
 31
0.0
  0
LINE
  5
28C
330
46F
100
AcDbEntity
  8
1
100
AcDbLine
 10
58.30089499999999
 20
-1.241738
 30
0.0
 11
58.27081800000001
 21
-1.051352
 31
0.0
  0
LINE
  5
28D
330
46F
100
AcDbEntity
  8
1
100
AcDbLine
 10
58.27081800000001
 20
-1.051352
 30
0.0
 11
58.242057
 21
-0.863809
 31
0.0
  0
LINE
  5
28E
330
46F
100
AcDbEntity
  8
1
100
AcDbLine
 10
58.242057
 20
-0.863809
 30
0.0
 11
58.214614
 21
-0.6791050000000001
 31
0.0
  0
LINE
  5
28F
330
46F
100
AcDbEntity
  8
1
100
AcDbLine
 10
58.1
 20
0.8528450000000001
 30
0.0
 11
58.1
 21
-0.673012
 31
0.0
  0
LINE
  5
290
330
46F
100
AcDbEntity
  8
1
100
AcDbLine
 10
58.512115
 20
-2.447942999999999
 30
0.0
 11
58.52730699999999
 21
-2.500991999999999
 31
0.0
  0
LINE
  5
291
330
46F
100
AcDbEntity
  8
1
100
AcDbLine
 10
58.52730699999999
 20
-2.500991999999999
 30
0.0
 11
58.543418
 21
-2.554181999999999
 31
0.0
  0
LINE
  5
292
330
46F
100
AcDbEntity
  8
1
100
AcDbLine
 10
58.543418
 20
-2.554181999999999
 30
0.0
 11
58.560449
 21
-2.607514
 31
0.0
  0
LINE
  5
293
330
46F
100
AcDbEntity
  8
1
100
AcDbLine
 10
58.560449
 20
-2.607514
 30
0.0
 11
58.578399
 21
-2.660988999999999
 31
0.0
  0
LINE
  5
294
330
46F
100
AcDbEntity
  8
1
100
AcDbLine
 10
58.578399
 20
-2.660988999999999
 30
0.0
 11
58.597269
 21
-2.714604999999999
 31
0.0
  0
LINE
  5
295
330
46F
100
AcDbEntity
  8
1
100
AcDbLine
 10
58.597269
 20
-2.714604999999999
 30
0.0
 11
58.617059
 21
-2.768364
 31
0.0
  0
LINE
  5
296
330
46F
100
AcDbEntity
  8
1
100
AcDbLine
 10
58.508762
 20
-2.443639
 30
0.0
 11
58.512115
 21
-2.447942999999999
 31
0.0
  0
LINE
  5
297
330
46F
100
AcDbEntity
  8
1
100
AcDbLine
 10
60.0
 20
-1.838995
 30
0.0
 11
58.617059
 21
-2.768364
 31
0.0
  0
LINE
  5
298
330
46F
100
AcDbEntity
  8
1
100
AcDbLine
 10
58.512115
 20
-2.447942999999999
 30
0.0
 11
60.0
 21
-1.44805
 31
0.0
  0
LINE
  5
299
330
46F
100
AcDbEntity
  8
1
100
AcDbLine
 10
60.0
 20
0.520716
 30
0.0
 11
58.214614
 21
-0.6791050000000001
 31
0.0
  0
LINE
  5
29A
330
46F
100
AcDbEntity
  8
1
100
AcDbLine
 10
59.5
 20
0.418228
 30
0.0
 11
59.367935
 21
0.310158
 31
0.0
  0
LINE
  5
29B
330
46F
100
AcDbEntity
  8
1
100
AcDbLine
 10
59.367935
 20
0.310158
 30
0.0
 11
59.230029
 21
0.198783
 31
0.0
  0
LINE
  5
29C
330
46F
100
AcDbEntity
  8
1
100
AcDbLine
 10
59.230029
 20
0.198783
 30
0.0
 11
59.08628100000001
 21
0.084104
 31
0.0
  0
LINE
  5
29D
330
46F
100
AcDbEntity
  8
1
100
AcDbLine
 10
59.08628100000001
 20
0.084104
 30
0.0
 11
58.93673299999999
 21
-0.033889
 31
0.0
  0
LINE
  5
29E
330
46F
100
AcDbEntity
  8
1
100
AcDbLine
 10
58.93673299999999
 20
-0.033889
 30
0.0
 11
58.781342
 21
-0.155187
 31
0.0
  0
LINE
  5
29F
330
46F
100
AcDbEntity
  8
1
100
AcDbLine
 10
58.781342
 20
-0.155187
 30
0.0
 11
58.61998599999999
 21
-0.279751
 31
0.0
  0
LINE
  5
2A0
330
46F
100
AcDbEntity
  8
1
100
AcDbLine
 10
58.61998599999999
 20
-0.279751
 30
0.0
 11
58.45262299999999
 21
-0.407571
 31
0.0
  0
LINE
  5
2A1
330
46F
100
AcDbEntity
  8
1
100
AcDbLine
 10
58.45262299999999
 20
-0.407571
 30
0.0
 11
58.27929499999999
 21
-0.538659
 31
0.0
  0
LINE
  5
2A2
330
46F
100
AcDbEntity
  8
1
100
AcDbLine
 10
58.27929499999999
 20
-0.538659
 30
0.0
 11
58.1
 21
-0.673012
 31
0.0
  0
LINE
  5
2A3
330
46F
100
AcDbEntity
  8
1
100
AcDbLine
 10
59.5
 20
1.467918
 30
0.0
 11
60.0
 21
1.316529
 31
0.0
  0
LINE
  5
2A4
330
46F
100
AcDbEntity
  8
1
100
AcDbLine
 10
57.814415
 20
-0.835893
 30
0.0
 11
58.214614
 21
-0.6791050000000001
 31
0.0
  0
LINE
  5
2A5
330
46F
100
AcDbEntity
  8
1
100
AcDbLine
 10
59.5
 20
1.525378
 30
0.0
 11
59.363542
 21
1.457961
 31
0.0
  0
LINE
  5
2A6
330
46F
100
AcDbEntity
  8
1
100
AcDbLine
 10
59.363542
 20
1.457961
 30
0.0
 11
59.22238499999999
 21
1.388745
 31
0.0
  0
LINE
  5
2A7
330
46F
100
AcDbEntity
  8
1
100
AcDbLine
 10
59.22238499999999
 20
1.388745
 30
0.0
 11
59.07653199999999
 21
1.317733
 31
0.0
  0
LINE
  5
2A8
330
46F
100
AcDbEntity
  8
1
100
AcDbLine
 10
59.07653199999999
 20
1.317733
 30
0.0
 11
58.926083
 21
1.244960999999999
 31
0.0
  0
LINE
  5
2A9
330
46F
100
AcDbEntity
  8
1
100
AcDbLine
 10
58.926083
 20
1.244960999999999
 30
0.0
 11
58.770936
 21
1.170392
 31
0.0
  0
LINE
  5
2AA
330
46F
100
AcDbEntity
  8
1
100
AcDbLine
 10
58.770936
 20
1.170392
 30
0.0
 11
58.610785
 21
1.093908
 31
0.0
  0
LINE
  5
2AB
330
46F
100
AcDbEntity
  8
1
100
AcDbLine
 10
58.610785
 20
1.093908
 30
0.0
 11
58.445527
 21
1.015468999999999
 31
0.0
  0
LINE
  5
2AC
330
46F
100
AcDbEntity
  8
1
100
AcDbLine
 10
58.445527
 20
1.015468999999999
 30
0.0
 11
58.275266
 21
0.9351139999999999
 31
0.0
  0
LINE
  5
2AD
330
46F
100
AcDbEntity
  8
1
100
AcDbLine
 10
58.275266
 20
0.9351139999999999
 30
0.0
 11
58.1
 21
0.8528450000000001
 31
0.0
  0
LINE
  5
2AE
330
46F
100
AcDbEntity
  8
1
100
AcDbLine
 10
59.5
 20
-3.029886999999999
 30
0.0
 11
60.0
 21
-3.190722999999999
 31
0.0
  0
LINE
  5
2AF
330
46F
100
AcDbEntity
  8
1
100
AcDbLine
 10
59.5
 20
0.485487
 30
0.0
 11
60.0
 21
0.641813
 31
0.0
  0
LINE
  5
2B0
330
46F
100
AcDbEntity
  8
1
100
AcDbLine
 10
59.5
 20
-2.452571999999999
 30
0.0
 11
58.727634
 21
-2.694055
 31
0.0
  0
LINE
  5
2B1
330
46F
100
AcDbEntity
  8
1
100
AcDbLine
 10
58.1
 20
6.152487
 30
0.0
 11
57.776387
 21
6.118177999999999
 31
0.0
  0
LINE
  5
2B2
330
46F
100
AcDbEntity
  8
1
100
AcDbLine
 10
57.776387
 20
6.118177999999999
 30
0.0
 11
57.45024
 21
6.082717999999999
 31
0.0
  0
LINE
  5
2B3
330
46F
100
AcDbEntity
  8
1
100
AcDbLine
 10
57.45024
 20
6.082717999999999
 30
0.0
 11
57.12155799999999
 21
6.046105999999999
 31
0.0
  0
LINE
  5
2B4
330
46F
100
AcDbEntity
  8
1
100
AcDbLine
 10
57.12155799999999
 20
6.046105999999999
 30
0.0
 11
56.790262
 21
6.008341
 31
0.0
  0
LINE
  5
2B5
330
46F
100
AcDbEntity
  8
1
100
AcDbLine
 10
56.790262
 20
6.008341
 30
0.0
 11
56.456431
 21
5.969424
 31
0.0
  0
LINE
  5
2B6
330
46F
100
AcDbEntity
  8
1
100
AcDbLine
 10
56.456431
 20
5.969424
 30
0.0
 11
56.120302
 21
5.929364999999999
 31
0.0
  0
LINE
  5
2B7
330
46F
100
AcDbEntity
  8
1
100
AcDbLine
 10
56.120302
 20
5.929364999999999
 30
0.0
 11
55.781955
 21
5.888168
 31
0.0
  0
LINE
  5
2B8
330
46F
100
AcDbEntity
  8
1
100
AcDbLine
 10
55.781955
 20
5.888168
 30
0.0
 11
55.44131
 21
5.845830999999999
 31
0.0
  0
LINE
  5
2B9
330
46F
100
AcDbEntity
  8
1
100
AcDbLine
 10
55.44131
 20
5.845830999999999
 30
0.0
 11
55.09836700000001
 21
5.802350999999999
 31
0.0
  0
LINE
  5
2BA
330
46F
100
AcDbEntity
  8
1
100
AcDbLine
 10
54.43758
 20
4.528102999999999
 30
0.0
 11
54.876594
 21
4.647432
 31
0.0
  0
LINE
  5
2BB
330
46F
100
AcDbEntity
  8
1
100
AcDbLine
 10
54.876594
 20
4.647432
 30
0.0
 11
55.310788
 21
4.763505999999999
 31
0.0
  0
LINE
  5
2BC
330
46F
100
AcDbEntity
  8
1
100
AcDbLine
 10
55.310788
 20
4.763505999999999
 30
0.0
 11
55.740163
 21
4.876323999999999
 31
0.0
  0
LINE
  5
2BD
330
46F
100
AcDbEntity
  8
1
100
AcDbLine
 10
55.740163
 20
4.876323999999999
 30
0.0
 11
56.164738
 21
4.985873
 31
0.0
  0
LINE
  5
2BE
330
46F
100
AcDbEntity
  8
1
100
AcDbLine
 10
56.164738
 20
4.985873
 30
0.0
 11
56.58449399999999
 21
5.092166999999999
 31
0.0
  0
LINE
  5
2BF
330
46F
100
AcDbEntity
  8
1
100
AcDbLine
 10
56.58449399999999
 20
5.092166999999999
 30
0.0
 11
56.999366
 21
5.195248
 31
0.0
  0
LINE
  5
2C0
330
46F
100
AcDbEntity
  8
1
100
AcDbLine
 10
56.999366
 20
5.195248
 30
0.0
 11
57.409333
 21
5.295131999999999
 31
0.0
  0
LINE
  5
2C1
330
46F
100
AcDbEntity
  8
1
100
AcDbLine
 10
57.409333
 20
5.295131999999999
 30
0.0
 11
57.814415
 21
5.391802999999999
 31
0.0
  0
LINE
  5
2C2
330
46F
100
AcDbEntity
  8
1
100
AcDbLine
 10
57.814415
 20
5.391802999999999
 30
0.0
 11
58.214614
 21
5.485262999999999
 31
0.0
  0
LINE
  5
2C3
330
46F
100
AcDbEntity
  8
1
100
AcDbLine
 10
58.508762
 20
4.458950999999999
 30
0.0
 11
58.19221500000001
 21
4.369762
 31
0.0
  0
LINE
  5
2C4
330
46F
100
AcDbEntity
  8
1
100
AcDbLine
 10
58.19221500000001
 20
4.369762
 30
0.0
 11
57.875351
 21
4.279373
 31
0.0
  0
LINE
  5
2C5
330
46F
100
AcDbEntity
  8
1
100
AcDbLine
 10
57.875351
 20
4.279373
 30
0.0
 11
57.55817099999999
 21
4.187807
 31
0.0
  0
LINE
  5
2C6
330
46F
100
AcDbEntity
  8
1
100
AcDbLine
 10
57.55817099999999
 20
4.187807
 30
0.0
 11
57.24062199999999
 21
4.095089999999999
 31
0.0
  0
LINE
  5
2C7
330
46F
100
AcDbEntity
  8
1
100
AcDbLine
 10
57.24062199999999
 20
4.095089999999999
 30
0.0
 11
56.92275600000001
 21
4.001242999999999
 31
0.0
  0
LINE
  5
2C8
330
46F
100
AcDbEntity
  8
1
100
AcDbLine
 10
56.92275600000001
 20
4.001242999999999
 30
0.0
 11
56.60473399999999
 21
3.906291
 31
0.0
  0
LINE
  5
2C9
330
46F
100
AcDbEntity
  8
1
100
AcDbLine
 10
56.60473399999999
 20
3.906291
 30
0.0
 11
56.28661
 21
3.810261
 31
0.0
  0
LINE
  5
2CA
330
46F
100
AcDbEntity
  8
1
100
AcDbLine
 10
56.28661
 20
3.810261
 30
0.0
 11
55.968329
 21
3.713175
 31
0.0
  0
LINE
  5
2CB
330
46F
100
AcDbEntity
  8
1
100
AcDbLine
 10
55.968329
 20
3.713175
 30
0.0
 11
55.649891
 21
3.615060999999999
 31
0.0
  0
LINE
  5
2CC
330
46F
100
AcDbEntity
  8
1
100
AcDbLine
 10
58.617059
 20
4.183802
 30
0.0
 11
58.28866099999999
 21
4.087487
 31
0.0
  0
LINE
  5
2CD
330
46F
100
AcDbEntity
  8
1
100
AcDbLine
 10
58.28866099999999
 20
4.087487
 30
0.0
 11
57.95988799999999
 21
3.990043
 31
0.0
  0
LINE
  5
2CE
330
46F
100
AcDbEntity
  8
1
100
AcDbLine
 10
57.95988799999999
 20
3.990043
 30
0.0
 11
57.630741
 21
3.891468
 31
0.0
  0
LINE
  5
2CF
330
46F
100
AcDbEntity
  8
1
100
AcDbLine
 10
57.630741
 20
3.891468
 30
0.0
 11
57.30114799999999
 21
3.791742999999999
 31
0.0
  0
LINE
  5
2D0
330
46F
100
AcDbEntity
  8
1
100
AcDbLine
 10
57.30114799999999
 20
3.791742999999999
 30
0.0
 11
56.97118
 21
3.690888999999999
 31
0.0
  0
LINE
  5
2D1
330
46F
100
AcDbEntity
  8
1
100
AcDbLine
 10
56.97118
 20
3.690888999999999
 30
0.0
 11
56.641049
 21
3.588966999999999
 31
0.0
  0
LINE
  5
2D2
330
46F
100
AcDbEntity
  8
1
100
AcDbLine
 10
56.641049
 20
3.588966999999999
 30
0.0
 11
56.310826
 21
3.486001
 31
0.0
  0
LINE
  5
2D3
330
46F
100
AcDbEntity
  8
1
100
AcDbLine
 10
56.310826
 20
3.486001
 30
0.0
 11
55.98044
 21
3.381966999999999
 31
0.0
  0
LINE
  5
2D4
330
46F
100
AcDbEntity
  8
1
100
AcDbLine
 10
55.98044
 20
3.381966999999999
 30
0.0
 11
55.649891
 21
3.276869
 31
0.0
  0
LINE
  5
2D5
330
46F
100
AcDbEntity
  8
1
100
AcDbLine
 10
8.0
 20
6.666666
 30
0.0
 11
49.991248
 21
6.666666
 31
0.0
  0
LINE
  5
2D6
330
46F
100
AcDbEntity
  8
1
100
AcDbLine
 10
54.28973599999999
 20
6.526137999999999
 30
0.0
 11
53.79865
 21
6.561233
 31
0.0
  0
LINE
  5
2D7
330
46F
100
AcDbEntity
  8
1
100
AcDbLine
 10
53.79865
 20
6.561233
 30
0.0
 11
53.15110799999999
 21
6.599066
 31
0.0
  0
LINE
  5
2D8
330
46F
100
AcDbEntity
  8
1
100
AcDbLine
 10
53.15110799999999
 20
6.599066
 30
0.0
 11
52.49998399999999
 21
6.628564999999999
 31
0.0
  0
LINE
  5
2D9
330
46F
100
AcDbEntity
  8
1
100
AcDbLine
 10
52.49998399999999
 20
6.628564999999999
 30
0.0
 11
51.846423
 21
6.649599
 31
0.0
  0
LINE
  5
2DA
330
46F
100
AcDbEntity
  8
1
100
AcDbLine
 10
51.846423
 20
6.649599
 30
0.0
 11
51.189279
 21
6.662299
 31
0.0
  0
LINE
  5
2DB
330
46F
100
AcDbEntity
  8
1
100
AcDbLine
 10
51.189279
 20
6.662299
 30
0.0
 11
50.528552
 21
6.666666
 31
0.0
  0
LINE
  5
2DC
330
46F
100
AcDbEntity
  8
1
100
AcDbLine
 10
55.09836700000001
 20
5.802350999999999
 30
0.0
 11
54.954798
 21
5.784966
 31
0.0
  0
LINE
  5
2DD
330
46F
100
AcDbEntity
  8
1
100
AcDbLine
 10
54.954798
 20
5.784966
 30
0.0
 11
54.808057
 21
5.769506999999999
 31
0.0
  0
LINE
  5
2DE
330
46F
100
AcDbEntity
  8
1
100
AcDbLine
 10
54.808057
 20
5.769506999999999
 30
0.0
 11
54.658145
 21
5.756025
 31
0.0
  0
LINE
  5
2DF
330
46F
100
AcDbEntity
  8
1
100
AcDbLine
 10
54.658145
 20
5.756025
 30
0.0
 11
54.504926
 21
5.744521999999999
 31
0.0
  0
LINE
  5
2E0
330
46F
100
AcDbEntity
  8
1
100
AcDbLine
 10
54.504926
 20
5.744521999999999
 30
0.0
 11
54.34853399999999
 21
5.735076
 31
0.0
  0
LINE
  5
2E1
330
46F
100
AcDbEntity
  8
1
100
AcDbLine
 10
54.34853399999999
 20
5.735076
 30
0.0
 11
54.18938
 21
5.727837
 31
0.0
  0
LINE
  5
2E2
330
46F
100
AcDbEntity
  8
1
100
AcDbLine
 10
54.18938
 20
5.727837
 30
0.0
 11
54.027409
 21
5.722866
 31
0.0
  0
LINE
  5
2E3
330
46F
100
AcDbEntity
  8
1
100
AcDbLine
 10
54.027409
 20
5.722866
 30
0.0
 11
53.862676
 21
5.720144
 31
0.0
  0
LINE
  5
2E4
330
46F
100
AcDbEntity
  8
1
100
AcDbLine
 10
53.862676
 20
5.720144
 30
0.0
 11
53.695751
 21
5.719695999999999
 31
0.0
  0
LINE
  5
2E5
330
46F
100
AcDbEntity
  8
1
100
AcDbLine
 10
53.695751
 20
5.719695999999999
 30
0.0
 11
53.526817
 21
5.721546
 31
0.0
  0
LINE
  5
2E6
330
46F
100
AcDbEntity
  8
1
100
AcDbLine
 10
53.526817
 20
5.721546
 30
0.0
 11
53.35569200000001
 21
5.725665
 31
0.0
  0
LINE
  5
2E7
330
46F
100
AcDbEntity
  8
1
100
AcDbLine
 10
53.35569200000001
 20
5.725665
 30
0.0
 11
53.18239699999999
 21
5.731994
 31
0.0
  0
LINE
  5
2E8
330
46F
100
AcDbEntity
  8
1
100
AcDbLine
 10
53.18239699999999
 20
5.731994
 30
0.0
 11
53.00689699999999
 21
5.740518999999999
 31
0.0
  0
LINE
  5
2E9
330
46F
100
AcDbEntity
  8
1
100
AcDbLine
 10
53.00689699999999
 20
5.740518999999999
 30
0.0
 11
52.829227
 21
5.751205999999999
 31
0.0
  0
LINE
  5
2EA
330
46F
100
AcDbEntity
  8
1
100
AcDbLine
 10
52.829227
 20
5.751205999999999
 30
0.0
 11
52.64951800000001
 21
5.763942
 31
0.0
  0
LINE
  5
2EB
330
46F
100
AcDbEntity
  8
1
100
AcDbLine
 10
52.64951800000001
 20
5.763942
 30
0.0
 11
52.467716
 21
5.778702
 31
0.0
  0
LINE
  5
2EC
330
46F
100
AcDbEntity
  8
1
100
AcDbLine
 10
52.467716
 20
5.778702
 30
0.0
 11
52.283875
 21
5.795421
 31
0.0
  0
LINE
  5
2ED
330
46F
100
AcDbEntity
  8
1
100
AcDbLine
 10
52.283875
 20
5.795421
 30
0.0
 11
52.098281
 21
5.813919
 31
0.0
  0
LINE
  5
2EE
330
46F
100
AcDbEntity
  8
1
100
AcDbLine
 10
52.098281
 20
5.813919
 30
0.0
 11
51.911032
 21
5.834098
 31
0.0
  0
LINE
  5
2EF
330
46F
100
AcDbEntity
  8
1
100
AcDbLine
 10
51.911032
 20
5.834098
 30
0.0
 11
51.72202999999999
 21
5.855933999999999
 31
0.0
  0
LINE
  5
2F0
330
46F
100
AcDbEntity
  8
1
100
AcDbLine
 10
51.72202999999999
 20
5.855933999999999
 30
0.0
 11
51.531277
 21
5.879355
 31
0.0
  0
LINE
  5
2F1
330
46F
100
AcDbEntity
  8
1
100
AcDbLine
 10
54.30082500000001
 20
4.442131999999999
 30
0.0
 11
53.90297
 21
4.332226999999999
 31
0.0
  0
LINE
  5
2F2
330
46F
100
AcDbEntity
  8
1
100
AcDbLine
 10
53.90297
 20
4.332226999999999
 30
0.0
 11
53.351666
 21
4.176806
 31
0.0
  0
LINE
  5
2F3
330
46F
100
AcDbEntity
  8
1
100
AcDbLine
 10
53.351666
 20
4.176806
 30
0.0
 11
52.796552
 21
4.017176999999999
 31
0.0
  0
LINE
  5
2F4
330
46F
100
AcDbEntity
  8
1
100
AcDbLine
 10
52.796552
 20
4.017176999999999
 30
0.0
 11
52.23772
 21
3.853391999999999
 31
0.0
  0
LINE
  5
2F5
330
46F
100
AcDbEntity
  8
1
100
AcDbLine
 10
52.23772
 20
3.853391999999999
 30
0.0
 11
51.677536
 21
3.686108999999999
 31
0.0
  0
LINE
  5
2F6
330
46F
100
AcDbEntity
  8
1
100
AcDbLine
 10
51.677536
 20
3.686108999999999
 30
0.0
 11
51.11679099999999
 21
3.515547
 31
0.0
  0
LINE
  5
2F7
330
46F
100
AcDbEntity
  8
1
100
AcDbLine
 10
51.11679099999999
 20
3.515547
 30
0.0
 11
50.554695
 21
3.341489
 31
0.0
  0
LINE
  5
2F8
330
46F
100
AcDbEntity
  8
1
100
AcDbLine
 10
50.554695
 20
3.341489
 30
0.0
 11
49.991248
 21
3.163931
 31
0.0
  0
LINE
  5
2F9
330
46F
100
AcDbEntity
  8
1
100
AcDbLine
 10
53.793661
 20
3.243072
 30
0.0
 11
53.63016700000001
 21
3.193605999999999
 31
0.0
  0
LINE
  5
2FA
330
46F
100
AcDbEntity
  8
1
100
AcDbLine
 10
53.63016700000001
 20
3.193605999999999
 30
0.0
 11
53.467248
 21
3.147572999999999
 31
0.0
  0
LINE
  5
2FB
330
46F
100
AcDbEntity
  8
1
100
AcDbLine
 10
53.467248
 20
3.147572999999999
 30
0.0
 11
53.304905
 21
3.104970999999999
 31
0.0
  0
LINE
  5
2FC
330
46F
100
AcDbEntity
  8
1
100
AcDbLine
 10
53.304905
 20
3.104970999999999
 30
0.0
 11
53.14294799999999
 21
3.06576
 31
0.0
  0
LINE
  5
2FD
330
46F
100
AcDbEntity
  8
1
100
AcDbLine
 10
53.14294799999999
 20
3.06576
 30
0.0
 11
52.981566
 21
3.02998
 31
0.0
  0
LINE
  5
2FE
330
46F
100
AcDbEntity
  8
1
100
AcDbLine
 10
52.981566
 20
3.02998
 30
0.0
 11
52.821329
 21
2.997756
 31
0.0
  0
LINE
  5
2FF
330
46F
100
AcDbEntity
  8
1
100
AcDbLine
 10
52.821329
 20
2.997756
 30
0.0
 11
52.66224000000001
 21
2.969104999999999
 31
0.0
  0
LINE
  5
300
330
46F
100
AcDbEntity
  8
1
100
AcDbLine
 10
52.66224000000001
 20
2.969104999999999
 30
0.0
 11
52.50429499999999
 21
2.944011
 31
0.0
  0
LINE
  5
301
330
46F
100
AcDbEntity
  8
1
100
AcDbLine
 10
52.50429499999999
 20
2.944011
 30
0.0
 11
52.348052
 21
2.922563
 31
0.0
  0
LINE
  5
302
330
46F
100
AcDbEntity
  8
1
100
AcDbLine
 10
52.348052
 20
2.922563
 30
0.0
 11
52.193517
 21
2.904774
 31
0.0
  0
LINE
  5
303
330
46F
100
AcDbEntity
  8
1
100
AcDbLine
 10
52.193517
 20
2.904774
 30
0.0
 11
52.040683
 21
2.890632
 31
0.0
  0
LINE
  5
304
330
46F
100
AcDbEntity
  8
1
100
AcDbLine
 10
52.040683
 20
2.890632
 30
0.0
 11
51.89008900000001
 21
2.880186
 31
0.0
  0
LINE
  5
305
330
46F
100
AcDbEntity
  8
1
100
AcDbLine
 10
51.89008900000001
 20
2.880186
 30
0.0
 11
51.741743
 21
2.87345
 31
0.0
  0
LINE
  5
306
330
46F
100
AcDbEntity
  8
1
100
AcDbLine
 10
51.741743
 20
2.87345
 30
0.0
 11
51.595638
 21
2.870409
 31
0.0
  0
LINE
  5
307
330
46F
100
AcDbEntity
  8
1
100
AcDbLine
 10
51.595638
 20
2.870409
 30
0.0
 11
51.452289
 21
2.871074999999999
 31
0.0
  0
LINE
  5
308
330
46F
100
AcDbEntity
  8
1
100
AcDbLine
 10
51.452289
 20
2.871074999999999
 30
0.0
 11
51.31170499999999
 21
2.875461999999999
 31
0.0
  0
LINE
  5
309
330
46F
100
AcDbEntity
  8
1
100
AcDbLine
 10
51.31170499999999
 20
2.875461999999999
 30
0.0
 11
51.173877
 21
2.883554
 31
0.0
  0
LINE
  5
30A
330
46F
100
AcDbEntity
  8
1
100
AcDbLine
 10
51.173877
 20
2.883554
 30
0.0
 11
51.03929
 21
2.895325999999999
 31
0.0
  0
LINE
  5
30B
330
46F
100
AcDbEntity
  8
1
100
AcDbLine
 10
51.03929
 20
2.895325999999999
 30
0.0
 11
50.90795599999999
 21
2.910788999999999
 31
0.0
  0
LINE
  5
30C
330
46F
100
AcDbEntity
  8
1
100
AcDbLine
 10
50.90795599999999
 20
2.910788999999999
 30
0.0
 11
50.779864
 21
2.92993
 31
0.0
  0
LINE
  5
30D
330
46F
100
AcDbEntity
  8
1
100
AcDbLine
 10
50.779864
 20
2.92993
 30
0.0
 11
50.65546499999999
 21
2.952681999999999
 31
0.0
  0
LINE
  5
30E
330
46F
100
AcDbEntity
  8
1
100
AcDbLine
 10
50.65546499999999
 20
2.952681999999999
 30
0.0
 11
50.534773
 21
2.979055999999999
 31
0.0
  0
LINE
  5
30F
330
46F
100
AcDbEntity
  8
1
100
AcDbLine
 10
50.534773
 20
2.979055999999999
 30
0.0
 11
50.417774
 21
3.009043
 31
0.0
  0
LINE
  5
310
330
46F
100
AcDbEntity
  8
1
100
AcDbLine
 10
50.417774
 20
3.009043
 30
0.0
 11
50.30488
 21
3.042533999999999
 31
0.0
  0
LINE
  5
311
330
46F
100
AcDbEntity
  8
1
100
AcDbLine
 10
50.30488
 20
3.042533999999999
 30
0.0
 11
50.19623
 21
3.079493999999999
 31
0.0
  0
LINE
  5
312
330
46F
100
AcDbEntity
  8
1
100
AcDbLine
 10
50.19623
 20
3.079493999999999
 30
0.0
 11
50.09168599999999
 21
3.119960999999999
 31
0.0
  0
LINE
  5
313
330
46F
100
AcDbEntity
  8
1
100
AcDbLine
 10
50.09168599999999
 20
3.119960999999999
 30
0.0
 11
49.991248
 21
3.163931
 31
0.0
  0
LINE
  5
314
330
46F
100
AcDbEntity
  8
1
100
AcDbLine
 10
51.531277
 20
5.879355
 30
0.0
 11
51.307018
 21
6.020718
 31
0.0
  0
LINE
  5
315
330
46F
100
AcDbEntity
  8
1
100
AcDbLine
 10
51.307018
 20
6.020718
 30
0.0
 11
51.095448
 21
6.153237999999999
 31
0.0
  0
LINE
  5
316
330
46F
100
AcDbEntity
  8
1
100
AcDbLine
 10
51.095448
 20
6.153237999999999
 30
0.0
 11
50.99441399999999
 21
6.215615
 31
0.0
  0
LINE
  5
317
330
46F
100
AcDbEntity
  8
1
100
AcDbLine
 10
50.99441399999999
 20
6.215615
 30
0.0
 11
50.896745
 21
6.274726999999999
 31
0.0
  0
LINE
  5
318
330
46F
100
AcDbEntity
  8
1
100
AcDbLine
 10
50.896745
 20
6.274726999999999
 30
0.0
 11
50.802474
 21
6.330398999999999
 31
0.0
  0
LINE
  5
319
330
46F
100
AcDbEntity
  8
1
100
AcDbLine
 10
50.802474
 20
6.330398999999999
 30
0.0
 11
50.711569
 21
6.38246
 31
0.0
  0
LINE
  5
31A
330
46F
100
AcDbEntity
  8
1
100
AcDbLine
 10
50.711569
 20
6.38246
 30
0.0
 11
50.624114
 21
6.430496999999999
 31
0.0
  0
LINE
  5
31B
330
46F
100
AcDbEntity
  8
1
100
AcDbLine
 10
50.624114
 20
6.430496999999999
 30
0.0
 11
50.540166
 21
6.474369
 31
0.0
  0
LINE
  5
31C
330
46F
100
AcDbEntity
  8
1
100
AcDbLine
 10
50.540166
 20
6.474369
 30
0.0
 11
50.459668
 21
6.514008999999999
 31
0.0
  0
LINE
  5
31D
330
46F
100
AcDbEntity
  8
1
100
AcDbLine
 10
50.459668
 20
6.514008999999999
 30
0.0
 11
50.382533
 21
6.549223
 31
0.0
  0
LINE
  5
31E
330
46F
100
AcDbEntity
  8
1
100
AcDbLine
 10
50.382533
 20
6.549223
 30
0.0
 11
50.30869299999999
 21
6.579963
 31
0.0
  0
LINE
  5
31F
330
46F
100
AcDbEntity
  8
1
100
AcDbLine
 10
50.30869299999999
 20
6.579963
 30
0.0
 11
50.238215
 21
6.606142
 31
0.0
  0
LINE
  5
320
330
46F
100
AcDbEntity
  8
1
100
AcDbLine
 10
50.238215
 20
6.606142
 30
0.0
 11
50.171219
 21
6.627607000000001
 31
0.0
  0
LINE
  5
321
330
46F
100
AcDbEntity
  8
1
100
AcDbLine
 10
50.171219
 20
6.627607000000001
 30
0.0
 11
50.107746
 21
6.644347999999999
 31
0.0
  0
LINE
  5
322
330
46F
100
AcDbEntity
  8
1
100
AcDbLine
 10
50.107746
 20
6.644347999999999
 30
0.0
 11
50.047756
 21
6.656419999999999
 31
0.0
  0
LINE
  5
323
330
46F
100
AcDbEntity
  8
1
100
AcDbLine
 10
50.047756
 20
6.656419999999999
 30
0.0
 11
49.991248
 21
6.663844
 31
0.0
  0
LINE
  5
324
330
46F
100
AcDbEntity
  8
1
100
AcDbLine
 10
50.528552
 20
6.666666
 30
0.0
 11
50.259818
 21
6.66596
 31
0.0
  0
LINE
  5
325
330
46F
100
AcDbEntity
  8
1
100
AcDbLine
 10
50.259818
 20
6.66596
 30
0.0
 11
49.991248
 21
6.663844
 31
0.0
  0
LINE
  5
326
330
46F
100
AcDbEntity
  8
1
100
AcDbLine
 10
54.43758
 20
4.528102999999999
 30
0.0
 11
54.449431
 21
4.480086
 31
0.0
  0
LINE
  5
327
330
46F
100
AcDbEntity
  8
1
100
AcDbLine
 10
54.449431
 20
4.480086
 30
0.0
 11
54.46513
 21
4.432108
 31
0.0
  0
LINE
  5
328
330
46F
100
AcDbEntity
  8
1
100
AcDbLine
 10
54.46513
 20
4.432108
 30
0.0
 11
54.484676
 21
4.384155999999999
 31
0.0
  0
LINE
  5
329
330
46F
100
AcDbEntity
  8
1
100
AcDbLine
 10
54.484676
 20
4.384155999999999
 30
0.0
 11
54.50810999999999
 21
4.335911
 31
0.0
  0
LINE
  5
32A
330
46F
100
AcDbEntity
  8
1
100
AcDbLine
 10
54.50810999999999
 20
4.335911
 30
0.0
 11
54.535392
 21
4.287659999999999
 31
0.0
  0
LINE
  5
32B
330
46F
100
AcDbEntity
  8
1
100
AcDbLine
 10
54.535392
 20
4.287659999999999
 30
0.0
 11
54.566401
 21
4.240333
 31
0.0
  0
LINE
  5
32C
330
46F
100
AcDbEntity
  8
1
100
AcDbLine
 10
54.566401
 20
4.240333
 30
0.0
 11
54.60123499999999
 21
4.194135
 31
0.0
  0
LINE
  5
32D
330
46F
100
AcDbEntity
  8
1
100
AcDbLine
 10
54.60123499999999
 20
4.194135
 30
0.0
 11
54.639796
 21
4.148887999999999
 31
0.0
  0
LINE
  5
32E
330
46F
100
AcDbEntity
  8
1
100
AcDbLine
 10
54.639796
 20
4.148887999999999
 30
0.0
 11
54.68166400000001
 21
4.104991
 31
0.0
  0
LINE
  5
32F
330
46F
100
AcDbEntity
  8
1
100
AcDbLine
 10
54.68166400000001
 20
4.104991
 30
0.0
 11
54.7268
 21
4.062606999999999
 31
0.0
  0
LINE
  5
330
330
46F
100
AcDbEntity
  8
1
100
AcDbLine
 10
54.7268
 20
4.062606999999999
 30
0.0
 11
54.775244
 21
4.021619999999999
 31
0.0
  0
LINE
  5
331
330
46F
100
AcDbEntity
  8
1
100
AcDbLine
 10
54.775244
 20
4.021619999999999
 30
0.0
 11
54.826692
 21
3.982016999999999
 31
0.0
  0
LINE
  5
332
330
46F
100
AcDbEntity
  8
1
100
AcDbLine
 10
54.826692
 20
3.982016999999999
 30
0.0
 11
54.88111899999999
 21
3.943845999999999
 31
0.0
  0
LINE
  5
333
330
46F
100
AcDbEntity
  8
1
100
AcDbLine
 10
54.88111899999999
 20
3.943845999999999
 30
0.0
 11
54.93855100000001
 21
3.907105
 31
0.0
  0
LINE
  5
334
330
46F
100
AcDbEntity
  8
1
100
AcDbLine
 10
54.93855100000001
 20
3.907105
 30
0.0
 11
54.998766
 21
3.871706999999999
 31
0.0
  0
LINE
  5
335
330
46F
100
AcDbEntity
  8
1
100
AcDbLine
 10
54.998766
 20
3.871706999999999
 30
0.0
 11
55.06181999999999
 21
3.837647
 31
0.0
  0
LINE
  5
336
330
46F
100
AcDbEntity
  8
1
100
AcDbLine
 10
55.06181999999999
 20
3.837647
 30
0.0
 11
55.12765600000001
 21
3.804969
 31
0.0
  0
LINE
  5
337
330
46F
100
AcDbEntity
  8
1
100
AcDbLine
 10
55.12765600000001
 20
3.804969
 30
0.0
 11
55.19588699999999
 21
3.773654
 31
0.0
  0
LINE
  5
338
330
46F
100
AcDbEntity
  8
1
100
AcDbLine
 10
55.19588699999999
 20
3.773654
 30
0.0
 11
55.26656299999999
 21
3.743724999999999
 31
0.0
  0
LINE
  5
339
330
46F
100
AcDbEntity
  8
1
100
AcDbLine
 10
55.26656299999999
 20
3.743724999999999
 30
0.0
 11
55.339634
 21
3.715199999999999
 31
0.0
  0
LINE
  5
33A
330
46F
100
AcDbEntity
  8
1
100
AcDbLine
 10
55.339634
 20
3.715199999999999
 30
0.0
 11
55.414556
 21
3.688054
 31
0.0
  0
LINE
  5
33B
330
46F
100
AcDbEntity
  8
1
100
AcDbLine
 10
55.414556
 20
3.688054
 30
0.0
 11
55.49115
 21
3.662294999999999
 31
0.0
  0
LINE
  5
33C
330
46F
100
AcDbEntity
  8
1
100
AcDbLine
 10
55.49115
 20
3.662294999999999
 30
0.0
 11
55.56959499999999
 21
3.637955999999999
 31
0.0
  0
LINE
  5
33D
330
46F
100
AcDbEntity
  8
1
100
AcDbLine
 10
55.56959499999999
 20
3.637955999999999
 30
0.0
 11
55.649891
 21
3.615060999999999
 31
0.0
  0
LINE
  5
33E
330
46F
100
AcDbEntity
  8
1
100
AcDbLine
 10
55.649891
 20
3.615060999999999
 30
0.0
 11
55.649891
 21
3.276869
 31
0.0
  0
LINE
  5
33F
330
46F
100
AcDbEntity
  8
1
100
AcDbLine
 10
54.849891
 20
6.840745
 30
0.0
 11
54.849891
 21
5.773915
 31
0.0
  0
LINE
  5
340
330
46F
100
AcDbEntity
  8
1
100
AcDbLine
 10
54.293661
 20
3.496649999999999
 30
0.0
 11
54.37091500000001
 21
3.170609999999999
 31
0.0
  0
LINE
  5
341
330
46F
100
AcDbEntity
  8
1
100
AcDbLine
 10
54.849891
 20
2.9399
 30
0.0
 11
54.78735
 21
3.125804999999999
 31
0.0
  0
LINE
  5
342
330
46F
100
AcDbEntity
  8
1
100
AcDbLine
 10
54.78735
 20
3.125804999999999
 30
0.0
 11
54.72493599999999
 21
3.308008999999999
 31
0.0
  0
LINE
  5
343
330
46F
100
AcDbEntity
  8
1
100
AcDbLine
 10
54.72493599999999
 20
3.308008999999999
 30
0.0
 11
54.66264999999999
 21
3.486508999999999
 31
0.0
  0
LINE
  5
344
330
46F
100
AcDbEntity
  8
1
100
AcDbLine
 10
54.66264999999999
 20
3.486508999999999
 30
0.0
 11
54.600415
 21
3.661513999999999
 31
0.0
  0
LINE
  5
345
330
46F
100
AcDbEntity
  8
1
100
AcDbLine
 10
54.600415
 20
3.661513999999999
 30
0.0
 11
54.53830799999999
 21
3.832817
 31
0.0
  0
LINE
  5
346
330
46F
100
AcDbEntity
  8
1
100
AcDbLine
 10
54.53830799999999
 20
3.832817
 30
0.0
 11
54.476556
 21
3.999794999999999
 31
0.0
  0
LINE
  5
347
330
46F
100
AcDbEntity
  8
1
100
AcDbLine
 10
54.476556
 20
3.999794999999999
 30
0.0
 11
54.415236
 21
4.162239999999999
 31
0.0
  0
LINE
  5
348
330
46F
100
AcDbEntity
  8
1
100
AcDbLine
 10
54.415236
 20
4.162239999999999
 30
0.0
 11
54.354271
 21
4.320358
 31
0.0
  0
LINE
  5
349
330
46F
100
AcDbEntity
  8
1
100
AcDbLine
 10
54.354271
 20
4.320358
 30
0.0
 11
54.293661
 21
4.474150999999999
 31
0.0
  0
LINE
  5
34A
330
46F
100
AcDbEntity
  8
1
100
AcDbLine
 10
54.293661
 20
4.474150999999999
 30
0.0
 11
54.293661
 21
3.496649999999999
 31
0.0
  0
LINE
  5
34B
330
46F
100
AcDbEntity
  8
1
100
AcDbLine
 10
54.293661
 20
6.593949
 30
0.0
 11
54.293661
 21
5.732579
 31
0.0
  0
LINE
  5
34C
330
46F
100
AcDbEntity
  8
1
100
AcDbLine
 10
54.724885
 20
6.816094
 30
0.0
 11
54.691175
 21
6.810471999999999
 31
0.0
  0
LINE
  5
34D
330
46F
100
AcDbEntity
  8
1
100
AcDbLine
 10
54.691175
 20
6.810471999999999
 30
0.0
 11
54.662599
 21
6.804175999999999
 31
0.0
  0
LINE
  5
34E
330
46F
100
AcDbEntity
  8
1
100
AcDbLine
 10
54.662599
 20
6.804175999999999
 30
0.0
 11
54.60039599999999
 21
6.785584
 31
0.0
  0
LINE
  5
34F
330
46F
100
AcDbEntity
  8
1
100
AcDbLine
 10
54.60039599999999
 20
6.785584
 30
0.0
 11
54.538337
 21
6.760349
 31
0.0
  0
LINE
  5
350
330
46F
100
AcDbEntity
  8
1
100
AcDbLine
 10
54.538337
 20
6.760349
 30
0.0
 11
54.47661599999999
 21
6.72856
 31
0.0
  0
LINE
  5
351
330
46F
100
AcDbEntity
  8
1
100
AcDbLine
 10
54.47661599999999
 20
6.72856
 30
0.0
 11
54.415294
 21
6.690244999999999
 31
0.0
  0
LINE
  5
352
330
46F
100
AcDbEntity
  8
1
100
AcDbLine
 10
54.415294
 20
6.690244999999999
 30
0.0
 11
54.354309
 21
6.645374999999999
 31
0.0
  0
LINE
  5
353
330
46F
100
AcDbEntity
  8
1
100
AcDbLine
 10
54.354309
 20
6.645374999999999
 30
0.0
 11
54.293661
 21
6.593949
 31
0.0
  0
LINE
  5
354
330
46F
100
AcDbEntity
  8
1
100
AcDbLine
 10
55.378533
 20
3.163284999999999
 30
0.0
 11
55.649891
 21
3.276869
 31
0.0
  0
LINE
  5
355
330
46F
100
AcDbEntity
  8
1
100
AcDbLine
 10
55.11186600000001
 20
3.050961999999999
 30
0.0
 11
55.378533
 21
3.163284999999999
 31
0.0
  0
LINE
  5
356
330
46F
100
AcDbEntity
  8
1
100
AcDbLine
 10
54.849891
 20
2.9399
 30
0.0
 11
55.11186600000001
 21
3.050961999999999
 31
0.0
  0
LINE
  5
357
330
46F
100
AcDbEntity
  8
1
100
AcDbLine
 10
54.293661
 20
4.474150999999999
 30
0.0
 11
54.43758
 21
4.528102999999999
 31
0.0
  0
LINE
  5
358
330
46F
100
AcDbEntity
  8
1
100
AcDbLine
 10
54.31648299999999
 20
3.406533999999999
 30
0.0
 11
53.793661
 21
3.243072
 31
0.0
  0
LINE
  5
359
330
46F
100
AcDbEntity
  8
1
100
AcDbLine
 10
60.0
 20
3.362323
 30
0.0
 11
60.0
 21
5.958192999999999
 31
0.0
  0
LINE
  5
35A
330
46F
100
AcDbEntity
  8
1
100
AcDbLine
 10
60.0
 20
5.958192999999999
 30
0.0
 11
60.0
 21
6.191708999999999
 31
0.0
  0
LINE
  5
35B
330
46F
100
AcDbEntity
  8
1
100
AcDbLine
 10
59.5
 20
5.580591
 30
0.0
 11
59.5
 21
5.425215
 31
0.0
  0
LINE
  5
35C
330
46F
100
AcDbEntity
  8
1
100
AcDbLine
 10
58.508762
 20
4.458950999999999
 30
0.0
 11
58.47089699999999
 21
4.580875999999999
 31
0.0
  0
LINE
  5
35D
330
46F
100
AcDbEntity
  8
1
100
AcDbLine
 10
58.47089699999999
 20
4.580875999999999
 30
0.0
 11
58.43431999999999
 21
4.700833
 31
0.0
  0
LINE
  5
35E
330
46F
100
AcDbEntity
  8
1
100
AcDbLine
 10
58.43431999999999
 20
4.700833
 30
0.0
 11
58.399032
 21
4.818821999999999
 31
0.0
  0
LINE
  5
35F
330
46F
100
AcDbEntity
  8
1
100
AcDbLine
 10
58.399032
 20
4.818821999999999
 30
0.0
 11
58.36502199999999
 21
4.934845
 31
0.0
  0
LINE
  5
360
330
46F
100
AcDbEntity
  8
1
100
AcDbLine
 10
58.36502199999999
 20
4.934845
 30
0.0
 11
58.3323
 21
5.048900999999999
 31
0.0
  0
LINE
  5
361
330
46F
100
AcDbEntity
  8
1
100
AcDbLine
 10
58.3323
 20
5.048900999999999
 30
0.0
 11
58.30089499999999
 21
5.160972
 31
0.0
  0
LINE
  5
362
330
46F
100
AcDbEntity
  8
1
100
AcDbLine
 10
58.30089499999999
 20
5.160972
 30
0.0
 11
58.27081800000001
 21
5.271053
 31
0.0
  0
LINE
  5
363
330
46F
100
AcDbEntity
  8
1
100
AcDbLine
 10
58.27081800000001
 20
5.271053
 30
0.0
 11
58.242057
 21
5.379151
 31
0.0
  0
LINE
  5
364
330
46F
100
AcDbEntity
  8
1
100
AcDbLine
 10
58.242057
 20
5.379151
 30
0.0
 11
58.214614
 21
5.485262999999999
 31
0.0
  0
LINE
  5
365
330
46F
100
AcDbEntity
  8
1
100
AcDbLine
 10
58.512115
 20
4.455409999999999
 30
0.0
 11
58.52730699999999
 21
4.411544999999999
 31
0.0
  0
LINE
  5
366
330
46F
100
AcDbEntity
  8
1
100
AcDbLine
 10
58.52730699999999
 20
4.411544999999999
 30
0.0
 11
58.543418
 21
4.367119999999999
 31
0.0
  0
LINE
  5
367
330
46F
100
AcDbEntity
  8
1
100
AcDbLine
 10
58.543418
 20
4.367119999999999
 30
0.0
 11
58.560449
 21
4.322133
 31
0.0
  0
LINE
  5
368
330
46F
100
AcDbEntity
  8
1
100
AcDbLine
 10
58.560449
 20
4.322133
 30
0.0
 11
58.578399
 21
4.276583999999999
 31
0.0
  0
LINE
  5
369
330
46F
100
AcDbEntity
  8
1
100
AcDbLine
 10
58.578399
 20
4.276583999999999
 30
0.0
 11
58.597269
 21
4.230474
 31
0.0
  0
LINE
  5
36A
330
46F
100
AcDbEntity
  8
1
100
AcDbLine
 10
58.597269
 20
4.230474
 30
0.0
 11
58.617059
 21
4.183802
 31
0.0
  0
LINE
  5
36B
330
46F
100
AcDbEntity
  8
1
100
AcDbLine
 10
58.1
 20
6.152487
 30
0.0
 11
58.1
 21
5.458496
 31
0.0
  0
LINE
  5
36C
330
46F
100
AcDbEntity
  8
1
100
AcDbLine
 10
58.508762
 20
4.458950999999999
 30
0.0
 11
58.512115
 21
4.455409999999999
 31
0.0
  0
LINE
  5
36D
330
46F
100
AcDbEntity
  8
1
100
AcDbLine
 10
58.6
 20
6.999999
 30
0.0
 11
60.0
 21
6.191708999999999
 31
0.0
  0
LINE
  5
36E
330
46F
100
AcDbEntity
  8
1
100
AcDbLine
 10
60.0
 20
6.191708999999999
 30
0.0
 11
58.6
 21
6.999999
 31
0.0
  0
LINE
  5
36F
330
46F
100
AcDbEntity
  8
1
100
AcDbLine
 10
59.5
 20
5.580591
 30
0.0
 11
59.36327099999999
 21
5.640991999999999
 31
0.0
  0
LINE
  5
370
330
46F
100
AcDbEntity
  8
1
100
AcDbLine
 10
59.36327099999999
 20
5.640991999999999
 30
0.0
 11
59.22193499999999
 21
5.702154
 31
0.0
  0
LINE
  5
371
330
46F
100
AcDbEntity
  8
1
100
AcDbLine
 10
59.22193499999999
 20
5.702154
 30
0.0
 11
59.075991
 21
5.764081
 31
0.0
  0
LINE
  5
372
330
46F
100
AcDbEntity
  8
1
100
AcDbLine
 10
59.075991
 20
5.764081
 30
0.0
 11
58.925571
 21
5.826737999999999
 31
0.0
  0
LINE
  5
373
330
46F
100
AcDbEntity
  8
1
100
AcDbLine
 10
58.925571
 20
5.826737999999999
 30
0.0
 11
58.77054399999999
 21
5.890158999999999
 31
0.0
  0
LINE
  5
374
330
46F
100
AcDbEntity
  8
1
100
AcDbLine
 10
58.77054399999999
 20
5.890158999999999
 30
0.0
 11
58.61051299999999
 21
5.954436
 31
0.0
  0
LINE
  5
375
330
46F
100
AcDbEntity
  8
1
100
AcDbLine
 10
58.61051299999999
 20
5.954436
 30
0.0
 11
58.44534599999999
 21
6.019598
 31
0.0
  0
LINE
  5
376
330
46F
100
AcDbEntity
  8
1
100
AcDbLine
 10
58.44534599999999
 20
6.019598
 30
0.0
 11
58.27517499999999
 21
6.085614999999999
 31
0.0
  0
LINE
  5
377
330
46F
100
AcDbEntity
  8
1
100
AcDbLine
 10
58.27517499999999
 20
6.085614999999999
 30
0.0
 11
58.1
 21
6.152487
 31
0.0
  0
LINE
  5
378
330
46F
100
AcDbEntity
  8
1
100
AcDbLine
 10
60.0
 20
5.401856999999999
 30
0.0
 11
58.214614
 21
5.485262999999999
 31
0.0
  0
LINE
  5
379
330
46F
100
AcDbEntity
  8
1
100
AcDbLine
 10
58.512115
 20
4.455409999999999
 30
0.0
 11
60.0
 21
4.385901999999999
 31
0.0
  0
LINE
  5
37A
330
46F
100
AcDbEntity
  8
1
100
AcDbLine
 10
60.0
 20
4.119196999999999
 30
0.0
 11
58.617059
 21
4.183802
 31
0.0
  0
LINE
  5
37B
330
46F
100
AcDbEntity
  8
1
100
AcDbLine
 10
55.657492
 20
6.999999
 30
0.0
 11
58.55050799999999
 21
6.999999
 31
0.0
  0
LINE
  5
37C
330
46F
100
AcDbEntity
  8
1
100
AcDbLine
 10
58.55050799999999
 20
6.999999
 30
0.0
 11
58.6
 21
6.999999
 31
0.0
  0
LINE
  5
37D
330
46F
100
AcDbEntity
  8
1
100
AcDbLine
 10
55.658538
 20
-6.999999
 30
0.0
 11
58.55050799999999
 21
-6.999999
 31
0.0
  0
LINE
  5
37E
330
46F
100
AcDbEntity
  8
1
100
AcDbLine
 10
54.724885
 20
6.816094
 30
0.0
 11
55.657492
 21
6.999999
 31
0.0
  0
LINE
  5
37F
330
46F
100
AcDbEntity
  8
1
100
AcDbLine
 10
58.55050799999999
 20
-6.999999
 30
0.0
 11
58.214614
 21
-6.164367999999999
 31
0.0
  0
LINE
  5
380
330
46F
100
AcDbEntity
  8
1
100
AcDbLine
 10
8.0
 20
6.666666999999999
 30
0.0
 11
8.0
 21
-6.666666999999999
 31
0.0
  0
LINE
  5
381
330
46F
100
AcDbEntity
  8
1
100
AcDbLine
 10
5.0
 20
8.9
 30
0.0
 11
5.0
 21
-8.9
 31
0.0
  0
LINE
  5
382
330
46F
100
AcDbEntity
  8
1
100
AcDbLine
 10
0.0
 20
8.9
 30
0.0
 11
0.0
 21
-8.9
 31
0.0
  0
LINE
  5
383
330
46F
100
AcDbEntity
  8
1
100
AcDbLine
 10
5.0
 20
-8.9
 30
0.0
 11
8.0
 21
-6.666666999999999
 31
0.0
  0
LINE
  5
384
330
46F
100
AcDbEntity
  8
1
100
AcDbLine
 10
0.0
 20
-8.9
 30
0.0
 11
5.0
 21
-8.9
 31
0.0
  0
LINE
  5
385
330
46F
100
AcDbEntity
  8
1
100
AcDbLine
 10
5.0
 20
8.9
 30
0.0
 11
8.0
 21
6.666666999999999
 31
0.0
  0
LINE
  5
386
330
46F
100
AcDbEntity
  8
SK1
100
AcDbLine
 10
-8.349999999999999
 20
5.444173999999999
 30
0.0
 11
0.0
 21
6.174173999999999
 31
0.0
  0
LINE
  5
387
330
46F
100
AcDbEntity
  8
SK1
100
AcDbLine
 10
-8.349999999999999
 20
-5.444173999999999
 30
0.0
 11
0.0
 21
-6.174173999999999
 31
0.0
  0
LINE
  5
388
330
46F
100
AcDbEntity
  8
SK1
100
AcDbLine
 10
-8.349999999999999
 20
5.444173999999999
 30
0.0
 11
-8.349999999999999
 21
-5.444173999999999
 31
0.0
  0
LINE
  5
389
330
46F
100
AcDbEntity
  8
SK1
100
AcDbLine
 10
-11.35
 20
4.944173999999999
 30
0.0
 11
-11.35
 21
-4.944173999999999
 31
0.0
  0
LINE
  5
38A
330
46F
100
AcDbEntity
  8
SK1
100
AcDbLine
 10
-11.35
 20
-4.944173999999999
 30
0.0
 11
-8.349999999999999
 21
-4.944173999999999
 31
0.0
  0
LINE
  5
38B
330
46F
100
AcDbEntity
  8
SK1
100
AcDbLine
 10
-11.35
 20
4.944173999999999
 30
0.0
 11
-8.349999999999999
 21
4.944173999999999
 31
0.0
  0
LINE
  5
38C
330
46F
100
AcDbEntity
  8
1
100
AcDbLine
 10
0.0
 20
8.9
 30
0.0
 11
5.0
 21
8.9
 31
0.0
  0
LINE
  5
38D
330
46F
100
AcDbEntity
  8
SK4
100
AcDbLine
 10
-11.35
 20
0.0
 30
0.0
 11
60.184819
 21
0.0
 31
0.0
  0
LINE
  5
38E
330
46F
100
AcDbEntity
  8
80
100
AcDbLine
 10
0.0
 20
0.0
 30
0.0
 11
-11.35
 21
0.0
 31
0.0
  0
LINE
  5
38F
330
46F
100
AcDbEntity
  8
81
100
AcDbLine
 10
60.0
 20
0.0
 30
0.0
 11
68.57811600000001
 21
0.0
 31
0.0
  0
LINE
  5
390
330
46F
100
AcDbEntity
  8
4
100
AcDbLine
 10
0.0
 20
0.0
 30
0.0
 11
62.13673499999999
 21
0.0
 31
0.0
  0
POINT
  5
391
330
46F
100
AcDbEntity
  8
80
100
AcDbPoint
 10
0.0
 20
0.0
 30
0.0
  0
POINT
  5
392
330
46F
100
AcDbEntity
  8
81
100
AcDbPoint
 10
60.0
 20
6.999999
 30
0.0
  0
TEXT
  5
393
330
46F
100
AcDbEntity
  8
SK6
100
AcDbText
 10
-12.073434
 20
10.379301
 30
0.0
 40
3.5
  1
HFS12
 41
0.792261266666667
  7
SANDVIK_STYLE
 72
     5
 11
-0.189515
 21
10.379301
 31
0.0
100
AcDbText
  0
TEXT
  5
394
330
46F
100
AcDbEntity
  8
SK6
100
AcDbText
 10
-15.593319
 20
-23.271029
 30
0.0
 40
3.5
  1
830B-E06D1400H7S12
 41
0.7986998873239434
  7
SANDVIK_STYLE
 72
     5
 11
31.663091
 21
-23.271029
 31
0.0
100
AcDbText
  0
TEXT
  5
395
330
46F
100
AcDbEntity
  8
2
100
AcDbText
 10
31.06215300000001
 20
34.48275000000001
 30
0.0
 40
3.5
  1
60 
100
AcDbText
  0
INSERT
  5
396
330
46F
100
AcDbEntity
  8
2
100
AcDbBlockReference
  2
*D0
 10
0.0
 20
0.0
 30
0.0
  0
TEXT
  5
397
330
46F
100
AcDbEntity
  8
2
100
AcDbText
 10
78.60899
 20
0.489074
 30
0.0
 40
3.5
  1
%%c14H7
 50
90.0
100
AcDbText
  0
INSERT
  5
398
330
46F
100
AcDbEntity
  8
2
100
AcDbBlockReference
  2
*D1
 10
0.0
 20
0.0
 30
0.0
  0
TEXT
  5
399
330
46F
100
AcDbEntity
  8
2
100
AcDbText
 10
39.743403
 20
24.48275
 30
0.0
 40
3.5
  1
L=45 
100
AcDbText
  0
INSERT
  5
39A
330
46F
100
AcDbEntity
  8
2
100
AcDbBlockReference
  2
*D2
 10
0.0
 20
0.0
 30
0.0
  0
ENDSEC
  0
SECTION
  2
OBJECTS
  0
DICTIONARY
  5
40B
330
0
100
AcDbDictionary
281
     1
  3
ACAD_CIP_PREVIOUS_PRODUCT_INFO
350
4A3
  3
ACAD_COLOR
350
461
  3
ACAD_DETAILVIEWSTYLE
350
469
  3
ACAD_GROUP
350
40C
  3
ACAD_LAYOUT
350
460
  3
ACAD_MATERIAL
350
40F
  3
ACAD_MLEADERSTYLE
350
464
  3
ACAD_MLINESTYLE
350
45D
  3
ACAD_PLOTSETTINGS
350
45F
  3
ACAD_PLOTSTYLENAME
350
40D
  3
ACAD_SCALELIST
350
441
  3
ACAD_SECTIONVIEWSTYLE
350
466
  3
ACAD_TABLESTYLE
350
462
  3
ACAD_VISUALSTYLE
350
428
  3
ACDB_RECOMPOSE_DATA
350
4FF
  3
AcDbVariableDictionary
350
4F2
  3
DWGPROPS
350
500
  0
DICTIONARY
  5
4A6
330
453
100
AcDbDictionary
280
     1
281
     1
  3
ADSK_XREC_LAYER_RECONCILED
360
4A7
  0
DICTIONARY
  5
4A8
330
473
100
AcDbDictionary
280
     1
281
     1
  3
ADSK_XREC_LAYER_RECONCILED
360
4A9
  0
DICTIONARY
  5
4AA
330
477
100
AcDbDictionary
280
     1
281
     1
  3
ADSK_XREC_LAYER_RECONCILED
360
4AB
  0
DICTIONARY
  5
4AC
330
478
100
AcDbDictionary
280
     1
281
     1
  3
ADSK_XREC_LAYER_RECONCILED
360
4AD
  0
DICTIONARY
  5
4AE
330
479
100
AcDbDictionary
280
     1
281
     1
  3
ADSK_XREC_LAYER_RECONCILED
360
4AF
  0
DICTIONARY
  5
4B0
330
47A
100
AcDbDictionary
280
     1
281
     1
  3
ADSK_XREC_LAYER_RECONCILED
360
4B1
  0
DICTIONARY
  5
4B2
330
47B
100
AcDbDictionary
280
     1
281
     1
  3
ADSK_XREC_LAYER_RECONCILED
360
4B3
  0
DICTIONARY
  5
4B4
330
47C
100
AcDbDictionary
280
     1
281
     1
  3
ADSK_XREC_LAYER_RECONCILED
360
4B5
  0
DICTIONARY
  5
4B6
330
47D
100
AcDbDictionary
280
     1
281
     1
  3
ADSK_XREC_LAYER_RECONCILED
360
4B7
  0
DICTIONARY
  5
4B8
330
47E
100
AcDbDictionary
280
     1
281
     1
  3
ADSK_XREC_LAYER_RECONCILED
360
4B9
  0
DICTIONARY
  5
4BA
330
47F
100
AcDbDictionary
280
     1
281
     1
  3
ADSK_XREC_LAYER_RECONCILED
360
4BB
  0
DICTIONARY
  5
4BC
330
480
100
AcDbDictionary
280
     1
281
     1
  3
ADSK_XREC_LAYER_RECONCILED
360
4BD
  0
DICTIONARY
  5
4BE
330
481
100
AcDbDictionary
280
     1
281
     1
  3
ADSK_XREC_LAYER_RECONCILED
360
4BF
  0
DICTIONARY
  5
4C0
330
482
100
AcDbDictionary
280
     1
281
     1
  3
ADSK_XREC_LAYER_RECONCILED
360
4C1
  0
DICTIONARY
  5
4C2
330
483
100
AcDbDictionary
280
     1
281
     1
  3
ADSK_XREC_LAYER_RECONCILED
360
4C3
  0
DICTIONARY
  5
4C4
330
484
100
AcDbDictionary
280
     1
281
     1
  3
ADSK_XREC_LAYER_RECONCILED
360
4C5
  0
DICTIONARY
  5
4C6
330
485
100
AcDbDictionary
280
     1
281
     1
  3
ADSK_XREC_LAYER_RECONCILED
360
4C7
  0
DICTIONARY
  5
4C8
330
486
100
AcDbDictionary
280
     1
281
     1
  3
ADSK_XREC_LAYER_RECONCILED
360
4C9
  0
DICTIONARY
  5
4CA
330
487
100
AcDbDictionary
280
     1
281
     1
  3
ADSK_XREC_LAYER_RECONCILED
360
4CB
  0
DICTIONARY
  5
4CC
330
488
100
AcDbDictionary
280
     1
281
     1
  3
ADSK_XREC_LAYER_RECONCILED
360
4CD
  0
DICTIONARY
  5
4CE
330
489
100
AcDbDictionary
280
     1
281
     1
  3
ADSK_XREC_LAYER_RECONCILED
360
4CF
  0
DICTIONARY
  5
4D0
330
48A
100
AcDbDictionary
280
     1
281
     1
  3
ADSK_XREC_LAYER_RECONCILED
360
4D1
  0
DICTIONARY
  5
4D2
330
48B
100
AcDbDictionary
280
     1
281
     1
  3
ADSK_XREC_LAYER_RECONCILED
360
4D3
  0
DICTIONARY
  5
4D4
330
48C
100
AcDbDictionary
280
     1
281
     1
  3
ADSK_XREC_LAYER_RECONCILED
360
4D5
  0
DICTIONARY
  5
4D6
330
48D
100
AcDbDictionary
280
     1
281
     1
  3
ADSK_XREC_LAYER_RECONCILED
360
4D7
  0
DICTIONARY
  5
4D8
330
48E
100
AcDbDictionary
280
     1
281
     1
  3
ADSK_XREC_LAYER_RECONCILED
360
4D9
  0
DICTIONARY
  5
4DA
330
48F
100
AcDbDictionary
280
     1
281
     1
  3
ADSK_XREC_LAYER_RECONCILED
360
4DB
  0
DICTIONARY
  5
4DC
330
490
100
AcDbDictionary
280
     1
281
     1
  3
ADSK_XREC_LAYER_RECONCILED
360
4DD
  0
DICTIONARY
  5
4DE
330
491
100
AcDbDictionary
280
     1
281
     1
  3
ADSK_XREC_LAYER_RECONCILED
360
4DF
  0
DICTIONARY
  5
4E0
330
492
100
AcDbDictionary
280
     1
281
     1
  3
ADSK_XREC_LAYER_RECONCILED
360
4E1
  0
DICTIONARY
  5
4E2
330
493
100
AcDbDictionary
280
     1
281
     1
  3
ADSK_XREC_LAYER_RECONCILED
360
4E3
  0
DICTIONARY
  5
4E4
330
494
100
AcDbDictionary
280
     1
281
     1
  3
ADSK_XREC_LAYER_RECONCILED
360
4E5
  0
DICTIONARY
  5
4E6
330
495
100
AcDbDictionary
280
     1
281
     1
  3
ADSK_XREC_LAYER_RECONCILED
360
4E7
  0
DICTIONARY
  5
4E8
330
496
100
AcDbDictionary
280
     1
281
     1
  3
ADSK_XREC_LAYER_RECONCILED
360
4E9
  0
DICTIONARY
  5
4EA
330
497
100
AcDbDictionary
280
     1
281
     1
  3
ADSK_XREC_LAYER_RECONCILED
360
4EB
  0
DICTIONARY
  5
4EC
330
498
100
AcDbDictionary
280
     1
281
     1
  3
ADSK_XREC_LAYER_RECONCILED
360
4ED
  0
DICTIONARY
  5
4EE
330
499
100
AcDbDictionary
280
     1
281
     1
  3
ADSK_XREC_LAYER_RECONCILED
360
4EF
  0
DICTIONARY
  5
4F0
330
49A
100
AcDbDictionary
280
     1
281
     1
  3
ADSK_XREC_LAYER_RECONCILED
360
4F1
  0
XRECORD
  5
4A3
102
{ACAD_REACTORS
330
40B
102
}
330
40B
100
AcDbXrecord
280
     1
300
AMECH_PP
300
2013
300
PDSU_F_S
  0
DICTIONARY
  5
461
102
{ACAD_REACTORS
330
40B
102
}
330
40B
100
AcDbDictionary
281
     1
  0
DICTIONARY
  5
469
102
{ACAD_REACTORS
330
40B
102
}
330
40B
100
AcDbDictionary
281
     1
  3
Imperial24
350
46A
  0
DICTIONARY
  5
40C
102
{ACAD_REACTORS
330
40B
102
}
330
40B
100
AcDbDictionary
281
     1
  0
DICTIONARY
  5
460
102
{ACAD_REACTORS
330
40B
102
}
330
40B
100
AcDbDictionary
281
     1
  3
Layout1
350
46E
  3
Model
350
472
  0
DICTIONARY
  5
40F
102
{ACAD_REACTORS
330
40B
102
}
330
40B
100
AcDbDictionary
281
     1
  3
ByBlock
350
418
  3
ByLayer
350
410
  3
Global
350
420
  0
DICTIONARY
  5
464
102
{ACAD_REACTORS
330
40B
102
}
330
40B
100
AcDbDictionary
281
     1
  3
Standard
350
465
  0
DICTIONARY
  5
45D
102
{ACAD_REACTORS
330
40B
102
}
330
40B
100
AcDbDictionary
281
     1
  3
Standard
350
45E
  0
DICTIONARY
  5
45F
102
{ACAD_REACTORS
330
40B
102
}
330
40B
100
AcDbDictionary
281
     1
  0
ACDBDICTIONARYWDFLT
  5
40D
102
{ACAD_REACTORS
330
40B
102
}
330
40B
100
AcDbDictionary
281
     1
  3
Normal
350
40E
100
AcDbDictionaryWithDefault
340
40E
  0
DICTIONARY
  5
441
102
{ACAD_REACTORS
330
40B
102
}
330
40B
100
AcDbDictionary
281
     1
  3
A0
350
442
  3
A1
350
443
  3
A2
350
444
  3
A3
350
445
  3
A4
350
446
  3
A5
350
447
  3
A6
350
448
  3
A7
350
449
  3
A8
350
44A
  3
A9
350
44B
  3
B0
350
44C
  3
B1
350
44D
  3
B2
350
44E
  3
B3
350
44F
  3
B4
350
450
  3
B5
350
451
  3
B6
350
452
  0
DICTIONARY
  5
466
102
{ACAD_REACTORS
330
40B
102
}
330
40B
100
AcDbDictionary
281
     1
  3
Imperial24
350
468
  0
DICTIONARY
  5
462
102
{ACAD_REACTORS
330
40B
102
}
330
40B
100
AcDbDictionary
281
     1
  3
Standard
350
463
  0
DICTIONARY
  5
428
102
{ACAD_REACTORS
330
40B
102
}
330
40B
100
AcDbDictionary
281
     1
  3
2dWireframe
350
42E
  3
Basic
350
42D
  3
Brighten
350
434
  3
ColorChange
350
438
  3
Conceptual
350
431
  3
Dim
350
433
  3
EdgeColorOff
350
440
  3
Facepattern
350
437
  3
Flat
350
429
  3
FlatWithEdges
350
42A
  3
Gouraud
350
42B
  3
GouraudWithEdges
350
42C
  3
Hidden
350
430
  3
JitterOff
350
43E
  3
Linepattern
350
436
  3
OverhangOff
350
43F
  3
Realistic
350
432
  3
Shaded
350
43D
  3
Shaded with edges
350
43C
  3
Shades of Gray
350
439
  3
Sketchy
350
43A
  3
Thicken
350
435
  3
Wireframe
350
42F
  3
X-Ray
350
43B
  0
XRECORD
  5
4FF
102
{ACAD_REACTORS
330
40B
102
}
330
40B
100
AcDbXrecord
280
     1
 90
        1
330
463
  0
DICTIONARY
  5
4F2
102
{ACAD_REACTORS
330
40B
102
}
330
40B
100
AcDbDictionary
281
     1
  3
CANNOSCALE
350
4F7
  3
CMLEADERSTYLE
350
4F4
  3
CTABLESTYLE
350
4F3
  3
CVIEWDETAILSTYLE
350
4F5
  3
CVIEWSECTIONSTYLE
350
4F6
  3
DIMASSOC
350
4FA
  3
INDEXCTL
350
4F9
  3
SORTENTS
350
4F8
  3
XCLIPFRAME
350
4FB
  0
XRECORD
  5
500
102
{ACAD_REACTORS
330
40B
102
}
330
40B
100
AcDbXrecord
280
     1
  1
DWGPROPS COOKIE
  2

  3

  4

  6

  7

  8
Micke
  9

300
=
301
=
302
=
303
=
304
=
305
=
306
=
307
=
308
=
309
=
 40
0.0000046064814815
 41
2456818.319570185
 42
2456818.319574722
  1

 90
        0
  0
XRECORD
  5
4A7
102
{ACAD_REACTORS
330
4A6
102
}
330
4A6
100
AcDbXrecord
280
     1
290
     1
  0
XRECORD
  5
4A9
102
{ACAD_REACTORS
330
4A8
102
}
330
4A8
100
AcDbXrecord
280
     1
290
     1
  0
XRECORD
  5
4AB
102
{ACAD_REACTORS
330
4AA
102
}
330
4AA
100
AcDbXrecord
280
     1
290
     1
  0
XRECORD
  5
4AD
102
{ACAD_REACTORS
330
4AC
102
}
330
4AC
100
AcDbXrecord
280
     1
290
     1
  0
XRECORD
  5
4AF
102
{ACAD_REACTORS
330
4AE
102
}
330
4AE
100
AcDbXrecord
280
     1
290
     1
  0
XRECORD
  5
4B1
102
{ACAD_REACTORS
330
4B0
102
}
330
4B0
100
AcDbXrecord
280
     1
290
     1
  0
XRECORD
  5
4B3
102
{ACAD_REACTORS
330
4B2
102
}
330
4B2
100
AcDbXrecord
280
     1
290
     1
  0
XRECORD
  5
4B5
102
{ACAD_REACTORS
330
4B4
102
}
330
4B4
100
AcDbXrecord
280
     1
290
     1
  0
XRECORD
  5
4B7
102
{ACAD_REACTORS
330
4B6
102
}
330
4B6
100
AcDbXrecord
280
     1
290
     1
  0
XRECORD
  5
4B9
102
{ACAD_REACTORS
330
4B8
102
}
330
4B8
100
AcDbXrecord
280
     1
290
     1
  0
XRECORD
  5
4BB
102
{ACAD_REACTORS
330
4BA
102
}
330
4BA
100
AcDbXrecord
280
     1
290
     1
  0
XRECORD
  5
4BD
102
{ACAD_REACTORS
330
4BC
102
}
330
4BC
100
AcDbXrecord
280
     1
290
     1
  0
XRECORD
  5
4BF
102
{ACAD_REACTORS
330
4BE
102
}
330
4BE
100
AcDbXrecord
280
     1
290
     1
  0
XRECORD
  5
4C1
102
{ACAD_REACTORS
330
4C0
102
}
330
4C0
100
AcDbXrecord
280
     1
290
     1
  0
XRECORD
  5
4C3
102
{ACAD_REACTORS
330
4C2
102
}
330
4C2
100
AcDbXrecord
280
     1
290
     1
  0
XRECORD
  5
4C5
102
{ACAD_REACTORS
330
4C4
102
}
330
4C4
100
AcDbXrecord
280
     1
290
     1
  0
XRECORD
  5
4C7
102
{ACAD_REACTORS
330
4C6
102
}
330
4C6
100
AcDbXrecord
280
     1
290
     1
  0
XRECORD
  5
4C9
102
{ACAD_REACTORS
330
4C8
102
}
330
4C8
100
AcDbXrecord
280
     1
290
     1
  0
XRECORD
  5
4CB
102
{ACAD_REACTORS
330
4CA
102
}
330
4CA
100
AcDbXrecord
280
     1
290
     1
  0
XRECORD
  5
4CD
102
{ACAD_REACTORS
330
4CC
102
}
330
4CC
100
AcDbXrecord
280
     1
290
     1
  0
XRECORD
  5
4CF
102
{ACAD_REACTORS
330
4CE
102
}
330
4CE
100
AcDbXrecord
280
     1
290
     1
  0
XRECORD
  5
4D1
102
{ACAD_REACTORS
330
4D0
102
}
330
4D0
100
AcDbXrecord
280
     1
290
     1
  0
XRECORD
  5
4D3
102
{ACAD_REACTORS
330
4D2
102
}
330
4D2
100
AcDbXrecord
280
     1
290
     1
  0
XRECORD
  5
4D5
102
{ACAD_REACTORS
330
4D4
102
}
330
4D4
100
AcDbXrecord
280
     1
290
     1
  0
XRECORD
  5
4D7
102
{ACAD_REACTORS
330
4D6
102
}
330
4D6
100
AcDbXrecord
280
     1
290
     1
  0
XRECORD
  5
4D9
102
{ACAD_REACTORS
330
4D8
102
}
330
4D8
100
AcDbXrecord
280
     1
290
     1
  0
XRECORD
  5
4DB
102
{ACAD_REACTORS
330
4DA
102
}
330
4DA
100
AcDbXrecord
280
     1
290
     1
  0
XRECORD
  5
4DD
102
{ACAD_REACTORS
330
4DC
102
}
330
4DC
100
AcDbXrecord
280
     1
290
     1
  0
XRECORD
  5
4DF
102
{ACAD_REACTORS
330
4DE
102
}
330
4DE
100
AcDbXrecord
280
     1
290
     1
  0
XRECORD
  5
4E1
102
{ACAD_REACTORS
330
4E0
102
}
330
4E0
100
AcDbXrecord
280
     1
290
     1
  0
XRECORD
  5
4E3
102
{ACAD_REACTORS
330
4E2
102
}
330
4E2
100
AcDbXrecord
280
     1
290
     1
  0
XRECORD
  5
4E5
102
{ACAD_REACTORS
330
4E4
102
}
330
4E4
100
AcDbXrecord
280
     1
290
     1
  0
XRECORD
  5
4E7
102
{ACAD_REACTORS
330
4E6
102
}
330
4E6
100
AcDbXrecord
280
     1
290
     1
  0
XRECORD
  5
4E9
102
{ACAD_REACTORS
330
4E8
102
}
330
4E8
100
AcDbXrecord
280
     1
290
     1
  0
XRECORD
  5
4EB
102
{ACAD_REACTORS
330
4EA
102
}
330
4EA
100
AcDbXrecord
280
     1
290
     1
  0
XRECORD
  5
4ED
102
{ACAD_REACTORS
330
4EC
102
}
330
4EC
100
AcDbXrecord
280
     1
290
     1
  0
XRECORD
  5
4EF
102
{ACAD_REACTORS
330
4EE
102
}
330
4EE
100
AcDbXrecord
280
     1
290
     1
  0
XRECORD
  5
4F1
102
{ACAD_REACTORS
330
4F0
102
}
330
4F0
100
AcDbXrecord
280
     1
290
     1
  0
ACDBDETAILVIEWSTYLE
  5
46A
102
{ACAD_REACTORS
330
469
102
}
330
469
100
AcDbModelDocViewStyle
 70
     0
  3
Imperial24
290
     0
100
AcDbDetailViewStyle
 70
     0
 71
     0
 90
        3
 71
     1
340
454
 40
0.24
340
0
 40
0.24
300

 40
0.36
280
     3
 71
     2
340
45B
 90
       25
 71
     3
340
454
 40
0.24
 90
        1
 40
0.75
 90
        1
300
%<\AcVar ViewType \f "%tc1">% %<\AcVar ViewDetailId>%\PSCALE %<\AcVar ViewScale \f "%sn">%
 71
     4
340
45B
 90
       25
340
45B
 90
       25
280
     0
  0
LAYOUT
  5
46E
102
{ACAD_XDICTIONARY
360
536
102
}
102
{ACAD_REACTORS
330
460
102
}
330
460
100
AcDbPlotSettings
  1

  2
Brother DCP-9020CDW Printer
  4

  6

 40
0.0
 41
0.0
 42
0.0
 43
0.0
 44
0.0
 45
0.0
 46
0.0
 47
0.0
 48
0.0
 49
0.0
140
0.0
141
0.0
142
1.0
143
1.0
 70
   688
 72
     0
 73
     0
 74
     5
  7

 75
    16
147
1.0
148
0.0
149
0.0
100
AcDbLayout
  1
Layout1
 70
     1
 71
     1
 10
0.0
 20
0.0
 11
12.0
 21
9.0
 12
0.0
 22
0.0
 32
0.0
 14
1.000000000000000E+20
 24
1.000000000000000E+20
 34
1.000000000000000E+20
 15
-1.000000000000000E+20
 25
-1.000000000000000E+20
 35
-1.000000000000000E+20
146
0.0
 13
0.0
 23
0.0
 33
0.0
 16
1.0
 26
0.0
 36
0.0
 17
0.0
 27
1.0
 37
0.0
 76
     0
330
46B
  0
LAYOUT
  5
472
102
{ACAD_XDICTIONARY
360
538
102
}
102
{ACAD_REACTORS
330
460
102
}
330
460
100
AcDbPlotSettings
  1

  2
Brother DCP-9020CDW Printer
  4

  6

 40
0.0
 41
0.0
 42
0.0
 43
0.0
 44
0.0
 45
0.0
 46
0.0
 47
0.0
 48
0.0
 49
0.0
140
0.0
141
0.0
142
1.0
143
1.0
 70
  1712
 72
     0
 73
     0
 74
     0
  7

 75
     0
147
1.0
148
0.0
149
0.0
100
AcDbLayout
  1
Model
 70
     1
 71
     0
 10
0.0
 20
0.0
 11
12.0
 21
9.0
 12
0.0
 22
0.0
 32
0.0
 14
0.0
 24
0.0
 34
0.0
 15
0.0
 25
0.0
 35
0.0
146
0.0
 13
0.0
 23
0.0
 33
0.0
 16
1.0
 26
0.0
 36
0.0
 17
0.0
 27
1.0
 37
0.0
 76
     0
330
46F
331
49E
  0
MATERIAL
  5
418
102
{ACAD_XDICTIONARY
360
419
102
}
102
{ACAD_REACTORS
330
40F
102
}
330
40F
100
AcDbMaterial
  1
ByBlock
 72
     0
 43
0.0208333333333333
 43
0.0
 43
0.0
 43
0.0
 43
0.0
 43
0.0208333333333333
 43
0.0
 43
0.0
 43
0.0
 43
0.0
 43
1.0
 43
0.0
 43
0.0
 43
0.0
 43
0.0
 43
1.0
 77
     0
 47
0.0208333333333333
 47
0.0
 47
0.0
 47
0.0
 47
0.0
 47
0.0208333333333333
 47
0.0
 47
0.0
 47
0.0
 47
0.0
 47
1.0
 47
0.0
 47
0.0
 47
0.0
 47
0.0
 47
1.0
171
     0
 49
0.0208333333333333
 49
0.0
 49
0.0
 49
0.0
 49
0.0
 49
0.0208333333333333
 49
0.0
 49
0.0
 49
0.0
 49
0.0
 49
1.0
 49
0.0
 49
0.0
 49
0.0
 49
0.0
 49
1.0
175
     0
142
0.0208333333333333
142
0.0
142
0.0
142
0.0
142
0.0
142
0.0208333333333333
142
0.0
142
0.0
142
0.0
142
0.0
142
1.0
142
0.0
142
0.0
142
0.0
142
0.0
142
1.0
179
     0
144
0.0208333333333333
144
0.0
144
0.0
144
0.0
144
0.0
144
0.0208333333333333
144
0.0
144
0.0
144
0.0
144
0.0
144
1.0
144
0.0
144
0.0
144
0.0
144
0.0
144
1.0
147
0.0208333333333333
147
0.0
147
0.0
147
0.0
147
0.0
147
0.0208333333333333
147
0.0
147
0.0
147
0.0
147
0.0
147
1.0
147
0.0
147
0.0
147
0.0
147
0.0
147
1.0
  0
MATERIAL
  5
410
102
{ACAD_XDICTIONARY
360
411
102
}
102
{ACAD_REACTORS
330
40F
102
}
330
40F
100
AcDbMaterial
  1
ByLayer
 72
     0
 43
0.0208333333333333
 43
0.0
 43
0.0
 43
0.0
 43
0.0
 43
0.0208333333333333
 43
0.0
 43
0.0
 43
0.0
 43
0.0
 43
1.0
 43
0.0
 43
0.0
 43
0.0
 43
0.0
 43
1.0
 77
     0
 47
0.0208333333333333
 47
0.0
 47
0.0
 47
0.0
 47
0.0
 47
0.0208333333333333
 47
0.0
 47
0.0
 47
0.0
 47
0.0
 47
1.0
 47
0.0
 47
0.0
 47
0.0
 47
0.0
 47
1.0
171
     0
 49
0.0208333333333333
 49
0.0
 49
0.0
 49
0.0
 49
0.0
 49
0.0208333333333333
 49
0.0
 49
0.0
 49
0.0
 49
0.0
 49
1.0
 49
0.0
 49
0.0
 49
0.0
 49
0.0
 49
1.0
175
     0
142
0.0208333333333333
142
0.0
142
0.0
142
0.0
142
0.0
142
0.0208333333333333
142
0.0
142
0.0
142
0.0
142
0.0
142
1.0
142
0.0
142
0.0
142
0.0
142
0.0
142
1.0
179
     0
144
0.0208333333333333
144
0.0
144
0.0
144
0.0
144
0.0
144
0.0208333333333333
144
0.0
144
0.0
144
0.0
144
0.0
144
1.0
144
0.0
144
0.0
144
0.0
144
0.0
144
1.0
147
0.0208333333333333
147
0.0
147
0.0
147
0.0
147
0.0
147
0.0208333333333333
147
0.0
147
0.0
147
0.0
147
0.0
147
1.0
147
0.0
147
0.0
147
0.0
147
0.0
147
1.0
  0
MATERIAL
  5
420
102
{ACAD_XDICTIONARY
360
421
102
}
102
{ACAD_REACTORS
330
40F
102
}
330
40F
100
AcDbMaterial
  1
Global
 72
     0
 43
0.0208333333333333
 43
0.0
 43
0.0
 43
0.0
 43
0.0
 43
0.0208333333333333
 43
0.0
 43
0.0
 43
0.0
 43
0.0
 43
1.0
 43
0.0
 43
0.0
 43
0.0
 43
0.0
 43
1.0
 77
     0
 47
0.0208333333333333
 47
0.0
 47
0.0
 47
0.0
 47
0.0
 47
0.0208333333333333
 47
0.0
 47
0.0
 47
0.0
 47
0.0
 47
1.0
 47
0.0
 47
0.0
 47
0.0
 47
0.0
 47
1.0
171
     0
 49
0.0208333333333333
 49
0.0
 49
0.0
 49
0.0
 49
0.0
 49
0.0208333333333333
 49
0.0
 49
0.0
 49
0.0
 49
0.0
 49
1.0
 49
0.0
 49
0.0
 49
0.0
 49
0.0
 49
1.0
175
     0
142
0.0208333333333333
142
0.0
142
0.0
142
0.0
142
0.0
142
0.0208333333333333
142
0.0
142
0.0
142
0.0
142
0.0
142
1.0
142
0.0
142
0.0
142
0.0
142
0.0
142
1.0
179
     0
144
0.0208333333333333
144
0.0
144
0.0
144
0.0
144
0.0
144
0.0208333333333333
144
0.0
144
0.0
144
0.0
144
0.0
144
1.0
144
0.0
144
0.0
144
0.0
144
0.0
144
1.0
147
0.0208333333333333
147
0.0
147
0.0
147
0.0
147
0.0
147
0.0208333333333333
147
0.0
147
0.0
147
0.0
147
0.0
147
1.0
147
0.0
147
0.0
147
0.0
147
0.0
147
1.0
  0
MLEADERSTYLE
  5
465
102
{ACAD_REACTORS
330
464
102
}
330
464
100
AcDbMLeaderStyle
170
     2
171
     1
172
     0
 90
        2
 40
0.0
 41
0.0
173
     1
 91
-1056964608
340
459
 92
       -2
290
     1
 42
0.09
291
     1
 43
0.36
  3
Standard
 44
0.18
300

342
454
174
     1
178
     6
175
     1
176
     0
 93
-1056964608
 45
0.18
292
     0
297
     0
 46
0.18
 94
-1056964608
 47
1.0
 49
1.0
140
1.0
293
     1
141
0.0
294
     1
177
     0
142
1.0
295
     0
296
     0
143
0.125
1001
ACAD_MLEADERVER
1070
     2
  0
MLINESTYLE
  5
45E
102
{ACAD_REACTORS
330
45D
102
}
330
45D
100
AcDbMlineStyle
  2
STANDARD
 70
     0
  3

 62
   256
 51
90.0
 52
90.0
 71
     2
 49
0.5
 62
   256
  6
BYLAYER
 49
-0.5
 62
   256
  6
BYLAYER
  0
ACDBPLACEHOLDER
  5
40E
102
{ACAD_REACTORS
330
40D
102
}
330
40D
  0
SCALE
  5
442
102
{ACAD_REACTORS
330
441
102
}
330
441
100
AcDbScale
 70
     0
300
1:1
140
1.0
141
1.0
290
     1
  0
SCALE
  5
443
102
{ACAD_REACTORS
330
441
102
}
330
441
100
AcDbScale
 70
     0
300
1/128" = 1'-0"
140
0.0078125
141
12.0
290
     0
  0
SCALE
  5
444
102
{ACAD_REACTORS
330
441
102
}
330
441
100
AcDbScale
 70
     0
300
1/64" = 1'-0"
140
0.015625
141
12.0
290
     0
  0
SCALE
  5
445
102
{ACAD_REACTORS
330
441
102
}
330
441
100
AcDbScale
 70
     0
300
1/32" = 1'-0"
140
0.03125
141
12.0
290
     0
  0
SCALE
  5
446
102
{ACAD_REACTORS
330
441
102
}
330
441
100
AcDbScale
 70
     0
300
1/16" = 1'-0"
140
0.0625
141
12.0
290
     0
  0
SCALE
  5
447
102
{ACAD_REACTORS
330
441
102
}
330
441
100
AcDbScale
 70
     0
300
3/32" = 1'-0"
140
0.09375
141
12.0
290
     0
  0
SCALE
  5
448
102
{ACAD_REACTORS
330
441
102
}
330
441
100
AcDbScale
 70
     0
300
1/8" = 1'-0"
140
0.125
141
12.0
290
     0
  0
SCALE
  5
449
102
{ACAD_REACTORS
330
441
102
}
330
441
100
AcDbScale
 70
     0
300
3/16" = 1'-0"
140
0.1875
141
12.0
290
     0
  0
SCALE
  5
44A
102
{ACAD_REACTORS
330
441
102
}
330
441
100
AcDbScale
 70
     0
300
1/4" = 1'-0"
140
0.25
141
12.0
290
     0
  0
SCALE
  5
44B
102
{ACAD_REACTORS
330
441
102
}
330
441
100
AcDbScale
 70
     0
300
3/8" = 1'-0"
140
0.375
141
12.0
290
     0
  0
SCALE
  5
44C
102
{ACAD_REACTORS
330
441
102
}
330
441
100
AcDbScale
 70
     0
300
1/2" = 1'-0"
140
0.5
141
12.0
290
     0
  0
SCALE
  5
44D
102
{ACAD_REACTORS
330
441
102
}
330
441
100
AcDbScale
 70
     0
300
3/4" = 1'-0"
140
0.75
141
12.0
290
     0
  0
SCALE
  5
44E
102
{ACAD_REACTORS
330
441
102
}
330
441
100
AcDbScale
 70
     0
300
1" = 1'-0"
140
1.0
141
12.0
290
     0
  0
SCALE
  5
44F
102
{ACAD_REACTORS
330
441
102
}
330
441
100
AcDbScale
 70
     0
300
1-1/2" = 1'-0"
140
1.5
141
12.0
290
     0
  0
SCALE
  5
450
102
{ACAD_REACTORS
330
441
102
}
330
441
100
AcDbScale
 70
     0
300
3" = 1'-0"
140
3.0
141
12.0
290
     0
  0
SCALE
  5
451
102
{ACAD_REACTORS
330
441
102
}
330
441
100
AcDbScale
 70
     0
300
6" = 1'-0"
140
6.0
141
12.0
290
     0
  0
SCALE
  5
452
102
{ACAD_REACTORS
330
441
102
}
330
441
100
AcDbScale
 70
     0
300
1'-0" = 1'-0"
140
12.0
141
12.0
290
     0
  0
ACDBSECTIONVIEWSTYLE
  5
468
102
{ACAD_REACTORS
330
466
102
}
330
466
100
AcDbModelDocViewStyle
 70
     0
  3
Imperial24
290
     0
100
AcDbSectionViewStyle
 70
     0
 71
     0
 90
       78
 71
     1
340
454
 40
0.24
340
0
340
0
 40
0.24
300
I, O, Q, S, X, Z
 40
0.48
 90
        3
 40
0.18
 90
        1
 71
     2
340
467
 90
       25
340
45B
 90
       50
 40
0.24
 40
0.0
 40
0.24
 71
     3
340
454
 40
0.24
 90
        1
 40
0.75
 90
        1
300
%<\AcVar ViewType \f "%tc1">% %<\AcVar ViewSectionStartId>%-%<\AcVar ViewSectionEndId>%\PSCALE %<\AcVar ViewScale \f "%sn">%
 71
     4
300
ANSI31
 40
1.0
 90
        0
290
     0
290
     0
 90
        6
 40
0.0
 40
1.570796326794896
 40
0.2617993877991494
 40
1.308996938995747
 40
-0.2617993877991494
 40
1.832595714594046
  0
TABLESTYLE
  5
463
102
{ACAD_XDICTIONARY
360
4FD
102
}
102
{ACAD_REACTORS
330
462
102
}
330
462
100
AcDbTableStyle
  3
Standard
 70
     0
 71
     0
 40
0.06
 41
0.06
280
     0
281
     0
  7
STANDARD
140
0.18
170
     2
 62
     0
 63
     7
283
     0
274
    -2
284
     1
 64
     0
275
    -2
285
     1
 65
     0
276
    -2
286
     1
 66
     0
277
    -2
287
     1
 67
     0
278
    -2
288
     1
 68
     0
279
    -2
289
     1
 69
     0
  7
STANDARD
140
0.25
170
     5
 62
     0
 63
     7
283
     0
274
    -2
284
     1
 64
     0
275
    -2
285
     1
 65
     0
276
    -2
286
     1
 66
     0
277
    -2
287
     1
 67
     0
278
    -2
288
     1
 68
     0
279
    -2
289
     1
 69
     0
  7
STANDARD
140
0.18
170
     5
 62
     0
 63
     7
283
     0
274
    -2
284
     1
 64
     0
275
    -2
285
     1
 65
     0
276
    -2
286
     1
 66
     0
277
    -2
287
     1
 67
     0
278
    -2
288
     1
 68
     0
279
    -2
289
     1
 69
     0
  0
VISUALSTYLE
  5
42E
102
{ACAD_XDICTIONARY
360
50E
102
}
102
{ACAD_REACTORS
330
428
102
}
330
428
100
AcDbVisualStyle
  2
2dWireframe
 70
     4
 71
     0
 72
     2
 73
     0
 90
        0
 40
-0.6
 41
-30.0
 62
     5
 63
     7
 74
     1
 91
        4
 64
     7
 65
   257
 75
     1
175
     1
 42
1.0
 92
        0
 66
   257
 43
1.0
 76
     1
 77
     6
 78
     2
 67
     7
 79
     5
170
     0
171
     0
290
     0
174
     0
 93
        1
 44
0.0
173
     0
291
     0
 45
0.0
1001
ACAD
1000
AcDbSavedByObjectVersion
1070
     0
  0
VISUALSTYLE
  5
42D
102
{ACAD_XDICTIONARY
360
50C
102
}
102
{ACAD_REACTORS
330
428
102
}
330
428
100
AcDbVisualStyle
  2
Basic
 70
     7
 71
     1
 72
     0
 73
     1
 90
        0
 40
-0.6
 41
-30.0
 62
     5
 63
     7
 74
     0
 91
        4
 64
     7
 65
   257
 75
     1
175
     1
 42
1.0
 92
        8
 66
     7
 43
1.0
 76
     1
 77
     6
 78
     2
 67
     7
 79
     5
170
     0
171
     0
290
     0
174
     0
 93
        1
 44
0.0
173
     0
291
     1
 45
0.0
1001
ACAD
1000
AcDbSavedByObjectVersion
1070
     0
  0
VISUALSTYLE
  5
434
102
{ACAD_XDICTIONARY
360
51A
102
}
102
{ACAD_REACTORS
330
428
102
}
330
428
100
AcDbVisualStyle
  2
Brighten
 70
    12
 71
     2
 72
     2
 73
     0
 90
        0
 40
-0.6
 41
-30.0
 62
     5
 63
     7
 74
     1
 91
        4
 64
     7
 65
   257
 75
     1
175
     1
 42
1.0
 92
        8
 66
     7
 43
1.0
 76
     1
 77
     6
 78
     2
 67
     7
 79
     5
170
     0
171
     0
290
     0
174
     0
 93
        1
 44
50.0
173
     0
291
     1
 45
0.0
1001
ACAD
1000
AcDbSavedByObjectVersion
1070
     0
  0
VISUALSTYLE
  5
438
102
{ACAD_XDICTIONARY
360
522
102
}
102
{ACAD_REACTORS
330
428
102
}
330
428
100
AcDbVisualStyle
  2
ColorChange
 70
    16
 71
     2
 72
     2
 73
     3
 90
        0
 40
-0.6
 41
-30.0
 62
     5
 63
     8
 74
     1
 91
        4
 64
     7
 65
   257
 75
     1
175
     1
 42
1.0
 92
        8
 66
     8
 43
1.0
 76
     1
 77
     6
 78
     2
 67
     7
 79
     5
170
     0
171
     0
290
     0
174
     0
 93
        1
 44
0.0
173
     0
291
     1
 45
0.0
1001
ACAD
1000
AcDbSavedByObjectVersion
1070
     0
  0
VISUALSTYLE
  5
431
102
{ACAD_XDICTIONARY
360
514
102
}
102
{ACAD_REACTORS
330
428
102
}
330
428
100
AcDbVisualStyle
  2
Conceptual
 70
     9
 71
     3
 72
     2
 73
     0
 90
        0
 40
-0.6
 41
-30.0
 62
     5
 63
     7
 74
     2
 91
        2
 64
     7
 65
   257
 75
     1
175
     1
 42
179.0
 92
        8
 66
     7
 43
1.0
 76
     1
 77
     6
 78
     2
 67
     7
 79
     3
170
     0
171
     0
290
     0
174
     0
 93
        1
 44
0.0
173
     0
291
     0
 45
0.0
1001
ACAD
1000
AcDbSavedByObjectVersion
1070
     0
  0
VISUALSTYLE
  5
433
102
{ACAD_XDICTIONARY
360
518
102
}
102
{ACAD_REACTORS
330
428
102
}
330
428
100
AcDbVisualStyle
  2
Dim
 70
    11
 71
     2
 72
     2
 73
     0
 90
        0
 40
-0.6
 41
-30.0
 62
     5
 63
     7
 74
     1
 91
        4
 64
     7
 65
   257
 75
     1
175
     1
 42
1.0
 92
        8
 66
     7
 43
1.0
 76
     1
 77
     6
 78
     2
 67
     7
 79
     5
170
     0
171
     0
290
     0
174
     0
 93
        1
 44
-50.0
173
     0
291
     1
 45
0.0
1001
ACAD
1000
AcDbSavedByObjectVersion
1070
     0
  0
VISUALSTYLE
  5
440
102
{ACAD_XDICTIONARY
360
532
102
}
102
{ACAD_REACTORS
330
428
102
}
330
428
100
AcDbVisualStyle
  2
EdgeColorOff
 70
    22
 71
     2
 72
     2
 73
     0
 90
        0
 40
-0.6
 41
-30.0
 62
     5
 63
     7
 74
     1
 91
        4
 64
     7
 65
   257
 75
     1
175
     1
 42
1.0
 92
        8
 66
     7
 43
1.0
 76
     1
 77
     6
 78
     2
 67
     7
 79
     5
170
     0
171
     0
290
     0
174
     0
 93
        1
 44
0.0
173
     0
291
     1
 45
0.0
1001
ACAD
1000
AcDbSavedByObjectVersion
1070
     0
  0
VISUALSTYLE
  5
437
102
{ACAD_XDICTIONARY
360
520
102
}
102
{ACAD_REACTORS
330
428
102
}
330
428
100
AcDbVisualStyle
  2
Facepattern
 70
    15
 71
     2
 72
     2
 73
     0
 90
        0
 40
-0.6
 41
-30.0
 62
     5
 63
     7
 74
     1
 91
        4
 64
     7
 65
   257
 75
     1
175
     1
 42
1.0
 92
        8
 66
     7
 43
1.0
 76
     1
 77
     6
 78
     2
 67
     7
 79
     5
170
     0
171
     0
290
     0
174
     0
 93
        1
 44
0.0
173
     0
291
     1
 45
0.0
1001
ACAD
1000
AcDbSavedByObjectVersion
1070
     0
  0
VISUALSTYLE
  5
429
102
{ACAD_XDICTIONARY
360
504
102
}
102
{ACAD_REACTORS
330
428
102
}
330
428
100
AcDbVisualStyle
  2
Flat
 70
     0
 71
     2
 72
     1
 73
     1
 90
        2
 40
-0.6
 41
30.0
 62
     5
 63
     7
 74
     0
 91
        0
 64
     7
 65
   257
 75
     1
175
     1
 42
1.0
 92
        8
 66
     7
 43
1.0
 76
     1
 77
     6
 78
     2
 67
     7
 79
     5
170
     0
171
     0
290
     0
174
     0
 93
       13
 44
0.0
173
     0
291
     1
 45
0.0
1001
ACAD
1000
AcDbSavedByObjectVersion
1070
     0
  0
VISUALSTYLE
  5
42A
102
{ACAD_XDICTIONARY
360
506
102
}
102
{ACAD_REACTORS
330
428
102
}
330
428
100
AcDbVisualStyle
  2
FlatWithEdges
 70
     1
 71
     2
 72
     1
 73
     1
 90
        2
 40
-0.6
 41
30.0
 62
     5
 63
     7
 74
     1
 91
        0
 64
     7
 65
   257
 75
     1
175
     1
 42
1.0
 92
        0
 66
   257
 43
1.0
 76
     1
 77
     6
 78
     2
 67
     7
 79
     5
170
     0
171
     0
290
     0
174
     0
 93
       13
 44
0.0
173
     0
291
     1
 45
0.0
1001
ACAD
1000
AcDbSavedByObjectVersion
1070
     0
  0
VISUALSTYLE
  5
42B
102
{ACAD_XDICTIONARY
360
508
102
}
102
{ACAD_REACTORS
330
428
102
}
330
428
100
AcDbVisualStyle
  2
Gouraud
 70
     2
 71
     2
 72
     2
 73
     1
 90
        2
 40
-0.6
 41
30.0
 62
     5
 63
     7
 74
     0
 91
        0
 64
     7
 65
   257
 75
     1
175
     1
 42
1.0
 92
        0
 66
     7
 43
1.0
 76
     1
 77
     6
 78
     2
 67
     7
 79
     5
170
     0
171
     0
290
     0
174
     0
 93
       13
 44
0.0
173
     0
291
     1
 45
0.0
1001
ACAD
1000
AcDbSavedByObjectVersion
1070
     0
  0
VISUALSTYLE
  5
42C
102
{ACAD_XDICTIONARY
360
50A
102
}
102
{ACAD_REACTORS
330
428
102
}
330
428
100
AcDbVisualStyle
  2
GouraudWithEdges
 70
     3
 71
     2
 72
     2
 73
     1
 90
        2
 40
-0.6
 41
30.0
 62
     5
 63
     7
 74
     1
 91
        0
 64
     7
 65
   257
 75
     1
175
     1
 42
1.0
 92
        0
 66
   257
 43
1.0
 76
     1
 77
     6
 78
     2
 67
     7
 79
     5
170
     0
171
     0
290
     0
174
     0
 93
       13
 44
0.0
173
     0
291
     1
 45
0.0
1001
ACAD
1000
AcDbSavedByObjectVersion
1070
     0
  0
VISUALSTYLE
  5
430
102
{ACAD_XDICTIONARY
360
512
102
}
102
{ACAD_REACTORS
330
428
102
}
330
428
100
AcDbVisualStyle
  2
Hidden
 70
     6
 71
     1
 72
     2
 73
     2
 90
        0
 40
-0.6
 41
-30.0
 62
     5
 63
     7
 74
     2
 91
        2
 64
     7
 65
   257
 75
     2
175
     1
 42
40.0
 92
        0
 66
   257
 43
1.0
 76
     1
 77
     6
 78
     2
 67
     7
 79
     3
170
     0
171
     0
290
     0
174
     0
 93
        1
 44
0.0
173
     0
291
     0
 45
0.0
1001
ACAD
1000
AcDbSavedByObjectVersion
1070
     0
  0
VISUALSTYLE
  5
43E
102
{ACAD_XDICTIONARY
360
52E
102
}
102
{ACAD_REACTORS
330
428
102
}
330
428
100
AcDbVisualStyle
  2
JitterOff
 70
    20
 71
     2
 72
     2
 73
     0
 90
        0
 40
-0.6
 41
-30.0
 62
     5
 63
     7
 74
     1
 91
        4
 64
     7
 65
   257
 75
     1
175
     1
 42
1.0
 92
       10
 66
     7
 43
1.0
 76
     1
 77
     6
 78
     2
 67
     7
 79
     5
170
     0
171
     0
290
     0
174
     0
 93
        1
 44
0.0
173
     0
291
     1
 45
0.0
1001
ACAD
1000
AcDbSavedByObjectVersion
1070
     0
  0
VISUALSTYLE
  5
436
102
{ACAD_XDICTIONARY
360
51E
102
}
102
{ACAD_REACTORS
330
428
102
}
330
428
100
AcDbVisualStyle
  2
Linepattern
 70
    14
 71
     2
 72
     2
 73
     0
 90
        0
 40
-0.6
 41
-30.0
 62
     5
 63
     7
 74
     1
 91
        4
 64
     7
 65
   257
 75
     7
175
     7
 42
1.0
 92
        8
 66
     7
 43
1.0
 76
     1
 77
     6
 78
     2
 67
     7
 79
     5
170
     0
171
     0
290
     0
174
     0
 93
        1
 44
0.0
173
     0
291
     1
 45
0.0
1001
ACAD
1000
AcDbSavedByObjectVersion
1070
     0
  0
VISUALSTYLE
  5
43F
102
{ACAD_XDICTIONARY
360
530
102
}
102
{ACAD_REACTORS
330
428
102
}
330
428
100
AcDbVisualStyle
  2
OverhangOff
 70
    21
 71
     2
 72
     2
 73
     0
 90
        0
 40
-0.6
 41
-30.0
 62
     5
 63
     7
 74
     1
 91
        4
 64
     7
 65
   257
 75
     1
175
     1
 42
1.0
 92
        9
 66
     7
 43
1.0
 76
     1
 77
     6
 78
     2
 67
     7
 79
     5
170
     0
171
     0
290
     0
174
     0
 93
        1
 44
0.0
173
     0
291
     1
 45
0.0
1001
ACAD
1000
AcDbSavedByObjectVersion
1070
     0
  0
VISUALSTYLE
  5
432
102
{ACAD_XDICTIONARY
360
516
102
}
102
{ACAD_REACTORS
330
428
102
}
330
428
100
AcDbVisualStyle
  2
Realistic
 70
     8
 71
     2
 72
     3
 73
     0
 90
        2
 40
-0.6
 41
30.0
 62
     5
 63
     7
 74
     0
 91
        0
 64
     7
 65
   257
 75
     1
175
     1
 42
1.0
 92
        8
 66
   257
 43
1.0
 76
     1
 77
     6
 78
     2
 67
     7
 79
     3
170
     0
171
     0
290
     0
174
     0
 93
       13
 44
0.0
173
     0
291
     0
 45
0.0
1001
ACAD
1000
AcDbSavedByObjectVersion
1070
     0
  0
VISUALSTYLE
  5
43D
102
{ACAD_XDICTIONARY
360
52C
102
}
102
{ACAD_REACTORS
330
428
102
}
330
428
100
AcDbVisualStyle
  2
Shaded
 70
    27
 71
     2
 72
     2
 73
     1
 90
        2
 40
-0.6
 41
30.0
 62
     5
 63
     7
 74
     0
 91
        4
 64
     7
 65
   257
 75
     1
175
     1
 42
1.0
 92
        8
 66
   257
 43
1.0
 76
     1
 77
     6
 78
     2
 67
     8
 79
     3
170
     0
171
     0
290
     0
174
     0
 93
        5
 44
0.0
173
     0
291
     0
 45
0.0
1001
ACAD
1000
AcDbSavedByObjectVersion
1070
     0
  0
VISUALSTYLE
  5
43C
102
{ACAD_XDICTIONARY
360
52A
102
}
102
{ACAD_REACTORS
330
428
102
}
330
428
100
AcDbVisualStyle
  2
Shaded with edges
 70
    26
 71
     2
 72
     2
 73
     1
 90
        2
 40
-0.6
 41
30.0
 62
     5
 63
     7
 74
     1
 91
       10
 64
     7
 65
   257
 75
     2
175
     1
 42
1.0
 92
        8
 66
   257
 43
1.0
 76
     1
 77
     6
 78
     2
 67
     7
 79
     3
170
     0
171
     0
290
     0
174
     0
 93
        5
 44
0.0
173
     0
291
     0
 45
0.0
1001
ACAD
1000
AcDbSavedByObjectVersion
1070
     0
  0
VISUALSTYLE
  5
439
102
{ACAD_XDICTIONARY
360
524
102
}
102
{ACAD_REACTORS
330
428
102
}
330
428
100
AcDbVisualStyle
  2
Shades of Gray
 70
    23
 71
     2
 72
     2
 73
     3
 90
        0
 40
-0.6
 41
-30.0
 62
     5
 63
     7
 74
     2
 91
        2
 64
     7
 65
     7
 75
     1
175
     1
 42
40.0
 92
        8
 66
     7
 43
1.0
 76
     1
 77
     6
 78
     2
 67
     7
 79
     3
170
     0
171
     0
290
     0
174
     0
 93
        1
 44
0.0
173
     0
291
     0
 45
0.0
1001
ACAD
1000
AcDbSavedByObjectVersion
1070
     0
  0
VISUALSTYLE
  5
43A
102
{ACAD_XDICTIONARY
360
526
102
}
102
{ACAD_REACTORS
330
428
102
}
330
428
100
AcDbVisualStyle
  2
Sketchy
 70
    24
 71
     1
 72
     2
 73
     2
 90
        0
 40
-0.6
 41
-30.0
 62
     5
 63
     7
 74
     2
 91
        2
 64
     7
 65
     7
 75
     1
175
     1
 42
40.0
 92
       11
 66
     7
 43
1.0
 76
     1
 77
     6
 78
     2
 67
     7
 79
     6
170
     0
171
     0
290
     0
174
     0
 93
        1
 44
0.0
173
     0
291
     0
 45
0.0
1001
ACAD
1000
AcDbSavedByObjectVersion
1070
     0
  0
VISUALSTYLE
  5
435
102
{ACAD_XDICTIONARY
360
51C
102
}
102
{ACAD_REACTORS
330
428
102
}
330
428
100
AcDbVisualStyle
  2
Thicken
 70
    13
 71
     2
 72
     2
 73
     0
 90
        0
 40
-0.6
 41
-30.0
 62
     5
 63
     7
 74
     1
 91
        4
 64
     7
 65
   257
 75
     1
175
     1
 42
1.0
 92
       12
 66
     7
 43
1.0
 76
     1
 77
     6
 78
     2
 67
     7
 79
     5
170
     0
171
     0
290
     0
174
     0
 93
        1
 44
0.0
173
     0
291
     1
 45
0.0
1001
ACAD
1000
AcDbSavedByObjectVersion
1070
     0
  0
VISUALSTYLE
  5
42F
102
{ACAD_XDICTIONARY
360
510
102
}
102
{ACAD_REACTORS
330
428
102
}
330
428
100
AcDbVisualStyle
  2
Wireframe
 70
     5
 71
     0
 72
     2
 73
     0
 90
        0
 40
-0.6
 41
-30.0
 62
     5
 63
     7
 74
     1
 91
        4
 64
     7
 65
   257
 75
     1
175
     1
 42
1.0
 92
        0
 66
   257
 43
1.0
 76
     1
 77
     6
 78
     2
 67
     7
 79
     3
170
     0
171
     0
290
     0
174
     0
 93
        1
 44
0.0
173
     0
291
     0
 45
0.0
1001
ACAD
1000
AcDbSavedByObjectVersion
1070
     0
  0
VISUALSTYLE
  5
43B
102
{ACAD_XDICTIONARY
360
528
102
}
102
{ACAD_REACTORS
330
428
102
}
330
428
100
AcDbVisualStyle
  2
X-Ray
 70
    25
 71
     2
 72
     2
 73
     1
 90
        1
 40
0.5
 41
-30.0
 62
     5
 63
     7
 74
     1
 91
        0
 64
     7
 65
   257
 75
     1
175
     1
 42
1.0
 92
        8
 66
     7
 43
1.0
 76
     1
 77
     6
 78
     2
 67
     7
 79
     3
170
     0
171
     0
290
     0
174
     0
 93
       13
 44
0.0
173
     0
291
     0
 45
0.0
1001
ACAD
1000
AcDbSavedByObjectVersion
1070
     0
  0
DICTIONARYVAR
  5
4F7
102
{ACAD_REACTORS
330
4F2
102
}
330
4F2
100
DictionaryVariables
280
     0
  1
1:1
  0
DICTIONARYVAR
  5
4F4
102
{ACAD_REACTORS
330
4F2
102
}
330
4F2
100
DictionaryVariables
280
     0
  1
STANDARD
  0
DICTIONARYVAR
  5
4F3
102
{ACAD_REACTORS
330
4F2
102
}
330
4F2
100
DictionaryVariables
280
     0
  1
STANDARD
  0
DICTIONARYVAR
  5
4F5
102
{ACAD_REACTORS
330
4F2
102
}
330
4F2
100
DictionaryVariables
280
     0
  1
Imperial24
  0
DICTIONARYVAR
  5
4F6
102
{ACAD_REACTORS
330
4F2
102
}
330
4F2
100
DictionaryVariables
280
     0
  1
Imperial24
  0
DICTIONARYVAR
  5
4FA
102
{ACAD_REACTORS
330
4F2
102
}
330
4F2
100
DictionaryVariables
280
     0
  1
1
  0
DICTIONARYVAR
  5
4F9
102
{ACAD_REACTORS
330
4F2
102
}
330
4F2
100
DictionaryVariables
280
     0
  1
0
  0
DICTIONARYVAR
  5
4F8
102
{ACAD_REACTORS
330
4F2
102
}
330
4F2
100
DictionaryVariables
280
     0
  1
127
  0
DICTIONARYVAR
  5
4FB
102
{ACAD_REACTORS
330
4F2
102
}
330
4F2
100
DictionaryVariables
280
     0
  1
2
  0
DICTIONARY
  5
536
330
46E
100
AcDbDictionary
280
     1
281
     1
  3
ACAD_XREC_ROUNDTRIP
360
537
  0
DICTIONARY
  5
538
330
472
100
AcDbDictionary
280
     1
281
     1
  3
ACAD_XREC_ROUNDTRIP
360
539
  0
DICTIONARY
  5
419
330
418
100
AcDbDictionary
280
     1
281
     1
  3
ACAD_XREC_ROUNDTRIP
360
502
  3
BUMPTILE
360
41B
  3
DIFFUSETILE
360
41A
  3
OPACITYTILE
360
41E
  3
REFLECTIONTILE
360
41D
  3
REFRACTIONTILE
360
41F
  3
SPECULARTILE
360
41C
  0
DICTIONARY
  5
411
330
410
100
AcDbDictionary
280
     1
281
     1
  3
ACAD_XREC_ROUNDTRIP
360
501
  3
BUMPTILE
360
413
  3
DIFFUSETILE
360
412
  3
OPACITYTILE
360
416
  3
REFLECTIONTILE
360
415
  3
REFRACTIONTILE
360
417
  3
SPECULARTILE
360
414
  0
DICTIONARY
  5
421
330
420
100
AcDbDictionary
280
     1
281
     1
  3
ACAD_XREC_ROUNDTRIP
360
503
  3
BUMPTILE
360
423
  3
DIFFUSETILE
360
422
  3
OPACITYTILE
360
426
  3
REFLECTIONTILE
360
425
  3
REFRACTIONTILE
360
427
  3
SPECULARTILE
360
424
  0
DICTIONARY
  5
4FD
330
463
100
AcDbDictionary
280
     1
281
     1
  3
ACAD_ROUNDTRIP_2008_TABLESTYLE_CELLSTYLEMAP
360
4FE
  3
ACAD_XREC_ROUNDTRIP
360
534
  0
DICTIONARY
  5
50E
330
42E
100
AcDbDictionary
280
     1
281
     1
  3
ACAD_XREC_ROUNDTRIP
360
50F
  0
DICTIONARY
  5
50C
330
42D
100
AcDbDictionary
280
     1
281
     1
  3
ACAD_XREC_ROUNDTRIP
360
50D
  0
DICTIONARY
  5
51A
330
434
100
AcDbDictionary
280
     1
281
     1
  3
ACAD_XREC_ROUNDTRIP
360
51B
  0
DICTIONARY
  5
522
330
438
100
AcDbDictionary
280
     1
281
     1
  3
ACAD_XREC_ROUNDTRIP
360
523
  0
DICTIONARY
  5
514
330
431
100
AcDbDictionary
280
     1
281
     1
  3
ACAD_XREC_ROUNDTRIP
360
515
  0
DICTIONARY
  5
518
330
433
100
AcDbDictionary
280
     1
281
     1
  3
ACAD_XREC_ROUNDTRIP
360
519
  0
DICTIONARY
  5
532
330
440
100
AcDbDictionary
280
     1
281
     1
  3
ACAD_XREC_ROUNDTRIP
360
533
  0
DICTIONARY
  5
520
330
437
100
AcDbDictionary
280
     1
281
     1
  3
ACAD_XREC_ROUNDTRIP
360
521
  0
DICTIONARY
  5
504
330
429
100
AcDbDictionary
280
     1
281
     1
  3
ACAD_XREC_ROUNDTRIP
360
505
  0
DICTIONARY
  5
506
330
42A
100
AcDbDictionary
280
     1
281
     1
  3
ACAD_XREC_ROUNDTRIP
360
507
  0
DICTIONARY
  5
508
330
42B
100
AcDbDictionary
280
     1
281
     1
  3
ACAD_XREC_ROUNDTRIP
360
509
  0
DICTIONARY
  5
50A
330
42C
100
AcDbDictionary
280
     1
281
     1
  3
ACAD_XREC_ROUNDTRIP
360
50B
  0
DICTIONARY
  5
512
330
430
100
AcDbDictionary
280
     1
281
     1
  3
ACAD_XREC_ROUNDTRIP
360
513
  0
DICTIONARY
  5
52E
330
43E
100
AcDbDictionary
280
     1
281
     1
  3
ACAD_XREC_ROUNDTRIP
360
52F
  0
DICTIONARY
  5
51E
330
436
100
AcDbDictionary
280
     1
281
     1
  3
ACAD_XREC_ROUNDTRIP
360
51F
  0
DICTIONARY
  5
530
330
43F
100
AcDbDictionary
280
     1
281
     1
  3
ACAD_XREC_ROUNDTRIP
360
531
  0
DICTIONARY
  5
516
330
432
100
AcDbDictionary
280
     1
281
     1
  3
ACAD_XREC_ROUNDTRIP
360
517
  0
DICTIONARY
  5
52C
330
43D
100
AcDbDictionary
280
     1
281
     1
  3
ACAD_XREC_ROUNDTRIP
360
52D
  0
DICTIONARY
  5
52A
330
43C
100
AcDbDictionary
280
     1
281
     1
  3
ACAD_XREC_ROUNDTRIP
360
52B
  0
DICTIONARY
  5
524
330
439
100
AcDbDictionary
280
     1
281
     1
  3
ACAD_XREC_ROUNDTRIP
360
525
  0
DICTIONARY
  5
526
330
43A
100
AcDbDictionary
280
     1
281
     1
  3
ACAD_XREC_ROUNDTRIP
360
527
  0
DICTIONARY
  5
51C
330
435
100
AcDbDictionary
280
     1
281
     1
  3
ACAD_XREC_ROUNDTRIP
360
51D
  0
DICTIONARY
  5
510
330
42F
100
AcDbDictionary
280
     1
281
     1
  3
ACAD_XREC_ROUNDTRIP
360
511
  0
DICTIONARY
  5
528
330
43B
100
AcDbDictionary
280
     1
281
     1
  3
ACAD_XREC_ROUNDTRIP
360
529
  0
XRECORD
  5
537
102
{ACAD_REACTORS
330
536
102
}
330
536
100
AcDbXrecord
280
     1
102
SHADEPLOT
 70
     0
102
SHADEPLOTRESLEVEL
 70
     2
102
SHADEPLOTCUSTOMDPI
 70
   300
  0
XRECORD
  5
539
102
{ACAD_REACTORS
330
538
102
}
330
538
100
AcDbXrecord
280
     1
102
SHADEPLOT
 70
     0
102
SHADEPLOTRESLEVEL
 70
     2
102
SHADEPLOTCUSTOMDPI
 70
   300
  0
XRECORD
  5
502
102
{ACAD_REACTORS
330
419
102
}
330
419
100
AcDbXrecord
280
     1
102
MATERIAL
148
0.0
149
0.0
149
0.0
 93
        0
 94
      127
282
     0
 72
     0
 77
     0
171
     0
175
     0
179
     0
273
     0
  0
XRECORD
  5
41B
102
{ACAD_REACTORS
330
419
102
}
330
419
100
AcDbXrecord
280
     1
270
     1
271
     1
  0
XRECORD
  5
41A
102
{ACAD_REACTORS
330
419
102
}
330
419
100
AcDbXrecord
280
     1
270
     1
271
     1
  0
XRECORD
  5
41E
102
{ACAD_REACTORS
330
419
102
}
330
419
100
AcDbXrecord
280
     1
270
     1
271
     1
  0
XRECORD
  5
41D
102
{ACAD_REACTORS
330
419
102
}
330
419
100
AcDbXrecord
280
     1
270
     1
271
     1
  0
XRECORD
  5
41F
102
{ACAD_REACTORS
330
419
102
}
330
419
100
AcDbXrecord
280
     1
270
     1
271
     1
  0
XRECORD
  5
41C
102
{ACAD_REACTORS
330
419
102
}
330
419
100
AcDbXrecord
280
     1
270
     1
271
     1
  0
XRECORD
  5
501
102
{ACAD_REACTORS
330
411
102
}
330
411
100
AcDbXrecord
280
     1
102
MATERIAL
148
0.0
149
0.0
149
0.0
 93
        0
 94
      127
282
     0
 72
     0
 77
     0
171
     0
175
     0
179
     0
273
     0
  0
XRECORD
  5
413
102
{ACAD_REACTORS
330
411
102
}
330
411
100
AcDbXrecord
280
     1
270
     1
271
     1
  0
XRECORD
  5
412
102
{ACAD_REACTORS
330
411
102
}
330
411
100
AcDbXrecord
280
     1
270
     1
271
     1
  0
XRECORD
  5
416
102
{ACAD_REACTORS
330
411
102
}
330
411
100
AcDbXrecord
280
     1
270
     1
271
     1
  0
XRECORD
  5
415
102
{ACAD_REACTORS
330
411
102
}
330
411
100
AcDbXrecord
280
     1
270
     1
271
     1
  0
XRECORD
  5
417
102
{ACAD_REACTORS
330
411
102
}
330
411
100
AcDbXrecord
280
     1
270
     1
271
     1
  0
XRECORD
  5
414
102
{ACAD_REACTORS
330
411
102
}
330
411
100
AcDbXrecord
280
     1
270
     1
271
     1
  0
XRECORD
  5
503
102
{ACAD_REACTORS
330
421
102
}
330
421
100
AcDbXrecord
280
     1
102
MATERIAL
148
0.0
149
0.0
149
0.0
 93
        0
 94
      127
282
     0
 72
     0
 77
     0
171
     0
175
     0
179
     0
273
     0
  0
XRECORD
  5
423
102
{ACAD_REACTORS
330
421
102
}
330
421
100
AcDbXrecord
280
     1
270
     1
271
     1
  0
XRECORD
  5
422
102
{ACAD_REACTORS
330
421
102
}
330
421
100
AcDbXrecord
280
     1
270
     1
271
     1
  0
XRECORD
  5
426
102
{ACAD_REACTORS
330
421
102
}
330
421
100
AcDbXrecord
280
     1
270
     1
271
     1
  0
XRECORD
  5
425
102
{ACAD_REACTORS
330
421
102
}
330
421
100
AcDbXrecord
280
     1
270
     1
271
     1
  0
XRECORD
  5
427
102
{ACAD_REACTORS
330
421
102
}
330
421
100
AcDbXrecord
280
     1
270
     1
271
     1
  0
XRECORD
  5
424
102
{ACAD_REACTORS
330
421
102
}
330
421
100
AcDbXrecord
280
     1
270
     1
271
     1
  0
CELLSTYLEMAP
  5
4FE
102
{ACAD_REACTORS
330
4FD
102
}
330
4FD
100
AcDbCellStyleMap
 90
        3
300
CELLSTYLE
  1
TABLEFORMAT_BEGIN
 90
        5
170
     1
 91
        0
 92
    32768
 62
   257
 93
        1
300
CONTENTFORMAT
  1
CONTENTFORMAT_BEGIN
 90
        0
 91
        0
 92
      512
 93
        0
300

 40
0.0
140
1.0
 94
        5
 62
     0
340
454
144
0.25
309
CONTENTFORMAT_END
171
     0
 94
        0
309
TABLEFORMAT_END
  1
CELLSTYLE_BEGIN
 90
        1
 91
        1
300
_TITLE
309
CELLSTYLE_END
300
CELLSTYLE
  1
TABLEFORMAT_BEGIN
 90
        5
170
     1
 91
        0
 92
        0
 62
   257
 93
        1
300
CONTENTFORMAT
  1
CONTENTFORMAT_BEGIN
 90
        0
 91
        0
 92
      512
 93
        0
300

 40
0.0
140
1.0
 94
        5
 62
     0
340
454
144
0.18
309
CONTENTFORMAT_END
171
     0
 94
        0
309
TABLEFORMAT_END
  1
CELLSTYLE_BEGIN
 90
        2
 91
        1
300
_HEADER
309
CELLSTYLE_END
300
CELLSTYLE
  1
TABLEFORMAT_BEGIN
 90
        5
170
     1
 91
        0
 92
        0
 62
   257
 93
        1
300
CONTENTFORMAT
  1
CONTENTFORMAT_BEGIN
 90
        0
 91
        0
 92
      512
 93
        0
300

 40
0.0
140
1.0
 94
        2
 62
     0
340
454
144
0.18
309
CONTENTFORMAT_END
171
     0
 94
        0
309
TABLEFORMAT_END
  1
CELLSTYLE_BEGIN
 90
        3
 91
        2
300
_DATA
309
CELLSTYLE_END
  0
XRECORD
  5
534
102
{ACAD_REACTORS
330
4FD
102
}
330
4FD
100
AcDbXrecord
280
     1
102
ACAD_ROUNDTRIP_PRE2007_TABLESTYLE
 90
      512
 91
        0
  1

 92
      512
 93
        0
  2

 94
      512
 95
        0
  3

  0
XRECORD
  5
50F
102
{ACAD_REACTORS
330
50E
102
}
330
50E
100
AcDbXrecord
280
     1
102
RTVSPost2010Prop28
280
     1
102
RTVSPost2010PropOp28
 70
     1
102
RTVSPost2010Prop29
280
     1
102
RTVSPost2010PropOp29
 70
     1
102
RTVSPost2010Prop30
280
     0
102
RTVSPost2010PropOp30
 70
     1
102
RTVSPost2010Prop31
280
     0
102
RTVSPost2010PropOp31
 70
     1
102
RTVSPost2010Prop32
280
     0
102
RTVSPost2010PropOp32
 70
     1
102
RTVSPost2010Prop33
280
     0
102
RTVSPost2010PropOp33
 70
     1
102
RTVSPost2010Prop34
280
     0
102
RTVSPost2010PropOp34
 70
     1
102
RTVSPost2010Prop35
280
     0
102
RTVSPost2010PropOp35
 70
     1
102
RTVSPost2010Prop36
280
     0
102
RTVSPost2010PropOp36
 70
     1
102
RTVSPost2010Prop37
 90
       50
102
RTVSPost2010PropOp37
 70
     1
102
RTVSPost2010Prop38
140
0.0
102
RTVSPost2010PropOp38
 70
     1
102
RTVSPost2010Prop39
140
1.0
102
RTVSPost2010PropOp39
 70
     1
102
RTVSPost2010Prop40
 90
        0
102
RTVSPost2010PropOp40
 70
     1
102
RTVSPost2010Prop41ColorIndex
 90
       18
102
RTVSPost2010Prop41ColorRGB
 90
        0
102
RTVSPost2010PropOp41
 70
     1
102
RTVSPost2010Prop42
 90
       50
102
RTVSPost2010PropOp42
 70
     1
102
RTVSPost2010Prop43
 90
        3
102
RTVSPost2010PropOp43
 70
     1
102
RTVSPost2010Prop44ColorIndex
 90
        5
102
RTVSPost2010Prop44ColorRGB
 90
      255
102
RTVSPost2010PropOp44
 70
     1
102
RTVSPost2010Prop45
280
     0
102
RTVSPost2010PropOp45
 70
     1
102
RTVSPost2010Prop46
 90
       50
102
RTVSPost2010PropOp46
 70
     1
102
RTVSPost2010Prop47
 90
       50
102
RTVSPost2010PropOp47
 70
     1
102
RTVSPost2010Prop48
 90
       50
102
RTVSPost2010PropOp48
 70
     1
102
RTVSPost2010Prop49
280
     0
102
RTVSPost2010PropOp49
 70
     1
102
RTVSPost2010Prop50
 90
       50
102
RTVSPost2010PropOp50
 70
     1
102
RTVSPost2010Prop51ColorIndex
 90
      256
102
RTVSPost2010Prop51ColorRGB
 90
-16777216
102
RTVSPost2010PropOp51
 70
     0
102
RTVSPost2010Prop52
140
1.0
102
RTVSPost2010PropOp52
 70
     0
102
RTVSPost2010Prop53
 90
        2
102
RTVSPost2010PropOp53
 70
     1
102
RTVSPost2010Prop54
  1
strokes_ogs.tif
102
RTVSPost2010PropOp54
 70
     1
102
RTVSPost2010Prop55
280
     0
102
RTVSPost2010PropOp55
 70
     1
102
RTVSPost2010Prop56
140
1.0
102
RTVSPost2010PropOp56
 70
     1
102
RTVSPost2010Prop57
140
1.0
102
RTVSPost2010PropOp57
 70
     1
102
RTVSPropertyOp0
 70
     1
102
RTVSPropertyOp1
 70
     1
102
RTVSPropertyOp2
 70
     1
102
RTVSPropertyOp3
 70
     1
102
RTVSPropertyOp4
 70
     1
102
RTVSPropertyOp5
 70
     1
102
RTVSPropertyOp6
 70
     1
102
RTVSPropertyOp7
 70
     1
102
RTVSPropertyOp8
 70
     1
102
RTVSPropertyOp9
 70
     1
102
RTVSPropertyOp10
 70
     1
102
RTVSPropertyOp11
 70
     1
102
RTVSPropertyOp12
 70
     1
102
RTVSPropertyOp13
 70
     1
102
RTVSPropertyOp14
 70
     1
102
RTVSPropertyOp15
 70
     1
102
RTVSPropertyOp16
 70
     1
102
RTVSPropertyOp17
 70
     1
102
RTVSPropertyOp18
 70
     1
102
RTVSPropertyOp19
 70
     1
102
RTVSPropertyOp20
 70
     1
102
RTVSPropertyOp21
 70
     1
102
RTVSPropertyOp22
 70
     1
102
RTVSPropertyOp23
 70
     1
102
RTVSPropertyOp24
 70
     1
102
RTVSPropertyOp25
 70
     1
102
RTVSPropertyOp26
 70
     1
102
RTVSPropertyOp27
 70
     1
102
RTVSPropertyOp28
 70
     1
102
RTVSPropertyOp29
 70
     1
102
RTVSPropertyOp30
 70
     1
102
RTVSPropertyOp31
 70
     1
102
RTVSPropertyOp32
 70
     1
102
RTVSPropertyOp33
 70
     1
102
RTVSPropertyOp34
 70
     1
102
RTVSPropertyOp35
 70
     1
102
RTVSPropertyOp36
 70
     1
102
RTVSPropertyOp37
 70
     1
102
RTVSPropertyOp38
 70
     1
102
RTVSPropertyOp39
 70
     1
102
RTVSPropertyOp40
 70
     1
102
RTVSPropertyOp41
 70
     1
102
RTVSPropertyOp42
 70
     1
102
RTVSPropertyOp43
 70
     1
102
RTVSPropertyOp44
 70
     1
102
RTVSPropertyOp45
 70
     1
102
RTVSPropertyOp46
 70
     1
102
RTVSPropertyOp47
 70
     1
102
RTVSPropertyOp48
 70
     1
102
RTVSPropertyOp49
 70
     1
102
RTVSPropertyOp50
 70
     1
102
RTVSPropertyOp51
 70
     0
102
RTVSPropertyOp52
 70
     0
102
RTVSPropertyOp53
 70
     1
102
RTVSPropertyOp54
 70
     1
102
RTVSPropertyOp55
 70
     1
102
RTVSPropertyOp56
 70
     1
102
RTVSPropertyOp57
 70
     1
102
RTVSPropertyOp58
 70
     1
102
RTVSPropertyOp59
 70
     1
102
RTVSPropertyOp60
 70
     1
102
RTVSPropertyOp61
 70
     1
102
RTVSPropertyOp62
 70
     1
  0
XRECORD
  5
50D
102
{ACAD_REACTORS
330
50C
102
}
330
50C
100
AcDbXrecord
280
     1
102
RTVSPost2010Prop28
280
     0
102
RTVSPost2010PropOp28
 70
     1
102
RTVSPost2010Prop29
280
     1
102
RTVSPost2010PropOp29
 70
     1
102
RTVSPost2010Prop30
280
     1
102
RTVSPost2010PropOp30
 70
     1
102
RTVSPost2010Prop31
280
     0
102
RTVSPost2010PropOp31
 70
     1
102
RTVSPost2010Prop32
280
     0
102
RTVSPost2010PropOp32
 70
     1
102
RTVSPost2010Prop33
280
     0
102
RTVSPost2010PropOp33
 70
     1
102
RTVSPost2010Prop34
280
     0
102
RTVSPost2010PropOp34
 70
     1
102
RTVSPost2010Prop35
280
     0
102
RTVSPost2010PropOp35
 70
     1
102
RTVSPost2010Prop36
280
     0
102
RTVSPost2010PropOp36
 70
     1
102
RTVSPost2010Prop37
 90
       50
102
RTVSPost2010PropOp37
 70
     1
102
RTVSPost2010Prop38
140
0.0
102
RTVSPost2010PropOp38
 70
     1
102
RTVSPost2010Prop39
140
1.0
102
RTVSPost2010PropOp39
 70
     1
102
RTVSPost2010Prop40
 90
        0
102
RTVSPost2010PropOp40
 70
     1
102
RTVSPost2010Prop41ColorIndex
 90
       18
102
RTVSPost2010Prop41ColorRGB
 90
        0
102
RTVSPost2010PropOp41
 70
     1
102
RTVSPost2010Prop42
 90
       50
102
RTVSPost2010PropOp42
 70
     1
102
RTVSPost2010Prop43
 90
        3
102
RTVSPost2010PropOp43
 70
     1
102
RTVSPost2010Prop44ColorIndex
 90
        5
102
RTVSPost2010Prop44ColorRGB
 90
      255
102
RTVSPost2010PropOp44
 70
     1
102
RTVSPost2010Prop45
280
     0
102
RTVSPost2010PropOp45
 70
     1
102
RTVSPost2010Prop46
 90
       50
102
RTVSPost2010PropOp46
 70
     1
102
RTVSPost2010Prop47
 90
       50
102
RTVSPost2010PropOp47
 70
     1
102
RTVSPost2010Prop48
 90
       50
102
RTVSPost2010PropOp48
 70
     1
102
RTVSPost2010Prop49
280
     0
102
RTVSPost2010PropOp49
 70
     1
102
RTVSPost2010Prop50
 90
       50
102
RTVSPost2010PropOp50
 70
     1
102
RTVSPost2010Prop51ColorIndex
 90
      256
102
RTVSPost2010Prop51ColorRGB
 90
-16777216
102
RTVSPost2010PropOp51
 70
     0
102
RTVSPost2010Prop52
140
1.0
102
RTVSPost2010PropOp52
 70
     0
102
RTVSPost2010Prop53
 90
        2
102
RTVSPost2010PropOp53
 70
     1
102
RTVSPost2010Prop54
  1
strokes_ogs.tif
102
RTVSPost2010PropOp54
 70
     1
102
RTVSPost2010Prop55
280
     0
102
RTVSPost2010PropOp55
 70
     1
102
RTVSPost2010Prop56
140
1.0
102
RTVSPost2010PropOp56
 70
     1
102
RTVSPost2010Prop57
140
1.0
102
RTVSPost2010PropOp57
 70
     1
102
RTVSPropertyOp0
 70
     1
102
RTVSPropertyOp1
 70
     1
102
RTVSPropertyOp2
 70
     1
102
RTVSPropertyOp3
 70
     1
102
RTVSPropertyOp4
 70
     1
102
RTVSPropertyOp5
 70
     1
102
RTVSPropertyOp6
 70
     1
102
RTVSPropertyOp7
 70
     1
102
RTVSPropertyOp8
 70
     1
102
RTVSPropertyOp9
 70
     1
102
RTVSPropertyOp10
 70
     1
102
RTVSPropertyOp11
 70
     1
102
RTVSPropertyOp12
 70
     1
102
RTVSPropertyOp13
 70
     1
102
RTVSPropertyOp14
 70
     1
102
RTVSPropertyOp15
 70
     1
102
RTVSPropertyOp16
 70
     1
102
RTVSPropertyOp17
 70
     1
102
RTVSPropertyOp18
 70
     1
102
RTVSPropertyOp19
 70
     1
102
RTVSPropertyOp20
 70
     1
102
RTVSPropertyOp21
 70
     1
102
RTVSPropertyOp22
 70
     1
102
RTVSPropertyOp23
 70
     1
102
RTVSPropertyOp24
 70
     1
102
RTVSPropertyOp25
 70
     1
102
RTVSPropertyOp26
 70
     1
102
RTVSPropertyOp27
 70
     1
102
RTVSPropertyOp28
 70
     1
102
RTVSPropertyOp29
 70
     1
102
RTVSPropertyOp30
 70
     1
102
RTVSPropertyOp31
 70
     1
102
RTVSPropertyOp32
 70
     1
102
RTVSPropertyOp33
 70
     1
102
RTVSPropertyOp34
 70
     1
102
RTVSPropertyOp35
 70
     1
102
RTVSPropertyOp36
 70
     1
102
RTVSPropertyOp37
 70
     1
102
RTVSPropertyOp38
 70
     1
102
RTVSPropertyOp39
 70
     1
102
RTVSPropertyOp40
 70
     1
102
RTVSPropertyOp41
 70
     1
102
RTVSPropertyOp42
 70
     1
102
RTVSPropertyOp43
 70
     1
102
RTVSPropertyOp44
 70
     1
102
RTVSPropertyOp45
 70
     1
102
RTVSPropertyOp46
 70
     1
102
RTVSPropertyOp47
 70
     1
102
RTVSPropertyOp48
 70
     1
102
RTVSPropertyOp49
 70
     1
102
RTVSPropertyOp50
 70
     1
102
RTVSPropertyOp51
 70
     0
102
RTVSPropertyOp52
 70
     0
102
RTVSPropertyOp53
 70
     1
102
RTVSPropertyOp54
 70
     1
102
RTVSPropertyOp55
 70
     1
102
RTVSPropertyOp56
 70
     1
102
RTVSPropertyOp57
 70
     1
102
RTVSPropertyOp58
 70
     1
102
RTVSPropertyOp59
 70
     1
102
RTVSPropertyOp60
 70
     1
102
RTVSPropertyOp61
 70
     1
102
RTVSPropertyOp62
 70
     1
  0
XRECORD
  5
51B
102
{ACAD_REACTORS
330
51A
102
}
330
51A
100
AcDbXrecord
280
     1
102
RTVSPost2010Prop28
280
     0
102
RTVSPost2010PropOp28
 70
     1
102
RTVSPost2010Prop29
280
     1
102
RTVSPost2010PropOp29
 70
     1
102
RTVSPost2010Prop30
280
     1
102
RTVSPost2010PropOp30
 70
     1
102
RTVSPost2010Prop31
280
     0
102
RTVSPost2010PropOp31
 70
     1
102
RTVSPost2010Prop32
280
     0
102
RTVSPost2010PropOp32
 70
     1
102
RTVSPost2010Prop33
280
     0
102
RTVSPost2010PropOp33
 70
     1
102
RTVSPost2010Prop34
280
     0
102
RTVSPost2010PropOp34
 70
     1
102
RTVSPost2010Prop35
280
     0
102
RTVSPost2010PropOp35
 70
     1
102
RTVSPost2010Prop36
280
     0
102
RTVSPost2010PropOp36
 70
     1
102
RTVSPost2010Prop37
 90
       50
102
RTVSPost2010PropOp37
 70
     1
102
RTVSPost2010Prop38
140
0.0
102
RTVSPost2010PropOp38
 70
     1
102
RTVSPost2010Prop39
140
1.0
102
RTVSPost2010PropOp39
 70
     1
102
RTVSPost2010Prop40
 90
        0
102
RTVSPost2010PropOp40
 70
     1
102
RTVSPost2010Prop41ColorIndex
 90
       18
102
RTVSPost2010Prop41ColorRGB
 90
        0
102
RTVSPost2010PropOp41
 70
     1
102
RTVSPost2010Prop42
 90
       50
102
RTVSPost2010PropOp42
 70
     1
102
RTVSPost2010Prop43
 90
        3
102
RTVSPost2010PropOp43
 70
     1
102
RTVSPost2010Prop44ColorIndex
 90
        5
102
RTVSPost2010Prop44ColorRGB
 90
      255
102
RTVSPost2010PropOp44
 70
     1
102
RTVSPost2010Prop45
280
     0
102
RTVSPost2010PropOp45
 70
     1
102
RTVSPost2010Prop46
 90
       50
102
RTVSPost2010PropOp46
 70
     1
102
RTVSPost2010Prop47
 90
       50
102
RTVSPost2010PropOp47
 70
     1
102
RTVSPost2010Prop48
 90
       50
102
RTVSPost2010PropOp48
 70
     1
102
RTVSPost2010Prop49
280
     0
102
RTVSPost2010PropOp49
 70
     1
102
RTVSPost2010Prop50
 90
       50
102
RTVSPost2010PropOp50
 70
     1
102
RTVSPost2010Prop51ColorIndex
 90
      256
102
RTVSPost2010Prop51ColorRGB
 90
-16777216
102
RTVSPost2010PropOp51
 70
     0
102
RTVSPost2010Prop52
140
1.0
102
RTVSPost2010PropOp52
 70
     0
102
RTVSPost2010Prop53
 90
        2
102
RTVSPost2010PropOp53
 70
     1
102
RTVSPost2010Prop54
  1
strokes_ogs.tif
102
RTVSPost2010PropOp54
 70
     1
102
RTVSPost2010Prop55
280
     0
102
RTVSPost2010PropOp55
 70
     1
102
RTVSPost2010Prop56
140
1.0
102
RTVSPost2010PropOp56
 70
     1
102
RTVSPost2010Prop57
140
1.0
102
RTVSPost2010PropOp57
 70
     1
102
RTVSPropertyOp0
 70
     1
102
RTVSPropertyOp1
 70
     1
102
RTVSPropertyOp2
 70
     1
102
RTVSPropertyOp3
 70
     1
102
RTVSPropertyOp4
 70
     1
102
RTVSPropertyOp5
 70
     1
102
RTVSPropertyOp6
 70
     1
102
RTVSPropertyOp7
 70
     1
102
RTVSPropertyOp8
 70
     1
102
RTVSPropertyOp9
 70
     1
102
RTVSPropertyOp10
 70
     1
102
RTVSPropertyOp11
 70
     1
102
RTVSPropertyOp12
 70
     1
102
RTVSPropertyOp13
 70
     1
102
RTVSPropertyOp14
 70
     1
102
RTVSPropertyOp15
 70
     1
102
RTVSPropertyOp16
 70
     1
102
RTVSPropertyOp17
 70
     1
102
RTVSPropertyOp18
 70
     1
102
RTVSPropertyOp19
 70
     1
102
RTVSPropertyOp20
 70
     1
102
RTVSPropertyOp21
 70
     1
102
RTVSPropertyOp22
 70
     1
102
RTVSPropertyOp23
 70
     1
102
RTVSPropertyOp24
 70
     1
102
RTVSPropertyOp25
 70
     1
102
RTVSPropertyOp26
 70
     1
102
RTVSPropertyOp27
 70
     1
102
RTVSPropertyOp28
 70
     1
102
RTVSPropertyOp29
 70
     1
102
RTVSPropertyOp30
 70
     1
102
RTVSPropertyOp31
 70
     1
102
RTVSPropertyOp32
 70
     1
102
RTVSPropertyOp33
 70
     1
102
RTVSPropertyOp34
 70
     1
102
RTVSPropertyOp35
 70
     1
102
RTVSPropertyOp36
 70
     1
102
RTVSPropertyOp37
 70
     1
102
RTVSPropertyOp38
 70
     1
102
RTVSPropertyOp39
 70
     1
102
RTVSPropertyOp40
 70
     1
102
RTVSPropertyOp41
 70
     1
102
RTVSPropertyOp42
 70
     1
102
RTVSPropertyOp43
 70
     1
102
RTVSPropertyOp44
 70
     1
102
RTVSPropertyOp45
 70
     1
102
RTVSPropertyOp46
 70
     1
102
RTVSPropertyOp47
 70
     1
102
RTVSPropertyOp48
 70
     1
102
RTVSPropertyOp49
 70
     1
102
RTVSPropertyOp50
 70
     1
102
RTVSPropertyOp51
 70
     0
102
RTVSPropertyOp52
 70
     0
102
RTVSPropertyOp53
 70
     1
102
RTVSPropertyOp54
 70
     1
102
RTVSPropertyOp55
 70
     1
102
RTVSPropertyOp56
 70
     1
102
RTVSPropertyOp57
 70
     1
102
RTVSPropertyOp58
 70
     1
102
RTVSPropertyOp59
 70
     1
102
RTVSPropertyOp60
 70
     1
102
RTVSPropertyOp61
 70
     1
102
RTVSPropertyOp62
 70
     1
  0
XRECORD
  5
523
102
{ACAD_REACTORS
330
522
102
}
330
522
100
AcDbXrecord
280
     1
102
RTVSPost2010Prop28
280
     0
102
RTVSPost2010PropOp28
 70
     1
102
RTVSPost2010Prop29
280
     1
102
RTVSPost2010PropOp29
 70
     1
102
RTVSPost2010Prop30
280
     1
102
RTVSPost2010PropOp30
 70
     1
102
RTVSPost2010Prop31
280
     0
102
RTVSPost2010PropOp31
 70
     1
102
RTVSPost2010Prop32
280
     0
102
RTVSPost2010PropOp32
 70
     1
102
RTVSPost2010Prop33
280
     0
102
RTVSPost2010PropOp33
 70
     1
102
RTVSPost2010Prop34
280
     0
102
RTVSPost2010PropOp34
 70
     1
102
RTVSPost2010Prop35
280
     0
102
RTVSPost2010PropOp35
 70
     1
102
RTVSPost2010Prop36
280
     0
102
RTVSPost2010PropOp36
 70
     1
102
RTVSPost2010Prop37
 90
       50
102
RTVSPost2010PropOp37
 70
     1
102
RTVSPost2010Prop38
140
0.0
102
RTVSPost2010PropOp38
 70
     1
102
RTVSPost2010Prop39
140
1.0
102
RTVSPost2010PropOp39
 70
     1
102
RTVSPost2010Prop40
 90
        0
102
RTVSPost2010PropOp40
 70
     1
102
RTVSPost2010Prop41ColorIndex
 90
       18
102
RTVSPost2010Prop41ColorRGB
 90
        0
102
RTVSPost2010PropOp41
 70
     1
102
RTVSPost2010Prop42
 90
       50
102
RTVSPost2010PropOp42
 70
     1
102
RTVSPost2010Prop43
 90
        3
102
RTVSPost2010PropOp43
 70
     1
102
RTVSPost2010Prop44ColorIndex
 90
        5
102
RTVSPost2010Prop44ColorRGB
 90
      255
102
RTVSPost2010PropOp44
 70
     1
102
RTVSPost2010Prop45
280
     0
102
RTVSPost2010PropOp45
 70
     1
102
RTVSPost2010Prop46
 90
       50
102
RTVSPost2010PropOp46
 70
     1
102
RTVSPost2010Prop47
 90
       50
102
RTVSPost2010PropOp47
 70
     1
102
RTVSPost2010Prop48
 90
       50
102
RTVSPost2010PropOp48
 70
     1
102
RTVSPost2010Prop49
280
     0
102
RTVSPost2010PropOp49
 70
     1
102
RTVSPost2010Prop50
 90
       50
102
RTVSPost2010PropOp50
 70
     1
102
RTVSPost2010Prop51ColorIndex
 90
      256
102
RTVSPost2010Prop51ColorRGB
 90
-16777216
102
RTVSPost2010PropOp51
 70
     0
102
RTVSPost2010Prop52
140
1.0
102
RTVSPost2010PropOp52
 70
     0
102
RTVSPost2010Prop53
 90
        2
102
RTVSPost2010PropOp53
 70
     1
102
RTVSPost2010Prop54
  1
strokes_ogs.tif
102
RTVSPost2010PropOp54
 70
     1
102
RTVSPost2010Prop55
280
     0
102
RTVSPost2010PropOp55
 70
     1
102
RTVSPost2010Prop56
140
1.0
102
RTVSPost2010PropOp56
 70
     1
102
RTVSPost2010Prop57
140
1.0
102
RTVSPost2010PropOp57
 70
     1
102
RTVSPropertyOp0
 70
     1
102
RTVSPropertyOp1
 70
     1
102
RTVSPropertyOp2
 70
     1
102
RTVSPropertyOp3
 70
     1
102
RTVSPropertyOp4
 70
     1
102
RTVSPropertyOp5
 70
     1
102
RTVSPropertyOp6
 70
     1
102
RTVSPropertyOp7
 70
     1
102
RTVSPropertyOp8
 70
     1
102
RTVSPropertyOp9
 70
     1
102
RTVSPropertyOp10
 70
     1
102
RTVSPropertyOp11
 70
     1
102
RTVSPropertyOp12
 70
     1
102
RTVSPropertyOp13
 70
     1
102
RTVSPropertyOp14
 70
     1
102
RTVSPropertyOp15
 70
     1
102
RTVSPropertyOp16
 70
     1
102
RTVSPropertyOp17
 70
     1
102
RTVSPropertyOp18
 70
     1
102
RTVSPropertyOp19
 70
     1
102
RTVSPropertyOp20
 70
     1
102
RTVSPropertyOp21
 70
     1
102
RTVSPropertyOp22
 70
     1
102
RTVSPropertyOp23
 70
     1
102
RTVSPropertyOp24
 70
     1
102
RTVSPropertyOp25
 70
     1
102
RTVSPropertyOp26
 70
     1
102
RTVSPropertyOp27
 70
     1
102
RTVSPropertyOp28
 70
     1
102
RTVSPropertyOp29
 70
     1
102
RTVSPropertyOp30
 70
     1
102
RTVSPropertyOp31
 70
     1
102
RTVSPropertyOp32
 70
     1
102
RTVSPropertyOp33
 70
     1
102
RTVSPropertyOp34
 70
     1
102
RTVSPropertyOp35
 70
     1
102
RTVSPropertyOp36
 70
     1
102
RTVSPropertyOp37
 70
     1
102
RTVSPropertyOp38
 70
     1
102
RTVSPropertyOp39
 70
     1
102
RTVSPropertyOp40
 70
     1
102
RTVSPropertyOp41
 70
     1
102
RTVSPropertyOp42
 70
     1
102
RTVSPropertyOp43
 70
     1
102
RTVSPropertyOp44
 70
     1
102
RTVSPropertyOp45
 70
     1
102
RTVSPropertyOp46
 70
     1
102
RTVSPropertyOp47
 70
     1
102
RTVSPropertyOp48
 70
     1
102
RTVSPropertyOp49
 70
     1
102
RTVSPropertyOp50
 70
     1
102
RTVSPropertyOp51
 70
     0
102
RTVSPropertyOp52
 70
     0
102
RTVSPropertyOp53
 70
     1
102
RTVSPropertyOp54
 70
     1
102
RTVSPropertyOp55
 70
     1
102
RTVSPropertyOp56
 70
     1
102
RTVSPropertyOp57
 70
     1
102
RTVSPropertyOp58
 70
     1
102
RTVSPropertyOp59
 70
     1
102
RTVSPropertyOp60
 70
     1
102
RTVSPropertyOp61
 70
     1
102
RTVSPropertyOp62
 70
     1
  0
XRECORD
  5
515
102
{ACAD_REACTORS
330
514
102
}
330
514
100
AcDbXrecord
280
     1
102
RTVSPost2010Prop28
280
     0
102
RTVSPost2010PropOp28
 70
     1
102
RTVSPost2010Prop29
280
     1
102
RTVSPost2010PropOp29
 70
     1
102
RTVSPost2010Prop30
280
     1
102
RTVSPost2010PropOp30
 70
     1
102
RTVSPost2010Prop31
280
     0
102
RTVSPost2010PropOp31
 70
     1
102
RTVSPost2010Prop32
280
     0
102
RTVSPost2010PropOp32
 70
     1
102
RTVSPost2010Prop33
280
     0
102
RTVSPost2010PropOp33
 70
     1
102
RTVSPost2010Prop34
280
     0
102
RTVSPost2010PropOp34
 70
     1
102
RTVSPost2010Prop35
280
     0
102
RTVSPost2010PropOp35
 70
     1
102
RTVSPost2010Prop36
280
     0
102
RTVSPost2010PropOp36
 70
     1
102
RTVSPost2010Prop37
 90
       50
102
RTVSPost2010PropOp37
 70
     1
102
RTVSPost2010Prop38
140
0.0
102
RTVSPost2010PropOp38
 70
     1
102
RTVSPost2010Prop39
140
1.0
102
RTVSPost2010PropOp39
 70
     1
102
RTVSPost2010Prop40
 90
        0
102
RTVSPost2010PropOp40
 70
     1
102
RTVSPost2010Prop41ColorIndex
 90
       18
102
RTVSPost2010Prop41ColorRGB
 90
        0
102
RTVSPost2010PropOp41
 70
     1
102
RTVSPost2010Prop42
 90
       50
102
RTVSPost2010PropOp42
 70
     1
102
RTVSPost2010Prop43
 90
        3
102
RTVSPost2010PropOp43
 70
     1
102
RTVSPost2010Prop44ColorIndex
 90
        5
102
RTVSPost2010Prop44ColorRGB
 90
      255
102
RTVSPost2010PropOp44
 70
     1
102
RTVSPost2010Prop45
280
     0
102
RTVSPost2010PropOp45
 70
     1
102
RTVSPost2010Prop46
 90
       50
102
RTVSPost2010PropOp46
 70
     1
102
RTVSPost2010Prop47
 90
       50
102
RTVSPost2010PropOp47
 70
     1
102
RTVSPost2010Prop48
 90
       50
102
RTVSPost2010PropOp48
 70
     1
102
RTVSPost2010Prop49
280
     0
102
RTVSPost2010PropOp49
 70
     1
102
RTVSPost2010Prop50
 90
       50
102
RTVSPost2010PropOp50
 70
     1
102
RTVSPost2010Prop51ColorIndex
 90
      256
102
RTVSPost2010Prop51ColorRGB
 90
-16777216
102
RTVSPost2010PropOp51
 70
     0
102
RTVSPost2010Prop52
140
1.0
102
RTVSPost2010PropOp52
 70
     0
102
RTVSPost2010Prop53
 90
        2
102
RTVSPost2010PropOp53
 70
     1
102
RTVSPost2010Prop54
  1
strokes_ogs.tif
102
RTVSPost2010PropOp54
 70
     1
102
RTVSPost2010Prop55
280
     0
102
RTVSPost2010PropOp55
 70
     1
102
RTVSPost2010Prop56
140
1.0
102
RTVSPost2010PropOp56
 70
     1
102
RTVSPost2010Prop57
140
1.0
102
RTVSPost2010PropOp57
 70
     1
102
RTVSPropertyOp0
 70
     1
102
RTVSPropertyOp1
 70
     1
102
RTVSPropertyOp2
 70
     1
102
RTVSPropertyOp3
 70
     1
102
RTVSPropertyOp4
 70
     1
102
RTVSPropertyOp5
 70
     1
102
RTVSPropertyOp6
 70
     1
102
RTVSPropertyOp7
 70
     1
102
RTVSPropertyOp8
 70
     1
102
RTVSPropertyOp9
 70
     1
102
RTVSPropertyOp10
 70
     1
102
RTVSPropertyOp11
 70
     1
102
RTVSPropertyOp12
 70
     1
102
RTVSPropertyOp13
 70
     1
102
RTVSPropertyOp14
 70
     1
102
RTVSPropertyOp15
 70
     1
102
RTVSPropertyOp16
 70
     1
102
RTVSPropertyOp17
 70
     1
102
RTVSPropertyOp18
 70
     1
102
RTVSPropertyOp19
 70
     1
102
RTVSPropertyOp20
 70
     1
102
RTVSPropertyOp21
 70
     1
102
RTVSPropertyOp22
 70
     1
102
RTVSPropertyOp23
 70
     1
102
RTVSPropertyOp24
 70
     1
102
RTVSPropertyOp25
 70
     1
102
RTVSPropertyOp26
 70
     1
102
RTVSPropertyOp27
 70
     1
102
RTVSPropertyOp28
 70
     1
102
RTVSPropertyOp29
 70
     1
102
RTVSPropertyOp30
 70
     1
102
RTVSPropertyOp31
 70
     1
102
RTVSPropertyOp32
 70
     1
102
RTVSPropertyOp33
 70
     1
102
RTVSPropertyOp34
 70
     1
102
RTVSPropertyOp35
 70
     1
102
RTVSPropertyOp36
 70
     1
102
RTVSPropertyOp37
 70
     1
102
RTVSPropertyOp38
 70
     1
102
RTVSPropertyOp39
 70
     1
102
RTVSPropertyOp40
 70
     1
102
RTVSPropertyOp41
 70
     1
102
RTVSPropertyOp42
 70
     1
102
RTVSPropertyOp43
 70
     1
102
RTVSPropertyOp44
 70
     1
102
RTVSPropertyOp45
 70
     1
102
RTVSPropertyOp46
 70
     1
102
RTVSPropertyOp47
 70
     1
102
RTVSPropertyOp48
 70
     1
102
RTVSPropertyOp49
 70
     1
102
RTVSPropertyOp50
 70
     1
102
RTVSPropertyOp51
 70
     0
102
RTVSPropertyOp52
 70
     0
102
RTVSPropertyOp53
 70
     1
102
RTVSPropertyOp54
 70
     1
102
RTVSPropertyOp55
 70
     1
102
RTVSPropertyOp56
 70
     1
102
RTVSPropertyOp57
 70
     1
102
RTVSPropertyOp58
 70
     1
102
RTVSPropertyOp59
 70
     1
102
RTVSPropertyOp60
 70
     1
102
RTVSPropertyOp61
 70
     1
102
RTVSPropertyOp62
 70
     1
  0
XRECORD
  5
519
102
{ACAD_REACTORS
330
518
102
}
330
518
100
AcDbXrecord
280
     1
102
RTVSPost2010Prop28
280
     0
102
RTVSPost2010PropOp28
 70
     1
102
RTVSPost2010Prop29
280
     1
102
RTVSPost2010PropOp29
 70
     1
102
RTVSPost2010Prop30
280
     1
102
RTVSPost2010PropOp30
 70
     1
102
RTVSPost2010Prop31
280
     0
102
RTVSPost2010PropOp31
 70
     1
102
RTVSPost2010Prop32
280
     0
102
RTVSPost2010PropOp32
 70
     1
102
RTVSPost2010Prop33
280
     0
102
RTVSPost2010PropOp33
 70
     1
102
RTVSPost2010Prop34
280
     0
102
RTVSPost2010PropOp34
 70
     1
102
RTVSPost2010Prop35
280
     0
102
RTVSPost2010PropOp35
 70
     1
102
RTVSPost2010Prop36
280
     0
102
RTVSPost2010PropOp36
 70
     1
102
RTVSPost2010Prop37
 90
       50
102
RTVSPost2010PropOp37
 70
     1
102
RTVSPost2010Prop38
140
0.0
102
RTVSPost2010PropOp38
 70
     1
102
RTVSPost2010Prop39
140
1.0
102
RTVSPost2010PropOp39
 70
     1
102
RTVSPost2010Prop40
 90
        0
102
RTVSPost2010PropOp40
 70
     1
102
RTVSPost2010Prop41ColorIndex
 90
       18
102
RTVSPost2010Prop41ColorRGB
 90
        0
102
RTVSPost2010PropOp41
 70
     1
102
RTVSPost2010Prop42
 90
       50
102
RTVSPost2010PropOp42
 70
     1
102
RTVSPost2010Prop43
 90
        3
102
RTVSPost2010PropOp43
 70
     1
102
RTVSPost2010Prop44ColorIndex
 90
        5
102
RTVSPost2010Prop44ColorRGB
 90
      255
102
RTVSPost2010PropOp44
 70
     1
102
RTVSPost2010Prop45
280
     0
102
RTVSPost2010PropOp45
 70
     1
102
RTVSPost2010Prop46
 90
       50
102
RTVSPost2010PropOp46
 70
     1
102
RTVSPost2010Prop47
 90
       50
102
RTVSPost2010PropOp47
 70
     1
102
RTVSPost2010Prop48
 90
       50
102
RTVSPost2010PropOp48
 70
     1
102
RTVSPost2010Prop49
280
     0
102
RTVSPost2010PropOp49
 70
     1
102
RTVSPost2010Prop50
 90
       50
102
RTVSPost2010PropOp50
 70
     1
102
RTVSPost2010Prop51ColorIndex
 90
      256
102
RTVSPost2010Prop51ColorRGB
 90
-16777216
102
RTVSPost2010PropOp51
 70
     0
102
RTVSPost2010Prop52
140
1.0
102
RTVSPost2010PropOp52
 70
     0
102
RTVSPost2010Prop53
 90
        2
102
RTVSPost2010PropOp53
 70
     1
102
RTVSPost2010Prop54
  1
strokes_ogs.tif
102
RTVSPost2010PropOp54
 70
     1
102
RTVSPost2010Prop55
280
     0
102
RTVSPost2010PropOp55
 70
     1
102
RTVSPost2010Prop56
140
1.0
102
RTVSPost2010PropOp56
 70
     1
102
RTVSPost2010Prop57
140
1.0
102
RTVSPost2010PropOp57
 70
     1
102
RTVSPropertyOp0
 70
     1
102
RTVSPropertyOp1
 70
     1
102
RTVSPropertyOp2
 70
     1
102
RTVSPropertyOp3
 70
     1
102
RTVSPropertyOp4
 70
     1
102
RTVSPropertyOp5
 70
     1
102
RTVSPropertyOp6
 70
     1
102
RTVSPropertyOp7
 70
     1
102
RTVSPropertyOp8
 70
     1
102
RTVSPropertyOp9
 70
     1
102
RTVSPropertyOp10
 70
     1
102
RTVSPropertyOp11
 70
     1
102
RTVSPropertyOp12
 70
     1
102
RTVSPropertyOp13
 70
     1
102
RTVSPropertyOp14
 70
     1
102
RTVSPropertyOp15
 70
     1
102
RTVSPropertyOp16
 70
     1
102
RTVSPropertyOp17
 70
     1
102
RTVSPropertyOp18
 70
     1
102
RTVSPropertyOp19
 70
     1
102
RTVSPropertyOp20
 70
     1
102
RTVSPropertyOp21
 70
     1
102
RTVSPropertyOp22
 70
     1
102
RTVSPropertyOp23
 70
     1
102
RTVSPropertyOp24
 70
     1
102
RTVSPropertyOp25
 70
     1
102
RTVSPropertyOp26
 70
     1
102
RTVSPropertyOp27
 70
     1
102
RTVSPropertyOp28
 70
     1
102
RTVSPropertyOp29
 70
     1
102
RTVSPropertyOp30
 70
     1
102
RTVSPropertyOp31
 70
     1
102
RTVSPropertyOp32
 70
     1
102
RTVSPropertyOp33
 70
     1
102
RTVSPropertyOp34
 70
     1
102
RTVSPropertyOp35
 70
     1
102
RTVSPropertyOp36
 70
     1
102
RTVSPropertyOp37
 70
     1
102
RTVSPropertyOp38
 70
     1
102
RTVSPropertyOp39
 70
     1
102
RTVSPropertyOp40
 70
     1
102
RTVSPropertyOp41
 70
     1
102
RTVSPropertyOp42
 70
     1
102
RTVSPropertyOp43
 70
     1
102
RTVSPropertyOp44
 70
     1
102
RTVSPropertyOp45
 70
     1
102
RTVSPropertyOp46
 70
     1
102
RTVSPropertyOp47
 70
     1
102
RTVSPropertyOp48
 70
     1
102
RTVSPropertyOp49
 70
     1
102
RTVSPropertyOp50
 70
     1
102
RTVSPropertyOp51
 70
     0
102
RTVSPropertyOp52
 70
     0
102
RTVSPropertyOp53
 70
     1
102
RTVSPropertyOp54
 70
     1
102
RTVSPropertyOp55
 70
     1
102
RTVSPropertyOp56
 70
     1
102
RTVSPropertyOp57
 70
     1
102
RTVSPropertyOp58
 70
     1
102
RTVSPropertyOp59
 70
     1
102
RTVSPropertyOp60
 70
     1
102
RTVSPropertyOp61
 70
     1
102
RTVSPropertyOp62
 70
     1
  0
XRECORD
  5
533
102
{ACAD_REACTORS
330
532
102
}
330
532
100
AcDbXrecord
280
     1
102
RTVSPost2010Prop28
280
     0
102
RTVSPost2010PropOp28
 70
     1
102
RTVSPost2010Prop29
280
     1
102
RTVSPost2010PropOp29
 70
     1
102
RTVSPost2010Prop30
280
     1
102
RTVSPost2010PropOp30
 70
     1
102
RTVSPost2010Prop31
280
     0
102
RTVSPost2010PropOp31
 70
     1
102
RTVSPost2010Prop32
280
     0
102
RTVSPost2010PropOp32
 70
     1
102
RTVSPost2010Prop33
280
     0
102
RTVSPost2010PropOp33
 70
     1
102
RTVSPost2010Prop34
280
     0
102
RTVSPost2010PropOp34
 70
     1
102
RTVSPost2010Prop35
280
     0
102
RTVSPost2010PropOp35
 70
     1
102
RTVSPost2010Prop36
280
     0
102
RTVSPost2010PropOp36
 70
     1
102
RTVSPost2010Prop37
 90
       50
102
RTVSPost2010PropOp37
 70
     0
102
RTVSPost2010Prop38
140
0.0
102
RTVSPost2010PropOp38
 70
     0
102
RTVSPost2010Prop39
140
1.0
102
RTVSPost2010PropOp39
 70
     0
102
RTVSPost2010Prop40
 90
        0
102
RTVSPost2010PropOp40
 70
     0
102
RTVSPost2010Prop41ColorIndex
 90
       18
102
RTVSPost2010Prop41ColorRGB
 90
        0
102
RTVSPost2010PropOp41
 70
     0
102
RTVSPost2010Prop42
 90
       50
102
RTVSPost2010PropOp42
 70
     0
102
RTVSPost2010Prop43
 90
        3
102
RTVSPost2010PropOp43
 70
     0
102
RTVSPost2010Prop44ColorIndex
 90
        5
102
RTVSPost2010Prop44ColorRGB
 90
      255
102
RTVSPost2010PropOp44
 70
     0
102
RTVSPost2010Prop45
280
     0
102
RTVSPost2010PropOp45
 70
     1
102
RTVSPost2010Prop46
 90
       50
102
RTVSPost2010PropOp46
 70
     0
102
RTVSPost2010Prop47
 90
       50
102
RTVSPost2010PropOp47
 70
     0
102
RTVSPost2010Prop48
 90
       50
102
RTVSPost2010PropOp48
 70
     0
102
RTVSPost2010Prop49
280
     0
102
RTVSPost2010PropOp49
 70
     1
102
RTVSPost2010Prop50
 90
       50
102
RTVSPost2010PropOp50
 70
     0
102
RTVSPost2010Prop51ColorIndex
 90
      256
102
RTVSPost2010Prop51ColorRGB
 90
-16777216
102
RTVSPost2010PropOp51
 70
     0
102
RTVSPost2010Prop52
140
1.0
102
RTVSPost2010PropOp52
 70
     0
102
RTVSPost2010Prop53
 90
        2
102
RTVSPost2010PropOp53
 70
     0
102
RTVSPost2010Prop54
  1
strokes_ogs.tif
102
RTVSPost2010PropOp54
 70
     0
102
RTVSPost2010Prop55
280
     0
102
RTVSPost2010PropOp55
 70
     1
102
RTVSPost2010Prop56
140
1.0
102
RTVSPost2010PropOp56
 70
     0
102
RTVSPost2010Prop57
140
1.0
102
RTVSPost2010PropOp57
 70
     0
102
RTVSPropertyOp0
 70
     0
102
RTVSPropertyOp1
 70
     0
102
RTVSPropertyOp2
 70
     0
102
RTVSPropertyOp3
 70
     0
102
RTVSPropertyOp4
 70
     0
102
RTVSPropertyOp5
 70
     0
102
RTVSPropertyOp6
 70
     0
102
RTVSPropertyOp7
 70
     0
102
RTVSPropertyOp8
 70
     0
102
RTVSPropertyOp9
 70
     0
102
RTVSPropertyOp10
 70
     0
102
RTVSPropertyOp11
 70
     0
102
RTVSPropertyOp12
 70
     0
102
RTVSPropertyOp13
 70
     0
102
RTVSPropertyOp14
 70
     2
102
RTVSPropertyOp15
 70
     0
102
RTVSPropertyOp16
 70
     0
102
RTVSPropertyOp17
 70
     0
102
RTVSPropertyOp18
 70
     0
102
RTVSPropertyOp19
 70
     0
102
RTVSPropertyOp20
 70
     0
102
RTVSPropertyOp21
 70
     0
102
RTVSPropertyOp22
 70
     0
102
RTVSPropertyOp23
 70
     0
102
RTVSPropertyOp24
 70
     0
102
RTVSPropertyOp25
 70
     0
102
RTVSPropertyOp26
 70
     0
102
RTVSPropertyOp27
 70
     0
102
RTVSPropertyOp28
 70
     1
102
RTVSPropertyOp29
 70
     1
102
RTVSPropertyOp30
 70
     1
102
RTVSPropertyOp31
 70
     1
102
RTVSPropertyOp32
 70
     1
102
RTVSPropertyOp33
 70
     1
102
RTVSPropertyOp34
 70
     1
102
RTVSPropertyOp35
 70
     1
102
RTVSPropertyOp36
 70
     1
102
RTVSPropertyOp37
 70
     0
102
RTVSPropertyOp38
 70
     0
102
RTVSPropertyOp39
 70
     0
102
RTVSPropertyOp40
 70
     0
102
RTVSPropertyOp41
 70
     0
102
RTVSPropertyOp42
 70
     0
102
RTVSPropertyOp43
 70
     0
102
RTVSPropertyOp44
 70
     0
102
RTVSPropertyOp45
 70
     1
102
RTVSPropertyOp46
 70
     0
102
RTVSPropertyOp47
 70
     0
102
RTVSPropertyOp48
 70
     0
102
RTVSPropertyOp49
 70
     1
102
RTVSPropertyOp50
 70
     0
102
RTVSPropertyOp51
 70
     0
102
RTVSPropertyOp52
 70
     0
102
RTVSPropertyOp53
 70
     0
102
RTVSPropertyOp54
 70
     0
102
RTVSPropertyOp55
 70
     1
102
RTVSPropertyOp56
 70
     0
102
RTVSPropertyOp57
 70
     0
102
RTVSPropertyOp58
 70
     0
102
RTVSPropertyOp59
 70
     0
102
RTVSPropertyOp60
 70
     0
102
RTVSPropertyOp61
 70
     0
102
RTVSPropertyOp62
 70
     0
  0
XRECORD
  5
521
102
{ACAD_REACTORS
330
520
102
}
330
520
100
AcDbXrecord
280
     1
102
RTVSPost2010Prop28
280
     0
102
RTVSPost2010PropOp28
 70
     1
102
RTVSPost2010Prop29
280
     1
102
RTVSPost2010PropOp29
 70
     1
102
RTVSPost2010Prop30
280
     1
102
RTVSPost2010PropOp30
 70
     1
102
RTVSPost2010Prop31
280
     0
102
RTVSPost2010PropOp31
 70
     1
102
RTVSPost2010Prop32
280
     0
102
RTVSPost2010PropOp32
 70
     1
102
RTVSPost2010Prop33
280
     0
102
RTVSPost2010PropOp33
 70
     1
102
RTVSPost2010Prop34
280
     0
102
RTVSPost2010PropOp34
 70
     1
102
RTVSPost2010Prop35
280
     0
102
RTVSPost2010PropOp35
 70
     1
102
RTVSPost2010Prop36
280
     0
102
RTVSPost2010PropOp36
 70
     1
102
RTVSPost2010Prop37
 90
       50
102
RTVSPost2010PropOp37
 70
     1
102
RTVSPost2010Prop38
140
0.0
102
RTVSPost2010PropOp38
 70
     1
102
RTVSPost2010Prop39
140
1.0
102
RTVSPost2010PropOp39
 70
     1
102
RTVSPost2010Prop40
 90
        0
102
RTVSPost2010PropOp40
 70
     1
102
RTVSPost2010Prop41ColorIndex
 90
       18
102
RTVSPost2010Prop41ColorRGB
 90
        0
102
RTVSPost2010PropOp41
 70
     1
102
RTVSPost2010Prop42
 90
       50
102
RTVSPost2010PropOp42
 70
     1
102
RTVSPost2010Prop43
 90
        3
102
RTVSPost2010PropOp43
 70
     1
102
RTVSPost2010Prop44ColorIndex
 90
        5
102
RTVSPost2010Prop44ColorRGB
 90
      255
102
RTVSPost2010PropOp44
 70
     1
102
RTVSPost2010Prop45
280
     0
102
RTVSPost2010PropOp45
 70
     1
102
RTVSPost2010Prop46
 90
       50
102
RTVSPost2010PropOp46
 70
     1
102
RTVSPost2010Prop47
 90
       50
102
RTVSPost2010PropOp47
 70
     1
102
RTVSPost2010Prop48
 90
       50
102
RTVSPost2010PropOp48
 70
     1
102
RTVSPost2010Prop49
280
     0
102
RTVSPost2010PropOp49
 70
     1
102
RTVSPost2010Prop50
 90
       50
102
RTVSPost2010PropOp50
 70
     1
102
RTVSPost2010Prop51ColorIndex
 90
      256
102
RTVSPost2010Prop51ColorRGB
 90
-16777216
102
RTVSPost2010PropOp51
 70
     0
102
RTVSPost2010Prop52
140
1.0
102
RTVSPost2010PropOp52
 70
     0
102
RTVSPost2010Prop53
 90
        2
102
RTVSPost2010PropOp53
 70
     1
102
RTVSPost2010Prop54
  1
strokes_ogs.tif
102
RTVSPost2010PropOp54
 70
     1
102
RTVSPost2010Prop55
280
     0
102
RTVSPost2010PropOp55
 70
     1
102
RTVSPost2010Prop56
140
1.0
102
RTVSPost2010PropOp56
 70
     1
102
RTVSPost2010Prop57
140
1.0
102
RTVSPost2010PropOp57
 70
     1
102
RTVSPropertyOp0
 70
     1
102
RTVSPropertyOp1
 70
     1
102
RTVSPropertyOp2
 70
     1
102
RTVSPropertyOp3
 70
     1
102
RTVSPropertyOp4
 70
     1
102
RTVSPropertyOp5
 70
     1
102
RTVSPropertyOp6
 70
     1
102
RTVSPropertyOp7
 70
     1
102
RTVSPropertyOp8
 70
     1
102
RTVSPropertyOp9
 70
     1
102
RTVSPropertyOp10
 70
     1
102
RTVSPropertyOp11
 70
     1
102
RTVSPropertyOp12
 70
     1
102
RTVSPropertyOp13
 70
     1
102
RTVSPropertyOp14
 70
     1
102
RTVSPropertyOp15
 70
     1
102
RTVSPropertyOp16
 70
     1
102
RTVSPropertyOp17
 70
     1
102
RTVSPropertyOp18
 70
     1
102
RTVSPropertyOp19
 70
     1
102
RTVSPropertyOp20
 70
     1
102
RTVSPropertyOp21
 70
     1
102
RTVSPropertyOp22
 70
     1
102
RTVSPropertyOp23
 70
     1
102
RTVSPropertyOp24
 70
     1
102
RTVSPropertyOp25
 70
     1
102
RTVSPropertyOp26
 70
     1
102
RTVSPropertyOp27
 70
     1
102
RTVSPropertyOp28
 70
     1
102
RTVSPropertyOp29
 70
     1
102
RTVSPropertyOp30
 70
     1
102
RTVSPropertyOp31
 70
     1
102
RTVSPropertyOp32
 70
     1
102
RTVSPropertyOp33
 70
     1
102
RTVSPropertyOp34
 70
     1
102
RTVSPropertyOp35
 70
     1
102
RTVSPropertyOp36
 70
     1
102
RTVSPropertyOp37
 70
     1
102
RTVSPropertyOp38
 70
     1
102
RTVSPropertyOp39
 70
     1
102
RTVSPropertyOp40
 70
     1
102
RTVSPropertyOp41
 70
     1
102
RTVSPropertyOp42
 70
     1
102
RTVSPropertyOp43
 70
     1
102
RTVSPropertyOp44
 70
     1
102
RTVSPropertyOp45
 70
     1
102
RTVSPropertyOp46
 70
     1
102
RTVSPropertyOp47
 70
     1
102
RTVSPropertyOp48
 70
     1
102
RTVSPropertyOp49
 70
     1
102
RTVSPropertyOp50
 70
     1
102
RTVSPropertyOp51
 70
     0
102
RTVSPropertyOp52
 70
     0
102
RTVSPropertyOp53
 70
     1
102
RTVSPropertyOp54
 70
     1
102
RTVSPropertyOp55
 70
     1
102
RTVSPropertyOp56
 70
     1
102
RTVSPropertyOp57
 70
     1
102
RTVSPropertyOp58
 70
     1
102
RTVSPropertyOp59
 70
     1
102
RTVSPropertyOp60
 70
     1
102
RTVSPropertyOp61
 70
     1
102
RTVSPropertyOp62
 70
     1
  0
XRECORD
  5
505
102
{ACAD_REACTORS
330
504
102
}
330
504
100
AcDbXrecord
280
     1
102
RTVSPost2010Prop28
280
     0
102
RTVSPost2010PropOp28
 70
     1
102
RTVSPost2010Prop29
280
     1
102
RTVSPost2010PropOp29
 70
     1
102
RTVSPost2010Prop30
280
     1
102
RTVSPost2010PropOp30
 70
     1
102
RTVSPost2010Prop31
280
     0
102
RTVSPost2010PropOp31
 70
     1
102
RTVSPost2010Prop32
280
     0
102
RTVSPost2010PropOp32
 70
     1
102
RTVSPost2010Prop33
280
     0
102
RTVSPost2010PropOp33
 70
     1
102
RTVSPost2010Prop34
280
     0
102
RTVSPost2010PropOp34
 70
     1
102
RTVSPost2010Prop35
280
     0
102
RTVSPost2010PropOp35
 70
     1
102
RTVSPost2010Prop36
280
     0
102
RTVSPost2010PropOp36
 70
     1
102
RTVSPost2010Prop37
 90
       50
102
RTVSPost2010PropOp37
 70
     1
102
RTVSPost2010Prop38
140
0.0
102
RTVSPost2010PropOp38
 70
     1
102
RTVSPost2010Prop39
140
1.0
102
RTVSPost2010PropOp39
 70
     1
102
RTVSPost2010Prop40
 90
        0
102
RTVSPost2010PropOp40
 70
     1
102
RTVSPost2010Prop41ColorIndex
 90
       18
102
RTVSPost2010Prop41ColorRGB
 90
        0
102
RTVSPost2010PropOp41
 70
     1
102
RTVSPost2010Prop42
 90
       50
102
RTVSPost2010PropOp42
 70
     1
102
RTVSPost2010Prop43
 90
        3
102
RTVSPost2010PropOp43
 70
     1
102
RTVSPost2010Prop44ColorIndex
 90
        5
102
RTVSPost2010Prop44ColorRGB
 90
      255
102
RTVSPost2010PropOp44
 70
     1
102
RTVSPost2010Prop45
280
     0
102
RTVSPost2010PropOp45
 70
     1
102
RTVSPost2010Prop46
 90
       50
102
RTVSPost2010PropOp46
 70
     1
102
RTVSPost2010Prop47
 90
       50
102
RTVSPost2010PropOp47
 70
     1
102
RTVSPost2010Prop48
 90
       50
102
RTVSPost2010PropOp48
 70
     1
102
RTVSPost2010Prop49
280
     0
102
RTVSPost2010PropOp49
 70
     1
102
RTVSPost2010Prop50
 90
       50
102
RTVSPost2010PropOp50
 70
     1
102
RTVSPost2010Prop51ColorIndex
 90
      256
102
RTVSPost2010Prop51ColorRGB
 90
-16777216
102
RTVSPost2010PropOp51
 70
     0
102
RTVSPost2010Prop52
140
1.0
102
RTVSPost2010PropOp52
 70
     0
102
RTVSPost2010Prop53
 90
        2
102
RTVSPost2010PropOp53
 70
     1
102
RTVSPost2010Prop54
  1
strokes_ogs.tif
102
RTVSPost2010PropOp54
 70
     1
102
RTVSPost2010Prop55
280
     0
102
RTVSPost2010PropOp55
 70
     1
102
RTVSPost2010Prop56
140
1.0
102
RTVSPost2010PropOp56
 70
     1
102
RTVSPost2010Prop57
140
1.0
102
RTVSPost2010PropOp57
 70
     1
102
RTVSPropertyOp0
 70
     1
102
RTVSPropertyOp1
 70
     1
102
RTVSPropertyOp2
 70
     1
102
RTVSPropertyOp3
 70
     1
102
RTVSPropertyOp4
 70
     1
102
RTVSPropertyOp5
 70
     1
102
RTVSPropertyOp6
 70
     1
102
RTVSPropertyOp7
 70
     1
102
RTVSPropertyOp8
 70
     1
102
RTVSPropertyOp9
 70
     1
102
RTVSPropertyOp10
 70
     1
102
RTVSPropertyOp11
 70
     1
102
RTVSPropertyOp12
 70
     1
102
RTVSPropertyOp13
 70
     1
102
RTVSPropertyOp14
 70
     1
102
RTVSPropertyOp15
 70
     1
102
RTVSPropertyOp16
 70
     1
102
RTVSPropertyOp17
 70
     1
102
RTVSPropertyOp18
 70
     1
102
RTVSPropertyOp19
 70
     1
102
RTVSPropertyOp20
 70
     1
102
RTVSPropertyOp21
 70
     1
102
RTVSPropertyOp22
 70
     1
102
RTVSPropertyOp23
 70
     1
102
RTVSPropertyOp24
 70
     1
102
RTVSPropertyOp25
 70
     1
102
RTVSPropertyOp26
 70
     1
102
RTVSPropertyOp27
 70
     1
102
RTVSPropertyOp28
 70
     1
102
RTVSPropertyOp29
 70
     1
102
RTVSPropertyOp30
 70
     1
102
RTVSPropertyOp31
 70
     1
102
RTVSPropertyOp32
 70
     1
102
RTVSPropertyOp33
 70
     1
102
RTVSPropertyOp34
 70
     1
102
RTVSPropertyOp35
 70
     1
102
RTVSPropertyOp36
 70
     1
102
RTVSPropertyOp37
 70
     1
102
RTVSPropertyOp38
 70
     1
102
RTVSPropertyOp39
 70
     1
102
RTVSPropertyOp40
 70
     1
102
RTVSPropertyOp41
 70
     1
102
RTVSPropertyOp42
 70
     1
102
RTVSPropertyOp43
 70
     1
102
RTVSPropertyOp44
 70
     1
102
RTVSPropertyOp45
 70
     1
102
RTVSPropertyOp46
 70
     1
102
RTVSPropertyOp47
 70
     1
102
RTVSPropertyOp48
 70
     1
102
RTVSPropertyOp49
 70
     1
102
RTVSPropertyOp50
 70
     1
102
RTVSPropertyOp51
 70
     0
102
RTVSPropertyOp52
 70
     0
102
RTVSPropertyOp53
 70
     1
102
RTVSPropertyOp54
 70
     1
102
RTVSPropertyOp55
 70
     1
102
RTVSPropertyOp56
 70
     1
102
RTVSPropertyOp57
 70
     1
102
RTVSPropertyOp58
 70
     1
102
RTVSPropertyOp59
 70
     1
102
RTVSPropertyOp60
 70
     1
102
RTVSPropertyOp61
 70
     1
102
RTVSPropertyOp62
 70
     1
  0
XRECORD
  5
507
102
{ACAD_REACTORS
330
506
102
}
330
506
100
AcDbXrecord
280
     1
102
RTVSPost2010Prop28
280
     0
102
RTVSPost2010PropOp28
 70
     1
102
RTVSPost2010Prop29
280
     1
102
RTVSPost2010PropOp29
 70
     1
102
RTVSPost2010Prop30
280
     1
102
RTVSPost2010PropOp30
 70
     1
102
RTVSPost2010Prop31
280
     0
102
RTVSPost2010PropOp31
 70
     1
102
RTVSPost2010Prop32
280
     0
102
RTVSPost2010PropOp32
 70
     1
102
RTVSPost2010Prop33
280
     0
102
RTVSPost2010PropOp33
 70
     1
102
RTVSPost2010Prop34
280
     0
102
RTVSPost2010PropOp34
 70
     1
102
RTVSPost2010Prop35
280
     0
102
RTVSPost2010PropOp35
 70
     1
102
RTVSPost2010Prop36
280
     0
102
RTVSPost2010PropOp36
 70
     1
102
RTVSPost2010Prop37
 90
       50
102
RTVSPost2010PropOp37
 70
     1
102
RTVSPost2010Prop38
140
0.0
102
RTVSPost2010PropOp38
 70
     1
102
RTVSPost2010Prop39
140
1.0
102
RTVSPost2010PropOp39
 70
     1
102
RTVSPost2010Prop40
 90
        0
102
RTVSPost2010PropOp40
 70
     1
102
RTVSPost2010Prop41ColorIndex
 90
       18
102
RTVSPost2010Prop41ColorRGB
 90
        0
102
RTVSPost2010PropOp41
 70
     1
102
RTVSPost2010Prop42
 90
       50
102
RTVSPost2010PropOp42
 70
     1
102
RTVSPost2010Prop43
 90
        3
102
RTVSPost2010PropOp43
 70
     1
102
RTVSPost2010Prop44ColorIndex
 90
        5
102
RTVSPost2010Prop44ColorRGB
 90
      255
102
RTVSPost2010PropOp44
 70
     1
102
RTVSPost2010Prop45
280
     0
102
RTVSPost2010PropOp45
 70
     1
102
RTVSPost2010Prop46
 90
       50
102
RTVSPost2010PropOp46
 70
     1
102
RTVSPost2010Prop47
 90
       50
102
RTVSPost2010PropOp47
 70
     1
102
RTVSPost2010Prop48
 90
       50
102
RTVSPost2010PropOp48
 70
     1
102
RTVSPost2010Prop49
280
     0
102
RTVSPost2010PropOp49
 70
     1
102
RTVSPost2010Prop50
 90
       50
102
RTVSPost2010PropOp50
 70
     1
102
RTVSPost2010Prop51ColorIndex
 90
      256
102
RTVSPost2010Prop51ColorRGB
 90
-16777216
102
RTVSPost2010PropOp51
 70
     0
102
RTVSPost2010Prop52
140
1.0
102
RTVSPost2010PropOp52
 70
     0
102
RTVSPost2010Prop53
 90
        2
102
RTVSPost2010PropOp53
 70
     1
102
RTVSPost2010Prop54
  1
strokes_ogs.tif
102
RTVSPost2010PropOp54
 70
     1
102
RTVSPost2010Prop55
280
     0
102
RTVSPost2010PropOp55
 70
     1
102
RTVSPost2010Prop56
140
1.0
102
RTVSPost2010PropOp56
 70
     1
102
RTVSPost2010Prop57
140
1.0
102
RTVSPost2010PropOp57
 70
     1
102
RTVSPropertyOp0
 70
     1
102
RTVSPropertyOp1
 70
     1
102
RTVSPropertyOp2
 70
     1
102
RTVSPropertyOp3
 70
     1
102
RTVSPropertyOp4
 70
     1
102
RTVSPropertyOp5
 70
     1
102
RTVSPropertyOp6
 70
     1
102
RTVSPropertyOp7
 70
     1
102
RTVSPropertyOp8
 70
     1
102
RTVSPropertyOp9
 70
     1
102
RTVSPropertyOp10
 70
     1
102
RTVSPropertyOp11
 70
     1
102
RTVSPropertyOp12
 70
     1
102
RTVSPropertyOp13
 70
     1
102
RTVSPropertyOp14
 70
     1
102
RTVSPropertyOp15
 70
     1
102
RTVSPropertyOp16
 70
     1
102
RTVSPropertyOp17
 70
     1
102
RTVSPropertyOp18
 70
     1
102
RTVSPropertyOp19
 70
     1
102
RTVSPropertyOp20
 70
     1
102
RTVSPropertyOp21
 70
     1
102
RTVSPropertyOp22
 70
     1
102
RTVSPropertyOp23
 70
     1
102
RTVSPropertyOp24
 70
     1
102
RTVSPropertyOp25
 70
     1
102
RTVSPropertyOp26
 70
     1
102
RTVSPropertyOp27
 70
     1
102
RTVSPropertyOp28
 70
     1
102
RTVSPropertyOp29
 70
     1
102
RTVSPropertyOp30
 70
     1
102
RTVSPropertyOp31
 70
     1
102
RTVSPropertyOp32
 70
     1
102
RTVSPropertyOp33
 70
     1
102
RTVSPropertyOp34
 70
     1
102
RTVSPropertyOp35
 70
     1
102
RTVSPropertyOp36
 70
     1
102
RTVSPropertyOp37
 70
     1
102
RTVSPropertyOp38
 70
     1
102
RTVSPropertyOp39
 70
     1
102
RTVSPropertyOp40
 70
     1
102
RTVSPropertyOp41
 70
     1
102
RTVSPropertyOp42
 70
     1
102
RTVSPropertyOp43
 70
     1
102
RTVSPropertyOp44
 70
     1
102
RTVSPropertyOp45
 70
     1
102
RTVSPropertyOp46
 70
     1
102
RTVSPropertyOp47
 70
     1
102
RTVSPropertyOp48
 70
     1
102
RTVSPropertyOp49
 70
     1
102
RTVSPropertyOp50
 70
     1
102
RTVSPropertyOp51
 70
     0
102
RTVSPropertyOp52
 70
     0
102
RTVSPropertyOp53
 70
     1
102
RTVSPropertyOp54
 70
     1
102
RTVSPropertyOp55
 70
     1
102
RTVSPropertyOp56
 70
     1
102
RTVSPropertyOp57
 70
     1
102
RTVSPropertyOp58
 70
     1
102
RTVSPropertyOp59
 70
     1
102
RTVSPropertyOp60
 70
     1
102
RTVSPropertyOp61
 70
     1
102
RTVSPropertyOp62
 70
     1
  0
XRECORD
  5
509
102
{ACAD_REACTORS
330
508
102
}
330
508
100
AcDbXrecord
280
     1
102
RTVSPost2010Prop28
280
     0
102
RTVSPost2010PropOp28
 70
     1
102
RTVSPost2010Prop29
280
     1
102
RTVSPost2010PropOp29
 70
     1
102
RTVSPost2010Prop30
280
     1
102
RTVSPost2010PropOp30
 70
     1
102
RTVSPost2010Prop31
280
     0
102
RTVSPost2010PropOp31
 70
     1
102
RTVSPost2010Prop32
280
     0
102
RTVSPost2010PropOp32
 70
     1
102
RTVSPost2010Prop33
280
     0
102
RTVSPost2010PropOp33
 70
     1
102
RTVSPost2010Prop34
280
     0
102
RTVSPost2010PropOp34
 70
     1
102
RTVSPost2010Prop35
280
     0
102
RTVSPost2010PropOp35
 70
     1
102
RTVSPost2010Prop36
280
     0
102
RTVSPost2010PropOp36
 70
     1
102
RTVSPost2010Prop37
 90
       50
102
RTVSPost2010PropOp37
 70
     1
102
RTVSPost2010Prop38
140
0.0
102
RTVSPost2010PropOp38
 70
     1
102
RTVSPost2010Prop39
140
1.0
102
RTVSPost2010PropOp39
 70
     1
102
RTVSPost2010Prop40
 90
        0
102
RTVSPost2010PropOp40
 70
     1
102
RTVSPost2010Prop41ColorIndex
 90
       18
102
RTVSPost2010Prop41ColorRGB
 90
        0
102
RTVSPost2010PropOp41
 70
     1
102
RTVSPost2010Prop42
 90
       50
102
RTVSPost2010PropOp42
 70
     1
102
RTVSPost2010Prop43
 90
        3
102
RTVSPost2010PropOp43
 70
     1
102
RTVSPost2010Prop44ColorIndex
 90
        5
102
RTVSPost2010Prop44ColorRGB
 90
      255
102
RTVSPost2010PropOp44
 70
     1
102
RTVSPost2010Prop45
280
     0
102
RTVSPost2010PropOp45
 70
     1
102
RTVSPost2010Prop46
 90
       50
102
RTVSPost2010PropOp46
 70
     1
102
RTVSPost2010Prop47
 90
       50
102
RTVSPost2010PropOp47
 70
     1
102
RTVSPost2010Prop48
 90
       50
102
RTVSPost2010PropOp48
 70
     1
102
RTVSPost2010Prop49
280
     0
102
RTVSPost2010PropOp49
 70
     1
102
RTVSPost2010Prop50
 90
       50
102
RTVSPost2010PropOp50
 70
     1
102
RTVSPost2010Prop51ColorIndex
 90
      256
102
RTVSPost2010Prop51ColorRGB
 90
-16777216
102
RTVSPost2010PropOp51
 70
     0
102
RTVSPost2010Prop52
140
1.0
102
RTVSPost2010PropOp52
 70
     0
102
RTVSPost2010Prop53
 90
        2
102
RTVSPost2010PropOp53
 70
     1
102
RTVSPost2010Prop54
  1
strokes_ogs.tif
102
RTVSPost2010PropOp54
 70
     1
102
RTVSPost2010Prop55
280
     0
102
RTVSPost2010PropOp55
 70
     1
102
RTVSPost2010Prop56
140
1.0
102
RTVSPost2010PropOp56
 70
     1
102
RTVSPost2010Prop57
140
1.0
102
RTVSPost2010PropOp57
 70
     1
102
RTVSPropertyOp0
 70
     1
102
RTVSPropertyOp1
 70
     1
102
RTVSPropertyOp2
 70
     1
102
RTVSPropertyOp3
 70
     1
102
RTVSPropertyOp4
 70
     1
102
RTVSPropertyOp5
 70
     1
102
RTVSPropertyOp6
 70
     1
102
RTVSPropertyOp7
 70
     1
102
RTVSPropertyOp8
 70
     1
102
RTVSPropertyOp9
 70
     1
102
RTVSPropertyOp10
 70
     1
102
RTVSPropertyOp11
 70
     1
102
RTVSPropertyOp12
 70
     1
102
RTVSPropertyOp13
 70
     1
102
RTVSPropertyOp14
 70
     1
102
RTVSPropertyOp15
 70
     1
102
RTVSPropertyOp16
 70
     1
102
RTVSPropertyOp17
 70
     1
102
RTVSPropertyOp18
 70
     1
102
RTVSPropertyOp19
 70
     1
102
RTVSPropertyOp20
 70
     1
102
RTVSPropertyOp21
 70
     1
102
RTVSPropertyOp22
 70
     1
102
RTVSPropertyOp23
 70
     1
102
RTVSPropertyOp24
 70
     1
102
RTVSPropertyOp25
 70
     1
102
RTVSPropertyOp26
 70
     1
102
RTVSPropertyOp27
 70
     1
102
RTVSPropertyOp28
 70
     1
102
RTVSPropertyOp29
 70
     1
102
RTVSPropertyOp30
 70
     1
102
RTVSPropertyOp31
 70
     1
102
RTVSPropertyOp32
 70
     1
102
RTVSPropertyOp33
 70
     1
102
RTVSPropertyOp34
 70
     1
102
RTVSPropertyOp35
 70
     1
102
RTVSPropertyOp36
 70
     1
102
RTVSPropertyOp37
 70
     1
102
RTVSPropertyOp38
 70
     1
102
RTVSPropertyOp39
 70
     1
102
RTVSPropertyOp40
 70
     1
102
RTVSPropertyOp41
 70
     1
102
RTVSPropertyOp42
 70
     1
102
RTVSPropertyOp43
 70
     1
102
RTVSPropertyOp44
 70
     1
102
RTVSPropertyOp45
 70
     1
102
RTVSPropertyOp46
 70
     1
102
RTVSPropertyOp47
 70
     1
102
RTVSPropertyOp48
 70
     1
102
RTVSPropertyOp49
 70
     1
102
RTVSPropertyOp50
 70
     1
102
RTVSPropertyOp51
 70
     0
102
RTVSPropertyOp52
 70
     0
102
RTVSPropertyOp53
 70
     1
102
RTVSPropertyOp54
 70
     1
102
RTVSPropertyOp55
 70
     1
102
RTVSPropertyOp56
 70
     1
102
RTVSPropertyOp57
 70
     1
102
RTVSPropertyOp58
 70
     1
102
RTVSPropertyOp59
 70
     1
102
RTVSPropertyOp60
 70
     1
102
RTVSPropertyOp61
 70
     1
102
RTVSPropertyOp62
 70
     1
  0
XRECORD
  5
50B
102
{ACAD_REACTORS
330
50A
102
}
330
50A
100
AcDbXrecord
280
     1
102
RTVSPost2010Prop28
280
     0
102
RTVSPost2010PropOp28
 70
     1
102
RTVSPost2010Prop29
280
     1
102
RTVSPost2010PropOp29
 70
     1
102
RTVSPost2010Prop30
280
     1
102
RTVSPost2010PropOp30
 70
     1
102
RTVSPost2010Prop31
280
     0
102
RTVSPost2010PropOp31
 70
     1
102
RTVSPost2010Prop32
280
     0
102
RTVSPost2010PropOp32
 70
     1
102
RTVSPost2010Prop33
280
     0
102
RTVSPost2010PropOp33
 70
     1
102
RTVSPost2010Prop34
280
     0
102
RTVSPost2010PropOp34
 70
     1
102
RTVSPost2010Prop35
280
     0
102
RTVSPost2010PropOp35
 70
     1
102
RTVSPost2010Prop36
280
     0
102
RTVSPost2010PropOp36
 70
     1
102
RTVSPost2010Prop37
 90
       50
102
RTVSPost2010PropOp37
 70
     1
102
RTVSPost2010Prop38
140
0.0
102
RTVSPost2010PropOp38
 70
     1
102
RTVSPost2010Prop39
140
1.0
102
RTVSPost2010PropOp39
 70
     1
102
RTVSPost2010Prop40
 90
        0
102
RTVSPost2010PropOp40
 70
     1
102
RTVSPost2010Prop41ColorIndex
 90
       18
102
RTVSPost2010Prop41ColorRGB
 90
        0
102
RTVSPost2010PropOp41
 70
     1
102
RTVSPost2010Prop42
 90
       50
102
RTVSPost2010PropOp42
 70
     1
102
RTVSPost2010Prop43
 90
        3
102
RTVSPost2010PropOp43
 70
     1
102
RTVSPost2010Prop44ColorIndex
 90
        5
102
RTVSPost2010Prop44ColorRGB
 90
      255
102
RTVSPost2010PropOp44
 70
     1
102
RTVSPost2010Prop45
280
     0
102
RTVSPost2010PropOp45
 70
     1
102
RTVSPost2010Prop46
 90
       50
102
RTVSPost2010PropOp46
 70
     1
102
RTVSPost2010Prop47
 90
       50
102
RTVSPost2010PropOp47
 70
     1
102
RTVSPost2010Prop48
 90
       50
102
RTVSPost2010PropOp48
 70
     1
102
RTVSPost2010Prop49
280
     0
102
RTVSPost2010PropOp49
 70
     1
102
RTVSPost2010Prop50
 90
       50
102
RTVSPost2010PropOp50
 70
     1
102
RTVSPost2010Prop51ColorIndex
 90
      256
102
RTVSPost2010Prop51ColorRGB
 90
-16777216
102
RTVSPost2010PropOp51
 70
     0
102
RTVSPost2010Prop52
140
1.0
102
RTVSPost2010PropOp52
 70
     0
102
RTVSPost2010Prop53
 90
        2
102
RTVSPost2010PropOp53
 70
     1
102
RTVSPost2010Prop54
  1
strokes_ogs.tif
102
RTVSPost2010PropOp54
 70
     1
102
RTVSPost2010Prop55
280
     0
102
RTVSPost2010PropOp55
 70
     1
102
RTVSPost2010Prop56
140
1.0
102
RTVSPost2010PropOp56
 70
     1
102
RTVSPost2010Prop57
140
1.0
102
RTVSPost2010PropOp57
 70
     1
102
RTVSPropertyOp0
 70
     1
102
RTVSPropertyOp1
 70
     1
102
RTVSPropertyOp2
 70
     1
102
RTVSPropertyOp3
 70
     1
102
RTVSPropertyOp4
 70
     1
102
RTVSPropertyOp5
 70
     1
102
RTVSPropertyOp6
 70
     1
102
RTVSPropertyOp7
 70
     1
102
RTVSPropertyOp8
 70
     1
102
RTVSPropertyOp9
 70
     1
102
RTVSPropertyOp10
 70
     1
102
RTVSPropertyOp11
 70
     1
102
RTVSPropertyOp12
 70
     1
102
RTVSPropertyOp13
 70
     1
102
RTVSPropertyOp14
 70
     1
102
RTVSPropertyOp15
 70
     1
102
RTVSPropertyOp16
 70
     1
102
RTVSPropertyOp17
 70
     1
102
RTVSPropertyOp18
 70
     1
102
RTVSPropertyOp19
 70
     1
102
RTVSPropertyOp20
 70
     1
102
RTVSPropertyOp21
 70
     1
102
RTVSPropertyOp22
 70
     1
102
RTVSPropertyOp23
 70
     1
102
RTVSPropertyOp24
 70
     1
102
RTVSPropertyOp25
 70
     1
102
RTVSPropertyOp26
 70
     1
102
RTVSPropertyOp27
 70
     1
102
RTVSPropertyOp28
 70
     1
102
RTVSPropertyOp29
 70
     1
102
RTVSPropertyOp30
 70
     1
102
RTVSPropertyOp31
 70
     1
102
RTVSPropertyOp32
 70
     1
102
RTVSPropertyOp33
 70
     1
102
RTVSPropertyOp34
 70
     1
102
RTVSPropertyOp35
 70
     1
102
RTVSPropertyOp36
 70
     1
102
RTVSPropertyOp37
 70
     1
102
RTVSPropertyOp38
 70
     1
102
RTVSPropertyOp39
 70
     1
102
RTVSPropertyOp40
 70
     1
102
RTVSPropertyOp41
 70
     1
102
RTVSPropertyOp42
 70
     1
102
RTVSPropertyOp43
 70
     1
102
RTVSPropertyOp44
 70
     1
102
RTVSPropertyOp45
 70
     1
102
RTVSPropertyOp46
 70
     1
102
RTVSPropertyOp47
 70
     1
102
RTVSPropertyOp48
 70
     1
102
RTVSPropertyOp49
 70
     1
102
RTVSPropertyOp50
 70
     1
102
RTVSPropertyOp51
 70
     0
102
RTVSPropertyOp52
 70
     0
102
RTVSPropertyOp53
 70
     1
102
RTVSPropertyOp54
 70
     1
102
RTVSPropertyOp55
 70
     1
102
RTVSPropertyOp56
 70
     1
102
RTVSPropertyOp57
 70
     1
102
RTVSPropertyOp58
 70
     1
102
RTVSPropertyOp59
 70
     1
102
RTVSPropertyOp60
 70
     1
102
RTVSPropertyOp61
 70
     1
102
RTVSPropertyOp62
 70
     1
  0
XRECORD
  5
513
102
{ACAD_REACTORS
330
512
102
}
330
512
100
AcDbXrecord
280
     1
102
RTVSPost2010Prop28
280
     0
102
RTVSPost2010PropOp28
 70
     1
102
RTVSPost2010Prop29
280
     1
102
RTVSPost2010PropOp29
 70
     1
102
RTVSPost2010Prop30
280
     1
102
RTVSPost2010PropOp30
 70
     1
102
RTVSPost2010Prop31
280
     0
102
RTVSPost2010PropOp31
 70
     1
102
RTVSPost2010Prop32
280
     0
102
RTVSPost2010PropOp32
 70
     1
102
RTVSPost2010Prop33
280
     0
102
RTVSPost2010PropOp33
 70
     1
102
RTVSPost2010Prop34
280
     0
102
RTVSPost2010PropOp34
 70
     1
102
RTVSPost2010Prop35
280
     0
102
RTVSPost2010PropOp35
 70
     1
102
RTVSPost2010Prop36
280
     0
102
RTVSPost2010PropOp36
 70
     1
102
RTVSPost2010Prop37
 90
       50
102
RTVSPost2010PropOp37
 70
     1
102
RTVSPost2010Prop38
140
0.0
102
RTVSPost2010PropOp38
 70
     1
102
RTVSPost2010Prop39
140
1.0
102
RTVSPost2010PropOp39
 70
     1
102
RTVSPost2010Prop40
 90
        0
102
RTVSPost2010PropOp40
 70
     1
102
RTVSPost2010Prop41ColorIndex
 90
       18
102
RTVSPost2010Prop41ColorRGB
 90
        0
102
RTVSPost2010PropOp41
 70
     1
102
RTVSPost2010Prop42
 90
       50
102
RTVSPost2010PropOp42
 70
     1
102
RTVSPost2010Prop43
 90
        3
102
RTVSPost2010PropOp43
 70
     1
102
RTVSPost2010Prop44ColorIndex
 90
        5
102
RTVSPost2010Prop44ColorRGB
 90
      255
102
RTVSPost2010PropOp44
 70
     1
102
RTVSPost2010Prop45
280
     0
102
RTVSPost2010PropOp45
 70
     1
102
RTVSPost2010Prop46
 90
       50
102
RTVSPost2010PropOp46
 70
     1
102
RTVSPost2010Prop47
 90
       50
102
RTVSPost2010PropOp47
 70
     1
102
RTVSPost2010Prop48
 90
       50
102
RTVSPost2010PropOp48
 70
     1
102
RTVSPost2010Prop49
280
     0
102
RTVSPost2010PropOp49
 70
     1
102
RTVSPost2010Prop50
 90
       50
102
RTVSPost2010PropOp50
 70
     1
102
RTVSPost2010Prop51ColorIndex
 90
      256
102
RTVSPost2010Prop51ColorRGB
 90
-16777216
102
RTVSPost2010PropOp51
 70
     0
102
RTVSPost2010Prop52
140
1.0
102
RTVSPost2010PropOp52
 70
     0
102
RTVSPost2010Prop53
 90
        2
102
RTVSPost2010PropOp53
 70
     1
102
RTVSPost2010Prop54
  1
strokes_ogs.tif
102
RTVSPost2010PropOp54
 70
     1
102
RTVSPost2010Prop55
280
     0
102
RTVSPost2010PropOp55
 70
     1
102
RTVSPost2010Prop56
140
1.0
102
RTVSPost2010PropOp56
 70
     1
102
RTVSPost2010Prop57
140
1.0
102
RTVSPost2010PropOp57
 70
     1
102
RTVSPropertyOp0
 70
     1
102
RTVSPropertyOp1
 70
     1
102
RTVSPropertyOp2
 70
     1
102
RTVSPropertyOp3
 70
     1
102
RTVSPropertyOp4
 70
     1
102
RTVSPropertyOp5
 70
     1
102
RTVSPropertyOp6
 70
     1
102
RTVSPropertyOp7
 70
     1
102
RTVSPropertyOp8
 70
     1
102
RTVSPropertyOp9
 70
     1
102
RTVSPropertyOp10
 70
     1
102
RTVSPropertyOp11
 70
     1
102
RTVSPropertyOp12
 70
     1
102
RTVSPropertyOp13
 70
     1
102
RTVSPropertyOp14
 70
     1
102
RTVSPropertyOp15
 70
     1
102
RTVSPropertyOp16
 70
     1
102
RTVSPropertyOp17
 70
     1
102
RTVSPropertyOp18
 70
     1
102
RTVSPropertyOp19
 70
     1
102
RTVSPropertyOp20
 70
     1
102
RTVSPropertyOp21
 70
     1
102
RTVSPropertyOp22
 70
     1
102
RTVSPropertyOp23
 70
     1
102
RTVSPropertyOp24
 70
     1
102
RTVSPropertyOp25
 70
     1
102
RTVSPropertyOp26
 70
     1
102
RTVSPropertyOp27
 70
     1
102
RTVSPropertyOp28
 70
     1
102
RTVSPropertyOp29
 70
     1
102
RTVSPropertyOp30
 70
     1
102
RTVSPropertyOp31
 70
     1
102
RTVSPropertyOp32
 70
     1
102
RTVSPropertyOp33
 70
     1
102
RTVSPropertyOp34
 70
     1
102
RTVSPropertyOp35
 70
     1
102
RTVSPropertyOp36
 70
     1
102
RTVSPropertyOp37
 70
     1
102
RTVSPropertyOp38
 70
     1
102
RTVSPropertyOp39
 70
     1
102
RTVSPropertyOp40
 70
     1
102
RTVSPropertyOp41
 70
     1
102
RTVSPropertyOp42
 70
     1
102
RTVSPropertyOp43
 70
     1
102
RTVSPropertyOp44
 70
     1
102
RTVSPropertyOp45
 70
     1
102
RTVSPropertyOp46
 70
     1
102
RTVSPropertyOp47
 70
     1
102
RTVSPropertyOp48
 70
     1
102
RTVSPropertyOp49
 70
     1
102
RTVSPropertyOp50
 70
     1
102
RTVSPropertyOp51
 70
     0
102
RTVSPropertyOp52
 70
     0
102
RTVSPropertyOp53
 70
     1
102
RTVSPropertyOp54
 70
     1
102
RTVSPropertyOp55
 70
     1
102
RTVSPropertyOp56
 70
     1
102
RTVSPropertyOp57
 70
     1
102
RTVSPropertyOp58
 70
     1
102
RTVSPropertyOp59
 70
     1
102
RTVSPropertyOp60
 70
     1
102
RTVSPropertyOp61
 70
     1
102
RTVSPropertyOp62
 70
     1
  0
XRECORD
  5
52F
102
{ACAD_REACTORS
330
52E
102
}
330
52E
100
AcDbXrecord
280
     1
102
RTVSPost2010Prop28
280
     0
102
RTVSPost2010PropOp28
 70
     1
102
RTVSPost2010Prop29
280
     1
102
RTVSPost2010PropOp29
 70
     1
102
RTVSPost2010Prop30
280
     1
102
RTVSPost2010PropOp30
 70
     1
102
RTVSPost2010Prop31
280
     0
102
RTVSPost2010PropOp31
 70
     1
102
RTVSPost2010Prop32
280
     0
102
RTVSPost2010PropOp32
 70
     1
102
RTVSPost2010Prop33
280
     0
102
RTVSPost2010PropOp33
 70
     1
102
RTVSPost2010Prop34
280
     0
102
RTVSPost2010PropOp34
 70
     1
102
RTVSPost2010Prop35
280
     0
102
RTVSPost2010PropOp35
 70
     1
102
RTVSPost2010Prop36
280
     0
102
RTVSPost2010PropOp36
 70
     1
102
RTVSPost2010Prop37
 90
       50
102
RTVSPost2010PropOp37
 70
     0
102
RTVSPost2010Prop38
140
0.0
102
RTVSPost2010PropOp38
 70
     0
102
RTVSPost2010Prop39
140
1.0
102
RTVSPost2010PropOp39
 70
     0
102
RTVSPost2010Prop40
 90
        0
102
RTVSPost2010PropOp40
 70
     0
102
RTVSPost2010Prop41ColorIndex
 90
       18
102
RTVSPost2010Prop41ColorRGB
 90
        0
102
RTVSPost2010PropOp41
 70
     0
102
RTVSPost2010Prop42
 90
       50
102
RTVSPost2010PropOp42
 70
     0
102
RTVSPost2010Prop43
 90
        3
102
RTVSPost2010PropOp43
 70
     0
102
RTVSPost2010Prop44ColorIndex
 90
        5
102
RTVSPost2010Prop44ColorRGB
 90
      255
102
RTVSPost2010PropOp44
 70
     0
102
RTVSPost2010Prop45
280
     0
102
RTVSPost2010PropOp45
 70
     1
102
RTVSPost2010Prop46
 90
       50
102
RTVSPost2010PropOp46
 70
     0
102
RTVSPost2010Prop47
 90
       50
102
RTVSPost2010PropOp47
 70
     0
102
RTVSPost2010Prop48
 90
       50
102
RTVSPost2010PropOp48
 70
     0
102
RTVSPost2010Prop49
280
     0
102
RTVSPost2010PropOp49
 70
     1
102
RTVSPost2010Prop50
 90
       50
102
RTVSPost2010PropOp50
 70
     0
102
RTVSPost2010Prop51ColorIndex
 90
      256
102
RTVSPost2010Prop51ColorRGB
 90
-16777216
102
RTVSPost2010PropOp51
 70
     0
102
RTVSPost2010Prop52
140
1.0
102
RTVSPost2010PropOp52
 70
     0
102
RTVSPost2010Prop53
 90
        2
102
RTVSPost2010PropOp53
 70
     0
102
RTVSPost2010Prop54
  1
strokes_ogs.tif
102
RTVSPost2010PropOp54
 70
     0
102
RTVSPost2010Prop55
280
     0
102
RTVSPost2010PropOp55
 70
     1
102
RTVSPost2010Prop56
140
1.0
102
RTVSPost2010PropOp56
 70
     0
102
RTVSPost2010Prop57
140
1.0
102
RTVSPost2010PropOp57
 70
     0
102
RTVSPropertyOp0
 70
     0
102
RTVSPropertyOp1
 70
     0
102
RTVSPropertyOp2
 70
     0
102
RTVSPropertyOp3
 70
     0
102
RTVSPropertyOp4
 70
     0
102
RTVSPropertyOp5
 70
     0
102
RTVSPropertyOp6
 70
     0
102
RTVSPropertyOp7
 70
     0
102
RTVSPropertyOp8
 70
     0
102
RTVSPropertyOp9
 70
     0
102
RTVSPropertyOp10
 70
     0
102
RTVSPropertyOp11
 70
     0
102
RTVSPropertyOp12
 70
     0
102
RTVSPropertyOp13
 70
     0
102
RTVSPropertyOp14
 70
     2
102
RTVSPropertyOp15
 70
     0
102
RTVSPropertyOp16
 70
     0
102
RTVSPropertyOp17
 70
     0
102
RTVSPropertyOp18
 70
     0
102
RTVSPropertyOp19
 70
     0
102
RTVSPropertyOp20
 70
     0
102
RTVSPropertyOp21
 70
     0
102
RTVSPropertyOp22
 70
     0
102
RTVSPropertyOp23
 70
     0
102
RTVSPropertyOp24
 70
     0
102
RTVSPropertyOp25
 70
     0
102
RTVSPropertyOp26
 70
     0
102
RTVSPropertyOp27
 70
     0
102
RTVSPropertyOp28
 70
     1
102
RTVSPropertyOp29
 70
     1
102
RTVSPropertyOp30
 70
     1
102
RTVSPropertyOp31
 70
     1
102
RTVSPropertyOp32
 70
     1
102
RTVSPropertyOp33
 70
     1
102
RTVSPropertyOp34
 70
     1
102
RTVSPropertyOp35
 70
     1
102
RTVSPropertyOp36
 70
     1
102
RTVSPropertyOp37
 70
     0
102
RTVSPropertyOp38
 70
     0
102
RTVSPropertyOp39
 70
     0
102
RTVSPropertyOp40
 70
     0
102
RTVSPropertyOp41
 70
     0
102
RTVSPropertyOp42
 70
     0
102
RTVSPropertyOp43
 70
     0
102
RTVSPropertyOp44
 70
     0
102
RTVSPropertyOp45
 70
     1
102
RTVSPropertyOp46
 70
     0
102
RTVSPropertyOp47
 70
     0
102
RTVSPropertyOp48
 70
     0
102
RTVSPropertyOp49
 70
     1
102
RTVSPropertyOp50
 70
     0
102
RTVSPropertyOp51
 70
     0
102
RTVSPropertyOp52
 70
     0
102
RTVSPropertyOp53
 70
     0
102
RTVSPropertyOp54
 70
     0
102
RTVSPropertyOp55
 70
     1
102
RTVSPropertyOp56
 70
     0
102
RTVSPropertyOp57
 70
     0
102
RTVSPropertyOp58
 70
     0
102
RTVSPropertyOp59
 70
     0
102
RTVSPropertyOp60
 70
     0
102
RTVSPropertyOp61
 70
     0
102
RTVSPropertyOp62
 70
     0
  0
XRECORD
  5
51F
102
{ACAD_REACTORS
330
51E
102
}
330
51E
100
AcDbXrecord
280
     1
102
RTVSPost2010Prop28
280
     0
102
RTVSPost2010PropOp28
 70
     1
102
RTVSPost2010Prop29
280
     1
102
RTVSPost2010PropOp29
 70
     1
102
RTVSPost2010Prop30
280
     1
102
RTVSPost2010PropOp30
 70
     1
102
RTVSPost2010Prop31
280
     0
102
RTVSPost2010PropOp31
 70
     1
102
RTVSPost2010Prop32
280
     0
102
RTVSPost2010PropOp32
 70
     1
102
RTVSPost2010Prop33
280
     0
102
RTVSPost2010PropOp33
 70
     1
102
RTVSPost2010Prop34
280
     0
102
RTVSPost2010PropOp34
 70
     1
102
RTVSPost2010Prop35
280
     0
102
RTVSPost2010PropOp35
 70
     1
102
RTVSPost2010Prop36
280
     0
102
RTVSPost2010PropOp36
 70
     1
102
RTVSPost2010Prop37
 90
       50
102
RTVSPost2010PropOp37
 70
     1
102
RTVSPost2010Prop38
140
0.0
102
RTVSPost2010PropOp38
 70
     1
102
RTVSPost2010Prop39
140
1.0
102
RTVSPost2010PropOp39
 70
     1
102
RTVSPost2010Prop40
 90
        0
102
RTVSPost2010PropOp40
 70
     1
102
RTVSPost2010Prop41ColorIndex
 90
       18
102
RTVSPost2010Prop41ColorRGB
 90
        0
102
RTVSPost2010PropOp41
 70
     1
102
RTVSPost2010Prop42
 90
       50
102
RTVSPost2010PropOp42
 70
     1
102
RTVSPost2010Prop43
 90
        3
102
RTVSPost2010PropOp43
 70
     1
102
RTVSPost2010Prop44ColorIndex
 90
        5
102
RTVSPost2010Prop44ColorRGB
 90
      255
102
RTVSPost2010PropOp44
 70
     1
102
RTVSPost2010Prop45
280
     0
102
RTVSPost2010PropOp45
 70
     1
102
RTVSPost2010Prop46
 90
       50
102
RTVSPost2010PropOp46
 70
     1
102
RTVSPost2010Prop47
 90
       50
102
RTVSPost2010PropOp47
 70
     1
102
RTVSPost2010Prop48
 90
       50
102
RTVSPost2010PropOp48
 70
     1
102
RTVSPost2010Prop49
280
     0
102
RTVSPost2010PropOp49
 70
     1
102
RTVSPost2010Prop50
 90
       50
102
RTVSPost2010PropOp50
 70
     1
102
RTVSPost2010Prop51ColorIndex
 90
      256
102
RTVSPost2010Prop51ColorRGB
 90
-16777216
102
RTVSPost2010PropOp51
 70
     0
102
RTVSPost2010Prop52
140
1.0
102
RTVSPost2010PropOp52
 70
     0
102
RTVSPost2010Prop53
 90
        2
102
RTVSPost2010PropOp53
 70
     1
102
RTVSPost2010Prop54
  1
strokes_ogs.tif
102
RTVSPost2010PropOp54
 70
     1
102
RTVSPost2010Prop55
280
     0
102
RTVSPost2010PropOp55
 70
     1
102
RTVSPost2010Prop56
140
1.0
102
RTVSPost2010PropOp56
 70
     1
102
RTVSPost2010Prop57
140
1.0
102
RTVSPost2010PropOp57
 70
     1
102
RTVSPropertyOp0
 70
     1
102
RTVSPropertyOp1
 70
     1
102
RTVSPropertyOp2
 70
     1
102
RTVSPropertyOp3
 70
     1
102
RTVSPropertyOp4
 70
     1
102
RTVSPropertyOp5
 70
     1
102
RTVSPropertyOp6
 70
     1
102
RTVSPropertyOp7
 70
     1
102
RTVSPropertyOp8
 70
     1
102
RTVSPropertyOp9
 70
     1
102
RTVSPropertyOp10
 70
     1
102
RTVSPropertyOp11
 70
     1
102
RTVSPropertyOp12
 70
     1
102
RTVSPropertyOp13
 70
     1
102
RTVSPropertyOp14
 70
     1
102
RTVSPropertyOp15
 70
     1
102
RTVSPropertyOp16
 70
     1
102
RTVSPropertyOp17
 70
     1
102
RTVSPropertyOp18
 70
     1
102
RTVSPropertyOp19
 70
     1
102
RTVSPropertyOp20
 70
     1
102
RTVSPropertyOp21
 70
     1
102
RTVSPropertyOp22
 70
     1
102
RTVSPropertyOp23
 70
     1
102
RTVSPropertyOp24
 70
     1
102
RTVSPropertyOp25
 70
     1
102
RTVSPropertyOp26
 70
     1
102
RTVSPropertyOp27
 70
     1
102
RTVSPropertyOp28
 70
     1
102
RTVSPropertyOp29
 70
     1
102
RTVSPropertyOp30
 70
     1
102
RTVSPropertyOp31
 70
     1
102
RTVSPropertyOp32
 70
     1
102
RTVSPropertyOp33
 70
     1
102
RTVSPropertyOp34
 70
     1
102
RTVSPropertyOp35
 70
     1
102
RTVSPropertyOp36
 70
     1
102
RTVSPropertyOp37
 70
     1
102
RTVSPropertyOp38
 70
     1
102
RTVSPropertyOp39
 70
     1
102
RTVSPropertyOp40
 70
     1
102
RTVSPropertyOp41
 70
     1
102
RTVSPropertyOp42
 70
     1
102
RTVSPropertyOp43
 70
     1
102
RTVSPropertyOp44
 70
     1
102
RTVSPropertyOp45
 70
     1
102
RTVSPropertyOp46
 70
     1
102
RTVSPropertyOp47
 70
     1
102
RTVSPropertyOp48
 70
     1
102
RTVSPropertyOp49
 70
     1
102
RTVSPropertyOp50
 70
     1
102
RTVSPropertyOp51
 70
     0
102
RTVSPropertyOp52
 70
     0
102
RTVSPropertyOp53
 70
     1
102
RTVSPropertyOp54
 70
     1
102
RTVSPropertyOp55
 70
     1
102
RTVSPropertyOp56
 70
     1
102
RTVSPropertyOp57
 70
     1
102
RTVSPropertyOp58
 70
     1
102
RTVSPropertyOp59
 70
     1
102
RTVSPropertyOp60
 70
     1
102
RTVSPropertyOp61
 70
     1
102
RTVSPropertyOp62
 70
     1
  0
XRECORD
  5
531
102
{ACAD_REACTORS
330
530
102
}
330
530
100
AcDbXrecord
280
     1
102
RTVSPost2010Prop28
280
     0
102
RTVSPost2010PropOp28
 70
     1
102
RTVSPost2010Prop29
280
     1
102
RTVSPost2010PropOp29
 70
     1
102
RTVSPost2010Prop30
280
     1
102
RTVSPost2010PropOp30
 70
     1
102
RTVSPost2010Prop31
280
     0
102
RTVSPost2010PropOp31
 70
     1
102
RTVSPost2010Prop32
280
     0
102
RTVSPost2010PropOp32
 70
     1
102
RTVSPost2010Prop33
280
     0
102
RTVSPost2010PropOp33
 70
     1
102
RTVSPost2010Prop34
280
     0
102
RTVSPost2010PropOp34
 70
     1
102
RTVSPost2010Prop35
280
     0
102
RTVSPost2010PropOp35
 70
     1
102
RTVSPost2010Prop36
280
     0
102
RTVSPost2010PropOp36
 70
     1
102
RTVSPost2010Prop37
 90
       50
102
RTVSPost2010PropOp37
 70
     0
102
RTVSPost2010Prop38
140
0.0
102
RTVSPost2010PropOp38
 70
     0
102
RTVSPost2010Prop39
140
1.0
102
RTVSPost2010PropOp39
 70
     0
102
RTVSPost2010Prop40
 90
        0
102
RTVSPost2010PropOp40
 70
     0
102
RTVSPost2010Prop41ColorIndex
 90
       18
102
RTVSPost2010Prop41ColorRGB
 90
        0
102
RTVSPost2010PropOp41
 70
     0
102
RTVSPost2010Prop42
 90
       50
102
RTVSPost2010PropOp42
 70
     0
102
RTVSPost2010Prop43
 90
        3
102
RTVSPost2010PropOp43
 70
     0
102
RTVSPost2010Prop44ColorIndex
 90
        5
102
RTVSPost2010Prop44ColorRGB
 90
      255
102
RTVSPost2010PropOp44
 70
     0
102
RTVSPost2010Prop45
280
     0
102
RTVSPost2010PropOp45
 70
     1
102
RTVSPost2010Prop46
 90
       50
102
RTVSPost2010PropOp46
 70
     0
102
RTVSPost2010Prop47
 90
       50
102
RTVSPost2010PropOp47
 70
     0
102
RTVSPost2010Prop48
 90
       50
102
RTVSPost2010PropOp48
 70
     0
102
RTVSPost2010Prop49
280
     0
102
RTVSPost2010PropOp49
 70
     1
102
RTVSPost2010Prop50
 90
       50
102
RTVSPost2010PropOp50
 70
     0
102
RTVSPost2010Prop51ColorIndex
 90
      256
102
RTVSPost2010Prop51ColorRGB
 90
-16777216
102
RTVSPost2010PropOp51
 70
     0
102
RTVSPost2010Prop52
140
1.0
102
RTVSPost2010PropOp52
 70
     0
102
RTVSPost2010Prop53
 90
        2
102
RTVSPost2010PropOp53
 70
     0
102
RTVSPost2010Prop54
  1
strokes_ogs.tif
102
RTVSPost2010PropOp54
 70
     0
102
RTVSPost2010Prop55
280
     0
102
RTVSPost2010PropOp55
 70
     1
102
RTVSPost2010Prop56
140
1.0
102
RTVSPost2010PropOp56
 70
     0
102
RTVSPost2010Prop57
140
1.0
102
RTVSPost2010PropOp57
 70
     0
102
RTVSPropertyOp0
 70
     0
102
RTVSPropertyOp1
 70
     0
102
RTVSPropertyOp2
 70
     0
102
RTVSPropertyOp3
 70
     0
102
RTVSPropertyOp4
 70
     0
102
RTVSPropertyOp5
 70
     0
102
RTVSPropertyOp6
 70
     0
102
RTVSPropertyOp7
 70
     0
102
RTVSPropertyOp8
 70
     0
102
RTVSPropertyOp9
 70
     0
102
RTVSPropertyOp10
 70
     0
102
RTVSPropertyOp11
 70
     0
102
RTVSPropertyOp12
 70
     0
102
RTVSPropertyOp13
 70
     0
102
RTVSPropertyOp14
 70
     2
102
RTVSPropertyOp15
 70
     0
102
RTVSPropertyOp16
 70
     0
102
RTVSPropertyOp17
 70
     0
102
RTVSPropertyOp18
 70
     0
102
RTVSPropertyOp19
 70
     0
102
RTVSPropertyOp20
 70
     0
102
RTVSPropertyOp21
 70
     0
102
RTVSPropertyOp22
 70
     0
102
RTVSPropertyOp23
 70
     0
102
RTVSPropertyOp24
 70
     0
102
RTVSPropertyOp25
 70
     0
102
RTVSPropertyOp26
 70
     0
102
RTVSPropertyOp27
 70
     0
102
RTVSPropertyOp28
 70
     1
102
RTVSPropertyOp29
 70
     1
102
RTVSPropertyOp30
 70
     1
102
RTVSPropertyOp31
 70
     1
102
RTVSPropertyOp32
 70
     1
102
RTVSPropertyOp33
 70
     1
102
RTVSPropertyOp34
 70
     1
102
RTVSPropertyOp35
 70
     1
102
RTVSPropertyOp36
 70
     1
102
RTVSPropertyOp37
 70
     0
102
RTVSPropertyOp38
 70
     0
102
RTVSPropertyOp39
 70
     0
102
RTVSPropertyOp40
 70
     0
102
RTVSPropertyOp41
 70
     0
102
RTVSPropertyOp42
 70
     0
102
RTVSPropertyOp43
 70
     0
102
RTVSPropertyOp44
 70
     0
102
RTVSPropertyOp45
 70
     1
102
RTVSPropertyOp46
 70
     0
102
RTVSPropertyOp47
 70
     0
102
RTVSPropertyOp48
 70
     0
102
RTVSPropertyOp49
 70
     1
102
RTVSPropertyOp50
 70
     0
102
RTVSPropertyOp51
 70
     0
102
RTVSPropertyOp52
 70
     0
102
RTVSPropertyOp53
 70
     0
102
RTVSPropertyOp54
 70
     0
102
RTVSPropertyOp55
 70
     1
102
RTVSPropertyOp56
 70
     0
102
RTVSPropertyOp57
 70
     0
102
RTVSPropertyOp58
 70
     0
102
RTVSPropertyOp59
 70
     0
102
RTVSPropertyOp60
 70
     0
102
RTVSPropertyOp61
 70
     0
102
RTVSPropertyOp62
 70
     0
  0
XRECORD
  5
517
102
{ACAD_REACTORS
330
516
102
}
330
516
100
AcDbXrecord
280
     1
102
RTVSPost2010Prop28
280
     0
102
RTVSPost2010PropOp28
 70
     1
102
RTVSPost2010Prop29
280
     1
102
RTVSPost2010PropOp29
 70
     1
102
RTVSPost2010Prop30
280
     1
102
RTVSPost2010PropOp30
 70
     1
102
RTVSPost2010Prop31
280
     0
102
RTVSPost2010PropOp31
 70
     1
102
RTVSPost2010Prop32
280
     0
102
RTVSPost2010PropOp32
 70
     1
102
RTVSPost2010Prop33
280
     0
102
RTVSPost2010PropOp33
 70
     1
102
RTVSPost2010Prop34
280
     0
102
RTVSPost2010PropOp34
 70
     1
102
RTVSPost2010Prop35
280
     0
102
RTVSPost2010PropOp35
 70
     1
102
RTVSPost2010Prop36
280
     0
102
RTVSPost2010PropOp36
 70
     1
102
RTVSPost2010Prop37
 90
       50
102
RTVSPost2010PropOp37
 70
     1
102
RTVSPost2010Prop38
140
0.0
102
RTVSPost2010PropOp38
 70
     1
102
RTVSPost2010Prop39
140
1.0
102
RTVSPost2010PropOp39
 70
     1
102
RTVSPost2010Prop40
 90
        0
102
RTVSPost2010PropOp40
 70
     1
102
RTVSPost2010Prop41ColorIndex
 90
       18
102
RTVSPost2010Prop41ColorRGB
 90
        0
102
RTVSPost2010PropOp41
 70
     1
102
RTVSPost2010Prop42
 90
       50
102
RTVSPost2010PropOp42
 70
     1
102
RTVSPost2010Prop43
 90
        3
102
RTVSPost2010PropOp43
 70
     1
102
RTVSPost2010Prop44ColorIndex
 90
        5
102
RTVSPost2010Prop44ColorRGB
 90
      255
102
RTVSPost2010PropOp44
 70
     1
102
RTVSPost2010Prop45
280
     0
102
RTVSPost2010PropOp45
 70
     1
102
RTVSPost2010Prop46
 90
       50
102
RTVSPost2010PropOp46
 70
     1
102
RTVSPost2010Prop47
 90
       50
102
RTVSPost2010PropOp47
 70
     1
102
RTVSPost2010Prop48
 90
       50
102
RTVSPost2010PropOp48
 70
     1
102
RTVSPost2010Prop49
280
     0
102
RTVSPost2010PropOp49
 70
     1
102
RTVSPost2010Prop50
 90
       50
102
RTVSPost2010PropOp50
 70
     1
102
RTVSPost2010Prop51ColorIndex
 90
      256
102
RTVSPost2010Prop51ColorRGB
 90
-16777216
102
RTVSPost2010PropOp51
 70
     0
102
RTVSPost2010Prop52
140
1.0
102
RTVSPost2010PropOp52
 70
     0
102
RTVSPost2010Prop53
 90
        2
102
RTVSPost2010PropOp53
 70
     1
102
RTVSPost2010Prop54
  1
strokes_ogs.tif
102
RTVSPost2010PropOp54
 70
     1
102
RTVSPost2010Prop55
280
     0
102
RTVSPost2010PropOp55
 70
     1
102
RTVSPost2010Prop56
140
1.0
102
RTVSPost2010PropOp56
 70
     1
102
RTVSPost2010Prop57
140
1.0
102
RTVSPost2010PropOp57
 70
     1
102
RTVSPropertyOp0
 70
     1
102
RTVSPropertyOp1
 70
     1
102
RTVSPropertyOp2
 70
     1
102
RTVSPropertyOp3
 70
     1
102
RTVSPropertyOp4
 70
     1
102
RTVSPropertyOp5
 70
     1
102
RTVSPropertyOp6
 70
     1
102
RTVSPropertyOp7
 70
     1
102
RTVSPropertyOp8
 70
     1
102
RTVSPropertyOp9
 70
     1
102
RTVSPropertyOp10
 70
     1
102
RTVSPropertyOp11
 70
     1
102
RTVSPropertyOp12
 70
     1
102
RTVSPropertyOp13
 70
     1
102
RTVSPropertyOp14
 70
     1
102
RTVSPropertyOp15
 70
     1
102
RTVSPropertyOp16
 70
     1
102
RTVSPropertyOp17
 70
     1
102
RTVSPropertyOp18
 70
     1
102
RTVSPropertyOp19
 70
     1
102
RTVSPropertyOp20
 70
     1
102
RTVSPropertyOp21
 70
     1
102
RTVSPropertyOp22
 70
     1
102
RTVSPropertyOp23
 70
     1
102
RTVSPropertyOp24
 70
     1
102
RTVSPropertyOp25
 70
     1
102
RTVSPropertyOp26
 70
     1
102
RTVSPropertyOp27
 70
     1
102
RTVSPropertyOp28
 70
     1
102
RTVSPropertyOp29
 70
     1
102
RTVSPropertyOp30
 70
     1
102
RTVSPropertyOp31
 70
     1
102
RTVSPropertyOp32
 70
     1
102
RTVSPropertyOp33
 70
     1
102
RTVSPropertyOp34
 70
     1
102
RTVSPropertyOp35
 70
     1
102
RTVSPropertyOp36
 70
     1
102
RTVSPropertyOp37
 70
     1
102
RTVSPropertyOp38
 70
     1
102
RTVSPropertyOp39
 70
     1
102
RTVSPropertyOp40
 70
     1
102
RTVSPropertyOp41
 70
     1
102
RTVSPropertyOp42
 70
     1
102
RTVSPropertyOp43
 70
     1
102
RTVSPropertyOp44
 70
     1
102
RTVSPropertyOp45
 70
     1
102
RTVSPropertyOp46
 70
     1
102
RTVSPropertyOp47
 70
     1
102
RTVSPropertyOp48
 70
     1
102
RTVSPropertyOp49
 70
     1
102
RTVSPropertyOp50
 70
     1
102
RTVSPropertyOp51
 70
     0
102
RTVSPropertyOp52
 70
     0
102
RTVSPropertyOp53
 70
     1
102
RTVSPropertyOp54
 70
     1
102
RTVSPropertyOp55
 70
     1
102
RTVSPropertyOp56
 70
     1
102
RTVSPropertyOp57
 70
     1
102
RTVSPropertyOp58
 70
     1
102
RTVSPropertyOp59
 70
     1
102
RTVSPropertyOp60
 70
     1
102
RTVSPropertyOp61
 70
     1
102
RTVSPropertyOp62
 70
     1
  0
XRECORD
  5
52D
102
{ACAD_REACTORS
330
52C
102
}
330
52C
100
AcDbXrecord
280
     1
102
RTVSPost2010Prop28
280
     0
102
RTVSPost2010PropOp28
 70
     1
102
RTVSPost2010Prop29
280
     1
102
RTVSPost2010PropOp29
 70
     1
102
RTVSPost2010Prop30
280
     1
102
RTVSPost2010PropOp30
 70
     1
102
RTVSPost2010Prop31
280
     0
102
RTVSPost2010PropOp31
 70
     1
102
RTVSPost2010Prop32
280
     0
102
RTVSPost2010PropOp32
 70
     1
102
RTVSPost2010Prop33
280
     0
102
RTVSPost2010PropOp33
 70
     1
102
RTVSPost2010Prop34
280
     0
102
RTVSPost2010PropOp34
 70
     1
102
RTVSPost2010Prop35
280
     0
102
RTVSPost2010PropOp35
 70
     1
102
RTVSPost2010Prop36
280
     0
102
RTVSPost2010PropOp36
 70
     1
102
RTVSPost2010Prop37
 90
       50
102
RTVSPost2010PropOp37
 70
     1
102
RTVSPost2010Prop38
140
0.0
102
RTVSPost2010PropOp38
 70
     1
102
RTVSPost2010Prop39
140
1.0
102
RTVSPost2010PropOp39
 70
     1
102
RTVSPost2010Prop40
 90
        0
102
RTVSPost2010PropOp40
 70
     1
102
RTVSPost2010Prop41ColorIndex
 90
       18
102
RTVSPost2010Prop41ColorRGB
 90
        0
102
RTVSPost2010PropOp41
 70
     1
102
RTVSPost2010Prop42
 90
       50
102
RTVSPost2010PropOp42
 70
     1
102
RTVSPost2010Prop43
 90
        3
102
RTVSPost2010PropOp43
 70
     1
102
RTVSPost2010Prop44ColorIndex
 90
        5
102
RTVSPost2010Prop44ColorRGB
 90
      255
102
RTVSPost2010PropOp44
 70
     1
102
RTVSPost2010Prop45
280
     0
102
RTVSPost2010PropOp45
 70
     1
102
RTVSPost2010Prop46
 90
       50
102
RTVSPost2010PropOp46
 70
     1
102
RTVSPost2010Prop47
 90
       50
102
RTVSPost2010PropOp47
 70
     1
102
RTVSPost2010Prop48
 90
       50
102
RTVSPost2010PropOp48
 70
     1
102
RTVSPost2010Prop49
280
     0
102
RTVSPost2010PropOp49
 70
     1
102
RTVSPost2010Prop50
 90
       50
102
RTVSPost2010PropOp50
 70
     1
102
RTVSPost2010Prop51ColorIndex
 90
      256
102
RTVSPost2010Prop51ColorRGB
 90
-16777216
102
RTVSPost2010PropOp51
 70
     0
102
RTVSPost2010Prop52
140
1.0
102
RTVSPost2010PropOp52
 70
     0
102
RTVSPost2010Prop53
 90
        2
102
RTVSPost2010PropOp53
 70
     1
102
RTVSPost2010Prop54
  1
strokes_ogs.tif
102
RTVSPost2010PropOp54
 70
     1
102
RTVSPost2010Prop55
280
     0
102
RTVSPost2010PropOp55
 70
     1
102
RTVSPost2010Prop56
140
1.0
102
RTVSPost2010PropOp56
 70
     1
102
RTVSPost2010Prop57
140
1.0
102
RTVSPost2010PropOp57
 70
     1
102
RTVSPropertyOp0
 70
     1
102
RTVSPropertyOp1
 70
     1
102
RTVSPropertyOp2
 70
     1
102
RTVSPropertyOp3
 70
     1
102
RTVSPropertyOp4
 70
     1
102
RTVSPropertyOp5
 70
     1
102
RTVSPropertyOp6
 70
     1
102
RTVSPropertyOp7
 70
     1
102
RTVSPropertyOp8
 70
     1
102
RTVSPropertyOp9
 70
     1
102
RTVSPropertyOp10
 70
     1
102
RTVSPropertyOp11
 70
     1
102
RTVSPropertyOp12
 70
     1
102
RTVSPropertyOp13
 70
     1
102
RTVSPropertyOp14
 70
     1
102
RTVSPropertyOp15
 70
     1
102
RTVSPropertyOp16
 70
     1
102
RTVSPropertyOp17
 70
     1
102
RTVSPropertyOp18
 70
     1
102
RTVSPropertyOp19
 70
     1
102
RTVSPropertyOp20
 70
     1
102
RTVSPropertyOp21
 70
     1
102
RTVSPropertyOp22
 70
     1
102
RTVSPropertyOp23
 70
     1
102
RTVSPropertyOp24
 70
     1
102
RTVSPropertyOp25
 70
     1
102
RTVSPropertyOp26
 70
     1
102
RTVSPropertyOp27
 70
     1
102
RTVSPropertyOp28
 70
     1
102
RTVSPropertyOp29
 70
     1
102
RTVSPropertyOp30
 70
     1
102
RTVSPropertyOp31
 70
     1
102
RTVSPropertyOp32
 70
     1
102
RTVSPropertyOp33
 70
     1
102
RTVSPropertyOp34
 70
     1
102
RTVSPropertyOp35
 70
     1
102
RTVSPropertyOp36
 70
     1
102
RTVSPropertyOp37
 70
     1
102
RTVSPropertyOp38
 70
     1
102
RTVSPropertyOp39
 70
     1
102
RTVSPropertyOp40
 70
     1
102
RTVSPropertyOp41
 70
     1
102
RTVSPropertyOp42
 70
     1
102
RTVSPropertyOp43
 70
     1
102
RTVSPropertyOp44
 70
     1
102
RTVSPropertyOp45
 70
     1
102
RTVSPropertyOp46
 70
     1
102
RTVSPropertyOp47
 70
     1
102
RTVSPropertyOp48
 70
     1
102
RTVSPropertyOp49
 70
     1
102
RTVSPropertyOp50
 70
     1
102
RTVSPropertyOp51
 70
     0
102
RTVSPropertyOp52
 70
     0
102
RTVSPropertyOp53
 70
     1
102
RTVSPropertyOp54
 70
     1
102
RTVSPropertyOp55
 70
     1
102
RTVSPropertyOp56
 70
     1
102
RTVSPropertyOp57
 70
     1
102
RTVSPropertyOp58
 70
     1
102
RTVSPropertyOp59
 70
     1
102
RTVSPropertyOp60
 70
     1
102
RTVSPropertyOp61
 70
     1
102
RTVSPropertyOp62
 70
     1
  0
XRECORD
  5
52B
102
{ACAD_REACTORS
330
52A
102
}
330
52A
100
AcDbXrecord
280
     1
102
RTVSPost2010Prop28
280
     0
102
RTVSPost2010PropOp28
 70
     1
102
RTVSPost2010Prop29
280
     1
102
RTVSPost2010PropOp29
 70
     1
102
RTVSPost2010Prop30
280
     1
102
RTVSPost2010PropOp30
 70
     1
102
RTVSPost2010Prop31
280
     0
102
RTVSPost2010PropOp31
 70
     1
102
RTVSPost2010Prop32
280
     0
102
RTVSPost2010PropOp32
 70
     1
102
RTVSPost2010Prop33
280
     0
102
RTVSPost2010PropOp33
 70
     1
102
RTVSPost2010Prop34
280
     0
102
RTVSPost2010PropOp34
 70
     1
102
RTVSPost2010Prop35
280
     0
102
RTVSPost2010PropOp35
 70
     1
102
RTVSPost2010Prop36
280
     0
102
RTVSPost2010PropOp36
 70
     1
102
RTVSPost2010Prop37
 90
       50
102
RTVSPost2010PropOp37
 70
     1
102
RTVSPost2010Prop38
140
0.0
102
RTVSPost2010PropOp38
 70
     1
102
RTVSPost2010Prop39
140
1.0
102
RTVSPost2010PropOp39
 70
     1
102
RTVSPost2010Prop40
 90
        0
102
RTVSPost2010PropOp40
 70
     1
102
RTVSPost2010Prop41ColorIndex
 90
       18
102
RTVSPost2010Prop41ColorRGB
 90
        0
102
RTVSPost2010PropOp41
 70
     1
102
RTVSPost2010Prop42
 90
       50
102
RTVSPost2010PropOp42
 70
     1
102
RTVSPost2010Prop43
 90
        3
102
RTVSPost2010PropOp43
 70
     1
102
RTVSPost2010Prop44ColorIndex
 90
        5
102
RTVSPost2010Prop44ColorRGB
 90
      255
102
RTVSPost2010PropOp44
 70
     1
102
RTVSPost2010Prop45
280
     0
102
RTVSPost2010PropOp45
 70
     1
102
RTVSPost2010Prop46
 90
       50
102
RTVSPost2010PropOp46
 70
     1
102
RTVSPost2010Prop47
 90
       50
102
RTVSPost2010PropOp47
 70
     1
102
RTVSPost2010Prop48
 90
       50
102
RTVSPost2010PropOp48
 70
     1
102
RTVSPost2010Prop49
280
     0
102
RTVSPost2010PropOp49
 70
     1
102
RTVSPost2010Prop50
 90
       50
102
RTVSPost2010PropOp50
 70
     1
102
RTVSPost2010Prop51ColorIndex
 90
      256
102
RTVSPost2010Prop51ColorRGB
 90
-16777216
102
RTVSPost2010PropOp51
 70
     0
102
RTVSPost2010Prop52
140
1.0
102
RTVSPost2010PropOp52
 70
     0
102
RTVSPost2010Prop53
 90
        2
102
RTVSPost2010PropOp53
 70
     1
102
RTVSPost2010Prop54
  1
strokes_ogs.tif
102
RTVSPost2010PropOp54
 70
     1
102
RTVSPost2010Prop55
280
     0
102
RTVSPost2010PropOp55
 70
     1
102
RTVSPost2010Prop56
140
1.0
102
RTVSPost2010PropOp56
 70
     1
102
RTVSPost2010Prop57
140
1.0
102
RTVSPost2010PropOp57
 70
     1
102
RTVSPropertyOp0
 70
     1
102
RTVSPropertyOp1
 70
     1
102
RTVSPropertyOp2
 70
     1
102
RTVSPropertyOp3
 70
     1
102
RTVSPropertyOp4
 70
     1
102
RTVSPropertyOp5
 70
     1
102
RTVSPropertyOp6
 70
     1
102
RTVSPropertyOp7
 70
     1
102
RTVSPropertyOp8
 70
     1
102
RTVSPropertyOp9
 70
     1
102
RTVSPropertyOp10
 70
     1
102
RTVSPropertyOp11
 70
     1
102
RTVSPropertyOp12
 70
     1
102
RTVSPropertyOp13
 70
     1
102
RTVSPropertyOp14
 70
     1
102
RTVSPropertyOp15
 70
     1
102
RTVSPropertyOp16
 70
     1
102
RTVSPropertyOp17
 70
     1
102
RTVSPropertyOp18
 70
     1
102
RTVSPropertyOp19
 70
     1
102
RTVSPropertyOp20
 70
     1
102
RTVSPropertyOp21
 70
     1
102
RTVSPropertyOp22
 70
     1
102
RTVSPropertyOp23
 70
     1
102
RTVSPropertyOp24
 70
     1
102
RTVSPropertyOp25
 70
     1
102
RTVSPropertyOp26
 70
     1
102
RTVSPropertyOp27
 70
     1
102
RTVSPropertyOp28
 70
     1
102
RTVSPropertyOp29
 70
     1
102
RTVSPropertyOp30
 70
     1
102
RTVSPropertyOp31
 70
     1
102
RTVSPropertyOp32
 70
     1
102
RTVSPropertyOp33
 70
     1
102
RTVSPropertyOp34
 70
     1
102
RTVSPropertyOp35
 70
     1
102
RTVSPropertyOp36
 70
     1
102
RTVSPropertyOp37
 70
     1
102
RTVSPropertyOp38
 70
     1
102
RTVSPropertyOp39
 70
     1
102
RTVSPropertyOp40
 70
     1
102
RTVSPropertyOp41
 70
     1
102
RTVSPropertyOp42
 70
     1
102
RTVSPropertyOp43
 70
     1
102
RTVSPropertyOp44
 70
     1
102
RTVSPropertyOp45
 70
     1
102
RTVSPropertyOp46
 70
     1
102
RTVSPropertyOp47
 70
     1
102
RTVSPropertyOp48
 70
     1
102
RTVSPropertyOp49
 70
     1
102
RTVSPropertyOp50
 70
     1
102
RTVSPropertyOp51
 70
     0
102
RTVSPropertyOp52
 70
     0
102
RTVSPropertyOp53
 70
     1
102
RTVSPropertyOp54
 70
     1
102
RTVSPropertyOp55
 70
     1
102
RTVSPropertyOp56
 70
     1
102
RTVSPropertyOp57
 70
     1
102
RTVSPropertyOp58
 70
     1
102
RTVSPropertyOp59
 70
     1
102
RTVSPropertyOp60
 70
     1
102
RTVSPropertyOp61
 70
     1
102
RTVSPropertyOp62
 70
     1
  0
XRECORD
  5
525
102
{ACAD_REACTORS
330
524
102
}
330
524
100
AcDbXrecord
280
     1
102
RTVSPost2010Prop28
280
     0
102
RTVSPost2010PropOp28
 70
     1
102
RTVSPost2010Prop29
280
     1
102
RTVSPost2010PropOp29
 70
     1
102
RTVSPost2010Prop30
280
     1
102
RTVSPost2010PropOp30
 70
     1
102
RTVSPost2010Prop31
280
     0
102
RTVSPost2010PropOp31
 70
     1
102
RTVSPost2010Prop32
280
     0
102
RTVSPost2010PropOp32
 70
     1
102
RTVSPost2010Prop33
280
     0
102
RTVSPost2010PropOp33
 70
     1
102
RTVSPost2010Prop34
280
     0
102
RTVSPost2010PropOp34
 70
     1
102
RTVSPost2010Prop35
280
     0
102
RTVSPost2010PropOp35
 70
     1
102
RTVSPost2010Prop36
280
     0
102
RTVSPost2010PropOp36
 70
     1
102
RTVSPost2010Prop37
 90
       50
102
RTVSPost2010PropOp37
 70
     1
102
RTVSPost2010Prop38
140
0.0
102
RTVSPost2010PropOp38
 70
     1
102
RTVSPost2010Prop39
140
1.0
102
RTVSPost2010PropOp39
 70
     1
102
RTVSPost2010Prop40
 90
        0
102
RTVSPost2010PropOp40
 70
     1
102
RTVSPost2010Prop41ColorIndex
 90
       18
102
RTVSPost2010Prop41ColorRGB
 90
        0
102
RTVSPost2010PropOp41
 70
     1
102
RTVSPost2010Prop42
 90
       50
102
RTVSPost2010PropOp42
 70
     1
102
RTVSPost2010Prop43
 90
        3
102
RTVSPost2010PropOp43
 70
     1
102
RTVSPost2010Prop44ColorIndex
 90
        5
102
RTVSPost2010Prop44ColorRGB
 90
      255
102
RTVSPost2010PropOp44
 70
     1
102
RTVSPost2010Prop45
280
     0
102
RTVSPost2010PropOp45
 70
     1
102
RTVSPost2010Prop46
 90
       50
102
RTVSPost2010PropOp46
 70
     1
102
RTVSPost2010Prop47
 90
       50
102
RTVSPost2010PropOp47
 70
     1
102
RTVSPost2010Prop48
 90
       50
102
RTVSPost2010PropOp48
 70
     1
102
RTVSPost2010Prop49
280
     0
102
RTVSPost2010PropOp49
 70
     1
102
RTVSPost2010Prop50
 90
       50
102
RTVSPost2010PropOp50
 70
     1
102
RTVSPost2010Prop51ColorIndex
 90
      256
102
RTVSPost2010Prop51ColorRGB
 90
-16777216
102
RTVSPost2010PropOp51
 70
     0
102
RTVSPost2010Prop52
140
1.0
102
RTVSPost2010PropOp52
 70
     0
102
RTVSPost2010Prop53
 90
        2
102
RTVSPost2010PropOp53
 70
     1
102
RTVSPost2010Prop54
  1
strokes_ogs.tif
102
RTVSPost2010PropOp54
 70
     1
102
RTVSPost2010Prop55
280
     0
102
RTVSPost2010PropOp55
 70
     1
102
RTVSPost2010Prop56
140
1.0
102
RTVSPost2010PropOp56
 70
     1
102
RTVSPost2010Prop57
140
1.0
102
RTVSPost2010PropOp57
 70
     1
102
RTVSPropertyOp0
 70
     1
102
RTVSPropertyOp1
 70
     1
102
RTVSPropertyOp2
 70
     1
102
RTVSPropertyOp3
 70
     1
102
RTVSPropertyOp4
 70
     1
102
RTVSPropertyOp5
 70
     1
102
RTVSPropertyOp6
 70
     1
102
RTVSPropertyOp7
 70
     1
102
RTVSPropertyOp8
 70
     1
102
RTVSPropertyOp9
 70
     1
102
RTVSPropertyOp10
 70
     1
102
RTVSPropertyOp11
 70
     1
102
RTVSPropertyOp12
 70
     1
102
RTVSPropertyOp13
 70
     1
102
RTVSPropertyOp14
 70
     1
102
RTVSPropertyOp15
 70
     1
102
RTVSPropertyOp16
 70
     1
102
RTVSPropertyOp17
 70
     1
102
RTVSPropertyOp18
 70
     1
102
RTVSPropertyOp19
 70
     1
102
RTVSPropertyOp20
 70
     1
102
RTVSPropertyOp21
 70
     1
102
RTVSPropertyOp22
 70
     1
102
RTVSPropertyOp23
 70
     1
102
RTVSPropertyOp24
 70
     1
102
RTVSPropertyOp25
 70
     1
102
RTVSPropertyOp26
 70
     1
102
RTVSPropertyOp27
 70
     1
102
RTVSPropertyOp28
 70
     1
102
RTVSPropertyOp29
 70
     1
102
RTVSPropertyOp30
 70
     1
102
RTVSPropertyOp31
 70
     1
102
RTVSPropertyOp32
 70
     1
102
RTVSPropertyOp33
 70
     1
102
RTVSPropertyOp34
 70
     1
102
RTVSPropertyOp35
 70
     1
102
RTVSPropertyOp36
 70
     1
102
RTVSPropertyOp37
 70
     1
102
RTVSPropertyOp38
 70
     1
102
RTVSPropertyOp39
 70
     1
102
RTVSPropertyOp40
 70
     1
102
RTVSPropertyOp41
 70
     1
102
RTVSPropertyOp42
 70
     1
102
RTVSPropertyOp43
 70
     1
102
RTVSPropertyOp44
 70
     1
102
RTVSPropertyOp45
 70
     1
102
RTVSPropertyOp46
 70
     1
102
RTVSPropertyOp47
 70
     1
102
RTVSPropertyOp48
 70
     1
102
RTVSPropertyOp49
 70
     1
102
RTVSPropertyOp50
 70
     1
102
RTVSPropertyOp51
 70
     0
102
RTVSPropertyOp52
 70
     0
102
RTVSPropertyOp53
 70
     1
102
RTVSPropertyOp54
 70
     1
102
RTVSPropertyOp55
 70
     1
102
RTVSPropertyOp56
 70
     1
102
RTVSPropertyOp57
 70
     1
102
RTVSPropertyOp58
 70
     1
102
RTVSPropertyOp59
 70
     1
102
RTVSPropertyOp60
 70
     1
102
RTVSPropertyOp61
 70
     1
102
RTVSPropertyOp62
 70
     1
  0
XRECORD
  5
527
102
{ACAD_REACTORS
330
526
102
}
330
526
100
AcDbXrecord
280
     1
102
RTVSPost2010Prop28
280
     0
102
RTVSPost2010PropOp28
 70
     1
102
RTVSPost2010Prop29
280
     1
102
RTVSPost2010PropOp29
 70
     1
102
RTVSPost2010Prop30
280
     1
102
RTVSPost2010PropOp30
 70
     1
102
RTVSPost2010Prop31
280
     0
102
RTVSPost2010PropOp31
 70
     1
102
RTVSPost2010Prop32
280
     0
102
RTVSPost2010PropOp32
 70
     1
102
RTVSPost2010Prop33
280
     0
102
RTVSPost2010PropOp33
 70
     1
102
RTVSPost2010Prop34
280
     0
102
RTVSPost2010PropOp34
 70
     1
102
RTVSPost2010Prop35
280
     0
102
RTVSPost2010PropOp35
 70
     1
102
RTVSPost2010Prop36
280
     0
102
RTVSPost2010PropOp36
 70
     1
102
RTVSPost2010Prop37
 90
       50
102
RTVSPost2010PropOp37
 70
     1
102
RTVSPost2010Prop38
140
0.0
102
RTVSPost2010PropOp38
 70
     1
102
RTVSPost2010Prop39
140
1.0
102
RTVSPost2010PropOp39
 70
     1
102
RTVSPost2010Prop40
 90
        0
102
RTVSPost2010PropOp40
 70
     1
102
RTVSPost2010Prop41ColorIndex
 90
       18
102
RTVSPost2010Prop41ColorRGB
 90
        0
102
RTVSPost2010PropOp41
 70
     1
102
RTVSPost2010Prop42
 90
       50
102
RTVSPost2010PropOp42
 70
     1
102
RTVSPost2010Prop43
 90
        3
102
RTVSPost2010PropOp43
 70
     1
102
RTVSPost2010Prop44ColorIndex
 90
        5
102
RTVSPost2010Prop44ColorRGB
 90
      255
102
RTVSPost2010PropOp44
 70
     1
102
RTVSPost2010Prop45
280
     0
102
RTVSPost2010PropOp45
 70
     1
102
RTVSPost2010Prop46
 90
       50
102
RTVSPost2010PropOp46
 70
     1
102
RTVSPost2010Prop47
 90
       50
102
RTVSPost2010PropOp47
 70
     1
102
RTVSPost2010Prop48
 90
       50
102
RTVSPost2010PropOp48
 70
     1
102
RTVSPost2010Prop49
280
     0
102
RTVSPost2010PropOp49
 70
     1
102
RTVSPost2010Prop50
 90
       50
102
RTVSPost2010PropOp50
 70
     1
102
RTVSPost2010Prop51ColorIndex
 90
      256
102
RTVSPost2010Prop51ColorRGB
 90
-16777216
102
RTVSPost2010PropOp51
 70
     0
102
RTVSPost2010Prop52
140
1.0
102
RTVSPost2010PropOp52
 70
     0
102
RTVSPost2010Prop53
 90
        2
102
RTVSPost2010PropOp53
 70
     1
102
RTVSPost2010Prop54
  1
strokes_ogs.tif
102
RTVSPost2010PropOp54
 70
     1
102
RTVSPost2010Prop55
280
     0
102
RTVSPost2010PropOp55
 70
     1
102
RTVSPost2010Prop56
140
1.0
102
RTVSPost2010PropOp56
 70
     1
102
RTVSPost2010Prop57
140
1.0
102
RTVSPost2010PropOp57
 70
     1
102
RTVSPropertyOp0
 70
     1
102
RTVSPropertyOp1
 70
     1
102
RTVSPropertyOp2
 70
     1
102
RTVSPropertyOp3
 70
     1
102
RTVSPropertyOp4
 70
     1
102
RTVSPropertyOp5
 70
     1
102
RTVSPropertyOp6
 70
     1
102
RTVSPropertyOp7
 70
     1
102
RTVSPropertyOp8
 70
     1
102
RTVSPropertyOp9
 70
     1
102
RTVSPropertyOp10
 70
     1
102
RTVSPropertyOp11
 70
     1
102
RTVSPropertyOp12
 70
     1
102
RTVSPropertyOp13
 70
     1
102
RTVSPropertyOp14
 70
     1
102
RTVSPropertyOp15
 70
     1
102
RTVSPropertyOp16
 70
     1
102
RTVSPropertyOp17
 70
     1
102
RTVSPropertyOp18
 70
     1
102
RTVSPropertyOp19
 70
     1
102
RTVSPropertyOp20
 70
     1
102
RTVSPropertyOp21
 70
     1
102
RTVSPropertyOp22
 70
     1
102
RTVSPropertyOp23
 70
     1
102
RTVSPropertyOp24
 70
     1
102
RTVSPropertyOp25
 70
     1
102
RTVSPropertyOp26
 70
     1
102
RTVSPropertyOp27
 70
     1
102
RTVSPropertyOp28
 70
     1
102
RTVSPropertyOp29
 70
     1
102
RTVSPropertyOp30
 70
     1
102
RTVSPropertyOp31
 70
     1
102
RTVSPropertyOp32
 70
     1
102
RTVSPropertyOp33
 70
     1
102
RTVSPropertyOp34
 70
     1
102
RTVSPropertyOp35
 70
     1
102
RTVSPropertyOp36
 70
     1
102
RTVSPropertyOp37
 70
     1
102
RTVSPropertyOp38
 70
     1
102
RTVSPropertyOp39
 70
     1
102
RTVSPropertyOp40
 70
     1
102
RTVSPropertyOp41
 70
     1
102
RTVSPropertyOp42
 70
     1
102
RTVSPropertyOp43
 70
     1
102
RTVSPropertyOp44
 70
     1
102
RTVSPropertyOp45
 70
     1
102
RTVSPropertyOp46
 70
     1
102
RTVSPropertyOp47
 70
     1
102
RTVSPropertyOp48
 70
     1
102
RTVSPropertyOp49
 70
     1
102
RTVSPropertyOp50
 70
     1
102
RTVSPropertyOp51
 70
     0
102
RTVSPropertyOp52
 70
     0
102
RTVSPropertyOp53
 70
     1
102
RTVSPropertyOp54
 70
     1
102
RTVSPropertyOp55
 70
     1
102
RTVSPropertyOp56
 70
     1
102
RTVSPropertyOp57
 70
     1
102
RTVSPropertyOp58
 70
     1
102
RTVSPropertyOp59
 70
     1
102
RTVSPropertyOp60
 70
     1
102
RTVSPropertyOp61
 70
     1
102
RTVSPropertyOp62
 70
     1
  0
XRECORD
  5
51D
102
{ACAD_REACTORS
330
51C
102
}
330
51C
100
AcDbXrecord
280
     1
102
RTVSPost2010Prop28
280
     0
102
RTVSPost2010PropOp28
 70
     1
102
RTVSPost2010Prop29
280
     1
102
RTVSPost2010PropOp29
 70
     1
102
RTVSPost2010Prop30
280
     1
102
RTVSPost2010PropOp30
 70
     1
102
RTVSPost2010Prop31
280
     0
102
RTVSPost2010PropOp31
 70
     1
102
RTVSPost2010Prop32
280
     0
102
RTVSPost2010PropOp32
 70
     1
102
RTVSPost2010Prop33
280
     0
102
RTVSPost2010PropOp33
 70
     1
102
RTVSPost2010Prop34
280
     0
102
RTVSPost2010PropOp34
 70
     1
102
RTVSPost2010Prop35
280
     0
102
RTVSPost2010PropOp35
 70
     1
102
RTVSPost2010Prop36
280
     0
102
RTVSPost2010PropOp36
 70
     1
102
RTVSPost2010Prop37
 90
       50
102
RTVSPost2010PropOp37
 70
     1
102
RTVSPost2010Prop38
140
0.0
102
RTVSPost2010PropOp38
 70
     1
102
RTVSPost2010Prop39
140
1.0
102
RTVSPost2010PropOp39
 70
     1
102
RTVSPost2010Prop40
 90
        0
102
RTVSPost2010PropOp40
 70
     1
102
RTVSPost2010Prop41ColorIndex
 90
       18
102
RTVSPost2010Prop41ColorRGB
 90
        0
102
RTVSPost2010PropOp41
 70
     1
102
RTVSPost2010Prop42
 90
       50
102
RTVSPost2010PropOp42
 70
     1
102
RTVSPost2010Prop43
 90
        3
102
RTVSPost2010PropOp43
 70
     1
102
RTVSPost2010Prop44ColorIndex
 90
        5
102
RTVSPost2010Prop44ColorRGB
 90
      255
102
RTVSPost2010PropOp44
 70
     1
102
RTVSPost2010Prop45
280
     0
102
RTVSPost2010PropOp45
 70
     1
102
RTVSPost2010Prop46
 90
       50
102
RTVSPost2010PropOp46
 70
     1
102
RTVSPost2010Prop47
 90
       50
102
RTVSPost2010PropOp47
 70
     1
102
RTVSPost2010Prop48
 90
       50
102
RTVSPost2010PropOp48
 70
     1
102
RTVSPost2010Prop49
280
     0
102
RTVSPost2010PropOp49
 70
     1
102
RTVSPost2010Prop50
 90
       50
102
RTVSPost2010PropOp50
 70
     1
102
RTVSPost2010Prop51ColorIndex
 90
      256
102
RTVSPost2010Prop51ColorRGB
 90
-16777216
102
RTVSPost2010PropOp51
 70
     0
102
RTVSPost2010Prop52
140
1.0
102
RTVSPost2010PropOp52
 70
     0
102
RTVSPost2010Prop53
 90
        2
102
RTVSPost2010PropOp53
 70
     1
102
RTVSPost2010Prop54
  1
strokes_ogs.tif
102
RTVSPost2010PropOp54
 70
     1
102
RTVSPost2010Prop55
280
     0
102
RTVSPost2010PropOp55
 70
     1
102
RTVSPost2010Prop56
140
1.0
102
RTVSPost2010PropOp56
 70
     1
102
RTVSPost2010Prop57
140
1.0
102
RTVSPost2010PropOp57
 70
     1
102
RTVSPropertyOp0
 70
     1
102
RTVSPropertyOp1
 70
     1
102
RTVSPropertyOp2
 70
     1
102
RTVSPropertyOp3
 70
     1
102
RTVSPropertyOp4
 70
     1
102
RTVSPropertyOp5
 70
     1
102
RTVSPropertyOp6
 70
     1
102
RTVSPropertyOp7
 70
     1
102
RTVSPropertyOp8
 70
     1
102
RTVSPropertyOp9
 70
     1
102
RTVSPropertyOp10
 70
     1
102
RTVSPropertyOp11
 70
     1
102
RTVSPropertyOp12
 70
     1
102
RTVSPropertyOp13
 70
     1
102
RTVSPropertyOp14
 70
     1
102
RTVSPropertyOp15
 70
     1
102
RTVSPropertyOp16
 70
     1
102
RTVSPropertyOp17
 70
     1
102
RTVSPropertyOp18
 70
     1
102
RTVSPropertyOp19
 70
     1
102
RTVSPropertyOp20
 70
     1
102
RTVSPropertyOp21
 70
     1
102
RTVSPropertyOp22
 70
     1
102
RTVSPropertyOp23
 70
     1
102
RTVSPropertyOp24
 70
     1
102
RTVSPropertyOp25
 70
     1
102
RTVSPropertyOp26
 70
     1
102
RTVSPropertyOp27
 70
     1
102
RTVSPropertyOp28
 70
     1
102
RTVSPropertyOp29
 70
     1
102
RTVSPropertyOp30
 70
     1
102
RTVSPropertyOp31
 70
     1
102
RTVSPropertyOp32
 70
     1
102
RTVSPropertyOp33
 70
     1
102
RTVSPropertyOp34
 70
     1
102
RTVSPropertyOp35
 70
     1
102
RTVSPropertyOp36
 70
     1
102
RTVSPropertyOp37
 70
     1
102
RTVSPropertyOp38
 70
     1
102
RTVSPropertyOp39
 70
     1
102
RTVSPropertyOp40
 70
     1
102
RTVSPropertyOp41
 70
     1
102
RTVSPropertyOp42
 70
     1
102
RTVSPropertyOp43
 70
     1
102
RTVSPropertyOp44
 70
     1
102
RTVSPropertyOp45
 70
     1
102
RTVSPropertyOp46
 70
     1
102
RTVSPropertyOp47
 70
     1
102
RTVSPropertyOp48
 70
     1
102
RTVSPropertyOp49
 70
     1
102
RTVSPropertyOp50
 70
     1
102
RTVSPropertyOp51
 70
     0
102
RTVSPropertyOp52
 70
     0
102
RTVSPropertyOp53
 70
     1
102
RTVSPropertyOp54
 70
     1
102
RTVSPropertyOp55
 70
     1
102
RTVSPropertyOp56
 70
     1
102
RTVSPropertyOp57
 70
     1
102
RTVSPropertyOp58
 70
     1
102
RTVSPropertyOp59
 70
     1
102
RTVSPropertyOp60
 70
     1
102
RTVSPropertyOp61
 70
     1
102
RTVSPropertyOp62
 70
     1
  0
XRECORD
  5
511
102
{ACAD_REACTORS
330
510
102
}
330
510
100
AcDbXrecord
280
     1
102
RTVSPost2010Prop28
280
     0
102
RTVSPost2010PropOp28
 70
     1
102
RTVSPost2010Prop29
280
     1
102
RTVSPost2010PropOp29
 70
     1
102
RTVSPost2010Prop30
280
     1
102
RTVSPost2010PropOp30
 70
     1
102
RTVSPost2010Prop31
280
     0
102
RTVSPost2010PropOp31
 70
     1
102
RTVSPost2010Prop32
280
     0
102
RTVSPost2010PropOp32
 70
     1
102
RTVSPost2010Prop33
280
     0
102
RTVSPost2010PropOp33
 70
     1
102
RTVSPost2010Prop34
280
     0
102
RTVSPost2010PropOp34
 70
     1
102
RTVSPost2010Prop35
280
     0
102
RTVSPost2010PropOp35
 70
     1
102
RTVSPost2010Prop36
280
     0
102
RTVSPost2010PropOp36
 70
     1
102
RTVSPost2010Prop37
 90
       50
102
RTVSPost2010PropOp37
 70
     1
102
RTVSPost2010Prop38
140
0.0
102
RTVSPost2010PropOp38
 70
     1
102
RTVSPost2010Prop39
140
1.0
102
RTVSPost2010PropOp39
 70
     1
102
RTVSPost2010Prop40
 90
        0
102
RTVSPost2010PropOp40
 70
     1
102
RTVSPost2010Prop41ColorIndex
 90
       18
102
RTVSPost2010Prop41ColorRGB
 90
        0
102
RTVSPost2010PropOp41
 70
     1
102
RTVSPost2010Prop42
 90
       50
102
RTVSPost2010PropOp42
 70
     1
102
RTVSPost2010Prop43
 90
        3
102
RTVSPost2010PropOp43
 70
     1
102
RTVSPost2010Prop44ColorIndex
 90
        5
102
RTVSPost2010Prop44ColorRGB
 90
      255
102
RTVSPost2010PropOp44
 70
     1
102
RTVSPost2010Prop45
280
     0
102
RTVSPost2010PropOp45
 70
     1
102
RTVSPost2010Prop46
 90
       50
102
RTVSPost2010PropOp46
 70
     1
102
RTVSPost2010Prop47
 90
       50
102
RTVSPost2010PropOp47
 70
     1
102
RTVSPost2010Prop48
 90
       50
102
RTVSPost2010PropOp48
 70
     1
102
RTVSPost2010Prop49
280
     0
102
RTVSPost2010PropOp49
 70
     1
102
RTVSPost2010Prop50
 90
       50
102
RTVSPost2010PropOp50
 70
     1
102
RTVSPost2010Prop51ColorIndex
 90
      256
102
RTVSPost2010Prop51ColorRGB
 90
-16777216
102
RTVSPost2010PropOp51
 70
     0
102
RTVSPost2010Prop52
140
1.0
102
RTVSPost2010PropOp52
 70
     0
102
RTVSPost2010Prop53
 90
        2
102
RTVSPost2010PropOp53
 70
     1
102
RTVSPost2010Prop54
  1
strokes_ogs.tif
102
RTVSPost2010PropOp54
 70
     1
102
RTVSPost2010Prop55
280
     0
102
RTVSPost2010PropOp55
 70
     1
102
RTVSPost2010Prop56
140
1.0
102
RTVSPost2010PropOp56
 70
     1
102
RTVSPost2010Prop57
140
1.0
102
RTVSPost2010PropOp57
 70
     1
102
RTVSPropertyOp0
 70
     1
102
RTVSPropertyOp1
 70
     1
102
RTVSPropertyOp2
 70
     1
102
RTVSPropertyOp3
 70
     1
102
RTVSPropertyOp4
 70
     1
102
RTVSPropertyOp5
 70
     1
102
RTVSPropertyOp6
 70
     1
102
RTVSPropertyOp7
 70
     1
102
RTVSPropertyOp8
 70
     1
102
RTVSPropertyOp9
 70
     1
102
RTVSPropertyOp10
 70
     1
102
RTVSPropertyOp11
 70
     1
102
RTVSPropertyOp12
 70
     1
102
RTVSPropertyOp13
 70
     1
102
RTVSPropertyOp14
 70
     1
102
RTVSPropertyOp15
 70
     1
102
RTVSPropertyOp16
 70
     1
102
RTVSPropertyOp17
 70
     1
102
RTVSPropertyOp18
 70
     1
102
RTVSPropertyOp19
 70
     1
102
RTVSPropertyOp20
 70
     1
102
RTVSPropertyOp21
 70
     1
102
RTVSPropertyOp22
 70
     1
102
RTVSPropertyOp23
 70
     1
102
RTVSPropertyOp24
 70
     1
102
RTVSPropertyOp25
 70
     1
102
RTVSPropertyOp26
 70
     1
102
RTVSPropertyOp27
 70
     1
102
RTVSPropertyOp28
 70
     1
102
RTVSPropertyOp29
 70
     1
102
RTVSPropertyOp30
 70
     1
102
RTVSPropertyOp31
 70
     1
102
RTVSPropertyOp32
 70
     1
102
RTVSPropertyOp33
 70
     1
102
RTVSPropertyOp34
 70
     1
102
RTVSPropertyOp35
 70
     1
102
RTVSPropertyOp36
 70
     1
102
RTVSPropertyOp37
 70
     1
102
RTVSPropertyOp38
 70
     1
102
RTVSPropertyOp39
 70
     1
102
RTVSPropertyOp40
 70
     1
102
RTVSPropertyOp41
 70
     1
102
RTVSPropertyOp42
 70
     1
102
RTVSPropertyOp43
 70
     1
102
RTVSPropertyOp44
 70
     1
102
RTVSPropertyOp45
 70
     1
102
RTVSPropertyOp46
 70
     1
102
RTVSPropertyOp47
 70
     1
102
RTVSPropertyOp48
 70
     1
102
RTVSPropertyOp49
 70
     1
102
RTVSPropertyOp50
 70
     1
102
RTVSPropertyOp51
 70
     0
102
RTVSPropertyOp52
 70
     0
102
RTVSPropertyOp53
 70
     1
102
RTVSPropertyOp54
 70
     1
102
RTVSPropertyOp55
 70
     1
102
RTVSPropertyOp56
 70
     1
102
RTVSPropertyOp57
 70
     1
102
RTVSPropertyOp58
 70
     1
102
RTVSPropertyOp59
 70
     1
102
RTVSPropertyOp60
 70
     1
102
RTVSPropertyOp61
 70
     1
102
RTVSPropertyOp62
 70
     1
  0
XRECORD
  5
529
102
{ACAD_REACTORS
330
528
102
}
330
528
100
AcDbXrecord
280
     1
102
RTVSPost2010Prop28
280
     0
102
RTVSPost2010PropOp28
 70
     1
102
RTVSPost2010Prop29
280
     1
102
RTVSPost2010PropOp29
 70
     1
102
RTVSPost2010Prop30
280
     1
102
RTVSPost2010PropOp30
 70
     1
102
RTVSPost2010Prop31
280
     0
102
RTVSPost2010PropOp31
 70
     1
102
RTVSPost2010Prop32
280
     0
102
RTVSPost2010PropOp32
 70
     1
102
RTVSPost2010Prop33
280
     0
102
RTVSPost2010PropOp33
 70
     1
102
RTVSPost2010Prop34
280
     0
102
RTVSPost2010PropOp34
 70
     1
102
RTVSPost2010Prop35
280
     0
102
RTVSPost2010PropOp35
 70
     1
102
RTVSPost2010Prop36
280
     0
102
RTVSPost2010PropOp36
 70
     1
102
RTVSPost2010Prop37
 90
       50
102
RTVSPost2010PropOp37
 70
     1
102
RTVSPost2010Prop38
140
0.0
102
RTVSPost2010PropOp38
 70
     1
102
RTVSPost2010Prop39
140
1.0
102
RTVSPost2010PropOp39
 70
     1
102
RTVSPost2010Prop40
 90
        0
102
RTVSPost2010PropOp40
 70
     1
102
RTVSPost2010Prop41ColorIndex
 90
       18
102
RTVSPost2010Prop41ColorRGB
 90
        0
102
RTVSPost2010PropOp41
 70
     1
102
RTVSPost2010Prop42
 90
       50
102
RTVSPost2010PropOp42
 70
     1
102
RTVSPost2010Prop43
 90
        3
102
RTVSPost2010PropOp43
 70
     1
102
RTVSPost2010Prop44ColorIndex
 90
        5
102
RTVSPost2010Prop44ColorRGB
 90
      255
102
RTVSPost2010PropOp44
 70
     1
102
RTVSPost2010Prop45
280
     0
102
RTVSPost2010PropOp45
 70
     1
102
RTVSPost2010Prop46
 90
       50
102
RTVSPost2010PropOp46
 70
     1
102
RTVSPost2010Prop47
 90
       50
102
RTVSPost2010PropOp47
 70
     1
102
RTVSPost2010Prop48
 90
       50
102
RTVSPost2010PropOp48
 70
     1
102
RTVSPost2010Prop49
280
     0
102
RTVSPost2010PropOp49
 70
     1
102
RTVSPost2010Prop50
 90
       50
102
RTVSPost2010PropOp50
 70
     1
102
RTVSPost2010Prop51ColorIndex
 90
      256
102
RTVSPost2010Prop51ColorRGB
 90
-16777216
102
RTVSPost2010PropOp51
 70
     0
102
RTVSPost2010Prop52
140
1.0
102
RTVSPost2010PropOp52
 70
     0
102
RTVSPost2010Prop53
 90
        2
102
RTVSPost2010PropOp53
 70
     1
102
RTVSPost2010Prop54
  1
strokes_ogs.tif
102
RTVSPost2010PropOp54
 70
     1
102
RTVSPost2010Prop55
280
     0
102
RTVSPost2010PropOp55
 70
     1
102
RTVSPost2010Prop56
140
1.0
102
RTVSPost2010PropOp56
 70
     1
102
RTVSPost2010Prop57
140
1.0
102
RTVSPost2010PropOp57
 70
     1
102
RTVSPropertyOp0
 70
     1
102
RTVSPropertyOp1
 70
     1
102
RTVSPropertyOp2
 70
     1
102
RTVSPropertyOp3
 70
     1
102
RTVSPropertyOp4
 70
     1
102
RTVSPropertyOp5
 70
     1
102
RTVSPropertyOp6
 70
     1
102
RTVSPropertyOp7
 70
     1
102
RTVSPropertyOp8
 70
     1
102
RTVSPropertyOp9
 70
     1
102
RTVSPropertyOp10
 70
     1
102
RTVSPropertyOp11
 70
     1
102
RTVSPropertyOp12
 70
     1
102
RTVSPropertyOp13
 70
     1
102
RTVSPropertyOp14
 70
     1
102
RTVSPropertyOp15
 70
     1
102
RTVSPropertyOp16
 70
     1
102
RTVSPropertyOp17
 70
     1
102
RTVSPropertyOp18
 70
     1
102
RTVSPropertyOp19
 70
     1
102
RTVSPropertyOp20
 70
     1
102
RTVSPropertyOp21
 70
     1
102
RTVSPropertyOp22
 70
     1
102
RTVSPropertyOp23
 70
     1
102
RTVSPropertyOp24
 70
     1
102
RTVSPropertyOp25
 70
     1
102
RTVSPropertyOp26
 70
     1
102
RTVSPropertyOp27
 70
     1
102
RTVSPropertyOp28
 70
     1
102
RTVSPropertyOp29
 70
     1
102
RTVSPropertyOp30
 70
     1
102
RTVSPropertyOp31
 70
     1
102
RTVSPropertyOp32
 70
     1
102
RTVSPropertyOp33
 70
     1
102
RTVSPropertyOp34
 70
     1
102
RTVSPropertyOp35
 70
     1
102
RTVSPropertyOp36
 70
     1
102
RTVSPropertyOp37
 70
     1
102
RTVSPropertyOp38
 70
     1
102
RTVSPropertyOp39
 70
     1
102
RTVSPropertyOp40
 70
     1
102
RTVSPropertyOp41
 70
     1
102
RTVSPropertyOp42
 70
     1
102
RTVSPropertyOp43
 70
     1
102
RTVSPropertyOp44
 70
     1
102
RTVSPropertyOp45
 70
     1
102
RTVSPropertyOp46
 70
     1
102
RTVSPropertyOp47
 70
     1
102
RTVSPropertyOp48
 70
     1
102
RTVSPropertyOp49
 70
     1
102
RTVSPropertyOp50
 70
     1
102
RTVSPropertyOp51
 70
     0
102
RTVSPropertyOp52
 70
     0
102
RTVSPropertyOp53
 70
     1
102
RTVSPropertyOp54
 70
     1
102
RTVSPropertyOp55
 70
     1
102
RTVSPropertyOp56
 70
     1
102
RTVSPropertyOp57
 70
     1
102
RTVSPropertyOp58
 70
     1
102
RTVSPropertyOp59
 70
     1
102
RTVSPropertyOp60
 70
     1
102
RTVSPropertyOp61
 70
     1
102
RTVSPropertyOp62
 70
     1
  0
ENDSEC
  0
EOF
