  0
SECTION
  2
HEADER
  9
$ACADVER
  1
AC1015
  9
$ACADMAINTVER
 70
    20
  9
$DWGCODEPAGE
  3
ANSI_1252
  9
$INSBASE
 10
0.0
 20
0.0
 30
0.0
  9
$EXTMIN
 10
-12.880649
 20
-25.246295
 30
0.0
  9
$EXTMAX
 10
78.35785600000001
 20
37.98275
 30
0.0
  9
$LIMMIN
 10
0.0
 20
0.0
  9
$LIMMAX
 10
12.0
 20
9.0
  9
$ORTHOMODE
 70
     0
  9
$REGENMODE
 70
     1
  9
$FILLMODE
 70
     1
  9
$QTEXTMODE
 70
     0
  9
$MIRRTEXT
 70
     1
  9
$LTSCALE
 40
1.0
  9
$ATTMODE
 70
     1
  9
$TEXTSIZE
 40
3.0
  9
$TRACEWID
 40
10.0
  9
$TEXTSTYLE
  7
SANDVIK_STYLE
  9
$CLAYER
  8
1
  9
$CELTYPE
  6
ByLayer
  9
$CECOLOR
 62
   256
  9
$CELTSCALE
 40
1.0
  9
$DISPSILH
 70
     0
  9
$DIMSCALE
 40
1.0
  9
$DIMASZ
 40
0.18
  9
$DIMEXO
 40
0.0625
  9
$DIMDLI
 40
0.38
  9
$DIMRND
 40
0.0
  9
$DIMDLE
 40
0.0
  9
$DIMEXE
 40
0.18
  9
$DIMTP
 40
0.0
  9
$DIMTM
 40
0.0
  9
$DIMTXT
 40
0.18
  9
$DIMCEN
 40
0.09
  9
$DIMTSZ
 40
0.0
  9
$DIMTOL
 70
     0
  9
$DIMLIM
 70
     0
  9
$DIMTIH
 70
     1
  9
$DIMTOH
 70
     1
  9
$DIMSE1
 70
     0
  9
$DIMSE2
 70
     0
  9
$DIMTAD
 70
     0
  9
$DIMZIN
 70
     0
  9
$DIMBLK
  1

  9
$DIMASO
 70
     1
  9
$DIMSHO
 70
     1
  9
$DIMPOST
  1

  9
$DIMAPOST
  1

  9
$DIMALT
 70
     0
  9
$DIMALTD
 70
     2
  9
$DIMALTF
 40
25.4
  9
$DIMLFAC
 40
1.0
  9
$DIMTOFL
 70
     0
  9
$DIMTVP
 40
0.0
  9
$DIMTIX
 70
     0
  9
$DIMSOXD
 70
     0
  9
$DIMSAH
 70
     0
  9
$DIMBLK1
  1

  9
$DIMBLK2
  1

  9
$DIMSTYLE
  2
STANDARD
  9
$DIMCLRD
 70
     0
  9
$DIMCLRE
 70
     0
  9
$DIMCLRT
 70
     0
  9
$DIMTFAC
 40
1.0
  9
$DIMGAP
 40
0.09
  9
$DIMJUST
 70
     0
  9
$DIMSD1
 70
     0
  9
$DIMSD2
 70
     0
  9
$DIMTOLJ
 70
     1
  9
$DIMTZIN
 70
     0
  9
$DIMALTZ
 70
     0
  9
$DIMALTTZ
 70
     0
  9
$DIMUPT
 70
     0
  9
$DIMDEC
 70
     4
  9
$DIMTDEC
 70
     4
  9
$DIMALTU
 70
     2
  9
$DIMALTTD
 70
     2
  9
$DIMTXSTY
  7
STANDARD
  9
$DIMAUNIT
 70
     0
  9
$DIMADEC
 70
     0
  9
$DIMALTRND
 40
0.0
  9
$DIMAZIN
 70
     0
  9
$DIMDSEP
 70
    46
  9
$DIMATFIT
 70
     3
  9
$DIMFRAC
 70
     0
  9
$DIMLDRBLK
  1

  9
$DIMLUNIT
 70
     2
  9
$DIMLWD
 70
    -2
  9
$DIMLWE
 70
    -2
  9
$DIMTMOVE
 70
     0
  9
$LUNITS
 70
     2
  9
$LUPREC
 70
     2
  9
$SKETCHINC
 40
0.0
  9
$FILLETRAD
 40
0.0
  9
$AUNITS
 70
     0
  9
$AUPREC
 70
     2
  9
$MENU
  1
acad
  9
$ELEVATION
 40
0.0
  9
$PELEVATION
 40
0.0
  9
$THICKNESS
 40
0.0
  9
$LIMCHECK
 70
     0
  9
$CHAMFERA
 40
0.0
  9
$CHAMFERB
 40
0.0
  9
$CHAMFERC
 40
0.0
  9
$CHAMFERD
 40
0.0
  9
$SKPOLY
 70
     0
  9
$TDCREATE
 40
2456818.319586007
  9
$TDUCREATE
 40
2456818.236252674
  9
$TDUPDATE
 40
2456818.319590000
  9
$TDUUPDATE
 40
2456818.236256666
  9
$TDINDWG
 40
0.0000047569
  9
$TDUSRTIMER
 40
0.0000047569
  9
$USRTIMER
 70
     1
  9
$ANGBASE
 50
0.0
  9
$ANGDIR
 70
     0
  9
$PDMODE
 70
     0
  9
$PDSIZE
 40
0.0
  9
$PLINEWID
 40
0.0
  9
$SPLFRAME
 70
     0
  9
$SPLINETYPE
 70
     6
  9
$SPLINESEGS
 70
     8
  9
$HANDSEED
  5
538
  9
$SURFTAB1
 70
     6
  9
$SURFTAB2
 70
     6
  9
$SURFTYPE
 70
     6
  9
$SURFU
 70
     6
  9
$SURFV
 70
     6
  9
$UCSBASE
  2

  9
$UCSNAME
  2

  9
$UCSORG
 10
0.0
 20
0.0
 30
0.0
  9
$UCSXDIR
 10
1.0
 20
0.0
 30
0.0
  9
$UCSYDIR
 10
0.0
 20
1.0
 30
0.0
  9
$UCSORTHOREF
  2

  9
$UCSORTHOVIEW
 70
     0
  9
$UCSORGTOP
 10
0.0
 20
0.0
 30
0.0
  9
$UCSORGBOTTOM
 10
0.0
 20
0.0
 30
0.0
  9
$UCSORGLEFT
 10
0.0
 20
0.0
 30
0.0
  9
$UCSORGRIGHT
 10
0.0
 20
0.0
 30
0.0
  9
$UCSORGFRONT
 10
0.0
 20
0.0
 30
0.0
  9
$UCSORGBACK
 10
0.0
 20
0.0
 30
0.0
  9
$PUCSBASE
  2

  9
$PUCSNAME
  2

  9
$PUCSORG
 10
0.0
 20
0.0
 30
0.0
  9
$PUCSXDIR
 10
1.0
 20
0.0
 30
0.0
  9
$PUCSYDIR
 10
0.0
 20
1.0
 30
0.0
  9
$PUCSORTHOREF
  2

  9
$PUCSORTHOVIEW
 70
     0
  9
$PUCSORGTOP
 10
0.0
 20
0.0
 30
0.0
  9
$PUCSORGBOTTOM
 10
0.0
 20
0.0
 30
0.0
  9
$PUCSORGLEFT
 10
0.0
 20
0.0
 30
0.0
  9
$PUCSORGRIGHT
 10
0.0
 20
0.0
 30
0.0
  9
$PUCSORGFRONT
 10
0.0
 20
0.0
 30
0.0
  9
$PUCSORGBACK
 10
0.0
 20
0.0
 30
0.0
  9
$USERI1
 70
     0
  9
$USERI2
 70
     0
  9
$USERI3
 70
     0
  9
$USERI4
 70
     0
  9
$USERI5
 70
     0
  9
$USERR1
 40
0.0
  9
$USERR2
 40
0.0
  9
$USERR3
 40
0.0
  9
$USERR4
 40
0.0
  9
$USERR5
 40
0.0
  9
$WORLDVIEW
 70
     1
  9
$SHADEDGE
 70
     3
  9
$SHADEDIF
 70
    70
  9
$TILEMODE
 70
     1
  9
$MAXACTVP
 70
    16
  9
$PINSBASE
 10
0.0
 20
0.0
 30
0.0
  9
$PLIMCHECK
 70
     0
  9
$PEXTMIN
 10
1.000000000000000E+20
 20
1.000000000000000E+20
 30
1.000000000000000E+20
  9
$PEXTMAX
 10
-1.000000000000000E+20
 20
-1.000000000000000E+20
 30
-1.000000000000000E+20
  9
$PLIMMIN
 10
0.0
 20
0.0
  9
$PLIMMAX
 10
12.0
 20
9.0
  9
$UNITMODE
 70
     0
  9
$VISRETAIN
 70
     0
  9
$PLINEGEN
 70
     0
  9
$PSLTSCALE
 70
     1
  9
$TREEDEPTH
 70
  3020
  9
$CMLSTYLE
  2
Standard
  9
$CMLJUST
 70
     0
  9
$CMLSCALE
 40
1.0
  9
$PROXYGRAPHICS
 70
     1
  9
$MEASUREMENT
 70
     0
  9
$CELWEIGHT
370
    -1
  9
$ENDCAPS
280
     0
  9
$JOINSTYLE
280
     0
  9
$LWDISPLAY
290
     0
  9
$INSUNITS
 70
     0
  9
$HYPERLINKBASE
  1

  9
$STYLESHEET
  1

  9
$XEDIT
290
     1
  9
$CEPSNTYPE
380
     0
  9
$PSTYLEMODE
290
     1
  9
$FINGERPRINTGUID
  2
{1BD433BF-58DD-433C-B771-BF592AB760E0}
  9
$VERSIONGUID
  2
{9A0AC603-56A3-4FE5-97A0-BF597ED864AB}
  9
$EXTNAMES
290
     1
  9
$PSVPSCALE
 40
0.0
  9
$OLESTARTUP
290
     0
  0
ENDSEC
  0
SECTION
  2
CLASSES
  0
CLASS
  1
ACDBDICTIONARYWDFLT
  2
AcDbDictionaryWithDefault
  3
ObjectDBX Classes
 90
        0
280
     0
281
     0
  0
CLASS
  1
MATERIAL
  2
AcDbMaterial
  3
ObjectDBX Classes
 90
     1153
280
     0
281
     0
  0
CLASS
  1
VISUALSTYLE
  2
AcDbVisualStyle
  3
ObjectDBX Classes
 90
     4095
280
     0
281
     0
  0
CLASS
  1
SCALE
  2
AcDbScale
  3
ObjectDBX Classes
 90
     1153
280
     0
281
     0
  0
CLASS
  1
TABLESTYLE
  2
AcDbTableStyle
  3
ObjectDBX Classes
 90
     4095
280
     0
281
     0
  0
CLASS
  1
MLEADERSTYLE
  2
AcDbMLeaderStyle
  3
ACDB_MLEADERSTYLE_CLASS
 90
     4095
280
     0
281
     0
  0
CLASS
  1
ACDBSECTIONVIEWSTYLE
  2
AcDbSectionViewStyle
  3
ObjectDBX Classes
 90
     1025
280
     0
281
     0
  0
CLASS
  1
ACDBDETAILVIEWSTYLE
  2
AcDbDetailViewStyle
  3
ObjectDBX Classes
 90
     1025
280
     0
281
     0
  0
CLASS
  1
EXACXREFPANELOBJECT
  2
ExAcXREFPanelObject
  3
EXAC_ESW
 90
     1025
280
     0
281
     0
  0
CLASS
  1
NPOCOLLECTION
  2
AcDbImpNonPersistentObjectsCollection
  3
ObjectDBX Classes
 90
     1153
280
     0
281
     0
  0
CLASS
  1
DICTIONARYVAR
  2
AcDbDictionaryVar
  3
ObjectDBX Classes
 90
        0
280
     0
281
     0
  0
CLASS
  1
CELLSTYLEMAP
  2
AcDbCellStyleMap
  3
ObjectDBX Classes
 90
     1152
280
     0
281
     0
  0
CLASS
  1
ACDBPLACEHOLDER
  2
AcDbPlaceHolder
  3
ObjectDBX Classes
 90
        0
280
     0
281
     0
  0
CLASS
  1
LAYOUT
  2
AcDbLayout
  3
ObjectDBX Classes
 90
        0
280
     0
281
     0
  0
ENDSEC
  0
SECTION
  2
TABLES
  0
TABLE
  2
VPORT
  5
405
330
0
100
AcDbSymbolTable
 70
     1
  0
VPORT
  5
49C
330
405
100
AcDbSymbolTableRecord
100
AcDbViewportTableRecord
  2
*Active
 70
     0
 10
0.0
 20
0.0
 11
1.0
 21
1.0
 12
32.73860350000001
 22
6.368227499999999
 13
0.0
 23
0.0
 14
1.0
 24
1.0
 15
0.0
 25
0.0
 16
0.0
 26
0.0
 36
1.0
 17
0.0
 27
0.0
 37
0.0
 40
70.75871330409357
 41
2.2
 42
50.0
 43
0.0
 44
0.0
 50
0.0
 51
0.0
 71
     0
 72
   100
 73
     1
 74
     1
 75
     0
 76
     0
 77
     0
 78
     0
281
     0
 65
     1
110
0.0
120
0.0
130
0.0
111
1.0
121
0.0
131
0.0
112
0.0
122
1.0
132
0.0
 79
     0
146
0.0
1001
ACAD_NAV_VCDISPLAY
1070
     3
  0
ENDTAB
  0
TABLE
  2
LTYPE
  5
402
330
0
100
AcDbSymbolTable
 70
     4
  0
LTYPE
  5
457
330
402
100
AcDbSymbolTableRecord
100
AcDbLinetypeTableRecord
  2
ByBlock
 70
     0
  3

 72
    65
 73
     0
 40
0.0
  0
LTYPE
  5
458
330
402
100
AcDbSymbolTableRecord
100
AcDbLinetypeTableRecord
  2
ByLayer
 70
     0
  3

 72
    65
 73
     0
 40
0.0
  0
LTYPE
  5
459
330
402
100
AcDbSymbolTableRecord
100
AcDbLinetypeTableRecord
  2
CONTINUOUS
 70
     0
  3
Solid line
 72
    65
 73
     0
 40
0.0
  0
LTYPE
  5
465
330
402
100
AcDbSymbolTableRecord
100
AcDbLinetypeTableRecord
  2
PHANTOM2
 70
     0
  3
Phantom (.5x) ___ _ _ ___ _ _ ___ _ _ ___ _ _
 72
    65
 73
     6
 40
1.25
 49
0.625
 74
     0
 49
-0.125
 74
     0
 49
0.125
 74
     0
 49
-0.125
 74
     0
 49
0.125
 74
     0
 49
-0.125
 74
     0
  0
LTYPE
  5
473
330
402
100
AcDbSymbolTableRecord
100
AcDbLinetypeTableRecord
  2
CENTER
 70
     0
  3
____ _ ____ _ ____ _ ____ _ ____ _ ____ _ ____
 72
    65
 73
     4
 40
5.059897
 49
3.162434999999999
 74
     0
 49
-0.6324870000000001
 74
     0
 49
0.6324870000000001
 74
     0
 49
-0.6324870000000001
 74
     0
  0
LTYPE
  5
474
330
402
100
AcDbSymbolTableRecord
100
AcDbLinetypeTableRecord
  2
DASHED
 70
     0
  3
__ __ __ __ __ __ __ __ __ __ __ __ __ __ __ __
 72
    65
 73
     2
 40
7.589844999999999
 49
5.059897
 74
     0
 49
-2.529948
 74
     0
  0
ENDTAB
  0
TABLE
  2
LAYER
  5
3FF
330
0
100
AcDbSymbolTable
 70
    38
  0
LAYER
  5
451
102
{ACAD_XDICTIONARY
360
4A4
102
}
330
3FF
100
AcDbSymbolTableRecord
100
AcDbLayerTableRecord
  2
0
 70
     0
 62
     7
  6
CONTINUOUS
370
    -3
390
40C
  0
LAYER
  5
471
102
{ACAD_XDICTIONARY
360
4A6
102
}
330
3FF
100
AcDbSymbolTableRecord
100
AcDbLayerTableRecord
  2
1
 70
     0
 62
     4
  6
CONTINUOUS
370
    -3
390
40C
  0
LAYER
  5
475
102
{ACAD_XDICTIONARY
360
4A8
102
}
330
3FF
100
AcDbSymbolTableRecord
100
AcDbLayerTableRecord
  2
61
 70
     0
 62
     5
  6
CONTINUOUS
370
    -3
390
40C
  0
LAYER
  5
476
102
{ACAD_XDICTIONARY
360
4AA
102
}
330
3FF
100
AcDbSymbolTableRecord
100
AcDbLayerTableRecord
  2
62
 70
     0
 62
    -5
  6
CONTINUOUS
370
    -3
390
40C
  0
LAYER
  5
477
102
{ACAD_XDICTIONARY
360
4AC
102
}
330
3FF
100
AcDbSymbolTableRecord
100
AcDbLayerTableRecord
  2
63
 70
     0
 62
    -5
  6
CONTINUOUS
370
    -3
390
40C
  0
LAYER
  5
478
102
{ACAD_XDICTIONARY
360
4AE
102
}
330
3FF
100
AcDbSymbolTableRecord
100
AcDbLayerTableRecord
  2
64
 70
     0
 62
    -5
  6
CONTINUOUS
370
    -3
390
40C
  0
LAYER
  5
479
102
{ACAD_XDICTIONARY
360
4B0
102
}
330
3FF
100
AcDbSymbolTableRecord
100
AcDbLayerTableRecord
  2
65
 70
     0
 62
    -5
  6
CONTINUOUS
370
    -3
390
40C
  0
LAYER
  5
47A
102
{ACAD_XDICTIONARY
360
4B2
102
}
330
3FF
100
AcDbSymbolTableRecord
100
AcDbLayerTableRecord
  2
66
 70
     0
 62
    -5
  6
CONTINUOUS
370
    -3
390
40C
  0
LAYER
  5
47B
102
{ACAD_XDICTIONARY
360
4B4
102
}
330
3FF
100
AcDbSymbolTableRecord
100
AcDbLayerTableRecord
  2
67
 70
     0
 62
    -5
  6
CONTINUOUS
370
    -3
390
40C
  0
LAYER
  5
47C
102
{ACAD_XDICTIONARY
360
4B6
102
}
330
3FF
100
AcDbSymbolTableRecord
100
AcDbLayerTableRecord
  2
68
 70
     0
 62
    -5
  6
CONTINUOUS
370
    -3
390
40C
  0
LAYER
  5
47D
102
{ACAD_XDICTIONARY
360
4B8
102
}
330
3FF
100
AcDbSymbolTableRecord
100
AcDbLayerTableRecord
  2
69
 70
     0
 62
    -5
  6
CONTINUOUS
370
    -3
390
40C
  0
LAYER
  5
47E
102
{ACAD_XDICTIONARY
360
4BA
102
}
330
3FF
100
AcDbSymbolTableRecord
100
AcDbLayerTableRecord
  2
70
 70
     0
 62
     5
  6
CONTINUOUS
370
    -3
390
40C
  0
LAYER
  5
47F
102
{ACAD_XDICTIONARY
360
4BC
102
}
330
3FF
100
AcDbSymbolTableRecord
100
AcDbLayerTableRecord
  2
2
 70
     0
 62
     7
  6
CONTINUOUS
370
    -3
390
40C
  0
LAYER
  5
480
102
{ACAD_XDICTIONARY
360
4BE
102
}
330
3FF
100
AcDbSymbolTableRecord
100
AcDbLayerTableRecord
  2
3
 70
     0
 62
     1
  6
DASHED
370
    -3
390
40C
  0
LAYER
  5
481
102
{ACAD_XDICTIONARY
360
4C0
102
}
330
3FF
100
AcDbSymbolTableRecord
100
AcDbLayerTableRecord
  2
4
 70
     0
 62
    -2
  6
CENTER
370
    -3
390
40C
  0
LAYER
  5
482
102
{ACAD_XDICTIONARY
360
4C2
102
}
330
3FF
100
AcDbSymbolTableRecord
100
AcDbLayerTableRecord
  2
5
 70
     0
 62
    -7
  6
CONTINUOUS
370
    -3
390
40C
  0
LAYER
  5
483
102
{ACAD_XDICTIONARY
360
4C4
102
}
330
3FF
100
AcDbSymbolTableRecord
100
AcDbLayerTableRecord
  2
SK1
 70
     0
 62
     4
  6
CONTINUOUS
370
    -3
390
40C
  0
LAYER
  5
484
102
{ACAD_XDICTIONARY
360
4C6
102
}
330
3FF
100
AcDbSymbolTableRecord
100
AcDbLayerTableRecord
  2
6
 70
     0
 62
     5
  6
CONTINUOUS
370
    -3
390
40C
  0
LAYER
  5
485
102
{ACAD_XDICTIONARY
360
4C8
102
}
330
3FF
100
AcDbSymbolTableRecord
100
AcDbLayerTableRecord
  2
SK2
 70
     0
 62
     7
  6
CONTINUOUS
370
    -3
390
40C
  0
LAYER
  5
486
102
{ACAD_XDICTIONARY
360
4CA
102
}
330
3FF
100
AcDbSymbolTableRecord
100
AcDbLayerTableRecord
  2
SK3
 70
     0
 62
     1
  6
DASHED
370
    -3
390
40C
  0
LAYER
  5
487
102
{ACAD_XDICTIONARY
360
4CC
102
}
330
3FF
100
AcDbSymbolTableRecord
100
AcDbLayerTableRecord
  2
SK4
 70
     0
 62
     2
  6
CENTER
370
    -3
390
40C
  0
LAYER
  5
488
102
{ACAD_XDICTIONARY
360
4CE
102
}
330
3FF
100
AcDbSymbolTableRecord
100
AcDbLayerTableRecord
  2
CUT
 70
     0
 62
    -1
  6
CONTINUOUS
370
    -3
390
40C
  0
LAYER
  5
489
102
{ACAD_XDICTIONARY
360
4D0
102
}
330
3FF
100
AcDbSymbolTableRecord
100
AcDbLayerTableRecord
  2
SK6
 70
     0
 62
     5
  6
CONTINUOUS
370
    -3
390
40C
  0
LAYER
  5
48A
102
{ACAD_XDICTIONARY
360
4D2
102
}
330
3FF
100
AcDbSymbolTableRecord
100
AcDbLayerTableRecord
  2
80
 70
     0
 62
    -2
  6
CENTER
370
    -3
390
40C
  0
LAYER
  5
48B
102
{ACAD_XDICTIONARY
360
4D4
102
}
330
3FF
100
AcDbSymbolTableRecord
100
AcDbLayerTableRecord
  2
81
 70
     0
 62
    -2
  6
CENTER
370
    -3
390
40C
  0
LAYER
  5
48C
102
{ACAD_XDICTIONARY
360
4D6
102
}
330
3FF
100
AcDbSymbolTableRecord
100
AcDbLayerTableRecord
  2
82
 70
     0
 62
    -2
  6
CENTER
370
    -3
390
40C
  0
LAYER
  5
48D
102
{ACAD_XDICTIONARY
360
4D8
102
}
330
3FF
100
AcDbSymbolTableRecord
100
AcDbLayerTableRecord
  2
NOCUT
 70
     0
 62
     7
  6
CONTINUOUS
370
    -3
390
40C
  0
LAYER
  5
48E
102
{ACAD_XDICTIONARY
360
4DA
102
}
330
3FF
100
AcDbSymbolTableRecord
100
AcDbLayerTableRecord
  2
50
 70
     0
 62
    -7
  6
CONTINUOUS
370
    -3
390
40C
  0
LAYER
  5
48F
102
{ACAD_XDICTIONARY
360
4DC
102
}
330
3FF
100
AcDbSymbolTableRecord
100
AcDbLayerTableRecord
  2
51
 70
     0
 62
     7
  6
CONTINUOUS
370
    -3
390
40C
  0
LAYER
  5
490
102
{ACAD_XDICTIONARY
360
4DE
102
}
330
3FF
100
AcDbSymbolTableRecord
100
AcDbLayerTableRecord
  2
52
 70
     0
 62
    -7
  6
CONTINUOUS
370
    -3
390
40C
  0
LAYER
  5
491
102
{ACAD_XDICTIONARY
360
4E0
102
}
330
3FF
100
AcDbSymbolTableRecord
100
AcDbLayerTableRecord
  2
53
 70
     0
 62
    -7
  6
CONTINUOUS
370
    -3
390
40C
  0
LAYER
  5
492
102
{ACAD_XDICTIONARY
360
4E2
102
}
330
3FF
100
AcDbSymbolTableRecord
100
AcDbLayerTableRecord
  2
54
 70
     0
 62
    -7
  6
CONTINUOUS
370
    -3
390
40C
  0
LAYER
  5
493
102
{ACAD_XDICTIONARY
360
4E4
102
}
330
3FF
100
AcDbSymbolTableRecord
100
AcDbLayerTableRecord
  2
55
 70
     0
 62
    -7
  6
CONTINUOUS
370
    -3
390
40C
  0
LAYER
  5
494
102
{ACAD_XDICTIONARY
360
4E6
102
}
330
3FF
100
AcDbSymbolTableRecord
100
AcDbLayerTableRecord
  2
56
 70
     0
 62
    -7
  6
CONTINUOUS
370
    -3
390
40C
  0
LAYER
  5
495
102
{ACAD_XDICTIONARY
360
4E8
102
}
330
3FF
100
AcDbSymbolTableRecord
100
AcDbLayerTableRecord
  2
57
 70
     0
 62
    -7
  6
CONTINUOUS
370
    -3
390
40C
  0
LAYER
  5
496
102
{ACAD_XDICTIONARY
360
4EA
102
}
330
3FF
100
AcDbSymbolTableRecord
100
AcDbLayerTableRecord
  2
58
 70
     0
 62
    -7
  6
CONTINUOUS
370
    -3
390
40C
  0
LAYER
  5
497
102
{ACAD_XDICTIONARY
360
4EC
102
}
330
3FF
100
AcDbSymbolTableRecord
100
AcDbLayerTableRecord
  2
2L
 70
     0
 62
     7
  6
CONTINUOUS
370
    -3
390
40C
  0
LAYER
  5
498
102
{ACAD_XDICTIONARY
360
4EE
102
}
330
3FF
100
AcDbSymbolTableRecord
100
AcDbLayerTableRecord
  2
59
 70
     0
 62
    -7
  6
CONTINUOUS
370
    -3
390
40C
  0
ENDTAB
  0
TABLE
  2
STYLE
  5
400
330
0
100
AcDbSymbolTable
 70
     3
  0
STYLE
  5
452
330
400
100
AcDbSymbolTableRecord
100
AcDbTextStyleTableRecord
  2
STANDARD
 70
     0
 40
0.0
 41
1.0
 50
0.0
 71
     0
 42
4.5
  3
simplex.shx
  4

  0
STYLE
  5
456
330
400
100
AcDbSymbolTableRecord
100
AcDbTextStyleTableRecord
  2
Annotative
 70
     0
 40
0.0
 41
1.0
 50
0.0
 71
     0
 42
0.2
  3
txt
  4

1001
AcadAnnotative
1000
AnnotativeData
1002
{
1070
     1
1070
     1
1002
}
  0
STYLE
  5
472
330
400
100
AcDbSymbolTableRecord
100
AcDbTextStyleTableRecord
  2
SANDVIK_STYLE
 70
     0
 40
3.0
 41
1.0
 50
0.0
 71
     0
 42
3.0
  3
simplex.shx
  4

  0
ENDTAB
  0
TABLE
  2
VIEW
  5
403
330
0
100
AcDbSymbolTable
 70
     0
  0
ENDTAB
  0
TABLE
  2
UCS
  5
404
330
0
100
AcDbSymbolTable
 70
     0
  0
ENDTAB
  0
TABLE
  2
APPID
  5
406
330
0
100
AcDbSymbolTable
 70
     4
  0
APPID
  5
453
330
406
100
AcDbSymbolTableRecord
100
AcDbRegAppTableRecord
  2
ACAD
 70
     0
  0
APPID
  5
45A
330
406
100
AcDbSymbolTableRecord
100
AcDbRegAppTableRecord
  2
AcadAnnotative
 70
     0
  0
APPID
  5
4FA
330
406
100
AcDbSymbolTableRecord
100
AcDbRegAppTableRecord
  2
ACAD_NAV_VCDISPLAY
 70
     0
  0
APPID
  5
533
330
406
100
AcDbSymbolTableRecord
100
AcDbRegAppTableRecord
  2
ACAD_MLEADERVER
 70
     0
  0
ENDTAB
  0
TABLE
  2
DIMSTYLE
  5
407
330
0
100
AcDbSymbolTable
 70
     3
100
AcDbDimStyleTable
 71
     0
  0
DIMSTYLE
105
454
330
407
100
AcDbSymbolTableRecord
100
AcDbDimStyleTableRecord
  2
STANDARD
 70
     0
  4
 
 41
3.0
 42
2.5
 43
10.0
 44
2.5
 46
1.25
 73
     0
 74
     0
140
3.0
141
-3.0
143
0.039
145
1.5
146
0.75
147
1.5
271
     2
272
     2
279
     2
340
472
  0
DIMSTYLE
105
455
330
407
100
AcDbSymbolTableRecord
100
AcDbDimStyleTableRecord
  2
Annotative
 70
     0
340
452
1001
AcadAnnotative
1000
AnnotativeData
1002
{
1070
     1
1070
     1
1002
}
  0
DIMSTYLE
105
499
330
407
100
AcDbSymbolTableRecord
100
AcDbDimStyleTableRecord
  2
SANDVIK_DIM
 70
     0
  4
 
 40
0.0
 41
4.57
 42
0.0
 44
5.0
 73
     0
 74
     0
 77
     1
 78
     8
140
4.5
147
2.299999999999999
176
   256
177
   256
178
   256
271
     2
272
     2
279
     2
340
472
  0
ENDTAB
  0
TABLE
  2
BLOCK_RECORD
  5
3FE
330
0
100
AcDbSymbolTable
 70
     3
  0
BLOCK_RECORD
  5
46D
330
3FE
100
AcDbSymbolTableRecord
100
AcDbBlockTableRecord
  2
*Model_Space
340
470
  0
BLOCK_RECORD
  5
469
330
3FE
100
AcDbSymbolTableRecord
100
AcDbBlockTableRecord
  2
*Paper_Space
340
46C
  0
BLOCK_RECORD
  5
49D
330
3FE
100
AcDbSymbolTableRecord
100
AcDbBlockTableRecord
  2
*D0
340
0
102
{BLKREFS
331
394
102
}
  0
BLOCK_RECORD
  5
49E
330
3FE
100
AcDbSymbolTableRecord
100
AcDbBlockTableRecord
  2
*D1
340
0
102
{BLKREFS
331
396
102
}
  0
BLOCK_RECORD
  5
49F
330
3FE
100
AcDbSymbolTableRecord
100
AcDbBlockTableRecord
  2
*D2
340
0
102
{BLKREFS
331
398
102
}
  0
ENDTAB
  0
ENDSEC
  0
SECTION
  2
BLOCKS
  0
BLOCK
  5
46E
330
46D
100
AcDbEntity
  8
0
100
AcDbBlockBegin
  2
*Model_Space
 70
     0
 10
0.0
 20
0.0
 30
0.0
  3
*Model_Space
  1

  0
ENDBLK
  5
46F
330
46D
100
AcDbEntity
  8
0
100
AcDbBlockEnd
  0
BLOCK
  5
46A
330
469
100
AcDbEntity
 67
     1
  8
0
100
AcDbBlockBegin
  2
*Paper_Space
 70
     0
 10
0.0
 20
0.0
 30
0.0
  3
*Paper_Space
  1

  0
ENDBLK
  5
46B
330
469
100
AcDbEntity
 67
     1
  8
0
100
AcDbBlockEnd
  0
BLOCK
  5
2
330
49D
100
AcDbEntity
  8
0
100
AcDbBlockBegin
  2
*D0
 70
     1
 10
0.0
 20
0.0
 30
0.0
  3
*D0
  1

  0
LINE
  5
3
330
49D
100
AcDbEntity
  8
0
100
AcDbLine
 10
0.0
 20
9.9
 30
0.0
 11
0.0
 21
34.9
 31
0.0
  0
LINE
  5
4
330
49D
100
AcDbEntity
  8
0
100
AcDbLine
 10
60.0
 20
7.5
 30
0.0
 11
60.0
 21
34.9
 31
0.0
  0
LINE
  5
5
330
49D
100
AcDbEntity
  8
0
100
AcDbLine
 10
2.5
 20
33.9
 30
0.0
 11
57.5
 21
33.9
 31
0.0
  0
LINE
  5
6
330
49D
100
AcDbEntity
  8
0
100
AcDbLine
 10
2.5
 20
34.316667
 30
0.0
 11
2.5
 21
33.483333
 31
0.0
  0
LINE
  5
7
330
49D
100
AcDbEntity
  8
0
100
AcDbLine
 10
2.5
 20
33.483333
 30
0.0
 11
0.0
 21
33.9
 31
0.0
  0
LINE
  5
8
330
49D
100
AcDbEntity
  8
0
100
AcDbLine
 10
0.0
 20
33.9
 30
0.0
 11
0.0
 21
33.9
 31
0.0
  0
LINE
  5
9
330
49D
100
AcDbEntity
  8
0
100
AcDbLine
 10
0.0
 20
33.9
 30
0.0
 11
2.5
 21
34.316667
 31
0.0
  0
LINE
  5
A
330
49D
100
AcDbEntity
  8
0
100
AcDbLine
 10
57.5
 20
34.316667
 30
0.0
 11
57.5
 21
33.483333
 31
0.0
  0
LINE
  5
B
330
49D
100
AcDbEntity
  8
0
100
AcDbLine
 10
57.5
 20
33.483333
 30
0.0
 11
60.0
 21
33.9
 31
0.0
  0
LINE
  5
C
330
49D
100
AcDbEntity
  8
0
100
AcDbLine
 10
60.0
 20
33.9
 30
0.0
 11
60.0
 21
33.9
 31
0.0
  0
LINE
  5
D
330
49D
100
AcDbEntity
  8
0
100
AcDbLine
 10
60.0
 20
33.9
 30
0.0
 11
57.5
 21
34.316667
 31
0.0
  0
ENDBLK
  5
E
330
49D
100
AcDbEntity
  8
0
100
AcDbBlockEnd
  0
BLOCK
  5
F
330
49E
100
AcDbEntity
  8
0
100
AcDbBlockBegin
  2
*D1
 70
     1
 10
0.0
 20
0.0
 30
0.0
  3
*D1
  1

  0
LINE
  5
10
330
49E
100
AcDbEntity
  8
0
100
AcDbLine
 10
61.0
 20
6.5
 30
0.0
 11
78.35785600000001
 21
6.5
 31
0.0
  0
LINE
  5
11
330
49E
100
AcDbEntity
  8
0
100
AcDbLine
 10
61.0
 20
-6.5
 30
0.0
 11
78.35785600000001
 21
-6.5
 31
0.0
  0
LINE
  5
12
330
49E
100
AcDbEntity
  8
0
100
AcDbLine
 10
77.35785600000001
 20
4.0
 30
0.0
 11
77.35785600000001
 21
-4.0
 31
0.0
  0
LINE
  5
13
330
49E
100
AcDbEntity
  8
0
100
AcDbLine
 10
76.94118900000001
 20
4.0
 30
0.0
 11
77.77452199999999
 21
4.0
 31
0.0
  0
LINE
  5
14
330
49E
100
AcDbEntity
  8
0
100
AcDbLine
 10
77.77452199999999
 20
4.0
 30
0.0
 11
77.35785600000001
 21
6.5
 31
0.0
  0
LINE
  5
15
330
49E
100
AcDbEntity
  8
0
100
AcDbLine
 10
77.35785600000001
 20
6.5
 30
0.0
 11
77.35785600000001
 21
6.5
 31
0.0
  0
LINE
  5
16
330
49E
100
AcDbEntity
  8
0
100
AcDbLine
 10
77.35785600000001
 20
6.5
 30
0.0
 11
76.94118900000001
 21
4.0
 31
0.0
  0
LINE
  5
17
330
49E
100
AcDbEntity
  8
0
100
AcDbLine
 10
76.94118900000001
 20
-4.0
 30
0.0
 11
77.77452199999999
 21
-4.0
 31
0.0
  0
LINE
  5
18
330
49E
100
AcDbEntity
  8
0
100
AcDbLine
 10
77.77452199999999
 20
-4.0
 30
0.0
 11
77.35785600000001
 21
-6.5
 31
0.0
  0
LINE
  5
19
330
49E
100
AcDbEntity
  8
0
100
AcDbLine
 10
77.35785600000001
 20
-6.5
 30
0.0
 11
77.35785600000001
 21
-6.5
 31
0.0
  0
LINE
  5
1A
330
49E
100
AcDbEntity
  8
0
100
AcDbLine
 10
77.35785600000001
 20
-6.5
 30
0.0
 11
76.94118900000001
 21
-4.0
 31
0.0
  0
ENDBLK
  5
1B
330
49E
100
AcDbEntity
  8
0
100
AcDbBlockEnd
  0
BLOCK
  5
1C
330
49F
100
AcDbEntity
  8
0
100
AcDbBlockBegin
  2
*D2
 70
     1
 10
0.0
 20
0.0
 30
0.0
  3
*D2
  1

  0
LINE
  5
1D
330
49F
100
AcDbEntity
  8
0
100
AcDbLine
 10
60.0
 20
7.5
 30
0.0
 11
60.0
 21
24.9
 31
0.0
  0
LINE
  5
1E
330
49F
100
AcDbEntity
  8
0
100
AcDbLine
 10
15.0
 20
7.5
 30
0.0
 11
15.0
 21
24.9
 31
0.0
  0
LINE
  5
1F
330
49F
100
AcDbEntity
  8
0
100
AcDbLine
 10
57.5
 20
23.9
 30
0.0
 11
17.5
 21
23.9
 31
0.0
  0
LINE
  5
20
330
49F
100
AcDbEntity
  8
0
100
AcDbLine
 10
57.5
 20
24.316667
 30
0.0
 11
57.5
 21
23.483333
 31
0.0
  0
LINE
  5
21
330
49F
100
AcDbEntity
  8
0
100
AcDbLine
 10
57.5
 20
23.483333
 30
0.0
 11
60.0
 21
23.9
 31
0.0
  0
LINE
  5
22
330
49F
100
AcDbEntity
  8
0
100
AcDbLine
 10
60.0
 20
23.9
 30
0.0
 11
60.0
 21
23.9
 31
0.0
  0
LINE
  5
23
330
49F
100
AcDbEntity
  8
0
100
AcDbLine
 10
60.0
 20
23.9
 30
0.0
 11
57.5
 21
24.316667
 31
0.0
  0
LINE
  5
24
330
49F
100
AcDbEntity
  8
0
100
AcDbLine
 10
17.5
 20
24.316667
 30
0.0
 11
17.5
 21
23.483333
 31
0.0
  0
LINE
  5
25
330
49F
100
AcDbEntity
  8
0
100
AcDbLine
 10
17.5
 20
23.483333
 30
0.0
 11
15.0
 21
23.9
 31
0.0
  0
LINE
  5
26
330
49F
100
AcDbEntity
  8
0
100
AcDbLine
 10
15.0
 20
23.9
 30
0.0
 11
15.0
 21
23.9
 31
0.0
  0
LINE
  5
27
330
49F
100
AcDbEntity
  8
0
100
AcDbLine
 10
15.0
 20
23.9
 30
0.0
 11
17.5
 21
24.316667
 31
0.0
  0
ENDBLK
  5
28
330
49F
100
AcDbEntity
  8
0
100
AcDbBlockEnd
  0
ENDSEC
  0
SECTION
  2
ENTITIES
  0
LINE
  5
29
330
46D
100
AcDbEntity
  8
1
100
AcDbLine
 10
59.5
 20
0.388354
 30
0.0
 11
59.5
 21
2.976997
 31
0.0
  0
LINE
  5
2A
330
46D
100
AcDbEntity
  8
1
100
AcDbLine
 10
54.849891
 20
2.729906999999999
 30
0.0
 11
54.849891
 21
1.62697
 31
0.0
  0
LINE
  5
2B
330
46D
100
AcDbEntity
  8
1
100
AcDbLine
 10
54.849891
 20
1.62697
 30
0.0
 11
54.37091500000001
 21
2.944138
 31
0.0
  0
LINE
  5
2C
330
46D
100
AcDbEntity
  8
1
100
AcDbLine
 10
60.0
 20
1.988049
 30
0.0
 11
59.5
 21
2.31037
 31
0.0
  0
LINE
  5
2D
330
46D
100
AcDbEntity
  8
1
100
AcDbLine
 10
51.531277
 20
0.202311
 30
0.0
 11
51.41747
 21
0.346643
 31
0.0
  0
LINE
  5
2E
330
46D
100
AcDbEntity
  8
1
100
AcDbLine
 10
51.41747
 20
0.346643
 30
0.0
 11
51.306846
 21
0.493429
 31
0.0
  0
LINE
  5
2F
330
46D
100
AcDbEntity
  8
1
100
AcDbLine
 10
51.306846
 20
0.493429
 30
0.0
 11
51.199405
 21
0.6425770000000001
 31
0.0
  0
LINE
  5
30
330
46D
100
AcDbEntity
  8
1
100
AcDbLine
 10
51.199405
 20
0.6425770000000001
 30
0.0
 11
51.09507999999999
 21
0.794273
 31
0.0
  0
LINE
  5
31
330
46D
100
AcDbEntity
  8
1
100
AcDbLine
 10
51.09507999999999
 20
0.794273
 30
0.0
 11
50.993939
 21
0.948109
 31
0.0
  0
LINE
  5
32
330
46D
100
AcDbEntity
  8
1
100
AcDbLine
 10
50.993939
 20
0.948109
 30
0.0
 11
50.896174
 21
1.103079
 31
0.0
  0
LINE
  5
33
330
46D
100
AcDbEntity
  8
1
100
AcDbLine
 10
50.896174
 20
1.103079
 30
0.0
 11
50.801859
 21
1.258971999999999
 31
0.0
  0
LINE
  5
34
330
46D
100
AcDbEntity
  8
1
100
AcDbLine
 10
50.801859
 20
1.258971999999999
 30
0.0
 11
50.71092199999999
 21
1.415748999999999
 31
0.0
  0
LINE
  5
35
330
46D
100
AcDbEntity
  8
1
100
AcDbLine
 10
50.71092199999999
 20
1.415748999999999
 30
0.0
 11
50.62334400000001
 21
1.572681
 31
0.0
  0
LINE
  5
36
330
46D
100
AcDbEntity
  8
1
100
AcDbLine
 10
50.62334400000001
 20
1.572681
 30
0.0
 11
50.539072
 21
1.729738999999999
 31
0.0
  0
LINE
  5
37
330
46D
100
AcDbEntity
  8
1
100
AcDbLine
 10
50.539072
 20
1.729738999999999
 30
0.0
 11
50.458159
 21
1.886688
 31
0.0
  0
LINE
  5
38
330
46D
100
AcDbEntity
  8
1
100
AcDbLine
 10
50.458159
 20
1.886688
 30
0.0
 11
50.380747
 21
2.042511
 31
0.0
  0
LINE
  5
39
330
46D
100
AcDbEntity
  8
1
100
AcDbLine
 10
50.380747
 20
2.042511
 30
0.0
 11
50.306837
 21
2.197115
 31
0.0
  0
LINE
  5
3A
330
46D
100
AcDbEntity
  8
1
100
AcDbLine
 10
50.306837
 20
2.197115
 30
0.0
 11
50.23642699999999
 21
2.350365
 31
0.0
  0
LINE
  5
3B
330
46D
100
AcDbEntity
  8
1
100
AcDbLine
 10
50.23642699999999
 20
2.350365
 30
0.0
 11
50.16964999999999
 21
2.501238
 31
0.0
  0
LINE
  5
3C
330
46D
100
AcDbEntity
  8
1
100
AcDbLine
 10
50.16964999999999
 20
2.501238
 30
0.0
 11
50.10654999999999
 21
2.649356
 31
0.0
  0
LINE
  5
3D
330
46D
100
AcDbEntity
  8
1
100
AcDbLine
 10
50.10654999999999
 20
2.649356
 30
0.0
 11
50.047083
 21
2.794945999999999
 31
0.0
  0
LINE
  5
3E
330
46D
100
AcDbEntity
  8
1
100
AcDbLine
 10
50.047083
 20
2.794945999999999
 30
0.0
 11
49.991248
 21
2.937936
 31
0.0
  0
LINE
  5
3F
330
46D
100
AcDbEntity
  8
1
100
AcDbLine
 10
8.0
 20
-6.190476
 30
0.0
 11
8.0
 21
6.190476
 31
0.0
  0
LINE
  5
40
330
46D
100
AcDbEntity
  8
1
100
AcDbLine
 10
54.849891
 20
1.62697
 30
0.0
 11
60.0
 21
3.122157
 31
0.0
  0
LINE
  5
41
330
46D
100
AcDbEntity
  8
1
100
AcDbLine
 10
58.617059
 20
-2.570624
 30
0.0
 11
58.28866099999999
 21
-2.671870999999999
 31
0.0
  0
LINE
  5
42
330
46D
100
AcDbEntity
  8
1
100
AcDbLine
 10
58.28866099999999
 20
-2.671870999999999
 30
0.0
 11
57.95988799999999
 21
-2.772286
 31
0.0
  0
LINE
  5
43
330
46D
100
AcDbEntity
  8
1
100
AcDbLine
 10
57.95988799999999
 20
-2.772286
 30
0.0
 11
57.630741
 21
-2.871869999999999
 31
0.0
  0
LINE
  5
44
330
46D
100
AcDbEntity
  8
1
100
AcDbLine
 10
57.630741
 20
-2.871869999999999
 30
0.0
 11
57.30114799999999
 21
-2.970644
 31
0.0
  0
LINE
  5
45
330
46D
100
AcDbEntity
  8
1
100
AcDbLine
 10
57.30114799999999
 20
-2.970644
 30
0.0
 11
56.97118
 21
-3.068586999999999
 31
0.0
  0
LINE
  5
46
330
46D
100
AcDbEntity
  8
1
100
AcDbLine
 10
56.97118
 20
-3.068586999999999
 30
0.0
 11
56.641049
 21
-3.165633999999999
 31
0.0
  0
LINE
  5
47
330
46D
100
AcDbEntity
  8
1
100
AcDbLine
 10
56.641049
 20
-3.165633999999999
 30
0.0
 11
56.310826
 21
-3.261765
 31
0.0
  0
LINE
  5
48
330
46D
100
AcDbEntity
  8
1
100
AcDbLine
 10
56.310826
 20
-3.261765
 30
0.0
 11
55.98044
 21
-3.356998999999999
 31
0.0
  0
LINE
  5
49
330
46D
100
AcDbEntity
  8
1
100
AcDbLine
 10
55.98044
 20
-3.356998999999999
 30
0.0
 11
55.649891
 21
-3.451337999999999
 31
0.0
  0
LINE
  5
4A
330
46D
100
AcDbEntity
  8
1
100
AcDbLine
 10
58.508762
 20
-2.269093
 30
0.0
 11
58.19221500000001
 21
-2.368595
 31
0.0
  0
LINE
  5
4B
330
46D
100
AcDbEntity
  8
1
100
AcDbLine
 10
58.19221500000001
 20
-2.368595
 30
0.0
 11
57.875351
 21
-2.467487999999999
 31
0.0
  0
LINE
  5
4C
330
46D
100
AcDbEntity
  8
1
100
AcDbLine
 10
57.875351
 20
-2.467487999999999
 30
0.0
 11
57.55817099999999
 21
-2.565742999999999
 31
0.0
  0
LINE
  5
4D
330
46D
100
AcDbEntity
  8
1
100
AcDbLine
 10
57.55817099999999
 20
-2.565742999999999
 30
0.0
 11
57.24062199999999
 21
-2.663333999999999
 31
0.0
  0
LINE
  5
4E
330
46D
100
AcDbEntity
  8
1
100
AcDbLine
 10
57.24062199999999
 20
-2.663333999999999
 30
0.0
 11
56.92275600000001
 21
-2.760234
 31
0.0
  0
LINE
  5
4F
330
46D
100
AcDbEntity
  8
1
100
AcDbLine
 10
56.92275600000001
 20
-2.760234
 30
0.0
 11
56.60473399999999
 21
-2.856415999999999
 31
0.0
  0
LINE
  5
50
330
46D
100
AcDbEntity
  8
1
100
AcDbLine
 10
56.60473399999999
 20
-2.856415999999999
 30
0.0
 11
56.28661
 21
-2.951850999999999
 31
0.0
  0
LINE
  5
51
330
46D
100
AcDbEntity
  8
1
100
AcDbLine
 10
56.28661
 20
-2.951850999999999
 30
0.0
 11
55.968329
 21
-3.046516
 31
0.0
  0
LINE
  5
52
330
46D
100
AcDbEntity
  8
1
100
AcDbLine
 10
55.968329
 20
-3.046516
 30
0.0
 11
55.649891
 21
-3.140383
 31
0.0
  0
LINE
  5
53
330
46D
100
AcDbEntity
  8
1
100
AcDbLine
 10
54.43758
 20
-1.934916999999999
 30
0.0
 11
54.876594
 21
-1.790811999999999
 31
0.0
  0
LINE
  5
54
330
46D
100
AcDbEntity
  8
1
100
AcDbLine
 10
54.876594
 20
-1.790811999999999
 30
0.0
 11
55.310788
 21
-1.646481999999999
 31
0.0
  0
LINE
  5
55
330
46D
100
AcDbEntity
  8
1
100
AcDbLine
 10
55.310788
 20
-1.646481999999999
 30
0.0
 11
55.740163
 21
-1.501929
 31
0.0
  0
LINE
  5
56
330
46D
100
AcDbEntity
  8
1
100
AcDbLine
 10
55.740163
 20
-1.501929
 30
0.0
 11
56.164738
 21
-1.357126
 31
0.0
  0
LINE
  5
57
330
46D
100
AcDbEntity
  8
1
100
AcDbLine
 10
56.164738
 20
-1.357126
 30
0.0
 11
56.58449399999999
 21
-1.212097999999999
 31
0.0
  0
LINE
  5
58
330
46D
100
AcDbEntity
  8
1
100
AcDbLine
 10
56.58449399999999
 20
-1.212097999999999
 30
0.0
 11
56.999366
 21
-1.066923999999999
 31
0.0
  0
LINE
  5
59
330
46D
100
AcDbEntity
  8
1
100
AcDbLine
 10
56.999366
 20
-1.066923999999999
 30
0.0
 11
57.409333
 21
-0.921629
 31
0.0
  0
LINE
  5
5A
330
46D
100
AcDbEntity
  8
1
100
AcDbLine
 10
57.409333
 20
-0.921629
 30
0.0
 11
57.814415
 21
-0.776187
 31
0.0
  0
LINE
  5
5B
330
46D
100
AcDbEntity
  8
1
100
AcDbLine
 10
58.1
 20
-0.62494
 30
0.0
 11
57.601214
 21
-0.8059239999999999
 31
0.0
  0
LINE
  5
5C
330
46D
100
AcDbEntity
  8
1
100
AcDbLine
 10
57.601214
 20
-0.8059239999999999
 30
0.0
 11
57.09476399999999
 21
-0.986686
 31
0.0
  0
LINE
  5
5D
330
46D
100
AcDbEntity
  8
1
100
AcDbLine
 10
57.09476399999999
 20
-0.986686
 30
0.0
 11
56.580651
 21
-1.167226
 31
0.0
  0
LINE
  5
5E
330
46D
100
AcDbEntity
  8
1
100
AcDbLine
 10
56.580651
 20
-1.167226
 30
0.0
 11
56.058257
 21
-1.347787
 31
0.0
  0
LINE
  5
5F
330
46D
100
AcDbEntity
  8
1
100
AcDbLine
 10
56.058257
 20
-1.347787
 30
0.0
 11
55.52819799999999
 21
-1.528127
 31
0.0
  0
LINE
  5
60
330
46D
100
AcDbEntity
  8
1
100
AcDbLine
 10
55.52819799999999
 20
-1.528127
 30
0.0
 11
54.992325
 21
-1.707516
 31
0.0
  0
LINE
  5
61
330
46D
100
AcDbEntity
  8
1
100
AcDbLine
 10
54.992325
 20
-1.707516
 30
0.0
 11
54.450555
 21
-1.885958
 31
0.0
  0
LINE
  5
62
330
46D
100
AcDbEntity
  8
1
100
AcDbLine
 10
58.1
 20
0.791928
 30
0.0
 11
57.45024
 21
0.629889
 31
0.0
  0
LINE
  5
63
330
46D
100
AcDbEntity
  8
1
100
AcDbLine
 10
59.5
 20
1.849596
 30
0.0
 11
54.720712
 21
0.462064
 31
0.0
  0
LINE
  5
64
330
46D
100
AcDbEntity
  8
1
100
AcDbLine
 10
54.43758
 20
-6.139583999999999
 30
0.0
 11
54.876594
 21
-6.106283999999999
 31
0.0
  0
LINE
  5
65
330
46D
100
AcDbEntity
  8
1
100
AcDbLine
 10
54.876594
 20
-6.106283999999999
 30
0.0
 11
55.310788
 21
-6.069738
 31
0.0
  0
LINE
  5
66
330
46D
100
AcDbEntity
  8
1
100
AcDbLine
 10
55.310788
 20
-6.069738
 30
0.0
 11
55.740163
 21
-6.029944999999999
 31
0.0
  0
LINE
  5
67
330
46D
100
AcDbEntity
  8
1
100
AcDbLine
 10
55.740163
 20
-6.029944999999999
 30
0.0
 11
56.164738
 21
-5.986866
 31
0.0
  0
LINE
  5
68
330
46D
100
AcDbEntity
  8
1
100
AcDbLine
 10
56.164738
 20
-5.986866
 30
0.0
 11
56.58449399999999
 21
-5.94054
 31
0.0
  0
LINE
  5
69
330
46D
100
AcDbEntity
  8
1
100
AcDbLine
 10
56.58449399999999
 20
-5.94054
 30
0.0
 11
56.999366
 21
-5.891083999999999
 31
0.0
  0
LINE
  5
6A
330
46D
100
AcDbEntity
  8
1
100
AcDbLine
 10
56.999366
 20
-5.891083999999999
 30
0.0
 11
57.409333
 21
-5.838537
 31
0.0
  0
LINE
  5
6B
330
46D
100
AcDbEntity
  8
1
100
AcDbLine
 10
57.409333
 20
-5.838537
 30
0.0
 11
57.814415
 21
-5.782862
 31
0.0
  0
LINE
  5
6C
330
46D
100
AcDbEntity
  8
1
100
AcDbLine
 10
57.814415
 20
-5.782862
 30
0.0
 11
58.214614
 21
-5.724057
 31
0.0
  0
LINE
  5
6D
330
46D
100
AcDbEntity
  8
1
100
AcDbLine
 10
58.1
 20
-4.921095999999999
 30
0.0
 11
57.776387
 21
-4.970107999999999
 31
0.0
  0
LINE
  5
6E
330
46D
100
AcDbEntity
  8
1
100
AcDbLine
 10
57.776387
 20
-4.970107999999999
 30
0.0
 11
57.45024
 21
-5.018348999999999
 31
0.0
  0
LINE
  5
6F
330
46D
100
AcDbEntity
  8
1
100
AcDbLine
 10
57.45024
 20
-5.018348999999999
 30
0.0
 11
57.12155799999999
 21
-5.065817
 31
0.0
  0
LINE
  5
70
330
46D
100
AcDbEntity
  8
1
100
AcDbLine
 10
57.12155799999999
 20
-5.065817
 30
0.0
 11
56.790262
 21
-5.112532999999999
 31
0.0
  0
LINE
  5
71
330
46D
100
AcDbEntity
  8
1
100
AcDbLine
 10
56.790262
 20
-5.112532999999999
 30
0.0
 11
56.456431
 21
-5.158476
 31
0.0
  0
LINE
  5
72
330
46D
100
AcDbEntity
  8
1
100
AcDbLine
 10
56.456431
 20
-5.158476
 30
0.0
 11
56.120302
 21
-5.203591
 31
0.0
  0
LINE
  5
73
330
46D
100
AcDbEntity
  8
1
100
AcDbLine
 10
56.120302
 20
-5.203591
 30
0.0
 11
55.781955
 21
-5.24786
 31
0.0
  0
LINE
  5
74
330
46D
100
AcDbEntity
  8
1
100
AcDbLine
 10
55.781955
 20
-5.24786
 30
0.0
 11
55.44131
 21
-5.291300999999999
 31
0.0
  0
LINE
  5
75
330
46D
100
AcDbEntity
  8
1
100
AcDbLine
 10
55.44131
 20
-5.291300999999999
 30
0.0
 11
55.09836700000001
 21
-5.333912999999999
 31
0.0
  0
LINE
  5
76
330
46D
100
AcDbEntity
  8
1
100
AcDbLine
 10
58.1
 20
-5.646192
 30
0.0
 11
57.515186
 21
-5.730476
 31
0.0
  0
LINE
  5
77
330
46D
100
AcDbEntity
  8
1
100
AcDbLine
 10
57.515186
 20
-5.730476
 30
0.0
 11
56.920243
 21
-5.807973
 31
0.0
  0
LINE
  5
78
330
46D
100
AcDbEntity
  8
1
100
AcDbLine
 10
56.920243
 20
-5.807973
 30
0.0
 11
56.315169
 21
-5.87868
 31
0.0
  0
LINE
  5
79
330
46D
100
AcDbEntity
  8
1
100
AcDbLine
 10
56.315169
 20
-5.87868
 30
0.0
 11
55.69893
 21
-5.942794
 31
0.0
  0
LINE
  5
7A
330
46D
100
AcDbEntity
  8
1
100
AcDbLine
 10
55.69893
 20
-5.942794
 30
0.0
 11
55.072561
 21
-6.000117999999999
 31
0.0
  0
LINE
  5
7B
330
46D
100
AcDbEntity
  8
1
100
AcDbLine
 10
55.072561
 20
-6.000117999999999
 30
0.0
 11
54.439171
 21
-6.050069999999999
 31
0.0
  0
LINE
  5
7C
330
46D
100
AcDbEntity
  8
1
100
AcDbLine
 10
8.0
 20
-6.190476
 30
0.0
 11
50.528552
 21
-6.190476
 31
0.0
  0
LINE
  5
7D
330
46D
100
AcDbEntity
  8
1
100
AcDbLine
 10
52.667234
 20
-4.076717999999999
 30
0.0
 11
52.68301700000001
 21
-4.052001999999999
 31
0.0
  0
LINE
  5
7E
330
46D
100
AcDbEntity
  8
1
100
AcDbLine
 10
52.68301700000001
 20
-4.052001999999999
 30
0.0
 11
52.700688
 21
-4.026698
 31
0.0
  0
LINE
  5
7F
330
46D
100
AcDbEntity
  8
1
100
AcDbLine
 10
52.700688
 20
-4.026698
 30
0.0
 11
52.72025799999999
 21
-4.000817999999999
 31
0.0
  0
LINE
  5
80
330
46D
100
AcDbEntity
  8
1
100
AcDbLine
 10
52.72025799999999
 20
-4.000817999999999
 30
0.0
 11
52.74179300000001
 21
-3.974169999999999
 31
0.0
  0
LINE
  5
81
330
46D
100
AcDbEntity
  8
1
100
AcDbLine
 10
52.74179300000001
 20
-3.974169999999999
 30
0.0
 11
52.765251
 21
-3.946973
 31
0.0
  0
LINE
  5
82
330
46D
100
AcDbEntity
  8
1
100
AcDbLine
 10
52.765251
 20
-3.946973
 30
0.0
 11
52.79047900000001
 21
-3.919855999999999
 31
0.0
  0
LINE
  5
83
330
46D
100
AcDbEntity
  8
1
100
AcDbLine
 10
52.79047900000001
 20
-3.919855999999999
 30
0.0
 11
52.817538
 21
-3.892866
 31
0.0
  0
LINE
  5
84
330
46D
100
AcDbEntity
  8
1
100
AcDbLine
 10
52.817538
 20
-3.892866
 30
0.0
 11
52.84638799999999
 21
-3.865983
 31
0.0
  0
LINE
  5
85
330
46D
100
AcDbEntity
  8
1
100
AcDbLine
 10
52.84638799999999
 20
-3.865983
 30
0.0
 11
52.876718
 21
-3.839726
 31
0.0
  0
LINE
  5
86
330
46D
100
AcDbEntity
  8
1
100
AcDbLine
 10
52.876718
 20
-3.839726
 30
0.0
 11
52.90852199999999
 21
-3.814172
 31
0.0
  0
LINE
  5
87
330
46D
100
AcDbEntity
  8
1
100
AcDbLine
 10
52.90852199999999
 20
-3.814172
 30
0.0
 11
52.941821
 21
-3.789266
 31
0.0
  0
LINE
  5
88
330
46D
100
AcDbEntity
  8
1
100
AcDbLine
 10
52.941821
 20
-3.789266
 30
0.0
 11
52.97633900000001
 21
-3.765319999999999
 31
0.0
  0
LINE
  5
89
330
46D
100
AcDbEntity
  8
1
100
AcDbLine
 10
52.97633900000001
 20
-3.765319999999999
 30
0.0
 11
53.012154
 21
-3.742337999999999
 31
0.0
  0
LINE
  5
8A
330
46D
100
AcDbEntity
  8
1
100
AcDbLine
 10
53.012154
 20
-3.742337999999999
 30
0.0
 11
53.04919599999999
 21
-3.720334999999999
 31
0.0
  0
LINE
  5
8B
330
46D
100
AcDbEntity
  8
1
100
AcDbLine
 10
53.04919599999999
 20
-3.720334999999999
 30
0.0
 11
53.08696199999999
 21
-3.699634999999999
 31
0.0
  0
LINE
  5
8C
330
46D
100
AcDbEntity
  8
1
100
AcDbLine
 10
53.08696199999999
 20
-3.699634999999999
 30
0.0
 11
53.12561500000001
 21
-3.680233
 31
0.0
  0
LINE
  5
8D
330
46D
100
AcDbEntity
  8
1
100
AcDbLine
 10
53.12561500000001
 20
-3.680233
 30
0.0
 11
53.16499
 21
-3.662141999999999
 31
0.0
  0
LINE
  5
8E
330
46D
100
AcDbEntity
  8
1
100
AcDbLine
 10
53.16499
 20
-3.662141999999999
 30
0.0
 11
53.204081
 21
-3.645694999999999
 31
0.0
  0
LINE
  5
8F
330
46D
100
AcDbEntity
  8
1
100
AcDbLine
 10
53.204081
 20
-3.645694999999999
 30
0.0
 11
53.24279399999999
 21
-3.630996
 31
0.0
  0
LINE
  5
90
330
46D
100
AcDbEntity
  8
1
100
AcDbLine
 10
53.24279399999999
 20
-3.630996
 30
0.0
 11
53.281205
 21
-3.617925
 31
0.0
  0
LINE
  5
91
330
46D
100
AcDbEntity
  8
1
100
AcDbLine
 10
53.281205
 20
-3.617925
 30
0.0
 11
53.31856
 21
-3.606463999999999
 31
0.0
  0
LINE
  5
92
330
46D
100
AcDbEntity
  8
1
100
AcDbLine
 10
53.31856
 20
-3.606463999999999
 30
0.0
 11
53.35461899999999
 21
-3.596676999999999
 31
0.0
  0
LINE
  5
93
330
46D
100
AcDbEntity
  8
1
100
AcDbLine
 10
53.35461899999999
 20
-3.596676999999999
 30
0.0
 11
53.39302599999999
 21
-3.587726
 31
0.0
  0
LINE
  5
94
330
46D
100
AcDbEntity
  8
1
100
AcDbLine
 10
54.720712
 20
-3.664919999999999
 30
0.0
 11
54.59255899999999
 21
-3.703060999999999
 31
0.0
  0
LINE
  5
95
330
46D
100
AcDbEntity
  8
1
100
AcDbLine
 10
54.59255899999999
 20
-3.703060999999999
 30
0.0
 11
54.464499
 21
-3.74305
 31
0.0
  0
LINE
  5
96
330
46D
100
AcDbEntity
  8
1
100
AcDbLine
 10
54.464499
 20
-3.74305
 30
0.0
 11
54.336625
 21
-3.784855
 31
0.0
  0
LINE
  5
97
330
46D
100
AcDbEntity
  8
1
100
AcDbLine
 10
54.336625
 20
-3.784855
 30
0.0
 11
54.209031
 21
-3.828447
 31
0.0
  0
LINE
  5
98
330
46D
100
AcDbEntity
  8
1
100
AcDbLine
 10
54.209031
 20
-3.828447
 30
0.0
 11
54.081808
 21
-3.873794999999999
 31
0.0
  0
LINE
  5
99
330
46D
100
AcDbEntity
  8
1
100
AcDbLine
 10
54.081808
 20
-3.873794999999999
 30
0.0
 11
53.955049
 21
-3.920862999999999
 31
0.0
  0
LINE
  5
9A
330
46D
100
AcDbEntity
  8
1
100
AcDbLine
 10
51.531277
 20
-5.257089999999999
 30
0.0
 11
51.417438
 21
-5.179337
 31
0.0
  0
LINE
  5
9B
330
46D
100
AcDbEntity
  8
1
100
AcDbLine
 10
51.417438
 20
-5.179337
 30
0.0
 11
51.306869
 21
-5.097339999999999
 31
0.0
  0
LINE
  5
9C
330
46D
100
AcDbEntity
  8
1
100
AcDbLine
 10
51.306869
 20
-5.097339999999999
 30
0.0
 11
51.19957
 21
-5.010998999999999
 31
0.0
  0
LINE
  5
9D
330
46D
100
AcDbEntity
  8
1
100
AcDbLine
 10
51.19957
 20
-5.010998999999999
 30
0.0
 11
51.095528
 21
-4.920083999999999
 31
0.0
  0
LINE
  5
9E
330
46D
100
AcDbEntity
  8
1
100
AcDbLine
 10
51.095528
 20
-4.920083999999999
 30
0.0
 11
50.994756
 21
-4.824625
 31
0.0
  0
LINE
  5
9F
330
46D
100
AcDbEntity
  8
1
100
AcDbLine
 10
50.994756
 20
-4.824625
 30
0.0
 11
50.897289
 21
-4.724956999999999
 31
0.0
  0
LINE
  5
A0
330
46D
100
AcDbEntity
  8
1
100
AcDbLine
 10
50.897289
 20
-4.724956999999999
 30
0.0
 11
50.803102
 21
-4.620995999999999
 31
0.0
  0
LINE
  5
A1
330
46D
100
AcDbEntity
  8
1
100
AcDbLine
 10
50.803102
 20
-4.620995999999999
 30
0.0
 11
50.71222099999999
 21
-4.512741
 31
0.0
  0
LINE
  5
A2
330
46D
100
AcDbEntity
  8
1
100
AcDbLine
 10
50.71222099999999
 20
-4.512741
 30
0.0
 11
50.624749
 21
-4.400745999999999
 31
0.0
  0
LINE
  5
A3
330
46D
100
AcDbEntity
  8
1
100
AcDbLine
 10
50.624749
 20
-4.400745999999999
 30
0.0
 11
50.540713
 21
-4.285064
 31
0.0
  0
LINE
  5
A4
330
46D
100
AcDbEntity
  8
1
100
AcDbLine
 10
50.540713
 20
-4.285064
 30
0.0
 11
50.460087
 21
-4.165685999999999
 31
0.0
  0
LINE
  5
A5
330
46D
100
AcDbEntity
  8
1
100
AcDbLine
 10
50.460087
 20
-4.165685999999999
 30
0.0
 11
50.382895
 21
-4.043169999999999
 31
0.0
  0
LINE
  5
A6
330
46D
100
AcDbEntity
  8
1
100
AcDbLine
 10
50.382895
 20
-4.043169999999999
 30
0.0
 11
50.30917
 21
-3.917683
 31
0.0
  0
LINE
  5
A7
330
46D
100
AcDbEntity
  8
1
100
AcDbLine
 10
50.30917
 20
-3.917683
 30
0.0
 11
50.238879
 21
-3.789205
 31
0.0
  0
LINE
  5
A8
330
46D
100
AcDbEntity
  8
1
100
AcDbLine
 10
50.238879
 20
-3.789205
 30
0.0
 11
50.17194899999999
 21
-3.658068
 31
0.0
  0
LINE
  5
A9
330
46D
100
AcDbEntity
  8
1
100
AcDbLine
 10
50.17194899999999
 20
-3.658068
 30
0.0
 11
50.10835499999999
 21
-3.524453999999999
 31
0.0
  0
LINE
  5
AA
330
46D
100
AcDbEntity
  8
1
100
AcDbLine
 10
50.10835499999999
 20
-3.524453999999999
 30
0.0
 11
50.048121
 21
-3.388373
 31
0.0
  0
LINE
  5
AB
330
46D
100
AcDbEntity
  8
1
100
AcDbLine
 10
50.048121
 20
-3.388373
 30
0.0
 11
49.991248
 21
-3.249918
 31
0.0
  0
LINE
  5
AC
330
46D
100
AcDbEntity
  8
1
100
AcDbLine
 10
53.39302599999999
 20
-3.587726
 30
0.0
 11
53.423427
 21
-3.581573
 31
0.0
  0
LINE
  5
AD
330
46D
100
AcDbEntity
  8
1
100
AcDbLine
 10
53.423427
 20
-3.581573
 30
0.0
 11
53.456057
 21
-3.575960999999999
 31
0.0
  0
LINE
  5
AE
330
46D
100
AcDbEntity
  8
1
100
AcDbLine
 10
53.456057
 20
-3.575960999999999
 30
0.0
 11
53.48751899999999
 21
-3.571637
 31
0.0
  0
LINE
  5
AF
330
46D
100
AcDbEntity
  8
1
100
AcDbLine
 10
53.48751899999999
 20
-3.571637
 30
0.0
 11
53.517866
 21
-3.568378
 31
0.0
  0
LINE
  5
B0
330
46D
100
AcDbEntity
  8
1
100
AcDbLine
 10
53.517866
 20
-3.568378
 30
0.0
 11
53.54706700000001
 21
-3.566155
 31
0.0
  0
LINE
  5
B1
330
46D
100
AcDbEntity
  8
1
100
AcDbLine
 10
53.54706700000001
 20
-3.566155
 30
0.0
 11
53.57514
 21
-3.564975
 31
0.0
  0
LINE
  5
B2
330
46D
100
AcDbEntity
  8
1
100
AcDbLine
 10
53.57514
 20
-3.564975
 30
0.0
 11
53.602208
 21
-3.564687
 31
0.0
  0
LINE
  5
B3
330
46D
100
AcDbEntity
  8
1
100
AcDbLine
 10
53.602208
 20
-3.564687
 30
0.0
 11
53.62827199999999
 21
-3.565258
 31
0.0
  0
LINE
  5
B4
330
46D
100
AcDbEntity
  8
1
100
AcDbLine
 10
53.62827199999999
 20
-3.565258
 30
0.0
 11
53.653322
 21
-3.566705999999999
 31
0.0
  0
LINE
  5
B5
330
46D
100
AcDbEntity
  8
1
100
AcDbLine
 10
53.653322
 20
-3.566705999999999
 30
0.0
 11
53.677472
 21
-3.568944999999999
 31
0.0
  0
LINE
  5
B6
330
46D
100
AcDbEntity
  8
1
100
AcDbLine
 10
53.677472
 20
-3.568944999999999
 30
0.0
 11
53.700811
 21
-3.571979
 31
0.0
  0
LINE
  5
B7
330
46D
100
AcDbEntity
  8
1
100
AcDbLine
 10
53.700811
 20
-3.571979
 30
0.0
 11
53.723243
 21
-3.575794
 31
0.0
  0
LINE
  5
B8
330
46D
100
AcDbEntity
  8
1
100
AcDbLine
 10
53.723243
 20
-3.575794
 30
0.0
 11
53.744598
 21
-3.580276
 31
0.0
  0
LINE
  5
B9
330
46D
100
AcDbEntity
  8
1
100
AcDbLine
 10
53.744598
 20
-3.580276
 30
0.0
 11
53.764837
 21
-3.585430999999999
 31
0.0
  0
LINE
  5
BA
330
46D
100
AcDbEntity
  8
1
100
AcDbLine
 10
53.764837
 20
-3.585430999999999
 30
0.0
 11
53.78399399999999
 21
-3.591241999999999
 31
0.0
  0
LINE
  5
BB
330
46D
100
AcDbEntity
  8
1
100
AcDbLine
 10
53.78399399999999
 20
-3.591241999999999
 30
0.0
 11
53.802016
 21
-3.597558999999999
 31
0.0
  0
LINE
  5
BC
330
46D
100
AcDbEntity
  8
1
100
AcDbLine
 10
53.802016
 20
-3.597558999999999
 30
0.0
 11
53.818847
 21
-3.604362
 31
0.0
  0
LINE
  5
BD
330
46D
100
AcDbEntity
  8
1
100
AcDbLine
 10
53.818847
 20
-3.604362
 30
0.0
 11
53.83454
 21
-3.611662999999999
 31
0.0
  0
LINE
  5
BE
330
46D
100
AcDbEntity
  8
1
100
AcDbLine
 10
53.83454
 20
-3.611662999999999
 30
0.0
 11
53.84921
 21
-3.619355999999999
 31
0.0
  0
LINE
  5
BF
330
46D
100
AcDbEntity
  8
1
100
AcDbLine
 10
53.84921
 20
-3.619355999999999
 30
0.0
 11
53.862852
 21
-3.627426999999999
 31
0.0
  0
LINE
  5
C0
330
46D
100
AcDbEntity
  8
1
100
AcDbLine
 10
53.862852
 20
-3.627426999999999
 30
0.0
 11
53.87546700000001
 21
-3.635885
 31
0.0
  0
LINE
  5
C1
330
46D
100
AcDbEntity
  8
1
100
AcDbLine
 10
53.87546700000001
 20
-3.635885
 30
0.0
 11
53.88718
 21
-3.644662999999999
 31
0.0
  0
LINE
  5
C2
330
46D
100
AcDbEntity
  8
1
100
AcDbLine
 10
53.88718
 20
-3.644662999999999
 30
0.0
 11
53.897978
 21
-3.653719999999999
 31
0.0
  0
LINE
  5
C3
330
46D
100
AcDbEntity
  8
1
100
AcDbLine
 10
53.897978
 20
-3.653719999999999
 30
0.0
 11
53.90787099999999
 21
-3.663091999999999
 31
0.0
  0
LINE
  5
C4
330
46D
100
AcDbEntity
  8
1
100
AcDbLine
 10
53.90787099999999
 20
-3.663091999999999
 30
0.0
 11
53.917017
 21
-3.672829
 31
0.0
  0
LINE
  5
C5
330
46D
100
AcDbEntity
  8
1
100
AcDbLine
 10
53.917017
 20
-3.672829
 30
0.0
 11
53.925449
 21
-3.682916
 31
0.0
  0
LINE
  5
C6
330
46D
100
AcDbEntity
  8
1
100
AcDbLine
 10
53.925449
 20
-3.682916
 30
0.0
 11
53.93313199999999
 21
-3.693365
 31
0.0
  0
LINE
  5
C7
330
46D
100
AcDbEntity
  8
1
100
AcDbLine
 10
53.93313199999999
 20
-3.693365
 30
0.0
 11
53.94012299999999
 21
-3.704251
 31
0.0
  0
LINE
  5
C8
330
46D
100
AcDbEntity
  8
1
100
AcDbLine
 10
53.94012299999999
 20
-3.704251
 30
0.0
 11
53.946456
 21
-3.715606999999999
 31
0.0
  0
LINE
  5
C9
330
46D
100
AcDbEntity
  8
1
100
AcDbLine
 10
53.946456
 20
-3.715606999999999
 30
0.0
 11
53.95209499999999
 21
-3.727398999999999
 31
0.0
  0
LINE
  5
CA
330
46D
100
AcDbEntity
  8
1
100
AcDbLine
 10
53.95209499999999
 20
-3.727398999999999
 30
0.0
 11
53.957
 21
-3.739602999999999
 31
0.0
  0
LINE
  5
CB
330
46D
100
AcDbEntity
  8
1
100
AcDbLine
 10
53.957
 20
-3.739602999999999
 30
0.0
 11
53.961164
 21
-3.752224
 31
0.0
  0
LINE
  5
CC
330
46D
100
AcDbEntity
  8
1
100
AcDbLine
 10
53.961164
 20
-3.752224
 30
0.0
 11
53.964593
 21
-3.765257
 31
0.0
  0
LINE
  5
CD
330
46D
100
AcDbEntity
  8
1
100
AcDbLine
 10
53.964593
 20
-3.765257
 30
0.0
 11
53.967261
 21
-3.778659999999999
 31
0.0
  0
LINE
  5
CE
330
46D
100
AcDbEntity
  8
1
100
AcDbLine
 10
53.967261
 20
-3.778659999999999
 30
0.0
 11
53.96917099999999
 21
-3.792372
 31
0.0
  0
LINE
  5
CF
330
46D
100
AcDbEntity
  8
1
100
AcDbLine
 10
53.96917099999999
 20
-3.792372
 30
0.0
 11
53.97031899999999
 21
-3.806455999999999
 31
0.0
  0
LINE
  5
D0
330
46D
100
AcDbEntity
  8
1
100
AcDbLine
 10
53.97031899999999
 20
-3.806455999999999
 30
0.0
 11
53.97067299999999
 21
-3.821049999999999
 31
0.0
  0
LINE
  5
D1
330
46D
100
AcDbEntity
  8
1
100
AcDbLine
 10
53.97067299999999
 20
-3.821049999999999
 30
0.0
 11
53.97026199999999
 21
-3.836162
 31
0.0
  0
LINE
  5
D2
330
46D
100
AcDbEntity
  8
1
100
AcDbLine
 10
53.97026199999999
 20
-3.836162
 30
0.0
 11
53.96905699999999
 21
-3.851787
 31
0.0
  0
LINE
  5
D3
330
46D
100
AcDbEntity
  8
1
100
AcDbLine
 10
53.96905699999999
 20
-3.851787
 30
0.0
 11
53.96694399999999
 21
-3.868055999999999
 31
0.0
  0
LINE
  5
D4
330
46D
100
AcDbEntity
  8
1
100
AcDbLine
 10
53.96694399999999
 20
-3.868055999999999
 30
0.0
 11
53.963885
 21
-3.885009999999999
 31
0.0
  0
LINE
  5
D5
330
46D
100
AcDbEntity
  8
1
100
AcDbLine
 10
53.963885
 20
-3.885009999999999
 30
0.0
 11
53.95991999999999
 21
-3.902611
 31
0.0
  0
LINE
  5
D6
330
46D
100
AcDbEntity
  8
1
100
AcDbLine
 10
53.95991999999999
 20
-3.902611
 30
0.0
 11
53.955049
 21
-3.920862999999999
 31
0.0
  0
LINE
  5
D7
330
46D
100
AcDbEntity
  8
1
100
AcDbLine
 10
54.439171
 20
-6.050069999999999
 30
0.0
 11
53.79865
 21
-6.092573999999999
 31
0.0
  0
LINE
  5
D8
330
46D
100
AcDbEntity
  8
1
100
AcDbLine
 10
53.79865
 20
-6.092573999999999
 30
0.0
 11
53.15110799999999
 21
-6.127705
 31
0.0
  0
LINE
  5
D9
330
46D
100
AcDbEntity
  8
1
100
AcDbLine
 10
53.15110799999999
 20
-6.127705
 30
0.0
 11
52.49998399999999
 21
-6.155096
 31
0.0
  0
LINE
  5
DA
330
46D
100
AcDbEntity
  8
1
100
AcDbLine
 10
52.49998399999999
 20
-6.155096
 30
0.0
 11
51.846423
 21
-6.174628
 31
0.0
  0
LINE
  5
DB
330
46D
100
AcDbEntity
  8
1
100
AcDbLine
 10
51.846423
 20
-6.174628
 30
0.0
 11
51.189279
 21
-6.186421
 31
0.0
  0
LINE
  5
DC
330
46D
100
AcDbEntity
  8
1
100
AcDbLine
 10
51.189279
 20
-6.186421
 30
0.0
 11
50.528552
 21
-6.190476
 31
0.0
  0
LINE
  5
DD
330
46D
100
AcDbEntity
  8
1
100
AcDbLine
 10
55.09836700000001
 20
-5.333912999999999
 30
0.0
 11
54.972959
 21
-5.348430999999999
 31
0.0
  0
LINE
  5
DE
330
46D
100
AcDbEntity
  8
1
100
AcDbLine
 10
54.972959
 20
-5.348430999999999
 30
0.0
 11
54.84509499999999
 21
-5.361368999999999
 31
0.0
  0
LINE
  5
DF
330
46D
100
AcDbEntity
  8
1
100
AcDbLine
 10
54.84509499999999
 20
-5.361368999999999
 30
0.0
 11
54.714775
 21
-5.372757
 31
0.0
  0
LINE
  5
E0
330
46D
100
AcDbEntity
  8
1
100
AcDbLine
 10
54.714775
 20
-5.372757
 30
0.0
 11
54.58191899999999
 21
-5.382652999999999
 31
0.0
  0
LINE
  5
E1
330
46D
100
AcDbEntity
  8
1
100
AcDbLine
 10
54.58191899999999
 20
-5.382652999999999
 30
0.0
 11
54.446606
 21
-5.391051999999999
 31
0.0
  0
LINE
  5
E2
330
46D
100
AcDbEntity
  8
1
100
AcDbLine
 10
54.446606
 20
-5.391051999999999
 30
0.0
 11
54.309077
 21
-5.397893999999999
 31
0.0
  0
LINE
  5
E3
330
46D
100
AcDbEntity
  8
1
100
AcDbLine
 10
54.309077
 20
-5.397893999999999
 30
0.0
 11
54.169281
 21
-5.403176999999999
 31
0.0
  0
LINE
  5
E4
330
46D
100
AcDbEntity
  8
1
100
AcDbLine
 10
54.169281
 20
-5.403176999999999
 30
0.0
 11
54.027269
 21
-5.406935999999999
 31
0.0
  0
LINE
  5
E5
330
46D
100
AcDbEntity
  8
1
100
AcDbLine
 10
54.027269
 20
-5.406935999999999
 30
0.0
 11
53.883438
 21
-5.409148
 31
0.0
  0
LINE
  5
E6
330
46D
100
AcDbEntity
  8
1
100
AcDbLine
 10
53.883438
 20
-5.409148
 30
0.0
 11
53.73785600000001
 21
-5.409803
 31
0.0
  0
LINE
  5
E7
330
46D
100
AcDbEntity
  8
1
100
AcDbLine
 10
53.73785600000001
 20
-5.409803
 30
0.0
 11
53.590456
 21
-5.408921
 31
0.0
  0
LINE
  5
E8
330
46D
100
AcDbEntity
  8
1
100
AcDbLine
 10
53.590456
 20
-5.408921
 30
0.0
 11
53.441435
 21
-5.406519
 31
0.0
  0
LINE
  5
E9
330
46D
100
AcDbEntity
  8
1
100
AcDbLine
 10
53.441435
 20
-5.406519
 30
0.0
 11
53.290869
 21
-5.402586
 31
0.0
  0
LINE
  5
EA
330
46D
100
AcDbEntity
  8
1
100
AcDbLine
 10
53.290869
 20
-5.402586
 30
0.0
 11
53.138681
 21
-5.397116
 31
0.0
  0
LINE
  5
EB
330
46D
100
AcDbEntity
  8
1
100
AcDbLine
 10
53.138681
 20
-5.397116
 30
0.0
 11
52.98484000000001
 21
-5.390126
 31
0.0
  0
LINE
  5
EC
330
46D
100
AcDbEntity
  8
1
100
AcDbLine
 10
52.98484000000001
 20
-5.390126
 30
0.0
 11
52.829288
 21
-5.381591999999999
 31
0.0
  0
LINE
  5
ED
330
46D
100
AcDbEntity
  8
1
100
AcDbLine
 10
52.829288
 20
-5.381591999999999
 30
0.0
 11
52.672083
 21
-5.3715
 31
0.0
  0
LINE
  5
EE
330
46D
100
AcDbEntity
  8
1
100
AcDbLine
 10
52.672083
 20
-5.3715
 30
0.0
 11
52.51336
 21
-5.359875999999999
 31
0.0
  0
LINE
  5
EF
330
46D
100
AcDbEntity
  8
1
100
AcDbLine
 10
52.51336
 20
-5.359875999999999
 30
0.0
 11
52.353094
 21
-5.346684999999999
 31
0.0
  0
LINE
  5
F0
330
46D
100
AcDbEntity
  8
1
100
AcDbLine
 10
52.353094
 20
-5.346684999999999
 30
0.0
 11
52.19130999999999
 21
-5.331901999999999
 31
0.0
  0
LINE
  5
F1
330
46D
100
AcDbEntity
  8
1
100
AcDbLine
 10
52.19130999999999
 20
-5.331901999999999
 30
0.0
 11
52.028215
 21
-5.315580999999999
 31
0.0
  0
LINE
  5
F2
330
46D
100
AcDbEntity
  8
1
100
AcDbLine
 10
52.028215
 20
-5.315580999999999
 30
0.0
 11
51.86387899999999
 21
-5.297712
 31
0.0
  0
LINE
  5
F3
330
46D
100
AcDbEntity
  8
1
100
AcDbLine
 10
51.86387899999999
 20
-5.297712
 30
0.0
 11
51.698233
 21
-5.27823
 31
0.0
  0
LINE
  5
F4
330
46D
100
AcDbEntity
  8
1
100
AcDbLine
 10
51.698233
 20
-5.27823
 30
0.0
 11
51.531277
 21
-5.257089999999999
 31
0.0
  0
LINE
  5
F5
330
46D
100
AcDbEntity
  8
1
100
AcDbLine
 10
53.42434100000001
 20
-4.635273
 30
0.0
 11
53.412547
 21
-4.637788999999999
 31
0.0
  0
LINE
  5
F6
330
46D
100
AcDbEntity
  8
1
100
AcDbLine
 10
53.412547
 20
-4.637788999999999
 30
0.0
 11
53.372613
 21
-4.645559999999999
 31
0.0
  0
LINE
  5
F7
330
46D
100
AcDbEntity
  8
1
100
AcDbLine
 10
53.372613
 20
-4.645559999999999
 30
0.0
 11
53.332089
 21
-4.652288999999999
 31
0.0
  0
LINE
  5
F8
330
46D
100
AcDbEntity
  8
1
100
AcDbLine
 10
53.332089
 20
-4.652288999999999
 30
0.0
 11
53.291009
 21
-4.657944
 31
0.0
  0
LINE
  5
F9
330
46D
100
AcDbEntity
  8
1
100
AcDbLine
 10
53.291009
 20
-4.657944
 30
0.0
 11
53.24980899999999
 21
-4.662442999999999
 31
0.0
  0
LINE
  5
FA
330
46D
100
AcDbEntity
  8
1
100
AcDbLine
 10
53.24980899999999
 20
-4.662442999999999
 30
0.0
 11
53.20854399999999
 21
-4.665778999999999
 31
0.0
  0
LINE
  5
FB
330
46D
100
AcDbEntity
  8
1
100
AcDbLine
 10
53.20854399999999
 20
-4.665778999999999
 30
0.0
 11
53.167217
 21
-4.667959999999999
 31
0.0
  0
LINE
  5
FC
330
46D
100
AcDbEntity
  8
1
100
AcDbLine
 10
53.167217
 20
-4.667959999999999
 30
0.0
 11
53.126203
 21
-4.668955999999999
 31
0.0
  0
LINE
  5
FD
330
46D
100
AcDbEntity
  8
1
100
AcDbLine
 10
53.126203
 20
-4.668955999999999
 30
0.0
 11
53.08561700000001
 21
-4.66879
 31
0.0
  0
LINE
  5
FE
330
46D
100
AcDbEntity
  8
1
100
AcDbLine
 10
53.08561700000001
 20
-4.66879
 30
0.0
 11
53.045403
 21
-4.667491
 31
0.0
  0
LINE
  5
FF
330
46D
100
AcDbEntity
  8
1
100
AcDbLine
 10
53.045403
 20
-4.667491
 30
0.0
 11
53.005677
 21
-4.665060999999999
 31
0.0
  0
LINE
  5
100
330
46D
100
AcDbEntity
  8
1
100
AcDbLine
 10
53.005677
 20
-4.665060999999999
 30
0.0
 11
52.966454
 21
-4.661523
 31
0.0
  0
LINE
  5
101
330
46D
100
AcDbEntity
  8
1
100
AcDbLine
 10
52.966454
 20
-4.661523
 30
0.0
 11
52.92777499999999
 21
-4.656908999999999
 31
0.0
  0
LINE
  5
102
330
46D
100
AcDbEntity
  8
1
100
AcDbLine
 10
52.92777499999999
 20
-4.656908999999999
 30
0.0
 11
52.88979499999999
 21
-4.651234999999999
 31
0.0
  0
LINE
  5
103
330
46D
100
AcDbEntity
  8
1
100
AcDbLine
 10
52.88979499999999
 20
-4.651234999999999
 30
0.0
 11
52.85254499999999
 21
-4.644531999999999
 31
0.0
  0
LINE
  5
104
330
46D
100
AcDbEntity
  8
1
100
AcDbLine
 10
52.85254499999999
 20
-4.644531999999999
 30
0.0
 11
52.816045
 21
-4.63684
 31
0.0
  0
LINE
  5
105
330
46D
100
AcDbEntity
  8
1
100
AcDbLine
 10
52.816045
 20
-4.63684
 30
0.0
 11
52.780434
 21
-4.628188999999999
 31
0.0
  0
LINE
  5
106
330
46D
100
AcDbEntity
  8
1
100
AcDbLine
 10
52.780434
 20
-4.628188999999999
 30
0.0
 11
52.74575
 21
-4.618623
 31
0.0
  0
LINE
  5
107
330
46D
100
AcDbEntity
  8
1
100
AcDbLine
 10
52.74575
 20
-4.618623
 30
0.0
 11
52.711998
 21
-4.608182
 31
0.0
  0
LINE
  5
108
330
46D
100
AcDbEntity
  8
1
100
AcDbLine
 10
52.711998
 20
-4.608182
 30
0.0
 11
52.67926
 21
-4.596898
 31
0.0
  0
LINE
  5
109
330
46D
100
AcDbEntity
  8
1
100
AcDbLine
 10
52.67926
 20
-4.596898
 30
0.0
 11
52.647575
 21
-4.584808999999999
 31
0.0
  0
LINE
  5
10A
330
46D
100
AcDbEntity
  8
1
100
AcDbLine
 10
52.647575
 20
-4.584808999999999
 30
0.0
 11
52.616942
 21
-4.571964
 31
0.0
  0
LINE
  5
10B
330
46D
100
AcDbEntity
  8
1
100
AcDbLine
 10
52.616942
 20
-4.571964
 30
0.0
 11
52.587375
 21
-4.558408
 31
0.0
  0
LINE
  5
10C
330
46D
100
AcDbEntity
  8
1
100
AcDbLine
 10
52.587375
 20
-4.558408
 30
0.0
 11
52.581889
 21
-4.544726999999999
 31
0.0
  0
LINE
  5
10D
330
46D
100
AcDbEntity
  8
1
100
AcDbLine
 10
52.581889
 20
-4.544726999999999
 30
0.0
 11
52.57697199999999
 21
-4.530280999999999
 31
0.0
  0
LINE
  5
10E
330
46D
100
AcDbEntity
  8
1
100
AcDbLine
 10
52.57697199999999
 20
-4.530280999999999
 30
0.0
 11
52.572623
 21
-4.515070999999999
 31
0.0
  0
LINE
  5
10F
330
46D
100
AcDbEntity
  8
1
100
AcDbLine
 10
52.572623
 20
-4.515070999999999
 30
0.0
 11
52.56879
 21
-4.499064999999999
 31
0.0
  0
LINE
  5
110
330
46D
100
AcDbEntity
  8
1
100
AcDbLine
 10
52.56879
 20
-4.499064999999999
 30
0.0
 11
52.565525
 21
-4.482294999999999
 31
0.0
  0
LINE
  5
111
330
46D
100
AcDbEntity
  8
1
100
AcDbLine
 10
52.565525
 20
-4.482294999999999
 30
0.0
 11
52.56298799999999
 21
-4.464858999999999
 31
0.0
  0
LINE
  5
112
330
46D
100
AcDbEntity
  8
1
100
AcDbLine
 10
52.56298799999999
 20
-4.464858999999999
 30
0.0
 11
52.561197
 21
-4.446733999999999
 31
0.0
  0
LINE
  5
113
330
46D
100
AcDbEntity
  8
1
100
AcDbLine
 10
52.561197
 20
-4.446733999999999
 30
0.0
 11
52.56013499999999
 21
-4.427945999999999
 31
0.0
  0
LINE
  5
114
330
46D
100
AcDbEntity
  8
1
100
AcDbLine
 10
52.56013499999999
 20
-4.427945999999999
 30
0.0
 11
52.559904
 21
-4.408667999999999
 31
0.0
  0
LINE
  5
115
330
46D
100
AcDbEntity
  8
1
100
AcDbLine
 10
52.559904
 20
-4.408667999999999
 30
0.0
 11
52.560517
 21
-4.388935
 31
0.0
  0
LINE
  5
116
330
46D
100
AcDbEntity
  8
1
100
AcDbLine
 10
52.560517
 20
-4.388935
 30
0.0
 11
52.561964
 21
-4.368714999999999
 31
0.0
  0
LINE
  5
117
330
46D
100
AcDbEntity
  8
1
100
AcDbLine
 10
52.561964
 20
-4.368714999999999
 30
0.0
 11
52.56430600000001
 21
-4.348073999999999
 31
0.0
  0
LINE
  5
118
330
46D
100
AcDbEntity
  8
1
100
AcDbLine
 10
52.56430600000001
 20
-4.348073999999999
 30
0.0
 11
52.56754499999999
 21
-4.327023999999999
 31
0.0
  0
LINE
  5
119
330
46D
100
AcDbEntity
  8
1
100
AcDbLine
 10
52.56754499999999
 20
-4.327023999999999
 30
0.0
 11
52.571684
 21
-4.305558
 31
0.0
  0
LINE
  5
11A
330
46D
100
AcDbEntity
  8
1
100
AcDbLine
 10
52.571684
 20
-4.305558
 30
0.0
 11
52.57679
 21
-4.283716
 31
0.0
  0
LINE
  5
11B
330
46D
100
AcDbEntity
  8
1
100
AcDbLine
 10
52.57679
 20
-4.283716
 30
0.0
 11
52.58288100000001
 21
-4.261466
 31
0.0
  0
LINE
  5
11C
330
46D
100
AcDbEntity
  8
1
100
AcDbLine
 10
52.58288100000001
 20
-4.261466
 30
0.0
 11
52.58994699999999
 21
-4.238846999999999
 31
0.0
  0
LINE
  5
11D
330
46D
100
AcDbEntity
  8
1
100
AcDbLine
 10
52.58994699999999
 20
-4.238846999999999
 30
0.0
 11
52.598011
 21
-4.216009999999999
 31
0.0
  0
LINE
  5
11E
330
46D
100
AcDbEntity
  8
1
100
AcDbLine
 10
52.598011
 20
-4.216009999999999
 30
0.0
 11
52.607103
 21
-4.192941
 31
0.0
  0
LINE
  5
11F
330
46D
100
AcDbEntity
  8
1
100
AcDbLine
 10
52.607103
 20
-4.192941
 30
0.0
 11
52.617202
 21
-4.169662
 31
0.0
  0
LINE
  5
120
330
46D
100
AcDbEntity
  8
1
100
AcDbLine
 10
52.617202
 20
-4.169662
 30
0.0
 11
52.628265
 21
-4.146376
 31
0.0
  0
LINE
  5
121
330
46D
100
AcDbEntity
  8
1
100
AcDbLine
 10
52.628265
 20
-4.146376
 30
0.0
 11
52.640281
 21
-4.123154
 31
0.0
  0
LINE
  5
122
330
46D
100
AcDbEntity
  8
1
100
AcDbLine
 10
52.640281
 20
-4.123154
 30
0.0
 11
52.65326899999999
 21
-4.099933999999999
 31
0.0
  0
LINE
  5
123
330
46D
100
AcDbEntity
  8
1
100
AcDbLine
 10
52.65326899999999
 20
-4.099933999999999
 30
0.0
 11
52.667234
 21
-4.076717999999999
 31
0.0
  0
LINE
  5
124
330
46D
100
AcDbEntity
  8
1
100
AcDbLine
 10
52.587375
 20
-4.558408
 30
0.0
 11
52.46088199999999
 21
-4.630870999999999
 31
0.0
  0
LINE
  5
125
330
46D
100
AcDbEntity
  8
1
100
AcDbLine
 10
52.46088199999999
 20
-4.630870999999999
 30
0.0
 11
52.33642299999999
 21
-4.704785
 31
0.0
  0
LINE
  5
126
330
46D
100
AcDbEntity
  8
1
100
AcDbLine
 10
52.33642299999999
 20
-4.704785
 30
0.0
 11
52.21410800000001
 21
-4.780083999999999
 31
0.0
  0
LINE
  5
127
330
46D
100
AcDbEntity
  8
1
100
AcDbLine
 10
52.21410800000001
 20
-4.780083999999999
 30
0.0
 11
52.094049
 21
-4.856701
 31
0.0
  0
LINE
  5
128
330
46D
100
AcDbEntity
  8
1
100
AcDbLine
 10
52.094049
 20
-4.856701
 30
0.0
 11
51.976352
 21
-4.934566
 31
0.0
  0
LINE
  5
129
330
46D
100
AcDbEntity
  8
1
100
AcDbLine
 10
51.976352
 20
-4.934566
 30
0.0
 11
51.86112399999999
 21
-5.013608999999999
 31
0.0
  0
LINE
  5
12A
330
46D
100
AcDbEntity
  8
1
100
AcDbLine
 10
51.86112399999999
 20
-5.013608999999999
 30
0.0
 11
51.748468
 21
-5.093758
 31
0.0
  0
LINE
  5
12B
330
46D
100
AcDbEntity
  8
1
100
AcDbLine
 10
51.748468
 20
-5.093758
 30
0.0
 11
51.638486
 21
-5.174942999999999
 31
0.0
  0
LINE
  5
12C
330
46D
100
AcDbEntity
  8
1
100
AcDbLine
 10
51.638486
 20
-5.174942999999999
 30
0.0
 11
51.531277
 21
-5.257089999999999
 31
0.0
  0
LINE
  5
12D
330
46D
100
AcDbEntity
  8
1
100
AcDbLine
 10
54.073349
 20
-4.162939999999999
 30
0.0
 11
54.07182800000001
 21
-4.175476
 31
0.0
  0
LINE
  5
12E
330
46D
100
AcDbEntity
  8
1
100
AcDbLine
 10
54.07182800000001
 20
-4.175476
 30
0.0
 11
54.069513
 21
-4.188331999999999
 31
0.0
  0
LINE
  5
12F
330
46D
100
AcDbEntity
  8
1
100
AcDbLine
 10
54.069513
 20
-4.188331999999999
 30
0.0
 11
54.06639300000001
 21
-4.201492
 31
0.0
  0
LINE
  5
130
330
46D
100
AcDbEntity
  8
1
100
AcDbLine
 10
54.06639300000001
 20
-4.201492
 30
0.0
 11
54.06246899999999
 21
-4.214960999999999
 31
0.0
  0
LINE
  5
131
330
46D
100
AcDbEntity
  8
1
100
AcDbLine
 10
54.06246899999999
 20
-4.214960999999999
 30
0.0
 11
54.057713
 21
-4.228701
 31
0.0
  0
LINE
  5
132
330
46D
100
AcDbEntity
  8
1
100
AcDbLine
 10
54.057713
 20
-4.228701
 30
0.0
 11
54.052077
 21
-4.242625
 31
0.0
  0
LINE
  5
133
330
46D
100
AcDbEntity
  8
1
100
AcDbLine
 10
54.052077
 20
-4.242625
 30
0.0
 11
54.04554
 21
-4.256712
 31
0.0
  0
LINE
  5
134
330
46D
100
AcDbEntity
  8
1
100
AcDbLine
 10
54.04554
 20
-4.256712
 30
0.0
 11
54.038105
 21
-4.270948999999999
 31
0.0
  0
LINE
  5
135
330
46D
100
AcDbEntity
  8
1
100
AcDbLine
 10
54.038105
 20
-4.270948999999999
 30
0.0
 11
54.02975600000001
 21
-4.285277999999999
 31
0.0
  0
LINE
  5
136
330
46D
100
AcDbEntity
  8
1
100
AcDbLine
 10
54.02975600000001
 20
-4.285277999999999
 30
0.0
 11
54.020507
 21
-4.299647
 31
0.0
  0
LINE
  5
137
330
46D
100
AcDbEntity
  8
1
100
AcDbLine
 10
54.020507
 20
-4.299647
 30
0.0
 11
54.010334
 21
-4.314072
 31
0.0
  0
LINE
  5
138
330
46D
100
AcDbEntity
  8
1
100
AcDbLine
 10
54.010334
 20
-4.314072
 30
0.0
 11
53.999165
 21
-4.328600999999999
 31
0.0
  0
LINE
  5
139
330
46D
100
AcDbEntity
  8
1
100
AcDbLine
 10
53.999165
 20
-4.328600999999999
 30
0.0
 11
53.986976
 21
-4.343229
 31
0.0
  0
LINE
  5
13A
330
46D
100
AcDbEntity
  8
1
100
AcDbLine
 10
53.986976
 20
-4.343229
 30
0.0
 11
53.973773
 21
-4.357914
 31
0.0
  0
LINE
  5
13B
330
46D
100
AcDbEntity
  8
1
100
AcDbLine
 10
53.973773
 20
-4.357914
 30
0.0
 11
53.95952600000001
 21
-4.372638999999999
 31
0.0
  0
LINE
  5
13C
330
46D
100
AcDbEntity
  8
1
100
AcDbLine
 10
53.95952600000001
 20
-4.372638999999999
 30
0.0
 11
53.944235
 21
-4.387369999999999
 31
0.0
  0
LINE
  5
13D
330
46D
100
AcDbEntity
  8
1
100
AcDbLine
 10
53.944235
 20
-4.387369999999999
 30
0.0
 11
53.927886
 21
-4.40209
 31
0.0
  0
LINE
  5
13E
330
46D
100
AcDbEntity
  8
1
100
AcDbLine
 10
53.927886
 20
-4.40209
 30
0.0
 11
53.91041999999999
 21
-4.416808999999999
 31
0.0
  0
LINE
  5
13F
330
46D
100
AcDbEntity
  8
1
100
AcDbLine
 10
53.91041999999999
 20
-4.416808999999999
 30
0.0
 11
53.891867
 21
-4.431467999999999
 31
0.0
  0
LINE
  5
140
330
46D
100
AcDbEntity
  8
1
100
AcDbLine
 10
53.891867
 20
-4.431467999999999
 30
0.0
 11
53.87218299999999
 21
-4.446062999999999
 31
0.0
  0
LINE
  5
141
330
46D
100
AcDbEntity
  8
1
100
AcDbLine
 10
53.87218299999999
 20
-4.446062999999999
 30
0.0
 11
53.851199
 21
-4.460666999999999
 31
0.0
  0
LINE
  5
142
330
46D
100
AcDbEntity
  8
1
100
AcDbLine
 10
53.851199
 20
-4.460666999999999
 30
0.0
 11
53.82888499999999
 21
-4.475248
 31
0.0
  0
LINE
  5
143
330
46D
100
AcDbEntity
  8
1
100
AcDbLine
 10
53.82888499999999
 20
-4.475248
 30
0.0
 11
53.80524699999999
 21
-4.489742999999999
 31
0.0
  0
LINE
  5
144
330
46D
100
AcDbEntity
  8
1
100
AcDbLine
 10
53.80524699999999
 20
-4.489742999999999
 30
0.0
 11
53.780166
 21
-4.504160999999999
 31
0.0
  0
LINE
  5
145
330
46D
100
AcDbEntity
  8
1
100
AcDbLine
 10
53.780166
 20
-4.504160999999999
 30
0.0
 11
53.75358199999999
 21
-4.518466
 31
0.0
  0
LINE
  5
146
330
46D
100
AcDbEntity
  8
1
100
AcDbLine
 10
53.75358199999999
 20
-4.518466
 30
0.0
 11
53.72552800000001
 21
-4.532569999999999
 31
0.0
  0
LINE
  5
147
330
46D
100
AcDbEntity
  8
1
100
AcDbLine
 10
53.72552800000001
 20
-4.532569999999999
 30
0.0
 11
53.696023
 21
-4.546401999999999
 31
0.0
  0
LINE
  5
148
330
46D
100
AcDbEntity
  8
1
100
AcDbLine
 10
53.696023
 20
-4.546401999999999
 30
0.0
 11
53.66499799999999
 21
-4.559917999999999
 31
0.0
  0
LINE
  5
149
330
46D
100
AcDbEntity
  8
1
100
AcDbLine
 10
53.66499799999999
 20
-4.559917999999999
 30
0.0
 11
53.632506
 21
-4.573025
 31
0.0
  0
LINE
  5
14A
330
46D
100
AcDbEntity
  8
1
100
AcDbLine
 10
53.632506
 20
-4.573025
 30
0.0
 11
53.59875699999999
 21
-4.585586
 31
0.0
  0
LINE
  5
14B
330
46D
100
AcDbEntity
  8
1
100
AcDbLine
 10
53.59875699999999
 20
-4.585586
 30
0.0
 11
53.56374999999999
 21
-4.597539
 31
0.0
  0
LINE
  5
14C
330
46D
100
AcDbEntity
  8
1
100
AcDbLine
 10
53.56374999999999
 20
-4.597539
 30
0.0
 11
53.527492
 21
-4.608823999999999
 31
0.0
  0
LINE
  5
14D
330
46D
100
AcDbEntity
  8
1
100
AcDbLine
 10
53.527492
 20
-4.608823999999999
 30
0.0
 11
53.490214
 21
-4.619324999999999
 31
0.0
  0
LINE
  5
14E
330
46D
100
AcDbEntity
  8
1
100
AcDbLine
 10
53.490214
 20
-4.619324999999999
 30
0.0
 11
53.451878
 21
-4.629002999999999
 31
0.0
  0
LINE
  5
14F
330
46D
100
AcDbEntity
  8
1
100
AcDbLine
 10
53.451878
 20
-4.629002999999999
 30
0.0
 11
53.42434100000001
 21
-4.635273
 31
0.0
  0
LINE
  5
150
330
46D
100
AcDbEntity
  8
1
100
AcDbLine
 10
54.293661
 20
-6.122952999999999
 30
0.0
 11
54.293661
 21
-6.059725
 31
0.0
  0
LINE
  5
151
330
46D
100
AcDbEntity
  8
1
100
AcDbLine
 10
53.955049
 20
-3.920862999999999
 30
0.0
 11
53.968262
 21
-3.932391999999999
 31
0.0
  0
LINE
  5
152
330
46D
100
AcDbEntity
  8
1
100
AcDbLine
 10
53.968262
 20
-3.932391999999999
 30
0.0
 11
53.9806
 21
-3.943941
 31
0.0
  0
LINE
  5
153
330
46D
100
AcDbEntity
  8
1
100
AcDbLine
 10
53.9806
 20
-3.943941
 30
0.0
 11
53.99206899999999
 21
-3.955499999999999
 31
0.0
  0
LINE
  5
154
330
46D
100
AcDbEntity
  8
1
100
AcDbLine
 10
53.99206899999999
 20
-3.955499999999999
 30
0.0
 11
54.00265899999999
 21
-3.967055999999999
 31
0.0
  0
LINE
  5
155
330
46D
100
AcDbEntity
  8
1
100
AcDbLine
 10
54.00265899999999
 20
-3.967055999999999
 30
0.0
 11
54.012391
 21
-3.978595999999999
 31
0.0
  0
LINE
  5
156
330
46D
100
AcDbEntity
  8
1
100
AcDbLine
 10
54.012391
 20
-3.978595999999999
 30
0.0
 11
54.02132099999999
 21
-3.990098999999999
 31
0.0
  0
LINE
  5
157
330
46D
100
AcDbEntity
  8
1
100
AcDbLine
 10
54.02132099999999
 20
-3.990098999999999
 30
0.0
 11
54.02944399999999
 21
-4.00154
 31
0.0
  0
LINE
  5
158
330
46D
100
AcDbEntity
  8
1
100
AcDbLine
 10
54.02944399999999
 20
-4.00154
 30
0.0
 11
54.036777
 21
-4.012923999999999
 31
0.0
  0
LINE
  5
159
330
46D
100
AcDbEntity
  8
1
100
AcDbLine
 10
54.036777
 20
-4.012923999999999
 30
0.0
 11
54.043401
 21
-4.024271999999999
 31
0.0
  0
LINE
  5
15A
330
46D
100
AcDbEntity
  8
1
100
AcDbLine
 10
54.043401
 20
-4.024271999999999
 30
0.0
 11
54.04931600000001
 21
-4.035547
 31
0.0
  0
LINE
  5
15B
330
46D
100
AcDbEntity
  8
1
100
AcDbLine
 10
54.04931600000001
 20
-4.035547
 30
0.0
 11
54.054532
 21
-4.046769999999999
 31
0.0
  0
LINE
  5
15C
330
46D
100
AcDbEntity
  8
1
100
AcDbLine
 10
54.054532
 20
-4.046769999999999
 30
0.0
 11
54.059134
 21
-4.058050999999999
 31
0.0
  0
LINE
  5
15D
330
46D
100
AcDbEntity
  8
1
100
AcDbLine
 10
54.059134
 20
-4.058050999999999
 30
0.0
 11
54.063141
 21
-4.069403
 31
0.0
  0
LINE
  5
15E
330
46D
100
AcDbEntity
  8
1
100
AcDbLine
 10
54.063141
 20
-4.069403
 30
0.0
 11
54.06653399999999
 21
-4.080799999999999
 31
0.0
  0
LINE
  5
15F
330
46D
100
AcDbEntity
  8
1
100
AcDbLine
 10
54.06653399999999
 20
-4.080799999999999
 30
0.0
 11
54.06932499999999
 21
-4.092284999999999
 31
0.0
  0
LINE
  5
160
330
46D
100
AcDbEntity
  8
1
100
AcDbLine
 10
54.06932499999999
 20
-4.092284999999999
 30
0.0
 11
54.071521
 21
-4.103858999999999
 31
0.0
  0
LINE
  5
161
330
46D
100
AcDbEntity
  8
1
100
AcDbLine
 10
54.071521
 20
-4.103858999999999
 30
0.0
 11
54.073112
 21
-4.115508999999999
 31
0.0
  0
LINE
  5
162
330
46D
100
AcDbEntity
  8
1
100
AcDbLine
 10
54.073112
 20
-4.115508999999999
 30
0.0
 11
54.07409399999999
 21
-4.127245999999999
 31
0.0
  0
LINE
  5
163
330
46D
100
AcDbEntity
  8
1
100
AcDbLine
 10
54.07409399999999
 20
-4.127245999999999
 30
0.0
 11
54.07446
 21
-4.139072
 31
0.0
  0
LINE
  5
164
330
46D
100
AcDbEntity
  8
1
100
AcDbLine
 10
54.07446
 20
-4.139072
 30
0.0
 11
54.074213
 21
-4.150973
 31
0.0
  0
LINE
  5
165
330
46D
100
AcDbEntity
  8
1
100
AcDbLine
 10
54.074213
 20
-4.150973
 30
0.0
 11
54.073349
 21
-4.162939999999999
 31
0.0
  0
LINE
  5
166
330
46D
100
AcDbEntity
  8
1
100
AcDbLine
 10
54.691175
 20
-6.324009999999999
 30
0.0
 11
54.662599
 21
-6.318164
 31
0.0
  0
LINE
  5
167
330
46D
100
AcDbEntity
  8
1
100
AcDbLine
 10
54.662599
 20
-6.318164
 30
0.0
 11
54.60039599999999
 21
-6.3009
 31
0.0
  0
LINE
  5
168
330
46D
100
AcDbEntity
  8
1
100
AcDbLine
 10
54.60039599999999
 20
-6.3009
 30
0.0
 11
54.538337
 21
-6.277467999999999
 31
0.0
  0
LINE
  5
169
330
46D
100
AcDbEntity
  8
1
100
AcDbLine
 10
54.538337
 20
-6.277467999999999
 30
0.0
 11
54.47661599999999
 21
-6.247949
 31
0.0
  0
LINE
  5
16A
330
46D
100
AcDbEntity
  8
1
100
AcDbLine
 10
54.47661599999999
 20
-6.247949
 30
0.0
 11
54.415294
 21
-6.212371
 31
0.0
  0
LINE
  5
16B
330
46D
100
AcDbEntity
  8
1
100
AcDbLine
 10
54.415294
 20
-6.212371
 30
0.0
 11
54.354309
 21
-6.170706
 31
0.0
  0
LINE
  5
16C
330
46D
100
AcDbEntity
  8
1
100
AcDbLine
 10
54.354309
 20
-6.170706
 30
0.0
 11
54.293661
 21
-6.122952999999999
 31
0.0
  0
LINE
  5
16D
330
46D
100
AcDbEntity
  8
1
100
AcDbLine
 10
55.658538
 20
-6.5
 30
0.0
 11
54.69126
 21
-6.324028
 31
0.0
  0
LINE
  5
16E
330
46D
100
AcDbEntity
  8
1
100
AcDbLine
 10
54.293661
 20
-6.122952999999999
 30
0.0
 11
54.43758
 21
-6.139583999999999
 31
0.0
  0
LINE
  5
16F
330
46D
100
AcDbEntity
  8
1
100
AcDbLine
 10
54.450555
 20
-1.885958
 30
0.0
 11
53.90297
 21
-2.06345
 31
0.0
  0
LINE
  5
170
330
46D
100
AcDbEntity
  8
1
100
AcDbLine
 10
53.90297
 20
-2.06345
 30
0.0
 11
53.351666
 21
-2.239241999999999
 31
0.0
  0
LINE
  5
171
330
46D
100
AcDbEntity
  8
1
100
AcDbLine
 10
53.351666
 20
-2.239241999999999
 30
0.0
 11
52.796552
 21
-2.413336999999999
 31
0.0
  0
LINE
  5
172
330
46D
100
AcDbEntity
  8
1
100
AcDbLine
 10
52.796552
 20
-2.413336999999999
 30
0.0
 11
52.23772
 21
-2.585733
 31
0.0
  0
LINE
  5
173
330
46D
100
AcDbEntity
  8
1
100
AcDbLine
 10
52.23772
 20
-2.585733
 30
0.0
 11
51.677536
 21
-2.755666
 31
0.0
  0
LINE
  5
174
330
46D
100
AcDbEntity
  8
1
100
AcDbLine
 10
51.677536
 20
-2.755666
 30
0.0
 11
51.11679099999999
 21
-2.922881
 31
0.0
  0
LINE
  5
175
330
46D
100
AcDbEntity
  8
1
100
AcDbLine
 10
51.11679099999999
 20
-2.922881
 30
0.0
 11
50.554695
 21
-3.087631
 31
0.0
  0
LINE
  5
176
330
46D
100
AcDbEntity
  8
1
100
AcDbLine
 10
50.554695
 20
-3.087631
 30
0.0
 11
49.991248
 21
-3.249918
 31
0.0
  0
LINE
  5
177
330
46D
100
AcDbEntity
  8
1
100
AcDbLine
 10
54.04989399999999
 20
0.19779
 30
0.0
 11
54.04263199999999
 21
0.193174
 31
0.0
  0
LINE
  5
178
330
46D
100
AcDbEntity
  8
1
100
AcDbLine
 10
54.04263199999999
 20
0.193174
 30
0.0
 11
54.034347
 21
0.188441
 31
0.0
  0
LINE
  5
179
330
46D
100
AcDbEntity
  8
1
100
AcDbLine
 10
54.034347
 20
0.188441
 30
0.0
 11
54.025031
 21
0.183605
 31
0.0
  0
LINE
  5
17A
330
46D
100
AcDbEntity
  8
1
100
AcDbLine
 10
54.025031
 20
0.183605
 30
0.0
 11
54.014699
 21
0.178691
 31
0.0
  0
LINE
  5
17B
330
46D
100
AcDbEntity
  8
1
100
AcDbLine
 10
54.014699
 20
0.178691
 30
0.0
 11
54.00332399999999
 21
0.173701
 31
0.0
  0
LINE
  5
17C
330
46D
100
AcDbEntity
  8
1
100
AcDbLine
 10
54.00332399999999
 20
0.173701
 30
0.0
 11
53.99082299999999
 21
0.168612
 31
0.0
  0
LINE
  5
17D
330
46D
100
AcDbEntity
  8
1
100
AcDbLine
 10
53.99082299999999
 20
0.168612
 30
0.0
 11
53.977166
 21
0.163439
 31
0.0
  0
LINE
  5
17E
330
46D
100
AcDbEntity
  8
1
100
AcDbLine
 10
53.977166
 20
0.163439
 30
0.0
 11
53.962362
 21
0.158208
 31
0.0
  0
LINE
  5
17F
330
46D
100
AcDbEntity
  8
1
100
AcDbLine
 10
53.962362
 20
0.158208
 30
0.0
 11
53.946388
 21
0.152928
 31
0.0
  0
LINE
  5
180
330
46D
100
AcDbEntity
  8
1
100
AcDbLine
 10
53.946388
 20
0.152928
 30
0.0
 11
53.929264
 21
0.147626
 31
0.0
  0
LINE
  5
181
330
46D
100
AcDbEntity
  8
1
100
AcDbLine
 10
53.929264
 20
0.147626
 30
0.0
 11
53.91095400000001
 21
0.142309
 31
0.0
  0
LINE
  5
182
330
46D
100
AcDbEntity
  8
1
100
AcDbLine
 10
53.91095400000001
 20
0.142309
 30
0.0
 11
53.891346
 21
0.136966
 31
0.0
  0
LINE
  5
183
330
46D
100
AcDbEntity
  8
1
100
AcDbLine
 10
53.891346
 20
0.136966
 30
0.0
 11
53.870449
 21
0.131629
 31
0.0
  0
LINE
  5
184
330
46D
100
AcDbEntity
  8
1
100
AcDbLine
 10
53.870449
 20
0.131629
 30
0.0
 11
53.84823199999999
 21
0.126314
 31
0.0
  0
LINE
  5
185
330
46D
100
AcDbEntity
  8
1
100
AcDbLine
 10
53.84823199999999
 20
0.126314
 30
0.0
 11
53.82451999999999
 21
0.121005
 31
0.0
  0
LINE
  5
186
330
46D
100
AcDbEntity
  8
1
100
AcDbLine
 10
53.82451999999999
 20
0.121005
 30
0.0
 11
53.799268
 21
0.11573
 31
0.0
  0
LINE
  5
187
330
46D
100
AcDbEntity
  8
1
100
AcDbLine
 10
53.799268
 20
0.11573
 30
0.0
 11
53.77249
 21
0.110528
 31
0.0
  0
LINE
  5
188
330
46D
100
AcDbEntity
  8
1
100
AcDbLine
 10
53.77249
 20
0.110528
 30
0.0
 11
53.74409100000001
 21
0.10542
 31
0.0
  0
LINE
  5
189
330
46D
100
AcDbEntity
  8
1
100
AcDbLine
 10
53.74409100000001
 20
0.10542
 30
0.0
 11
53.713979
 21
0.100418
 31
0.0
  0
LINE
  5
18A
330
46D
100
AcDbEntity
  8
1
100
AcDbLine
 10
53.713979
 20
0.100418
 30
0.0
 11
53.682218
 21
0.095579
 31
0.0
  0
LINE
  5
18B
330
46D
100
AcDbEntity
  8
1
100
AcDbLine
 10
53.682218
 20
0.095579
 30
0.0
 11
53.64895
 21
0.090979
 31
0.0
  0
LINE
  5
18C
330
46D
100
AcDbEntity
  8
1
100
AcDbLine
 10
53.64895
 20
0.090979
 30
0.0
 11
53.614144
 21
0.086626
 31
0.0
  0
LINE
  5
18D
330
46D
100
AcDbEntity
  8
1
100
AcDbLine
 10
53.614144
 20
0.086626
 30
0.0
 11
53.577824
 21
0.082552
 31
0.0
  0
LINE
  5
18E
330
46D
100
AcDbEntity
  8
1
100
AcDbLine
 10
53.577824
 20
0.082552
 30
0.0
 11
53.540229
 21
0.078857
 31
0.0
  0
LINE
  5
18F
330
46D
100
AcDbEntity
  8
1
100
AcDbLine
 10
53.540229
 20
0.078857
 30
0.0
 11
53.50132399999999
 21
0.075532
 31
0.0
  0
LINE
  5
190
330
46D
100
AcDbEntity
  8
1
100
AcDbLine
 10
53.50132399999999
 20
0.075532
 30
0.0
 11
53.461162
 21
0.072588
 31
0.0
  0
LINE
  5
191
330
46D
100
AcDbEntity
  8
1
100
AcDbLine
 10
53.461162
 20
0.072588
 30
0.0
 11
53.420116
 21
0.070139
 31
0.0
  0
LINE
  5
192
330
46D
100
AcDbEntity
  8
1
100
AcDbLine
 10
53.420116
 20
0.070139
 30
0.0
 11
53.37817199999999
 21
0.068158
 31
0.0
  0
LINE
  5
193
330
46D
100
AcDbEntity
  8
1
100
AcDbLine
 10
53.37817199999999
 20
0.068158
 30
0.0
 11
53.335388
 21
0.06663
 31
0.0
  0
LINE
  5
194
330
46D
100
AcDbEntity
  8
1
100
AcDbLine
 10
53.335388
 20
0.06663
 30
0.0
 11
53.29226600000001
 21
0.065654
 31
0.0
  0
LINE
  5
195
330
46D
100
AcDbEntity
  8
1
100
AcDbLine
 10
53.29226600000001
 20
0.065654
 30
0.0
 11
53.24884499999999
 21
0.065192
 31
0.0
  0
LINE
  5
196
330
46D
100
AcDbEntity
  8
1
100
AcDbLine
 10
53.24884499999999
 20
0.065192
 30
0.0
 11
53.20515
 21
0.065197
 31
0.0
  0
LINE
  5
197
330
46D
100
AcDbEntity
  8
1
100
AcDbLine
 10
53.20515
 20
0.065197
 30
0.0
 11
53.16167199999999
 21
0.065735
 31
0.0
  0
LINE
  5
198
330
46D
100
AcDbEntity
  8
1
100
AcDbLine
 10
53.16167199999999
 20
0.065735
 30
0.0
 11
53.11854499999999
 21
0.066753
 31
0.0
  0
LINE
  5
199
330
46D
100
AcDbEntity
  8
1
100
AcDbLine
 10
53.11854499999999
 20
0.066753
 30
0.0
 11
53.075704
 21
0.068193
 31
0.0
  0
LINE
  5
19A
330
46D
100
AcDbEntity
  8
1
100
AcDbLine
 10
53.075704
 20
0.068193
 30
0.0
 11
53.033345
 21
0.070097
 31
0.0
  0
LINE
  5
19B
330
46D
100
AcDbEntity
  8
1
100
AcDbLine
 10
53.033345
 20
0.070097
 30
0.0
 11
52.991505
 21
0.072416
 31
0.0
  0
LINE
  5
19C
330
46D
100
AcDbEntity
  8
1
100
AcDbLine
 10
52.991505
 20
0.072416
 30
0.0
 11
52.950213
 21
0.07509
 31
0.0
  0
LINE
  5
19D
330
46D
100
AcDbEntity
  8
1
100
AcDbLine
 10
52.950213
 20
0.07509
 30
0.0
 11
52.90964999999999
 21
0.078144
 31
0.0
  0
LINE
  5
19E
330
46D
100
AcDbEntity
  8
1
100
AcDbLine
 10
52.90964999999999
 20
0.078144
 30
0.0
 11
52.86985
 21
0.081534
 31
0.0
  0
LINE
  5
19F
330
46D
100
AcDbEntity
  8
1
100
AcDbLine
 10
52.86985
 20
0.081534
 30
0.0
 11
52.83084
 21
0.085198
 31
0.0
  0
LINE
  5
1A0
330
46D
100
AcDbEntity
  8
1
100
AcDbLine
 10
52.83084
 20
0.085198
 30
0.0
 11
52.792798
 21
0.08915
 31
0.0
  0
LINE
  5
1A1
330
46D
100
AcDbEntity
  8
1
100
AcDbLine
 10
52.792798
 20
0.08915
 30
0.0
 11
52.75576899999999
 21
0.093343
 31
0.0
  0
LINE
  5
1A2
330
46D
100
AcDbEntity
  8
1
100
AcDbLine
 10
52.75576899999999
 20
0.093343
 30
0.0
 11
52.71976
 21
0.097728
 31
0.0
  0
LINE
  5
1A3
330
46D
100
AcDbEntity
  8
1
100
AcDbLine
 10
52.71976
 20
0.097728
 30
0.0
 11
52.684885
 21
0.102307
 31
0.0
  0
LINE
  5
1A4
330
46D
100
AcDbEntity
  8
1
100
AcDbLine
 10
52.684885
 20
0.102307
 30
0.0
 11
52.651198
 21
0.107054
 31
0.0
  0
LINE
  5
1A5
330
46D
100
AcDbEntity
  8
1
100
AcDbLine
 10
52.651198
 20
0.107054
 30
0.0
 11
52.618688
 21
0.111912
 31
0.0
  0
LINE
  5
1A6
330
46D
100
AcDbEntity
  8
1
100
AcDbLine
 10
52.618688
 20
0.111912
 30
0.0
 11
52.587375
 21
0.116845
 31
0.0
  0
LINE
  5
1A7
330
46D
100
AcDbEntity
  8
1
100
AcDbLine
 10
52.734342
 20
0.543619
 30
0.0
 11
52.74177299999999
 21
0.548551
 31
0.0
  0
LINE
  5
1A8
330
46D
100
AcDbEntity
  8
1
100
AcDbLine
 10
52.74177299999999
 20
0.548551
 30
0.0
 11
52.765289
 21
0.563219
 31
0.0
  0
LINE
  5
1A9
330
46D
100
AcDbEntity
  8
1
100
AcDbLine
 10
52.765289
 20
0.563219
 30
0.0
 11
52.79059
 21
0.57738
 31
0.0
  0
LINE
  5
1AA
330
46D
100
AcDbEntity
  8
1
100
AcDbLine
 10
52.79059
 20
0.57738
 30
0.0
 11
52.81774
 21
0.5910020000000001
 31
0.0
  0
LINE
  5
1AB
330
46D
100
AcDbEntity
  8
1
100
AcDbLine
 10
52.81774
 20
0.5910020000000001
 30
0.0
 11
52.846697
 21
0.6041560000000001
 31
0.0
  0
LINE
  5
1AC
330
46D
100
AcDbEntity
  8
1
100
AcDbLine
 10
52.846697
 20
0.6041560000000001
 30
0.0
 11
52.877136
 21
0.616526
 31
0.0
  0
LINE
  5
1AD
330
46D
100
AcDbEntity
  8
1
100
AcDbLine
 10
52.877136
 20
0.616526
 30
0.0
 11
52.90905
 21
0.628069
 31
0.0
  0
LINE
  5
1AE
330
46D
100
AcDbEntity
  8
1
100
AcDbLine
 10
52.90905
 20
0.628069
 30
0.0
 11
52.94246
 21
0.638857
 31
0.0
  0
LINE
  5
1AF
330
46D
100
AcDbEntity
  8
1
100
AcDbLine
 10
52.94246
 20
0.638857
 30
0.0
 11
52.97707299999999
 21
0.648729
 31
0.0
  0
LINE
  5
1B0
330
46D
100
AcDbEntity
  8
1
100
AcDbLine
 10
52.97707299999999
 20
0.648729
 30
0.0
 11
53.012963
 21
0.6576750000000001
 31
0.0
  0
LINE
  5
1B1
330
46D
100
AcDbEntity
  8
1
100
AcDbLine
 10
53.012963
 20
0.6576750000000001
 30
0.0
 11
53.050063
 21
0.6657260000000001
 31
0.0
  0
LINE
  5
1B2
330
46D
100
AcDbEntity
  8
1
100
AcDbLine
 10
53.050063
 20
0.6657260000000001
 30
0.0
 11
53.087852
 21
0.6727689999999999
 31
0.0
  0
LINE
  5
1B3
330
46D
100
AcDbEntity
  8
1
100
AcDbLine
 10
53.087852
 20
0.6727689999999999
 30
0.0
 11
53.12648299999999
 21
0.678762
 31
0.0
  0
LINE
  5
1B4
330
46D
100
AcDbEntity
  8
1
100
AcDbLine
 10
53.12648299999999
 20
0.678762
 30
0.0
 11
53.165799
 21
0.68375
 31
0.0
  0
LINE
  5
1B5
330
46D
100
AcDbEntity
  8
1
100
AcDbLine
 10
53.165799
 20
0.68375
 30
0.0
 11
53.20480899999999
 21
0.6877220000000001
 31
0.0
  0
LINE
  5
1B6
330
46D
100
AcDbEntity
  8
1
100
AcDbLine
 10
53.20480899999999
 20
0.6877220000000001
 30
0.0
 11
53.243412
 21
0.690587
 31
0.0
  0
LINE
  5
1B7
330
46D
100
AcDbEntity
  8
1
100
AcDbLine
 10
53.243412
 20
0.690587
 30
0.0
 11
53.281691
 21
0.6924060000000001
 31
0.0
  0
LINE
  5
1B8
330
46D
100
AcDbEntity
  8
1
100
AcDbLine
 10
53.281691
 20
0.6924060000000001
 30
0.0
 11
53.318913
 21
0.6933660000000001
 31
0.0
  0
LINE
  5
1B9
330
46D
100
AcDbEntity
  8
1
100
AcDbLine
 10
53.318913
 20
0.6933660000000001
 30
0.0
 11
53.35484499999999
 21
0.6934300000000001
 31
0.0
  0
LINE
  5
1BA
330
46D
100
AcDbEntity
  8
1
100
AcDbLine
 10
53.35484499999999
 20
0.6934300000000001
 30
0.0
 11
53.389699
 21
0.692591
 31
0.0
  0
LINE
  5
1BB
330
46D
100
AcDbEntity
  8
1
100
AcDbLine
 10
53.389699
 20
0.692591
 30
0.0
 11
53.42340899999999
 21
0.6910750000000001
 31
0.0
  0
LINE
  5
1BC
330
46D
100
AcDbEntity
  8
1
100
AcDbLine
 10
53.42340899999999
 20
0.6910750000000001
 30
0.0
 11
53.455928
 21
0.6888850000000001
 31
0.0
  0
LINE
  5
1BD
330
46D
100
AcDbEntity
  8
1
100
AcDbLine
 10
53.455928
 20
0.6888850000000001
 30
0.0
 11
53.487287
 21
0.685982
 31
0.0
  0
LINE
  5
1BE
330
46D
100
AcDbEntity
  8
1
100
AcDbLine
 10
53.487287
 20
0.685982
 30
0.0
 11
53.517541
 21
0.6825280000000001
 31
0.0
  0
LINE
  5
1BF
330
46D
100
AcDbEntity
  8
1
100
AcDbLine
 10
53.517541
 20
0.6825280000000001
 30
0.0
 11
53.54665999999999
 21
0.6785320000000001
 31
0.0
  0
LINE
  5
1C0
330
46D
100
AcDbEntity
  8
1
100
AcDbLine
 10
53.54665999999999
 20
0.6785320000000001
 30
0.0
 11
53.574663
 21
0.673956
 31
0.0
  0
LINE
  5
1C1
330
46D
100
AcDbEntity
  8
1
100
AcDbLine
 10
53.574663
 20
0.673956
 30
0.0
 11
53.60167399999999
 21
0.668894
 31
0.0
  0
LINE
  5
1C2
330
46D
100
AcDbEntity
  8
1
100
AcDbLine
 10
53.60167399999999
 20
0.668894
 30
0.0
 11
53.62769399999999
 21
0.6633550000000001
 31
0.0
  0
LINE
  5
1C3
330
46D
100
AcDbEntity
  8
1
100
AcDbLine
 10
53.62769399999999
 20
0.6633550000000001
 30
0.0
 11
53.652716
 21
0.6573090000000001
 31
0.0
  0
LINE
  5
1C4
330
46D
100
AcDbEntity
  8
1
100
AcDbLine
 10
53.652716
 20
0.6573090000000001
 30
0.0
 11
53.676851
 21
0.6507920000000001
 31
0.0
  0
LINE
  5
1C5
330
46D
100
AcDbEntity
  8
1
100
AcDbLine
 10
53.676851
 20
0.6507920000000001
 30
0.0
 11
53.700192
 21
0.6437680000000001
 31
0.0
  0
LINE
  5
1C6
330
46D
100
AcDbEntity
  8
1
100
AcDbLine
 10
53.700192
 20
0.6437680000000001
 30
0.0
 11
53.722641
 21
0.636258
 31
0.0
  0
LINE
  5
1C7
330
46D
100
AcDbEntity
  8
1
100
AcDbLine
 10
53.722641
 20
0.636258
 30
0.0
 11
53.74402299999999
 21
0.6283800000000001
 31
0.0
  0
LINE
  5
1C8
330
46D
100
AcDbEntity
  8
1
100
AcDbLine
 10
53.74402299999999
 20
0.6283800000000001
 30
0.0
 11
53.764298
 21
0.6201210000000001
 31
0.0
  0
LINE
  5
1C9
330
46D
100
AcDbEntity
  8
1
100
AcDbLine
 10
53.764298
 20
0.6201210000000001
 30
0.0
 11
53.78350199999999
 21
0.6114800000000001
 31
0.0
  0
LINE
  5
1CA
330
46D
100
AcDbEntity
  8
1
100
AcDbLine
 10
53.78350199999999
 20
0.6114800000000001
 30
0.0
 11
53.80157
 21
0.602594
 31
0.0
  0
LINE
  5
1CB
330
46D
100
AcDbEntity
  8
1
100
AcDbLine
 10
53.80157
 20
0.602594
 30
0.0
 11
53.81844499999999
 21
0.593483
 31
0.0
  0
LINE
  5
1CC
330
46D
100
AcDbEntity
  8
1
100
AcDbLine
 10
53.81844499999999
 20
0.593483
 30
0.0
 11
53.834181
 21
0.584116
 31
0.0
  0
LINE
  5
1CD
330
46D
100
AcDbEntity
  8
1
100
AcDbLine
 10
53.834181
 20
0.584116
 30
0.0
 11
53.848892
 21
0.574565
 31
0.0
  0
LINE
  5
1CE
330
46D
100
AcDbEntity
  8
1
100
AcDbLine
 10
53.848892
 20
0.574565
 30
0.0
 11
53.862572
 21
0.5648380000000001
 31
0.0
  0
LINE
  5
1CF
330
46D
100
AcDbEntity
  8
1
100
AcDbLine
 10
53.862572
 20
0.5648380000000001
 30
0.0
 11
53.875225
 21
0.554918
 31
0.0
  0
LINE
  5
1D0
330
46D
100
AcDbEntity
  8
1
100
AcDbLine
 10
53.875225
 20
0.554918
 30
0.0
 11
53.88697099999999
 21
0.544848
 31
0.0
  0
LINE
  5
1D1
330
46D
100
AcDbEntity
  8
1
100
AcDbLine
 10
53.88697099999999
 20
0.544848
 30
0.0
 11
53.897799
 21
0.5346600000000001
 31
0.0
  0
LINE
  5
1D2
330
46D
100
AcDbEntity
  8
1
100
AcDbLine
 10
53.897799
 20
0.5346600000000001
 30
0.0
 11
53.90772099999999
 21
0.524316
 31
0.0
  0
LINE
  5
1D3
330
46D
100
AcDbEntity
  8
1
100
AcDbLine
 10
53.90772099999999
 20
0.524316
 30
0.0
 11
53.916892
 21
0.5137460000000001
 31
0.0
  0
LINE
  5
1D4
330
46D
100
AcDbEntity
  8
1
100
AcDbLine
 10
53.916892
 20
0.5137460000000001
 30
0.0
 11
53.925345
 21
0.5029510000000001
 31
0.0
  0
LINE
  5
1D5
330
46D
100
AcDbEntity
  8
1
100
AcDbLine
 10
53.925345
 20
0.5029510000000001
 30
0.0
 11
53.93304699999999
 21
0.4919270000000001
 31
0.0
  0
LINE
  5
1D6
330
46D
100
AcDbEntity
  8
1
100
AcDbLine
 10
53.93304699999999
 20
0.4919270000000001
 30
0.0
 11
53.940056
 21
0.480591
 31
0.0
  0
LINE
  5
1D7
330
46D
100
AcDbEntity
  8
1
100
AcDbLine
 10
53.940056
 20
0.480591
 30
0.0
 11
53.946403
 21
0.468905
 31
0.0
  0
LINE
  5
1D8
330
46D
100
AcDbEntity
  8
1
100
AcDbLine
 10
53.946403
 20
0.468905
 30
0.0
 11
53.952056
 21
0.4569060000000001
 31
0.0
  0
LINE
  5
1D9
330
46D
100
AcDbEntity
  8
1
100
AcDbLine
 10
53.952056
 20
0.4569060000000001
 30
0.0
 11
53.956972
 21
0.444621
 31
0.0
  0
LINE
  5
1DA
330
46D
100
AcDbEntity
  8
1
100
AcDbLine
 10
53.956972
 20
0.444621
 30
0.0
 11
53.961146
 21
0.432046
 31
0.0
  0
LINE
  5
1DB
330
46D
100
AcDbEntity
  8
1
100
AcDbLine
 10
53.961146
 20
0.432046
 30
0.0
 11
53.96458199999999
 21
0.419186
 31
0.0
  0
LINE
  5
1DC
330
46D
100
AcDbEntity
  8
1
100
AcDbLine
 10
53.96458199999999
 20
0.419186
 30
0.0
 11
53.967256
 21
0.406086
 31
0.0
  0
LINE
  5
1DD
330
46D
100
AcDbEntity
  8
1
100
AcDbLine
 10
53.967256
 20
0.406086
 30
0.0
 11
53.96916899999999
 21
0.392802
 31
0.0
  0
LINE
  5
1DE
330
46D
100
AcDbEntity
  8
1
100
AcDbLine
 10
53.96916899999999
 20
0.392802
 30
0.0
 11
53.970318
 21
0.379279
 31
0.0
  0
LINE
  5
1DF
330
46D
100
AcDbEntity
  8
1
100
AcDbLine
 10
53.970318
 20
0.379279
 30
0.0
 11
53.97067299999999
 21
0.365393
 31
0.0
  0
LINE
  5
1E0
330
46D
100
AcDbEntity
  8
1
100
AcDbLine
 10
53.97067299999999
 20
0.365393
 30
0.0
 11
53.97026
 21
0.351136
 31
0.0
  0
LINE
  5
1E1
330
46D
100
AcDbEntity
  8
1
100
AcDbLine
 10
53.97026
 20
0.351136
 30
0.0
 11
53.969052
 21
0.336519
 31
0.0
  0
LINE
  5
1E2
330
46D
100
AcDbEntity
  8
1
100
AcDbLine
 10
53.969052
 20
0.336519
 30
0.0
 11
53.966938
 21
0.321447
 31
0.0
  0
LINE
  5
1E3
330
46D
100
AcDbEntity
  8
1
100
AcDbLine
 10
53.966938
 20
0.321447
 30
0.0
 11
53.96388
 21
0.30589
 31
0.0
  0
LINE
  5
1E4
330
46D
100
AcDbEntity
  8
1
100
AcDbLine
 10
53.96388
 20
0.30589
 30
0.0
 11
53.959916
 21
0.289883
 31
0.0
  0
LINE
  5
1E5
330
46D
100
AcDbEntity
  8
1
100
AcDbLine
 10
53.959916
 20
0.289883
 30
0.0
 11
53.955049
 21
0.273431
 31
0.0
  0
LINE
  5
1E6
330
46D
100
AcDbEntity
  8
1
100
AcDbLine
 10
55.09836700000001
 20
0.053984
 30
0.0
 11
54.954798
 21
0.021354
 31
0.0
  0
LINE
  5
1E7
330
46D
100
AcDbEntity
  8
1
100
AcDbLine
 10
54.954798
 20
0.021354
 30
0.0
 11
54.808057
 21
-0.007411
 31
0.0
  0
LINE
  5
1E8
330
46D
100
AcDbEntity
  8
1
100
AcDbLine
 10
54.808057
 20
-0.007411
 30
0.0
 11
54.658145
 21
-0.032312
 31
0.0
  0
LINE
  5
1E9
330
46D
100
AcDbEntity
  8
1
100
AcDbLine
 10
54.658145
 20
-0.032312
 30
0.0
 11
54.504926
 21
-0.053421
 31
0.0
  0
LINE
  5
1EA
330
46D
100
AcDbEntity
  8
1
100
AcDbLine
 10
54.504926
 20
-0.053421
 30
0.0
 11
54.34853399999999
 21
-0.070665
 31
0.0
  0
LINE
  5
1EB
330
46D
100
AcDbEntity
  8
1
100
AcDbLine
 10
54.34853399999999
 20
-0.070665
 30
0.0
 11
54.18938
 21
-0.083823
 31
0.0
  0
LINE
  5
1EC
330
46D
100
AcDbEntity
  8
1
100
AcDbLine
 10
54.18938
 20
-0.083823
 30
0.0
 11
54.027409
 21
-0.092832
 31
0.0
  0
LINE
  5
1ED
330
46D
100
AcDbEntity
  8
1
100
AcDbLine
 10
54.027409
 20
-0.092832
 30
0.0
 11
53.862676
 21
-0.097757
 31
0.0
  0
LINE
  5
1EE
330
46D
100
AcDbEntity
  8
1
100
AcDbLine
 10
53.862676
 20
-0.097757
 30
0.0
 11
53.695751
 21
-0.098566
 31
0.0
  0
LINE
  5
1EF
330
46D
100
AcDbEntity
  8
1
100
AcDbLine
 10
53.695751
 20
-0.098566
 30
0.0
 11
53.526817
 21
-0.095222
 31
0.0
  0
LINE
  5
1F0
330
46D
100
AcDbEntity
  8
1
100
AcDbLine
 10
53.526817
 20
-0.095222
 30
0.0
 11
53.35569200000001
 21
-0.087762
 31
0.0
  0
LINE
  5
1F1
330
46D
100
AcDbEntity
  8
1
100
AcDbLine
 10
53.35569200000001
 20
-0.087762
 30
0.0
 11
53.18239699999999
 21
-0.076274
 31
0.0
  0
LINE
  5
1F2
330
46D
100
AcDbEntity
  8
1
100
AcDbLine
 10
53.18239699999999
 20
-0.076274
 30
0.0
 11
53.00689699999999
 21
-0.060737
 31
0.0
  0
LINE
  5
1F3
330
46D
100
AcDbEntity
  8
1
100
AcDbLine
 10
53.00689699999999
 20
-0.060737
 30
0.0
 11
52.829227
 21
-0.04117
 31
0.0
  0
LINE
  5
1F4
330
46D
100
AcDbEntity
  8
1
100
AcDbLine
 10
52.829227
 20
-0.04117
 30
0.0
 11
52.64951800000001
 21
-0.017711
 31
0.0
  0
LINE
  5
1F5
330
46D
100
AcDbEntity
  8
1
100
AcDbLine
 10
52.64951800000001
 20
-0.017711
 30
0.0
 11
52.467716
 21
0.00967
 31
0.0
  0
LINE
  5
1F6
330
46D
100
AcDbEntity
  8
1
100
AcDbLine
 10
52.467716
 20
0.00967
 30
0.0
 11
52.283875
 21
0.04094
 31
0.0
  0
LINE
  5
1F7
330
46D
100
AcDbEntity
  8
1
100
AcDbLine
 10
52.283875
 20
0.04094
 30
0.0
 11
52.098281
 21
0.075865
 31
0.0
  0
LINE
  5
1F8
330
46D
100
AcDbEntity
  8
1
100
AcDbLine
 10
52.098281
 20
0.075865
 30
0.0
 11
51.911032
 21
0.114365
 31
0.0
  0
LINE
  5
1F9
330
46D
100
AcDbEntity
  8
1
100
AcDbLine
 10
51.911032
 20
0.114365
 30
0.0
 11
51.72202999999999
 21
0.156515
 31
0.0
  0
LINE
  5
1FA
330
46D
100
AcDbEntity
  8
1
100
AcDbLine
 10
51.72202999999999
 20
0.156515
 30
0.0
 11
51.531277
 21
0.202311
 31
0.0
  0
LINE
  5
1FB
330
46D
100
AcDbEntity
  8
1
100
AcDbLine
 10
52.587375
 20
0.116845
 30
0.0
 11
52.581889
 21
0.130757
 31
0.0
  0
LINE
  5
1FC
330
46D
100
AcDbEntity
  8
1
100
AcDbLine
 10
52.581889
 20
0.130757
 30
0.0
 11
52.57697199999999
 21
0.145051
 31
0.0
  0
LINE
  5
1FD
330
46D
100
AcDbEntity
  8
1
100
AcDbLine
 10
52.57697199999999
 20
0.145051
 30
0.0
 11
52.572623
 21
0.159727
 31
0.0
  0
LINE
  5
1FE
330
46D
100
AcDbEntity
  8
1
100
AcDbLine
 10
52.572623
 20
0.159727
 30
0.0
 11
52.56879
 21
0.174836
 31
0.0
  0
LINE
  5
1FF
330
46D
100
AcDbEntity
  8
1
100
AcDbLine
 10
52.56879
 20
0.174836
 30
0.0
 11
52.565525
 21
0.190326
 31
0.0
  0
LINE
  5
200
330
46D
100
AcDbEntity
  8
1
100
AcDbLine
 10
52.565525
 20
0.190326
 30
0.0
 11
52.56298799999999
 21
0.206049
 31
0.0
  0
LINE
  5
201
330
46D
100
AcDbEntity
  8
1
100
AcDbLine
 10
52.56298799999999
 20
0.206049
 30
0.0
 11
52.561197
 21
0.222015
 31
0.0
  0
LINE
  5
202
330
46D
100
AcDbEntity
  8
1
100
AcDbLine
 10
52.561197
 20
0.222015
 30
0.0
 11
52.56013499999999
 21
0.238215
 31
0.0
  0
LINE
  5
203
330
46D
100
AcDbEntity
  8
1
100
AcDbLine
 10
52.56013499999999
 20
0.238215
 30
0.0
 11
52.559904
 21
0.254461
 31
0.0
  0
LINE
  5
204
330
46D
100
AcDbEntity
  8
1
100
AcDbLine
 10
52.559904
 20
0.254461
 30
0.0
 11
52.560517
 21
0.270721
 31
0.0
  0
LINE
  5
205
330
46D
100
AcDbEntity
  8
1
100
AcDbLine
 10
52.560517
 20
0.270721
 30
0.0
 11
52.561964
 21
0.287033
 31
0.0
  0
LINE
  5
206
330
46D
100
AcDbEntity
  8
1
100
AcDbLine
 10
52.561964
 20
0.287033
 30
0.0
 11
52.56430600000001
 21
0.303318
 31
0.0
  0
LINE
  5
207
330
46D
100
AcDbEntity
  8
1
100
AcDbLine
 10
52.56430600000001
 20
0.303318
 30
0.0
 11
52.56754499999999
 21
0.319572
 31
0.0
  0
LINE
  5
208
330
46D
100
AcDbEntity
  8
1
100
AcDbLine
 10
52.56754499999999
 20
0.319572
 30
0.0
 11
52.571684
 21
0.335808
 31
0.0
  0
LINE
  5
209
330
46D
100
AcDbEntity
  8
1
100
AcDbLine
 10
52.571684
 20
0.335808
 30
0.0
 11
52.57679
 21
0.351966
 31
0.0
  0
LINE
  5
20A
330
46D
100
AcDbEntity
  8
1
100
AcDbLine
 10
52.57679
 20
0.351966
 30
0.0
 11
52.58288100000001
 21
0.368078
 31
0.0
  0
LINE
  5
20B
330
46D
100
AcDbEntity
  8
1
100
AcDbLine
 10
52.58288100000001
 20
0.368078
 30
0.0
 11
52.58994699999999
 21
0.384125
 31
0.0
  0
LINE
  5
20C
330
46D
100
AcDbEntity
  8
1
100
AcDbLine
 10
52.58994699999999
 20
0.384125
 30
0.0
 11
52.598011
 21
0.399978
 31
0.0
  0
LINE
  5
20D
330
46D
100
AcDbEntity
  8
1
100
AcDbLine
 10
52.598011
 20
0.399978
 30
0.0
 11
52.607103
 21
0.4156470000000001
 31
0.0
  0
LINE
  5
20E
330
46D
100
AcDbEntity
  8
1
100
AcDbLine
 10
52.607103
 20
0.4156470000000001
 30
0.0
 11
52.617202
 21
0.4311340000000001
 31
0.0
  0
LINE
  5
20F
330
46D
100
AcDbEntity
  8
1
100
AcDbLine
 10
52.617202
 20
0.4311340000000001
 30
0.0
 11
52.628265
 21
0.446293
 31
0.0
  0
LINE
  5
210
330
46D
100
AcDbEntity
  8
1
100
AcDbLine
 10
52.628265
 20
0.446293
 30
0.0
 11
52.640281
 21
0.461083
 31
0.0
  0
LINE
  5
211
330
46D
100
AcDbEntity
  8
1
100
AcDbLine
 10
52.640281
 20
0.461083
 30
0.0
 11
52.65326899999999
 21
0.475559
 31
0.0
  0
LINE
  5
212
330
46D
100
AcDbEntity
  8
1
100
AcDbLine
 10
52.65326899999999
 20
0.475559
 30
0.0
 11
52.667234
 21
0.4897260000000001
 31
0.0
  0
LINE
  5
213
330
46D
100
AcDbEntity
  8
1
100
AcDbLine
 10
52.667234
 20
0.4897260000000001
 30
0.0
 11
52.682976
 21
0.504528
 31
0.0
  0
LINE
  5
214
330
46D
100
AcDbEntity
  8
1
100
AcDbLine
 10
52.682976
 20
0.504528
 30
0.0
 11
52.700629
 21
0.519227
 31
0.0
  0
LINE
  5
215
330
46D
100
AcDbEntity
  8
1
100
AcDbLine
 10
52.700629
 20
0.519227
 30
0.0
 11
52.720205
 21
0.533841
 31
0.0
  0
LINE
  5
216
330
46D
100
AcDbEntity
  8
1
100
AcDbLine
 10
52.720205
 20
0.533841
 30
0.0
 11
52.734342
 21
0.543619
 31
0.0
  0
LINE
  5
217
330
46D
100
AcDbEntity
  8
1
100
AcDbLine
 10
52.587375
 20
0.116845
 30
0.0
 11
52.46088199999999
 21
0.115861
 31
0.0
  0
LINE
  5
218
330
46D
100
AcDbEntity
  8
1
100
AcDbLine
 10
52.46088199999999
 20
0.115861
 30
0.0
 11
52.33642299999999
 21
0.117509
 31
0.0
  0
LINE
  5
219
330
46D
100
AcDbEntity
  8
1
100
AcDbLine
 10
52.33642299999999
 20
0.117509
 30
0.0
 11
52.21410800000001
 21
0.121787
 31
0.0
  0
LINE
  5
21A
330
46D
100
AcDbEntity
  8
1
100
AcDbLine
 10
52.21410800000001
 20
0.121787
 30
0.0
 11
52.094049
 21
0.128692
 31
0.0
  0
LINE
  5
21B
330
46D
100
AcDbEntity
  8
1
100
AcDbLine
 10
52.094049
 20
0.128692
 30
0.0
 11
51.976352
 21
0.138217
 31
0.0
  0
LINE
  5
21C
330
46D
100
AcDbEntity
  8
1
100
AcDbLine
 10
51.976352
 20
0.138217
 30
0.0
 11
51.86112399999999
 21
0.150353
 31
0.0
  0
LINE
  5
21D
330
46D
100
AcDbEntity
  8
1
100
AcDbLine
 10
51.86112399999999
 20
0.150353
 30
0.0
 11
51.748468
 21
0.16509
 31
0.0
  0
LINE
  5
21E
330
46D
100
AcDbEntity
  8
1
100
AcDbLine
 10
51.748468
 20
0.16509
 30
0.0
 11
51.638486
 21
0.182415
 31
0.0
  0
LINE
  5
21F
330
46D
100
AcDbEntity
  8
1
100
AcDbLine
 10
51.638486
 20
0.182415
 30
0.0
 11
51.531277
 21
0.202311
 31
0.0
  0
LINE
  5
220
330
46D
100
AcDbEntity
  8
1
100
AcDbLine
 10
55.649891
 20
-3.140383
 30
0.0
 11
55.649891
 21
-3.451337999999999
 31
0.0
  0
LINE
  5
221
330
46D
100
AcDbEntity
  8
1
100
AcDbLine
 10
54.43758
 20
-1.934916999999999
 30
0.0
 11
54.44812399999999
 21
-1.988316
 31
0.0
  0
LINE
  5
222
330
46D
100
AcDbEntity
  8
1
100
AcDbLine
 10
54.44812399999999
 20
-1.988316
 30
0.0
 11
54.461831
 21
-2.041913
 31
0.0
  0
LINE
  5
223
330
46D
100
AcDbEntity
  8
1
100
AcDbLine
 10
54.461831
 20
-2.041913
 30
0.0
 11
54.4787
 21
-2.095714
 31
0.0
  0
LINE
  5
224
330
46D
100
AcDbEntity
  8
1
100
AcDbLine
 10
54.4787
 20
-2.095714
 30
0.0
 11
54.498576
 21
-2.149795
 31
0.0
  0
LINE
  5
225
330
46D
100
AcDbEntity
  8
1
100
AcDbLine
 10
54.498576
 20
-2.149795
 30
0.0
 11
54.521615
 21
-2.204099
 31
0.0
  0
LINE
  5
226
330
46D
100
AcDbEntity
  8
1
100
AcDbLine
 10
54.521615
 20
-2.204099
 30
0.0
 11
54.548287
 21
-2.258447
 31
0.0
  0
LINE
  5
227
330
46D
100
AcDbEntity
  8
1
100
AcDbLine
 10
54.548287
 20
-2.258447
 30
0.0
 11
54.578743
 21
-2.313002
 31
0.0
  0
LINE
  5
228
330
46D
100
AcDbEntity
  8
1
100
AcDbLine
 10
54.578743
 20
-2.313002
 30
0.0
 11
54.612832
 21
-2.367626
 31
0.0
  0
LINE
  5
229
330
46D
100
AcDbEntity
  8
1
100
AcDbLine
 10
54.612832
 20
-2.367626
 30
0.0
 11
54.650575
 21
-2.421686999999999
 31
0.0
  0
LINE
  5
22A
330
46D
100
AcDbEntity
  8
1
100
AcDbLine
 10
54.650575
 20
-2.421686999999999
 30
0.0
 11
54.692025
 21
-2.475112999999999
 31
0.0
  0
LINE
  5
22B
330
46D
100
AcDbEntity
  8
1
100
AcDbLine
 10
54.692025
 20
-2.475112999999999
 30
0.0
 11
54.737129
 21
-2.528011
 31
0.0
  0
LINE
  5
22C
330
46D
100
AcDbEntity
  8
1
100
AcDbLine
 10
54.737129
 20
-2.528011
 30
0.0
 11
54.78574
 21
-2.580033999999999
 31
0.0
  0
LINE
  5
22D
330
46D
100
AcDbEntity
  8
1
100
AcDbLine
 10
54.78574
 20
-2.580033999999999
 30
0.0
 11
54.837786
 21
-2.631078
 31
0.0
  0
LINE
  5
22E
330
46D
100
AcDbEntity
  8
1
100
AcDbLine
 10
54.837786
 20
-2.631078
 30
0.0
 11
54.893339
 21
-2.681281999999999
 31
0.0
  0
LINE
  5
22F
330
46D
100
AcDbEntity
  8
1
100
AcDbLine
 10
54.893339
 20
-2.681281999999999
 30
0.0
 11
54.952475
 21
-2.730661999999999
 31
0.0
  0
LINE
  5
230
330
46D
100
AcDbEntity
  8
1
100
AcDbLine
 10
54.952475
 20
-2.730661999999999
 30
0.0
 11
55.01515699999999
 21
-2.779225999999999
 31
0.0
  0
LINE
  5
231
330
46D
100
AcDbEntity
  8
1
100
AcDbLine
 10
55.01515699999999
 20
-2.779225999999999
 30
0.0
 11
55.08142199999999
 21
-2.826998
 31
0.0
  0
LINE
  5
232
330
46D
100
AcDbEntity
  8
1
100
AcDbLine
 10
55.08142199999999
 20
-2.826998
 30
0.0
 11
55.15144599999999
 21
-2.874033999999999
 31
0.0
  0
LINE
  5
233
330
46D
100
AcDbEntity
  8
1
100
AcDbLine
 10
55.15144599999999
 20
-2.874033999999999
 30
0.0
 11
55.225329
 21
-2.920405
 31
0.0
  0
LINE
  5
234
330
46D
100
AcDbEntity
  8
1
100
AcDbLine
 10
55.225329
 20
-2.920405
 30
0.0
 11
55.30297199999999
 21
-2.966069
 31
0.0
  0
LINE
  5
235
330
46D
100
AcDbEntity
  8
1
100
AcDbLine
 10
55.30297199999999
 20
-2.966069
 30
0.0
 11
55.38426099999999
 21
-3.010899
 31
0.0
  0
LINE
  5
236
330
46D
100
AcDbEntity
  8
1
100
AcDbLine
 10
55.38426099999999
 20
-3.010899
 30
0.0
 11
55.46915799999999
 21
-3.054863999999999
 31
0.0
  0
LINE
  5
237
330
46D
100
AcDbEntity
  8
1
100
AcDbLine
 10
55.46915799999999
 20
-3.054863999999999
 30
0.0
 11
55.557702
 21
-3.098020999999999
 31
0.0
  0
LINE
  5
238
330
46D
100
AcDbEntity
  8
1
100
AcDbLine
 10
55.557702
 20
-3.098020999999999
 30
0.0
 11
55.649891
 21
-3.140383
 31
0.0
  0
LINE
  5
239
330
46D
100
AcDbEntity
  8
1
100
AcDbLine
 10
54.293661
 20
-1.968384
 30
0.0
 11
54.293661
 21
-1.936813
 31
0.0
  0
LINE
  5
23A
330
46D
100
AcDbEntity
  8
1
100
AcDbLine
 10
54.849891
 20
-3.602951999999999
 30
0.0
 11
54.78735
 21
-3.431605999999999
 31
0.0
  0
LINE
  5
23B
330
46D
100
AcDbEntity
  8
1
100
AcDbLine
 10
54.78735
 20
-3.431605999999999
 30
0.0
 11
54.72493599999999
 21
-3.257522
 31
0.0
  0
LINE
  5
23C
330
46D
100
AcDbEntity
  8
1
100
AcDbLine
 10
54.72493599999999
 20
-3.257522
 30
0.0
 11
54.66264999999999
 21
-3.080702
 31
0.0
  0
LINE
  5
23D
330
46D
100
AcDbEntity
  8
1
100
AcDbLine
 10
54.66264999999999
 20
-3.080702
 30
0.0
 11
54.600415
 21
-2.900920999999999
 31
0.0
  0
LINE
  5
23E
330
46D
100
AcDbEntity
  8
1
100
AcDbLine
 10
54.600415
 20
-2.900920999999999
 30
0.0
 11
54.53830799999999
 21
-2.718402
 31
0.0
  0
LINE
  5
23F
330
46D
100
AcDbEntity
  8
1
100
AcDbLine
 10
54.53830799999999
 20
-2.718402
 30
0.0
 11
54.476556
 21
-2.533822
 31
0.0
  0
LINE
  5
240
330
46D
100
AcDbEntity
  8
1
100
AcDbLine
 10
54.476556
 20
-2.533822
 30
0.0
 11
54.415236
 21
-2.347404999999999
 31
0.0
  0
LINE
  5
241
330
46D
100
AcDbEntity
  8
1
100
AcDbLine
 10
54.415236
 20
-2.347404999999999
 30
0.0
 11
54.354271
 21
-2.158924999999999
 31
0.0
  0
LINE
  5
242
330
46D
100
AcDbEntity
  8
1
100
AcDbLine
 10
54.354271
 20
-2.158924999999999
 30
0.0
 11
54.293661
 21
-1.968384
 31
0.0
  0
LINE
  5
243
330
46D
100
AcDbEntity
  8
1
100
AcDbLine
 10
54.073349
 20
0.222363
 30
0.0
 11
54.07172199999999
 21
0.218731
 31
0.0
  0
LINE
  5
244
330
46D
100
AcDbEntity
  8
1
100
AcDbLine
 10
54.07172199999999
 20
0.218731
 30
0.0
 11
54.069203
 21
0.214883
 31
0.0
  0
LINE
  5
245
330
46D
100
AcDbEntity
  8
1
100
AcDbLine
 10
54.069203
 20
0.214883
 30
0.0
 11
54.065776
 21
0.21084
 31
0.0
  0
LINE
  5
246
330
46D
100
AcDbEntity
  8
1
100
AcDbLine
 10
54.065776
 20
0.21084
 30
0.0
 11
54.061442
 21
0.206636
 31
0.0
  0
LINE
  5
247
330
46D
100
AcDbEntity
  8
1
100
AcDbLine
 10
54.061442
 20
0.206636
 30
0.0
 11
54.05616999999999
 21
0.202289
 31
0.0
  0
LINE
  5
248
330
46D
100
AcDbEntity
  8
1
100
AcDbLine
 10
54.05616999999999
 20
0.202289
 30
0.0
 11
54.04989399999999
 21
0.19779
 31
0.0
  0
LINE
  5
249
330
46D
100
AcDbEntity
  8
1
100
AcDbLine
 10
53.955049
 20
0.273431
 30
0.0
 11
53.96822499999999
 21
0.271773
 31
0.0
  0
LINE
  5
24A
330
46D
100
AcDbEntity
  8
1
100
AcDbLine
 10
53.96822499999999
 20
0.271773
 30
0.0
 11
53.980534
 21
0.270042
 31
0.0
  0
LINE
  5
24B
330
46D
100
AcDbEntity
  8
1
100
AcDbLine
 10
53.980534
 20
0.270042
 30
0.0
 11
53.991983
 21
0.268231
 31
0.0
  0
LINE
  5
24C
330
46D
100
AcDbEntity
  8
1
100
AcDbLine
 10
53.991983
 20
0.268231
 30
0.0
 11
54.002561
 21
0.266325
 31
0.0
  0
LINE
  5
24D
330
46D
100
AcDbEntity
  8
1
100
AcDbLine
 10
54.002561
 20
0.266325
 30
0.0
 11
54.012289
 21
0.264329
 31
0.0
  0
LINE
  5
24E
330
46D
100
AcDbEntity
  8
1
100
AcDbLine
 10
54.012289
 20
0.264329
 30
0.0
 11
54.021218
 21
0.262269
 31
0.0
  0
LINE
  5
24F
330
46D
100
AcDbEntity
  8
1
100
AcDbLine
 10
54.021218
 20
0.262269
 30
0.0
 11
54.02934699999999
 21
0.260139
 31
0.0
  0
LINE
  5
250
330
46D
100
AcDbEntity
  8
1
100
AcDbLine
 10
54.02934699999999
 20
0.260139
 30
0.0
 11
54.036689
 21
0.257931
 31
0.0
  0
LINE
  5
251
330
46D
100
AcDbEntity
  8
1
100
AcDbLine
 10
54.036689
 20
0.257931
 30
0.0
 11
54.043323
 21
0.255664
 31
0.0
  0
LINE
  5
252
330
46D
100
AcDbEntity
  8
1
100
AcDbLine
 10
54.043323
 20
0.255664
 30
0.0
 11
54.04925
 21
0.253341
 31
0.0
  0
LINE
  5
253
330
46D
100
AcDbEntity
  8
1
100
AcDbLine
 10
54.04925
 20
0.253341
 30
0.0
 11
54.05448
 21
0.250947
 31
0.0
  0
LINE
  5
254
330
46D
100
AcDbEntity
  8
1
100
AcDbLine
 10
54.05448
 20
0.250947
 30
0.0
 11
54.05909300000001
 21
0.248469
 31
0.0
  0
LINE
  5
255
330
46D
100
AcDbEntity
  8
1
100
AcDbLine
 10
54.05909300000001
 20
0.248469
 30
0.0
 11
54.06311099999999
 21
0.245913
 31
0.0
  0
LINE
  5
256
330
46D
100
AcDbEntity
  8
1
100
AcDbLine
 10
54.06311099999999
 20
0.245913
 30
0.0
 11
54.066513
 21
0.243273
 31
0.0
  0
LINE
  5
257
330
46D
100
AcDbEntity
  8
1
100
AcDbLine
 10
54.066513
 20
0.243273
 30
0.0
 11
54.069313
 21
0.240544
 31
0.0
  0
LINE
  5
258
330
46D
100
AcDbEntity
  8
1
100
AcDbLine
 10
54.069313
 20
0.240544
 30
0.0
 11
54.071514
 21
0.237729
 31
0.0
  0
LINE
  5
259
330
46D
100
AcDbEntity
  8
1
100
AcDbLine
 10
54.071514
 20
0.237729
 30
0.0
 11
54.07310899999999
 21
0.234828
 31
0.0
  0
LINE
  5
25A
330
46D
100
AcDbEntity
  8
1
100
AcDbLine
 10
54.07310899999999
 20
0.234828
 30
0.0
 11
54.07409300000001
 21
0.231838
 31
0.0
  0
LINE
  5
25B
330
46D
100
AcDbEntity
  8
1
100
AcDbLine
 10
54.07409300000001
 20
0.231838
 30
0.0
 11
54.074461
 21
0.22876
 31
0.0
  0
LINE
  5
25C
330
46D
100
AcDbEntity
  8
1
100
AcDbLine
 10
54.074461
 20
0.22876
 30
0.0
 11
54.074214
 21
0.225601
 31
0.0
  0
LINE
  5
25D
330
46D
100
AcDbEntity
  8
1
100
AcDbLine
 10
54.074214
 20
0.225601
 30
0.0
 11
54.073349
 21
0.222363
 31
0.0
  0
LINE
  5
25E
330
46D
100
AcDbEntity
  8
1
100
AcDbLine
 10
54.293661
 20
-1.968384
 30
0.0
 11
54.43758
 21
-1.934916999999999
 31
0.0
  0
LINE
  5
25F
330
46D
100
AcDbEntity
  8
1
100
AcDbLine
 10
56.120302
 20
0.302248
 30
0.0
 11
55.44131
 21
0.13697
 31
0.0
  0
LINE
  5
260
330
46D
100
AcDbEntity
  8
1
100
AcDbLine
 10
55.44131
 20
0.13697
 30
0.0
 11
55.09836700000001
 21
0.053984
 31
0.0
  0
LINE
  5
261
330
46D
100
AcDbEntity
  8
1
100
AcDbLine
 10
56.790262
 20
0.466641
 30
0.0
 11
56.120302
 21
0.302248
 31
0.0
  0
LINE
  5
262
330
46D
100
AcDbEntity
  8
1
100
AcDbLine
 10
57.45024
 20
0.629889
 30
0.0
 11
56.790262
 21
0.466641
 31
0.0
  0
LINE
  5
263
330
46D
100
AcDbEntity
  8
1
100
AcDbLine
 10
54.720712
 20
0.462064
 30
0.0
 11
54.59255899999999
 21
0.425796
 31
0.0
  0
LINE
  5
264
330
46D
100
AcDbEntity
  8
1
100
AcDbLine
 10
54.59255899999999
 20
0.425796
 30
0.0
 11
54.464499
 21
0.391427
 31
0.0
  0
LINE
  5
265
330
46D
100
AcDbEntity
  8
1
100
AcDbLine
 10
54.464499
 20
0.391427
 30
0.0
 11
54.336625
 21
0.358984
 31
0.0
  0
LINE
  5
266
330
46D
100
AcDbEntity
  8
1
100
AcDbLine
 10
54.336625
 20
0.358984
 30
0.0
 11
54.209031
 21
0.328488
 31
0.0
  0
LINE
  5
267
330
46D
100
AcDbEntity
  8
1
100
AcDbLine
 10
54.209031
 20
0.328488
 30
0.0
 11
54.081808
 21
0.299964
 31
0.0
  0
LINE
  5
268
330
46D
100
AcDbEntity
  8
1
100
AcDbLine
 10
54.081808
 20
0.299964
 30
0.0
 11
53.955049
 21
0.273431
 31
0.0
  0
LINE
  5
269
330
46D
100
AcDbEntity
  8
1
100
AcDbLine
 10
54.849891
 20
-3.602951999999999
 30
0.0
 11
55.244613
 21
-3.528893
 31
0.0
  0
LINE
  5
26A
330
46D
100
AcDbEntity
  8
1
100
AcDbLine
 10
55.244613
 20
-3.528893
 30
0.0
 11
55.649891
 21
-3.451337999999999
 31
0.0
  0
LINE
  5
26B
330
46D
100
AcDbEntity
  8
1
100
AcDbLine
 10
55.08645699999999
 20
-3.558734999999999
 30
0.0
 11
54.720712
 21
-3.664919999999999
 31
0.0
  0
LINE
  5
26C
330
46D
100
AcDbEntity
  8
1
100
AcDbLine
 10
60.0
 20
-5.532607999999999
 30
0.0
 11
60.0
 21
-2.962813999999999
 31
0.0
  0
LINE
  5
26D
330
46D
100
AcDbEntity
  8
1
100
AcDbLine
 10
59.5
 20
-4.432501999999999
 30
0.0
 11
59.5
 21
-2.019649999999999
 31
0.0
  0
LINE
  5
26E
330
46D
100
AcDbEntity
  8
1
100
AcDbLine
 10
58.1
 20
-4.921095999999999
 30
0.0
 11
58.1
 21
-5.646192
 31
0.0
  0
LINE
  5
26F
330
46D
100
AcDbEntity
  8
1
100
AcDbLine
 10
59.5
 20
-4.432501999999999
 30
0.0
 11
59.368067
 21
-4.556402999999999
 31
0.0
  0
LINE
  5
270
330
46D
100
AcDbEntity
  8
1
100
AcDbLine
 10
59.368067
 20
-4.556402999999999
 30
0.0
 11
59.230274
 21
-4.683063999999999
 31
0.0
  0
LINE
  5
271
330
46D
100
AcDbEntity
  8
1
100
AcDbLine
 10
59.230274
 20
-4.683063999999999
 30
0.0
 11
59.08662299999999
 21
-4.812488
 31
0.0
  0
LINE
  5
272
330
46D
100
AcDbEntity
  8
1
100
AcDbLine
 10
59.08662299999999
 20
-4.812488
 30
0.0
 11
58.93717500000001
 21
-4.944704999999999
 31
0.0
  0
LINE
  5
273
330
46D
100
AcDbEntity
  8
1
100
AcDbLine
 10
58.93717500000001
 20
-4.944704999999999
 30
0.0
 11
58.781868
 21
-5.079682
 31
0.0
  0
LINE
  5
274
330
46D
100
AcDbEntity
  8
1
100
AcDbLine
 10
58.781868
 20
-5.079682
 30
0.0
 11
58.620515
 21
-5.217329
 31
0.0
  0
LINE
  5
275
330
46D
100
AcDbEntity
  8
1
100
AcDbLine
 10
58.620515
 20
-5.217329
 30
0.0
 11
58.45305500000001
 21
-5.357612999999999
 31
0.0
  0
LINE
  5
276
330
46D
100
AcDbEntity
  8
1
100
AcDbLine
 10
58.45305500000001
 20
-5.357612999999999
 30
0.0
 11
58.27955
 21
-5.500568
 31
0.0
  0
LINE
  5
277
330
46D
100
AcDbEntity
  8
1
100
AcDbLine
 10
58.27955
 20
-5.500568
 30
0.0
 11
58.1
 21
-5.646192
 31
0.0
  0
LINE
  5
278
330
46D
100
AcDbEntity
  8
1
100
AcDbLine
 10
60.0
 20
-5.532607999999999
 30
0.0
 11
58.55050799999999
 21
-6.5
 31
0.0
  0
LINE
  5
279
330
46D
100
AcDbEntity
  8
1
100
AcDbLine
 10
60.0
 20
-4.532488999999999
 30
0.0
 11
58.214614
 21
-5.724057
 31
0.0
  0
LINE
  5
27A
330
46D
100
AcDbEntity
  8
1
100
AcDbLine
 10
59.5
 20
-3.765555
 30
0.0
 11
59.364226
 21
-3.883555999999999
 31
0.0
  0
LINE
  5
27B
330
46D
100
AcDbEntity
  8
1
100
AcDbLine
 10
59.364226
 20
-3.883555999999999
 30
0.0
 11
59.223562
 21
-4.004137
 31
0.0
  0
LINE
  5
27C
330
46D
100
AcDbEntity
  8
1
100
AcDbLine
 10
59.223562
 20
-4.004137
 30
0.0
 11
59.078008
 21
-4.127298
 31
0.0
  0
LINE
  5
27D
330
46D
100
AcDbEntity
  8
1
100
AcDbLine
 10
59.078008
 20
-4.127298
 30
0.0
 11
58.92763699999999
 21
-4.253014
 31
0.0
  0
LINE
  5
27E
330
46D
100
AcDbEntity
  8
1
100
AcDbLine
 10
58.92763699999999
 20
-4.253014
 30
0.0
 11
58.772376
 21
-4.381307999999999
 31
0.0
  0
LINE
  5
27F
330
46D
100
AcDbEntity
  8
1
100
AcDbLine
 10
58.772376
 20
-4.381307999999999
 30
0.0
 11
58.61200400000001
 21
-4.512258
 31
0.0
  0
LINE
  5
280
330
46D
100
AcDbEntity
  8
1
100
AcDbLine
 10
58.61200400000001
 20
-4.512258
 30
0.0
 11
58.44644699999999
 21
-4.645883999999999
 31
0.0
  0
LINE
  5
281
330
46D
100
AcDbEntity
  8
1
100
AcDbLine
 10
58.44644699999999
 20
-4.645883999999999
 30
0.0
 11
58.27577900000001
 21
-4.782162999999999
 31
0.0
  0
LINE
  5
282
330
46D
100
AcDbEntity
  8
1
100
AcDbLine
 10
58.27577900000001
 20
-4.782162999999999
 30
0.0
 11
58.1
 21
-4.921095999999999
 31
0.0
  0
LINE
  5
283
330
46D
100
AcDbEntity
  8
1
100
AcDbLine
 10
59.5
 20
-4.126983999999999
 30
0.0
 11
60.0
 21
-4.126983999999999
 31
0.0
  0
LINE
  5
284
330
46D
100
AcDbEntity
  8
1
100
AcDbLine
 10
59.5
 20
-4.307592999999999
 30
0.0
 11
60.0
 21
-4.307592999999999
 31
0.0
  0
LINE
  5
285
330
46D
100
AcDbEntity
  8
1
100
AcDbLine
 10
60.0
 20
-1.707638999999999
 30
0.0
 11
60.0
 21
1.988049
 31
0.0
  0
LINE
  5
286
330
46D
100
AcDbEntity
  8
1
100
AcDbLine
 10
58.508762
 20
-2.269093
 30
0.0
 11
58.47089699999999
 21
-2.076506999999999
 31
0.0
  0
LINE
  5
287
330
46D
100
AcDbEntity
  8
1
100
AcDbLine
 10
58.47089699999999
 20
-2.076506999999999
 30
0.0
 11
58.43431999999999
 21
-1.886552999999999
 31
0.0
  0
LINE
  5
288
330
46D
100
AcDbEntity
  8
1
100
AcDbLine
 10
58.43431999999999
 20
-1.886552999999999
 30
0.0
 11
58.399032
 21
-1.699229
 31
0.0
  0
LINE
  5
289
330
46D
100
AcDbEntity
  8
1
100
AcDbLine
 10
58.399032
 20
-1.699229
 30
0.0
 11
58.36502199999999
 21
-1.514532999999999
 31
0.0
  0
LINE
  5
28A
330
46D
100
AcDbEntity
  8
1
100
AcDbLine
 10
58.36502199999999
 20
-1.514532999999999
 30
0.0
 11
58.3323
 21
-1.332467999999999
 31
0.0
  0
LINE
  5
28B
330
46D
100
AcDbEntity
  8
1
100
AcDbLine
 10
58.3323
 20
-1.332467999999999
 30
0.0
 11
58.30089499999999
 21
-1.153041999999999
 31
0.0
  0
LINE
  5
28C
330
46D
100
AcDbEntity
  8
1
100
AcDbLine
 10
58.30089499999999
 20
-1.153041999999999
 30
0.0
 11
58.27081800000001
 21
-0.9762559999999998
 31
0.0
  0
LINE
  5
28D
330
46D
100
AcDbEntity
  8
1
100
AcDbLine
 10
58.27081800000001
 20
-0.9762559999999998
 30
0.0
 11
58.242057
 21
-0.8021080000000001
 31
0.0
  0
LINE
  5
28E
330
46D
100
AcDbEntity
  8
1
100
AcDbLine
 10
58.242057
 20
-0.8021080000000001
 30
0.0
 11
58.214614
 21
-0.630598
 31
0.0
  0
LINE
  5
28F
330
46D
100
AcDbEntity
  8
1
100
AcDbLine
 10
58.1
 20
0.791928
 30
0.0
 11
58.1
 21
-0.62494
 31
0.0
  0
LINE
  5
290
330
46D
100
AcDbEntity
  8
1
100
AcDbLine
 10
58.512115
 20
-2.27309
 30
0.0
 11
58.52730699999999
 21
-2.32235
 31
0.0
  0
LINE
  5
291
330
46D
100
AcDbEntity
  8
1
100
AcDbLine
 10
58.52730699999999
 20
-2.32235
 30
0.0
 11
58.543418
 21
-2.371741
 31
0.0
  0
LINE
  5
292
330
46D
100
AcDbEntity
  8
1
100
AcDbLine
 10
58.543418
 20
-2.371741
 30
0.0
 11
58.560449
 21
-2.421263
 31
0.0
  0
LINE
  5
293
330
46D
100
AcDbEntity
  8
1
100
AcDbLine
 10
58.560449
 20
-2.421263
 30
0.0
 11
58.578399
 21
-2.470918
 31
0.0
  0
LINE
  5
294
330
46D
100
AcDbEntity
  8
1
100
AcDbLine
 10
58.578399
 20
-2.470918
 30
0.0
 11
58.597269
 21
-2.520704999999999
 31
0.0
  0
LINE
  5
295
330
46D
100
AcDbEntity
  8
1
100
AcDbLine
 10
58.597269
 20
-2.520704999999999
 30
0.0
 11
58.617059
 21
-2.570624
 31
0.0
  0
LINE
  5
296
330
46D
100
AcDbEntity
  8
1
100
AcDbLine
 10
58.508762
 20
-2.269093
 30
0.0
 11
58.512115
 21
-2.27309
 31
0.0
  0
LINE
  5
297
330
46D
100
AcDbEntity
  8
1
100
AcDbLine
 10
60.0
 20
-1.707638999999999
 30
0.0
 11
58.617059
 21
-2.570624
 31
0.0
  0
LINE
  5
298
330
46D
100
AcDbEntity
  8
1
100
AcDbLine
 10
58.512115
 20
-2.27309
 30
0.0
 11
60.0
 21
-1.344618
 31
0.0
  0
LINE
  5
299
330
46D
100
AcDbEntity
  8
1
100
AcDbLine
 10
60.0
 20
0.483522
 30
0.0
 11
58.214614
 21
-0.630598
 31
0.0
  0
LINE
  5
29A
330
46D
100
AcDbEntity
  8
1
100
AcDbLine
 10
59.5
 20
0.388354
 30
0.0
 11
59.367935
 21
0.288004
 31
0.0
  0
LINE
  5
29B
330
46D
100
AcDbEntity
  8
1
100
AcDbLine
 10
59.367935
 20
0.288004
 30
0.0
 11
59.230029
 21
0.184585
 31
0.0
  0
LINE
  5
29C
330
46D
100
AcDbEntity
  8
1
100
AcDbLine
 10
59.230029
 20
0.184585
 30
0.0
 11
59.08628100000001
 21
0.078097
 31
0.0
  0
LINE
  5
29D
330
46D
100
AcDbEntity
  8
1
100
AcDbLine
 10
59.08628100000001
 20
0.078097
 30
0.0
 11
58.93673299999999
 21
-0.031468
 31
0.0
  0
LINE
  5
29E
330
46D
100
AcDbEntity
  8
1
100
AcDbLine
 10
58.93673299999999
 20
-0.031468
 30
0.0
 11
58.781342
 21
-0.144102
 31
0.0
  0
LINE
  5
29F
330
46D
100
AcDbEntity
  8
1
100
AcDbLine
 10
58.781342
 20
-0.144102
 30
0.0
 11
58.61998599999999
 21
-0.259769
 31
0.0
  0
LINE
  5
2A0
330
46D
100
AcDbEntity
  8
1
100
AcDbLine
 10
58.61998599999999
 20
-0.259769
 30
0.0
 11
58.45262299999999
 21
-0.378459
 31
0.0
  0
LINE
  5
2A1
330
46D
100
AcDbEntity
  8
1
100
AcDbLine
 10
58.45262299999999
 20
-0.378459
 30
0.0
 11
58.27929499999999
 21
-0.500183
 31
0.0
  0
LINE
  5
2A2
330
46D
100
AcDbEntity
  8
1
100
AcDbLine
 10
58.27929499999999
 20
-0.500183
 30
0.0
 11
58.1
 21
-0.62494
 31
0.0
  0
LINE
  5
2A3
330
46D
100
AcDbEntity
  8
1
100
AcDbLine
 10
59.5
 20
1.363065999999999
 30
0.0
 11
60.0
 21
1.222490999999999
 31
0.0
  0
LINE
  5
2A4
330
46D
100
AcDbEntity
  8
1
100
AcDbLine
 10
57.814415
 20
-0.776187
 30
0.0
 11
58.214614
 21
-0.630598
 31
0.0
  0
LINE
  5
2A5
330
46D
100
AcDbEntity
  8
1
100
AcDbLine
 10
59.5
 20
1.416421999999999
 30
0.0
 11
59.363542
 21
1.353820999999999
 31
0.0
  0
LINE
  5
2A6
330
46D
100
AcDbEntity
  8
1
100
AcDbLine
 10
59.363542
 20
1.353820999999999
 30
0.0
 11
59.22238499999999
 21
1.289549
 31
0.0
  0
LINE
  5
2A7
330
46D
100
AcDbEntity
  8
1
100
AcDbLine
 10
59.22238499999999
 20
1.289549
 30
0.0
 11
59.07653199999999
 21
1.223608999999999
 31
0.0
  0
LINE
  5
2A8
330
46D
100
AcDbEntity
  8
1
100
AcDbLine
 10
59.07653199999999
 20
1.223608999999999
 30
0.0
 11
58.926083
 21
1.156035
 31
0.0
  0
LINE
  5
2A9
330
46D
100
AcDbEntity
  8
1
100
AcDbLine
 10
58.926083
 20
1.156035
 30
0.0
 11
58.770936
 21
1.086793
 31
0.0
  0
LINE
  5
2AA
330
46D
100
AcDbEntity
  8
1
100
AcDbLine
 10
58.770936
 20
1.086793
 30
0.0
 11
58.610785
 21
1.015770999999999
 31
0.0
  0
LINE
  5
2AB
330
46D
100
AcDbEntity
  8
1
100
AcDbLine
 10
58.610785
 20
1.015770999999999
 30
0.0
 11
58.445527
 21
0.9429350000000001
 31
0.0
  0
LINE
  5
2AC
330
46D
100
AcDbEntity
  8
1
100
AcDbLine
 10
58.445527
 20
0.9429350000000001
 30
0.0
 11
58.275266
 21
0.8683209999999998
 31
0.0
  0
LINE
  5
2AD
330
46D
100
AcDbEntity
  8
1
100
AcDbLine
 10
58.275266
 20
0.8683209999999998
 30
0.0
 11
58.1
 21
0.791928
 31
0.0
  0
LINE
  5
2AE
330
46D
100
AcDbEntity
  8
1
100
AcDbLine
 10
59.5
 20
-2.813466999999999
 30
0.0
 11
60.0
 21
-2.962813999999999
 31
0.0
  0
LINE
  5
2AF
330
46D
100
AcDbEntity
  8
1
100
AcDbLine
 10
59.5
 20
0.4508090000000001
 30
0.0
 11
60.0
 21
0.59597
 31
0.0
  0
LINE
  5
2B0
330
46D
100
AcDbEntity
  8
1
100
AcDbLine
 10
59.5
 20
-2.277388
 30
0.0
 11
58.727634
 21
-2.501622999999999
 31
0.0
  0
LINE
  5
2B1
330
46D
100
AcDbEntity
  8
1
100
AcDbLine
 10
58.1
 20
5.713023999999999
 30
0.0
 11
57.776387
 21
5.681166
 31
0.0
  0
LINE
  5
2B2
330
46D
100
AcDbEntity
  8
1
100
AcDbLine
 10
57.776387
 20
5.681166
 30
0.0
 11
57.45024
 21
5.648239
 31
0.0
  0
LINE
  5
2B3
330
46D
100
AcDbEntity
  8
1
100
AcDbLine
 10
57.45024
 20
5.648239
 30
0.0
 11
57.12155799999999
 21
5.614241999999999
 31
0.0
  0
LINE
  5
2B4
330
46D
100
AcDbEntity
  8
1
100
AcDbLine
 10
57.12155799999999
 20
5.614241999999999
 30
0.0
 11
56.790262
 21
5.579174
 31
0.0
  0
LINE
  5
2B5
330
46D
100
AcDbEntity
  8
1
100
AcDbLine
 10
56.790262
 20
5.579174
 30
0.0
 11
56.456431
 21
5.543036999999999
 31
0.0
  0
LINE
  5
2B6
330
46D
100
AcDbEntity
  8
1
100
AcDbLine
 10
56.456431
 20
5.543036999999999
 30
0.0
 11
56.120302
 21
5.505838999999999
 31
0.0
  0
LINE
  5
2B7
330
46D
100
AcDbEntity
  8
1
100
AcDbLine
 10
56.120302
 20
5.505838999999999
 30
0.0
 11
55.781955
 21
5.467584999999999
 31
0.0
  0
LINE
  5
2B8
330
46D
100
AcDbEntity
  8
1
100
AcDbLine
 10
55.781955
 20
5.467584999999999
 30
0.0
 11
55.44131
 21
5.428271999999999
 31
0.0
  0
LINE
  5
2B9
330
46D
100
AcDbEntity
  8
1
100
AcDbLine
 10
55.44131
 20
5.428271999999999
 30
0.0
 11
55.09836700000001
 21
5.387896999999999
 31
0.0
  0
LINE
  5
2BA
330
46D
100
AcDbEntity
  8
1
100
AcDbLine
 10
54.43758
 20
4.204666999999999
 30
0.0
 11
54.876594
 21
4.315472999999999
 31
0.0
  0
LINE
  5
2BB
330
46D
100
AcDbEntity
  8
1
100
AcDbLine
 10
54.876594
 20
4.315472999999999
 30
0.0
 11
55.310788
 21
4.423255999999999
 31
0.0
  0
LINE
  5
2BC
330
46D
100
AcDbEntity
  8
1
100
AcDbLine
 10
55.310788
 20
4.423255999999999
 30
0.0
 11
55.740163
 21
4.528014999999999
 31
0.0
  0
LINE
  5
2BD
330
46D
100
AcDbEntity
  8
1
100
AcDbLine
 10
55.740163
 20
4.528014999999999
 30
0.0
 11
56.164738
 21
4.629738999999999
 31
0.0
  0
LINE
  5
2BE
330
46D
100
AcDbEntity
  8
1
100
AcDbLine
 10
56.164738
 20
4.629738999999999
 30
0.0
 11
56.58449399999999
 21
4.728441
 31
0.0
  0
LINE
  5
2BF
330
46D
100
AcDbEntity
  8
1
100
AcDbLine
 10
56.58449399999999
 20
4.728441
 30
0.0
 11
56.999366
 21
4.82416
 31
0.0
  0
LINE
  5
2C0
330
46D
100
AcDbEntity
  8
1
100
AcDbLine
 10
56.999366
 20
4.82416
 30
0.0
 11
57.409333
 21
4.916908
 31
0.0
  0
LINE
  5
2C1
330
46D
100
AcDbEntity
  8
1
100
AcDbLine
 10
57.409333
 20
4.916908
 30
0.0
 11
57.814415
 21
5.006673999999999
 31
0.0
  0
LINE
  5
2C2
330
46D
100
AcDbEntity
  8
1
100
AcDbLine
 10
57.814415
 20
5.006673999999999
 30
0.0
 11
58.214614
 21
5.093458999999999
 31
0.0
  0
LINE
  5
2C3
330
46D
100
AcDbEntity
  8
1
100
AcDbLine
 10
58.508762
 20
4.140454
 30
0.0
 11
58.19221500000001
 21
4.057636
 31
0.0
  0
LINE
  5
2C4
330
46D
100
AcDbEntity
  8
1
100
AcDbLine
 10
58.19221500000001
 20
4.057636
 30
0.0
 11
57.875351
 21
3.973704
 31
0.0
  0
LINE
  5
2C5
330
46D
100
AcDbEntity
  8
1
100
AcDbLine
 10
57.875351
 20
3.973704
 30
0.0
 11
57.55817099999999
 21
3.888679
 31
0.0
  0
LINE
  5
2C6
330
46D
100
AcDbEntity
  8
1
100
AcDbLine
 10
57.55817099999999
 20
3.888679
 30
0.0
 11
57.24062199999999
 21
3.802583
 31
0.0
  0
LINE
  5
2C7
330
46D
100
AcDbEntity
  8
1
100
AcDbLine
 10
57.24062199999999
 20
3.802583
 30
0.0
 11
56.92275600000001
 21
3.71544
 31
0.0
  0
LINE
  5
2C8
330
46D
100
AcDbEntity
  8
1
100
AcDbLine
 10
56.92275600000001
 20
3.71544
 30
0.0
 11
56.60473399999999
 21
3.627269999999999
 31
0.0
  0
LINE
  5
2C9
330
46D
100
AcDbEntity
  8
1
100
AcDbLine
 10
56.60473399999999
 20
3.627269999999999
 30
0.0
 11
56.28661
 21
3.538098999999999
 31
0.0
  0
LINE
  5
2CA
330
46D
100
AcDbEntity
  8
1
100
AcDbLine
 10
56.28661
 20
3.538098999999999
 30
0.0
 11
55.968329
 21
3.447948999999999
 31
0.0
  0
LINE
  5
2CB
330
46D
100
AcDbEntity
  8
1
100
AcDbLine
 10
55.968329
 20
3.447948999999999
 30
0.0
 11
55.649891
 21
3.356841999999999
 31
0.0
  0
LINE
  5
2CC
330
46D
100
AcDbEntity
  8
1
100
AcDbLine
 10
58.617059
 20
3.884958999999999
 30
0.0
 11
58.28866099999999
 21
3.795523999999999
 31
0.0
  0
LINE
  5
2CD
330
46D
100
AcDbEntity
  8
1
100
AcDbLine
 10
58.28866099999999
 20
3.795523999999999
 30
0.0
 11
57.95988799999999
 21
3.70504
 31
0.0
  0
LINE
  5
2CE
330
46D
100
AcDbEntity
  8
1
100
AcDbLine
 10
57.95988799999999
 20
3.70504
 30
0.0
 11
57.630741
 21
3.613506999999999
 31
0.0
  0
LINE
  5
2CF
330
46D
100
AcDbEntity
  8
1
100
AcDbLine
 10
57.630741
 20
3.613506999999999
 30
0.0
 11
57.30114799999999
 21
3.520904
 31
0.0
  0
LINE
  5
2D0
330
46D
100
AcDbEntity
  8
1
100
AcDbLine
 10
57.30114799999999
 20
3.520904
 30
0.0
 11
56.97118
 21
3.427254
 31
0.0
  0
LINE
  5
2D1
330
46D
100
AcDbEntity
  8
1
100
AcDbLine
 10
56.97118
 20
3.427254
 30
0.0
 11
56.641049
 21
3.332612999999999
 31
0.0
  0
LINE
  5
2D2
330
46D
100
AcDbEntity
  8
1
100
AcDbLine
 10
56.641049
 20
3.332612999999999
 30
0.0
 11
56.310826
 21
3.237000999999999
 31
0.0
  0
LINE
  5
2D3
330
46D
100
AcDbEntity
  8
1
100
AcDbLine
 10
56.310826
 20
3.237000999999999
 30
0.0
 11
55.98044
 21
3.140398999999999
 31
0.0
  0
LINE
  5
2D4
330
46D
100
AcDbEntity
  8
1
100
AcDbLine
 10
55.98044
 20
3.140398999999999
 30
0.0
 11
55.649891
 21
3.042806999999999
 31
0.0
  0
LINE
  5
2D5
330
46D
100
AcDbEntity
  8
1
100
AcDbLine
 10
8.0
 20
6.190476
 30
0.0
 11
49.991248
 21
6.190476
 31
0.0
  0
LINE
  5
2D6
330
46D
100
AcDbEntity
  8
1
100
AcDbLine
 10
54.28973599999999
 20
6.059986
 30
0.0
 11
53.79865
 21
6.092573999999999
 31
0.0
  0
LINE
  5
2D7
330
46D
100
AcDbEntity
  8
1
100
AcDbLine
 10
53.79865
 20
6.092573999999999
 30
0.0
 11
53.15110799999999
 21
6.127705
 31
0.0
  0
LINE
  5
2D8
330
46D
100
AcDbEntity
  8
1
100
AcDbLine
 10
53.15110799999999
 20
6.127705
 30
0.0
 11
52.49998399999999
 21
6.155096
 31
0.0
  0
LINE
  5
2D9
330
46D
100
AcDbEntity
  8
1
100
AcDbLine
 10
52.49998399999999
 20
6.155096
 30
0.0
 11
51.846423
 21
6.174628
 31
0.0
  0
LINE
  5
2DA
330
46D
100
AcDbEntity
  8
1
100
AcDbLine
 10
51.846423
 20
6.174628
 30
0.0
 11
51.189279
 21
6.186421
 31
0.0
  0
LINE
  5
2DB
330
46D
100
AcDbEntity
  8
1
100
AcDbLine
 10
51.189279
 20
6.186421
 30
0.0
 11
50.528552
 21
6.190476
 31
0.0
  0
LINE
  5
2DC
330
46D
100
AcDbEntity
  8
1
100
AcDbLine
 10
55.09836700000001
 20
5.387896999999999
 30
0.0
 11
54.954798
 21
5.371755
 31
0.0
  0
LINE
  5
2DD
330
46D
100
AcDbEntity
  8
1
100
AcDbLine
 10
54.954798
 20
5.371755
 30
0.0
 11
54.808057
 21
5.3574
 31
0.0
  0
LINE
  5
2DE
330
46D
100
AcDbEntity
  8
1
100
AcDbLine
 10
54.808057
 20
5.3574
 30
0.0
 11
54.658145
 21
5.344880999999999
 31
0.0
  0
LINE
  5
2DF
330
46D
100
AcDbEntity
  8
1
100
AcDbLine
 10
54.658145
 20
5.344880999999999
 30
0.0
 11
54.504926
 21
5.334198999999999
 31
0.0
  0
LINE
  5
2E0
330
46D
100
AcDbEntity
  8
1
100
AcDbLine
 10
54.504926
 20
5.334198999999999
 30
0.0
 11
54.34853399999999
 21
5.325427999999999
 31
0.0
  0
LINE
  5
2E1
330
46D
100
AcDbEntity
  8
1
100
AcDbLine
 10
54.34853399999999
 20
5.325427999999999
 30
0.0
 11
54.18938
 21
5.318705999999999
 31
0.0
  0
LINE
  5
2E2
330
46D
100
AcDbEntity
  8
1
100
AcDbLine
 10
54.18938
 20
5.318705999999999
 30
0.0
 11
54.027409
 21
5.31409
 31
0.0
  0
LINE
  5
2E3
330
46D
100
AcDbEntity
  8
1
100
AcDbLine
 10
54.027409
 20
5.31409
 30
0.0
 11
53.862676
 21
5.311562999999999
 31
0.0
  0
LINE
  5
2E4
330
46D
100
AcDbEntity
  8
1
100
AcDbLine
 10
53.862676
 20
5.311562999999999
 30
0.0
 11
53.695751
 21
5.311147
 31
0.0
  0
LINE
  5
2E5
330
46D
100
AcDbEntity
  8
1
100
AcDbLine
 10
53.695751
 20
5.311147
 30
0.0
 11
53.526817
 21
5.312865
 31
0.0
  0
LINE
  5
2E6
330
46D
100
AcDbEntity
  8
1
100
AcDbLine
 10
53.526817
 20
5.312865
 30
0.0
 11
53.35569200000001
 21
5.316689
 31
0.0
  0
LINE
  5
2E7
330
46D
100
AcDbEntity
  8
1
100
AcDbLine
 10
53.35569200000001
 20
5.316689
 30
0.0
 11
53.18239699999999
 21
5.322566
 31
0.0
  0
LINE
  5
2E8
330
46D
100
AcDbEntity
  8
1
100
AcDbLine
 10
53.18239699999999
 20
5.322566
 30
0.0
 11
53.00689699999999
 21
5.330483
 31
0.0
  0
LINE
  5
2E9
330
46D
100
AcDbEntity
  8
1
100
AcDbLine
 10
53.00689699999999
 20
5.330483
 30
0.0
 11
52.829227
 21
5.340405999999999
 31
0.0
  0
LINE
  5
2EA
330
46D
100
AcDbEntity
  8
1
100
AcDbLine
 10
52.829227
 20
5.340405999999999
 30
0.0
 11
52.64951800000001
 21
5.352231999999999
 31
0.0
  0
LINE
  5
2EB
330
46D
100
AcDbEntity
  8
1
100
AcDbLine
 10
52.64951800000001
 20
5.352231999999999
 30
0.0
 11
52.467716
 21
5.365937999999999
 31
0.0
  0
LINE
  5
2EC
330
46D
100
AcDbEntity
  8
1
100
AcDbLine
 10
52.467716
 20
5.365937999999999
 30
0.0
 11
52.283875
 21
5.381461999999999
 31
0.0
  0
LINE
  5
2ED
330
46D
100
AcDbEntity
  8
1
100
AcDbLine
 10
52.283875
 20
5.381461999999999
 30
0.0
 11
52.098281
 21
5.39864
 31
0.0
  0
LINE
  5
2EE
330
46D
100
AcDbEntity
  8
1
100
AcDbLine
 10
52.098281
 20
5.39864
 30
0.0
 11
51.911032
 21
5.417377
 31
0.0
  0
LINE
  5
2EF
330
46D
100
AcDbEntity
  8
1
100
AcDbLine
 10
51.911032
 20
5.417377
 30
0.0
 11
51.72202999999999
 21
5.437653
 31
0.0
  0
LINE
  5
2F0
330
46D
100
AcDbEntity
  8
1
100
AcDbLine
 10
51.72202999999999
 20
5.437653
 30
0.0
 11
51.531277
 21
5.459401
 31
0.0
  0
LINE
  5
2F1
330
46D
100
AcDbEntity
  8
1
100
AcDbLine
 10
54.30082500000001
 20
4.124837
 30
0.0
 11
53.90297
 21
4.022783
 31
0.0
  0
LINE
  5
2F2
330
46D
100
AcDbEntity
  8
1
100
AcDbLine
 10
53.90297
 20
4.022783
 30
0.0
 11
53.351666
 21
3.878462999999999
 31
0.0
  0
LINE
  5
2F3
330
46D
100
AcDbEntity
  8
1
100
AcDbLine
 10
53.351666
 20
3.878462999999999
 30
0.0
 11
52.796552
 21
3.730236
 31
0.0
  0
LINE
  5
2F4
330
46D
100
AcDbEntity
  8
1
100
AcDbLine
 10
52.796552
 20
3.730236
 30
0.0
 11
52.23772
 21
3.578149999999999
 31
0.0
  0
LINE
  5
2F5
330
46D
100
AcDbEntity
  8
1
100
AcDbLine
 10
52.23772
 20
3.578149999999999
 30
0.0
 11
51.677536
 21
3.422814999999999
 31
0.0
  0
LINE
  5
2F6
330
46D
100
AcDbEntity
  8
1
100
AcDbLine
 10
51.677536
 20
3.422814999999999
 30
0.0
 11
51.11679099999999
 21
3.264437
 31
0.0
  0
LINE
  5
2F7
330
46D
100
AcDbEntity
  8
1
100
AcDbLine
 10
51.11679099999999
 20
3.264437
 30
0.0
 11
50.554695
 21
3.102810999999999
 31
0.0
  0
LINE
  5
2F8
330
46D
100
AcDbEntity
  8
1
100
AcDbLine
 10
50.554695
 20
3.102810999999999
 30
0.0
 11
49.991248
 21
2.937936
 31
0.0
  0
LINE
  5
2F9
330
46D
100
AcDbEntity
  8
1
100
AcDbLine
 10
53.793661
 20
3.011424
 30
0.0
 11
53.63016700000001
 21
2.965491999999999
 31
0.0
  0
LINE
  5
2FA
330
46D
100
AcDbEntity
  8
1
100
AcDbLine
 10
53.63016700000001
 20
2.965491999999999
 30
0.0
 11
53.467248
 21
2.922747
 31
0.0
  0
LINE
  5
2FB
330
46D
100
AcDbEntity
  8
1
100
AcDbLine
 10
53.467248
 20
2.922747
 30
0.0
 11
53.304905
 21
2.883186999999999
 31
0.0
  0
LINE
  5
2FC
330
46D
100
AcDbEntity
  8
1
100
AcDbLine
 10
53.304905
 20
2.883186999999999
 30
0.0
 11
53.14294799999999
 21
2.846776999999999
 31
0.0
  0
LINE
  5
2FD
330
46D
100
AcDbEntity
  8
1
100
AcDbLine
 10
53.14294799999999
 20
2.846776999999999
 30
0.0
 11
52.981566
 21
2.813552999999999
 31
0.0
  0
LINE
  5
2FE
330
46D
100
AcDbEntity
  8
1
100
AcDbLine
 10
52.981566
 20
2.813552999999999
 30
0.0
 11
52.821329
 21
2.783631
 31
0.0
  0
LINE
  5
2FF
330
46D
100
AcDbEntity
  8
1
100
AcDbLine
 10
52.821329
 20
2.783631
 30
0.0
 11
52.66224000000001
 21
2.757026999999999
 31
0.0
  0
LINE
  5
300
330
46D
100
AcDbEntity
  8
1
100
AcDbLine
 10
52.66224000000001
 20
2.757026999999999
 30
0.0
 11
52.50429499999999
 21
2.733725
 31
0.0
  0
LINE
  5
301
330
46D
100
AcDbEntity
  8
1
100
AcDbLine
 10
52.50429499999999
 20
2.733725
 30
0.0
 11
52.348052
 21
2.713808999999999
 31
0.0
  0
LINE
  5
302
330
46D
100
AcDbEntity
  8
1
100
AcDbLine
 10
52.348052
 20
2.713808999999999
 30
0.0
 11
52.193517
 21
2.69729
 31
0.0
  0
LINE
  5
303
330
46D
100
AcDbEntity
  8
1
100
AcDbLine
 10
52.193517
 20
2.69729
 30
0.0
 11
52.040683
 21
2.684158
 31
0.0
  0
LINE
  5
304
330
46D
100
AcDbEntity
  8
1
100
AcDbLine
 10
52.040683
 20
2.684158
 30
0.0
 11
51.89008900000001
 21
2.674459
 31
0.0
  0
LINE
  5
305
330
46D
100
AcDbEntity
  8
1
100
AcDbLine
 10
51.89008900000001
 20
2.674459
 30
0.0
 11
51.741743
 21
2.668203
 31
0.0
  0
LINE
  5
306
330
46D
100
AcDbEntity
  8
1
100
AcDbLine
 10
51.741743
 20
2.668203
 30
0.0
 11
51.595638
 21
2.665379999999999
 31
0.0
  0
LINE
  5
307
330
46D
100
AcDbEntity
  8
1
100
AcDbLine
 10
51.595638
 20
2.665379999999999
 30
0.0
 11
51.452289
 21
2.665999
 31
0.0
  0
LINE
  5
308
330
46D
100
AcDbEntity
  8
1
100
AcDbLine
 10
51.452289
 20
2.665999
 30
0.0
 11
51.31170499999999
 21
2.670072
 31
0.0
  0
LINE
  5
309
330
46D
100
AcDbEntity
  8
1
100
AcDbLine
 10
51.31170499999999
 20
2.670072
 30
0.0
 11
51.173877
 21
2.677586
 31
0.0
  0
LINE
  5
30A
330
46D
100
AcDbEntity
  8
1
100
AcDbLine
 10
51.173877
 20
2.677586
 30
0.0
 11
51.03929
 21
2.688518
 31
0.0
  0
LINE
  5
30B
330
46D
100
AcDbEntity
  8
1
100
AcDbLine
 10
51.03929
 20
2.688518
 30
0.0
 11
50.90795599999999
 21
2.702875
 31
0.0
  0
LINE
  5
30C
330
46D
100
AcDbEntity
  8
1
100
AcDbLine
 10
50.90795599999999
 20
2.702875
 30
0.0
 11
50.779864
 21
2.720649
 31
0.0
  0
LINE
  5
30D
330
46D
100
AcDbEntity
  8
1
100
AcDbLine
 10
50.779864
 20
2.720649
 30
0.0
 11
50.65546499999999
 21
2.741775999999999
 31
0.0
  0
LINE
  5
30E
330
46D
100
AcDbEntity
  8
1
100
AcDbLine
 10
50.65546499999999
 20
2.741775999999999
 30
0.0
 11
50.534773
 21
2.766267
 31
0.0
  0
LINE
  5
30F
330
46D
100
AcDbEntity
  8
1
100
AcDbLine
 10
50.534773
 20
2.766267
 30
0.0
 11
50.417774
 21
2.794111999999999
 31
0.0
  0
LINE
  5
310
330
46D
100
AcDbEntity
  8
1
100
AcDbLine
 10
50.417774
 20
2.794111999999999
 30
0.0
 11
50.30488
 21
2.825209999999999
 31
0.0
  0
LINE
  5
311
330
46D
100
AcDbEntity
  8
1
100
AcDbLine
 10
50.30488
 20
2.825209999999999
 30
0.0
 11
50.19623
 21
2.859529999999999
 31
0.0
  0
LINE
  5
312
330
46D
100
AcDbEntity
  8
1
100
AcDbLine
 10
50.19623
 20
2.859529999999999
 30
0.0
 11
50.09168599999999
 21
2.897107
 31
0.0
  0
LINE
  5
313
330
46D
100
AcDbEntity
  8
1
100
AcDbLine
 10
50.09168599999999
 20
2.897107
 30
0.0
 11
49.991248
 21
2.937936
 31
0.0
  0
LINE
  5
314
330
46D
100
AcDbEntity
  8
1
100
AcDbLine
 10
51.531277
 20
5.459401
 30
0.0
 11
51.307018
 21
5.590666999999999
 31
0.0
  0
LINE
  5
315
330
46D
100
AcDbEntity
  8
1
100
AcDbLine
 10
51.307018
 20
5.590666999999999
 30
0.0
 11
51.095448
 21
5.713721999999999
 31
0.0
  0
LINE
  5
316
330
46D
100
AcDbEntity
  8
1
100
AcDbLine
 10
51.095448
 20
5.713721999999999
 30
0.0
 11
50.99441399999999
 21
5.771643
 31
0.0
  0
LINE
  5
317
330
46D
100
AcDbEntity
  8
1
100
AcDbLine
 10
50.99441399999999
 20
5.771643
 30
0.0
 11
50.896745
 21
5.826533
 31
0.0
  0
LINE
  5
318
330
46D
100
AcDbEntity
  8
1
100
AcDbLine
 10
50.896745
 20
5.826533
 30
0.0
 11
50.802474
 21
5.878228
 31
0.0
  0
LINE
  5
319
330
46D
100
AcDbEntity
  8
1
100
AcDbLine
 10
50.802474
 20
5.878228
 30
0.0
 11
50.711569
 21
5.926571
 31
0.0
  0
LINE
  5
31A
330
46D
100
AcDbEntity
  8
1
100
AcDbLine
 10
50.711569
 20
5.926571
 30
0.0
 11
50.624114
 21
5.971175999999999
 31
0.0
  0
LINE
  5
31B
330
46D
100
AcDbEntity
  8
1
100
AcDbLine
 10
50.624114
 20
5.971175999999999
 30
0.0
 11
50.540166
 21
6.011915
 31
0.0
  0
LINE
  5
31C
330
46D
100
AcDbEntity
  8
1
100
AcDbLine
 10
50.540166
 20
6.011915
 30
0.0
 11
50.459668
 21
6.048723
 31
0.0
  0
LINE
  5
31D
330
46D
100
AcDbEntity
  8
1
100
AcDbLine
 10
50.459668
 20
6.048723
 30
0.0
 11
50.382533
 21
6.081420999999999
 31
0.0
  0
LINE
  5
31E
330
46D
100
AcDbEntity
  8
1
100
AcDbLine
 10
50.382533
 20
6.081420999999999
 30
0.0
 11
50.30869299999999
 21
6.109966
 31
0.0
  0
LINE
  5
31F
330
46D
100
AcDbEntity
  8
1
100
AcDbLine
 10
50.30869299999999
 20
6.109966
 30
0.0
 11
50.238215
 21
6.134274999999999
 31
0.0
  0
LINE
  5
320
330
46D
100
AcDbEntity
  8
1
100
AcDbLine
 10
50.238215
 20
6.134274999999999
 30
0.0
 11
50.171219
 21
6.154206999999999
 31
0.0
  0
LINE
  5
321
330
46D
100
AcDbEntity
  8
1
100
AcDbLine
 10
50.171219
 20
6.154206999999999
 30
0.0
 11
50.107746
 21
6.169751999999999
 31
0.0
  0
LINE
  5
322
330
46D
100
AcDbEntity
  8
1
100
AcDbLine
 10
50.107746
 20
6.169751999999999
 30
0.0
 11
50.047756
 21
6.180962
 31
0.0
  0
LINE
  5
323
330
46D
100
AcDbEntity
  8
1
100
AcDbLine
 10
50.047756
 20
6.180962
 30
0.0
 11
49.991248
 21
6.187854999999999
 31
0.0
  0
LINE
  5
324
330
46D
100
AcDbEntity
  8
1
100
AcDbLine
 10
50.528552
 20
6.190476
 30
0.0
 11
50.259818
 21
6.189821
 31
0.0
  0
LINE
  5
325
330
46D
100
AcDbEntity
  8
1
100
AcDbLine
 10
50.259818
 20
6.189821
 30
0.0
 11
49.991248
 21
6.187854999999999
 31
0.0
  0
LINE
  5
326
330
46D
100
AcDbEntity
  8
1
100
AcDbLine
 10
54.43758
 20
4.204666999999999
 30
0.0
 11
54.449431
 21
4.16008
 31
0.0
  0
LINE
  5
327
330
46D
100
AcDbEntity
  8
1
100
AcDbLine
 10
54.449431
 20
4.16008
 30
0.0
 11
54.46513
 21
4.11553
 31
0.0
  0
LINE
  5
328
330
46D
100
AcDbEntity
  8
1
100
AcDbLine
 10
54.46513
 20
4.11553
 30
0.0
 11
54.484676
 21
4.071002
 31
0.0
  0
LINE
  5
329
330
46D
100
AcDbEntity
  8
1
100
AcDbLine
 10
54.484676
 20
4.071002
 30
0.0
 11
54.50810999999999
 21
4.026202999999999
 31
0.0
  0
LINE
  5
32A
330
46D
100
AcDbEntity
  8
1
100
AcDbLine
 10
54.50810999999999
 20
4.026202999999999
 30
0.0
 11
54.535392
 21
3.981398
 31
0.0
  0
LINE
  5
32B
330
46D
100
AcDbEntity
  8
1
100
AcDbLine
 10
54.535392
 20
3.981398
 30
0.0
 11
54.566401
 21
3.937451999999999
 31
0.0
  0
LINE
  5
32C
330
46D
100
AcDbEntity
  8
1
100
AcDbLine
 10
54.566401
 20
3.937451999999999
 30
0.0
 11
54.60123499999999
 21
3.894554
 31
0.0
  0
LINE
  5
32D
330
46D
100
AcDbEntity
  8
1
100
AcDbLine
 10
54.60123499999999
 20
3.894554
 30
0.0
 11
54.639796
 21
3.85254
 31
0.0
  0
LINE
  5
32E
330
46D
100
AcDbEntity
  8
1
100
AcDbLine
 10
54.639796
 20
3.85254
 30
0.0
 11
54.68166400000001
 21
3.811776999999999
 31
0.0
  0
LINE
  5
32F
330
46D
100
AcDbEntity
  8
1
100
AcDbLine
 10
54.68166400000001
 20
3.811776999999999
 30
0.0
 11
54.7268
 21
3.772421
 31
0.0
  0
LINE
  5
330
330
46D
100
AcDbEntity
  8
1
100
AcDbLine
 10
54.7268
 20
3.772421
 30
0.0
 11
54.775244
 21
3.734361
 31
0.0
  0
LINE
  5
331
330
46D
100
AcDbEntity
  8
1
100
AcDbLine
 10
54.775244
 20
3.734361
 30
0.0
 11
54.826692
 21
3.697587999999999
 31
0.0
  0
LINE
  5
332
330
46D
100
AcDbEntity
  8
1
100
AcDbLine
 10
54.826692
 20
3.697587999999999
 30
0.0
 11
54.88111899999999
 21
3.662142999999999
 31
0.0
  0
LINE
  5
333
330
46D
100
AcDbEntity
  8
1
100
AcDbLine
 10
54.88111899999999
 20
3.662142999999999
 30
0.0
 11
54.93855100000001
 21
3.628026
 31
0.0
  0
LINE
  5
334
330
46D
100
AcDbEntity
  8
1
100
AcDbLine
 10
54.93855100000001
 20
3.628026
 30
0.0
 11
54.998766
 21
3.595156999999999
 31
0.0
  0
LINE
  5
335
330
46D
100
AcDbEntity
  8
1
100
AcDbLine
 10
54.998766
 20
3.595156999999999
 30
0.0
 11
55.06181999999999
 21
3.56353
 31
0.0
  0
LINE
  5
336
330
46D
100
AcDbEntity
  8
1
100
AcDbLine
 10
55.06181999999999
 20
3.56353
 30
0.0
 11
55.12765600000001
 21
3.533185
 31
0.0
  0
LINE
  5
337
330
46D
100
AcDbEntity
  8
1
100
AcDbLine
 10
55.12765600000001
 20
3.533185
 30
0.0
 11
55.19588699999999
 21
3.504108
 31
0.0
  0
LINE
  5
338
330
46D
100
AcDbEntity
  8
1
100
AcDbLine
 10
55.19588699999999
 20
3.504108
 30
0.0
 11
55.26656299999999
 21
3.476316
 31
0.0
  0
LINE
  5
339
330
46D
100
AcDbEntity
  8
1
100
AcDbLine
 10
55.26656299999999
 20
3.476316
 30
0.0
 11
55.339634
 21
3.449827999999999
 31
0.0
  0
LINE
  5
33A
330
46D
100
AcDbEntity
  8
1
100
AcDbLine
 10
55.339634
 20
3.449827999999999
 30
0.0
 11
55.414556
 21
3.424622
 31
0.0
  0
LINE
  5
33B
330
46D
100
AcDbEntity
  8
1
100
AcDbLine
 10
55.414556
 20
3.424622
 30
0.0
 11
55.49115
 21
3.400703
 31
0.0
  0
LINE
  5
33C
330
46D
100
AcDbEntity
  8
1
100
AcDbLine
 10
55.49115
 20
3.400703
 30
0.0
 11
55.56959499999999
 21
3.378102999999999
 31
0.0
  0
LINE
  5
33D
330
46D
100
AcDbEntity
  8
1
100
AcDbLine
 10
55.56959499999999
 20
3.378102999999999
 30
0.0
 11
55.649891
 21
3.356841999999999
 31
0.0
  0
LINE
  5
33E
330
46D
100
AcDbEntity
  8
1
100
AcDbLine
 10
55.649891
 20
3.356841999999999
 30
0.0
 11
55.649891
 21
3.042806999999999
 31
0.0
  0
LINE
  5
33F
330
46D
100
AcDbEntity
  8
1
100
AcDbLine
 10
54.849891
 20
6.352121
 30
0.0
 11
54.849891
 21
5.361493
 31
0.0
  0
LINE
  5
340
330
46D
100
AcDbEntity
  8
1
100
AcDbLine
 10
54.293661
 20
3.246888999999999
 30
0.0
 11
54.37091500000001
 21
2.944138
 31
0.0
  0
LINE
  5
341
330
46D
100
AcDbEntity
  8
1
100
AcDbLine
 10
54.849891
 20
2.729906999999999
 30
0.0
 11
54.78735
 21
2.902534
 31
0.0
  0
LINE
  5
342
330
46D
100
AcDbEntity
  8
1
100
AcDbLine
 10
54.78735
 20
2.902534
 30
0.0
 11
54.72493599999999
 21
3.071722
 31
0.0
  0
LINE
  5
343
330
46D
100
AcDbEntity
  8
1
100
AcDbLine
 10
54.72493599999999
 20
3.071722
 30
0.0
 11
54.66264999999999
 21
3.237471999999999
 31
0.0
  0
LINE
  5
344
330
46D
100
AcDbEntity
  8
1
100
AcDbLine
 10
54.66264999999999
 20
3.237471999999999
 30
0.0
 11
54.600415
 21
3.399977999999999
 31
0.0
  0
LINE
  5
345
330
46D
100
AcDbEntity
  8
1
100
AcDbLine
 10
54.600415
 20
3.399977999999999
 30
0.0
 11
54.53830799999999
 21
3.559044999999999
 31
0.0
  0
LINE
  5
346
330
46D
100
AcDbEntity
  8
1
100
AcDbLine
 10
54.53830799999999
 20
3.559044999999999
 30
0.0
 11
54.476556
 21
3.714096
 31
0.0
  0
LINE
  5
347
330
46D
100
AcDbEntity
  8
1
100
AcDbLine
 10
54.476556
 20
3.714096
 30
0.0
 11
54.415236
 21
3.864937
 31
0.0
  0
LINE
  5
348
330
46D
100
AcDbEntity
  8
1
100
AcDbLine
 10
54.415236
 20
3.864937
 30
0.0
 11
54.354271
 21
4.011762
 31
0.0
  0
LINE
  5
349
330
46D
100
AcDbEntity
  8
1
100
AcDbLine
 10
54.354271
 20
4.011762
 30
0.0
 11
54.293661
 21
4.154569
 31
0.0
  0
LINE
  5
34A
330
46D
100
AcDbEntity
  8
1
100
AcDbLine
 10
54.293661
 20
4.154569
 30
0.0
 11
54.293661
 21
3.246888999999999
 31
0.0
  0
LINE
  5
34B
330
46D
100
AcDbEntity
  8
1
100
AcDbLine
 10
54.293661
 20
6.122952999999999
 30
0.0
 11
54.293661
 21
5.323109999999999
 31
0.0
  0
LINE
  5
34C
330
46D
100
AcDbEntity
  8
1
100
AcDbLine
 10
54.724885
 20
6.329229999999999
 30
0.0
 11
54.691175
 21
6.324009999999999
 31
0.0
  0
LINE
  5
34D
330
46D
100
AcDbEntity
  8
1
100
AcDbLine
 10
54.691175
 20
6.324009999999999
 30
0.0
 11
54.662599
 21
6.318164
 31
0.0
  0
LINE
  5
34E
330
46D
100
AcDbEntity
  8
1
100
AcDbLine
 10
54.662599
 20
6.318164
 30
0.0
 11
54.60039599999999
 21
6.3009
 31
0.0
  0
LINE
  5
34F
330
46D
100
AcDbEntity
  8
1
100
AcDbLine
 10
54.60039599999999
 20
6.3009
 30
0.0
 11
54.538337
 21
6.277467999999999
 31
0.0
  0
LINE
  5
350
330
46D
100
AcDbEntity
  8
1
100
AcDbLine
 10
54.538337
 20
6.277467999999999
 30
0.0
 11
54.47661599999999
 21
6.247949
 31
0.0
  0
LINE
  5
351
330
46D
100
AcDbEntity
  8
1
100
AcDbLine
 10
54.47661599999999
 20
6.247949
 30
0.0
 11
54.415294
 21
6.212371
 31
0.0
  0
LINE
  5
352
330
46D
100
AcDbEntity
  8
1
100
AcDbLine
 10
54.415294
 20
6.212371
 30
0.0
 11
54.354309
 21
6.170706
 31
0.0
  0
LINE
  5
353
330
46D
100
AcDbEntity
  8
1
100
AcDbLine
 10
54.354309
 20
6.170706
 30
0.0
 11
54.293661
 21
6.122952999999999
 31
0.0
  0
LINE
  5
354
330
46D
100
AcDbEntity
  8
1
100
AcDbLine
 10
55.378533
 20
2.937336
 30
0.0
 11
55.649891
 21
3.042806999999999
 31
0.0
  0
LINE
  5
355
330
46D
100
AcDbEntity
  8
1
100
AcDbLine
 10
55.11186600000001
 20
2.833035999999999
 30
0.0
 11
55.378533
 21
2.937336
 31
0.0
  0
LINE
  5
356
330
46D
100
AcDbEntity
  8
1
100
AcDbLine
 10
54.849891
 20
2.729906999999999
 30
0.0
 11
55.11186600000001
 21
2.833035999999999
 31
0.0
  0
LINE
  5
357
330
46D
100
AcDbEntity
  8
1
100
AcDbLine
 10
54.293661
 20
4.154569
 30
0.0
 11
54.43758
 21
4.204666999999999
 31
0.0
  0
LINE
  5
358
330
46D
100
AcDbEntity
  8
1
100
AcDbLine
 10
54.31648299999999
 20
3.163209999999999
 30
0.0
 11
53.793661
 21
3.011424
 31
0.0
  0
LINE
  5
359
330
46D
100
AcDbEntity
  8
1
100
AcDbLine
 10
60.0
 20
3.122157
 30
0.0
 11
60.0
 21
5.691708999999999
 31
0.0
  0
LINE
  5
35A
330
46D
100
AcDbEntity
  8
1
100
AcDbLine
 10
59.5
 20
5.181976999999999
 30
0.0
 11
59.5
 21
5.0377
 31
0.0
  0
LINE
  5
35B
330
46D
100
AcDbEntity
  8
1
100
AcDbLine
 10
58.508762
 20
4.140454
 30
0.0
 11
58.47089699999999
 21
4.253670999999999
 31
0.0
  0
LINE
  5
35C
330
46D
100
AcDbEntity
  8
1
100
AcDbLine
 10
58.47089699999999
 20
4.253670999999999
 30
0.0
 11
58.43431999999999
 21
4.365058999999999
 31
0.0
  0
LINE
  5
35D
330
46D
100
AcDbEntity
  8
1
100
AcDbLine
 10
58.43431999999999
 20
4.365058999999999
 30
0.0
 11
58.399032
 21
4.474619999999999
 31
0.0
  0
LINE
  5
35E
330
46D
100
AcDbEntity
  8
1
100
AcDbLine
 10
58.399032
 20
4.474619999999999
 30
0.0
 11
58.36502199999999
 21
4.582355999999999
 31
0.0
  0
LINE
  5
35F
330
46D
100
AcDbEntity
  8
1
100
AcDbLine
 10
58.36502199999999
 20
4.582355999999999
 30
0.0
 11
58.3323
 21
4.688265
 31
0.0
  0
LINE
  5
360
330
46D
100
AcDbEntity
  8
1
100
AcDbLine
 10
58.3323
 20
4.688265
 30
0.0
 11
58.30089499999999
 21
4.792330999999999
 31
0.0
  0
LINE
  5
361
330
46D
100
AcDbEntity
  8
1
100
AcDbLine
 10
58.30089499999999
 20
4.792330999999999
 30
0.0
 11
58.27081800000001
 21
4.894548999999999
 31
0.0
  0
LINE
  5
362
330
46D
100
AcDbEntity
  8
1
100
AcDbLine
 10
58.27081800000001
 20
4.894548999999999
 30
0.0
 11
58.242057
 21
4.994926
 31
0.0
  0
LINE
  5
363
330
46D
100
AcDbEntity
  8
1
100
AcDbLine
 10
58.242057
 20
4.994926
 30
0.0
 11
58.214614
 21
5.093458999999999
 31
0.0
  0
LINE
  5
364
330
46D
100
AcDbEntity
  8
1
100
AcDbLine
 10
58.512115
 20
4.137166
 30
0.0
 11
58.52730699999999
 21
4.096434999999999
 31
0.0
  0
LINE
  5
365
330
46D
100
AcDbEntity
  8
1
100
AcDbLine
 10
58.52730699999999
 20
4.096434999999999
 30
0.0
 11
58.543418
 21
4.055183
 31
0.0
  0
LINE
  5
366
330
46D
100
AcDbEntity
  8
1
100
AcDbLine
 10
58.543418
 20
4.055183
 30
0.0
 11
58.560449
 21
4.013408999999999
 31
0.0
  0
LINE
  5
367
330
46D
100
AcDbEntity
  8
1
100
AcDbLine
 10
58.560449
 20
4.013408999999999
 30
0.0
 11
58.578399
 21
3.971114
 31
0.0
  0
LINE
  5
368
330
46D
100
AcDbEntity
  8
1
100
AcDbLine
 10
58.578399
 20
3.971114
 30
0.0
 11
58.597269
 21
3.928298
 31
0.0
  0
LINE
  5
369
330
46D
100
AcDbEntity
  8
1
100
AcDbLine
 10
58.597269
 20
3.928298
 30
0.0
 11
58.617059
 21
3.884958999999999
 31
0.0
  0
LINE
  5
36A
330
46D
100
AcDbEntity
  8
1
100
AcDbLine
 10
58.1
 20
5.713023999999999
 30
0.0
 11
58.1
 21
5.068603999999999
 31
0.0
  0
LINE
  5
36B
330
46D
100
AcDbEntity
  8
1
100
AcDbLine
 10
58.508762
 20
4.140454
 30
0.0
 11
58.512115
 21
4.137166
 31
0.0
  0
LINE
  5
36C
330
46D
100
AcDbEntity
  8
1
100
AcDbLine
 10
60.0
 20
5.691708999999999
 30
0.0
 11
58.6
 21
6.5
 31
0.0
  0
LINE
  5
36D
330
46D
100
AcDbEntity
  8
1
100
AcDbLine
 10
58.6
 20
6.5
 30
0.0
 11
58.55050799999999
 21
6.5
 31
0.0
  0
LINE
  5
36E
330
46D
100
AcDbEntity
  8
1
100
AcDbLine
 10
59.5
 20
5.181976999999999
 30
0.0
 11
59.36327099999999
 21
5.238063999999999
 31
0.0
  0
LINE
  5
36F
330
46D
100
AcDbEntity
  8
1
100
AcDbLine
 10
59.36327099999999
 20
5.238063999999999
 30
0.0
 11
59.22193499999999
 21
5.294858
 31
0.0
  0
LINE
  5
370
330
46D
100
AcDbEntity
  8
1
100
AcDbLine
 10
59.22193499999999
 20
5.294858
 30
0.0
 11
59.075991
 21
5.352361
 31
0.0
  0
LINE
  5
371
330
46D
100
AcDbEntity
  8
1
100
AcDbLine
 10
59.075991
 20
5.352361
 30
0.0
 11
58.925571
 21
5.410542999999999
 31
0.0
  0
LINE
  5
372
330
46D
100
AcDbEntity
  8
1
100
AcDbLine
 10
58.925571
 20
5.410542999999999
 30
0.0
 11
58.77054399999999
 21
5.469433999999999
 31
0.0
  0
LINE
  5
373
330
46D
100
AcDbEntity
  8
1
100
AcDbLine
 10
58.77054399999999
 20
5.469433999999999
 30
0.0
 11
58.61051299999999
 21
5.529119999999999
 31
0.0
  0
LINE
  5
374
330
46D
100
AcDbEntity
  8
1
100
AcDbLine
 10
58.61051299999999
 20
5.529119999999999
 30
0.0
 11
58.44534599999999
 21
5.589627
 31
0.0
  0
LINE
  5
375
330
46D
100
AcDbEntity
  8
1
100
AcDbLine
 10
58.44534599999999
 20
5.589627
 30
0.0
 11
58.27517499999999
 21
5.650928999999999
 31
0.0
  0
LINE
  5
376
330
46D
100
AcDbEntity
  8
1
100
AcDbLine
 10
58.27517499999999
 20
5.650928999999999
 30
0.0
 11
58.1
 21
5.713023999999999
 31
0.0
  0
LINE
  5
377
330
46D
100
AcDbEntity
  8
1
100
AcDbLine
 10
60.0
 20
5.016010999999999
 30
0.0
 11
58.214614
 21
5.093458999999999
 31
0.0
  0
LINE
  5
378
330
46D
100
AcDbEntity
  8
1
100
AcDbLine
 10
58.512115
 20
4.137166
 30
0.0
 11
60.0
 21
4.072623
 31
0.0
  0
LINE
  5
379
330
46D
100
AcDbEntity
  8
1
100
AcDbLine
 10
60.0
 20
3.824969
 30
0.0
 11
58.617059
 21
3.884958999999999
 31
0.0
  0
LINE
  5
37A
330
46D
100
AcDbEntity
  8
1
100
AcDbLine
 10
55.657492
 20
6.5
 30
0.0
 11
58.55050799999999
 21
6.5
 31
0.0
  0
LINE
  5
37B
330
46D
100
AcDbEntity
  8
1
100
AcDbLine
 10
55.658538
 20
-6.5
 30
0.0
 11
58.55050799999999
 21
-6.5
 31
0.0
  0
LINE
  5
37C
330
46D
100
AcDbEntity
  8
1
100
AcDbLine
 10
54.724885
 20
6.329229999999999
 30
0.0
 11
55.657492
 21
6.5
 31
0.0
  0
LINE
  5
37D
330
46D
100
AcDbEntity
  8
1
100
AcDbLine
 10
58.55050799999999
 20
-6.5
 30
0.0
 11
58.214614
 21
-5.724057
 31
0.0
  0
LINE
  5
37E
330
46D
100
AcDbEntity
  8
SK4
100
AcDbLine
 10
61.80394399999999
 20
0.0
 30
0.0
 11
-11.814128
 21
0.0
 31
0.0
  0
LINE
  5
37F
330
46D
100
AcDbEntity
  8
SK1
100
AcDbLine
 10
-8.349999999999999
 20
5.444173999999999
 30
0.0
 11
-8.349999999999999
 21
-5.444175
 31
0.0
  0
LINE
  5
380
330
46D
100
AcDbEntity
  8
1
100
AcDbLine
 10
8.0
 20
6.190476
 30
0.0
 11
8.0
 21
-6.190476999999999
 31
0.0
  0
LINE
  5
381
330
46D
100
AcDbEntity
  8
1
100
AcDbLine
 10
5.0
 20
8.9
 30
0.0
 11
5.0
 21
-8.9
 31
0.0
  0
LINE
  5
382
330
46D
100
AcDbEntity
  8
1
100
AcDbLine
 10
0.0
 20
8.9
 30
0.0
 11
0.0
 21
-8.9
 31
0.0
  0
LINE
  5
383
330
46D
100
AcDbEntity
  8
SK1
100
AcDbLine
 10
-8.349999999999999
 20
-5.444175
 30
0.0
 11
0.0
 21
-6.174174999999999
 31
0.0
  0
LINE
  5
384
330
46D
100
AcDbEntity
  8
SK1
100
AcDbLine
 10
-11.35
 20
4.944173999999999
 30
0.0
 11
-11.35
 21
-4.944175
 31
0.0
  0
LINE
  5
385
330
46D
100
AcDbEntity
  8
SK1
100
AcDbLine
 10
-11.35
 20
-4.944175
 30
0.0
 11
-8.349999999999999
 21
-4.944175
 31
0.0
  0
LINE
  5
386
330
46D
100
AcDbEntity
  8
SK1
100
AcDbLine
 10
-11.35
 20
4.944173999999999
 30
0.0
 11
-8.349999999999999
 21
4.944173999999999
 31
0.0
  0
LINE
  5
387
330
46D
100
AcDbEntity
  8
1
100
AcDbLine
 10
0.0
 20
-8.9
 30
0.0
 11
5.0
 21
-8.9
 31
0.0
  0
LINE
  5
388
330
46D
100
AcDbEntity
  8
1
100
AcDbLine
 10
5.0
 20
-8.9
 30
0.0
 11
8.0
 21
-6.190476999999999
 31
0.0
  0
LINE
  5
389
330
46D
100
AcDbEntity
  8
SK1
100
AcDbLine
 10
-8.349999999999999
 20
5.444173999999999
 30
0.0
 11
0.0
 21
6.174173999999999
 31
0.0
  0
LINE
  5
38A
330
46D
100
AcDbEntity
  8
1
100
AcDbLine
 10
0.0
 20
8.9
 30
0.0
 11
5.0
 21
8.9
 31
0.0
  0
LINE
  5
38B
330
46D
100
AcDbEntity
  8
1
100
AcDbLine
 10
5.0
 20
8.9
 30
0.0
 11
8.0
 21
6.190476
 31
0.0
  0
LINE
  5
38C
330
46D
100
AcDbEntity
  8
80
100
AcDbLine
 10
0.0
 20
0.0
 30
0.0
 11
-11.35
 21
0.0
 31
0.0
  0
LINE
  5
38D
330
46D
100
AcDbEntity
  8
81
100
AcDbLine
 10
60.0
 20
0.0
 30
0.0
 11
68.13839
 21
0.0
 31
0.0
  0
LINE
  5
38E
330
46D
100
AcDbEntity
  8
4
100
AcDbLine
 10
0.0
 20
0.0
 30
0.0
 11
62.94850400000001
 21
0.0
 31
0.0
  0
POINT
  5
38F
330
46D
100
AcDbEntity
  8
80
100
AcDbPoint
 10
0.0
 20
0.0
 30
0.0
  0
POINT
  5
390
330
46D
100
AcDbEntity
  8
81
100
AcDbPoint
 10
60.0
 20
6.499998999999999
 30
0.0
  0
TEXT
  5
391
330
46D
100
AcDbEntity
  8
SK6
100
AcDbText
 10
-12.880649
 20
11.146907
 30
0.0
 40
3.5
  1
HFS12
 41
0.7922612000000005
  7
SANDVIK_STYLE
 72
     5
 11
-0.9967309999999999
 21
11.146907
 31
0.0
100
AcDbText
  0
TEXT
  5
392
330
46D
100
AcDbEntity
  8
SK6
100
AcDbText
 10
-9.010360999999999
 20
-25.246295
 30
0.0
 40
3.5
  1
830B-E06D1300H7S12
 41
0.7986998873239432
  7
SANDVIK_STYLE
 72
     5
 11
38.246049
 21
-25.246295
 31
0.0
100
AcDbText
  0
TEXT
  5
393
330
46D
100
AcDbEntity
  8
2
100
AcDbText
 10
31.06215300000001
 20
34.48275000000001
 30
0.0
 40
3.5
  1
60 
100
AcDbText
  0
INSERT
  5
394
330
46D
100
AcDbEntity
  8
2
100
AcDbBlockReference
  2
*D0
 10
0.0
 20
0.0
 30
0.0
  0
TEXT
  5
395
330
46D
100
AcDbEntity
  8
2
100
AcDbText
 10
76.77510600000001
 20
-0.045285
 30
0.0
 40
3.5
  1
%%c13H7
 50
90.0
100
AcDbText
  0
INSERT
  5
396
330
46D
100
AcDbEntity
  8
2
100
AcDbBlockReference
  2
*D1
 10
0.0
 20
0.0
 30
0.0
  0
TEXT
  5
397
330
46D
100
AcDbEntity
  8
2
100
AcDbText
 10
39.743403
 20
24.48275
 30
0.0
 40
3.5
  1
L=45 
100
AcDbText
  0
INSERT
  5
398
330
46D
100
AcDbEntity
  8
2
100
AcDbBlockReference
  2
*D2
 10
0.0
 20
0.0
 30
0.0
  0
ENDSEC
  0
SECTION
  2
OBJECTS
  0
DICTIONARY
  5
409
330
0
100
AcDbDictionary
281
     1
  3
ACAD_CIP_PREVIOUS_PRODUCT_INFO
350
4A1
  3
ACAD_COLOR
350
45F
  3
ACAD_DETAILVIEWSTYLE
350
467
  3
ACAD_GROUP
350
40A
  3
ACAD_LAYOUT
350
45E
  3
ACAD_MATERIAL
350
40D
  3
ACAD_MLEADERSTYLE
350
462
  3
ACAD_MLINESTYLE
350
45B
  3
ACAD_PLOTSETTINGS
350
45D
  3
ACAD_PLOTSTYLENAME
350
40B
  3
ACAD_SCALELIST
350
43F
  3
ACAD_SECTIONVIEWSTYLE
350
464
  3
ACAD_TABLESTYLE
350
460
  3
ACAD_VISUALSTYLE
350
426
  3
ACDB_RECOMPOSE_DATA
350
4FD
  3
AcDbVariableDictionary
350
4F0
  3
DWGPROPS
350
4FE
  0
DICTIONARY
  5
4A4
330
451
100
AcDbDictionary
280
     1
281
     1
  3
ADSK_XREC_LAYER_RECONCILED
360
4A5
  0
DICTIONARY
  5
4A6
330
471
100
AcDbDictionary
280
     1
281
     1
  3
ADSK_XREC_LAYER_RECONCILED
360
4A7
  0
DICTIONARY
  5
4A8
330
475
100
AcDbDictionary
280
     1
281
     1
  3
ADSK_XREC_LAYER_RECONCILED
360
4A9
  0
DICTIONARY
  5
4AA
330
476
100
AcDbDictionary
280
     1
281
     1
  3
ADSK_XREC_LAYER_RECONCILED
360
4AB
  0
DICTIONARY
  5
4AC
330
477
100
AcDbDictionary
280
     1
281
     1
  3
ADSK_XREC_LAYER_RECONCILED
360
4AD
  0
DICTIONARY
  5
4AE
330
478
100
AcDbDictionary
280
     1
281
     1
  3
ADSK_XREC_LAYER_RECONCILED
360
4AF
  0
DICTIONARY
  5
4B0
330
479
100
AcDbDictionary
280
     1
281
     1
  3
ADSK_XREC_LAYER_RECONCILED
360
4B1
  0
DICTIONARY
  5
4B2
330
47A
100
AcDbDictionary
280
     1
281
     1
  3
ADSK_XREC_LAYER_RECONCILED
360
4B3
  0
DICTIONARY
  5
4B4
330
47B
100
AcDbDictionary
280
     1
281
     1
  3
ADSK_XREC_LAYER_RECONCILED
360
4B5
  0
DICTIONARY
  5
4B6
330
47C
100
AcDbDictionary
280
     1
281
     1
  3
ADSK_XREC_LAYER_RECONCILED
360
4B7
  0
DICTIONARY
  5
4B8
330
47D
100
AcDbDictionary
280
     1
281
     1
  3
ADSK_XREC_LAYER_RECONCILED
360
4B9
  0
DICTIONARY
  5
4BA
330
47E
100
AcDbDictionary
280
     1
281
     1
  3
ADSK_XREC_LAYER_RECONCILED
360
4BB
  0
DICTIONARY
  5
4BC
330
47F
100
AcDbDictionary
280
     1
281
     1
  3
ADSK_XREC_LAYER_RECONCILED
360
4BD
  0
DICTIONARY
  5
4BE
330
480
100
AcDbDictionary
280
     1
281
     1
  3
ADSK_XREC_LAYER_RECONCILED
360
4BF
  0
DICTIONARY
  5
4C0
330
481
100
AcDbDictionary
280
     1
281
     1
  3
ADSK_XREC_LAYER_RECONCILED
360
4C1
  0
DICTIONARY
  5
4C2
330
482
100
AcDbDictionary
280
     1
281
     1
  3
ADSK_XREC_LAYER_RECONCILED
360
4C3
  0
DICTIONARY
  5
4C4
330
483
100
AcDbDictionary
280
     1
281
     1
  3
ADSK_XREC_LAYER_RECONCILED
360
4C5
  0
DICTIONARY
  5
4C6
330
484
100
AcDbDictionary
280
     1
281
     1
  3
ADSK_XREC_LAYER_RECONCILED
360
4C7
  0
DICTIONARY
  5
4C8
330
485
100
AcDbDictionary
280
     1
281
     1
  3
ADSK_XREC_LAYER_RECONCILED
360
4C9
  0
DICTIONARY
  5
4CA
330
486
100
AcDbDictionary
280
     1
281
     1
  3
ADSK_XREC_LAYER_RECONCILED
360
4CB
  0
DICTIONARY
  5
4CC
330
487
100
AcDbDictionary
280
     1
281
     1
  3
ADSK_XREC_LAYER_RECONCILED
360
4CD
  0
DICTIONARY
  5
4CE
330
488
100
AcDbDictionary
280
     1
281
     1
  3
ADSK_XREC_LAYER_RECONCILED
360
4CF
  0
DICTIONARY
  5
4D0
330
489
100
AcDbDictionary
280
     1
281
     1
  3
ADSK_XREC_LAYER_RECONCILED
360
4D1
  0
DICTIONARY
  5
4D2
330
48A
100
AcDbDictionary
280
     1
281
     1
  3
ADSK_XREC_LAYER_RECONCILED
360
4D3
  0
DICTIONARY
  5
4D4
330
48B
100
AcDbDictionary
280
     1
281
     1
  3
ADSK_XREC_LAYER_RECONCILED
360
4D5
  0
DICTIONARY
  5
4D6
330
48C
100
AcDbDictionary
280
     1
281
     1
  3
ADSK_XREC_LAYER_RECONCILED
360
4D7
  0
DICTIONARY
  5
4D8
330
48D
100
AcDbDictionary
280
     1
281
     1
  3
ADSK_XREC_LAYER_RECONCILED
360
4D9
  0
DICTIONARY
  5
4DA
330
48E
100
AcDbDictionary
280
     1
281
     1
  3
ADSK_XREC_LAYER_RECONCILED
360
4DB
  0
DICTIONARY
  5
4DC
330
48F
100
AcDbDictionary
280
     1
281
     1
  3
ADSK_XREC_LAYER_RECONCILED
360
4DD
  0
DICTIONARY
  5
4DE
330
490
100
AcDbDictionary
280
     1
281
     1
  3
ADSK_XREC_LAYER_RECONCILED
360
4DF
  0
DICTIONARY
  5
4E0
330
491
100
AcDbDictionary
280
     1
281
     1
  3
ADSK_XREC_LAYER_RECONCILED
360
4E1
  0
DICTIONARY
  5
4E2
330
492
100
AcDbDictionary
280
     1
281
     1
  3
ADSK_XREC_LAYER_RECONCILED
360
4E3
  0
DICTIONARY
  5
4E4
330
493
100
AcDbDictionary
280
     1
281
     1
  3
ADSK_XREC_LAYER_RECONCILED
360
4E5
  0
DICTIONARY
  5
4E6
330
494
100
AcDbDictionary
280
     1
281
     1
  3
ADSK_XREC_LAYER_RECONCILED
360
4E7
  0
DICTIONARY
  5
4E8
330
495
100
AcDbDictionary
280
     1
281
     1
  3
ADSK_XREC_LAYER_RECONCILED
360
4E9
  0
DICTIONARY
  5
4EA
330
496
100
AcDbDictionary
280
     1
281
     1
  3
ADSK_XREC_LAYER_RECONCILED
360
4EB
  0
DICTIONARY
  5
4EC
330
497
100
AcDbDictionary
280
     1
281
     1
  3
ADSK_XREC_LAYER_RECONCILED
360
4ED
  0
DICTIONARY
  5
4EE
330
498
100
AcDbDictionary
280
     1
281
     1
  3
ADSK_XREC_LAYER_RECONCILED
360
4EF
  0
XRECORD
  5
4A1
102
{ACAD_REACTORS
330
409
102
}
330
409
100
AcDbXrecord
280
     1
300
AMECH_PP
300
2013
300
PDSU_F_S
  0
DICTIONARY
  5
45F
102
{ACAD_REACTORS
330
409
102
}
330
409
100
AcDbDictionary
281
     1
  0
DICTIONARY
  5
467
102
{ACAD_REACTORS
330
409
102
}
330
409
100
AcDbDictionary
281
     1
  3
Imperial24
350
468
  0
DICTIONARY
  5
40A
102
{ACAD_REACTORS
330
409
102
}
330
409
100
AcDbDictionary
281
     1
  0
DICTIONARY
  5
45E
102
{ACAD_REACTORS
330
409
102
}
330
409
100
AcDbDictionary
281
     1
  3
Layout1
350
46C
  3
Model
350
470
  0
DICTIONARY
  5
40D
102
{ACAD_REACTORS
330
409
102
}
330
409
100
AcDbDictionary
281
     1
  3
ByBlock
350
416
  3
ByLayer
350
40E
  3
Global
350
41E
  0
DICTIONARY
  5
462
102
{ACAD_REACTORS
330
409
102
}
330
409
100
AcDbDictionary
281
     1
  3
Standard
350
463
  0
DICTIONARY
  5
45B
102
{ACAD_REACTORS
330
409
102
}
330
409
100
AcDbDictionary
281
     1
  3
Standard
350
45C
  0
DICTIONARY
  5
45D
102
{ACAD_REACTORS
330
409
102
}
330
409
100
AcDbDictionary
281
     1
  0
ACDBDICTIONARYWDFLT
  5
40B
102
{ACAD_REACTORS
330
409
102
}
330
409
100
AcDbDictionary
281
     1
  3
Normal
350
40C
100
AcDbDictionaryWithDefault
340
40C
  0
DICTIONARY
  5
43F
102
{ACAD_REACTORS
330
409
102
}
330
409
100
AcDbDictionary
281
     1
  3
A0
350
440
  3
A1
350
441
  3
A2
350
442
  3
A3
350
443
  3
A4
350
444
  3
A5
350
445
  3
A6
350
446
  3
A7
350
447
  3
A8
350
448
  3
A9
350
449
  3
B0
350
44A
  3
B1
350
44B
  3
B2
350
44C
  3
B3
350
44D
  3
B4
350
44E
  3
B5
350
44F
  3
B6
350
450
  0
DICTIONARY
  5
464
102
{ACAD_REACTORS
330
409
102
}
330
409
100
AcDbDictionary
281
     1
  3
Imperial24
350
466
  0
DICTIONARY
  5
460
102
{ACAD_REACTORS
330
409
102
}
330
409
100
AcDbDictionary
281
     1
  3
Standard
350
461
  0
DICTIONARY
  5
426
102
{ACAD_REACTORS
330
409
102
}
330
409
100
AcDbDictionary
281
     1
  3
2dWireframe
350
42C
  3
Basic
350
42B
  3
Brighten
350
432
  3
ColorChange
350
436
  3
Conceptual
350
42F
  3
Dim
350
431
  3
EdgeColorOff
350
43E
  3
Facepattern
350
435
  3
Flat
350
427
  3
FlatWithEdges
350
428
  3
Gouraud
350
429
  3
GouraudWithEdges
350
42A
  3
Hidden
350
42E
  3
JitterOff
350
43C
  3
Linepattern
350
434
  3
OverhangOff
350
43D
  3
Realistic
350
430
  3
Shaded
350
43B
  3
Shaded with edges
350
43A
  3
Shades of Gray
350
437
  3
Sketchy
350
438
  3
Thicken
350
433
  3
Wireframe
350
42D
  3
X-Ray
350
439
  0
XRECORD
  5
4FD
102
{ACAD_REACTORS
330
409
102
}
330
409
100
AcDbXrecord
280
     1
 90
        1
330
461
  0
DICTIONARY
  5
4F0
102
{ACAD_REACTORS
330
409
102
}
330
409
100
AcDbDictionary
281
     1
  3
CANNOSCALE
350
4F5
  3
CMLEADERSTYLE
350
4F2
  3
CTABLESTYLE
350
4F1
  3
CVIEWDETAILSTYLE
350
4F3
  3
CVIEWSECTIONSTYLE
350
4F4
  3
DIMASSOC
350
4F8
  3
INDEXCTL
350
4F7
  3
SORTENTS
350
4F6
  3
XCLIPFRAME
350
4F9
  0
XRECORD
  5
4FE
102
{ACAD_REACTORS
330
409
102
}
330
409
100
AcDbXrecord
280
     1
  1
DWGPROPS COOKIE
  2

  3

  4

  6

  7

  8
Micke
  9

300
=
301
=
302
=
303
=
304
=
305
=
306
=
307
=
308
=
309
=
 40
0.0000040509259259
 41
2456818.319586007
 42
2456818.31959
  1

 90
        0
  0
XRECORD
  5
4A5
102
{ACAD_REACTORS
330
4A4
102
}
330
4A4
100
AcDbXrecord
280
     1
290
     1
  0
XRECORD
  5
4A7
102
{ACAD_REACTORS
330
4A6
102
}
330
4A6
100
AcDbXrecord
280
     1
290
     1
  0
XRECORD
  5
4A9
102
{ACAD_REACTORS
330
4A8
102
}
330
4A8
100
AcDbXrecord
280
     1
290
     1
  0
XRECORD
  5
4AB
102
{ACAD_REACTORS
330
4AA
102
}
330
4AA
100
AcDbXrecord
280
     1
290
     1
  0
XRECORD
  5
4AD
102
{ACAD_REACTORS
330
4AC
102
}
330
4AC
100
AcDbXrecord
280
     1
290
     1
  0
XRECORD
  5
4AF
102
{ACAD_REACTORS
330
4AE
102
}
330
4AE
100
AcDbXrecord
280
     1
290
     1
  0
XRECORD
  5
4B1
102
{ACAD_REACTORS
330
4B0
102
}
330
4B0
100
AcDbXrecord
280
     1
290
     1
  0
XRECORD
  5
4B3
102
{ACAD_REACTORS
330
4B2
102
}
330
4B2
100
AcDbXrecord
280
     1
290
     1
  0
XRECORD
  5
4B5
102
{ACAD_REACTORS
330
4B4
102
}
330
4B4
100
AcDbXrecord
280
     1
290
     1
  0
XRECORD
  5
4B7
102
{ACAD_REACTORS
330
4B6
102
}
330
4B6
100
AcDbXrecord
280
     1
290
     1
  0
XRECORD
  5
4B9
102
{ACAD_REACTORS
330
4B8
102
}
330
4B8
100
AcDbXrecord
280
     1
290
     1
  0
XRECORD
  5
4BB
102
{ACAD_REACTORS
330
4BA
102
}
330
4BA
100
AcDbXrecord
280
     1
290
     1
  0
XRECORD
  5
4BD
102
{ACAD_REACTORS
330
4BC
102
}
330
4BC
100
AcDbXrecord
280
     1
290
     1
  0
XRECORD
  5
4BF
102
{ACAD_REACTORS
330
4BE
102
}
330
4BE
100
AcDbXrecord
280
     1
290
     1
  0
XRECORD
  5
4C1
102
{ACAD_REACTORS
330
4C0
102
}
330
4C0
100
AcDbXrecord
280
     1
290
     1
  0
XRECORD
  5
4C3
102
{ACAD_REACTORS
330
4C2
102
}
330
4C2
100
AcDbXrecord
280
     1
290
     1
  0
XRECORD
  5
4C5
102
{ACAD_REACTORS
330
4C4
102
}
330
4C4
100
AcDbXrecord
280
     1
290
     1
  0
XRECORD
  5
4C7
102
{ACAD_REACTORS
330
4C6
102
}
330
4C6
100
AcDbXrecord
280
     1
290
     1
  0
XRECORD
  5
4C9
102
{ACAD_REACTORS
330
4C8
102
}
330
4C8
100
AcDbXrecord
280
     1
290
     1
  0
XRECORD
  5
4CB
102
{ACAD_REACTORS
330
4CA
102
}
330
4CA
100
AcDbXrecord
280
     1
290
     1
  0
XRECORD
  5
4CD
102
{ACAD_REACTORS
330
4CC
102
}
330
4CC
100
AcDbXrecord
280
     1
290
     1
  0
XRECORD
  5
4CF
102
{ACAD_REACTORS
330
4CE
102
}
330
4CE
100
AcDbXrecord
280
     1
290
     1
  0
XRECORD
  5
4D1
102
{ACAD_REACTORS
330
4D0
102
}
330
4D0
100
AcDbXrecord
280
     1
290
     1
  0
XRECORD
  5
4D3
102
{ACAD_REACTORS
330
4D2
102
}
330
4D2
100
AcDbXrecord
280
     1
290
     1
  0
XRECORD
  5
4D5
102
{ACAD_REACTORS
330
4D4
102
}
330
4D4
100
AcDbXrecord
280
     1
290
     1
  0
XRECORD
  5
4D7
102
{ACAD_REACTORS
330
4D6
102
}
330
4D6
100
AcDbXrecord
280
     1
290
     1
  0
XRECORD
  5
4D9
102
{ACAD_REACTORS
330
4D8
102
}
330
4D8
100
AcDbXrecord
280
     1
290
     1
  0
XRECORD
  5
4DB
102
{ACAD_REACTORS
330
4DA
102
}
330
4DA
100
AcDbXrecord
280
     1
290
     1
  0
XRECORD
  5
4DD
102
{ACAD_REACTORS
330
4DC
102
}
330
4DC
100
AcDbXrecord
280
     1
290
     1
  0
XRECORD
  5
4DF
102
{ACAD_REACTORS
330
4DE
102
}
330
4DE
100
AcDbXrecord
280
     1
290
     1
  0
XRECORD
  5
4E1
102
{ACAD_REACTORS
330
4E0
102
}
330
4E0
100
AcDbXrecord
280
     1
290
     1
  0
XRECORD
  5
4E3
102
{ACAD_REACTORS
330
4E2
102
}
330
4E2
100
AcDbXrecord
280
     1
290
     1
  0
XRECORD
  5
4E5
102
{ACAD_REACTORS
330
4E4
102
}
330
4E4
100
AcDbXrecord
280
     1
290
     1
  0
XRECORD
  5
4E7
102
{ACAD_REACTORS
330
4E6
102
}
330
4E6
100
AcDbXrecord
280
     1
290
     1
  0
XRECORD
  5
4E9
102
{ACAD_REACTORS
330
4E8
102
}
330
4E8
100
AcDbXrecord
280
     1
290
     1
  0
XRECORD
  5
4EB
102
{ACAD_REACTORS
330
4EA
102
}
330
4EA
100
AcDbXrecord
280
     1
290
     1
  0
XRECORD
  5
4ED
102
{ACAD_REACTORS
330
4EC
102
}
330
4EC
100
AcDbXrecord
280
     1
290
     1
  0
XRECORD
  5
4EF
102
{ACAD_REACTORS
330
4EE
102
}
330
4EE
100
AcDbXrecord
280
     1
290
     1
  0
ACDBDETAILVIEWSTYLE
  5
468
102
{ACAD_REACTORS
330
467
102
}
330
467
100
AcDbModelDocViewStyle
 70
     0
  3
Imperial24
290
     0
100
AcDbDetailViewStyle
 70
     0
 71
     0
 90
        3
 71
     1
340
452
 40
0.24
340
0
 40
0.24
300

 40
0.36
280
     3
 71
     2
340
459
 90
       25
 71
     3
340
452
 40
0.24
 90
        1
 40
0.75
 90
        1
300
%<\AcVar ViewType \f "%tc1">% %<\AcVar ViewDetailId>%\PSCALE %<\AcVar ViewScale \f "%sn">%
 71
     4
340
459
 90
       25
340
459
 90
       25
280
     0
  0
LAYOUT
  5
46C
102
{ACAD_XDICTIONARY
360
534
102
}
102
{ACAD_REACTORS
330
45E
102
}
330
45E
100
AcDbPlotSettings
  1

  2
Brother DCP-9020CDW Printer
  4

  6

 40
0.0
 41
0.0
 42
0.0
 43
0.0
 44
0.0
 45
0.0
 46
0.0
 47
0.0
 48
0.0
 49
0.0
140
0.0
141
0.0
142
1.0
143
1.0
 70
   688
 72
     0
 73
     0
 74
     5
  7

 75
    16
147
1.0
148
0.0
149
0.0
100
AcDbLayout
  1
Layout1
 70
     1
 71
     1
 10
0.0
 20
0.0
 11
12.0
 21
9.0
 12
0.0
 22
0.0
 32
0.0
 14
1.000000000000000E+20
 24
1.000000000000000E+20
 34
1.000000000000000E+20
 15
-1.000000000000000E+20
 25
-1.000000000000000E+20
 35
-1.000000000000000E+20
146
0.0
 13
0.0
 23
0.0
 33
0.0
 16
1.0
 26
0.0
 36
0.0
 17
0.0
 27
1.0
 37
0.0
 76
     0
330
469
  0
LAYOUT
  5
470
102
{ACAD_XDICTIONARY
360
536
102
}
102
{ACAD_REACTORS
330
45E
102
}
330
45E
100
AcDbPlotSettings
  1

  2
Brother DCP-9020CDW Printer
  4

  6

 40
0.0
 41
0.0
 42
0.0
 43
0.0
 44
0.0
 45
0.0
 46
0.0
 47
0.0
 48
0.0
 49
0.0
140
0.0
141
0.0
142
1.0
143
1.0
 70
  1712
 72
     0
 73
     0
 74
     0
  7

 75
     0
147
1.0
148
0.0
149
0.0
100
AcDbLayout
  1
Model
 70
     1
 71
     0
 10
0.0
 20
0.0
 11
12.0
 21
9.0
 12
0.0
 22
0.0
 32
0.0
 14
0.0
 24
0.0
 34
0.0
 15
0.0
 25
0.0
 35
0.0
146
0.0
 13
0.0
 23
0.0
 33
0.0
 16
1.0
 26
0.0
 36
0.0
 17
0.0
 27
1.0
 37
0.0
 76
     0
330
46D
331
49C
  0
MATERIAL
  5
416
102
{ACAD_XDICTIONARY
360
417
102
}
102
{ACAD_REACTORS
330
40D
102
}
330
40D
100
AcDbMaterial
  1
ByBlock
 72
     0
 43
0.0208333333333333
 43
0.0
 43
0.0
 43
0.0
 43
0.0
 43
0.0208333333333333
 43
0.0
 43
0.0
 43
0.0
 43
0.0
 43
1.0
 43
0.0
 43
0.0
 43
0.0
 43
0.0
 43
1.0
 77
     0
 47
0.0208333333333333
 47
0.0
 47
0.0
 47
0.0
 47
0.0
 47
0.0208333333333333
 47
0.0
 47
0.0
 47
0.0
 47
0.0
 47
1.0
 47
0.0
 47
0.0
 47
0.0
 47
0.0
 47
1.0
171
     0
 49
0.0208333333333333
 49
0.0
 49
0.0
 49
0.0
 49
0.0
 49
0.0208333333333333
 49
0.0
 49
0.0
 49
0.0
 49
0.0
 49
1.0
 49
0.0
 49
0.0
 49
0.0
 49
0.0
 49
1.0
175
     0
142
0.0208333333333333
142
0.0
142
0.0
142
0.0
142
0.0
142
0.0208333333333333
142
0.0
142
0.0
142
0.0
142
0.0
142
1.0
142
0.0
142
0.0
142
0.0
142
0.0
142
1.0
179
     0
144
0.0208333333333333
144
0.0
144
0.0
144
0.0
144
0.0
144
0.0208333333333333
144
0.0
144
0.0
144
0.0
144
0.0
144
1.0
144
0.0
144
0.0
144
0.0
144
0.0
144
1.0
147
0.0208333333333333
147
0.0
147
0.0
147
0.0
147
0.0
147
0.0208333333333333
147
0.0
147
0.0
147
0.0
147
0.0
147
1.0
147
0.0
147
0.0
147
0.0
147
0.0
147
1.0
  0
MATERIAL
  5
40E
102
{ACAD_XDICTIONARY
360
40F
102
}
102
{ACAD_REACTORS
330
40D
102
}
330
40D
100
AcDbMaterial
  1
ByLayer
 72
     0
 43
0.0208333333333333
 43
0.0
 43
0.0
 43
0.0
 43
0.0
 43
0.0208333333333333
 43
0.0
 43
0.0
 43
0.0
 43
0.0
 43
1.0
 43
0.0
 43
0.0
 43
0.0
 43
0.0
 43
1.0
 77
     0
 47
0.0208333333333333
 47
0.0
 47
0.0
 47
0.0
 47
0.0
 47
0.0208333333333333
 47
0.0
 47
0.0
 47
0.0
 47
0.0
 47
1.0
 47
0.0
 47
0.0
 47
0.0
 47
0.0
 47
1.0
171
     0
 49
0.0208333333333333
 49
0.0
 49
0.0
 49
0.0
 49
0.0
 49
0.0208333333333333
 49
0.0
 49
0.0
 49
0.0
 49
0.0
 49
1.0
 49
0.0
 49
0.0
 49
0.0
 49
0.0
 49
1.0
175
     0
142
0.0208333333333333
142
0.0
142
0.0
142
0.0
142
0.0
142
0.0208333333333333
142
0.0
142
0.0
142
0.0
142
0.0
142
1.0
142
0.0
142
0.0
142
0.0
142
0.0
142
1.0
179
     0
144
0.0208333333333333
144
0.0
144
0.0
144
0.0
144
0.0
144
0.0208333333333333
144
0.0
144
0.0
144
0.0
144
0.0
144
1.0
144
0.0
144
0.0
144
0.0
144
0.0
144
1.0
147
0.0208333333333333
147
0.0
147
0.0
147
0.0
147
0.0
147
0.0208333333333333
147
0.0
147
0.0
147
0.0
147
0.0
147
1.0
147
0.0
147
0.0
147
0.0
147
0.0
147
1.0
  0
MATERIAL
  5
41E
102
{ACAD_XDICTIONARY
360
41F
102
}
102
{ACAD_REACTORS
330
40D
102
}
330
40D
100
AcDbMaterial
  1
Global
 72
     0
 43
0.0208333333333333
 43
0.0
 43
0.0
 43
0.0
 43
0.0
 43
0.0208333333333333
 43
0.0
 43
0.0
 43
0.0
 43
0.0
 43
1.0
 43
0.0
 43
0.0
 43
0.0
 43
0.0
 43
1.0
 77
     0
 47
0.0208333333333333
 47
0.0
 47
0.0
 47
0.0
 47
0.0
 47
0.0208333333333333
 47
0.0
 47
0.0
 47
0.0
 47
0.0
 47
1.0
 47
0.0
 47
0.0
 47
0.0
 47
0.0
 47
1.0
171
     0
 49
0.0208333333333333
 49
0.0
 49
0.0
 49
0.0
 49
0.0
 49
0.0208333333333333
 49
0.0
 49
0.0
 49
0.0
 49
0.0
 49
1.0
 49
0.0
 49
0.0
 49
0.0
 49
0.0
 49
1.0
175
     0
142
0.0208333333333333
142
0.0
142
0.0
142
0.0
142
0.0
142
0.0208333333333333
142
0.0
142
0.0
142
0.0
142
0.0
142
1.0
142
0.0
142
0.0
142
0.0
142
0.0
142
1.0
179
     0
144
0.0208333333333333
144
0.0
144
0.0
144
0.0
144
0.0
144
0.0208333333333333
144
0.0
144
0.0
144
0.0
144
0.0
144
1.0
144
0.0
144
0.0
144
0.0
144
0.0
144
1.0
147
0.0208333333333333
147
0.0
147
0.0
147
0.0
147
0.0
147
0.0208333333333333
147
0.0
147
0.0
147
0.0
147
0.0
147
1.0
147
0.0
147
0.0
147
0.0
147
0.0
147
1.0
  0
MLEADERSTYLE
  5
463
102
{ACAD_REACTORS
330
462
102
}
330
462
100
AcDbMLeaderStyle
170
     2
171
     1
172
     0
 90
        2
 40
0.0
 41
0.0
173
     1
 91
-1056964608
340
457
 92
       -2
290
     1
 42
0.09
291
     1
 43
0.36
  3
Standard
 44
0.18
300

342
452
174
     1
178
     6
175
     1
176
     0
 93
-1056964608
 45
0.18
292
     0
297
     0
 46
0.18
 94
-1056964608
 47
1.0
 49
1.0
140
1.0
293
     1
141
0.0
294
     1
177
     0
142
1.0
295
     0
296
     0
143
0.125
1001
ACAD_MLEADERVER
1070
     2
  0
MLINESTYLE
  5
45C
102
{ACAD_REACTORS
330
45B
102
}
330
45B
100
AcDbMlineStyle
  2
STANDARD
 70
     0
  3

 62
   256
 51
90.0
 52
90.0
 71
     2
 49
0.5
 62
   256
  6
BYLAYER
 49
-0.5
 62
   256
  6
BYLAYER
  0
ACDBPLACEHOLDER
  5
40C
102
{ACAD_REACTORS
330
40B
102
}
330
40B
  0
SCALE
  5
440
102
{ACAD_REACTORS
330
43F
102
}
330
43F
100
AcDbScale
 70
     0
300
1:1
140
1.0
141
1.0
290
     1
  0
SCALE
  5
441
102
{ACAD_REACTORS
330
43F
102
}
330
43F
100
AcDbScale
 70
     0
300
1/128" = 1'-0"
140
0.0078125
141
12.0
290
     0
  0
SCALE
  5
442
102
{ACAD_REACTORS
330
43F
102
}
330
43F
100
AcDbScale
 70
     0
300
1/64" = 1'-0"
140
0.015625
141
12.0
290
     0
  0
SCALE
  5
443
102
{ACAD_REACTORS
330
43F
102
}
330
43F
100
AcDbScale
 70
     0
300
1/32" = 1'-0"
140
0.03125
141
12.0
290
     0
  0
SCALE
  5
444
102
{ACAD_REACTORS
330
43F
102
}
330
43F
100
AcDbScale
 70
     0
300
1/16" = 1'-0"
140
0.0625
141
12.0
290
     0
  0
SCALE
  5
445
102
{ACAD_REACTORS
330
43F
102
}
330
43F
100
AcDbScale
 70
     0
300
3/32" = 1'-0"
140
0.09375
141
12.0
290
     0
  0
SCALE
  5
446
102
{ACAD_REACTORS
330
43F
102
}
330
43F
100
AcDbScale
 70
     0
300
1/8" = 1'-0"
140
0.125
141
12.0
290
     0
  0
SCALE
  5
447
102
{ACAD_REACTORS
330
43F
102
}
330
43F
100
AcDbScale
 70
     0
300
3/16" = 1'-0"
140
0.1875
141
12.0
290
     0
  0
SCALE
  5
448
102
{ACAD_REACTORS
330
43F
102
}
330
43F
100
AcDbScale
 70
     0
300
1/4" = 1'-0"
140
0.25
141
12.0
290
     0
  0
SCALE
  5
449
102
{ACAD_REACTORS
330
43F
102
}
330
43F
100
AcDbScale
 70
     0
300
3/8" = 1'-0"
140
0.375
141
12.0
290
     0
  0
SCALE
  5
44A
102
{ACAD_REACTORS
330
43F
102
}
330
43F
100
AcDbScale
 70
     0
300
1/2" = 1'-0"
140
0.5
141
12.0
290
     0
  0
SCALE
  5
44B
102
{ACAD_REACTORS
330
43F
102
}
330
43F
100
AcDbScale
 70
     0
300
3/4" = 1'-0"
140
0.75
141
12.0
290
     0
  0
SCALE
  5
44C
102
{ACAD_REACTORS
330
43F
102
}
330
43F
100
AcDbScale
 70
     0
300
1" = 1'-0"
140
1.0
141
12.0
290
     0
  0
SCALE
  5
44D
102
{ACAD_REACTORS
330
43F
102
}
330
43F
100
AcDbScale
 70
     0
300
1-1/2" = 1'-0"
140
1.5
141
12.0
290
     0
  0
SCALE
  5
44E
102
{ACAD_REACTORS
330
43F
102
}
330
43F
100
AcDbScale
 70
     0
300
3" = 1'-0"
140
3.0
141
12.0
290
     0
  0
SCALE
  5
44F
102
{ACAD_REACTORS
330
43F
102
}
330
43F
100
AcDbScale
 70
     0
300
6" = 1'-0"
140
6.0
141
12.0
290
     0
  0
SCALE
  5
450
102
{ACAD_REACTORS
330
43F
102
}
330
43F
100
AcDbScale
 70
     0
300
1'-0" = 1'-0"
140
12.0
141
12.0
290
     0
  0
ACDBSECTIONVIEWSTYLE
  5
466
102
{ACAD_REACTORS
330
464
102
}
330
464
100
AcDbModelDocViewStyle
 70
     0
  3
Imperial24
290
     0
100
AcDbSectionViewStyle
 70
     0
 71
     0
 90
       78
 71
     1
340
452
 40
0.24
340
0
340
0
 40
0.24
300
I, O, Q, S, X, Z
 40
0.48
 90
        3
 40
0.18
 90
        1
 71
     2
340
465
 90
       25
340
459
 90
       50
 40
0.24
 40
0.0
 40
0.24
 71
     3
340
452
 40
0.24
 90
        1
 40
0.75
 90
        1
300
%<\AcVar ViewType \f "%tc1">% %<\AcVar ViewSectionStartId>%-%<\AcVar ViewSectionEndId>%\PSCALE %<\AcVar ViewScale \f "%sn">%
 71
     4
300
ANSI31
 40
1.0
 90
        0
290
     0
290
     0
 90
        6
 40
0.0
 40
1.570796326794896
 40
0.2617993877991494
 40
1.308996938995747
 40
-0.2617993877991494
 40
1.832595714594046
  0
TABLESTYLE
  5
461
102
{ACAD_XDICTIONARY
360
4FB
102
}
102
{ACAD_REACTORS
330
460
102
}
330
460
100
AcDbTableStyle
  3
Standard
 70
     0
 71
     0
 40
0.06
 41
0.06
280
     0
281
     0
  7
STANDARD
140
0.18
170
     2
 62
     0
 63
     7
283
     0
274
    -2
284
     1
 64
     0
275
    -2
285
     1
 65
     0
276
    -2
286
     1
 66
     0
277
    -2
287
     1
 67
     0
278
    -2
288
     1
 68
     0
279
    -2
289
     1
 69
     0
  7
STANDARD
140
0.25
170
     5
 62
     0
 63
     7
283
     0
274
    -2
284
     1
 64
     0
275
    -2
285
     1
 65
     0
276
    -2
286
     1
 66
     0
277
    -2
287
     1
 67
     0
278
    -2
288
     1
 68
     0
279
    -2
289
     1
 69
     0
  7
STANDARD
140
0.18
170
     5
 62
     0
 63
     7
283
     0
274
    -2
284
     1
 64
     0
275
    -2
285
     1
 65
     0
276
    -2
286
     1
 66
     0
277
    -2
287
     1
 67
     0
278
    -2
288
     1
 68
     0
279
    -2
289
     1
 69
     0
  0
VISUALSTYLE
  5
42C
102
{ACAD_XDICTIONARY
360
50C
102
}
102
{ACAD_REACTORS
330
426
102
}
330
426
100
AcDbVisualStyle
  2
2dWireframe
 70
     4
 71
     0
 72
     2
 73
     0
 90
        0
 40
-0.6
 41
-30.0
 62
     5
 63
     7
 74
     1
 91
        4
 64
     7
 65
   257
 75
     1
175
     1
 42
1.0
 92
        0
 66
   257
 43
1.0
 76
     1
 77
     6
 78
     2
 67
     7
 79
     5
170
     0
171
     0
290
     0
174
     0
 93
        1
 44
0.0
173
     0
291
     0
 45
0.0
1001
ACAD
1000
AcDbSavedByObjectVersion
1070
     0
  0
VISUALSTYLE
  5
42B
102
{ACAD_XDICTIONARY
360
50A
102
}
102
{ACAD_REACTORS
330
426
102
}
330
426
100
AcDbVisualStyle
  2
Basic
 70
     7
 71
     1
 72
     0
 73
     1
 90
        0
 40
-0.6
 41
-30.0
 62
     5
 63
     7
 74
     0
 91
        4
 64
     7
 65
   257
 75
     1
175
     1
 42
1.0
 92
        8
 66
     7
 43
1.0
 76
     1
 77
     6
 78
     2
 67
     7
 79
     5
170
     0
171
     0
290
     0
174
     0
 93
        1
 44
0.0
173
     0
291
     1
 45
0.0
1001
ACAD
1000
AcDbSavedByObjectVersion
1070
     0
  0
VISUALSTYLE
  5
432
102
{ACAD_XDICTIONARY
360
518
102
}
102
{ACAD_REACTORS
330
426
102
}
330
426
100
AcDbVisualStyle
  2
Brighten
 70
    12
 71
     2
 72
     2
 73
     0
 90
        0
 40
-0.6
 41
-30.0
 62
     5
 63
     7
 74
     1
 91
        4
 64
     7
 65
   257
 75
     1
175
     1
 42
1.0
 92
        8
 66
     7
 43
1.0
 76
     1
 77
     6
 78
     2
 67
     7
 79
     5
170
     0
171
     0
290
     0
174
     0
 93
        1
 44
50.0
173
     0
291
     1
 45
0.0
1001
ACAD
1000
AcDbSavedByObjectVersion
1070
     0
  0
VISUALSTYLE
  5
436
102
{ACAD_XDICTIONARY
360
520
102
}
102
{ACAD_REACTORS
330
426
102
}
330
426
100
AcDbVisualStyle
  2
ColorChange
 70
    16
 71
     2
 72
     2
 73
     3
 90
        0
 40
-0.6
 41
-30.0
 62
     5
 63
     8
 74
     1
 91
        4
 64
     7
 65
   257
 75
     1
175
     1
 42
1.0
 92
        8
 66
     8
 43
1.0
 76
     1
 77
     6
 78
     2
 67
     7
 79
     5
170
     0
171
     0
290
     0
174
     0
 93
        1
 44
0.0
173
     0
291
     1
 45
0.0
1001
ACAD
1000
AcDbSavedByObjectVersion
1070
     0
  0
VISUALSTYLE
  5
42F
102
{ACAD_XDICTIONARY
360
512
102
}
102
{ACAD_REACTORS
330
426
102
}
330
426
100
AcDbVisualStyle
  2
Conceptual
 70
     9
 71
     3
 72
     2
 73
     0
 90
        0
 40
-0.6
 41
-30.0
 62
     5
 63
     7
 74
     2
 91
        2
 64
     7
 65
   257
 75
     1
175
     1
 42
179.0
 92
        8
 66
     7
 43
1.0
 76
     1
 77
     6
 78
     2
 67
     7
 79
     3
170
     0
171
     0
290
     0
174
     0
 93
        1
 44
0.0
173
     0
291
     0
 45
0.0
1001
ACAD
1000
AcDbSavedByObjectVersion
1070
     0
  0
VISUALSTYLE
  5
431
102
{ACAD_XDICTIONARY
360
516
102
}
102
{ACAD_REACTORS
330
426
102
}
330
426
100
AcDbVisualStyle
  2
Dim
 70
    11
 71
     2
 72
     2
 73
     0
 90
        0
 40
-0.6
 41
-30.0
 62
     5
 63
     7
 74
     1
 91
        4
 64
     7
 65
   257
 75
     1
175
     1
 42
1.0
 92
        8
 66
     7
 43
1.0
 76
     1
 77
     6
 78
     2
 67
     7
 79
     5
170
     0
171
     0
290
     0
174
     0
 93
        1
 44
-50.0
173
     0
291
     1
 45
0.0
1001
ACAD
1000
AcDbSavedByObjectVersion
1070
     0
  0
VISUALSTYLE
  5
43E
102
{ACAD_XDICTIONARY
360
530
102
}
102
{ACAD_REACTORS
330
426
102
}
330
426
100
AcDbVisualStyle
  2
EdgeColorOff
 70
    22
 71
     2
 72
     2
 73
     0
 90
        0
 40
-0.6
 41
-30.0
 62
     5
 63
     7
 74
     1
 91
        4
 64
     7
 65
   257
 75
     1
175
     1
 42
1.0
 92
        8
 66
     7
 43
1.0
 76
     1
 77
     6
 78
     2
 67
     7
 79
     5
170
     0
171
     0
290
     0
174
     0
 93
        1
 44
0.0
173
     0
291
     1
 45
0.0
1001
ACAD
1000
AcDbSavedByObjectVersion
1070
     0
  0
VISUALSTYLE
  5
435
102
{ACAD_XDICTIONARY
360
51E
102
}
102
{ACAD_REACTORS
330
426
102
}
330
426
100
AcDbVisualStyle
  2
Facepattern
 70
    15
 71
     2
 72
     2
 73
     0
 90
        0
 40
-0.6
 41
-30.0
 62
     5
 63
     7
 74
     1
 91
        4
 64
     7
 65
   257
 75
     1
175
     1
 42
1.0
 92
        8
 66
     7
 43
1.0
 76
     1
 77
     6
 78
     2
 67
     7
 79
     5
170
     0
171
     0
290
     0
174
     0
 93
        1
 44
0.0
173
     0
291
     1
 45
0.0
1001
ACAD
1000
AcDbSavedByObjectVersion
1070
     0
  0
VISUALSTYLE
  5
427
102
{ACAD_XDICTIONARY
360
502
102
}
102
{ACAD_REACTORS
330
426
102
}
330
426
100
AcDbVisualStyle
  2
Flat
 70
     0
 71
     2
 72
     1
 73
     1
 90
        2
 40
-0.6
 41
30.0
 62
     5
 63
     7
 74
     0
 91
        0
 64
     7
 65
   257
 75
     1
175
     1
 42
1.0
 92
        8
 66
     7
 43
1.0
 76
     1
 77
     6
 78
     2
 67
     7
 79
     5
170
     0
171
     0
290
     0
174
     0
 93
       13
 44
0.0
173
     0
291
     1
 45
0.0
1001
ACAD
1000
AcDbSavedByObjectVersion
1070
     0
  0
VISUALSTYLE
  5
428
102
{ACAD_XDICTIONARY
360
504
102
}
102
{ACAD_REACTORS
330
426
102
}
330
426
100
AcDbVisualStyle
  2
FlatWithEdges
 70
     1
 71
     2
 72
     1
 73
     1
 90
        2
 40
-0.6
 41
30.0
 62
     5
 63
     7
 74
     1
 91
        0
 64
     7
 65
   257
 75
     1
175
     1
 42
1.0
 92
        0
 66
   257
 43
1.0
 76
     1
 77
     6
 78
     2
 67
     7
 79
     5
170
     0
171
     0
290
     0
174
     0
 93
       13
 44
0.0
173
     0
291
     1
 45
0.0
1001
ACAD
1000
AcDbSavedByObjectVersion
1070
     0
  0
VISUALSTYLE
  5
429
102
{ACAD_XDICTIONARY
360
506
102
}
102
{ACAD_REACTORS
330
426
102
}
330
426
100
AcDbVisualStyle
  2
Gouraud
 70
     2
 71
     2
 72
     2
 73
     1
 90
        2
 40
-0.6
 41
30.0
 62
     5
 63
     7
 74
     0
 91
        0
 64
     7
 65
   257
 75
     1
175
     1
 42
1.0
 92
        0
 66
     7
 43
1.0
 76
     1
 77
     6
 78
     2
 67
     7
 79
     5
170
     0
171
     0
290
     0
174
     0
 93
       13
 44
0.0
173
     0
291
     1
 45
0.0
1001
ACAD
1000
AcDbSavedByObjectVersion
1070
     0
  0
VISUALSTYLE
  5
42A
102
{ACAD_XDICTIONARY
360
508
102
}
102
{ACAD_REACTORS
330
426
102
}
330
426
100
AcDbVisualStyle
  2
GouraudWithEdges
 70
     3
 71
     2
 72
     2
 73
     1
 90
        2
 40
-0.6
 41
30.0
 62
     5
 63
     7
 74
     1
 91
        0
 64
     7
 65
   257
 75
     1
175
     1
 42
1.0
 92
        0
 66
   257
 43
1.0
 76
     1
 77
     6
 78
     2
 67
     7
 79
     5
170
     0
171
     0
290
     0
174
     0
 93
       13
 44
0.0
173
     0
291
     1
 45
0.0
1001
ACAD
1000
AcDbSavedByObjectVersion
1070
     0
  0
VISUALSTYLE
  5
42E
102
{ACAD_XDICTIONARY
360
510
102
}
102
{ACAD_REACTORS
330
426
102
}
330
426
100
AcDbVisualStyle
  2
Hidden
 70
     6
 71
     1
 72
     2
 73
     2
 90
        0
 40
-0.6
 41
-30.0
 62
     5
 63
     7
 74
     2
 91
        2
 64
     7
 65
   257
 75
     2
175
     1
 42
40.0
 92
        0
 66
   257
 43
1.0
 76
     1
 77
     6
 78
     2
 67
     7
 79
     3
170
     0
171
     0
290
     0
174
     0
 93
        1
 44
0.0
173
     0
291
     0
 45
0.0
1001
ACAD
1000
AcDbSavedByObjectVersion
1070
     0
  0
VISUALSTYLE
  5
43C
102
{ACAD_XDICTIONARY
360
52C
102
}
102
{ACAD_REACTORS
330
426
102
}
330
426
100
AcDbVisualStyle
  2
JitterOff
 70
    20
 71
     2
 72
     2
 73
     0
 90
        0
 40
-0.6
 41
-30.0
 62
     5
 63
     7
 74
     1
 91
        4
 64
     7
 65
   257
 75
     1
175
     1
 42
1.0
 92
       10
 66
     7
 43
1.0
 76
     1
 77
     6
 78
     2
 67
     7
 79
     5
170
     0
171
     0
290
     0
174
     0
 93
        1
 44
0.0
173
     0
291
     1
 45
0.0
1001
ACAD
1000
AcDbSavedByObjectVersion
1070
     0
  0
VISUALSTYLE
  5
434
102
{ACAD_XDICTIONARY
360
51C
102
}
102
{ACAD_REACTORS
330
426
102
}
330
426
100
AcDbVisualStyle
  2
Linepattern
 70
    14
 71
     2
 72
     2
 73
     0
 90
        0
 40
-0.6
 41
-30.0
 62
     5
 63
     7
 74
     1
 91
        4
 64
     7
 65
   257
 75
     7
175
     7
 42
1.0
 92
        8
 66
     7
 43
1.0
 76
     1
 77
     6
 78
     2
 67
     7
 79
     5
170
     0
171
     0
290
     0
174
     0
 93
        1
 44
0.0
173
     0
291
     1
 45
0.0
1001
ACAD
1000
AcDbSavedByObjectVersion
1070
     0
  0
VISUALSTYLE
  5
43D
102
{ACAD_XDICTIONARY
360
52E
102
}
102
{ACAD_REACTORS
330
426
102
}
330
426
100
AcDbVisualStyle
  2
OverhangOff
 70
    21
 71
     2
 72
     2
 73
     0
 90
        0
 40
-0.6
 41
-30.0
 62
     5
 63
     7
 74
     1
 91
        4
 64
     7
 65
   257
 75
     1
175
     1
 42
1.0
 92
        9
 66
     7
 43
1.0
 76
     1
 77
     6
 78
     2
 67
     7
 79
     5
170
     0
171
     0
290
     0
174
     0
 93
        1
 44
0.0
173
     0
291
     1
 45
0.0
1001
ACAD
1000
AcDbSavedByObjectVersion
1070
     0
  0
VISUALSTYLE
  5
430
102
{ACAD_XDICTIONARY
360
514
102
}
102
{ACAD_REACTORS
330
426
102
}
330
426
100
AcDbVisualStyle
  2
Realistic
 70
     8
 71
     2
 72
     3
 73
     0
 90
        2
 40
-0.6
 41
30.0
 62
     5
 63
     7
 74
     0
 91
        0
 64
     7
 65
   257
 75
     1
175
     1
 42
1.0
 92
        8
 66
   257
 43
1.0
 76
     1
 77
     6
 78
     2
 67
     7
 79
     3
170
     0
171
     0
290
     0
174
     0
 93
       13
 44
0.0
173
     0
291
     0
 45
0.0
1001
ACAD
1000
AcDbSavedByObjectVersion
1070
     0
  0
VISUALSTYLE
  5
43B
102
{ACAD_XDICTIONARY
360
52A
102
}
102
{ACAD_REACTORS
330
426
102
}
330
426
100
AcDbVisualStyle
  2
Shaded
 70
    27
 71
     2
 72
     2
 73
     1
 90
        2
 40
-0.6
 41
30.0
 62
     5
 63
     7
 74
     0
 91
        4
 64
     7
 65
   257
 75
     1
175
     1
 42
1.0
 92
        8
 66
   257
 43
1.0
 76
     1
 77
     6
 78
     2
 67
     8
 79
     3
170
     0
171
     0
290
     0
174
     0
 93
        5
 44
0.0
173
     0
291
     0
 45
0.0
1001
ACAD
1000
AcDbSavedByObjectVersion
1070
     0
  0
VISUALSTYLE
  5
43A
102
{ACAD_XDICTIONARY
360
528
102
}
102
{ACAD_REACTORS
330
426
102
}
330
426
100
AcDbVisualStyle
  2
Shaded with edges
 70
    26
 71
     2
 72
     2
 73
     1
 90
        2
 40
-0.6
 41
30.0
 62
     5
 63
     7
 74
     1
 91
       10
 64
     7
 65
   257
 75
     2
175
     1
 42
1.0
 92
        8
 66
   257
 43
1.0
 76
     1
 77
     6
 78
     2
 67
     7
 79
     3
170
     0
171
     0
290
     0
174
     0
 93
        5
 44
0.0
173
     0
291
     0
 45
0.0
1001
ACAD
1000
AcDbSavedByObjectVersion
1070
     0
  0
VISUALSTYLE
  5
437
102
{ACAD_XDICTIONARY
360
522
102
}
102
{ACAD_REACTORS
330
426
102
}
330
426
100
AcDbVisualStyle
  2
Shades of Gray
 70
    23
 71
     2
 72
     2
 73
     3
 90
        0
 40
-0.6
 41
-30.0
 62
     5
 63
     7
 74
     2
 91
        2
 64
     7
 65
     7
 75
     1
175
     1
 42
40.0
 92
        8
 66
     7
 43
1.0
 76
     1
 77
     6
 78
     2
 67
     7
 79
     3
170
     0
171
     0
290
     0
174
     0
 93
        1
 44
0.0
173
     0
291
     0
 45
0.0
1001
ACAD
1000
AcDbSavedByObjectVersion
1070
     0
  0
VISUALSTYLE
  5
438
102
{ACAD_XDICTIONARY
360
524
102
}
102
{ACAD_REACTORS
330
426
102
}
330
426
100
AcDbVisualStyle
  2
Sketchy
 70
    24
 71
     1
 72
     2
 73
     2
 90
        0
 40
-0.6
 41
-30.0
 62
     5
 63
     7
 74
     2
 91
        2
 64
     7
 65
     7
 75
     1
175
     1
 42
40.0
 92
       11
 66
     7
 43
1.0
 76
     1
 77
     6
 78
     2
 67
     7
 79
     6
170
     0
171
     0
290
     0
174
     0
 93
        1
 44
0.0
173
     0
291
     0
 45
0.0
1001
ACAD
1000
AcDbSavedByObjectVersion
1070
     0
  0
VISUALSTYLE
  5
433
102
{ACAD_XDICTIONARY
360
51A
102
}
102
{ACAD_REACTORS
330
426
102
}
330
426
100
AcDbVisualStyle
  2
Thicken
 70
    13
 71
     2
 72
     2
 73
     0
 90
        0
 40
-0.6
 41
-30.0
 62
     5
 63
     7
 74
     1
 91
        4
 64
     7
 65
   257
 75
     1
175
     1
 42
1.0
 92
       12
 66
     7
 43
1.0
 76
     1
 77
     6
 78
     2
 67
     7
 79
     5
170
     0
171
     0
290
     0
174
     0
 93
        1
 44
0.0
173
     0
291
     1
 45
0.0
1001
ACAD
1000
AcDbSavedByObjectVersion
1070
     0
  0
VISUALSTYLE
  5
42D
102
{ACAD_XDICTIONARY
360
50E
102
}
102
{ACAD_REACTORS
330
426
102
}
330
426
100
AcDbVisualStyle
  2
Wireframe
 70
     5
 71
     0
 72
     2
 73
     0
 90
        0
 40
-0.6
 41
-30.0
 62
     5
 63
     7
 74
     1
 91
        4
 64
     7
 65
   257
 75
     1
175
     1
 42
1.0
 92
        0
 66
   257
 43
1.0
 76
     1
 77
     6
 78
     2
 67
     7
 79
     3
170
     0
171
     0
290
     0
174
     0
 93
        1
 44
0.0
173
     0
291
     0
 45
0.0
1001
ACAD
1000
AcDbSavedByObjectVersion
1070
     0
  0
VISUALSTYLE
  5
439
102
{ACAD_XDICTIONARY
360
526
102
}
102
{ACAD_REACTORS
330
426
102
}
330
426
100
AcDbVisualStyle
  2
X-Ray
 70
    25
 71
     2
 72
     2
 73
     1
 90
        1
 40
0.5
 41
-30.0
 62
     5
 63
     7
 74
     1
 91
        0
 64
     7
 65
   257
 75
     1
175
     1
 42
1.0
 92
        8
 66
     7
 43
1.0
 76
     1
 77
     6
 78
     2
 67
     7
 79
     3
170
     0
171
     0
290
     0
174
     0
 93
       13
 44
0.0
173
     0
291
     0
 45
0.0
1001
ACAD
1000
AcDbSavedByObjectVersion
1070
     0
  0
DICTIONARYVAR
  5
4F5
102
{ACAD_REACTORS
330
4F0
102
}
330
4F0
100
DictionaryVariables
280
     0
  1
1:1
  0
DICTIONARYVAR
  5
4F2
102
{ACAD_REACTORS
330
4F0
102
}
330
4F0
100
DictionaryVariables
280
     0
  1
STANDARD
  0
DICTIONARYVAR
  5
4F1
102
{ACAD_REACTORS
330
4F0
102
}
330
4F0
100
DictionaryVariables
280
     0
  1
STANDARD
  0
DICTIONARYVAR
  5
4F3
102
{ACAD_REACTORS
330
4F0
102
}
330
4F0
100
DictionaryVariables
280
     0
  1
Imperial24
  0
DICTIONARYVAR
  5
4F4
102
{ACAD_REACTORS
330
4F0
102
}
330
4F0
100
DictionaryVariables
280
     0
  1
Imperial24
  0
DICTIONARYVAR
  5
4F8
102
{ACAD_REACTORS
330
4F0
102
}
330
4F0
100
DictionaryVariables
280
     0
  1
1
  0
DICTIONARYVAR
  5
4F7
102
{ACAD_REACTORS
330
4F0
102
}
330
4F0
100
DictionaryVariables
280
     0
  1
0
  0
DICTIONARYVAR
  5
4F6
102
{ACAD_REACTORS
330
4F0
102
}
330
4F0
100
DictionaryVariables
280
     0
  1
127
  0
DICTIONARYVAR
  5
4F9
102
{ACAD_REACTORS
330
4F0
102
}
330
4F0
100
DictionaryVariables
280
     0
  1
2
  0
DICTIONARY
  5
534
330
46C
100
AcDbDictionary
280
     1
281
     1
  3
ACAD_XREC_ROUNDTRIP
360
535
  0
DICTIONARY
  5
536
330
470
100
AcDbDictionary
280
     1
281
     1
  3
ACAD_XREC_ROUNDTRIP
360
537
  0
DICTIONARY
  5
417
330
416
100
AcDbDictionary
280
     1
281
     1
  3
ACAD_XREC_ROUNDTRIP
360
500
  3
BUMPTILE
360
419
  3
DIFFUSETILE
360
418
  3
OPACITYTILE
360
41C
  3
REFLECTIONTILE
360
41B
  3
REFRACTIONTILE
360
41D
  3
SPECULARTILE
360
41A
  0
DICTIONARY
  5
40F
330
40E
100
AcDbDictionary
280
     1
281
     1
  3
ACAD_XREC_ROUNDTRIP
360
4FF
  3
BUMPTILE
360
411
  3
DIFFUSETILE
360
410
  3
OPACITYTILE
360
414
  3
REFLECTIONTILE
360
413
  3
REFRACTIONTILE
360
415
  3
SPECULARTILE
360
412
  0
DICTIONARY
  5
41F
330
41E
100
AcDbDictionary
280
     1
281
     1
  3
ACAD_XREC_ROUNDTRIP
360
501
  3
BUMPTILE
360
421
  3
DIFFUSETILE
360
420
  3
OPACITYTILE
360
424
  3
REFLECTIONTILE
360
423
  3
REFRACTIONTILE
360
425
  3
SPECULARTILE
360
422
  0
DICTIONARY
  5
4FB
330
461
100
AcDbDictionary
280
     1
281
     1
  3
ACAD_ROUNDTRIP_2008_TABLESTYLE_CELLSTYLEMAP
360
4FC
  3
ACAD_XREC_ROUNDTRIP
360
532
  0
DICTIONARY
  5
50C
330
42C
100
AcDbDictionary
280
     1
281
     1
  3
ACAD_XREC_ROUNDTRIP
360
50D
  0
DICTIONARY
  5
50A
330
42B
100
AcDbDictionary
280
     1
281
     1
  3
ACAD_XREC_ROUNDTRIP
360
50B
  0
DICTIONARY
  5
518
330
432
100
AcDbDictionary
280
     1
281
     1
  3
ACAD_XREC_ROUNDTRIP
360
519
  0
DICTIONARY
  5
520
330
436
100
AcDbDictionary
280
     1
281
     1
  3
ACAD_XREC_ROUNDTRIP
360
521
  0
DICTIONARY
  5
512
330
42F
100
AcDbDictionary
280
     1
281
     1
  3
ACAD_XREC_ROUNDTRIP
360
513
  0
DICTIONARY
  5
516
330
431
100
AcDbDictionary
280
     1
281
     1
  3
ACAD_XREC_ROUNDTRIP
360
517
  0
DICTIONARY
  5
530
330
43E
100
AcDbDictionary
280
     1
281
     1
  3
ACAD_XREC_ROUNDTRIP
360
531
  0
DICTIONARY
  5
51E
330
435
100
AcDbDictionary
280
     1
281
     1
  3
ACAD_XREC_ROUNDTRIP
360
51F
  0
DICTIONARY
  5
502
330
427
100
AcDbDictionary
280
     1
281
     1
  3
ACAD_XREC_ROUNDTRIP
360
503
  0
DICTIONARY
  5
504
330
428
100
AcDbDictionary
280
     1
281
     1
  3
ACAD_XREC_ROUNDTRIP
360
505
  0
DICTIONARY
  5
506
330
429
100
AcDbDictionary
280
     1
281
     1
  3
ACAD_XREC_ROUNDTRIP
360
507
  0
DICTIONARY
  5
508
330
42A
100
AcDbDictionary
280
     1
281
     1
  3
ACAD_XREC_ROUNDTRIP
360
509
  0
DICTIONARY
  5
510
330
42E
100
AcDbDictionary
280
     1
281
     1
  3
ACAD_XREC_ROUNDTRIP
360
511
  0
DICTIONARY
  5
52C
330
43C
100
AcDbDictionary
280
     1
281
     1
  3
ACAD_XREC_ROUNDTRIP
360
52D
  0
DICTIONARY
  5
51C
330
434
100
AcDbDictionary
280
     1
281
     1
  3
ACAD_XREC_ROUNDTRIP
360
51D
  0
DICTIONARY
  5
52E
330
43D
100
AcDbDictionary
280
     1
281
     1
  3
ACAD_XREC_ROUNDTRIP
360
52F
  0
DICTIONARY
  5
514
330
430
100
AcDbDictionary
280
     1
281
     1
  3
ACAD_XREC_ROUNDTRIP
360
515
  0
DICTIONARY
  5
52A
330
43B
100
AcDbDictionary
280
     1
281
     1
  3
ACAD_XREC_ROUNDTRIP
360
52B
  0
DICTIONARY
  5
528
330
43A
100
AcDbDictionary
280
     1
281
     1
  3
ACAD_XREC_ROUNDTRIP
360
529
  0
DICTIONARY
  5
522
330
437
100
AcDbDictionary
280
     1
281
     1
  3
ACAD_XREC_ROUNDTRIP
360
523
  0
DICTIONARY
  5
524
330
438
100
AcDbDictionary
280
     1
281
     1
  3
ACAD_XREC_ROUNDTRIP
360
525
  0
DICTIONARY
  5
51A
330
433
100
AcDbDictionary
280
     1
281
     1
  3
ACAD_XREC_ROUNDTRIP
360
51B
  0
DICTIONARY
  5
50E
330
42D
100
AcDbDictionary
280
     1
281
     1
  3
ACAD_XREC_ROUNDTRIP
360
50F
  0
DICTIONARY
  5
526
330
439
100
AcDbDictionary
280
     1
281
     1
  3
ACAD_XREC_ROUNDTRIP
360
527
  0
XRECORD
  5
535
102
{ACAD_REACTORS
330
534
102
}
330
534
100
AcDbXrecord
280
     1
102
SHADEPLOT
 70
     0
102
SHADEPLOTRESLEVEL
 70
     2
102
SHADEPLOTCUSTOMDPI
 70
   300
  0
XRECORD
  5
537
102
{ACAD_REACTORS
330
536
102
}
330
536
100
AcDbXrecord
280
     1
102
SHADEPLOT
 70
     0
102
SHADEPLOTRESLEVEL
 70
     2
102
SHADEPLOTCUSTOMDPI
 70
   300
  0
XRECORD
  5
500
102
{ACAD_REACTORS
330
417
102
}
330
417
100
AcDbXrecord
280
     1
102
MATERIAL
148
0.0
149
0.0
149
0.0
 93
        0
 94
      127
282
     0
 72
     0
 77
     0
171
     0
175
     0
179
     0
273
     0
  0
XRECORD
  5
419
102
{ACAD_REACTORS
330
417
102
}
330
417
100
AcDbXrecord
280
     1
270
     1
271
     1
  0
XRECORD
  5
418
102
{ACAD_REACTORS
330
417
102
}
330
417
100
AcDbXrecord
280
     1
270
     1
271
     1
  0
XRECORD
  5
41C
102
{ACAD_REACTORS
330
417
102
}
330
417
100
AcDbXrecord
280
     1
270
     1
271
     1
  0
XRECORD
  5
41B
102
{ACAD_REACTORS
330
417
102
}
330
417
100
AcDbXrecord
280
     1
270
     1
271
     1
  0
XRECORD
  5
41D
102
{ACAD_REACTORS
330
417
102
}
330
417
100
AcDbXrecord
280
     1
270
     1
271
     1
  0
XRECORD
  5
41A
102
{ACAD_REACTORS
330
417
102
}
330
417
100
AcDbXrecord
280
     1
270
     1
271
     1
  0
XRECORD
  5
4FF
102
{ACAD_REACTORS
330
40F
102
}
330
40F
100
AcDbXrecord
280
     1
102
MATERIAL
148
0.0
149
0.0
149
0.0
 93
        0
 94
      127
282
     0
 72
     0
 77
     0
171
     0
175
     0
179
     0
273
     0
  0
XRECORD
  5
411
102
{ACAD_REACTORS
330
40F
102
}
330
40F
100
AcDbXrecord
280
     1
270
     1
271
     1
  0
XRECORD
  5
410
102
{ACAD_REACTORS
330
40F
102
}
330
40F
100
AcDbXrecord
280
     1
270
     1
271
     1
  0
XRECORD
  5
414
102
{ACAD_REACTORS
330
40F
102
}
330
40F
100
AcDbXrecord
280
     1
270
     1
271
     1
  0
XRECORD
  5
413
102
{ACAD_REACTORS
330
40F
102
}
330
40F
100
AcDbXrecord
280
     1
270
     1
271
     1
  0
XRECORD
  5
415
102
{ACAD_REACTORS
330
40F
102
}
330
40F
100
AcDbXrecord
280
     1
270
     1
271
     1
  0
XRECORD
  5
412
102
{ACAD_REACTORS
330
40F
102
}
330
40F
100
AcDbXrecord
280
     1
270
     1
271
     1
  0
XRECORD
  5
501
102
{ACAD_REACTORS
330
41F
102
}
330
41F
100
AcDbXrecord
280
     1
102
MATERIAL
148
0.0
149
0.0
149
0.0
 93
        0
 94
      127
282
     0
 72
     0
 77
     0
171
     0
175
     0
179
     0
273
     0
  0
XRECORD
  5
421
102
{ACAD_REACTORS
330
41F
102
}
330
41F
100
AcDbXrecord
280
     1
270
     1
271
     1
  0
XRECORD
  5
420
102
{ACAD_REACTORS
330
41F
102
}
330
41F
100
AcDbXrecord
280
     1
270
     1
271
     1
  0
XRECORD
  5
424
102
{ACAD_REACTORS
330
41F
102
}
330
41F
100
AcDbXrecord
280
     1
270
     1
271
     1
  0
XRECORD
  5
423
102
{ACAD_REACTORS
330
41F
102
}
330
41F
100
AcDbXrecord
280
     1
270
     1
271
     1
  0
XRECORD
  5
425
102
{ACAD_REACTORS
330
41F
102
}
330
41F
100
AcDbXrecord
280
     1
270
     1
271
     1
  0
XRECORD
  5
422
102
{ACAD_REACTORS
330
41F
102
}
330
41F
100
AcDbXrecord
280
     1
270
     1
271
     1
  0
CELLSTYLEMAP
  5
4FC
102
{ACAD_REACTORS
330
4FB
102
}
330
4FB
100
AcDbCellStyleMap
 90
        3
300
CELLSTYLE
  1
TABLEFORMAT_BEGIN
 90
        5
170
     1
 91
        0
 92
    32768
 62
   257
 93
        1
300
CONTENTFORMAT
  1
CONTENTFORMAT_BEGIN
 90
        0
 91
        0
 92
      512
 93
        0
300

 40
0.0
140
1.0
 94
        5
 62
     0
340
452
144
0.25
309
CONTENTFORMAT_END
171
     0
 94
        0
309
TABLEFORMAT_END
  1
CELLSTYLE_BEGIN
 90
        1
 91
        1
300
_TITLE
309
CELLSTYLE_END
300
CELLSTYLE
  1
TABLEFORMAT_BEGIN
 90
        5
170
     1
 91
        0
 92
        0
 62
   257
 93
        1
300
CONTENTFORMAT
  1
CONTENTFORMAT_BEGIN
 90
        0
 91
        0
 92
      512
 93
        0
300

 40
0.0
140
1.0
 94
        5
 62
     0
340
452
144
0.18
309
CONTENTFORMAT_END
171
     0
 94
        0
309
TABLEFORMAT_END
  1
CELLSTYLE_BEGIN
 90
        2
 91
        1
300
_HEADER
309
CELLSTYLE_END
300
CELLSTYLE
  1
TABLEFORMAT_BEGIN
 90
        5
170
     1
 91
        0
 92
        0
 62
   257
 93
        1
300
CONTENTFORMAT
  1
CONTENTFORMAT_BEGIN
 90
        0
 91
        0
 92
      512
 93
        0
300

 40
0.0
140
1.0
 94
        2
 62
     0
340
452
144
0.18
309
CONTENTFORMAT_END
171
     0
 94
        0
309
TABLEFORMAT_END
  1
CELLSTYLE_BEGIN
 90
        3
 91
        2
300
_DATA
309
CELLSTYLE_END
  0
XRECORD
  5
532
102
{ACAD_REACTORS
330
4FB
102
}
330
4FB
100
AcDbXrecord
280
     1
102
ACAD_ROUNDTRIP_PRE2007_TABLESTYLE
 90
      512
 91
        0
  1

 92
      512
 93
        0
  2

 94
      512
 95
        0
  3

  0
XRECORD
  5
50D
102
{ACAD_REACTORS
330
50C
102
}
330
50C
100
AcDbXrecord
280
     1
102
RTVSPost2010Prop28
280
     1
102
RTVSPost2010PropOp28
 70
     1
102
RTVSPost2010Prop29
280
     1
102
RTVSPost2010PropOp29
 70
     1
102
RTVSPost2010Prop30
280
     0
102
RTVSPost2010PropOp30
 70
     1
102
RTVSPost2010Prop31
280
     0
102
RTVSPost2010PropOp31
 70
     1
102
RTVSPost2010Prop32
280
     0
102
RTVSPost2010PropOp32
 70
     1
102
RTVSPost2010Prop33
280
     0
102
RTVSPost2010PropOp33
 70
     1
102
RTVSPost2010Prop34
280
     0
102
RTVSPost2010PropOp34
 70
     1
102
RTVSPost2010Prop35
280
     0
102
RTVSPost2010PropOp35
 70
     1
102
RTVSPost2010Prop36
280
     0
102
RTVSPost2010PropOp36
 70
     1
102
RTVSPost2010Prop37
 90
       50
102
RTVSPost2010PropOp37
 70
     1
102
RTVSPost2010Prop38
140
0.0
102
RTVSPost2010PropOp38
 70
     1
102
RTVSPost2010Prop39
140
1.0
102
RTVSPost2010PropOp39
 70
     1
102
RTVSPost2010Prop40
 90
        0
102
RTVSPost2010PropOp40
 70
     1
102
RTVSPost2010Prop41ColorIndex
 90
       18
102
RTVSPost2010Prop41ColorRGB
 90
        0
102
RTVSPost2010PropOp41
 70
     1
102
RTVSPost2010Prop42
 90
       50
102
RTVSPost2010PropOp42
 70
     1
102
RTVSPost2010Prop43
 90
        3
102
RTVSPost2010PropOp43
 70
     1
102
RTVSPost2010Prop44ColorIndex
 90
        5
102
RTVSPost2010Prop44ColorRGB
 90
      255
102
RTVSPost2010PropOp44
 70
     1
102
RTVSPost2010Prop45
280
     0
102
RTVSPost2010PropOp45
 70
     1
102
RTVSPost2010Prop46
 90
       50
102
RTVSPost2010PropOp46
 70
     1
102
RTVSPost2010Prop47
 90
       50
102
RTVSPost2010PropOp47
 70
     1
102
RTVSPost2010Prop48
 90
       50
102
RTVSPost2010PropOp48
 70
     1
102
RTVSPost2010Prop49
280
     0
102
RTVSPost2010PropOp49
 70
     1
102
RTVSPost2010Prop50
 90
       50
102
RTVSPost2010PropOp50
 70
     1
102
RTVSPost2010Prop51ColorIndex
 90
      256
102
RTVSPost2010Prop51ColorRGB
 90
-16777216
102
RTVSPost2010PropOp51
 70
     0
102
RTVSPost2010Prop52
140
1.0
102
RTVSPost2010PropOp52
 70
     0
102
RTVSPost2010Prop53
 90
        2
102
RTVSPost2010PropOp53
 70
     1
102
RTVSPost2010Prop54
  1
strokes_ogs.tif
102
RTVSPost2010PropOp54
 70
     1
102
RTVSPost2010Prop55
280
     0
102
RTVSPost2010PropOp55
 70
     1
102
RTVSPost2010Prop56
140
1.0
102
RTVSPost2010PropOp56
 70
     1
102
RTVSPost2010Prop57
140
1.0
102
RTVSPost2010PropOp57
 70
     1
102
RTVSPropertyOp0
 70
     1
102
RTVSPropertyOp1
 70
     1
102
RTVSPropertyOp2
 70
     1
102
RTVSPropertyOp3
 70
     1
102
RTVSPropertyOp4
 70
     1
102
RTVSPropertyOp5
 70
     1
102
RTVSPropertyOp6
 70
     1
102
RTVSPropertyOp7
 70
     1
102
RTVSPropertyOp8
 70
     1
102
RTVSPropertyOp9
 70
     1
102
RTVSPropertyOp10
 70
     1
102
RTVSPropertyOp11
 70
     1
102
RTVSPropertyOp12
 70
     1
102
RTVSPropertyOp13
 70
     1
102
RTVSPropertyOp14
 70
     1
102
RTVSPropertyOp15
 70
     1
102
RTVSPropertyOp16
 70
     1
102
RTVSPropertyOp17
 70
     1
102
RTVSPropertyOp18
 70
     1
102
RTVSPropertyOp19
 70
     1
102
RTVSPropertyOp20
 70
     1
102
RTVSPropertyOp21
 70
     1
102
RTVSPropertyOp22
 70
     1
102
RTVSPropertyOp23
 70
     1
102
RTVSPropertyOp24
 70
     1
102
RTVSPropertyOp25
 70
     1
102
RTVSPropertyOp26
 70
     1
102
RTVSPropertyOp27
 70
     1
102
RTVSPropertyOp28
 70
     1
102
RTVSPropertyOp29
 70
     1
102
RTVSPropertyOp30
 70
     1
102
RTVSPropertyOp31
 70
     1
102
RTVSPropertyOp32
 70
     1
102
RTVSPropertyOp33
 70
     1
102
RTVSPropertyOp34
 70
     1
102
RTVSPropertyOp35
 70
     1
102
RTVSPropertyOp36
 70
     1
102
RTVSPropertyOp37
 70
     1
102
RTVSPropertyOp38
 70
     1
102
RTVSPropertyOp39
 70
     1
102
RTVSPropertyOp40
 70
     1
102
RTVSPropertyOp41
 70
     1
102
RTVSPropertyOp42
 70
     1
102
RTVSPropertyOp43
 70
     1
102
RTVSPropertyOp44
 70
     1
102
RTVSPropertyOp45
 70
     1
102
RTVSPropertyOp46
 70
     1
102
RTVSPropertyOp47
 70
     1
102
RTVSPropertyOp48
 70
     1
102
RTVSPropertyOp49
 70
     1
102
RTVSPropertyOp50
 70
     1
102
RTVSPropertyOp51
 70
     0
102
RTVSPropertyOp52
 70
     0
102
RTVSPropertyOp53
 70
     1
102
RTVSPropertyOp54
 70
     1
102
RTVSPropertyOp55
 70
     1
102
RTVSPropertyOp56
 70
     1
102
RTVSPropertyOp57
 70
     1
102
RTVSPropertyOp58
 70
     1
102
RTVSPropertyOp59
 70
     1
102
RTVSPropertyOp60
 70
     1
102
RTVSPropertyOp61
 70
     1
102
RTVSPropertyOp62
 70
     1
  0
XRECORD
  5
50B
102
{ACAD_REACTORS
330
50A
102
}
330
50A
100
AcDbXrecord
280
     1
102
RTVSPost2010Prop28
280
     0
102
RTVSPost2010PropOp28
 70
     1
102
RTVSPost2010Prop29
280
     1
102
RTVSPost2010PropOp29
 70
     1
102
RTVSPost2010Prop30
280
     1
102
RTVSPost2010PropOp30
 70
     1
102
RTVSPost2010Prop31
280
     0
102
RTVSPost2010PropOp31
 70
     1
102
RTVSPost2010Prop32
280
     0
102
RTVSPost2010PropOp32
 70
     1
102
RTVSPost2010Prop33
280
     0
102
RTVSPost2010PropOp33
 70
     1
102
RTVSPost2010Prop34
280
     0
102
RTVSPost2010PropOp34
 70
     1
102
RTVSPost2010Prop35
280
     0
102
RTVSPost2010PropOp35
 70
     1
102
RTVSPost2010Prop36
280
     0
102
RTVSPost2010PropOp36
 70
     1
102
RTVSPost2010Prop37
 90
       50
102
RTVSPost2010PropOp37
 70
     1
102
RTVSPost2010Prop38
140
0.0
102
RTVSPost2010PropOp38
 70
     1
102
RTVSPost2010Prop39
140
1.0
102
RTVSPost2010PropOp39
 70
     1
102
RTVSPost2010Prop40
 90
        0
102
RTVSPost2010PropOp40
 70
     1
102
RTVSPost2010Prop41ColorIndex
 90
       18
102
RTVSPost2010Prop41ColorRGB
 90
        0
102
RTVSPost2010PropOp41
 70
     1
102
RTVSPost2010Prop42
 90
       50
102
RTVSPost2010PropOp42
 70
     1
102
RTVSPost2010Prop43
 90
        3
102
RTVSPost2010PropOp43
 70
     1
102
RTVSPost2010Prop44ColorIndex
 90
        5
102
RTVSPost2010Prop44ColorRGB
 90
      255
102
RTVSPost2010PropOp44
 70
     1
102
RTVSPost2010Prop45
280
     0
102
RTVSPost2010PropOp45
 70
     1
102
RTVSPost2010Prop46
 90
       50
102
RTVSPost2010PropOp46
 70
     1
102
RTVSPost2010Prop47
 90
       50
102
RTVSPost2010PropOp47
 70
     1
102
RTVSPost2010Prop48
 90
       50
102
RTVSPost2010PropOp48
 70
     1
102
RTVSPost2010Prop49
280
     0
102
RTVSPost2010PropOp49
 70
     1
102
RTVSPost2010Prop50
 90
       50
102
RTVSPost2010PropOp50
 70
     1
102
RTVSPost2010Prop51ColorIndex
 90
      256
102
RTVSPost2010Prop51ColorRGB
 90
-16777216
102
RTVSPost2010PropOp51
 70
     0
102
RTVSPost2010Prop52
140
1.0
102
RTVSPost2010PropOp52
 70
     0
102
RTVSPost2010Prop53
 90
        2
102
RTVSPost2010PropOp53
 70
     1
102
RTVSPost2010Prop54
  1
strokes_ogs.tif
102
RTVSPost2010PropOp54
 70
     1
102
RTVSPost2010Prop55
280
     0
102
RTVSPost2010PropOp55
 70
     1
102
RTVSPost2010Prop56
140
1.0
102
RTVSPost2010PropOp56
 70
     1
102
RTVSPost2010Prop57
140
1.0
102
RTVSPost2010PropOp57
 70
     1
102
RTVSPropertyOp0
 70
     1
102
RTVSPropertyOp1
 70
     1
102
RTVSPropertyOp2
 70
     1
102
RTVSPropertyOp3
 70
     1
102
RTVSPropertyOp4
 70
     1
102
RTVSPropertyOp5
 70
     1
102
RTVSPropertyOp6
 70
     1
102
RTVSPropertyOp7
 70
     1
102
RTVSPropertyOp8
 70
     1
102
RTVSPropertyOp9
 70
     1
102
RTVSPropertyOp10
 70
     1
102
RTVSPropertyOp11
 70
     1
102
RTVSPropertyOp12
 70
     1
102
RTVSPropertyOp13
 70
     1
102
RTVSPropertyOp14
 70
     1
102
RTVSPropertyOp15
 70
     1
102
RTVSPropertyOp16
 70
     1
102
RTVSPropertyOp17
 70
     1
102
RTVSPropertyOp18
 70
     1
102
RTVSPropertyOp19
 70
     1
102
RTVSPropertyOp20
 70
     1
102
RTVSPropertyOp21
 70
     1
102
RTVSPropertyOp22
 70
     1
102
RTVSPropertyOp23
 70
     1
102
RTVSPropertyOp24
 70
     1
102
RTVSPropertyOp25
 70
     1
102
RTVSPropertyOp26
 70
     1
102
RTVSPropertyOp27
 70
     1
102
RTVSPropertyOp28
 70
     1
102
RTVSPropertyOp29
 70
     1
102
RTVSPropertyOp30
 70
     1
102
RTVSPropertyOp31
 70
     1
102
RTVSPropertyOp32
 70
     1
102
RTVSPropertyOp33
 70
     1
102
RTVSPropertyOp34
 70
     1
102
RTVSPropertyOp35
 70
     1
102
RTVSPropertyOp36
 70
     1
102
RTVSPropertyOp37
 70
     1
102
RTVSPropertyOp38
 70
     1
102
RTVSPropertyOp39
 70
     1
102
RTVSPropertyOp40
 70
     1
102
RTVSPropertyOp41
 70
     1
102
RTVSPropertyOp42
 70
     1
102
RTVSPropertyOp43
 70
     1
102
RTVSPropertyOp44
 70
     1
102
RTVSPropertyOp45
 70
     1
102
RTVSPropertyOp46
 70
     1
102
RTVSPropertyOp47
 70
     1
102
RTVSPropertyOp48
 70
     1
102
RTVSPropertyOp49
 70
     1
102
RTVSPropertyOp50
 70
     1
102
RTVSPropertyOp51
 70
     0
102
RTVSPropertyOp52
 70
     0
102
RTVSPropertyOp53
 70
     1
102
RTVSPropertyOp54
 70
     1
102
RTVSPropertyOp55
 70
     1
102
RTVSPropertyOp56
 70
     1
102
RTVSPropertyOp57
 70
     1
102
RTVSPropertyOp58
 70
     1
102
RTVSPropertyOp59
 70
     1
102
RTVSPropertyOp60
 70
     1
102
RTVSPropertyOp61
 70
     1
102
RTVSPropertyOp62
 70
     1
  0
XRECORD
  5
519
102
{ACAD_REACTORS
330
518
102
}
330
518
100
AcDbXrecord
280
     1
102
RTVSPost2010Prop28
280
     0
102
RTVSPost2010PropOp28
 70
     1
102
RTVSPost2010Prop29
280
     1
102
RTVSPost2010PropOp29
 70
     1
102
RTVSPost2010Prop30
280
     1
102
RTVSPost2010PropOp30
 70
     1
102
RTVSPost2010Prop31
280
     0
102
RTVSPost2010PropOp31
 70
     1
102
RTVSPost2010Prop32
280
     0
102
RTVSPost2010PropOp32
 70
     1
102
RTVSPost2010Prop33
280
     0
102
RTVSPost2010PropOp33
 70
     1
102
RTVSPost2010Prop34
280
     0
102
RTVSPost2010PropOp34
 70
     1
102
RTVSPost2010Prop35
280
     0
102
RTVSPost2010PropOp35
 70
     1
102
RTVSPost2010Prop36
280
     0
102
RTVSPost2010PropOp36
 70
     1
102
RTVSPost2010Prop37
 90
       50
102
RTVSPost2010PropOp37
 70
     1
102
RTVSPost2010Prop38
140
0.0
102
RTVSPost2010PropOp38
 70
     1
102
RTVSPost2010Prop39
140
1.0
102
RTVSPost2010PropOp39
 70
     1
102
RTVSPost2010Prop40
 90
        0
102
RTVSPost2010PropOp40
 70
     1
102
RTVSPost2010Prop41ColorIndex
 90
       18
102
RTVSPost2010Prop41ColorRGB
 90
        0
102
RTVSPost2010PropOp41
 70
     1
102
RTVSPost2010Prop42
 90
       50
102
RTVSPost2010PropOp42
 70
     1
102
RTVSPost2010Prop43
 90
        3
102
RTVSPost2010PropOp43
 70
     1
102
RTVSPost2010Prop44ColorIndex
 90
        5
102
RTVSPost2010Prop44ColorRGB
 90
      255
102
RTVSPost2010PropOp44
 70
     1
102
RTVSPost2010Prop45
280
     0
102
RTVSPost2010PropOp45
 70
     1
102
RTVSPost2010Prop46
 90
       50
102
RTVSPost2010PropOp46
 70
     1
102
RTVSPost2010Prop47
 90
       50
102
RTVSPost2010PropOp47
 70
     1
102
RTVSPost2010Prop48
 90
       50
102
RTVSPost2010PropOp48
 70
     1
102
RTVSPost2010Prop49
280
     0
102
RTVSPost2010PropOp49
 70
     1
102
RTVSPost2010Prop50
 90
       50
102
RTVSPost2010PropOp50
 70
     1
102
RTVSPost2010Prop51ColorIndex
 90
      256
102
RTVSPost2010Prop51ColorRGB
 90
-16777216
102
RTVSPost2010PropOp51
 70
     0
102
RTVSPost2010Prop52
140
1.0
102
RTVSPost2010PropOp52
 70
     0
102
RTVSPost2010Prop53
 90
        2
102
RTVSPost2010PropOp53
 70
     1
102
RTVSPost2010Prop54
  1
strokes_ogs.tif
102
RTVSPost2010PropOp54
 70
     1
102
RTVSPost2010Prop55
280
     0
102
RTVSPost2010PropOp55
 70
     1
102
RTVSPost2010Prop56
140
1.0
102
RTVSPost2010PropOp56
 70
     1
102
RTVSPost2010Prop57
140
1.0
102
RTVSPost2010PropOp57
 70
     1
102
RTVSPropertyOp0
 70
     1
102
RTVSPropertyOp1
 70
     1
102
RTVSPropertyOp2
 70
     1
102
RTVSPropertyOp3
 70
     1
102
RTVSPropertyOp4
 70
     1
102
RTVSPropertyOp5
 70
     1
102
RTVSPropertyOp6
 70
     1
102
RTVSPropertyOp7
 70
     1
102
RTVSPropertyOp8
 70
     1
102
RTVSPropertyOp9
 70
     1
102
RTVSPropertyOp10
 70
     1
102
RTVSPropertyOp11
 70
     1
102
RTVSPropertyOp12
 70
     1
102
RTVSPropertyOp13
 70
     1
102
RTVSPropertyOp14
 70
     1
102
RTVSPropertyOp15
 70
     1
102
RTVSPropertyOp16
 70
     1
102
RTVSPropertyOp17
 70
     1
102
RTVSPropertyOp18
 70
     1
102
RTVSPropertyOp19
 70
     1
102
RTVSPropertyOp20
 70
     1
102
RTVSPropertyOp21
 70
     1
102
RTVSPropertyOp22
 70
     1
102
RTVSPropertyOp23
 70
     1
102
RTVSPropertyOp24
 70
     1
102
RTVSPropertyOp25
 70
     1
102
RTVSPropertyOp26
 70
     1
102
RTVSPropertyOp27
 70
     1
102
RTVSPropertyOp28
 70
     1
102
RTVSPropertyOp29
 70
     1
102
RTVSPropertyOp30
 70
     1
102
RTVSPropertyOp31
 70
     1
102
RTVSPropertyOp32
 70
     1
102
RTVSPropertyOp33
 70
     1
102
RTVSPropertyOp34
 70
     1
102
RTVSPropertyOp35
 70
     1
102
RTVSPropertyOp36
 70
     1
102
RTVSPropertyOp37
 70
     1
102
RTVSPropertyOp38
 70
     1
102
RTVSPropertyOp39
 70
     1
102
RTVSPropertyOp40
 70
     1
102
RTVSPropertyOp41
 70
     1
102
RTVSPropertyOp42
 70
     1
102
RTVSPropertyOp43
 70
     1
102
RTVSPropertyOp44
 70
     1
102
RTVSPropertyOp45
 70
     1
102
RTVSPropertyOp46
 70
     1
102
RTVSPropertyOp47
 70
     1
102
RTVSPropertyOp48
 70
     1
102
RTVSPropertyOp49
 70
     1
102
RTVSPropertyOp50
 70
     1
102
RTVSPropertyOp51
 70
     0
102
RTVSPropertyOp52
 70
     0
102
RTVSPropertyOp53
 70
     1
102
RTVSPropertyOp54
 70
     1
102
RTVSPropertyOp55
 70
     1
102
RTVSPropertyOp56
 70
     1
102
RTVSPropertyOp57
 70
     1
102
RTVSPropertyOp58
 70
     1
102
RTVSPropertyOp59
 70
     1
102
RTVSPropertyOp60
 70
     1
102
RTVSPropertyOp61
 70
     1
102
RTVSPropertyOp62
 70
     1
  0
XRECORD
  5
521
102
{ACAD_REACTORS
330
520
102
}
330
520
100
AcDbXrecord
280
     1
102
RTVSPost2010Prop28
280
     0
102
RTVSPost2010PropOp28
 70
     1
102
RTVSPost2010Prop29
280
     1
102
RTVSPost2010PropOp29
 70
     1
102
RTVSPost2010Prop30
280
     1
102
RTVSPost2010PropOp30
 70
     1
102
RTVSPost2010Prop31
280
     0
102
RTVSPost2010PropOp31
 70
     1
102
RTVSPost2010Prop32
280
     0
102
RTVSPost2010PropOp32
 70
     1
102
RTVSPost2010Prop33
280
     0
102
RTVSPost2010PropOp33
 70
     1
102
RTVSPost2010Prop34
280
     0
102
RTVSPost2010PropOp34
 70
     1
102
RTVSPost2010Prop35
280
     0
102
RTVSPost2010PropOp35
 70
     1
102
RTVSPost2010Prop36
280
     0
102
RTVSPost2010PropOp36
 70
     1
102
RTVSPost2010Prop37
 90
       50
102
RTVSPost2010PropOp37
 70
     1
102
RTVSPost2010Prop38
140
0.0
102
RTVSPost2010PropOp38
 70
     1
102
RTVSPost2010Prop39
140
1.0
102
RTVSPost2010PropOp39
 70
     1
102
RTVSPost2010Prop40
 90
        0
102
RTVSPost2010PropOp40
 70
     1
102
RTVSPost2010Prop41ColorIndex
 90
       18
102
RTVSPost2010Prop41ColorRGB
 90
        0
102
RTVSPost2010PropOp41
 70
     1
102
RTVSPost2010Prop42
 90
       50
102
RTVSPost2010PropOp42
 70
     1
102
RTVSPost2010Prop43
 90
        3
102
RTVSPost2010PropOp43
 70
     1
102
RTVSPost2010Prop44ColorIndex
 90
        5
102
RTVSPost2010Prop44ColorRGB
 90
      255
102
RTVSPost2010PropOp44
 70
     1
102
RTVSPost2010Prop45
280
     0
102
RTVSPost2010PropOp45
 70
     1
102
RTVSPost2010Prop46
 90
       50
102
RTVSPost2010PropOp46
 70
     1
102
RTVSPost2010Prop47
 90
       50
102
RTVSPost2010PropOp47
 70
     1
102
RTVSPost2010Prop48
 90
       50
102
RTVSPost2010PropOp48
 70
     1
102
RTVSPost2010Prop49
280
     0
102
RTVSPost2010PropOp49
 70
     1
102
RTVSPost2010Prop50
 90
       50
102
RTVSPost2010PropOp50
 70
     1
102
RTVSPost2010Prop51ColorIndex
 90
      256
102
RTVSPost2010Prop51ColorRGB
 90
-16777216
102
RTVSPost2010PropOp51
 70
     0
102
RTVSPost2010Prop52
140
1.0
102
RTVSPost2010PropOp52
 70
     0
102
RTVSPost2010Prop53
 90
        2
102
RTVSPost2010PropOp53
 70
     1
102
RTVSPost2010Prop54
  1
strokes_ogs.tif
102
RTVSPost2010PropOp54
 70
     1
102
RTVSPost2010Prop55
280
     0
102
RTVSPost2010PropOp55
 70
     1
102
RTVSPost2010Prop56
140
1.0
102
RTVSPost2010PropOp56
 70
     1
102
RTVSPost2010Prop57
140
1.0
102
RTVSPost2010PropOp57
 70
     1
102
RTVSPropertyOp0
 70
     1
102
RTVSPropertyOp1
 70
     1
102
RTVSPropertyOp2
 70
     1
102
RTVSPropertyOp3
 70
     1
102
RTVSPropertyOp4
 70
     1
102
RTVSPropertyOp5
 70
     1
102
RTVSPropertyOp6
 70
     1
102
RTVSPropertyOp7
 70
     1
102
RTVSPropertyOp8
 70
     1
102
RTVSPropertyOp9
 70
     1
102
RTVSPropertyOp10
 70
     1
102
RTVSPropertyOp11
 70
     1
102
RTVSPropertyOp12
 70
     1
102
RTVSPropertyOp13
 70
     1
102
RTVSPropertyOp14
 70
     1
102
RTVSPropertyOp15
 70
     1
102
RTVSPropertyOp16
 70
     1
102
RTVSPropertyOp17
 70
     1
102
RTVSPropertyOp18
 70
     1
102
RTVSPropertyOp19
 70
     1
102
RTVSPropertyOp20
 70
     1
102
RTVSPropertyOp21
 70
     1
102
RTVSPropertyOp22
 70
     1
102
RTVSPropertyOp23
 70
     1
102
RTVSPropertyOp24
 70
     1
102
RTVSPropertyOp25
 70
     1
102
RTVSPropertyOp26
 70
     1
102
RTVSPropertyOp27
 70
     1
102
RTVSPropertyOp28
 70
     1
102
RTVSPropertyOp29
 70
     1
102
RTVSPropertyOp30
 70
     1
102
RTVSPropertyOp31
 70
     1
102
RTVSPropertyOp32
 70
     1
102
RTVSPropertyOp33
 70
     1
102
RTVSPropertyOp34
 70
     1
102
RTVSPropertyOp35
 70
     1
102
RTVSPropertyOp36
 70
     1
102
RTVSPropertyOp37
 70
     1
102
RTVSPropertyOp38
 70
     1
102
RTVSPropertyOp39
 70
     1
102
RTVSPropertyOp40
 70
     1
102
RTVSPropertyOp41
 70
     1
102
RTVSPropertyOp42
 70
     1
102
RTVSPropertyOp43
 70
     1
102
RTVSPropertyOp44
 70
     1
102
RTVSPropertyOp45
 70
     1
102
RTVSPropertyOp46
 70
     1
102
RTVSPropertyOp47
 70
     1
102
RTVSPropertyOp48
 70
     1
102
RTVSPropertyOp49
 70
     1
102
RTVSPropertyOp50
 70
     1
102
RTVSPropertyOp51
 70
     0
102
RTVSPropertyOp52
 70
     0
102
RTVSPropertyOp53
 70
     1
102
RTVSPropertyOp54
 70
     1
102
RTVSPropertyOp55
 70
     1
102
RTVSPropertyOp56
 70
     1
102
RTVSPropertyOp57
 70
     1
102
RTVSPropertyOp58
 70
     1
102
RTVSPropertyOp59
 70
     1
102
RTVSPropertyOp60
 70
     1
102
RTVSPropertyOp61
 70
     1
102
RTVSPropertyOp62
 70
     1
  0
XRECORD
  5
513
102
{ACAD_REACTORS
330
512
102
}
330
512
100
AcDbXrecord
280
     1
102
RTVSPost2010Prop28
280
     0
102
RTVSPost2010PropOp28
 70
     1
102
RTVSPost2010Prop29
280
     1
102
RTVSPost2010PropOp29
 70
     1
102
RTVSPost2010Prop30
280
     1
102
RTVSPost2010PropOp30
 70
     1
102
RTVSPost2010Prop31
280
     0
102
RTVSPost2010PropOp31
 70
     1
102
RTVSPost2010Prop32
280
     0
102
RTVSPost2010PropOp32
 70
     1
102
RTVSPost2010Prop33
280
     0
102
RTVSPost2010PropOp33
 70
     1
102
RTVSPost2010Prop34
280
     0
102
RTVSPost2010PropOp34
 70
     1
102
RTVSPost2010Prop35
280
     0
102
RTVSPost2010PropOp35
 70
     1
102
RTVSPost2010Prop36
280
     0
102
RTVSPost2010PropOp36
 70
     1
102
RTVSPost2010Prop37
 90
       50
102
RTVSPost2010PropOp37
 70
     1
102
RTVSPost2010Prop38
140
0.0
102
RTVSPost2010PropOp38
 70
     1
102
RTVSPost2010Prop39
140
1.0
102
RTVSPost2010PropOp39
 70
     1
102
RTVSPost2010Prop40
 90
        0
102
RTVSPost2010PropOp40
 70
     1
102
RTVSPost2010Prop41ColorIndex
 90
       18
102
RTVSPost2010Prop41ColorRGB
 90
        0
102
RTVSPost2010PropOp41
 70
     1
102
RTVSPost2010Prop42
 90
       50
102
RTVSPost2010PropOp42
 70
     1
102
RTVSPost2010Prop43
 90
        3
102
RTVSPost2010PropOp43
 70
     1
102
RTVSPost2010Prop44ColorIndex
 90
        5
102
RTVSPost2010Prop44ColorRGB
 90
      255
102
RTVSPost2010PropOp44
 70
     1
102
RTVSPost2010Prop45
280
     0
102
RTVSPost2010PropOp45
 70
     1
102
RTVSPost2010Prop46
 90
       50
102
RTVSPost2010PropOp46
 70
     1
102
RTVSPost2010Prop47
 90
       50
102
RTVSPost2010PropOp47
 70
     1
102
RTVSPost2010Prop48
 90
       50
102
RTVSPost2010PropOp48
 70
     1
102
RTVSPost2010Prop49
280
     0
102
RTVSPost2010PropOp49
 70
     1
102
RTVSPost2010Prop50
 90
       50
102
RTVSPost2010PropOp50
 70
     1
102
RTVSPost2010Prop51ColorIndex
 90
      256
102
RTVSPost2010Prop51ColorRGB
 90
-16777216
102
RTVSPost2010PropOp51
 70
     0
102
RTVSPost2010Prop52
140
1.0
102
RTVSPost2010PropOp52
 70
     0
102
RTVSPost2010Prop53
 90
        2
102
RTVSPost2010PropOp53
 70
     1
102
RTVSPost2010Prop54
  1
strokes_ogs.tif
102
RTVSPost2010PropOp54
 70
     1
102
RTVSPost2010Prop55
280
     0
102
RTVSPost2010PropOp55
 70
     1
102
RTVSPost2010Prop56
140
1.0
102
RTVSPost2010PropOp56
 70
     1
102
RTVSPost2010Prop57
140
1.0
102
RTVSPost2010PropOp57
 70
     1
102
RTVSPropertyOp0
 70
     1
102
RTVSPropertyOp1
 70
     1
102
RTVSPropertyOp2
 70
     1
102
RTVSPropertyOp3
 70
     1
102
RTVSPropertyOp4
 70
     1
102
RTVSPropertyOp5
 70
     1
102
RTVSPropertyOp6
 70
     1
102
RTVSPropertyOp7
 70
     1
102
RTVSPropertyOp8
 70
     1
102
RTVSPropertyOp9
 70
     1
102
RTVSPropertyOp10
 70
     1
102
RTVSPropertyOp11
 70
     1
102
RTVSPropertyOp12
 70
     1
102
RTVSPropertyOp13
 70
     1
102
RTVSPropertyOp14
 70
     1
102
RTVSPropertyOp15
 70
     1
102
RTVSPropertyOp16
 70
     1
102
RTVSPropertyOp17
 70
     1
102
RTVSPropertyOp18
 70
     1
102
RTVSPropertyOp19
 70
     1
102
RTVSPropertyOp20
 70
     1
102
RTVSPropertyOp21
 70
     1
102
RTVSPropertyOp22
 70
     1
102
RTVSPropertyOp23
 70
     1
102
RTVSPropertyOp24
 70
     1
102
RTVSPropertyOp25
 70
     1
102
RTVSPropertyOp26
 70
     1
102
RTVSPropertyOp27
 70
     1
102
RTVSPropertyOp28
 70
     1
102
RTVSPropertyOp29
 70
     1
102
RTVSPropertyOp30
 70
     1
102
RTVSPropertyOp31
 70
     1
102
RTVSPropertyOp32
 70
     1
102
RTVSPropertyOp33
 70
     1
102
RTVSPropertyOp34
 70
     1
102
RTVSPropertyOp35
 70
     1
102
RTVSPropertyOp36
 70
     1
102
RTVSPropertyOp37
 70
     1
102
RTVSPropertyOp38
 70
     1
102
RTVSPropertyOp39
 70
     1
102
RTVSPropertyOp40
 70
     1
102
RTVSPropertyOp41
 70
     1
102
RTVSPropertyOp42
 70
     1
102
RTVSPropertyOp43
 70
     1
102
RTVSPropertyOp44
 70
     1
102
RTVSPropertyOp45
 70
     1
102
RTVSPropertyOp46
 70
     1
102
RTVSPropertyOp47
 70
     1
102
RTVSPropertyOp48
 70
     1
102
RTVSPropertyOp49
 70
     1
102
RTVSPropertyOp50
 70
     1
102
RTVSPropertyOp51
 70
     0
102
RTVSPropertyOp52
 70
     0
102
RTVSPropertyOp53
 70
     1
102
RTVSPropertyOp54
 70
     1
102
RTVSPropertyOp55
 70
     1
102
RTVSPropertyOp56
 70
     1
102
RTVSPropertyOp57
 70
     1
102
RTVSPropertyOp58
 70
     1
102
RTVSPropertyOp59
 70
     1
102
RTVSPropertyOp60
 70
     1
102
RTVSPropertyOp61
 70
     1
102
RTVSPropertyOp62
 70
     1
  0
XRECORD
  5
517
102
{ACAD_REACTORS
330
516
102
}
330
516
100
AcDbXrecord
280
     1
102
RTVSPost2010Prop28
280
     0
102
RTVSPost2010PropOp28
 70
     1
102
RTVSPost2010Prop29
280
     1
102
RTVSPost2010PropOp29
 70
     1
102
RTVSPost2010Prop30
280
     1
102
RTVSPost2010PropOp30
 70
     1
102
RTVSPost2010Prop31
280
     0
102
RTVSPost2010PropOp31
 70
     1
102
RTVSPost2010Prop32
280
     0
102
RTVSPost2010PropOp32
 70
     1
102
RTVSPost2010Prop33
280
     0
102
RTVSPost2010PropOp33
 70
     1
102
RTVSPost2010Prop34
280
     0
102
RTVSPost2010PropOp34
 70
     1
102
RTVSPost2010Prop35
280
     0
102
RTVSPost2010PropOp35
 70
     1
102
RTVSPost2010Prop36
280
     0
102
RTVSPost2010PropOp36
 70
     1
102
RTVSPost2010Prop37
 90
       50
102
RTVSPost2010PropOp37
 70
     1
102
RTVSPost2010Prop38
140
0.0
102
RTVSPost2010PropOp38
 70
     1
102
RTVSPost2010Prop39
140
1.0
102
RTVSPost2010PropOp39
 70
     1
102
RTVSPost2010Prop40
 90
        0
102
RTVSPost2010PropOp40
 70
     1
102
RTVSPost2010Prop41ColorIndex
 90
       18
102
RTVSPost2010Prop41ColorRGB
 90
        0
102
RTVSPost2010PropOp41
 70
     1
102
RTVSPost2010Prop42
 90
       50
102
RTVSPost2010PropOp42
 70
     1
102
RTVSPost2010Prop43
 90
        3
102
RTVSPost2010PropOp43
 70
     1
102
RTVSPost2010Prop44ColorIndex
 90
        5
102
RTVSPost2010Prop44ColorRGB
 90
      255
102
RTVSPost2010PropOp44
 70
     1
102
RTVSPost2010Prop45
280
     0
102
RTVSPost2010PropOp45
 70
     1
102
RTVSPost2010Prop46
 90
       50
102
RTVSPost2010PropOp46
 70
     1
102
RTVSPost2010Prop47
 90
       50
102
RTVSPost2010PropOp47
 70
     1
102
RTVSPost2010Prop48
 90
       50
102
RTVSPost2010PropOp48
 70
     1
102
RTVSPost2010Prop49
280
     0
102
RTVSPost2010PropOp49
 70
     1
102
RTVSPost2010Prop50
 90
       50
102
RTVSPost2010PropOp50
 70
     1
102
RTVSPost2010Prop51ColorIndex
 90
      256
102
RTVSPost2010Prop51ColorRGB
 90
-16777216
102
RTVSPost2010PropOp51
 70
     0
102
RTVSPost2010Prop52
140
1.0
102
RTVSPost2010PropOp52
 70
     0
102
RTVSPost2010Prop53
 90
        2
102
RTVSPost2010PropOp53
 70
     1
102
RTVSPost2010Prop54
  1
strokes_ogs.tif
102
RTVSPost2010PropOp54
 70
     1
102
RTVSPost2010Prop55
280
     0
102
RTVSPost2010PropOp55
 70
     1
102
RTVSPost2010Prop56
140
1.0
102
RTVSPost2010PropOp56
 70
     1
102
RTVSPost2010Prop57
140
1.0
102
RTVSPost2010PropOp57
 70
     1
102
RTVSPropertyOp0
 70
     1
102
RTVSPropertyOp1
 70
     1
102
RTVSPropertyOp2
 70
     1
102
RTVSPropertyOp3
 70
     1
102
RTVSPropertyOp4
 70
     1
102
RTVSPropertyOp5
 70
     1
102
RTVSPropertyOp6
 70
     1
102
RTVSPropertyOp7
 70
     1
102
RTVSPropertyOp8
 70
     1
102
RTVSPropertyOp9
 70
     1
102
RTVSPropertyOp10
 70
     1
102
RTVSPropertyOp11
 70
     1
102
RTVSPropertyOp12
 70
     1
102
RTVSPropertyOp13
 70
     1
102
RTVSPropertyOp14
 70
     1
102
RTVSPropertyOp15
 70
     1
102
RTVSPropertyOp16
 70
     1
102
RTVSPropertyOp17
 70
     1
102
RTVSPropertyOp18
 70
     1
102
RTVSPropertyOp19
 70
     1
102
RTVSPropertyOp20
 70
     1
102
RTVSPropertyOp21
 70
     1
102
RTVSPropertyOp22
 70
     1
102
RTVSPropertyOp23
 70
     1
102
RTVSPropertyOp24
 70
     1
102
RTVSPropertyOp25
 70
     1
102
RTVSPropertyOp26
 70
     1
102
RTVSPropertyOp27
 70
     1
102
RTVSPropertyOp28
 70
     1
102
RTVSPropertyOp29
 70
     1
102
RTVSPropertyOp30
 70
     1
102
RTVSPropertyOp31
 70
     1
102
RTVSPropertyOp32
 70
     1
102
RTVSPropertyOp33
 70
     1
102
RTVSPropertyOp34
 70
     1
102
RTVSPropertyOp35
 70
     1
102
RTVSPropertyOp36
 70
     1
102
RTVSPropertyOp37
 70
     1
102
RTVSPropertyOp38
 70
     1
102
RTVSPropertyOp39
 70
     1
102
RTVSPropertyOp40
 70
     1
102
RTVSPropertyOp41
 70
     1
102
RTVSPropertyOp42
 70
     1
102
RTVSPropertyOp43
 70
     1
102
RTVSPropertyOp44
 70
     1
102
RTVSPropertyOp45
 70
     1
102
RTVSPropertyOp46
 70
     1
102
RTVSPropertyOp47
 70
     1
102
RTVSPropertyOp48
 70
     1
102
RTVSPropertyOp49
 70
     1
102
RTVSPropertyOp50
 70
     1
102
RTVSPropertyOp51
 70
     0
102
RTVSPropertyOp52
 70
     0
102
RTVSPropertyOp53
 70
     1
102
RTVSPropertyOp54
 70
     1
102
RTVSPropertyOp55
 70
     1
102
RTVSPropertyOp56
 70
     1
102
RTVSPropertyOp57
 70
     1
102
RTVSPropertyOp58
 70
     1
102
RTVSPropertyOp59
 70
     1
102
RTVSPropertyOp60
 70
     1
102
RTVSPropertyOp61
 70
     1
102
RTVSPropertyOp62
 70
     1
  0
XRECORD
  5
531
102
{ACAD_REACTORS
330
530
102
}
330
530
100
AcDbXrecord
280
     1
102
RTVSPost2010Prop28
280
     0
102
RTVSPost2010PropOp28
 70
     1
102
RTVSPost2010Prop29
280
     1
102
RTVSPost2010PropOp29
 70
     1
102
RTVSPost2010Prop30
280
     1
102
RTVSPost2010PropOp30
 70
     1
102
RTVSPost2010Prop31
280
     0
102
RTVSPost2010PropOp31
 70
     1
102
RTVSPost2010Prop32
280
     0
102
RTVSPost2010PropOp32
 70
     1
102
RTVSPost2010Prop33
280
     0
102
RTVSPost2010PropOp33
 70
     1
102
RTVSPost2010Prop34
280
     0
102
RTVSPost2010PropOp34
 70
     1
102
RTVSPost2010Prop35
280
     0
102
RTVSPost2010PropOp35
 70
     1
102
RTVSPost2010Prop36
280
     0
102
RTVSPost2010PropOp36
 70
     1
102
RTVSPost2010Prop37
 90
       50
102
RTVSPost2010PropOp37
 70
     0
102
RTVSPost2010Prop38
140
0.0
102
RTVSPost2010PropOp38
 70
     0
102
RTVSPost2010Prop39
140
1.0
102
RTVSPost2010PropOp39
 70
     0
102
RTVSPost2010Prop40
 90
        0
102
RTVSPost2010PropOp40
 70
     0
102
RTVSPost2010Prop41ColorIndex
 90
       18
102
RTVSPost2010Prop41ColorRGB
 90
        0
102
RTVSPost2010PropOp41
 70
     0
102
RTVSPost2010Prop42
 90
       50
102
RTVSPost2010PropOp42
 70
     0
102
RTVSPost2010Prop43
 90
        3
102
RTVSPost2010PropOp43
 70
     0
102
RTVSPost2010Prop44ColorIndex
 90
        5
102
RTVSPost2010Prop44ColorRGB
 90
      255
102
RTVSPost2010PropOp44
 70
     0
102
RTVSPost2010Prop45
280
     0
102
RTVSPost2010PropOp45
 70
     1
102
RTVSPost2010Prop46
 90
       50
102
RTVSPost2010PropOp46
 70
     0
102
RTVSPost2010Prop47
 90
       50
102
RTVSPost2010PropOp47
 70
     0
102
RTVSPost2010Prop48
 90
       50
102
RTVSPost2010PropOp48
 70
     0
102
RTVSPost2010Prop49
280
     0
102
RTVSPost2010PropOp49
 70
     1
102
RTVSPost2010Prop50
 90
       50
102
RTVSPost2010PropOp50
 70
     0
102
RTVSPost2010Prop51ColorIndex
 90
      256
102
RTVSPost2010Prop51ColorRGB
 90
-16777216
102
RTVSPost2010PropOp51
 70
     0
102
RTVSPost2010Prop52
140
1.0
102
RTVSPost2010PropOp52
 70
     0
102
RTVSPost2010Prop53
 90
        2
102
RTVSPost2010PropOp53
 70
     0
102
RTVSPost2010Prop54
  1
strokes_ogs.tif
102
RTVSPost2010PropOp54
 70
     0
102
RTVSPost2010Prop55
280
     0
102
RTVSPost2010PropOp55
 70
     1
102
RTVSPost2010Prop56
140
1.0
102
RTVSPost2010PropOp56
 70
     0
102
RTVSPost2010Prop57
140
1.0
102
RTVSPost2010PropOp57
 70
     0
102
RTVSPropertyOp0
 70
     0
102
RTVSPropertyOp1
 70
     0
102
RTVSPropertyOp2
 70
     0
102
RTVSPropertyOp3
 70
     0
102
RTVSPropertyOp4
 70
     0
102
RTVSPropertyOp5
 70
     0
102
RTVSPropertyOp6
 70
     0
102
RTVSPropertyOp7
 70
     0
102
RTVSPropertyOp8
 70
     0
102
RTVSPropertyOp9
 70
     0
102
RTVSPropertyOp10
 70
     0
102
RTVSPropertyOp11
 70
     0
102
RTVSPropertyOp12
 70
     0
102
RTVSPropertyOp13
 70
     0
102
RTVSPropertyOp14
 70
     2
102
RTVSPropertyOp15
 70
     0
102
RTVSPropertyOp16
 70
     0
102
RTVSPropertyOp17
 70
     0
102
RTVSPropertyOp18
 70
     0
102
RTVSPropertyOp19
 70
     0
102
RTVSPropertyOp20
 70
     0
102
RTVSPropertyOp21
 70
     0
102
RTVSPropertyOp22
 70
     0
102
RTVSPropertyOp23
 70
     0
102
RTVSPropertyOp24
 70
     0
102
RTVSPropertyOp25
 70
     0
102
RTVSPropertyOp26
 70
     0
102
RTVSPropertyOp27
 70
     0
102
RTVSPropertyOp28
 70
     1
102
RTVSPropertyOp29
 70
     1
102
RTVSPropertyOp30
 70
     1
102
RTVSPropertyOp31
 70
     1
102
RTVSPropertyOp32
 70
     1
102
RTVSPropertyOp33
 70
     1
102
RTVSPropertyOp34
 70
     1
102
RTVSPropertyOp35
 70
     1
102
RTVSPropertyOp36
 70
     1
102
RTVSPropertyOp37
 70
     0
102
RTVSPropertyOp38
 70
     0
102
RTVSPropertyOp39
 70
     0
102
RTVSPropertyOp40
 70
     0
102
RTVSPropertyOp41
 70
     0
102
RTVSPropertyOp42
 70
     0
102
RTVSPropertyOp43
 70
     0
102
RTVSPropertyOp44
 70
     0
102
RTVSPropertyOp45
 70
     1
102
RTVSPropertyOp46
 70
     0
102
RTVSPropertyOp47
 70
     0
102
RTVSPropertyOp48
 70
     0
102
RTVSPropertyOp49
 70
     1
102
RTVSPropertyOp50
 70
     0
102
RTVSPropertyOp51
 70
     0
102
RTVSPropertyOp52
 70
     0
102
RTVSPropertyOp53
 70
     0
102
RTVSPropertyOp54
 70
     0
102
RTVSPropertyOp55
 70
     1
102
RTVSPropertyOp56
 70
     0
102
RTVSPropertyOp57
 70
     0
102
RTVSPropertyOp58
 70
     0
102
RTVSPropertyOp59
 70
     0
102
RTVSPropertyOp60
 70
     0
102
RTVSPropertyOp61
 70
     0
102
RTVSPropertyOp62
 70
     0
  0
XRECORD
  5
51F
102
{ACAD_REACTORS
330
51E
102
}
330
51E
100
AcDbXrecord
280
     1
102
RTVSPost2010Prop28
280
     0
102
RTVSPost2010PropOp28
 70
     1
102
RTVSPost2010Prop29
280
     1
102
RTVSPost2010PropOp29
 70
     1
102
RTVSPost2010Prop30
280
     1
102
RTVSPost2010PropOp30
 70
     1
102
RTVSPost2010Prop31
280
     0
102
RTVSPost2010PropOp31
 70
     1
102
RTVSPost2010Prop32
280
     0
102
RTVSPost2010PropOp32
 70
     1
102
RTVSPost2010Prop33
280
     0
102
RTVSPost2010PropOp33
 70
     1
102
RTVSPost2010Prop34
280
     0
102
RTVSPost2010PropOp34
 70
     1
102
RTVSPost2010Prop35
280
     0
102
RTVSPost2010PropOp35
 70
     1
102
RTVSPost2010Prop36
280
     0
102
RTVSPost2010PropOp36
 70
     1
102
RTVSPost2010Prop37
 90
       50
102
RTVSPost2010PropOp37
 70
     1
102
RTVSPost2010Prop38
140
0.0
102
RTVSPost2010PropOp38
 70
     1
102
RTVSPost2010Prop39
140
1.0
102
RTVSPost2010PropOp39
 70
     1
102
RTVSPost2010Prop40
 90
        0
102
RTVSPost2010PropOp40
 70
     1
102
RTVSPost2010Prop41ColorIndex
 90
       18
102
RTVSPost2010Prop41ColorRGB
 90
        0
102
RTVSPost2010PropOp41
 70
     1
102
RTVSPost2010Prop42
 90
       50
102
RTVSPost2010PropOp42
 70
     1
102
RTVSPost2010Prop43
 90
        3
102
RTVSPost2010PropOp43
 70
     1
102
RTVSPost2010Prop44ColorIndex
 90
        5
102
RTVSPost2010Prop44ColorRGB
 90
      255
102
RTVSPost2010PropOp44
 70
     1
102
RTVSPost2010Prop45
280
     0
102
RTVSPost2010PropOp45
 70
     1
102
RTVSPost2010Prop46
 90
       50
102
RTVSPost2010PropOp46
 70
     1
102
RTVSPost2010Prop47
 90
       50
102
RTVSPost2010PropOp47
 70
     1
102
RTVSPost2010Prop48
 90
       50
102
RTVSPost2010PropOp48
 70
     1
102
RTVSPost2010Prop49
280
     0
102
RTVSPost2010PropOp49
 70
     1
102
RTVSPost2010Prop50
 90
       50
102
RTVSPost2010PropOp50
 70
     1
102
RTVSPost2010Prop51ColorIndex
 90
      256
102
RTVSPost2010Prop51ColorRGB
 90
-16777216
102
RTVSPost2010PropOp51
 70
     0
102
RTVSPost2010Prop52
140
1.0
102
RTVSPost2010PropOp52
 70
     0
102
RTVSPost2010Prop53
 90
        2
102
RTVSPost2010PropOp53
 70
     1
102
RTVSPost2010Prop54
  1
strokes_ogs.tif
102
RTVSPost2010PropOp54
 70
     1
102
RTVSPost2010Prop55
280
     0
102
RTVSPost2010PropOp55
 70
     1
102
RTVSPost2010Prop56
140
1.0
102
RTVSPost2010PropOp56
 70
     1
102
RTVSPost2010Prop57
140
1.0
102
RTVSPost2010PropOp57
 70
     1
102
RTVSPropertyOp0
 70
     1
102
RTVSPropertyOp1
 70
     1
102
RTVSPropertyOp2
 70
     1
102
RTVSPropertyOp3
 70
     1
102
RTVSPropertyOp4
 70
     1
102
RTVSPropertyOp5
 70
     1
102
RTVSPropertyOp6
 70
     1
102
RTVSPropertyOp7
 70
     1
102
RTVSPropertyOp8
 70
     1
102
RTVSPropertyOp9
 70
     1
102
RTVSPropertyOp10
 70
     1
102
RTVSPropertyOp11
 70
     1
102
RTVSPropertyOp12
 70
     1
102
RTVSPropertyOp13
 70
     1
102
RTVSPropertyOp14
 70
     1
102
RTVSPropertyOp15
 70
     1
102
RTVSPropertyOp16
 70
     1
102
RTVSPropertyOp17
 70
     1
102
RTVSPropertyOp18
 70
     1
102
RTVSPropertyOp19
 70
     1
102
RTVSPropertyOp20
 70
     1
102
RTVSPropertyOp21
 70
     1
102
RTVSPropertyOp22
 70
     1
102
RTVSPropertyOp23
 70
     1
102
RTVSPropertyOp24
 70
     1
102
RTVSPropertyOp25
 70
     1
102
RTVSPropertyOp26
 70
     1
102
RTVSPropertyOp27
 70
     1
102
RTVSPropertyOp28
 70
     1
102
RTVSPropertyOp29
 70
     1
102
RTVSPropertyOp30
 70
     1
102
RTVSPropertyOp31
 70
     1
102
RTVSPropertyOp32
 70
     1
102
RTVSPropertyOp33
 70
     1
102
RTVSPropertyOp34
 70
     1
102
RTVSPropertyOp35
 70
     1
102
RTVSPropertyOp36
 70
     1
102
RTVSPropertyOp37
 70
     1
102
RTVSPropertyOp38
 70
     1
102
RTVSPropertyOp39
 70
     1
102
RTVSPropertyOp40
 70
     1
102
RTVSPropertyOp41
 70
     1
102
RTVSPropertyOp42
 70
     1
102
RTVSPropertyOp43
 70
     1
102
RTVSPropertyOp44
 70
     1
102
RTVSPropertyOp45
 70
     1
102
RTVSPropertyOp46
 70
     1
102
RTVSPropertyOp47
 70
     1
102
RTVSPropertyOp48
 70
     1
102
RTVSPropertyOp49
 70
     1
102
RTVSPropertyOp50
 70
     1
102
RTVSPropertyOp51
 70
     0
102
RTVSPropertyOp52
 70
     0
102
RTVSPropertyOp53
 70
     1
102
RTVSPropertyOp54
 70
     1
102
RTVSPropertyOp55
 70
     1
102
RTVSPropertyOp56
 70
     1
102
RTVSPropertyOp57
 70
     1
102
RTVSPropertyOp58
 70
     1
102
RTVSPropertyOp59
 70
     1
102
RTVSPropertyOp60
 70
     1
102
RTVSPropertyOp61
 70
     1
102
RTVSPropertyOp62
 70
     1
  0
XRECORD
  5
503
102
{ACAD_REACTORS
330
502
102
}
330
502
100
AcDbXrecord
280
     1
102
RTVSPost2010Prop28
280
     0
102
RTVSPost2010PropOp28
 70
     1
102
RTVSPost2010Prop29
280
     1
102
RTVSPost2010PropOp29
 70
     1
102
RTVSPost2010Prop30
280
     1
102
RTVSPost2010PropOp30
 70
     1
102
RTVSPost2010Prop31
280
     0
102
RTVSPost2010PropOp31
 70
     1
102
RTVSPost2010Prop32
280
     0
102
RTVSPost2010PropOp32
 70
     1
102
RTVSPost2010Prop33
280
     0
102
RTVSPost2010PropOp33
 70
     1
102
RTVSPost2010Prop34
280
     0
102
RTVSPost2010PropOp34
 70
     1
102
RTVSPost2010Prop35
280
     0
102
RTVSPost2010PropOp35
 70
     1
102
RTVSPost2010Prop36
280
     0
102
RTVSPost2010PropOp36
 70
     1
102
RTVSPost2010Prop37
 90
       50
102
RTVSPost2010PropOp37
 70
     1
102
RTVSPost2010Prop38
140
0.0
102
RTVSPost2010PropOp38
 70
     1
102
RTVSPost2010Prop39
140
1.0
102
RTVSPost2010PropOp39
 70
     1
102
RTVSPost2010Prop40
 90
        0
102
RTVSPost2010PropOp40
 70
     1
102
RTVSPost2010Prop41ColorIndex
 90
       18
102
RTVSPost2010Prop41ColorRGB
 90
        0
102
RTVSPost2010PropOp41
 70
     1
102
RTVSPost2010Prop42
 90
       50
102
RTVSPost2010PropOp42
 70
     1
102
RTVSPost2010Prop43
 90
        3
102
RTVSPost2010PropOp43
 70
     1
102
RTVSPost2010Prop44ColorIndex
 90
        5
102
RTVSPost2010Prop44ColorRGB
 90
      255
102
RTVSPost2010PropOp44
 70
     1
102
RTVSPost2010Prop45
280
     0
102
RTVSPost2010PropOp45
 70
     1
102
RTVSPost2010Prop46
 90
       50
102
RTVSPost2010PropOp46
 70
     1
102
RTVSPost2010Prop47
 90
       50
102
RTVSPost2010PropOp47
 70
     1
102
RTVSPost2010Prop48
 90
       50
102
RTVSPost2010PropOp48
 70
     1
102
RTVSPost2010Prop49
280
     0
102
RTVSPost2010PropOp49
 70
     1
102
RTVSPost2010Prop50
 90
       50
102
RTVSPost2010PropOp50
 70
     1
102
RTVSPost2010Prop51ColorIndex
 90
      256
102
RTVSPost2010Prop51ColorRGB
 90
-16777216
102
RTVSPost2010PropOp51
 70
     0
102
RTVSPost2010Prop52
140
1.0
102
RTVSPost2010PropOp52
 70
     0
102
RTVSPost2010Prop53
 90
        2
102
RTVSPost2010PropOp53
 70
     1
102
RTVSPost2010Prop54
  1
strokes_ogs.tif
102
RTVSPost2010PropOp54
 70
     1
102
RTVSPost2010Prop55
280
     0
102
RTVSPost2010PropOp55
 70
     1
102
RTVSPost2010Prop56
140
1.0
102
RTVSPost2010PropOp56
 70
     1
102
RTVSPost2010Prop57
140
1.0
102
RTVSPost2010PropOp57
 70
     1
102
RTVSPropertyOp0
 70
     1
102
RTVSPropertyOp1
 70
     1
102
RTVSPropertyOp2
 70
     1
102
RTVSPropertyOp3
 70
     1
102
RTVSPropertyOp4
 70
     1
102
RTVSPropertyOp5
 70
     1
102
RTVSPropertyOp6
 70
     1
102
RTVSPropertyOp7
 70
     1
102
RTVSPropertyOp8
 70
     1
102
RTVSPropertyOp9
 70
     1
102
RTVSPropertyOp10
 70
     1
102
RTVSPropertyOp11
 70
     1
102
RTVSPropertyOp12
 70
     1
102
RTVSPropertyOp13
 70
     1
102
RTVSPropertyOp14
 70
     1
102
RTVSPropertyOp15
 70
     1
102
RTVSPropertyOp16
 70
     1
102
RTVSPropertyOp17
 70
     1
102
RTVSPropertyOp18
 70
     1
102
RTVSPropertyOp19
 70
     1
102
RTVSPropertyOp20
 70
     1
102
RTVSPropertyOp21
 70
     1
102
RTVSPropertyOp22
 70
     1
102
RTVSPropertyOp23
 70
     1
102
RTVSPropertyOp24
 70
     1
102
RTVSPropertyOp25
 70
     1
102
RTVSPropertyOp26
 70
     1
102
RTVSPropertyOp27
 70
     1
102
RTVSPropertyOp28
 70
     1
102
RTVSPropertyOp29
 70
     1
102
RTVSPropertyOp30
 70
     1
102
RTVSPropertyOp31
 70
     1
102
RTVSPropertyOp32
 70
     1
102
RTVSPropertyOp33
 70
     1
102
RTVSPropertyOp34
 70
     1
102
RTVSPropertyOp35
 70
     1
102
RTVSPropertyOp36
 70
     1
102
RTVSPropertyOp37
 70
     1
102
RTVSPropertyOp38
 70
     1
102
RTVSPropertyOp39
 70
     1
102
RTVSPropertyOp40
 70
     1
102
RTVSPropertyOp41
 70
     1
102
RTVSPropertyOp42
 70
     1
102
RTVSPropertyOp43
 70
     1
102
RTVSPropertyOp44
 70
     1
102
RTVSPropertyOp45
 70
     1
102
RTVSPropertyOp46
 70
     1
102
RTVSPropertyOp47
 70
     1
102
RTVSPropertyOp48
 70
     1
102
RTVSPropertyOp49
 70
     1
102
RTVSPropertyOp50
 70
     1
102
RTVSPropertyOp51
 70
     0
102
RTVSPropertyOp52
 70
     0
102
RTVSPropertyOp53
 70
     1
102
RTVSPropertyOp54
 70
     1
102
RTVSPropertyOp55
 70
     1
102
RTVSPropertyOp56
 70
     1
102
RTVSPropertyOp57
 70
     1
102
RTVSPropertyOp58
 70
     1
102
RTVSPropertyOp59
 70
     1
102
RTVSPropertyOp60
 70
     1
102
RTVSPropertyOp61
 70
     1
102
RTVSPropertyOp62
 70
     1
  0
XRECORD
  5
505
102
{ACAD_REACTORS
330
504
102
}
330
504
100
AcDbXrecord
280
     1
102
RTVSPost2010Prop28
280
     0
102
RTVSPost2010PropOp28
 70
     1
102
RTVSPost2010Prop29
280
     1
102
RTVSPost2010PropOp29
 70
     1
102
RTVSPost2010Prop30
280
     1
102
RTVSPost2010PropOp30
 70
     1
102
RTVSPost2010Prop31
280
     0
102
RTVSPost2010PropOp31
 70
     1
102
RTVSPost2010Prop32
280
     0
102
RTVSPost2010PropOp32
 70
     1
102
RTVSPost2010Prop33
280
     0
102
RTVSPost2010PropOp33
 70
     1
102
RTVSPost2010Prop34
280
     0
102
RTVSPost2010PropOp34
 70
     1
102
RTVSPost2010Prop35
280
     0
102
RTVSPost2010PropOp35
 70
     1
102
RTVSPost2010Prop36
280
     0
102
RTVSPost2010PropOp36
 70
     1
102
RTVSPost2010Prop37
 90
       50
102
RTVSPost2010PropOp37
 70
     1
102
RTVSPost2010Prop38
140
0.0
102
RTVSPost2010PropOp38
 70
     1
102
RTVSPost2010Prop39
140
1.0
102
RTVSPost2010PropOp39
 70
     1
102
RTVSPost2010Prop40
 90
        0
102
RTVSPost2010PropOp40
 70
     1
102
RTVSPost2010Prop41ColorIndex
 90
       18
102
RTVSPost2010Prop41ColorRGB
 90
        0
102
RTVSPost2010PropOp41
 70
     1
102
RTVSPost2010Prop42
 90
       50
102
RTVSPost2010PropOp42
 70
     1
102
RTVSPost2010Prop43
 90
        3
102
RTVSPost2010PropOp43
 70
     1
102
RTVSPost2010Prop44ColorIndex
 90
        5
102
RTVSPost2010Prop44ColorRGB
 90
      255
102
RTVSPost2010PropOp44
 70
     1
102
RTVSPost2010Prop45
280
     0
102
RTVSPost2010PropOp45
 70
     1
102
RTVSPost2010Prop46
 90
       50
102
RTVSPost2010PropOp46
 70
     1
102
RTVSPost2010Prop47
 90
       50
102
RTVSPost2010PropOp47
 70
     1
102
RTVSPost2010Prop48
 90
       50
102
RTVSPost2010PropOp48
 70
     1
102
RTVSPost2010Prop49
280
     0
102
RTVSPost2010PropOp49
 70
     1
102
RTVSPost2010Prop50
 90
       50
102
RTVSPost2010PropOp50
 70
     1
102
RTVSPost2010Prop51ColorIndex
 90
      256
102
RTVSPost2010Prop51ColorRGB
 90
-16777216
102
RTVSPost2010PropOp51
 70
     0
102
RTVSPost2010Prop52
140
1.0
102
RTVSPost2010PropOp52
 70
     0
102
RTVSPost2010Prop53
 90
        2
102
RTVSPost2010PropOp53
 70
     1
102
RTVSPost2010Prop54
  1
strokes_ogs.tif
102
RTVSPost2010PropOp54
 70
     1
102
RTVSPost2010Prop55
280
     0
102
RTVSPost2010PropOp55
 70
     1
102
RTVSPost2010Prop56
140
1.0
102
RTVSPost2010PropOp56
 70
     1
102
RTVSPost2010Prop57
140
1.0
102
RTVSPost2010PropOp57
 70
     1
102
RTVSPropertyOp0
 70
     1
102
RTVSPropertyOp1
 70
     1
102
RTVSPropertyOp2
 70
     1
102
RTVSPropertyOp3
 70
     1
102
RTVSPropertyOp4
 70
     1
102
RTVSPropertyOp5
 70
     1
102
RTVSPropertyOp6
 70
     1
102
RTVSPropertyOp7
 70
     1
102
RTVSPropertyOp8
 70
     1
102
RTVSPropertyOp9
 70
     1
102
RTVSPropertyOp10
 70
     1
102
RTVSPropertyOp11
 70
     1
102
RTVSPropertyOp12
 70
     1
102
RTVSPropertyOp13
 70
     1
102
RTVSPropertyOp14
 70
     1
102
RTVSPropertyOp15
 70
     1
102
RTVSPropertyOp16
 70
     1
102
RTVSPropertyOp17
 70
     1
102
RTVSPropertyOp18
 70
     1
102
RTVSPropertyOp19
 70
     1
102
RTVSPropertyOp20
 70
     1
102
RTVSPropertyOp21
 70
     1
102
RTVSPropertyOp22
 70
     1
102
RTVSPropertyOp23
 70
     1
102
RTVSPropertyOp24
 70
     1
102
RTVSPropertyOp25
 70
     1
102
RTVSPropertyOp26
 70
     1
102
RTVSPropertyOp27
 70
     1
102
RTVSPropertyOp28
 70
     1
102
RTVSPropertyOp29
 70
     1
102
RTVSPropertyOp30
 70
     1
102
RTVSPropertyOp31
 70
     1
102
RTVSPropertyOp32
 70
     1
102
RTVSPropertyOp33
 70
     1
102
RTVSPropertyOp34
 70
     1
102
RTVSPropertyOp35
 70
     1
102
RTVSPropertyOp36
 70
     1
102
RTVSPropertyOp37
 70
     1
102
RTVSPropertyOp38
 70
     1
102
RTVSPropertyOp39
 70
     1
102
RTVSPropertyOp40
 70
     1
102
RTVSPropertyOp41
 70
     1
102
RTVSPropertyOp42
 70
     1
102
RTVSPropertyOp43
 70
     1
102
RTVSPropertyOp44
 70
     1
102
RTVSPropertyOp45
 70
     1
102
RTVSPropertyOp46
 70
     1
102
RTVSPropertyOp47
 70
     1
102
RTVSPropertyOp48
 70
     1
102
RTVSPropertyOp49
 70
     1
102
RTVSPropertyOp50
 70
     1
102
RTVSPropertyOp51
 70
     0
102
RTVSPropertyOp52
 70
     0
102
RTVSPropertyOp53
 70
     1
102
RTVSPropertyOp54
 70
     1
102
RTVSPropertyOp55
 70
     1
102
RTVSPropertyOp56
 70
     1
102
RTVSPropertyOp57
 70
     1
102
RTVSPropertyOp58
 70
     1
102
RTVSPropertyOp59
 70
     1
102
RTVSPropertyOp60
 70
     1
102
RTVSPropertyOp61
 70
     1
102
RTVSPropertyOp62
 70
     1
  0
XRECORD
  5
507
102
{ACAD_REACTORS
330
506
102
}
330
506
100
AcDbXrecord
280
     1
102
RTVSPost2010Prop28
280
     0
102
RTVSPost2010PropOp28
 70
     1
102
RTVSPost2010Prop29
280
     1
102
RTVSPost2010PropOp29
 70
     1
102
RTVSPost2010Prop30
280
     1
102
RTVSPost2010PropOp30
 70
     1
102
RTVSPost2010Prop31
280
     0
102
RTVSPost2010PropOp31
 70
     1
102
RTVSPost2010Prop32
280
     0
102
RTVSPost2010PropOp32
 70
     1
102
RTVSPost2010Prop33
280
     0
102
RTVSPost2010PropOp33
 70
     1
102
RTVSPost2010Prop34
280
     0
102
RTVSPost2010PropOp34
 70
     1
102
RTVSPost2010Prop35
280
     0
102
RTVSPost2010PropOp35
 70
     1
102
RTVSPost2010Prop36
280
     0
102
RTVSPost2010PropOp36
 70
     1
102
RTVSPost2010Prop37
 90
       50
102
RTVSPost2010PropOp37
 70
     1
102
RTVSPost2010Prop38
140
0.0
102
RTVSPost2010PropOp38
 70
     1
102
RTVSPost2010Prop39
140
1.0
102
RTVSPost2010PropOp39
 70
     1
102
RTVSPost2010Prop40
 90
        0
102
RTVSPost2010PropOp40
 70
     1
102
RTVSPost2010Prop41ColorIndex
 90
       18
102
RTVSPost2010Prop41ColorRGB
 90
        0
102
RTVSPost2010PropOp41
 70
     1
102
RTVSPost2010Prop42
 90
       50
102
RTVSPost2010PropOp42
 70
     1
102
RTVSPost2010Prop43
 90
        3
102
RTVSPost2010PropOp43
 70
     1
102
RTVSPost2010Prop44ColorIndex
 90
        5
102
RTVSPost2010Prop44ColorRGB
 90
      255
102
RTVSPost2010PropOp44
 70
     1
102
RTVSPost2010Prop45
280
     0
102
RTVSPost2010PropOp45
 70
     1
102
RTVSPost2010Prop46
 90
       50
102
RTVSPost2010PropOp46
 70
     1
102
RTVSPost2010Prop47
 90
       50
102
RTVSPost2010PropOp47
 70
     1
102
RTVSPost2010Prop48
 90
       50
102
RTVSPost2010PropOp48
 70
     1
102
RTVSPost2010Prop49
280
     0
102
RTVSPost2010PropOp49
 70
     1
102
RTVSPost2010Prop50
 90
       50
102
RTVSPost2010PropOp50
 70
     1
102
RTVSPost2010Prop51ColorIndex
 90
      256
102
RTVSPost2010Prop51ColorRGB
 90
-16777216
102
RTVSPost2010PropOp51
 70
     0
102
RTVSPost2010Prop52
140
1.0
102
RTVSPost2010PropOp52
 70
     0
102
RTVSPost2010Prop53
 90
        2
102
RTVSPost2010PropOp53
 70
     1
102
RTVSPost2010Prop54
  1
strokes_ogs.tif
102
RTVSPost2010PropOp54
 70
     1
102
RTVSPost2010Prop55
280
     0
102
RTVSPost2010PropOp55
 70
     1
102
RTVSPost2010Prop56
140
1.0
102
RTVSPost2010PropOp56
 70
     1
102
RTVSPost2010Prop57
140
1.0
102
RTVSPost2010PropOp57
 70
     1
102
RTVSPropertyOp0
 70
     1
102
RTVSPropertyOp1
 70
     1
102
RTVSPropertyOp2
 70
     1
102
RTVSPropertyOp3
 70
     1
102
RTVSPropertyOp4
 70
     1
102
RTVSPropertyOp5
 70
     1
102
RTVSPropertyOp6
 70
     1
102
RTVSPropertyOp7
 70
     1
102
RTVSPropertyOp8
 70
     1
102
RTVSPropertyOp9
 70
     1
102
RTVSPropertyOp10
 70
     1
102
RTVSPropertyOp11
 70
     1
102
RTVSPropertyOp12
 70
     1
102
RTVSPropertyOp13
 70
     1
102
RTVSPropertyOp14
 70
     1
102
RTVSPropertyOp15
 70
     1
102
RTVSPropertyOp16
 70
     1
102
RTVSPropertyOp17
 70
     1
102
RTVSPropertyOp18
 70
     1
102
RTVSPropertyOp19
 70
     1
102
RTVSPropertyOp20
 70
     1
102
RTVSPropertyOp21
 70
     1
102
RTVSPropertyOp22
 70
     1
102
RTVSPropertyOp23
 70
     1
102
RTVSPropertyOp24
 70
     1
102
RTVSPropertyOp25
 70
     1
102
RTVSPropertyOp26
 70
     1
102
RTVSPropertyOp27
 70
     1
102
RTVSPropertyOp28
 70
     1
102
RTVSPropertyOp29
 70
     1
102
RTVSPropertyOp30
 70
     1
102
RTVSPropertyOp31
 70
     1
102
RTVSPropertyOp32
 70
     1
102
RTVSPropertyOp33
 70
     1
102
RTVSPropertyOp34
 70
     1
102
RTVSPropertyOp35
 70
     1
102
RTVSPropertyOp36
 70
     1
102
RTVSPropertyOp37
 70
     1
102
RTVSPropertyOp38
 70
     1
102
RTVSPropertyOp39
 70
     1
102
RTVSPropertyOp40
 70
     1
102
RTVSPropertyOp41
 70
     1
102
RTVSPropertyOp42
 70
     1
102
RTVSPropertyOp43
 70
     1
102
RTVSPropertyOp44
 70
     1
102
RTVSPropertyOp45
 70
     1
102
RTVSPropertyOp46
 70
     1
102
RTVSPropertyOp47
 70
     1
102
RTVSPropertyOp48
 70
     1
102
RTVSPropertyOp49
 70
     1
102
RTVSPropertyOp50
 70
     1
102
RTVSPropertyOp51
 70
     0
102
RTVSPropertyOp52
 70
     0
102
RTVSPropertyOp53
 70
     1
102
RTVSPropertyOp54
 70
     1
102
RTVSPropertyOp55
 70
     1
102
RTVSPropertyOp56
 70
     1
102
RTVSPropertyOp57
 70
     1
102
RTVSPropertyOp58
 70
     1
102
RTVSPropertyOp59
 70
     1
102
RTVSPropertyOp60
 70
     1
102
RTVSPropertyOp61
 70
     1
102
RTVSPropertyOp62
 70
     1
  0
XRECORD
  5
509
102
{ACAD_REACTORS
330
508
102
}
330
508
100
AcDbXrecord
280
     1
102
RTVSPost2010Prop28
280
     0
102
RTVSPost2010PropOp28
 70
     1
102
RTVSPost2010Prop29
280
     1
102
RTVSPost2010PropOp29
 70
     1
102
RTVSPost2010Prop30
280
     1
102
RTVSPost2010PropOp30
 70
     1
102
RTVSPost2010Prop31
280
     0
102
RTVSPost2010PropOp31
 70
     1
102
RTVSPost2010Prop32
280
     0
102
RTVSPost2010PropOp32
 70
     1
102
RTVSPost2010Prop33
280
     0
102
RTVSPost2010PropOp33
 70
     1
102
RTVSPost2010Prop34
280
     0
102
RTVSPost2010PropOp34
 70
     1
102
RTVSPost2010Prop35
280
     0
102
RTVSPost2010PropOp35
 70
     1
102
RTVSPost2010Prop36
280
     0
102
RTVSPost2010PropOp36
 70
     1
102
RTVSPost2010Prop37
 90
       50
102
RTVSPost2010PropOp37
 70
     1
102
RTVSPost2010Prop38
140
0.0
102
RTVSPost2010PropOp38
 70
     1
102
RTVSPost2010Prop39
140
1.0
102
RTVSPost2010PropOp39
 70
     1
102
RTVSPost2010Prop40
 90
        0
102
RTVSPost2010PropOp40
 70
     1
102
RTVSPost2010Prop41ColorIndex
 90
       18
102
RTVSPost2010Prop41ColorRGB
 90
        0
102
RTVSPost2010PropOp41
 70
     1
102
RTVSPost2010Prop42
 90
       50
102
RTVSPost2010PropOp42
 70
     1
102
RTVSPost2010Prop43
 90
        3
102
RTVSPost2010PropOp43
 70
     1
102
RTVSPost2010Prop44ColorIndex
 90
        5
102
RTVSPost2010Prop44ColorRGB
 90
      255
102
RTVSPost2010PropOp44
 70
     1
102
RTVSPost2010Prop45
280
     0
102
RTVSPost2010PropOp45
 70
     1
102
RTVSPost2010Prop46
 90
       50
102
RTVSPost2010PropOp46
 70
     1
102
RTVSPost2010Prop47
 90
       50
102
RTVSPost2010PropOp47
 70
     1
102
RTVSPost2010Prop48
 90
       50
102
RTVSPost2010PropOp48
 70
     1
102
RTVSPost2010Prop49
280
     0
102
RTVSPost2010PropOp49
 70
     1
102
RTVSPost2010Prop50
 90
       50
102
RTVSPost2010PropOp50
 70
     1
102
RTVSPost2010Prop51ColorIndex
 90
      256
102
RTVSPost2010Prop51ColorRGB
 90
-16777216
102
RTVSPost2010PropOp51
 70
     0
102
RTVSPost2010Prop52
140
1.0
102
RTVSPost2010PropOp52
 70
     0
102
RTVSPost2010Prop53
 90
        2
102
RTVSPost2010PropOp53
 70
     1
102
RTVSPost2010Prop54
  1
strokes_ogs.tif
102
RTVSPost2010PropOp54
 70
     1
102
RTVSPost2010Prop55
280
     0
102
RTVSPost2010PropOp55
 70
     1
102
RTVSPost2010Prop56
140
1.0
102
RTVSPost2010PropOp56
 70
     1
102
RTVSPost2010Prop57
140
1.0
102
RTVSPost2010PropOp57
 70
     1
102
RTVSPropertyOp0
 70
     1
102
RTVSPropertyOp1
 70
     1
102
RTVSPropertyOp2
 70
     1
102
RTVSPropertyOp3
 70
     1
102
RTVSPropertyOp4
 70
     1
102
RTVSPropertyOp5
 70
     1
102
RTVSPropertyOp6
 70
     1
102
RTVSPropertyOp7
 70
     1
102
RTVSPropertyOp8
 70
     1
102
RTVSPropertyOp9
 70
     1
102
RTVSPropertyOp10
 70
     1
102
RTVSPropertyOp11
 70
     1
102
RTVSPropertyOp12
 70
     1
102
RTVSPropertyOp13
 70
     1
102
RTVSPropertyOp14
 70
     1
102
RTVSPropertyOp15
 70
     1
102
RTVSPropertyOp16
 70
     1
102
RTVSPropertyOp17
 70
     1
102
RTVSPropertyOp18
 70
     1
102
RTVSPropertyOp19
 70
     1
102
RTVSPropertyOp20
 70
     1
102
RTVSPropertyOp21
 70
     1
102
RTVSPropertyOp22
 70
     1
102
RTVSPropertyOp23
 70
     1
102
RTVSPropertyOp24
 70
     1
102
RTVSPropertyOp25
 70
     1
102
RTVSPropertyOp26
 70
     1
102
RTVSPropertyOp27
 70
     1
102
RTVSPropertyOp28
 70
     1
102
RTVSPropertyOp29
 70
     1
102
RTVSPropertyOp30
 70
     1
102
RTVSPropertyOp31
 70
     1
102
RTVSPropertyOp32
 70
     1
102
RTVSPropertyOp33
 70
     1
102
RTVSPropertyOp34
 70
     1
102
RTVSPropertyOp35
 70
     1
102
RTVSPropertyOp36
 70
     1
102
RTVSPropertyOp37
 70
     1
102
RTVSPropertyOp38
 70
     1
102
RTVSPropertyOp39
 70
     1
102
RTVSPropertyOp40
 70
     1
102
RTVSPropertyOp41
 70
     1
102
RTVSPropertyOp42
 70
     1
102
RTVSPropertyOp43
 70
     1
102
RTVSPropertyOp44
 70
     1
102
RTVSPropertyOp45
 70
     1
102
RTVSPropertyOp46
 70
     1
102
RTVSPropertyOp47
 70
     1
102
RTVSPropertyOp48
 70
     1
102
RTVSPropertyOp49
 70
     1
102
RTVSPropertyOp50
 70
     1
102
RTVSPropertyOp51
 70
     0
102
RTVSPropertyOp52
 70
     0
102
RTVSPropertyOp53
 70
     1
102
RTVSPropertyOp54
 70
     1
102
RTVSPropertyOp55
 70
     1
102
RTVSPropertyOp56
 70
     1
102
RTVSPropertyOp57
 70
     1
102
RTVSPropertyOp58
 70
     1
102
RTVSPropertyOp59
 70
     1
102
RTVSPropertyOp60
 70
     1
102
RTVSPropertyOp61
 70
     1
102
RTVSPropertyOp62
 70
     1
  0
XRECORD
  5
511
102
{ACAD_REACTORS
330
510
102
}
330
510
100
AcDbXrecord
280
     1
102
RTVSPost2010Prop28
280
     0
102
RTVSPost2010PropOp28
 70
     1
102
RTVSPost2010Prop29
280
     1
102
RTVSPost2010PropOp29
 70
     1
102
RTVSPost2010Prop30
280
     1
102
RTVSPost2010PropOp30
 70
     1
102
RTVSPost2010Prop31
280
     0
102
RTVSPost2010PropOp31
 70
     1
102
RTVSPost2010Prop32
280
     0
102
RTVSPost2010PropOp32
 70
     1
102
RTVSPost2010Prop33
280
     0
102
RTVSPost2010PropOp33
 70
     1
102
RTVSPost2010Prop34
280
     0
102
RTVSPost2010PropOp34
 70
     1
102
RTVSPost2010Prop35
280
     0
102
RTVSPost2010PropOp35
 70
     1
102
RTVSPost2010Prop36
280
     0
102
RTVSPost2010PropOp36
 70
     1
102
RTVSPost2010Prop37
 90
       50
102
RTVSPost2010PropOp37
 70
     1
102
RTVSPost2010Prop38
140
0.0
102
RTVSPost2010PropOp38
 70
     1
102
RTVSPost2010Prop39
140
1.0
102
RTVSPost2010PropOp39
 70
     1
102
RTVSPost2010Prop40
 90
        0
102
RTVSPost2010PropOp40
 70
     1
102
RTVSPost2010Prop41ColorIndex
 90
       18
102
RTVSPost2010Prop41ColorRGB
 90
        0
102
RTVSPost2010PropOp41
 70
     1
102
RTVSPost2010Prop42
 90
       50
102
RTVSPost2010PropOp42
 70
     1
102
RTVSPost2010Prop43
 90
        3
102
RTVSPost2010PropOp43
 70
     1
102
RTVSPost2010Prop44ColorIndex
 90
        5
102
RTVSPost2010Prop44ColorRGB
 90
      255
102
RTVSPost2010PropOp44
 70
     1
102
RTVSPost2010Prop45
280
     0
102
RTVSPost2010PropOp45
 70
     1
102
RTVSPost2010Prop46
 90
       50
102
RTVSPost2010PropOp46
 70
     1
102
RTVSPost2010Prop47
 90
       50
102
RTVSPost2010PropOp47
 70
     1
102
RTVSPost2010Prop48
 90
       50
102
RTVSPost2010PropOp48
 70
     1
102
RTVSPost2010Prop49
280
     0
102
RTVSPost2010PropOp49
 70
     1
102
RTVSPost2010Prop50
 90
       50
102
RTVSPost2010PropOp50
 70
     1
102
RTVSPost2010Prop51ColorIndex
 90
      256
102
RTVSPost2010Prop51ColorRGB
 90
-16777216
102
RTVSPost2010PropOp51
 70
     0
102
RTVSPost2010Prop52
140
1.0
102
RTVSPost2010PropOp52
 70
     0
102
RTVSPost2010Prop53
 90
        2
102
RTVSPost2010PropOp53
 70
     1
102
RTVSPost2010Prop54
  1
strokes_ogs.tif
102
RTVSPost2010PropOp54
 70
     1
102
RTVSPost2010Prop55
280
     0
102
RTVSPost2010PropOp55
 70
     1
102
RTVSPost2010Prop56
140
1.0
102
RTVSPost2010PropOp56
 70
     1
102
RTVSPost2010Prop57
140
1.0
102
RTVSPost2010PropOp57
 70
     1
102
RTVSPropertyOp0
 70
     1
102
RTVSPropertyOp1
 70
     1
102
RTVSPropertyOp2
 70
     1
102
RTVSPropertyOp3
 70
     1
102
RTVSPropertyOp4
 70
     1
102
RTVSPropertyOp5
 70
     1
102
RTVSPropertyOp6
 70
     1
102
RTVSPropertyOp7
 70
     1
102
RTVSPropertyOp8
 70
     1
102
RTVSPropertyOp9
 70
     1
102
RTVSPropertyOp10
 70
     1
102
RTVSPropertyOp11
 70
     1
102
RTVSPropertyOp12
 70
     1
102
RTVSPropertyOp13
 70
     1
102
RTVSPropertyOp14
 70
     1
102
RTVSPropertyOp15
 70
     1
102
RTVSPropertyOp16
 70
     1
102
RTVSPropertyOp17
 70
     1
102
RTVSPropertyOp18
 70
     1
102
RTVSPropertyOp19
 70
     1
102
RTVSPropertyOp20
 70
     1
102
RTVSPropertyOp21
 70
     1
102
RTVSPropertyOp22
 70
     1
102
RTVSPropertyOp23
 70
     1
102
RTVSPropertyOp24
 70
     1
102
RTVSPropertyOp25
 70
     1
102
RTVSPropertyOp26
 70
     1
102
RTVSPropertyOp27
 70
     1
102
RTVSPropertyOp28
 70
     1
102
RTVSPropertyOp29
 70
     1
102
RTVSPropertyOp30
 70
     1
102
RTVSPropertyOp31
 70
     1
102
RTVSPropertyOp32
 70
     1
102
RTVSPropertyOp33
 70
     1
102
RTVSPropertyOp34
 70
     1
102
RTVSPropertyOp35
 70
     1
102
RTVSPropertyOp36
 70
     1
102
RTVSPropertyOp37
 70
     1
102
RTVSPropertyOp38
 70
     1
102
RTVSPropertyOp39
 70
     1
102
RTVSPropertyOp40
 70
     1
102
RTVSPropertyOp41
 70
     1
102
RTVSPropertyOp42
 70
     1
102
RTVSPropertyOp43
 70
     1
102
RTVSPropertyOp44
 70
     1
102
RTVSPropertyOp45
 70
     1
102
RTVSPropertyOp46
 70
     1
102
RTVSPropertyOp47
 70
     1
102
RTVSPropertyOp48
 70
     1
102
RTVSPropertyOp49
 70
     1
102
RTVSPropertyOp50
 70
     1
102
RTVSPropertyOp51
 70
     0
102
RTVSPropertyOp52
 70
     0
102
RTVSPropertyOp53
 70
     1
102
RTVSPropertyOp54
 70
     1
102
RTVSPropertyOp55
 70
     1
102
RTVSPropertyOp56
 70
     1
102
RTVSPropertyOp57
 70
     1
102
RTVSPropertyOp58
 70
     1
102
RTVSPropertyOp59
 70
     1
102
RTVSPropertyOp60
 70
     1
102
RTVSPropertyOp61
 70
     1
102
RTVSPropertyOp62
 70
     1
  0
XRECORD
  5
52D
102
{ACAD_REACTORS
330
52C
102
}
330
52C
100
AcDbXrecord
280
     1
102
RTVSPost2010Prop28
280
     0
102
RTVSPost2010PropOp28
 70
     1
102
RTVSPost2010Prop29
280
     1
102
RTVSPost2010PropOp29
 70
     1
102
RTVSPost2010Prop30
280
     1
102
RTVSPost2010PropOp30
 70
     1
102
RTVSPost2010Prop31
280
     0
102
RTVSPost2010PropOp31
 70
     1
102
RTVSPost2010Prop32
280
     0
102
RTVSPost2010PropOp32
 70
     1
102
RTVSPost2010Prop33
280
     0
102
RTVSPost2010PropOp33
 70
     1
102
RTVSPost2010Prop34
280
     0
102
RTVSPost2010PropOp34
 70
     1
102
RTVSPost2010Prop35
280
     0
102
RTVSPost2010PropOp35
 70
     1
102
RTVSPost2010Prop36
280
     0
102
RTVSPost2010PropOp36
 70
     1
102
RTVSPost2010Prop37
 90
       50
102
RTVSPost2010PropOp37
 70
     0
102
RTVSPost2010Prop38
140
0.0
102
RTVSPost2010PropOp38
 70
     0
102
RTVSPost2010Prop39
140
1.0
102
RTVSPost2010PropOp39
 70
     0
102
RTVSPost2010Prop40
 90
        0
102
RTVSPost2010PropOp40
 70
     0
102
RTVSPost2010Prop41ColorIndex
 90
       18
102
RTVSPost2010Prop41ColorRGB
 90
        0
102
RTVSPost2010PropOp41
 70
     0
102
RTVSPost2010Prop42
 90
       50
102
RTVSPost2010PropOp42
 70
     0
102
RTVSPost2010Prop43
 90
        3
102
RTVSPost2010PropOp43
 70
     0
102
RTVSPost2010Prop44ColorIndex
 90
        5
102
RTVSPost2010Prop44ColorRGB
 90
      255
102
RTVSPost2010PropOp44
 70
     0
102
RTVSPost2010Prop45
280
     0
102
RTVSPost2010PropOp45
 70
     1
102
RTVSPost2010Prop46
 90
       50
102
RTVSPost2010PropOp46
 70
     0
102
RTVSPost2010Prop47
 90
       50
102
RTVSPost2010PropOp47
 70
     0
102
RTVSPost2010Prop48
 90
       50
102
RTVSPost2010PropOp48
 70
     0
102
RTVSPost2010Prop49
280
     0
102
RTVSPost2010PropOp49
 70
     1
102
RTVSPost2010Prop50
 90
       50
102
RTVSPost2010PropOp50
 70
     0
102
RTVSPost2010Prop51ColorIndex
 90
      256
102
RTVSPost2010Prop51ColorRGB
 90
-16777216
102
RTVSPost2010PropOp51
 70
     0
102
RTVSPost2010Prop52
140
1.0
102
RTVSPost2010PropOp52
 70
     0
102
RTVSPost2010Prop53
 90
        2
102
RTVSPost2010PropOp53
 70
     0
102
RTVSPost2010Prop54
  1
strokes_ogs.tif
102
RTVSPost2010PropOp54
 70
     0
102
RTVSPost2010Prop55
280
     0
102
RTVSPost2010PropOp55
 70
     1
102
RTVSPost2010Prop56
140
1.0
102
RTVSPost2010PropOp56
 70
     0
102
RTVSPost2010Prop57
140
1.0
102
RTVSPost2010PropOp57
 70
     0
102
RTVSPropertyOp0
 70
     0
102
RTVSPropertyOp1
 70
     0
102
RTVSPropertyOp2
 70
     0
102
RTVSPropertyOp3
 70
     0
102
RTVSPropertyOp4
 70
     0
102
RTVSPropertyOp5
 70
     0
102
RTVSPropertyOp6
 70
     0
102
RTVSPropertyOp7
 70
     0
102
RTVSPropertyOp8
 70
     0
102
RTVSPropertyOp9
 70
     0
102
RTVSPropertyOp10
 70
     0
102
RTVSPropertyOp11
 70
     0
102
RTVSPropertyOp12
 70
     0
102
RTVSPropertyOp13
 70
     0
102
RTVSPropertyOp14
 70
     2
102
RTVSPropertyOp15
 70
     0
102
RTVSPropertyOp16
 70
     0
102
RTVSPropertyOp17
 70
     0
102
RTVSPropertyOp18
 70
     0
102
RTVSPropertyOp19
 70
     0
102
RTVSPropertyOp20
 70
     0
102
RTVSPropertyOp21
 70
     0
102
RTVSPropertyOp22
 70
     0
102
RTVSPropertyOp23
 70
     0
102
RTVSPropertyOp24
 70
     0
102
RTVSPropertyOp25
 70
     0
102
RTVSPropertyOp26
 70
     0
102
RTVSPropertyOp27
 70
     0
102
RTVSPropertyOp28
 70
     1
102
RTVSPropertyOp29
 70
     1
102
RTVSPropertyOp30
 70
     1
102
RTVSPropertyOp31
 70
     1
102
RTVSPropertyOp32
 70
     1
102
RTVSPropertyOp33
 70
     1
102
RTVSPropertyOp34
 70
     1
102
RTVSPropertyOp35
 70
     1
102
RTVSPropertyOp36
 70
     1
102
RTVSPropertyOp37
 70
     0
102
RTVSPropertyOp38
 70
     0
102
RTVSPropertyOp39
 70
     0
102
RTVSPropertyOp40
 70
     0
102
RTVSPropertyOp41
 70
     0
102
RTVSPropertyOp42
 70
     0
102
RTVSPropertyOp43
 70
     0
102
RTVSPropertyOp44
 70
     0
102
RTVSPropertyOp45
 70
     1
102
RTVSPropertyOp46
 70
     0
102
RTVSPropertyOp47
 70
     0
102
RTVSPropertyOp48
 70
     0
102
RTVSPropertyOp49
 70
     1
102
RTVSPropertyOp50
 70
     0
102
RTVSPropertyOp51
 70
     0
102
RTVSPropertyOp52
 70
     0
102
RTVSPropertyOp53
 70
     0
102
RTVSPropertyOp54
 70
     0
102
RTVSPropertyOp55
 70
     1
102
RTVSPropertyOp56
 70
     0
102
RTVSPropertyOp57
 70
     0
102
RTVSPropertyOp58
 70
     0
102
RTVSPropertyOp59
 70
     0
102
RTVSPropertyOp60
 70
     0
102
RTVSPropertyOp61
 70
     0
102
RTVSPropertyOp62
 70
     0
  0
XRECORD
  5
51D
102
{ACAD_REACTORS
330
51C
102
}
330
51C
100
AcDbXrecord
280
     1
102
RTVSPost2010Prop28
280
     0
102
RTVSPost2010PropOp28
 70
     1
102
RTVSPost2010Prop29
280
     1
102
RTVSPost2010PropOp29
 70
     1
102
RTVSPost2010Prop30
280
     1
102
RTVSPost2010PropOp30
 70
     1
102
RTVSPost2010Prop31
280
     0
102
RTVSPost2010PropOp31
 70
     1
102
RTVSPost2010Prop32
280
     0
102
RTVSPost2010PropOp32
 70
     1
102
RTVSPost2010Prop33
280
     0
102
RTVSPost2010PropOp33
 70
     1
102
RTVSPost2010Prop34
280
     0
102
RTVSPost2010PropOp34
 70
     1
102
RTVSPost2010Prop35
280
     0
102
RTVSPost2010PropOp35
 70
     1
102
RTVSPost2010Prop36
280
     0
102
RTVSPost2010PropOp36
 70
     1
102
RTVSPost2010Prop37
 90
       50
102
RTVSPost2010PropOp37
 70
     1
102
RTVSPost2010Prop38
140
0.0
102
RTVSPost2010PropOp38
 70
     1
102
RTVSPost2010Prop39
140
1.0
102
RTVSPost2010PropOp39
 70
     1
102
RTVSPost2010Prop40
 90
        0
102
RTVSPost2010PropOp40
 70
     1
102
RTVSPost2010Prop41ColorIndex
 90
       18
102
RTVSPost2010Prop41ColorRGB
 90
        0
102
RTVSPost2010PropOp41
 70
     1
102
RTVSPost2010Prop42
 90
       50
102
RTVSPost2010PropOp42
 70
     1
102
RTVSPost2010Prop43
 90
        3
102
RTVSPost2010PropOp43
 70
     1
102
RTVSPost2010Prop44ColorIndex
 90
        5
102
RTVSPost2010Prop44ColorRGB
 90
      255
102
RTVSPost2010PropOp44
 70
     1
102
RTVSPost2010Prop45
280
     0
102
RTVSPost2010PropOp45
 70
     1
102
RTVSPost2010Prop46
 90
       50
102
RTVSPost2010PropOp46
 70
     1
102
RTVSPost2010Prop47
 90
       50
102
RTVSPost2010PropOp47
 70
     1
102
RTVSPost2010Prop48
 90
       50
102
RTVSPost2010PropOp48
 70
     1
102
RTVSPost2010Prop49
280
     0
102
RTVSPost2010PropOp49
 70
     1
102
RTVSPost2010Prop50
 90
       50
102
RTVSPost2010PropOp50
 70
     1
102
RTVSPost2010Prop51ColorIndex
 90
      256
102
RTVSPost2010Prop51ColorRGB
 90
-16777216
102
RTVSPost2010PropOp51
 70
     0
102
RTVSPost2010Prop52
140
1.0
102
RTVSPost2010PropOp52
 70
     0
102
RTVSPost2010Prop53
 90
        2
102
RTVSPost2010PropOp53
 70
     1
102
RTVSPost2010Prop54
  1
strokes_ogs.tif
102
RTVSPost2010PropOp54
 70
     1
102
RTVSPost2010Prop55
280
     0
102
RTVSPost2010PropOp55
 70
     1
102
RTVSPost2010Prop56
140
1.0
102
RTVSPost2010PropOp56
 70
     1
102
RTVSPost2010Prop57
140
1.0
102
RTVSPost2010PropOp57
 70
     1
102
RTVSPropertyOp0
 70
     1
102
RTVSPropertyOp1
 70
     1
102
RTVSPropertyOp2
 70
     1
102
RTVSPropertyOp3
 70
     1
102
RTVSPropertyOp4
 70
     1
102
RTVSPropertyOp5
 70
     1
102
RTVSPropertyOp6
 70
     1
102
RTVSPropertyOp7
 70
     1
102
RTVSPropertyOp8
 70
     1
102
RTVSPropertyOp9
 70
     1
102
RTVSPropertyOp10
 70
     1
102
RTVSPropertyOp11
 70
     1
102
RTVSPropertyOp12
 70
     1
102
RTVSPropertyOp13
 70
     1
102
RTVSPropertyOp14
 70
     1
102
RTVSPropertyOp15
 70
     1
102
RTVSPropertyOp16
 70
     1
102
RTVSPropertyOp17
 70
     1
102
RTVSPropertyOp18
 70
     1
102
RTVSPropertyOp19
 70
     1
102
RTVSPropertyOp20
 70
     1
102
RTVSPropertyOp21
 70
     1
102
RTVSPropertyOp22
 70
     1
102
RTVSPropertyOp23
 70
     1
102
RTVSPropertyOp24
 70
     1
102
RTVSPropertyOp25
 70
     1
102
RTVSPropertyOp26
 70
     1
102
RTVSPropertyOp27
 70
     1
102
RTVSPropertyOp28
 70
     1
102
RTVSPropertyOp29
 70
     1
102
RTVSPropertyOp30
 70
     1
102
RTVSPropertyOp31
 70
     1
102
RTVSPropertyOp32
 70
     1
102
RTVSPropertyOp33
 70
     1
102
RTVSPropertyOp34
 70
     1
102
RTVSPropertyOp35
 70
     1
102
RTVSPropertyOp36
 70
     1
102
RTVSPropertyOp37
 70
     1
102
RTVSPropertyOp38
 70
     1
102
RTVSPropertyOp39
 70
     1
102
RTVSPropertyOp40
 70
     1
102
RTVSPropertyOp41
 70
     1
102
RTVSPropertyOp42
 70
     1
102
RTVSPropertyOp43
 70
     1
102
RTVSPropertyOp44
 70
     1
102
RTVSPropertyOp45
 70
     1
102
RTVSPropertyOp46
 70
     1
102
RTVSPropertyOp47
 70
     1
102
RTVSPropertyOp48
 70
     1
102
RTVSPropertyOp49
 70
     1
102
RTVSPropertyOp50
 70
     1
102
RTVSPropertyOp51
 70
     0
102
RTVSPropertyOp52
 70
     0
102
RTVSPropertyOp53
 70
     1
102
RTVSPropertyOp54
 70
     1
102
RTVSPropertyOp55
 70
     1
102
RTVSPropertyOp56
 70
     1
102
RTVSPropertyOp57
 70
     1
102
RTVSPropertyOp58
 70
     1
102
RTVSPropertyOp59
 70
     1
102
RTVSPropertyOp60
 70
     1
102
RTVSPropertyOp61
 70
     1
102
RTVSPropertyOp62
 70
     1
  0
XRECORD
  5
52F
102
{ACAD_REACTORS
330
52E
102
}
330
52E
100
AcDbXrecord
280
     1
102
RTVSPost2010Prop28
280
     0
102
RTVSPost2010PropOp28
 70
     1
102
RTVSPost2010Prop29
280
     1
102
RTVSPost2010PropOp29
 70
     1
102
RTVSPost2010Prop30
280
     1
102
RTVSPost2010PropOp30
 70
     1
102
RTVSPost2010Prop31
280
     0
102
RTVSPost2010PropOp31
 70
     1
102
RTVSPost2010Prop32
280
     0
102
RTVSPost2010PropOp32
 70
     1
102
RTVSPost2010Prop33
280
     0
102
RTVSPost2010PropOp33
 70
     1
102
RTVSPost2010Prop34
280
     0
102
RTVSPost2010PropOp34
 70
     1
102
RTVSPost2010Prop35
280
     0
102
RTVSPost2010PropOp35
 70
     1
102
RTVSPost2010Prop36
280
     0
102
RTVSPost2010PropOp36
 70
     1
102
RTVSPost2010Prop37
 90
       50
102
RTVSPost2010PropOp37
 70
     0
102
RTVSPost2010Prop38
140
0.0
102
RTVSPost2010PropOp38
 70
     0
102
RTVSPost2010Prop39
140
1.0
102
RTVSPost2010PropOp39
 70
     0
102
RTVSPost2010Prop40
 90
        0
102
RTVSPost2010PropOp40
 70
     0
102
RTVSPost2010Prop41ColorIndex
 90
       18
102
RTVSPost2010Prop41ColorRGB
 90
        0
102
RTVSPost2010PropOp41
 70
     0
102
RTVSPost2010Prop42
 90
       50
102
RTVSPost2010PropOp42
 70
     0
102
RTVSPost2010Prop43
 90
        3
102
RTVSPost2010PropOp43
 70
     0
102
RTVSPost2010Prop44ColorIndex
 90
        5
102
RTVSPost2010Prop44ColorRGB
 90
      255
102
RTVSPost2010PropOp44
 70
     0
102
RTVSPost2010Prop45
280
     0
102
RTVSPost2010PropOp45
 70
     1
102
RTVSPost2010Prop46
 90
       50
102
RTVSPost2010PropOp46
 70
     0
102
RTVSPost2010Prop47
 90
       50
102
RTVSPost2010PropOp47
 70
     0
102
RTVSPost2010Prop48
 90
       50
102
RTVSPost2010PropOp48
 70
     0
102
RTVSPost2010Prop49
280
     0
102
RTVSPost2010PropOp49
 70
     1
102
RTVSPost2010Prop50
 90
       50
102
RTVSPost2010PropOp50
 70
     0
102
RTVSPost2010Prop51ColorIndex
 90
      256
102
RTVSPost2010Prop51ColorRGB
 90
-16777216
102
RTVSPost2010PropOp51
 70
     0
102
RTVSPost2010Prop52
140
1.0
102
RTVSPost2010PropOp52
 70
     0
102
RTVSPost2010Prop53
 90
        2
102
RTVSPost2010PropOp53
 70
     0
102
RTVSPost2010Prop54
  1
strokes_ogs.tif
102
RTVSPost2010PropOp54
 70
     0
102
RTVSPost2010Prop55
280
     0
102
RTVSPost2010PropOp55
 70
     1
102
RTVSPost2010Prop56
140
1.0
102
RTVSPost2010PropOp56
 70
     0
102
RTVSPost2010Prop57
140
1.0
102
RTVSPost2010PropOp57
 70
     0
102
RTVSPropertyOp0
 70
     0
102
RTVSPropertyOp1
 70
     0
102
RTVSPropertyOp2
 70
     0
102
RTVSPropertyOp3
 70
     0
102
RTVSPropertyOp4
 70
     0
102
RTVSPropertyOp5
 70
     0
102
RTVSPropertyOp6
 70
     0
102
RTVSPropertyOp7
 70
     0
102
RTVSPropertyOp8
 70
     0
102
RTVSPropertyOp9
 70
     0
102
RTVSPropertyOp10
 70
     0
102
RTVSPropertyOp11
 70
     0
102
RTVSPropertyOp12
 70
     0
102
RTVSPropertyOp13
 70
     0
102
RTVSPropertyOp14
 70
     2
102
RTVSPropertyOp15
 70
     0
102
RTVSPropertyOp16
 70
     0
102
RTVSPropertyOp17
 70
     0
102
RTVSPropertyOp18
 70
     0
102
RTVSPropertyOp19
 70
     0
102
RTVSPropertyOp20
 70
     0
102
RTVSPropertyOp21
 70
     0
102
RTVSPropertyOp22
 70
     0
102
RTVSPropertyOp23
 70
     0
102
RTVSPropertyOp24
 70
     0
102
RTVSPropertyOp25
 70
     0
102
RTVSPropertyOp26
 70
     0
102
RTVSPropertyOp27
 70
     0
102
RTVSPropertyOp28
 70
     1
102
RTVSPropertyOp29
 70
     1
102
RTVSPropertyOp30
 70
     1
102
RTVSPropertyOp31
 70
     1
102
RTVSPropertyOp32
 70
     1
102
RTVSPropertyOp33
 70
     1
102
RTVSPropertyOp34
 70
     1
102
RTVSPropertyOp35
 70
     1
102
RTVSPropertyOp36
 70
     1
102
RTVSPropertyOp37
 70
     0
102
RTVSPropertyOp38
 70
     0
102
RTVSPropertyOp39
 70
     0
102
RTVSPropertyOp40
 70
     0
102
RTVSPropertyOp41
 70
     0
102
RTVSPropertyOp42
 70
     0
102
RTVSPropertyOp43
 70
     0
102
RTVSPropertyOp44
 70
     0
102
RTVSPropertyOp45
 70
     1
102
RTVSPropertyOp46
 70
     0
102
RTVSPropertyOp47
 70
     0
102
RTVSPropertyOp48
 70
     0
102
RTVSPropertyOp49
 70
     1
102
RTVSPropertyOp50
 70
     0
102
RTVSPropertyOp51
 70
     0
102
RTVSPropertyOp52
 70
     0
102
RTVSPropertyOp53
 70
     0
102
RTVSPropertyOp54
 70
     0
102
RTVSPropertyOp55
 70
     1
102
RTVSPropertyOp56
 70
     0
102
RTVSPropertyOp57
 70
     0
102
RTVSPropertyOp58
 70
     0
102
RTVSPropertyOp59
 70
     0
102
RTVSPropertyOp60
 70
     0
102
RTVSPropertyOp61
 70
     0
102
RTVSPropertyOp62
 70
     0
  0
XRECORD
  5
515
102
{ACAD_REACTORS
330
514
102
}
330
514
100
AcDbXrecord
280
     1
102
RTVSPost2010Prop28
280
     0
102
RTVSPost2010PropOp28
 70
     1
102
RTVSPost2010Prop29
280
     1
102
RTVSPost2010PropOp29
 70
     1
102
RTVSPost2010Prop30
280
     1
102
RTVSPost2010PropOp30
 70
     1
102
RTVSPost2010Prop31
280
     0
102
RTVSPost2010PropOp31
 70
     1
102
RTVSPost2010Prop32
280
     0
102
RTVSPost2010PropOp32
 70
     1
102
RTVSPost2010Prop33
280
     0
102
RTVSPost2010PropOp33
 70
     1
102
RTVSPost2010Prop34
280
     0
102
RTVSPost2010PropOp34
 70
     1
102
RTVSPost2010Prop35
280
     0
102
RTVSPost2010PropOp35
 70
     1
102
RTVSPost2010Prop36
280
     0
102
RTVSPost2010PropOp36
 70
     1
102
RTVSPost2010Prop37
 90
       50
102
RTVSPost2010PropOp37
 70
     1
102
RTVSPost2010Prop38
140
0.0
102
RTVSPost2010PropOp38
 70
     1
102
RTVSPost2010Prop39
140
1.0
102
RTVSPost2010PropOp39
 70
     1
102
RTVSPost2010Prop40
 90
        0
102
RTVSPost2010PropOp40
 70
     1
102
RTVSPost2010Prop41ColorIndex
 90
       18
102
RTVSPost2010Prop41ColorRGB
 90
        0
102
RTVSPost2010PropOp41
 70
     1
102
RTVSPost2010Prop42
 90
       50
102
RTVSPost2010PropOp42
 70
     1
102
RTVSPost2010Prop43
 90
        3
102
RTVSPost2010PropOp43
 70
     1
102
RTVSPost2010Prop44ColorIndex
 90
        5
102
RTVSPost2010Prop44ColorRGB
 90
      255
102
RTVSPost2010PropOp44
 70
     1
102
RTVSPost2010Prop45
280
     0
102
RTVSPost2010PropOp45
 70
     1
102
RTVSPost2010Prop46
 90
       50
102
RTVSPost2010PropOp46
 70
     1
102
RTVSPost2010Prop47
 90
       50
102
RTVSPost2010PropOp47
 70
     1
102
RTVSPost2010Prop48
 90
       50
102
RTVSPost2010PropOp48
 70
     1
102
RTVSPost2010Prop49
280
     0
102
RTVSPost2010PropOp49
 70
     1
102
RTVSPost2010Prop50
 90
       50
102
RTVSPost2010PropOp50
 70
     1
102
RTVSPost2010Prop51ColorIndex
 90
      256
102
RTVSPost2010Prop51ColorRGB
 90
-16777216
102
RTVSPost2010PropOp51
 70
     0
102
RTVSPost2010Prop52
140
1.0
102
RTVSPost2010PropOp52
 70
     0
102
RTVSPost2010Prop53
 90
        2
102
RTVSPost2010PropOp53
 70
     1
102
RTVSPost2010Prop54
  1
strokes_ogs.tif
102
RTVSPost2010PropOp54
 70
     1
102
RTVSPost2010Prop55
280
     0
102
RTVSPost2010PropOp55
 70
     1
102
RTVSPost2010Prop56
140
1.0
102
RTVSPost2010PropOp56
 70
     1
102
RTVSPost2010Prop57
140
1.0
102
RTVSPost2010PropOp57
 70
     1
102
RTVSPropertyOp0
 70
     1
102
RTVSPropertyOp1
 70
     1
102
RTVSPropertyOp2
 70
     1
102
RTVSPropertyOp3
 70
     1
102
RTVSPropertyOp4
 70
     1
102
RTVSPropertyOp5
 70
     1
102
RTVSPropertyOp6
 70
     1
102
RTVSPropertyOp7
 70
     1
102
RTVSPropertyOp8
 70
     1
102
RTVSPropertyOp9
 70
     1
102
RTVSPropertyOp10
 70
     1
102
RTVSPropertyOp11
 70
     1
102
RTVSPropertyOp12
 70
     1
102
RTVSPropertyOp13
 70
     1
102
RTVSPropertyOp14
 70
     1
102
RTVSPropertyOp15
 70
     1
102
RTVSPropertyOp16
 70
     1
102
RTVSPropertyOp17
 70
     1
102
RTVSPropertyOp18
 70
     1
102
RTVSPropertyOp19
 70
     1
102
RTVSPropertyOp20
 70
     1
102
RTVSPropertyOp21
 70
     1
102
RTVSPropertyOp22
 70
     1
102
RTVSPropertyOp23
 70
     1
102
RTVSPropertyOp24
 70
     1
102
RTVSPropertyOp25
 70
     1
102
RTVSPropertyOp26
 70
     1
102
RTVSPropertyOp27
 70
     1
102
RTVSPropertyOp28
 70
     1
102
RTVSPropertyOp29
 70
     1
102
RTVSPropertyOp30
 70
     1
102
RTVSPropertyOp31
 70
     1
102
RTVSPropertyOp32
 70
     1
102
RTVSPropertyOp33
 70
     1
102
RTVSPropertyOp34
 70
     1
102
RTVSPropertyOp35
 70
     1
102
RTVSPropertyOp36
 70
     1
102
RTVSPropertyOp37
 70
     1
102
RTVSPropertyOp38
 70
     1
102
RTVSPropertyOp39
 70
     1
102
RTVSPropertyOp40
 70
     1
102
RTVSPropertyOp41
 70
     1
102
RTVSPropertyOp42
 70
     1
102
RTVSPropertyOp43
 70
     1
102
RTVSPropertyOp44
 70
     1
102
RTVSPropertyOp45
 70
     1
102
RTVSPropertyOp46
 70
     1
102
RTVSPropertyOp47
 70
     1
102
RTVSPropertyOp48
 70
     1
102
RTVSPropertyOp49
 70
     1
102
RTVSPropertyOp50
 70
     1
102
RTVSPropertyOp51
 70
     0
102
RTVSPropertyOp52
 70
     0
102
RTVSPropertyOp53
 70
     1
102
RTVSPropertyOp54
 70
     1
102
RTVSPropertyOp55
 70
     1
102
RTVSPropertyOp56
 70
     1
102
RTVSPropertyOp57
 70
     1
102
RTVSPropertyOp58
 70
     1
102
RTVSPropertyOp59
 70
     1
102
RTVSPropertyOp60
 70
     1
102
RTVSPropertyOp61
 70
     1
102
RTVSPropertyOp62
 70
     1
  0
XRECORD
  5
52B
102
{ACAD_REACTORS
330
52A
102
}
330
52A
100
AcDbXrecord
280
     1
102
RTVSPost2010Prop28
280
     0
102
RTVSPost2010PropOp28
 70
     1
102
RTVSPost2010Prop29
280
     1
102
RTVSPost2010PropOp29
 70
     1
102
RTVSPost2010Prop30
280
     1
102
RTVSPost2010PropOp30
 70
     1
102
RTVSPost2010Prop31
280
     0
102
RTVSPost2010PropOp31
 70
     1
102
RTVSPost2010Prop32
280
     0
102
RTVSPost2010PropOp32
 70
     1
102
RTVSPost2010Prop33
280
     0
102
RTVSPost2010PropOp33
 70
     1
102
RTVSPost2010Prop34
280
     0
102
RTVSPost2010PropOp34
 70
     1
102
RTVSPost2010Prop35
280
     0
102
RTVSPost2010PropOp35
 70
     1
102
RTVSPost2010Prop36
280
     0
102
RTVSPost2010PropOp36
 70
     1
102
RTVSPost2010Prop37
 90
       50
102
RTVSPost2010PropOp37
 70
     1
102
RTVSPost2010Prop38
140
0.0
102
RTVSPost2010PropOp38
 70
     1
102
RTVSPost2010Prop39
140
1.0
102
RTVSPost2010PropOp39
 70
     1
102
RTVSPost2010Prop40
 90
        0
102
RTVSPost2010PropOp40
 70
     1
102
RTVSPost2010Prop41ColorIndex
 90
       18
102
RTVSPost2010Prop41ColorRGB
 90
        0
102
RTVSPost2010PropOp41
 70
     1
102
RTVSPost2010Prop42
 90
       50
102
RTVSPost2010PropOp42
 70
     1
102
RTVSPost2010Prop43
 90
        3
102
RTVSPost2010PropOp43
 70
     1
102
RTVSPost2010Prop44ColorIndex
 90
        5
102
RTVSPost2010Prop44ColorRGB
 90
      255
102
RTVSPost2010PropOp44
 70
     1
102
RTVSPost2010Prop45
280
     0
102
RTVSPost2010PropOp45
 70
     1
102
RTVSPost2010Prop46
 90
       50
102
RTVSPost2010PropOp46
 70
     1
102
RTVSPost2010Prop47
 90
       50
102
RTVSPost2010PropOp47
 70
     1
102
RTVSPost2010Prop48
 90
       50
102
RTVSPost2010PropOp48
 70
     1
102
RTVSPost2010Prop49
280
     0
102
RTVSPost2010PropOp49
 70
     1
102
RTVSPost2010Prop50
 90
       50
102
RTVSPost2010PropOp50
 70
     1
102
RTVSPost2010Prop51ColorIndex
 90
      256
102
RTVSPost2010Prop51ColorRGB
 90
-16777216
102
RTVSPost2010PropOp51
 70
     0
102
RTVSPost2010Prop52
140
1.0
102
RTVSPost2010PropOp52
 70
     0
102
RTVSPost2010Prop53
 90
        2
102
RTVSPost2010PropOp53
 70
     1
102
RTVSPost2010Prop54
  1
strokes_ogs.tif
102
RTVSPost2010PropOp54
 70
     1
102
RTVSPost2010Prop55
280
     0
102
RTVSPost2010PropOp55
 70
     1
102
RTVSPost2010Prop56
140
1.0
102
RTVSPost2010PropOp56
 70
     1
102
RTVSPost2010Prop57
140
1.0
102
RTVSPost2010PropOp57
 70
     1
102
RTVSPropertyOp0
 70
     1
102
RTVSPropertyOp1
 70
     1
102
RTVSPropertyOp2
 70
     1
102
RTVSPropertyOp3
 70
     1
102
RTVSPropertyOp4
 70
     1
102
RTVSPropertyOp5
 70
     1
102
RTVSPropertyOp6
 70
     1
102
RTVSPropertyOp7
 70
     1
102
RTVSPropertyOp8
 70
     1
102
RTVSPropertyOp9
 70
     1
102
RTVSPropertyOp10
 70
     1
102
RTVSPropertyOp11
 70
     1
102
RTVSPropertyOp12
 70
     1
102
RTVSPropertyOp13
 70
     1
102
RTVSPropertyOp14
 70
     1
102
RTVSPropertyOp15
 70
     1
102
RTVSPropertyOp16
 70
     1
102
RTVSPropertyOp17
 70
     1
102
RTVSPropertyOp18
 70
     1
102
RTVSPropertyOp19
 70
     1
102
RTVSPropertyOp20
 70
     1
102
RTVSPropertyOp21
 70
     1
102
RTVSPropertyOp22
 70
     1
102
RTVSPropertyOp23
 70
     1
102
RTVSPropertyOp24
 70
     1
102
RTVSPropertyOp25
 70
     1
102
RTVSPropertyOp26
 70
     1
102
RTVSPropertyOp27
 70
     1
102
RTVSPropertyOp28
 70
     1
102
RTVSPropertyOp29
 70
     1
102
RTVSPropertyOp30
 70
     1
102
RTVSPropertyOp31
 70
     1
102
RTVSPropertyOp32
 70
     1
102
RTVSPropertyOp33
 70
     1
102
RTVSPropertyOp34
 70
     1
102
RTVSPropertyOp35
 70
     1
102
RTVSPropertyOp36
 70
     1
102
RTVSPropertyOp37
 70
     1
102
RTVSPropertyOp38
 70
     1
102
RTVSPropertyOp39
 70
     1
102
RTVSPropertyOp40
 70
     1
102
RTVSPropertyOp41
 70
     1
102
RTVSPropertyOp42
 70
     1
102
RTVSPropertyOp43
 70
     1
102
RTVSPropertyOp44
 70
     1
102
RTVSPropertyOp45
 70
     1
102
RTVSPropertyOp46
 70
     1
102
RTVSPropertyOp47
 70
     1
102
RTVSPropertyOp48
 70
     1
102
RTVSPropertyOp49
 70
     1
102
RTVSPropertyOp50
 70
     1
102
RTVSPropertyOp51
 70
     0
102
RTVSPropertyOp52
 70
     0
102
RTVSPropertyOp53
 70
     1
102
RTVSPropertyOp54
 70
     1
102
RTVSPropertyOp55
 70
     1
102
RTVSPropertyOp56
 70
     1
102
RTVSPropertyOp57
 70
     1
102
RTVSPropertyOp58
 70
     1
102
RTVSPropertyOp59
 70
     1
102
RTVSPropertyOp60
 70
     1
102
RTVSPropertyOp61
 70
     1
102
RTVSPropertyOp62
 70
     1
  0
XRECORD
  5
529
102
{ACAD_REACTORS
330
528
102
}
330
528
100
AcDbXrecord
280
     1
102
RTVSPost2010Prop28
280
     0
102
RTVSPost2010PropOp28
 70
     1
102
RTVSPost2010Prop29
280
     1
102
RTVSPost2010PropOp29
 70
     1
102
RTVSPost2010Prop30
280
     1
102
RTVSPost2010PropOp30
 70
     1
102
RTVSPost2010Prop31
280
     0
102
RTVSPost2010PropOp31
 70
     1
102
RTVSPost2010Prop32
280
     0
102
RTVSPost2010PropOp32
 70
     1
102
RTVSPost2010Prop33
280
     0
102
RTVSPost2010PropOp33
 70
     1
102
RTVSPost2010Prop34
280
     0
102
RTVSPost2010PropOp34
 70
     1
102
RTVSPost2010Prop35
280
     0
102
RTVSPost2010PropOp35
 70
     1
102
RTVSPost2010Prop36
280
     0
102
RTVSPost2010PropOp36
 70
     1
102
RTVSPost2010Prop37
 90
       50
102
RTVSPost2010PropOp37
 70
     1
102
RTVSPost2010Prop38
140
0.0
102
RTVSPost2010PropOp38
 70
     1
102
RTVSPost2010Prop39
140
1.0
102
RTVSPost2010PropOp39
 70
     1
102
RTVSPost2010Prop40
 90
        0
102
RTVSPost2010PropOp40
 70
     1
102
RTVSPost2010Prop41ColorIndex
 90
       18
102
RTVSPost2010Prop41ColorRGB
 90
        0
102
RTVSPost2010PropOp41
 70
     1
102
RTVSPost2010Prop42
 90
       50
102
RTVSPost2010PropOp42
 70
     1
102
RTVSPost2010Prop43
 90
        3
102
RTVSPost2010PropOp43
 70
     1
102
RTVSPost2010Prop44ColorIndex
 90
        5
102
RTVSPost2010Prop44ColorRGB
 90
      255
102
RTVSPost2010PropOp44
 70
     1
102
RTVSPost2010Prop45
280
     0
102
RTVSPost2010PropOp45
 70
     1
102
RTVSPost2010Prop46
 90
       50
102
RTVSPost2010PropOp46
 70
     1
102
RTVSPost2010Prop47
 90
       50
102
RTVSPost2010PropOp47
 70
     1
102
RTVSPost2010Prop48
 90
       50
102
RTVSPost2010PropOp48
 70
     1
102
RTVSPost2010Prop49
280
     0
102
RTVSPost2010PropOp49
 70
     1
102
RTVSPost2010Prop50
 90
       50
102
RTVSPost2010PropOp50
 70
     1
102
RTVSPost2010Prop51ColorIndex
 90
      256
102
RTVSPost2010Prop51ColorRGB
 90
-16777216
102
RTVSPost2010PropOp51
 70
     0
102
RTVSPost2010Prop52
140
1.0
102
RTVSPost2010PropOp52
 70
     0
102
RTVSPost2010Prop53
 90
        2
102
RTVSPost2010PropOp53
 70
     1
102
RTVSPost2010Prop54
  1
strokes_ogs.tif
102
RTVSPost2010PropOp54
 70
     1
102
RTVSPost2010Prop55
280
     0
102
RTVSPost2010PropOp55
 70
     1
102
RTVSPost2010Prop56
140
1.0
102
RTVSPost2010PropOp56
 70
     1
102
RTVSPost2010Prop57
140
1.0
102
RTVSPost2010PropOp57
 70
     1
102
RTVSPropertyOp0
 70
     1
102
RTVSPropertyOp1
 70
     1
102
RTVSPropertyOp2
 70
     1
102
RTVSPropertyOp3
 70
     1
102
RTVSPropertyOp4
 70
     1
102
RTVSPropertyOp5
 70
     1
102
RTVSPropertyOp6
 70
     1
102
RTVSPropertyOp7
 70
     1
102
RTVSPropertyOp8
 70
     1
102
RTVSPropertyOp9
 70
     1
102
RTVSPropertyOp10
 70
     1
102
RTVSPropertyOp11
 70
     1
102
RTVSPropertyOp12
 70
     1
102
RTVSPropertyOp13
 70
     1
102
RTVSPropertyOp14
 70
     1
102
RTVSPropertyOp15
 70
     1
102
RTVSPropertyOp16
 70
     1
102
RTVSPropertyOp17
 70
     1
102
RTVSPropertyOp18
 70
     1
102
RTVSPropertyOp19
 70
     1
102
RTVSPropertyOp20
 70
     1
102
RTVSPropertyOp21
 70
     1
102
RTVSPropertyOp22
 70
     1
102
RTVSPropertyOp23
 70
     1
102
RTVSPropertyOp24
 70
     1
102
RTVSPropertyOp25
 70
     1
102
RTVSPropertyOp26
 70
     1
102
RTVSPropertyOp27
 70
     1
102
RTVSPropertyOp28
 70
     1
102
RTVSPropertyOp29
 70
     1
102
RTVSPropertyOp30
 70
     1
102
RTVSPropertyOp31
 70
     1
102
RTVSPropertyOp32
 70
     1
102
RTVSPropertyOp33
 70
     1
102
RTVSPropertyOp34
 70
     1
102
RTVSPropertyOp35
 70
     1
102
RTVSPropertyOp36
 70
     1
102
RTVSPropertyOp37
 70
     1
102
RTVSPropertyOp38
 70
     1
102
RTVSPropertyOp39
 70
     1
102
RTVSPropertyOp40
 70
     1
102
RTVSPropertyOp41
 70
     1
102
RTVSPropertyOp42
 70
     1
102
RTVSPropertyOp43
 70
     1
102
RTVSPropertyOp44
 70
     1
102
RTVSPropertyOp45
 70
     1
102
RTVSPropertyOp46
 70
     1
102
RTVSPropertyOp47
 70
     1
102
RTVSPropertyOp48
 70
     1
102
RTVSPropertyOp49
 70
     1
102
RTVSPropertyOp50
 70
     1
102
RTVSPropertyOp51
 70
     0
102
RTVSPropertyOp52
 70
     0
102
RTVSPropertyOp53
 70
     1
102
RTVSPropertyOp54
 70
     1
102
RTVSPropertyOp55
 70
     1
102
RTVSPropertyOp56
 70
     1
102
RTVSPropertyOp57
 70
     1
102
RTVSPropertyOp58
 70
     1
102
RTVSPropertyOp59
 70
     1
102
RTVSPropertyOp60
 70
     1
102
RTVSPropertyOp61
 70
     1
102
RTVSPropertyOp62
 70
     1
  0
XRECORD
  5
523
102
{ACAD_REACTORS
330
522
102
}
330
522
100
AcDbXrecord
280
     1
102
RTVSPost2010Prop28
280
     0
102
RTVSPost2010PropOp28
 70
     1
102
RTVSPost2010Prop29
280
     1
102
RTVSPost2010PropOp29
 70
     1
102
RTVSPost2010Prop30
280
     1
102
RTVSPost2010PropOp30
 70
     1
102
RTVSPost2010Prop31
280
     0
102
RTVSPost2010PropOp31
 70
     1
102
RTVSPost2010Prop32
280
     0
102
RTVSPost2010PropOp32
 70
     1
102
RTVSPost2010Prop33
280
     0
102
RTVSPost2010PropOp33
 70
     1
102
RTVSPost2010Prop34
280
     0
102
RTVSPost2010PropOp34
 70
     1
102
RTVSPost2010Prop35
280
     0
102
RTVSPost2010PropOp35
 70
     1
102
RTVSPost2010Prop36
280
     0
102
RTVSPost2010PropOp36
 70
     1
102
RTVSPost2010Prop37
 90
       50
102
RTVSPost2010PropOp37
 70
     1
102
RTVSPost2010Prop38
140
0.0
102
RTVSPost2010PropOp38
 70
     1
102
RTVSPost2010Prop39
140
1.0
102
RTVSPost2010PropOp39
 70
     1
102
RTVSPost2010Prop40
 90
        0
102
RTVSPost2010PropOp40
 70
     1
102
RTVSPost2010Prop41ColorIndex
 90
       18
102
RTVSPost2010Prop41ColorRGB
 90
        0
102
RTVSPost2010PropOp41
 70
     1
102
RTVSPost2010Prop42
 90
       50
102
RTVSPost2010PropOp42
 70
     1
102
RTVSPost2010Prop43
 90
        3
102
RTVSPost2010PropOp43
 70
     1
102
RTVSPost2010Prop44ColorIndex
 90
        5
102
RTVSPost2010Prop44ColorRGB
 90
      255
102
RTVSPost2010PropOp44
 70
     1
102
RTVSPost2010Prop45
280
     0
102
RTVSPost2010PropOp45
 70
     1
102
RTVSPost2010Prop46
 90
       50
102
RTVSPost2010PropOp46
 70
     1
102
RTVSPost2010Prop47
 90
       50
102
RTVSPost2010PropOp47
 70
     1
102
RTVSPost2010Prop48
 90
       50
102
RTVSPost2010PropOp48
 70
     1
102
RTVSPost2010Prop49
280
     0
102
RTVSPost2010PropOp49
 70
     1
102
RTVSPost2010Prop50
 90
       50
102
RTVSPost2010PropOp50
 70
     1
102
RTVSPost2010Prop51ColorIndex
 90
      256
102
RTVSPost2010Prop51ColorRGB
 90
-16777216
102
RTVSPost2010PropOp51
 70
     0
102
RTVSPost2010Prop52
140
1.0
102
RTVSPost2010PropOp52
 70
     0
102
RTVSPost2010Prop53
 90
        2
102
RTVSPost2010PropOp53
 70
     1
102
RTVSPost2010Prop54
  1
strokes_ogs.tif
102
RTVSPost2010PropOp54
 70
     1
102
RTVSPost2010Prop55
280
     0
102
RTVSPost2010PropOp55
 70
     1
102
RTVSPost2010Prop56
140
1.0
102
RTVSPost2010PropOp56
 70
     1
102
RTVSPost2010Prop57
140
1.0
102
RTVSPost2010PropOp57
 70
     1
102
RTVSPropertyOp0
 70
     1
102
RTVSPropertyOp1
 70
     1
102
RTVSPropertyOp2
 70
     1
102
RTVSPropertyOp3
 70
     1
102
RTVSPropertyOp4
 70
     1
102
RTVSPropertyOp5
 70
     1
102
RTVSPropertyOp6
 70
     1
102
RTVSPropertyOp7
 70
     1
102
RTVSPropertyOp8
 70
     1
102
RTVSPropertyOp9
 70
     1
102
RTVSPropertyOp10
 70
     1
102
RTVSPropertyOp11
 70
     1
102
RTVSPropertyOp12
 70
     1
102
RTVSPropertyOp13
 70
     1
102
RTVSPropertyOp14
 70
     1
102
RTVSPropertyOp15
 70
     1
102
RTVSPropertyOp16
 70
     1
102
RTVSPropertyOp17
 70
     1
102
RTVSPropertyOp18
 70
     1
102
RTVSPropertyOp19
 70
     1
102
RTVSPropertyOp20
 70
     1
102
RTVSPropertyOp21
 70
     1
102
RTVSPropertyOp22
 70
     1
102
RTVSPropertyOp23
 70
     1
102
RTVSPropertyOp24
 70
     1
102
RTVSPropertyOp25
 70
     1
102
RTVSPropertyOp26
 70
     1
102
RTVSPropertyOp27
 70
     1
102
RTVSPropertyOp28
 70
     1
102
RTVSPropertyOp29
 70
     1
102
RTVSPropertyOp30
 70
     1
102
RTVSPropertyOp31
 70
     1
102
RTVSPropertyOp32
 70
     1
102
RTVSPropertyOp33
 70
     1
102
RTVSPropertyOp34
 70
     1
102
RTVSPropertyOp35
 70
     1
102
RTVSPropertyOp36
 70
     1
102
RTVSPropertyOp37
 70
     1
102
RTVSPropertyOp38
 70
     1
102
RTVSPropertyOp39
 70
     1
102
RTVSPropertyOp40
 70
     1
102
RTVSPropertyOp41
 70
     1
102
RTVSPropertyOp42
 70
     1
102
RTVSPropertyOp43
 70
     1
102
RTVSPropertyOp44
 70
     1
102
RTVSPropertyOp45
 70
     1
102
RTVSPropertyOp46
 70
     1
102
RTVSPropertyOp47
 70
     1
102
RTVSPropertyOp48
 70
     1
102
RTVSPropertyOp49
 70
     1
102
RTVSPropertyOp50
 70
     1
102
RTVSPropertyOp51
 70
     0
102
RTVSPropertyOp52
 70
     0
102
RTVSPropertyOp53
 70
     1
102
RTVSPropertyOp54
 70
     1
102
RTVSPropertyOp55
 70
     1
102
RTVSPropertyOp56
 70
     1
102
RTVSPropertyOp57
 70
     1
102
RTVSPropertyOp58
 70
     1
102
RTVSPropertyOp59
 70
     1
102
RTVSPropertyOp60
 70
     1
102
RTVSPropertyOp61
 70
     1
102
RTVSPropertyOp62
 70
     1
  0
XRECORD
  5
525
102
{ACAD_REACTORS
330
524
102
}
330
524
100
AcDbXrecord
280
     1
102
RTVSPost2010Prop28
280
     0
102
RTVSPost2010PropOp28
 70
     1
102
RTVSPost2010Prop29
280
     1
102
RTVSPost2010PropOp29
 70
     1
102
RTVSPost2010Prop30
280
     1
102
RTVSPost2010PropOp30
 70
     1
102
RTVSPost2010Prop31
280
     0
102
RTVSPost2010PropOp31
 70
     1
102
RTVSPost2010Prop32
280
     0
102
RTVSPost2010PropOp32
 70
     1
102
RTVSPost2010Prop33
280
     0
102
RTVSPost2010PropOp33
 70
     1
102
RTVSPost2010Prop34
280
     0
102
RTVSPost2010PropOp34
 70
     1
102
RTVSPost2010Prop35
280
     0
102
RTVSPost2010PropOp35
 70
     1
102
RTVSPost2010Prop36
280
     0
102
RTVSPost2010PropOp36
 70
     1
102
RTVSPost2010Prop37
 90
       50
102
RTVSPost2010PropOp37
 70
     1
102
RTVSPost2010Prop38
140
0.0
102
RTVSPost2010PropOp38
 70
     1
102
RTVSPost2010Prop39
140
1.0
102
RTVSPost2010PropOp39
 70
     1
102
RTVSPost2010Prop40
 90
        0
102
RTVSPost2010PropOp40
 70
     1
102
RTVSPost2010Prop41ColorIndex
 90
       18
102
RTVSPost2010Prop41ColorRGB
 90
        0
102
RTVSPost2010PropOp41
 70
     1
102
RTVSPost2010Prop42
 90
       50
102
RTVSPost2010PropOp42
 70
     1
102
RTVSPost2010Prop43
 90
        3
102
RTVSPost2010PropOp43
 70
     1
102
RTVSPost2010Prop44ColorIndex
 90
        5
102
RTVSPost2010Prop44ColorRGB
 90
      255
102
RTVSPost2010PropOp44
 70
     1
102
RTVSPost2010Prop45
280
     0
102
RTVSPost2010PropOp45
 70
     1
102
RTVSPost2010Prop46
 90
       50
102
RTVSPost2010PropOp46
 70
     1
102
RTVSPost2010Prop47
 90
       50
102
RTVSPost2010PropOp47
 70
     1
102
RTVSPost2010Prop48
 90
       50
102
RTVSPost2010PropOp48
 70
     1
102
RTVSPost2010Prop49
280
     0
102
RTVSPost2010PropOp49
 70
     1
102
RTVSPost2010Prop50
 90
       50
102
RTVSPost2010PropOp50
 70
     1
102
RTVSPost2010Prop51ColorIndex
 90
      256
102
RTVSPost2010Prop51ColorRGB
 90
-16777216
102
RTVSPost2010PropOp51
 70
     0
102
RTVSPost2010Prop52
140
1.0
102
RTVSPost2010PropOp52
 70
     0
102
RTVSPost2010Prop53
 90
        2
102
RTVSPost2010PropOp53
 70
     1
102
RTVSPost2010Prop54
  1
strokes_ogs.tif
102
RTVSPost2010PropOp54
 70
     1
102
RTVSPost2010Prop55
280
     0
102
RTVSPost2010PropOp55
 70
     1
102
RTVSPost2010Prop56
140
1.0
102
RTVSPost2010PropOp56
 70
     1
102
RTVSPost2010Prop57
140
1.0
102
RTVSPost2010PropOp57
 70
     1
102
RTVSPropertyOp0
 70
     1
102
RTVSPropertyOp1
 70
     1
102
RTVSPropertyOp2
 70
     1
102
RTVSPropertyOp3
 70
     1
102
RTVSPropertyOp4
 70
     1
102
RTVSPropertyOp5
 70
     1
102
RTVSPropertyOp6
 70
     1
102
RTVSPropertyOp7
 70
     1
102
RTVSPropertyOp8
 70
     1
102
RTVSPropertyOp9
 70
     1
102
RTVSPropertyOp10
 70
     1
102
RTVSPropertyOp11
 70
     1
102
RTVSPropertyOp12
 70
     1
102
RTVSPropertyOp13
 70
     1
102
RTVSPropertyOp14
 70
     1
102
RTVSPropertyOp15
 70
     1
102
RTVSPropertyOp16
 70
     1
102
RTVSPropertyOp17
 70
     1
102
RTVSPropertyOp18
 70
     1
102
RTVSPropertyOp19
 70
     1
102
RTVSPropertyOp20
 70
     1
102
RTVSPropertyOp21
 70
     1
102
RTVSPropertyOp22
 70
     1
102
RTVSPropertyOp23
 70
     1
102
RTVSPropertyOp24
 70
     1
102
RTVSPropertyOp25
 70
     1
102
RTVSPropertyOp26
 70
     1
102
RTVSPropertyOp27
 70
     1
102
RTVSPropertyOp28
 70
     1
102
RTVSPropertyOp29
 70
     1
102
RTVSPropertyOp30
 70
     1
102
RTVSPropertyOp31
 70
     1
102
RTVSPropertyOp32
 70
     1
102
RTVSPropertyOp33
 70
     1
102
RTVSPropertyOp34
 70
     1
102
RTVSPropertyOp35
 70
     1
102
RTVSPropertyOp36
 70
     1
102
RTVSPropertyOp37
 70
     1
102
RTVSPropertyOp38
 70
     1
102
RTVSPropertyOp39
 70
     1
102
RTVSPropertyOp40
 70
     1
102
RTVSPropertyOp41
 70
     1
102
RTVSPropertyOp42
 70
     1
102
RTVSPropertyOp43
 70
     1
102
RTVSPropertyOp44
 70
     1
102
RTVSPropertyOp45
 70
     1
102
RTVSPropertyOp46
 70
     1
102
RTVSPropertyOp47
 70
     1
102
RTVSPropertyOp48
 70
     1
102
RTVSPropertyOp49
 70
     1
102
RTVSPropertyOp50
 70
     1
102
RTVSPropertyOp51
 70
     0
102
RTVSPropertyOp52
 70
     0
102
RTVSPropertyOp53
 70
     1
102
RTVSPropertyOp54
 70
     1
102
RTVSPropertyOp55
 70
     1
102
RTVSPropertyOp56
 70
     1
102
RTVSPropertyOp57
 70
     1
102
RTVSPropertyOp58
 70
     1
102
RTVSPropertyOp59
 70
     1
102
RTVSPropertyOp60
 70
     1
102
RTVSPropertyOp61
 70
     1
102
RTVSPropertyOp62
 70
     1
  0
XRECORD
  5
51B
102
{ACAD_REACTORS
330
51A
102
}
330
51A
100
AcDbXrecord
280
     1
102
RTVSPost2010Prop28
280
     0
102
RTVSPost2010PropOp28
 70
     1
102
RTVSPost2010Prop29
280
     1
102
RTVSPost2010PropOp29
 70
     1
102
RTVSPost2010Prop30
280
     1
102
RTVSPost2010PropOp30
 70
     1
102
RTVSPost2010Prop31
280
     0
102
RTVSPost2010PropOp31
 70
     1
102
RTVSPost2010Prop32
280
     0
102
RTVSPost2010PropOp32
 70
     1
102
RTVSPost2010Prop33
280
     0
102
RTVSPost2010PropOp33
 70
     1
102
RTVSPost2010Prop34
280
     0
102
RTVSPost2010PropOp34
 70
     1
102
RTVSPost2010Prop35
280
     0
102
RTVSPost2010PropOp35
 70
     1
102
RTVSPost2010Prop36
280
     0
102
RTVSPost2010PropOp36
 70
     1
102
RTVSPost2010Prop37
 90
       50
102
RTVSPost2010PropOp37
 70
     1
102
RTVSPost2010Prop38
140
0.0
102
RTVSPost2010PropOp38
 70
     1
102
RTVSPost2010Prop39
140
1.0
102
RTVSPost2010PropOp39
 70
     1
102
RTVSPost2010Prop40
 90
        0
102
RTVSPost2010PropOp40
 70
     1
102
RTVSPost2010Prop41ColorIndex
 90
       18
102
RTVSPost2010Prop41ColorRGB
 90
        0
102
RTVSPost2010PropOp41
 70
     1
102
RTVSPost2010Prop42
 90
       50
102
RTVSPost2010PropOp42
 70
     1
102
RTVSPost2010Prop43
 90
        3
102
RTVSPost2010PropOp43
 70
     1
102
RTVSPost2010Prop44ColorIndex
 90
        5
102
RTVSPost2010Prop44ColorRGB
 90
      255
102
RTVSPost2010PropOp44
 70
     1
102
RTVSPost2010Prop45
280
     0
102
RTVSPost2010PropOp45
 70
     1
102
RTVSPost2010Prop46
 90
       50
102
RTVSPost2010PropOp46
 70
     1
102
RTVSPost2010Prop47
 90
       50
102
RTVSPost2010PropOp47
 70
     1
102
RTVSPost2010Prop48
 90
       50
102
RTVSPost2010PropOp48
 70
     1
102
RTVSPost2010Prop49
280
     0
102
RTVSPost2010PropOp49
 70
     1
102
RTVSPost2010Prop50
 90
       50
102
RTVSPost2010PropOp50
 70
     1
102
RTVSPost2010Prop51ColorIndex
 90
      256
102
RTVSPost2010Prop51ColorRGB
 90
-16777216
102
RTVSPost2010PropOp51
 70
     0
102
RTVSPost2010Prop52
140
1.0
102
RTVSPost2010PropOp52
 70
     0
102
RTVSPost2010Prop53
 90
        2
102
RTVSPost2010PropOp53
 70
     1
102
RTVSPost2010Prop54
  1
strokes_ogs.tif
102
RTVSPost2010PropOp54
 70
     1
102
RTVSPost2010Prop55
280
     0
102
RTVSPost2010PropOp55
 70
     1
102
RTVSPost2010Prop56
140
1.0
102
RTVSPost2010PropOp56
 70
     1
102
RTVSPost2010Prop57
140
1.0
102
RTVSPost2010PropOp57
 70
     1
102
RTVSPropertyOp0
 70
     1
102
RTVSPropertyOp1
 70
     1
102
RTVSPropertyOp2
 70
     1
102
RTVSPropertyOp3
 70
     1
102
RTVSPropertyOp4
 70
     1
102
RTVSPropertyOp5
 70
     1
102
RTVSPropertyOp6
 70
     1
102
RTVSPropertyOp7
 70
     1
102
RTVSPropertyOp8
 70
     1
102
RTVSPropertyOp9
 70
     1
102
RTVSPropertyOp10
 70
     1
102
RTVSPropertyOp11
 70
     1
102
RTVSPropertyOp12
 70
     1
102
RTVSPropertyOp13
 70
     1
102
RTVSPropertyOp14
 70
     1
102
RTVSPropertyOp15
 70
     1
102
RTVSPropertyOp16
 70
     1
102
RTVSPropertyOp17
 70
     1
102
RTVSPropertyOp18
 70
     1
102
RTVSPropertyOp19
 70
     1
102
RTVSPropertyOp20
 70
     1
102
RTVSPropertyOp21
 70
     1
102
RTVSPropertyOp22
 70
     1
102
RTVSPropertyOp23
 70
     1
102
RTVSPropertyOp24
 70
     1
102
RTVSPropertyOp25
 70
     1
102
RTVSPropertyOp26
 70
     1
102
RTVSPropertyOp27
 70
     1
102
RTVSPropertyOp28
 70
     1
102
RTVSPropertyOp29
 70
     1
102
RTVSPropertyOp30
 70
     1
102
RTVSPropertyOp31
 70
     1
102
RTVSPropertyOp32
 70
     1
102
RTVSPropertyOp33
 70
     1
102
RTVSPropertyOp34
 70
     1
102
RTVSPropertyOp35
 70
     1
102
RTVSPropertyOp36
 70
     1
102
RTVSPropertyOp37
 70
     1
102
RTVSPropertyOp38
 70
     1
102
RTVSPropertyOp39
 70
     1
102
RTVSPropertyOp40
 70
     1
102
RTVSPropertyOp41
 70
     1
102
RTVSPropertyOp42
 70
     1
102
RTVSPropertyOp43
 70
     1
102
RTVSPropertyOp44
 70
     1
102
RTVSPropertyOp45
 70
     1
102
RTVSPropertyOp46
 70
     1
102
RTVSPropertyOp47
 70
     1
102
RTVSPropertyOp48
 70
     1
102
RTVSPropertyOp49
 70
     1
102
RTVSPropertyOp50
 70
     1
102
RTVSPropertyOp51
 70
     0
102
RTVSPropertyOp52
 70
     0
102
RTVSPropertyOp53
 70
     1
102
RTVSPropertyOp54
 70
     1
102
RTVSPropertyOp55
 70
     1
102
RTVSPropertyOp56
 70
     1
102
RTVSPropertyOp57
 70
     1
102
RTVSPropertyOp58
 70
     1
102
RTVSPropertyOp59
 70
     1
102
RTVSPropertyOp60
 70
     1
102
RTVSPropertyOp61
 70
     1
102
RTVSPropertyOp62
 70
     1
  0
XRECORD
  5
50F
102
{ACAD_REACTORS
330
50E
102
}
330
50E
100
AcDbXrecord
280
     1
102
RTVSPost2010Prop28
280
     0
102
RTVSPost2010PropOp28
 70
     1
102
RTVSPost2010Prop29
280
     1
102
RTVSPost2010PropOp29
 70
     1
102
RTVSPost2010Prop30
280
     1
102
RTVSPost2010PropOp30
 70
     1
102
RTVSPost2010Prop31
280
     0
102
RTVSPost2010PropOp31
 70
     1
102
RTVSPost2010Prop32
280
     0
102
RTVSPost2010PropOp32
 70
     1
102
RTVSPost2010Prop33
280
     0
102
RTVSPost2010PropOp33
 70
     1
102
RTVSPost2010Prop34
280
     0
102
RTVSPost2010PropOp34
 70
     1
102
RTVSPost2010Prop35
280
     0
102
RTVSPost2010PropOp35
 70
     1
102
RTVSPost2010Prop36
280
     0
102
RTVSPost2010PropOp36
 70
     1
102
RTVSPost2010Prop37
 90
       50
102
RTVSPost2010PropOp37
 70
     1
102
RTVSPost2010Prop38
140
0.0
102
RTVSPost2010PropOp38
 70
     1
102
RTVSPost2010Prop39
140
1.0
102
RTVSPost2010PropOp39
 70
     1
102
RTVSPost2010Prop40
 90
        0
102
RTVSPost2010PropOp40
 70
     1
102
RTVSPost2010Prop41ColorIndex
 90
       18
102
RTVSPost2010Prop41ColorRGB
 90
        0
102
RTVSPost2010PropOp41
 70
     1
102
RTVSPost2010Prop42
 90
       50
102
RTVSPost2010PropOp42
 70
     1
102
RTVSPost2010Prop43
 90
        3
102
RTVSPost2010PropOp43
 70
     1
102
RTVSPost2010Prop44ColorIndex
 90
        5
102
RTVSPost2010Prop44ColorRGB
 90
      255
102
RTVSPost2010PropOp44
 70
     1
102
RTVSPost2010Prop45
280
     0
102
RTVSPost2010PropOp45
 70
     1
102
RTVSPost2010Prop46
 90
       50
102
RTVSPost2010PropOp46
 70
     1
102
RTVSPost2010Prop47
 90
       50
102
RTVSPost2010PropOp47
 70
     1
102
RTVSPost2010Prop48
 90
       50
102
RTVSPost2010PropOp48
 70
     1
102
RTVSPost2010Prop49
280
     0
102
RTVSPost2010PropOp49
 70
     1
102
RTVSPost2010Prop50
 90
       50
102
RTVSPost2010PropOp50
 70
     1
102
RTVSPost2010Prop51ColorIndex
 90
      256
102
RTVSPost2010Prop51ColorRGB
 90
-16777216
102
RTVSPost2010PropOp51
 70
     0
102
RTVSPost2010Prop52
140
1.0
102
RTVSPost2010PropOp52
 70
     0
102
RTVSPost2010Prop53
 90
        2
102
RTVSPost2010PropOp53
 70
     1
102
RTVSPost2010Prop54
  1
strokes_ogs.tif
102
RTVSPost2010PropOp54
 70
     1
102
RTVSPost2010Prop55
280
     0
102
RTVSPost2010PropOp55
 70
     1
102
RTVSPost2010Prop56
140
1.0
102
RTVSPost2010PropOp56
 70
     1
102
RTVSPost2010Prop57
140
1.0
102
RTVSPost2010PropOp57
 70
     1
102
RTVSPropertyOp0
 70
     1
102
RTVSPropertyOp1
 70
     1
102
RTVSPropertyOp2
 70
     1
102
RTVSPropertyOp3
 70
     1
102
RTVSPropertyOp4
 70
     1
102
RTVSPropertyOp5
 70
     1
102
RTVSPropertyOp6
 70
     1
102
RTVSPropertyOp7
 70
     1
102
RTVSPropertyOp8
 70
     1
102
RTVSPropertyOp9
 70
     1
102
RTVSPropertyOp10
 70
     1
102
RTVSPropertyOp11
 70
     1
102
RTVSPropertyOp12
 70
     1
102
RTVSPropertyOp13
 70
     1
102
RTVSPropertyOp14
 70
     1
102
RTVSPropertyOp15
 70
     1
102
RTVSPropertyOp16
 70
     1
102
RTVSPropertyOp17
 70
     1
102
RTVSPropertyOp18
 70
     1
102
RTVSPropertyOp19
 70
     1
102
RTVSPropertyOp20
 70
     1
102
RTVSPropertyOp21
 70
     1
102
RTVSPropertyOp22
 70
     1
102
RTVSPropertyOp23
 70
     1
102
RTVSPropertyOp24
 70
     1
102
RTVSPropertyOp25
 70
     1
102
RTVSPropertyOp26
 70
     1
102
RTVSPropertyOp27
 70
     1
102
RTVSPropertyOp28
 70
     1
102
RTVSPropertyOp29
 70
     1
102
RTVSPropertyOp30
 70
     1
102
RTVSPropertyOp31
 70
     1
102
RTVSPropertyOp32
 70
     1
102
RTVSPropertyOp33
 70
     1
102
RTVSPropertyOp34
 70
     1
102
RTVSPropertyOp35
 70
     1
102
RTVSPropertyOp36
 70
     1
102
RTVSPropertyOp37
 70
     1
102
RTVSPropertyOp38
 70
     1
102
RTVSPropertyOp39
 70
     1
102
RTVSPropertyOp40
 70
     1
102
RTVSPropertyOp41
 70
     1
102
RTVSPropertyOp42
 70
     1
102
RTVSPropertyOp43
 70
     1
102
RTVSPropertyOp44
 70
     1
102
RTVSPropertyOp45
 70
     1
102
RTVSPropertyOp46
 70
     1
102
RTVSPropertyOp47
 70
     1
102
RTVSPropertyOp48
 70
     1
102
RTVSPropertyOp49
 70
     1
102
RTVSPropertyOp50
 70
     1
102
RTVSPropertyOp51
 70
     0
102
RTVSPropertyOp52
 70
     0
102
RTVSPropertyOp53
 70
     1
102
RTVSPropertyOp54
 70
     1
102
RTVSPropertyOp55
 70
     1
102
RTVSPropertyOp56
 70
     1
102
RTVSPropertyOp57
 70
     1
102
RTVSPropertyOp58
 70
     1
102
RTVSPropertyOp59
 70
     1
102
RTVSPropertyOp60
 70
     1
102
RTVSPropertyOp61
 70
     1
102
RTVSPropertyOp62
 70
     1
  0
XRECORD
  5
527
102
{ACAD_REACTORS
330
526
102
}
330
526
100
AcDbXrecord
280
     1
102
RTVSPost2010Prop28
280
     0
102
RTVSPost2010PropOp28
 70
     1
102
RTVSPost2010Prop29
280
     1
102
RTVSPost2010PropOp29
 70
     1
102
RTVSPost2010Prop30
280
     1
102
RTVSPost2010PropOp30
 70
     1
102
RTVSPost2010Prop31
280
     0
102
RTVSPost2010PropOp31
 70
     1
102
RTVSPost2010Prop32
280
     0
102
RTVSPost2010PropOp32
 70
     1
102
RTVSPost2010Prop33
280
     0
102
RTVSPost2010PropOp33
 70
     1
102
RTVSPost2010Prop34
280
     0
102
RTVSPost2010PropOp34
 70
     1
102
RTVSPost2010Prop35
280
     0
102
RTVSPost2010PropOp35
 70
     1
102
RTVSPost2010Prop36
280
     0
102
RTVSPost2010PropOp36
 70
     1
102
RTVSPost2010Prop37
 90
       50
102
RTVSPost2010PropOp37
 70
     1
102
RTVSPost2010Prop38
140
0.0
102
RTVSPost2010PropOp38
 70
     1
102
RTVSPost2010Prop39
140
1.0
102
RTVSPost2010PropOp39
 70
     1
102
RTVSPost2010Prop40
 90
        0
102
RTVSPost2010PropOp40
 70
     1
102
RTVSPost2010Prop41ColorIndex
 90
       18
102
RTVSPost2010Prop41ColorRGB
 90
        0
102
RTVSPost2010PropOp41
 70
     1
102
RTVSPost2010Prop42
 90
       50
102
RTVSPost2010PropOp42
 70
     1
102
RTVSPost2010Prop43
 90
        3
102
RTVSPost2010PropOp43
 70
     1
102
RTVSPost2010Prop44ColorIndex
 90
        5
102
RTVSPost2010Prop44ColorRGB
 90
      255
102
RTVSPost2010PropOp44
 70
     1
102
RTVSPost2010Prop45
280
     0
102
RTVSPost2010PropOp45
 70
     1
102
RTVSPost2010Prop46
 90
       50
102
RTVSPost2010PropOp46
 70
     1
102
RTVSPost2010Prop47
 90
       50
102
RTVSPost2010PropOp47
 70
     1
102
RTVSPost2010Prop48
 90
       50
102
RTVSPost2010PropOp48
 70
     1
102
RTVSPost2010Prop49
280
     0
102
RTVSPost2010PropOp49
 70
     1
102
RTVSPost2010Prop50
 90
       50
102
RTVSPost2010PropOp50
 70
     1
102
RTVSPost2010Prop51ColorIndex
 90
      256
102
RTVSPost2010Prop51ColorRGB
 90
-16777216
102
RTVSPost2010PropOp51
 70
     0
102
RTVSPost2010Prop52
140
1.0
102
RTVSPost2010PropOp52
 70
     0
102
RTVSPost2010Prop53
 90
        2
102
RTVSPost2010PropOp53
 70
     1
102
RTVSPost2010Prop54
  1
strokes_ogs.tif
102
RTVSPost2010PropOp54
 70
     1
102
RTVSPost2010Prop55
280
     0
102
RTVSPost2010PropOp55
 70
     1
102
RTVSPost2010Prop56
140
1.0
102
RTVSPost2010PropOp56
 70
     1
102
RTVSPost2010Prop57
140
1.0
102
RTVSPost2010PropOp57
 70
     1
102
RTVSPropertyOp0
 70
     1
102
RTVSPropertyOp1
 70
     1
102
RTVSPropertyOp2
 70
     1
102
RTVSPropertyOp3
 70
     1
102
RTVSPropertyOp4
 70
     1
102
RTVSPropertyOp5
 70
     1
102
RTVSPropertyOp6
 70
     1
102
RTVSPropertyOp7
 70
     1
102
RTVSPropertyOp8
 70
     1
102
RTVSPropertyOp9
 70
     1
102
RTVSPropertyOp10
 70
     1
102
RTVSPropertyOp11
 70
     1
102
RTVSPropertyOp12
 70
     1
102
RTVSPropertyOp13
 70
     1
102
RTVSPropertyOp14
 70
     1
102
RTVSPropertyOp15
 70
     1
102
RTVSPropertyOp16
 70
     1
102
RTVSPropertyOp17
 70
     1
102
RTVSPropertyOp18
 70
     1
102
RTVSPropertyOp19
 70
     1
102
RTVSPropertyOp20
 70
     1
102
RTVSPropertyOp21
 70
     1
102
RTVSPropertyOp22
 70
     1
102
RTVSPropertyOp23
 70
     1
102
RTVSPropertyOp24
 70
     1
102
RTVSPropertyOp25
 70
     1
102
RTVSPropertyOp26
 70
     1
102
RTVSPropertyOp27
 70
     1
102
RTVSPropertyOp28
 70
     1
102
RTVSPropertyOp29
 70
     1
102
RTVSPropertyOp30
 70
     1
102
RTVSPropertyOp31
 70
     1
102
RTVSPropertyOp32
 70
     1
102
RTVSPropertyOp33
 70
     1
102
RTVSPropertyOp34
 70
     1
102
RTVSPropertyOp35
 70
     1
102
RTVSPropertyOp36
 70
     1
102
RTVSPropertyOp37
 70
     1
102
RTVSPropertyOp38
 70
     1
102
RTVSPropertyOp39
 70
     1
102
RTVSPropertyOp40
 70
     1
102
RTVSPropertyOp41
 70
     1
102
RTVSPropertyOp42
 70
     1
102
RTVSPropertyOp43
 70
     1
102
RTVSPropertyOp44
 70
     1
102
RTVSPropertyOp45
 70
     1
102
RTVSPropertyOp46
 70
     1
102
RTVSPropertyOp47
 70
     1
102
RTVSPropertyOp48
 70
     1
102
RTVSPropertyOp49
 70
     1
102
RTVSPropertyOp50
 70
     1
102
RTVSPropertyOp51
 70
     0
102
RTVSPropertyOp52
 70
     0
102
RTVSPropertyOp53
 70
     1
102
RTVSPropertyOp54
 70
     1
102
RTVSPropertyOp55
 70
     1
102
RTVSPropertyOp56
 70
     1
102
RTVSPropertyOp57
 70
     1
102
RTVSPropertyOp58
 70
     1
102
RTVSPropertyOp59
 70
     1
102
RTVSPropertyOp60
 70
     1
102
RTVSPropertyOp61
 70
     1
102
RTVSPropertyOp62
 70
     1
  0
ENDSEC
  0
EOF
