  0
SECTION
  2
HEADER
  9
$ACADVER
  1
AC1015
  9
$ACADMAINTVER
 70
    20
  9
$DWGCODEPAGE
  3
ANSI_1252
  9
$INSBASE
 10
0.0
 20
0.0
 30
0.0
  9
$EXTMIN
 10
-22.035733
 20
-35.59034400000002
 30
0.0
  9
$EXTMAX
 10
35.885049
 20
33.08274799999999
 30
0.0
  9
$LIMMIN
 10
0.0
 20
0.0
  9
$LIMMAX
 10
12.0
 20
9.0
  9
$ORTHOMODE
 70
     0
  9
$REGENMODE
 70
     1
  9
$FILLMODE
 70
     1
  9
$QTEXTMODE
 70
     0
  9
$MIRRTEXT
 70
     1
  9
$LTSCALE
 40
1.0
  9
$ATTMODE
 70
     1
  9
$TEXTSIZE
 40
3.0
  9
$TRACEWID
 40
10.0
  9
$TEXTSTYLE
  7
SANDVIK_STYLE
  9
$CLAYER
  8
1
  9
$CELTYPE
  6
ByLayer
  9
$CECOLOR
 62
   256
  9
$CELTSCALE
 40
1.0
  9
$DISPSILH
 70
     0
  9
$DIMSCALE
 40
1.0
  9
$DIMASZ
 40
0.18
  9
$DIMEXO
 40
0.0625
  9
$DIMDLI
 40
0.38
  9
$DIMRND
 40
0.0
  9
$DIMDLE
 40
0.0
  9
$DIMEXE
 40
0.18
  9
$DIMTP
 40
0.0
  9
$DIMTM
 40
0.0
  9
$DIMTXT
 40
0.18
  9
$DIMCEN
 40
0.09
  9
$DIMTSZ
 40
0.0
  9
$DIMTOL
 70
     0
  9
$DIMLIM
 70
     0
  9
$DIMTIH
 70
     1
  9
$DIMTOH
 70
     1
  9
$DIMSE1
 70
     0
  9
$DIMSE2
 70
     0
  9
$DIMTAD
 70
     0
  9
$DIMZIN
 70
     0
  9
$DIMBLK
  1

  9
$DIMASO
 70
     1
  9
$DIMSHO
 70
     1
  9
$DIMPOST
  1

  9
$DIMAPOST
  1

  9
$DIMALT
 70
     0
  9
$DIMALTD
 70
     2
  9
$DIMALTF
 40
25.4
  9
$DIMLFAC
 40
1.0
  9
$DIMTOFL
 70
     0
  9
$DIMTVP
 40
0.0
  9
$DIMTIX
 70
     0
  9
$DIMSOXD
 70
     0
  9
$DIMSAH
 70
     0
  9
$DIMBLK1
  1

  9
$DIMBLK2
  1

  9
$DIMSTYLE
  2
STANDARD
  9
$DIMCLRD
 70
     0
  9
$DIMCLRE
 70
     0
  9
$DIMCLRT
 70
     0
  9
$DIMTFAC
 40
1.0
  9
$DIMGAP
 40
0.09
  9
$DIMJUST
 70
     0
  9
$DIMSD1
 70
     0
  9
$DIMSD2
 70
     0
  9
$DIMTOLJ
 70
     1
  9
$DIMTZIN
 70
     0
  9
$DIMALTZ
 70
     0
  9
$DIMALTTZ
 70
     0
  9
$DIMUPT
 70
     0
  9
$DIMDEC
 70
     4
  9
$DIMTDEC
 70
     4
  9
$DIMALTU
 70
     2
  9
$DIMALTTD
 70
     2
  9
$DIMTXSTY
  7
STANDARD
  9
$DIMAUNIT
 70
     0
  9
$DIMADEC
 70
     0
  9
$DIMALTRND
 40
0.0
  9
$DIMAZIN
 70
     0
  9
$DIMDSEP
 70
    46
  9
$DIMATFIT
 70
     3
  9
$DIMFRAC
 70
     0
  9
$DIMLDRBLK
  1

  9
$DIMLUNIT
 70
     2
  9
$DIMLWD
 70
    -2
  9
$DIMLWE
 70
    -2
  9
$DIMTMOVE
 70
     0
  9
$LUNITS
 70
     2
  9
$LUPREC
 70
     2
  9
$SKETCHINC
 40
0.0
  9
$FILLETRAD
 40
0.0
  9
$AUNITS
 70
     0
  9
$AUPREC
 70
     2
  9
$MENU
  1
acad
  9
$ELEVATION
 40
0.0
  9
$PELEVATION
 40
0.0
  9
$THICKNESS
 40
0.0
  9
$LIMCHECK
 70
     0
  9
$CHAMFERA
 40
0.0
  9
$CHAMFERB
 40
0.0
  9
$CHAMFERC
 40
0.0
  9
$CHAMFERD
 40
0.0
  9
$SKPOLY
 70
     0
  9
$TDCREATE
 40
2456818.319546840
  9
$TDUCREATE
 40
2456818.236213507
  9
$TDUPDATE
 40
2456818.319551238
  9
$TDUUPDATE
 40
2456818.236217905
  9
$TDINDWG
 40
0.0000051157
  9
$TDUSRTIMER
 40
0.0000051157
  9
$USRTIMER
 70
     1
  9
$ANGBASE
 50
0.0
  9
$ANGDIR
 70
     0
  9
$PDMODE
 70
     0
  9
$PDSIZE
 40
0.0
  9
$PLINEWID
 40
0.0
  9
$SPLFRAME
 70
     0
  9
$SPLINETYPE
 70
     6
  9
$SPLINESEGS
 70
     8
  9
$HANDSEED
  5
583
  9
$SURFTAB1
 70
     6
  9
$SURFTAB2
 70
     6
  9
$SURFTYPE
 70
     6
  9
$SURFU
 70
     6
  9
$SURFV
 70
     6
  9
$UCSBASE
  2

  9
$UCSNAME
  2

  9
$UCSORG
 10
0.0
 20
0.0
 30
0.0
  9
$UCSXDIR
 10
1.0
 20
0.0
 30
0.0
  9
$UCSYDIR
 10
0.0
 20
1.0
 30
0.0
  9
$UCSORTHOREF
  2

  9
$UCSORTHOVIEW
 70
     0
  9
$UCSORGTOP
 10
0.0
 20
0.0
 30
0.0
  9
$UCSORGBOTTOM
 10
0.0
 20
0.0
 30
0.0
  9
$UCSORGLEFT
 10
0.0
 20
0.0
 30
0.0
  9
$UCSORGRIGHT
 10
0.0
 20
0.0
 30
0.0
  9
$UCSORGFRONT
 10
0.0
 20
0.0
 30
0.0
  9
$UCSORGBACK
 10
0.0
 20
0.0
 30
0.0
  9
$PUCSBASE
  2

  9
$PUCSNAME
  2

  9
$PUCSORG
 10
0.0
 20
0.0
 30
0.0
  9
$PUCSXDIR
 10
1.0
 20
0.0
 30
0.0
  9
$PUCSYDIR
 10
0.0
 20
1.0
 30
0.0
  9
$PUCSORTHOREF
  2

  9
$PUCSORTHOVIEW
 70
     0
  9
$PUCSORGTOP
 10
0.0
 20
0.0
 30
0.0
  9
$PUCSORGBOTTOM
 10
0.0
 20
0.0
 30
0.0
  9
$PUCSORGLEFT
 10
0.0
 20
0.0
 30
0.0
  9
$PUCSORGRIGHT
 10
0.0
 20
0.0
 30
0.0
  9
$PUCSORGFRONT
 10
0.0
 20
0.0
 30
0.0
  9
$PUCSORGBACK
 10
0.0
 20
0.0
 30
0.0
  9
$USERI1
 70
     0
  9
$USERI2
 70
     0
  9
$USERI3
 70
     0
  9
$USERI4
 70
     0
  9
$USERI5
 70
     0
  9
$USERR1
 40
0.0
  9
$USERR2
 40
0.0
  9
$USERR3
 40
0.0
  9
$USERR4
 40
0.0
  9
$USERR5
 40
0.0
  9
$WORLDVIEW
 70
     1
  9
$SHADEDGE
 70
     3
  9
$SHADEDIF
 70
    70
  9
$TILEMODE
 70
     1
  9
$MAXACTVP
 70
    16
  9
$PINSBASE
 10
0.0
 20
0.0
 30
0.0
  9
$PLIMCHECK
 70
     0
  9
$PEXTMIN
 10
1.000000000000000E+20
 20
1.000000000000000E+20
 30
1.000000000000000E+20
  9
$PEXTMAX
 10
-1.000000000000000E+20
 20
-1.000000000000000E+20
 30
-1.000000000000000E+20
  9
$PLIMMIN
 10
0.0
 20
0.0
  9
$PLIMMAX
 10
12.0
 20
9.0
  9
$UNITMODE
 70
     0
  9
$VISRETAIN
 70
     0
  9
$PLINEGEN
 70
     0
  9
$PSLTSCALE
 70
     1
  9
$TREEDEPTH
 70
  3020
  9
$CMLSTYLE
  2
Standard
  9
$CMLJUST
 70
     0
  9
$CMLSCALE
 40
1.0
  9
$PROXYGRAPHICS
 70
     1
  9
$MEASUREMENT
 70
     0
  9
$CELWEIGHT
370
    -1
  9
$ENDCAPS
280
     0
  9
$JOINSTYLE
280
     0
  9
$LWDISPLAY
290
     0
  9
$INSUNITS
 70
     0
  9
$HYPERLINKBASE
  1

  9
$STYLESHEET
  1

  9
$XEDIT
290
     1
  9
$CEPSNTYPE
380
     0
  9
$PSTYLEMODE
290
     1
  9
$FINGERPRINTGUID
  2
{7F4E4A9A-D19B-4DEF-95ED-6BC0CA6FF468}
  9
$VERSIONGUID
  2
{D999A2BF-859C-4355-8A1E-7619EC79FCF1}
  9
$EXTNAMES
290
     1
  9
$PSVPSCALE
 40
0.0
  9
$OLESTARTUP
290
     0
  0
ENDSEC
  0
SECTION
  2
CLASSES
  0
CLASS
  1
ACDBDICTIONARYWDFLT
  2
AcDbDictionaryWithDefault
  3
ObjectDBX Classes
 90
        0
280
     0
281
     0
  0
CLASS
  1
MATERIAL
  2
AcDbMaterial
  3
ObjectDBX Classes
 90
     1153
280
     0
281
     0
  0
CLASS
  1
VISUALSTYLE
  2
AcDbVisualStyle
  3
ObjectDBX Classes
 90
     4095
280
     0
281
     0
  0
CLASS
  1
SCALE
  2
AcDbScale
  3
ObjectDBX Classes
 90
     1153
280
     0
281
     0
  0
CLASS
  1
TABLESTYLE
  2
AcDbTableStyle
  3
ObjectDBX Classes
 90
     4095
280
     0
281
     0
  0
CLASS
  1
MLEADERSTYLE
  2
AcDbMLeaderStyle
  3
ACDB_MLEADERSTYLE_CLASS
 90
     4095
280
     0
281
     0
  0
CLASS
  1
ACDBSECTIONVIEWSTYLE
  2
AcDbSectionViewStyle
  3
ObjectDBX Classes
 90
     1025
280
     0
281
     0
  0
CLASS
  1
ACDBDETAILVIEWSTYLE
  2
AcDbDetailViewStyle
  3
ObjectDBX Classes
 90
     1025
280
     0
281
     0
  0
CLASS
  1
EXACXREFPANELOBJECT
  2
ExAcXREFPanelObject
  3
EXAC_ESW
 90
     1025
280
     0
281
     0
  0
CLASS
  1
NPOCOLLECTION
  2
AcDbImpNonPersistentObjectsCollection
  3
ObjectDBX Classes
 90
     1153
280
     0
281
     0
  0
CLASS
  1
DICTIONARYVAR
  2
AcDbDictionaryVar
  3
ObjectDBX Classes
 90
        0
280
     0
281
     0
  0
CLASS
  1
CELLSTYLEMAP
  2
AcDbCellStyleMap
  3
ObjectDBX Classes
 90
     1152
280
     0
281
     0
  0
CLASS
  1
ACDBPLACEHOLDER
  2
AcDbPlaceHolder
  3
ObjectDBX Classes
 90
        0
280
     0
281
     0
  0
CLASS
  1
LAYOUT
  2
AcDbLayout
  3
ObjectDBX Classes
 90
        0
280
     0
281
     0
  0
ENDSEC
  0
SECTION
  2
TABLES
  0
TABLE
  2
VPORT
  5
451
330
0
100
AcDbSymbolTable
 70
     1
  0
VPORT
  5
4E8
330
451
100
AcDbSymbolTableRecord
100
AcDbViewportTableRecord
  2
*Active
 70
     0
 10
0.0
 20
0.0
 11
1.0
 21
1.0
 12
6.924657999999993
 22
-1.25379800000001
 13
0.0
 23
0.0
 14
1.0
 24
1.0
 15
0.0
 25
0.0
 16
0.0
 26
0.0
 36
1.0
 17
0.0
 27
0.0
 37
0.0
 40
76.85106786815525
 41
2.2
 42
50.0
 43
0.0
 44
0.0
 50
0.0
 51
0.0
 71
     0
 72
   100
 73
     1
 74
     1
 75
     0
 76
     0
 77
     0
 78
     0
281
     0
 65
     1
110
0.0
120
0.0
130
0.0
111
1.0
121
0.0
131
0.0
112
0.0
122
1.0
132
0.0
 79
     0
146
0.0
1001
ACAD_NAV_VCDISPLAY
1070
     3
  0
ENDTAB
  0
TABLE
  2
LTYPE
  5
44E
330
0
100
AcDbSymbolTable
 70
     4
  0
LTYPE
  5
4A3
330
44E
100
AcDbSymbolTableRecord
100
AcDbLinetypeTableRecord
  2
ByBlock
 70
     0
  3

 72
    65
 73
     0
 40
0.0
  0
LTYPE
  5
4A4
330
44E
100
AcDbSymbolTableRecord
100
AcDbLinetypeTableRecord
  2
ByLayer
 70
     0
  3

 72
    65
 73
     0
 40
0.0
  0
LTYPE
  5
4A5
330
44E
100
AcDbSymbolTableRecord
100
AcDbLinetypeTableRecord
  2
CONTINUOUS
 70
     0
  3
Solid line
 72
    65
 73
     0
 40
0.0
  0
LTYPE
  5
4B1
330
44E
100
AcDbSymbolTableRecord
100
AcDbLinetypeTableRecord
  2
PHANTOM2
 70
     0
  3
Phantom (.5x) ___ _ _ ___ _ _ ___ _ _ ___ _ _
 72
    65
 73
     6
 40
1.25
 49
0.625
 74
     0
 49
-0.125
 74
     0
 49
0.125
 74
     0
 49
-0.125
 74
     0
 49
0.125
 74
     0
 49
-0.125
 74
     0
  0
LTYPE
  5
4BF
330
44E
100
AcDbSymbolTableRecord
100
AcDbLinetypeTableRecord
  2
CENTER
 70
     0
  3
____ _ ____ _ ____ _ ____ _ ____ _ ____ _ ____
 72
    65
 73
     4
 40
5.059897
 49
3.162434999999999
 74
     0
 49
-0.6324870000000001
 74
     0
 49
0.6324870000000001
 74
     0
 49
-0.6324870000000001
 74
     0
  0
LTYPE
  5
4C0
330
44E
100
AcDbSymbolTableRecord
100
AcDbLinetypeTableRecord
  2
DASHED
 70
     0
  3
__ __ __ __ __ __ __ __ __ __ __ __ __ __ __ __
 72
    65
 73
     2
 40
7.589844999999999
 49
5.059897
 74
     0
 49
-2.529948
 74
     0
  0
ENDTAB
  0
TABLE
  2
LAYER
  5
44B
330
0
100
AcDbSymbolTable
 70
    38
  0
LAYER
  5
49D
102
{ACAD_XDICTIONARY
360
4EF
102
}
330
44B
100
AcDbSymbolTableRecord
100
AcDbLayerTableRecord
  2
0
 70
     0
 62
     7
  6
CONTINUOUS
370
    -3
390
458
  0
LAYER
  5
4BD
102
{ACAD_XDICTIONARY
360
4F1
102
}
330
44B
100
AcDbSymbolTableRecord
100
AcDbLayerTableRecord
  2
1
 70
     0
 62
     4
  6
CONTINUOUS
370
    -3
390
458
  0
LAYER
  5
4C1
102
{ACAD_XDICTIONARY
360
4F3
102
}
330
44B
100
AcDbSymbolTableRecord
100
AcDbLayerTableRecord
  2
61
 70
     0
 62
     5
  6
CONTINUOUS
370
    -3
390
458
  0
LAYER
  5
4C2
102
{ACAD_XDICTIONARY
360
4F5
102
}
330
44B
100
AcDbSymbolTableRecord
100
AcDbLayerTableRecord
  2
62
 70
     0
 62
    -5
  6
CONTINUOUS
370
    -3
390
458
  0
LAYER
  5
4C3
102
{ACAD_XDICTIONARY
360
4F7
102
}
330
44B
100
AcDbSymbolTableRecord
100
AcDbLayerTableRecord
  2
63
 70
     0
 62
    -5
  6
CONTINUOUS
370
    -3
390
458
  0
LAYER
  5
4C4
102
{ACAD_XDICTIONARY
360
4F9
102
}
330
44B
100
AcDbSymbolTableRecord
100
AcDbLayerTableRecord
  2
64
 70
     0
 62
    -5
  6
CONTINUOUS
370
    -3
390
458
  0
LAYER
  5
4C5
102
{ACAD_XDICTIONARY
360
4FB
102
}
330
44B
100
AcDbSymbolTableRecord
100
AcDbLayerTableRecord
  2
65
 70
     0
 62
    -5
  6
CONTINUOUS
370
    -3
390
458
  0
LAYER
  5
4C6
102
{ACAD_XDICTIONARY
360
4FD
102
}
330
44B
100
AcDbSymbolTableRecord
100
AcDbLayerTableRecord
  2
66
 70
     0
 62
    -5
  6
CONTINUOUS
370
    -3
390
458
  0
LAYER
  5
4C7
102
{ACAD_XDICTIONARY
360
4FF
102
}
330
44B
100
AcDbSymbolTableRecord
100
AcDbLayerTableRecord
  2
67
 70
     0
 62
    -5
  6
CONTINUOUS
370
    -3
390
458
  0
LAYER
  5
4C8
102
{ACAD_XDICTIONARY
360
501
102
}
330
44B
100
AcDbSymbolTableRecord
100
AcDbLayerTableRecord
  2
68
 70
     0
 62
    -5
  6
CONTINUOUS
370
    -3
390
458
  0
LAYER
  5
4C9
102
{ACAD_XDICTIONARY
360
503
102
}
330
44B
100
AcDbSymbolTableRecord
100
AcDbLayerTableRecord
  2
69
 70
     0
 62
    -5
  6
CONTINUOUS
370
    -3
390
458
  0
LAYER
  5
4CA
102
{ACAD_XDICTIONARY
360
505
102
}
330
44B
100
AcDbSymbolTableRecord
100
AcDbLayerTableRecord
  2
70
 70
     0
 62
     5
  6
CONTINUOUS
370
    -3
390
458
  0
LAYER
  5
4CB
102
{ACAD_XDICTIONARY
360
507
102
}
330
44B
100
AcDbSymbolTableRecord
100
AcDbLayerTableRecord
  2
2
 70
     0
 62
     7
  6
CONTINUOUS
370
    -3
390
458
  0
LAYER
  5
4CC
102
{ACAD_XDICTIONARY
360
509
102
}
330
44B
100
AcDbSymbolTableRecord
100
AcDbLayerTableRecord
  2
3
 70
     0
 62
     1
  6
DASHED
370
    -3
390
458
  0
LAYER
  5
4CD
102
{ACAD_XDICTIONARY
360
50B
102
}
330
44B
100
AcDbSymbolTableRecord
100
AcDbLayerTableRecord
  2
4
 70
     0
 62
    -2
  6
CENTER
370
    -3
390
458
  0
LAYER
  5
4CE
102
{ACAD_XDICTIONARY
360
50D
102
}
330
44B
100
AcDbSymbolTableRecord
100
AcDbLayerTableRecord
  2
5
 70
     0
 62
    -7
  6
CONTINUOUS
370
    -3
390
458
  0
LAYER
  5
4CF
102
{ACAD_XDICTIONARY
360
50F
102
}
330
44B
100
AcDbSymbolTableRecord
100
AcDbLayerTableRecord
  2
SK1
 70
     0
 62
     4
  6
CONTINUOUS
370
    -3
390
458
  0
LAYER
  5
4D0
102
{ACAD_XDICTIONARY
360
511
102
}
330
44B
100
AcDbSymbolTableRecord
100
AcDbLayerTableRecord
  2
6
 70
     0
 62
     5
  6
CONTINUOUS
370
    -3
390
458
  0
LAYER
  5
4D1
102
{ACAD_XDICTIONARY
360
513
102
}
330
44B
100
AcDbSymbolTableRecord
100
AcDbLayerTableRecord
  2
SK2
 70
     0
 62
     7
  6
CONTINUOUS
370
    -3
390
458
  0
LAYER
  5
4D2
102
{ACAD_XDICTIONARY
360
515
102
}
330
44B
100
AcDbSymbolTableRecord
100
AcDbLayerTableRecord
  2
SK3
 70
     0
 62
     1
  6
DASHED
370
    -3
390
458
  0
LAYER
  5
4D3
102
{ACAD_XDICTIONARY
360
517
102
}
330
44B
100
AcDbSymbolTableRecord
100
AcDbLayerTableRecord
  2
SK4
 70
     0
 62
     2
  6
CENTER
370
    -3
390
458
  0
LAYER
  5
4D4
102
{ACAD_XDICTIONARY
360
519
102
}
330
44B
100
AcDbSymbolTableRecord
100
AcDbLayerTableRecord
  2
CUT
 70
     0
 62
    -1
  6
CONTINUOUS
370
    -3
390
458
  0
LAYER
  5
4D5
102
{ACAD_XDICTIONARY
360
51B
102
}
330
44B
100
AcDbSymbolTableRecord
100
AcDbLayerTableRecord
  2
SK6
 70
     0
 62
     5
  6
CONTINUOUS
370
    -3
390
458
  0
LAYER
  5
4D6
102
{ACAD_XDICTIONARY
360
51D
102
}
330
44B
100
AcDbSymbolTableRecord
100
AcDbLayerTableRecord
  2
80
 70
     0
 62
    -2
  6
CENTER
370
    -3
390
458
  0
LAYER
  5
4D7
102
{ACAD_XDICTIONARY
360
51F
102
}
330
44B
100
AcDbSymbolTableRecord
100
AcDbLayerTableRecord
  2
81
 70
     0
 62
    -2
  6
CENTER
370
    -3
390
458
  0
LAYER
  5
4D8
102
{ACAD_XDICTIONARY
360
521
102
}
330
44B
100
AcDbSymbolTableRecord
100
AcDbLayerTableRecord
  2
82
 70
     0
 62
    -2
  6
CENTER
370
    -3
390
458
  0
LAYER
  5
4D9
102
{ACAD_XDICTIONARY
360
523
102
}
330
44B
100
AcDbSymbolTableRecord
100
AcDbLayerTableRecord
  2
NOCUT
 70
     0
 62
     7
  6
CONTINUOUS
370
    -3
390
458
  0
LAYER
  5
4DA
102
{ACAD_XDICTIONARY
360
525
102
}
330
44B
100
AcDbSymbolTableRecord
100
AcDbLayerTableRecord
  2
50
 70
     0
 62
    -7
  6
CONTINUOUS
370
    -3
390
458
  0
LAYER
  5
4DB
102
{ACAD_XDICTIONARY
360
527
102
}
330
44B
100
AcDbSymbolTableRecord
100
AcDbLayerTableRecord
  2
51
 70
     0
 62
     7
  6
CONTINUOUS
370
    -3
390
458
  0
LAYER
  5
4DC
102
{ACAD_XDICTIONARY
360
529
102
}
330
44B
100
AcDbSymbolTableRecord
100
AcDbLayerTableRecord
  2
52
 70
     0
 62
    -7
  6
CONTINUOUS
370
    -3
390
458
  0
LAYER
  5
4DD
102
{ACAD_XDICTIONARY
360
52B
102
}
330
44B
100
AcDbSymbolTableRecord
100
AcDbLayerTableRecord
  2
53
 70
     0
 62
    -7
  6
CONTINUOUS
370
    -3
390
458
  0
LAYER
  5
4DE
102
{ACAD_XDICTIONARY
360
52D
102
}
330
44B
100
AcDbSymbolTableRecord
100
AcDbLayerTableRecord
  2
54
 70
     0
 62
    -7
  6
CONTINUOUS
370
    -3
390
458
  0
LAYER
  5
4DF
102
{ACAD_XDICTIONARY
360
52F
102
}
330
44B
100
AcDbSymbolTableRecord
100
AcDbLayerTableRecord
  2
55
 70
     0
 62
    -7
  6
CONTINUOUS
370
    -3
390
458
  0
LAYER
  5
4E0
102
{ACAD_XDICTIONARY
360
531
102
}
330
44B
100
AcDbSymbolTableRecord
100
AcDbLayerTableRecord
  2
56
 70
     0
 62
    -7
  6
CONTINUOUS
370
    -3
390
458
  0
LAYER
  5
4E1
102
{ACAD_XDICTIONARY
360
533
102
}
330
44B
100
AcDbSymbolTableRecord
100
AcDbLayerTableRecord
  2
57
 70
     0
 62
    -7
  6
CONTINUOUS
370
    -3
390
458
  0
LAYER
  5
4E2
102
{ACAD_XDICTIONARY
360
535
102
}
330
44B
100
AcDbSymbolTableRecord
100
AcDbLayerTableRecord
  2
58
 70
     0
 62
    -7
  6
CONTINUOUS
370
    -3
390
458
  0
LAYER
  5
4E3
102
{ACAD_XDICTIONARY
360
537
102
}
330
44B
100
AcDbSymbolTableRecord
100
AcDbLayerTableRecord
  2
2L
 70
     0
 62
     7
  6
CONTINUOUS
370
    -3
390
458
  0
LAYER
  5
4E4
102
{ACAD_XDICTIONARY
360
539
102
}
330
44B
100
AcDbSymbolTableRecord
100
AcDbLayerTableRecord
  2
59
 70
     0
 62
    -7
  6
CONTINUOUS
370
    -3
390
458
  0
ENDTAB
  0
TABLE
  2
STYLE
  5
44C
330
0
100
AcDbSymbolTable
 70
     3
  0
STYLE
  5
49E
330
44C
100
AcDbSymbolTableRecord
100
AcDbTextStyleTableRecord
  2
STANDARD
 70
     0
 40
0.0
 41
1.0
 50
0.0
 71
     0
 42
4.5
  3
simplex.shx
  4

  0
STYLE
  5
4A2
330
44C
100
AcDbSymbolTableRecord
100
AcDbTextStyleTableRecord
  2
Annotative
 70
     0
 40
0.0
 41
1.0
 50
0.0
 71
     0
 42
0.2
  3
txt
  4

1001
AcadAnnotative
1000
AnnotativeData
1002
{
1070
     1
1070
     1
1002
}
  0
STYLE
  5
4BE
330
44C
100
AcDbSymbolTableRecord
100
AcDbTextStyleTableRecord
  2
SANDVIK_STYLE
 70
     0
 40
3.0
 41
1.0
 50
0.0
 71
     0
 42
3.0
  3
simplex.shx
  4

  0
ENDTAB
  0
TABLE
  2
VIEW
  5
44F
330
0
100
AcDbSymbolTable
 70
     0
  0
ENDTAB
  0
TABLE
  2
UCS
  5
450
330
0
100
AcDbSymbolTable
 70
     0
  0
ENDTAB
  0
TABLE
  2
APPID
  5
452
330
0
100
AcDbSymbolTable
 70
     4
  0
APPID
  5
49F
330
452
100
AcDbSymbolTableRecord
100
AcDbRegAppTableRecord
  2
ACAD
 70
     0
  0
APPID
  5
4A6
330
452
100
AcDbSymbolTableRecord
100
AcDbRegAppTableRecord
  2
AcadAnnotative
 70
     0
  0
APPID
  5
545
330
452
100
AcDbSymbolTableRecord
100
AcDbRegAppTableRecord
  2
ACAD_NAV_VCDISPLAY
 70
     0
  0
APPID
  5
57E
330
452
100
AcDbSymbolTableRecord
100
AcDbRegAppTableRecord
  2
ACAD_MLEADERVER
 70
     0
  0
ENDTAB
  0
TABLE
  2
DIMSTYLE
  5
453
330
0
100
AcDbSymbolTable
 70
     3
100
AcDbDimStyleTable
 71
     0
  0
DIMSTYLE
105
4A0
330
453
100
AcDbSymbolTableRecord
100
AcDbDimStyleTableRecord
  2
STANDARD
 70
     0
  4
 
 41
3.0
 42
2.5
 43
10.0
 44
2.5
 46
1.25
 73
     0
 74
     0
140
3.0
141
-3.0
143
0.039
145
1.5
146
0.75
147
1.5
271
     2
272
     2
279
     2
340
4BE
  0
DIMSTYLE
105
4A1
330
453
100
AcDbSymbolTableRecord
100
AcDbDimStyleTableRecord
  2
Annotative
 70
     0
340
49E
1001
AcadAnnotative
1000
AnnotativeData
1002
{
1070
     1
1070
     1
1002
}
  0
DIMSTYLE
105
4E5
330
453
100
AcDbSymbolTableRecord
100
AcDbDimStyleTableRecord
  2
SANDVIK_DIM
 70
     0
  4
 
 40
0.0
 41
4.57
 42
0.0
 44
5.0
 73
     0
 74
     0
 77
     1
 78
     8
140
4.5
147
2.299999999999999
176
   256
177
   256
178
   256
271
     2
272
     2
279
     2
340
4BE
  0
ENDTAB
  0
TABLE
  2
BLOCK_RECORD
  5
44A
330
0
100
AcDbSymbolTable
 70
     2
  0
BLOCK_RECORD
  5
4B9
330
44A
100
AcDbSymbolTableRecord
100
AcDbBlockTableRecord
  2
*Model_Space
340
4BC
  0
BLOCK_RECORD
  5
4B5
330
44A
100
AcDbSymbolTableRecord
100
AcDbBlockTableRecord
  2
*Paper_Space
340
4B8
  0
BLOCK_RECORD
  5
4E9
330
44A
100
AcDbSymbolTableRecord
100
AcDbBlockTableRecord
  2
*D0
340
0
102
{BLKREFS
331
3E7
102
}
  0
BLOCK_RECORD
  5
4EA
330
44A
100
AcDbSymbolTableRecord
100
AcDbBlockTableRecord
  2
*D1
340
0
102
{BLKREFS
331
3E9
102
}
  0
ENDTAB
  0
ENDSEC
  0
SECTION
  2
BLOCKS
  0
BLOCK
  5
4BA
330
4B9
100
AcDbEntity
  8
0
100
AcDbBlockBegin
  2
*Model_Space
 70
     0
 10
0.0
 20
0.0
 30
0.0
  3
*Model_Space
  1

  0
ENDBLK
  5
4BB
330
4B9
100
AcDbEntity
  8
0
100
AcDbBlockEnd
  0
BLOCK
  5
4B6
330
4B5
100
AcDbEntity
 67
     1
  8
0
100
AcDbBlockBegin
  2
*Paper_Space
 70
     0
 10
0.0
 20
0.0
 30
0.0
  3
*Paper_Space
  1

  0
ENDBLK
  5
4B7
330
4B5
100
AcDbEntity
 67
     1
  8
0
100
AcDbBlockEnd
  0
BLOCK
  5
2
330
4E9
100
AcDbEntity
  8
0
100
AcDbBlockBegin
  2
*D0
 70
     1
 10
0.0
 20
0.0
 30
0.0
  3
*D0
  1

  0
LINE
  5
3
330
4E9
100
AcDbEntity
  8
0
100
AcDbLine
 10
0.0
 20
15.0
 30
0.0
 11
0.0
 21
29.999998
 31
0.0
  0
LINE
  5
4
330
4E9
100
AcDbEntity
  8
0
100
AcDbLine
 10
16.0
 20
15.0
 30
0.0
 11
16.0
 21
29.999998
 31
0.0
  0
LINE
  5
5
330
4E9
100
AcDbEntity
  8
0
100
AcDbLine
 10
2.5
 20
28.999998
 30
0.0
 11
13.5
 21
28.999998
 31
0.0
  0
LINE
  5
6
330
4E9
100
AcDbEntity
  8
0
100
AcDbLine
 10
2.5
 20
29.416665
 30
0.0
 11
2.5
 21
28.583331
 31
0.0
  0
LINE
  5
7
330
4E9
100
AcDbEntity
  8
0
100
AcDbLine
 10
2.5
 20
28.583331
 30
0.0
 11
0.0
 21
28.999998
 31
0.0
  0
LINE
  5
8
330
4E9
100
AcDbEntity
  8
0
100
AcDbLine
 10
0.0
 20
28.999998
 30
0.0
 11
0.0
 21
28.999998
 31
0.0
  0
LINE
  5
9
330
4E9
100
AcDbEntity
  8
0
100
AcDbLine
 10
0.0
 20
28.999998
 30
0.0
 11
2.5
 21
29.416665
 31
0.0
  0
LINE
  5
A
330
4E9
100
AcDbEntity
  8
0
100
AcDbLine
 10
13.5
 20
29.416665
 30
0.0
 11
13.5
 21
28.583331
 31
0.0
  0
LINE
  5
B
330
4E9
100
AcDbEntity
  8
0
100
AcDbLine
 10
13.5
 20
28.583331
 30
0.0
 11
16.0
 21
28.999998
 31
0.0
  0
LINE
  5
C
330
4E9
100
AcDbEntity
  8
0
100
AcDbLine
 10
16.0
 20
28.999998
 30
0.0
 11
16.0
 21
28.999998
 31
0.0
  0
LINE
  5
D
330
4E9
100
AcDbEntity
  8
0
100
AcDbLine
 10
16.0
 20
28.999998
 30
0.0
 11
13.5
 21
29.416665
 31
0.0
  0
ENDBLK
  5
E
330
4E9
100
AcDbEntity
  8
0
100
AcDbBlockEnd
  0
BLOCK
  5
F
330
4EA
100
AcDbEntity
  8
0
100
AcDbBlockBegin
  2
*D1
 70
     1
 10
0.0
 20
0.0
 30
0.0
  3
*D1
  1

  0
LINE
  5
10
330
4EA
100
AcDbEntity
  8
0
100
AcDbLine
 10
17.0
 20
14.0
 30
0.0
 11
35.885049
 21
14.0
 31
0.0
  0
LINE
  5
11
330
4EA
100
AcDbEntity
  8
0
100
AcDbLine
 10
17.0
 20
-14.0
 30
0.0
 11
35.885049
 21
-14.0
 31
0.0
  0
LINE
  5
12
330
4EA
100
AcDbEntity
  8
0
100
AcDbLine
 10
34.88504900000001
 20
11.5
 30
0.0
 11
34.88504900000001
 21
-11.5
 31
0.0
  0
LINE
  5
13
330
4EA
100
AcDbEntity
  8
0
100
AcDbLine
 10
34.468383
 20
11.5
 30
0.0
 11
35.301716
 21
11.5
 31
0.0
  0
LINE
  5
14
330
4EA
100
AcDbEntity
  8
0
100
AcDbLine
 10
35.301716
 20
11.5
 30
0.0
 11
34.88504900000001
 21
14.0
 31
0.0
  0
LINE
  5
15
330
4EA
100
AcDbEntity
  8
0
100
AcDbLine
 10
34.88504900000001
 20
14.0
 30
0.0
 11
34.88504900000001
 21
14.0
 31
0.0
  0
LINE
  5
16
330
4EA
100
AcDbEntity
  8
0
100
AcDbLine
 10
34.88504900000001
 20
14.0
 30
0.0
 11
34.468383
 21
11.5
 31
0.0
  0
LINE
  5
17
330
4EA
100
AcDbEntity
  8
0
100
AcDbLine
 10
34.468383
 20
-11.5
 30
0.0
 11
35.301716
 21
-11.5
 31
0.0
  0
LINE
  5
18
330
4EA
100
AcDbEntity
  8
0
100
AcDbLine
 10
35.301716
 20
-11.5
 30
0.0
 11
34.88504900000001
 21
-14.0
 31
0.0
  0
LINE
  5
19
330
4EA
100
AcDbEntity
  8
0
100
AcDbLine
 10
34.88504900000001
 20
-14.0
 30
0.0
 11
34.88504900000001
 21
-14.0
 31
0.0
  0
LINE
  5
1A
330
4EA
100
AcDbEntity
  8
0
100
AcDbLine
 10
34.88504900000001
 20
-14.0
 30
0.0
 11
34.468383
 21
-11.5
 31
0.0
  0
ENDBLK
  5
1B
330
4EA
100
AcDbEntity
  8
0
100
AcDbBlockEnd
  0
ENDSEC
  0
SECTION
  2
ENTITIES
  0
LINE
  5
1C
330
4B9
100
AcDbEntity
  8
1
100
AcDbLine
 10
16.0
 20
6.798747999999999
 30
0.0
 11
16.0
 21
12.893822
 31
0.0
  0
LINE
  5
1D
330
4B9
100
AcDbEntity
  8
1
100
AcDbLine
 10
9.164089999999999
 20
13.822316
 30
0.0
 11
9.164089999999999
 21
11.834448
 31
0.0
  0
LINE
  5
1E
330
4B9
100
AcDbEntity
  8
1
100
AcDbLine
 10
5.043319999999999
 20
12.539549
 30
0.0
 11
4.910915
 21
12.631036
 31
0.0
  0
LINE
  5
1F
330
4B9
100
AcDbEntity
  8
1
100
AcDbLine
 10
4.910915
 20
12.631036
 30
0.0
 11
4.780808999999999
 21
12.720058
 31
0.0
  0
LINE
  5
20
330
4B9
100
AcDbEntity
  8
1
100
AcDbLine
 10
4.780808999999999
 20
12.720058
 30
0.0
 11
4.652842999999999
 21
12.806321
 31
0.0
  0
LINE
  5
21
330
4B9
100
AcDbEntity
  8
1
100
AcDbLine
 10
4.652842999999999
 20
12.806321
 30
0.0
 11
4.527605999999999
 21
12.888985
 31
0.0
  0
LINE
  5
22
330
4B9
100
AcDbEntity
  8
1
100
AcDbLine
 10
4.527605999999999
 20
12.888985
 30
0.0
 11
4.405253
 21
12.967755
 31
0.0
  0
LINE
  5
23
330
4B9
100
AcDbEntity
  8
1
100
AcDbLine
 10
4.405253
 20
12.967755
 30
0.0
 11
4.285629
 21
13.042465
 31
0.0
  0
LINE
  5
24
330
4B9
100
AcDbEntity
  8
1
100
AcDbLine
 10
4.285629
 20
13.042465
 30
0.0
 11
4.168860999999999
 21
13.112613
 31
0.0
  0
LINE
  5
25
330
4B9
100
AcDbEntity
  8
1
100
AcDbLine
 10
4.168860999999999
 20
13.112613
 30
0.0
 11
4.054953
 21
13.178022
 31
0.0
  0
LINE
  5
26
330
4B9
100
AcDbEntity
  8
1
100
AcDbLine
 10
4.054953
 20
13.178022
 30
0.0
 11
3.943901
 21
13.23851
 31
0.0
  0
LINE
  5
27
330
4B9
100
AcDbEntity
  8
1
100
AcDbLine
 10
3.943901
 20
13.23851
 30
0.0
 11
3.835820999999999
 21
13.293692
 31
0.0
  0
LINE
  5
28
330
4B9
100
AcDbEntity
  8
1
100
AcDbLine
 10
3.835820999999999
 20
13.293692
 30
0.0
 11
3.730748
 21
13.343433
 31
0.0
  0
LINE
  5
29
330
4B9
100
AcDbEntity
  8
1
100
AcDbLine
 10
3.730748
 20
13.343433
 30
0.0
 11
3.628646999999999
 21
13.387647
 31
0.0
  0
LINE
  5
2A
330
4B9
100
AcDbEntity
  8
1
100
AcDbLine
 10
3.628646999999999
 20
13.387647
 30
0.0
 11
3.529530999999999
 21
13.426137
 31
0.0
  0
LINE
  5
2B
330
4B9
100
AcDbEntity
  8
1
100
AcDbLine
 10
3.529530999999999
 20
13.426137
 30
0.0
 11
3.433344
 21
13.458843
 31
0.0
  0
LINE
  5
2C
330
4B9
100
AcDbEntity
  8
1
100
AcDbLine
 10
3.433344
 20
13.458843
 30
0.0
 11
3.340141999999999
 21
13.485693
 31
0.0
  0
LINE
  5
2D
330
4B9
100
AcDbEntity
  8
1
100
AcDbLine
 10
3.340141999999999
 20
13.485693
 30
0.0
 11
3.250103999999999
 21
13.506561
 31
0.0
  0
LINE
  5
2E
330
4B9
100
AcDbEntity
  8
1
100
AcDbLine
 10
3.250103999999999
 20
13.506561
 30
0.0
 11
3.163289999999999
 21
13.52144
 31
0.0
  0
LINE
  5
2F
330
4B9
100
AcDbEntity
  8
1
100
AcDbLine
 10
3.163289999999999
 20
13.52144
 30
0.0
 11
3.079639999999999
 21
13.53036
 31
0.0
  0
LINE
  5
30
330
4B9
100
AcDbEntity
  8
1
100
AcDbLine
 10
3.079639999999999
 20
13.53036
 30
0.0
 11
2.999155
 21
13.533331
 31
0.0
  0
LINE
  5
31
330
4B9
100
AcDbEntity
  8
1
100
AcDbLine
 10
8.391548
 20
13.488899
 30
0.0
 11
8.391548
 21
11.828941
 31
0.0
  0
LINE
  5
32
330
4B9
100
AcDbEntity
  8
1
100
AcDbLine
 10
0.0
 20
-13.533331
 30
0.0
 11
0.0
 21
13.533331
 31
0.0
  0
LINE
  5
33
330
4B9
100
AcDbEntity
  8
1
100
AcDbLine
 10
14.608258
 20
-5.632878999999999
 30
0.0
 11
14.0945
 21
-5.811401999999999
 31
0.0
  0
LINE
  5
34
330
4B9
100
AcDbEntity
  8
1
100
AcDbLine
 10
14.0945
 20
-5.811401999999999
 30
0.0
 11
13.580068
 21
-5.988780999999999
 31
0.0
  0
LINE
  5
35
330
4B9
100
AcDbEntity
  8
1
100
AcDbLine
 10
13.580068
 20
-5.988780999999999
 30
0.0
 11
13.064961
 21
-6.165017999999999
 31
0.0
  0
LINE
  5
36
330
4B9
100
AcDbEntity
  8
1
100
AcDbLine
 10
13.064961
 20
-6.165017999999999
 30
0.0
 11
12.549034
 21
-6.34016
 31
0.0
  0
LINE
  5
37
330
4B9
100
AcDbEntity
  8
1
100
AcDbLine
 10
12.549034
 20
-6.34016
 30
0.0
 11
12.032433
 21
-6.514160999999999
 31
0.0
  0
LINE
  5
38
330
4B9
100
AcDbEntity
  8
1
100
AcDbLine
 10
12.032433
 20
-6.514160999999999
 30
0.0
 11
11.515594
 21
-6.686866
 31
0.0
  0
LINE
  5
39
330
4B9
100
AcDbEntity
  8
1
100
AcDbLine
 10
11.515594
 20
-6.686866
 30
0.0
 11
10.998664
 21
-6.858227999999999
 31
0.0
  0
LINE
  5
3A
330
4B9
100
AcDbEntity
  8
1
100
AcDbLine
 10
10.998664
 20
-6.858227999999999
 30
0.0
 11
10.481496
 21
-7.028296
 31
0.0
  0
LINE
  5
3B
330
4B9
100
AcDbEntity
  8
1
100
AcDbLine
 10
10.481496
 20
-7.028296
 30
0.0
 11
9.964089999999998
 21
-7.19707
 31
0.0
  0
LINE
  5
3C
330
4B9
100
AcDbEntity
  8
1
100
AcDbLine
 10
14.493228
 20
-5.302646
 30
0.0
 11
13.992493
 21
-5.478282
 31
0.0
  0
LINE
  5
3D
330
4B9
100
AcDbEntity
  8
1
100
AcDbLine
 10
13.992493
 20
-5.478282
 30
0.0
 11
13.491041
 21
-5.653044
 31
0.0
  0
LINE
  5
3E
330
4B9
100
AcDbEntity
  8
1
100
AcDbLine
 10
13.491041
 20
-5.653044
 30
0.0
 11
12.988872
 21
-5.826894999999999
 31
0.0
  0
LINE
  5
3F
330
4B9
100
AcDbEntity
  8
1
100
AcDbLine
 10
12.988872
 20
-5.826894999999999
 30
0.0
 11
12.485863
 21
-5.999805
 31
0.0
  0
LINE
  5
40
330
4B9
100
AcDbEntity
  8
1
100
AcDbLine
 10
12.485863
 20
-5.999805
 30
0.0
 11
11.982136
 21
-6.171737
 31
0.0
  0
LINE
  5
41
330
4B9
100
AcDbEntity
  8
1
100
AcDbLine
 10
11.982136
 20
-6.171737
 30
0.0
 11
11.478059
 21
-6.342636999999999
 31
0.0
  0
LINE
  5
42
330
4B9
100
AcDbEntity
  8
1
100
AcDbLine
 10
11.478059
 20
-6.342636999999999
 30
0.0
 11
10.973754
 21
-6.512464999999999
 31
0.0
  0
LINE
  5
43
330
4B9
100
AcDbEntity
  8
1
100
AcDbLine
 10
10.973754
 20
-6.512464999999999
 30
0.0
 11
10.469097
 21
-6.681194999999999
 31
0.0
  0
LINE
  5
44
330
4B9
100
AcDbEntity
  8
1
100
AcDbLine
 10
10.469097
 20
-6.681194999999999
 30
0.0
 11
9.964089999999998
 21
-6.848789
 31
0.0
  0
LINE
  5
45
330
4B9
100
AcDbEntity
  8
1
100
AcDbLine
 10
14.1
 20
12.393089
 30
0.0
 11
13.68022
 21
12.344931
 31
0.0
  0
LINE
  5
46
330
4B9
100
AcDbEntity
  8
1
100
AcDbLine
 10
13.68022
 20
12.344931
 30
0.0
 11
13.258299
 21
12.295743
 31
0.0
  0
LINE
  5
47
330
4B9
100
AcDbEntity
  8
1
100
AcDbLine
 10
13.258299
 20
12.295743
 30
0.0
 11
12.834235
 21
12.245523
 31
0.0
  0
LINE
  5
48
330
4B9
100
AcDbEntity
  8
1
100
AcDbLine
 10
12.834235
 20
12.245523
 30
0.0
 11
12.407985
 21
12.19427
 31
0.0
  0
LINE
  5
49
330
4B9
100
AcDbEntity
  8
1
100
AcDbLine
 10
12.407985
 20
12.19427
 30
0.0
 11
11.979592
 21
12.141986
 31
0.0
  0
LINE
  5
4A
330
4B9
100
AcDbEntity
  8
1
100
AcDbLine
 10
11.979592
 20
12.141986
 30
0.0
 11
11.549191
 21
12.088675
 31
0.0
  0
LINE
  5
4B
330
4B9
100
AcDbEntity
  8
1
100
AcDbLine
 10
11.549191
 20
12.088675
 30
0.0
 11
11.116824
 21
12.03434
 31
0.0
  0
LINE
  5
4C
330
4B9
100
AcDbEntity
  8
1
100
AcDbLine
 10
11.116824
 20
12.03434
 30
0.0
 11
10.682447
 21
11.978979
 31
0.0
  0
LINE
  5
4D
330
4B9
100
AcDbEntity
  8
1
100
AcDbLine
 10
10.682447
 20
11.978979
 30
0.0
 11
10.246061
 21
11.922592
 31
0.0
  0
LINE
  5
4E
330
4B9
100
AcDbEntity
  8
1
100
AcDbLine
 10
8.611062999999999
 20
-4.748029999999999
 30
0.0
 11
9.234792999999999
 21
-4.521999
 31
0.0
  0
LINE
  5
4F
330
4B9
100
AcDbEntity
  8
1
100
AcDbLine
 10
9.234792999999999
 20
-4.521999
 30
0.0
 11
9.85468
 21
-4.295244
 31
0.0
  0
LINE
  5
50
330
4B9
100
AcDbEntity
  8
1
100
AcDbLine
 10
9.85468
 20
-4.295244
 30
0.0
 11
10.470721
 21
-4.067760999999999
 31
0.0
  0
LINE
  5
51
330
4B9
100
AcDbEntity
  8
1
100
AcDbLine
 10
10.470721
 20
-4.067760999999999
 30
0.0
 11
11.08294
 21
-3.839530999999999
 31
0.0
  0
LINE
  5
52
330
4B9
100
AcDbEntity
  8
1
100
AcDbLine
 10
11.08294
 20
-3.839530999999999
 30
0.0
 11
11.691314
 21
-3.610574999999999
 31
0.0
  0
LINE
  5
53
330
4B9
100
AcDbEntity
  8
1
100
AcDbLine
 10
11.691314
 20
-3.610574999999999
 30
0.0
 11
12.295781
 21
-3.380955999999999
 31
0.0
  0
LINE
  5
54
330
4B9
100
AcDbEntity
  8
1
100
AcDbLine
 10
12.295781
 20
-3.380955999999999
 30
0.0
 11
12.896319
 21
-3.150697
 31
0.0
  0
LINE
  5
55
330
4B9
100
AcDbEntity
  8
1
100
AcDbLine
 10
12.896319
 20
-3.150697
 30
0.0
 11
13.492951
 21
-2.919774
 31
0.0
  0
LINE
  5
56
330
4B9
100
AcDbEntity
  8
1
100
AcDbLine
 10
13.492951
 20
-2.919774
 30
0.0
 11
14.085676
 21
-2.688188999999999
 31
0.0
  0
LINE
  5
57
330
4B9
100
AcDbEntity
  8
1
100
AcDbLine
 10
14.1
 20
-2.584071999999999
 30
0.0
 11
13.390715
 21
-2.861658999999999
 31
0.0
  0
LINE
  5
58
330
4B9
100
AcDbEntity
  8
1
100
AcDbLine
 10
13.390715
 20
-2.861658999999999
 30
0.0
 11
12.675378
 21
-3.138436999999999
 31
0.0
  0
LINE
  5
59
330
4B9
100
AcDbEntity
  8
1
100
AcDbLine
 10
12.675378
 20
-3.138436999999999
 30
0.0
 11
11.953989
 21
-3.414405999999999
 31
0.0
  0
LINE
  5
5A
330
4B9
100
AcDbEntity
  8
1
100
AcDbLine
 10
11.953989
 20
-3.414405999999999
 30
0.0
 11
11.226105
 21
-3.689753
 31
0.0
  0
LINE
  5
5B
330
4B9
100
AcDbEntity
  8
1
100
AcDbLine
 10
11.226105
 20
-3.689753
 30
0.0
 11
10.492168
 21
-3.964292
 31
0.0
  0
LINE
  5
5C
330
4B9
100
AcDbEntity
  8
1
100
AcDbLine
 10
10.492168
 20
-3.964292
 30
0.0
 11
9.753516000000001
 21
-4.237459999999999
 31
0.0
  0
LINE
  5
5D
330
4B9
100
AcDbEntity
  8
1
100
AcDbLine
 10
9.753516000000001
 20
-4.237459999999999
 30
0.0
 11
9.01012
 21
-4.509254
 31
0.0
  0
LINE
  5
5E
330
4B9
100
AcDbEntity
  8
1
100
AcDbLine
 10
8.611062999999999
 20
8.772605
 30
0.0
 11
9.234792999999999
 21
8.956099999999999
 31
0.0
  0
LINE
  5
5F
330
4B9
100
AcDbEntity
  8
1
100
AcDbLine
 10
9.234792999999999
 20
8.956099999999999
 30
0.0
 11
9.85468
 21
9.136345
 31
0.0
  0
LINE
  5
60
330
4B9
100
AcDbEntity
  8
1
100
AcDbLine
 10
9.85468
 20
9.136345
 30
0.0
 11
10.470721
 21
9.313338999999999
 31
0.0
  0
LINE
  5
61
330
4B9
100
AcDbEntity
  8
1
100
AcDbLine
 10
10.470721
 20
9.313338999999999
 30
0.0
 11
11.08294
 21
9.487075
 31
0.0
  0
LINE
  5
62
330
4B9
100
AcDbEntity
  8
1
100
AcDbLine
 10
11.08294
 20
9.487075
 30
0.0
 11
11.691314
 21
9.657562999999999
 31
0.0
  0
LINE
  5
63
330
4B9
100
AcDbEntity
  8
1
100
AcDbLine
 10
11.691314
 20
9.657562999999999
 30
0.0
 11
12.295781
 21
9.824821
 31
0.0
  0
LINE
  5
64
330
4B9
100
AcDbEntity
  8
1
100
AcDbLine
 10
12.295781
 20
9.824821
 30
0.0
 11
12.896319
 21
9.988858999999999
 31
0.0
  0
LINE
  5
65
330
4B9
100
AcDbEntity
  8
1
100
AcDbLine
 10
12.896319
 20
9.988858999999999
 30
0.0
 11
13.492951
 21
10.149668
 31
0.0
  0
LINE
  5
66
330
4B9
100
AcDbEntity
  8
1
100
AcDbLine
 10
13.492951
 20
10.149668
 30
0.0
 11
14.085676
 21
10.30725
 31
0.0
  0
LINE
  5
67
330
4B9
100
AcDbEntity
  8
1
100
AcDbLine
 10
14.493228
 20
8.569655
 30
0.0
 11
13.992493
 21
8.418089
 31
0.0
  0
LINE
  5
68
330
4B9
100
AcDbEntity
  8
1
100
AcDbLine
 10
13.992493
 20
8.418089
 30
0.0
 11
13.491041
 21
8.264842999999999
 31
0.0
  0
LINE
  5
69
330
4B9
100
AcDbEntity
  8
1
100
AcDbLine
 10
13.491041
 20
8.264842999999999
 30
0.0
 11
12.988872
 21
8.109941
 31
0.0
  0
LINE
  5
6A
330
4B9
100
AcDbEntity
  8
1
100
AcDbLine
 10
12.988872
 20
8.109941
 30
0.0
 11
12.485863
 21
7.953402
 31
0.0
  0
LINE
  5
6B
330
4B9
100
AcDbEntity
  8
1
100
AcDbLine
 10
12.485863
 20
7.953402
 30
0.0
 11
11.982136
 21
7.79526
 31
0.0
  0
LINE
  5
6C
330
4B9
100
AcDbEntity
  8
1
100
AcDbLine
 10
11.982136
 20
7.79526
 30
0.0
 11
11.478059
 21
7.635552
 31
0.0
  0
LINE
  5
6D
330
4B9
100
AcDbEntity
  8
1
100
AcDbLine
 10
11.478059
 20
7.635552
 30
0.0
 11
10.973754
 21
7.474313
 31
0.0
  0
LINE
  5
6E
330
4B9
100
AcDbEntity
  8
1
100
AcDbLine
 10
10.973754
 20
7.474313
 30
0.0
 11
10.469097
 21
7.311563
 31
0.0
  0
LINE
  5
6F
330
4B9
100
AcDbEntity
  8
1
100
AcDbLine
 10
10.469097
 20
7.311563
 30
0.0
 11
9.964089999999998
 21
7.14733
 31
0.0
  0
LINE
  5
70
330
4B9
100
AcDbEntity
  8
1
100
AcDbLine
 10
14.608258
 20
8.283261999999998
 30
0.0
 11
14.0945
 21
8.124465999999999
 31
0.0
  0
LINE
  5
71
330
4B9
100
AcDbEntity
  8
1
100
AcDbLine
 10
14.0945
 20
8.124465999999999
 30
0.0
 11
13.580068
 21
7.964083
 31
0.0
  0
LINE
  5
72
330
4B9
100
AcDbEntity
  8
1
100
AcDbLine
 10
13.580068
 20
7.964083
 30
0.0
 11
13.064961
 21
7.802113999999999
 31
0.0
  0
LINE
  5
73
330
4B9
100
AcDbEntity
  8
1
100
AcDbLine
 10
13.064961
 20
7.802113999999999
 30
0.0
 11
12.549034
 21
7.638511999999999
 31
0.0
  0
LINE
  5
74
330
4B9
100
AcDbEntity
  8
1
100
AcDbLine
 10
12.549034
 20
7.638511999999999
 30
0.0
 11
12.032433
 21
7.473324999999999
 31
0.0
  0
LINE
  5
75
330
4B9
100
AcDbEntity
  8
1
100
AcDbLine
 10
12.032433
 20
7.473324999999999
 30
0.0
 11
11.515594
 21
7.306688999999999
 31
0.0
  0
LINE
  5
76
330
4B9
100
AcDbEntity
  8
1
100
AcDbLine
 10
11.515594
 20
7.306688999999999
 30
0.0
 11
10.998664
 21
7.138646999999999
 31
0.0
  0
LINE
  5
77
330
4B9
100
AcDbEntity
  8
1
100
AcDbLine
 10
10.998664
 20
7.138646999999999
 30
0.0
 11
10.481496
 21
6.969157
 31
0.0
  0
LINE
  5
78
330
4B9
100
AcDbEntity
  8
1
100
AcDbLine
 10
10.481496
 20
6.969157
 30
0.0
 11
9.964089999999998
 21
6.798216
 31
0.0
  0
LINE
  5
79
330
4B9
100
AcDbEntity
  8
1
100
AcDbLine
 10
9.164089999999999
 20
4.55461
 30
0.0
 11
16.0
 21
6.798747999999999
 31
0.0
  0
LINE
  5
7A
330
4B9
100
AcDbEntity
  8
1
100
AcDbLine
 10
11.549191
 20
0.775442
 30
0.0
 11
10.682447
 21
0.535942
 31
0.0
  0
LINE
  5
7B
330
4B9
100
AcDbEntity
  8
1
100
AcDbLine
 10
10.682447
 20
0.535942
 30
0.0
 11
10.246061
 21
0.4158350000000001
 31
0.0
  0
LINE
  5
7C
330
4B9
100
AcDbEntity
  8
1
100
AcDbLine
 10
15.5
 20
2.916349999999999
 30
0.0
 11
9.745649999999999
 21
1.027272999999999
 31
0.0
  0
LINE
  5
7D
330
4B9
100
AcDbEntity
  8
1
100
AcDbLine
 10
8.611062999999999
 20
-13.520636
 30
0.0
 11
9.234792999999999
 21
-13.4781
 31
0.0
  0
LINE
  5
7E
330
4B9
100
AcDbEntity
  8
1
100
AcDbLine
 10
9.234792999999999
 20
-13.4781
 30
0.0
 11
9.85468
 21
-13.431588
 31
0.0
  0
LINE
  5
7F
330
4B9
100
AcDbEntity
  8
1
100
AcDbLine
 10
9.85468
 20
-13.431588
 30
0.0
 11
10.470721
 21
-13.3811
 31
0.0
  0
LINE
  5
80
330
4B9
100
AcDbEntity
  8
1
100
AcDbLine
 10
10.470721
 20
-13.3811
 30
0.0
 11
11.08294
 21
-13.326606
 31
0.0
  0
LINE
  5
81
330
4B9
100
AcDbEntity
  8
1
100
AcDbLine
 10
11.08294
 20
-13.326606
 30
0.0
 11
11.691314
 21
-13.268138
 31
0.0
  0
LINE
  5
82
330
4B9
100
AcDbEntity
  8
1
100
AcDbLine
 10
11.691314
 20
-13.268138
 30
0.0
 11
12.295781
 21
-13.205777
 31
0.0
  0
LINE
  5
83
330
4B9
100
AcDbEntity
  8
1
100
AcDbLine
 10
12.295781
 20
-13.205777
 30
0.0
 11
12.896319
 21
-13.139555
 31
0.0
  0
LINE
  5
84
330
4B9
100
AcDbEntity
  8
1
100
AcDbLine
 10
12.896319
 20
-13.139555
 30
0.0
 11
13.492951
 21
-13.069441
 31
0.0
  0
LINE
  5
85
330
4B9
100
AcDbEntity
  8
1
100
AcDbLine
 10
13.492951
 20
-13.069441
 30
0.0
 11
14.085676
 21
-12.995437
 31
0.0
  0
LINE
  5
86
330
4B9
100
AcDbEntity
  8
1
100
AcDbLine
 10
14.1
 20
-10.905239
 30
0.0
 11
13.68022
 21
-10.975118
 31
0.0
  0
LINE
  5
87
330
4B9
100
AcDbEntity
  8
1
100
AcDbLine
 10
13.68022
 20
-10.975118
 30
0.0
 11
13.258299
 21
-11.044244
 31
0.0
  0
LINE
  5
88
330
4B9
100
AcDbEntity
  8
1
100
AcDbLine
 10
13.258299
 20
-11.044244
 30
0.0
 11
12.834235
 21
-11.112619
 31
0.0
  0
LINE
  5
89
330
4B9
100
AcDbEntity
  8
1
100
AcDbLine
 10
12.834235
 20
-11.112619
 30
0.0
 11
12.407985
 21
-11.180253
 31
0.0
  0
LINE
  5
8A
330
4B9
100
AcDbEntity
  8
1
100
AcDbLine
 10
12.407985
 20
-11.180253
 30
0.0
 11
11.979592
 21
-11.247136
 31
0.0
  0
LINE
  5
8B
330
4B9
100
AcDbEntity
  8
1
100
AcDbLine
 10
11.979592
 20
-11.247136
 30
0.0
 11
11.549191
 21
-11.313232
 31
0.0
  0
LINE
  5
8C
330
4B9
100
AcDbEntity
  8
1
100
AcDbLine
 10
11.549191
 20
-11.313232
 30
0.0
 11
11.116824
 21
-11.378528
 31
0.0
  0
LINE
  5
8D
330
4B9
100
AcDbEntity
  8
1
100
AcDbLine
 10
11.116824
 20
-11.378528
 30
0.0
 11
10.682447
 21
-11.443036
 31
0.0
  0
LINE
  5
8E
330
4B9
100
AcDbEntity
  8
1
100
AcDbLine
 10
10.682447
 20
-11.443036
 30
0.0
 11
10.246061
 21
-11.506757
 31
0.0
  0
LINE
  5
8F
330
4B9
100
AcDbEntity
  8
1
100
AcDbLine
 10
15.5
 20
-7.116982000000001
 30
0.0
 11
9.745649999999999
 21
-9.006059
 31
0.0
  0
LINE
  5
90
330
4B9
100
AcDbEntity
  8
1
100
AcDbLine
 10
14.1
 20
-12.79661
 30
0.0
 11
13.390781
 21
-12.886078
 31
0.0
  0
LINE
  5
91
330
4B9
100
AcDbEntity
  8
1
100
AcDbLine
 10
13.390781
 20
-12.886078
 30
0.0
 11
12.6755
 21
-12.969957
 31
0.0
  0
LINE
  5
92
330
4B9
100
AcDbEntity
  8
1
100
AcDbLine
 10
12.6755
 20
-12.969957
 30
0.0
 11
11.954157
 21
-13.048247
 31
0.0
  0
LINE
  5
93
330
4B9
100
AcDbEntity
  8
1
100
AcDbLine
 10
11.954157
 20
-13.048247
 30
0.0
 11
11.226304
 21
-13.12103
 31
0.0
  0
LINE
  5
94
330
4B9
100
AcDbEntity
  8
1
100
AcDbLine
 10
11.226304
 20
-13.12103
 30
0.0
 11
10.492389
 21
-13.188224
 31
0.0
  0
LINE
  5
95
330
4B9
100
AcDbEntity
  8
1
100
AcDbLine
 10
10.492389
 20
-13.188224
 30
0.0
 11
9.753755999999999
 21
-13.249579
 31
0.0
  0
LINE
  5
96
330
4B9
100
AcDbEntity
  8
1
100
AcDbLine
 10
9.753755999999999
 20
-13.249579
 30
0.0
 11
9.010379999999999
 21
-13.305075
 31
0.0
  0
LINE
  5
97
330
4B9
100
AcDbEntity
  8
1
100
AcDbLine
 10
0.0
 20
-13.533331
 30
0.0
 11
2.950262999999999
 21
-13.533331
 31
0.0
  0
LINE
  5
98
330
4B9
100
AcDbEntity
  8
1
100
AcDbLine
 10
7.126276999999999
 20
-8.762883
 30
0.0
 11
7.150382
 21
-8.714764
 31
0.0
  0
LINE
  5
99
330
4B9
100
AcDbEntity
  8
1
100
AcDbLine
 10
7.150382
 20
-8.714764
 30
0.0
 11
7.176543999999999
 21
-8.666356
 31
0.0
  0
LINE
  5
9A
330
4B9
100
AcDbEntity
  8
1
100
AcDbLine
 10
7.176543999999999
 20
-8.666356
 30
0.0
 11
7.204774999999999
 21
-8.617675
 31
0.0
  0
LINE
  5
9B
330
4B9
100
AcDbEntity
  8
1
100
AcDbLine
 10
7.204774999999999
 20
-8.617675
 30
0.0
 11
7.235097
 21
-8.568611999999999
 31
0.0
  0
LINE
  5
9C
330
4B9
100
AcDbEntity
  8
1
100
AcDbLine
 10
7.235097
 20
-8.568611999999999
 30
0.0
 11
7.267514999999999
 21
-8.519316999999999
 31
0.0
  0
LINE
  5
9D
330
4B9
100
AcDbEntity
  8
1
100
AcDbLine
 10
7.267514999999999
 20
-8.519316999999999
 30
0.0
 11
7.302016
 21
-8.470196000000001
 31
0.0
  0
LINE
  5
9E
330
4B9
100
AcDbEntity
  8
1
100
AcDbLine
 10
7.302016
 20
-8.470196000000001
 30
0.0
 11
7.338642999999999
 21
-8.421271
 31
0.0
  0
LINE
  5
9F
330
4B9
100
AcDbEntity
  8
1
100
AcDbLine
 10
7.338642999999999
 20
-8.421271
 30
0.0
 11
7.377378
 21
-8.372564999999999
 31
0.0
  0
LINE
  5
A0
330
4B9
100
AcDbEntity
  8
1
100
AcDbLine
 10
7.377378
 20
-8.372564999999999
 30
0.0
 11
7.418110999999999
 21
-8.324483
 31
0.0
  0
LINE
  5
A1
330
4B9
100
AcDbEntity
  8
1
100
AcDbLine
 10
7.418110999999999
 20
-8.324483
 30
0.0
 11
7.460846
 21
-8.277086
 31
0.0
  0
LINE
  5
A2
330
4B9
100
AcDbEntity
  8
1
100
AcDbLine
 10
7.460846
 20
-8.277086
 30
0.0
 11
7.505599
 21
-8.230358
 31
0.0
  0
LINE
  5
A3
330
4B9
100
AcDbEntity
  8
1
100
AcDbLine
 10
7.505599
 20
-8.230358
 30
0.0
 11
7.552275999999999
 21
-8.184596
 31
0.0
  0
LINE
  5
A4
330
4B9
100
AcDbEntity
  8
1
100
AcDbLine
 10
7.552275999999999
 20
-8.184596
 30
0.0
 11
7.600877999999999
 21
-8.139839999999999
 31
0.0
  0
LINE
  5
A5
330
4B9
100
AcDbEntity
  8
1
100
AcDbLine
 10
7.600877999999999
 20
-8.139839999999999
 30
0.0
 11
7.651417999999999
 21
-8.096094
 31
0.0
  0
LINE
  5
A6
330
4B9
100
AcDbEntity
  8
1
100
AcDbLine
 10
7.651417999999999
 20
-8.096094
 30
0.0
 11
7.703828999999998
 21
-8.053599999999999
 31
0.0
  0
LINE
  5
A7
330
4B9
100
AcDbEntity
  8
1
100
AcDbLine
 10
7.703828999999998
 20
-8.053599999999999
 30
0.0
 11
7.758278999999999
 21
-8.01229
 31
0.0
  0
LINE
  5
A8
330
4B9
100
AcDbEntity
  8
1
100
AcDbLine
 10
7.758278999999999
 20
-8.01229
 30
0.0
 11
7.814608999999999
 21
-7.972278999999999
 31
0.0
  0
LINE
  5
A9
330
4B9
100
AcDbEntity
  8
1
100
AcDbLine
 10
7.814608999999999
 20
-7.972278999999999
 30
0.0
 11
7.872250999999999
 21
-7.934085
 31
0.0
  0
LINE
  5
AA
330
4B9
100
AcDbEntity
  8
1
100
AcDbLine
 10
7.872250999999999
 20
-7.934085
 30
0.0
 11
7.931372
 21
-7.897702
 31
0.0
  0
LINE
  5
AB
330
4B9
100
AcDbEntity
  8
1
100
AcDbLine
 10
7.931372
 20
-7.897702
 30
0.0
 11
7.991799999999999
 21
-7.863163
 31
0.0
  0
LINE
  5
AC
330
4B9
100
AcDbEntity
  8
1
100
AcDbLine
 10
7.991799999999999
 20
-7.863163
 30
0.0
 11
8.052449000000001
 21
-7.831011999999999
 31
0.0
  0
LINE
  5
AD
330
4B9
100
AcDbEntity
  8
1
100
AcDbLine
 10
8.052449000000001
 20
-7.831011999999999
 30
0.0
 11
8.113260999999999
 21
-7.801352999999999
 31
0.0
  0
LINE
  5
AE
330
4B9
100
AcDbEntity
  8
1
100
AcDbLine
 10
8.113260999999999
 20
-7.801352999999999
 30
0.0
 11
8.174272
 21
-7.774068999999999
 31
0.0
  0
LINE
  5
AF
330
4B9
100
AcDbEntity
  8
1
100
AcDbLine
 10
8.174272
 20
-7.774068999999999
 30
0.0
 11
8.234519
 21
-7.749328
 31
0.0
  0
LINE
  5
B0
330
4B9
100
AcDbEntity
  8
1
100
AcDbLine
 10
8.234519
 20
-7.749328
 30
0.0
 11
8.272396
 21
-7.734936999999999
 31
0.0
  0
LINE
  5
B1
330
4B9
100
AcDbEntity
  8
1
100
AcDbLine
 10
8.272396
 20
-7.734936999999999
 30
0.0
 11
8.293917999999999
 21
-7.727189999999999
 31
0.0
  0
LINE
  5
B2
330
4B9
100
AcDbEntity
  8
1
100
AcDbLine
 10
8.293917999999999
 20
-7.727189999999999
 30
0.0
 11
8.352524
 21
-7.707550999999999
 31
0.0
  0
LINE
  5
B3
330
4B9
100
AcDbEntity
  8
1
100
AcDbLine
 10
8.352524
 20
-7.707550999999999
 30
0.0
 11
8.409574
 21
-7.690305999999999
 31
0.0
  0
LINE
  5
B4
330
4B9
100
AcDbEntity
  8
1
100
AcDbLine
 10
8.409574
 20
-7.690305999999999
 30
0.0
 11
8.464930999999999
 21
-7.675485000000001
 31
0.0
  0
LINE
  5
B5
330
4B9
100
AcDbEntity
  8
1
100
AcDbLine
 10
8.464930999999999
 20
-7.675485000000001
 30
0.0
 11
8.518703999999999
 21
-7.662994999999999
 31
0.0
  0
LINE
  5
B6
330
4B9
100
AcDbEntity
  8
1
100
AcDbLine
 10
8.518703999999999
 20
-7.662994999999999
 30
0.0
 11
8.570491999999999
 21
-7.652535
 31
0.0
  0
LINE
  5
B7
330
4B9
100
AcDbEntity
  8
1
100
AcDbLine
 10
8.570491999999999
 20
-7.652535
 30
0.0
 11
8.620096
 21
-7.644097
 31
0.0
  0
LINE
  5
B8
330
4B9
100
AcDbEntity
  8
1
100
AcDbLine
 10
8.620096
 20
-7.644097
 30
0.0
 11
8.667695
 21
-7.637624
 31
0.0
  0
LINE
  5
B9
330
4B9
100
AcDbEntity
  8
1
100
AcDbLine
 10
8.667695
 20
-7.637624
 30
0.0
 11
8.713454999999999
 21
-7.632751999999999
 31
0.0
  0
LINE
  5
BA
330
4B9
100
AcDbEntity
  8
1
100
AcDbLine
 10
8.713454999999999
 20
-7.632751999999999
 30
0.0
 11
8.757329999999999
 21
-7.629419999999999
 31
0.0
  0
LINE
  5
BB
330
4B9
100
AcDbEntity
  8
1
100
AcDbLine
 10
8.757329999999999
 20
-7.629419999999999
 30
0.0
 11
8.799353999999999
 21
-7.627638
 31
0.0
  0
LINE
  5
BC
330
4B9
100
AcDbEntity
  8
1
100
AcDbLine
 10
8.799353999999999
 20
-7.627638
 30
0.0
 11
8.839819999999999
 21
-7.627152
 31
0.0
  0
LINE
  5
BD
330
4B9
100
AcDbEntity
  8
1
100
AcDbLine
 10
8.839819999999999
 20
-7.627152
 30
0.0
 11
8.878762
 21
-7.627911
 31
0.0
  0
LINE
  5
BE
330
4B9
100
AcDbEntity
  8
1
100
AcDbLine
 10
8.878762
 20
-7.627911
 30
0.0
 11
8.916136999999999
 21
-7.629927999999999
 31
0.0
  0
LINE
  5
BF
330
4B9
100
AcDbEntity
  8
1
100
AcDbLine
 10
8.916136999999999
 20
-7.629927999999999
 30
0.0
 11
8.952121999999999
 21
-7.633053
 31
0.0
  0
LINE
  5
C0
330
4B9
100
AcDbEntity
  8
1
100
AcDbLine
 10
8.952121999999999
 20
-7.633053
 30
0.0
 11
8.986800999999999
 21
-7.637277
 31
0.0
  0
LINE
  5
C1
330
4B9
100
AcDbEntity
  8
1
100
AcDbLine
 10
8.986800999999999
 20
-7.637277
 30
0.0
 11
9.020083999999998
 21
-7.64258
 31
0.0
  0
LINE
  5
C2
330
4B9
100
AcDbEntity
  8
1
100
AcDbLine
 10
9.020083999999998
 20
-7.64258
 30
0.0
 11
9.05189
 21
-7.648807999999999
 31
0.0
  0
LINE
  5
C3
330
4B9
100
AcDbEntity
  8
1
100
AcDbLine
 10
9.05189
 20
-7.648807999999999
 30
0.0
 11
9.082166
 21
-7.655941999999999
 31
0.0
  0
LINE
  5
C4
330
4B9
100
AcDbEntity
  8
1
100
AcDbLine
 10
9.082166
 20
-7.655941999999999
 30
0.0
 11
9.110961999999998
 21
-7.663974999999999
 31
0.0
  0
LINE
  5
C5
330
4B9
100
AcDbEntity
  8
1
100
AcDbLine
 10
9.110961999999998
 20
-7.663974999999999
 30
0.0
 11
9.138341999999999
 21
-7.672763999999999
 31
0.0
  0
LINE
  5
C6
330
4B9
100
AcDbEntity
  8
1
100
AcDbLine
 10
9.138341999999999
 20
-7.672763999999999
 30
0.0
 11
9.164286
 21
-7.682286999999999
 31
0.0
  0
LINE
  5
C7
330
4B9
100
AcDbEntity
  8
1
100
AcDbLine
 10
9.164286
 20
-7.682286999999999
 30
0.0
 11
9.188812999999999
 21
-7.692546
 31
0.0
  0
LINE
  5
C8
330
4B9
100
AcDbEntity
  8
1
100
AcDbLine
 10
9.188812999999999
 20
-7.692546
 30
0.0
 11
9.212057000000001
 21
-7.703441999999999
 31
0.0
  0
LINE
  5
C9
330
4B9
100
AcDbEntity
  8
1
100
AcDbLine
 10
9.212057000000001
 20
-7.703441999999999
 30
0.0
 11
9.234059
 21
-7.714992999999998
 31
0.0
  0
LINE
  5
CA
330
4B9
100
AcDbEntity
  8
1
100
AcDbLine
 10
9.234059
 20
-7.714992999999998
 30
0.0
 11
9.254777999999999
 21
-7.727166999999999
 31
0.0
  0
LINE
  5
CB
330
4B9
100
AcDbEntity
  8
1
100
AcDbLine
 10
9.254777999999999
 20
-7.727166999999999
 30
0.0
 11
9.274221999999999
 21
-7.739788
 31
0.0
  0
LINE
  5
CC
330
4B9
100
AcDbEntity
  8
1
100
AcDbLine
 10
9.274221999999999
 20
-7.739788
 30
0.0
 11
9.29235
 21
-7.752836
 31
0.0
  0
LINE
  5
CD
330
4B9
100
AcDbEntity
  8
1
100
AcDbLine
 10
9.29235
 20
-7.752836
 30
0.0
 11
9.309203
 21
-7.766319999999999
 31
0.0
  0
LINE
  5
CE
330
4B9
100
AcDbEntity
  8
1
100
AcDbLine
 10
9.309203
 20
-7.766319999999999
 30
0.0
 11
9.324907000000001
 21
-7.78011
 31
0.0
  0
LINE
  5
CF
330
4B9
100
AcDbEntity
  8
1
100
AcDbLine
 10
9.324907000000001
 20
-7.78011
 30
0.0
 11
9.339501999999999
 21
-7.794161999999999
 31
0.0
  0
LINE
  5
D0
330
4B9
100
AcDbEntity
  8
1
100
AcDbLine
 10
9.339501999999999
 20
-7.794161999999999
 30
0.0
 11
9.352947999999999
 21
-7.808511999999999
 31
0.0
  0
LINE
  5
D1
330
4B9
100
AcDbEntity
  8
1
100
AcDbLine
 10
9.352947999999999
 20
-7.808511999999999
 30
0.0
 11
9.365244
 21
-7.823158999999999
 31
0.0
  0
LINE
  5
D2
330
4B9
100
AcDbEntity
  8
1
100
AcDbLine
 10
5.725698
 20
-11.341691
 30
0.0
 11
5.580208999999999
 21
-11.217168
 31
0.0
  0
LINE
  5
D3
330
4B9
100
AcDbEntity
  8
1
100
AcDbLine
 10
5.580208999999999
 20
-11.217168
 30
0.0
 11
5.436805
 21
-11.086019
 31
0.0
  0
LINE
  5
D4
330
4B9
100
AcDbEntity
  8
1
100
AcDbLine
 10
5.436805
 20
-11.086019
 30
0.0
 11
5.295485
 21
-10.948022
 31
0.0
  0
LINE
  5
D5
330
4B9
100
AcDbEntity
  8
1
100
AcDbLine
 10
5.295485
 20
-10.948022
 30
0.0
 11
5.1561
 21
-10.802729
 31
0.0
  0
LINE
  5
D6
330
4B9
100
AcDbEntity
  8
1
100
AcDbLine
 10
5.1561
 20
-10.802729
 30
0.0
 11
5.018798999999999
 21
-10.650137
 31
0.0
  0
LINE
  5
D7
330
4B9
100
AcDbEntity
  8
1
100
AcDbLine
 10
5.018798999999999
 20
-10.650137
 30
0.0
 11
4.884028999999999
 21
-10.490759
 31
0.0
  0
LINE
  5
D8
330
4B9
100
AcDbEntity
  8
1
100
AcDbLine
 10
4.884028999999999
 20
-10.490759
 30
0.0
 11
4.751853999999999
 21
-10.324432
 31
0.0
  0
LINE
  5
D9
330
4B9
100
AcDbEntity
  8
1
100
AcDbLine
 10
4.751853999999999
 20
-10.324432
 30
0.0
 11
4.622209999999999
 21
-10.150994
 31
0.0
  0
LINE
  5
DA
330
4B9
100
AcDbEntity
  8
1
100
AcDbLine
 10
4.622209999999999
 20
-10.150994
 30
0.0
 11
4.495341999999999
 21
-9.971053999999998
 31
0.0
  0
LINE
  5
DB
330
4B9
100
AcDbEntity
  8
1
100
AcDbLine
 10
4.495341999999999
 20
-9.971053999999998
 30
0.0
 11
4.371300999999999
 21
-9.784550999999998
 31
0.0
  0
LINE
  5
DC
330
4B9
100
AcDbEntity
  8
1
100
AcDbLine
 10
4.371300999999999
 20
-9.784550999999998
 30
0.0
 11
4.250036999999999
 21
-9.591352999999999
 31
0.0
  0
LINE
  5
DD
330
4B9
100
AcDbEntity
  8
1
100
AcDbLine
 10
4.250036999999999
 20
-9.591352999999999
 30
0.0
 11
4.131642
 21
-9.392072
 31
0.0
  0
LINE
  5
DE
330
4B9
100
AcDbEntity
  8
1
100
AcDbLine
 10
4.131642
 20
-9.392072
 30
0.0
 11
4.016083999999999
 21
-9.186595999999999
 31
0.0
  0
LINE
  5
DF
330
4B9
100
AcDbEntity
  8
1
100
AcDbLine
 10
4.016083999999999
 20
-9.186595999999999
 30
0.0
 11
3.903394999999999
 21
-8.974959
 31
0.0
  0
LINE
  5
E0
330
4B9
100
AcDbEntity
  8
1
100
AcDbLine
 10
3.903394999999999
 20
-8.974959
 30
0.0
 11
3.793769999999999
 21
-8.7581
 31
0.0
  0
LINE
  5
E1
330
4B9
100
AcDbEntity
  8
1
100
AcDbLine
 10
3.793769999999999
 20
-8.7581
 30
0.0
 11
3.687230999999999
 21
-8.536108999999999
 31
0.0
  0
LINE
  5
E2
330
4B9
100
AcDbEntity
  8
1
100
AcDbLine
 10
3.687230999999999
 20
-8.536108999999999
 30
0.0
 11
3.583755999999999
 21
-8.308963999999999
 31
0.0
  0
LINE
  5
E3
330
4B9
100
AcDbEntity
  8
1
100
AcDbLine
 10
3.583755999999999
 20
-8.308963999999999
 30
0.0
 11
3.483471999999999
 21
-8.077531
 31
0.0
  0
LINE
  5
E4
330
4B9
100
AcDbEntity
  8
1
100
AcDbLine
 10
3.483471999999999
 20
-8.077531
 30
0.0
 11
3.386376
 21
-7.841947999999999
 31
0.0
  0
LINE
  5
E5
330
4B9
100
AcDbEntity
  8
1
100
AcDbLine
 10
3.386376
 20
-7.841947999999999
 30
0.0
 11
3.292470999999999
 21
-7.602250999999999
 31
0.0
  0
LINE
  5
E6
330
4B9
100
AcDbEntity
  8
1
100
AcDbLine
 10
3.292470999999999
 20
-7.602250999999999
 30
0.0
 11
3.201893
 21
-7.359227999999999
 31
0.0
  0
LINE
  5
E7
330
4B9
100
AcDbEntity
  8
1
100
AcDbLine
 10
3.201893
 20
-7.359227999999999
 30
0.0
 11
3.114688999999999
 21
-7.113239
 31
0.0
  0
LINE
  5
E8
330
4B9
100
AcDbEntity
  8
1
100
AcDbLine
 10
3.114688999999999
 20
-7.113239
 30
0.0
 11
3.030812
 21
-6.864175
 31
0.0
  0
LINE
  5
E9
330
4B9
100
AcDbEntity
  8
1
100
AcDbLine
 10
3.030812
 20
-6.864175
 30
0.0
 11
2.950262999999999
 21
-6.612161
 31
0.0
  0
LINE
  5
EA
330
4B9
100
AcDbEntity
  8
1
100
AcDbLine
 10
7.328591
 20
-10.129032
 30
0.0
 11
7.181299
 21
-10.22122
 31
0.0
  0
LINE
  5
EB
330
4B9
100
AcDbEntity
  8
1
100
AcDbLine
 10
7.181299
 20
-10.22122
 30
0.0
 11
7.036116999999999
 21
-10.315288
 31
0.0
  0
LINE
  5
EC
330
4B9
100
AcDbEntity
  8
1
100
AcDbLine
 10
7.036116999999999
 20
-10.315288
 30
0.0
 11
6.893166
 21
-10.411159
 31
0.0
  0
LINE
  5
ED
330
4B9
100
AcDbEntity
  8
1
100
AcDbLine
 10
6.893166
 20
-10.411159
 30
0.0
 11
6.752561999999999
 21
-10.508755
 31
0.0
  0
LINE
  5
EE
330
4B9
100
AcDbEntity
  8
1
100
AcDbLine
 10
6.752561999999999
 20
-10.508755
 30
0.0
 11
6.614422
 21
-10.607996
 31
0.0
  0
LINE
  5
EF
330
4B9
100
AcDbEntity
  8
1
100
AcDbLine
 10
6.614422
 20
-10.607996
 30
0.0
 11
6.47886
 21
-10.708798
 31
0.0
  0
LINE
  5
F0
330
4B9
100
AcDbEntity
  8
1
100
AcDbLine
 10
6.47886
 20
-10.708798
 30
0.0
 11
6.345985999999999
 21
-10.81108
 31
0.0
  0
LINE
  5
F1
330
4B9
100
AcDbEntity
  8
1
100
AcDbLine
 10
6.345985999999999
 20
-10.81108
 30
0.0
 11
6.215911
 21
-10.914755
 31
0.0
  0
LINE
  5
F2
330
4B9
100
AcDbEntity
  8
1
100
AcDbLine
 10
6.215911
 20
-10.914755
 30
0.0
 11
6.088741
 21
-11.019743
 31
0.0
  0
LINE
  5
F3
330
4B9
100
AcDbEntity
  8
1
100
AcDbLine
 10
6.088741
 20
-11.019743
 30
0.0
 11
5.964580999999999
 21
-11.125952
 31
0.0
  0
LINE
  5
F4
330
4B9
100
AcDbEntity
  8
1
100
AcDbLine
 10
5.964580999999999
 20
-11.125952
 30
0.0
 11
5.843534
 21
-11.233299
 31
0.0
  0
LINE
  5
F5
330
4B9
100
AcDbEntity
  8
1
100
AcDbLine
 10
5.843534
 20
-11.233299
 30
0.0
 11
5.725698
 21
-11.341691
 31
0.0
  0
LINE
  5
F6
330
4B9
100
AcDbEntity
  8
1
100
AcDbLine
 10
9.010379999999999
 20
-13.305075
 30
0.0
 11
8.262285
 21
-13.354732
 31
0.0
  0
LINE
  5
F7
330
4B9
100
AcDbEntity
  8
1
100
AcDbLine
 10
8.262285
 20
-13.354732
 30
0.0
 11
7.510889999999999
 21
-13.398363
 31
0.0
  0
LINE
  5
F8
330
4B9
100
AcDbEntity
  8
1
100
AcDbLine
 10
7.510889999999999
 20
-13.398363
 30
0.0
 11
6.756139999999999
 21
-13.435947
 31
0.0
  0
LINE
  5
F9
330
4B9
100
AcDbEntity
  8
1
100
AcDbLine
 10
6.756139999999999
 20
-13.435947
 30
0.0
 11
5.998089
 21
-13.467507
 31
0.0
  0
LINE
  5
FA
330
4B9
100
AcDbEntity
  8
1
100
AcDbLine
 10
5.998089
 20
-13.467507
 30
0.0
 11
5.238317999999999
 21
-13.492919
 31
0.0
  0
LINE
  5
FB
330
4B9
100
AcDbEntity
  8
1
100
AcDbLine
 10
5.238317999999999
 20
-13.492919
 30
0.0
 11
4.477352999999999
 21
-13.512147
 31
0.0
  0
LINE
  5
FC
330
4B9
100
AcDbEntity
  8
1
100
AcDbLine
 10
4.477352999999999
 20
-13.512147
 30
0.0
 11
3.714668
 21
-13.525229
 31
0.0
  0
LINE
  5
FD
330
4B9
100
AcDbEntity
  8
1
100
AcDbLine
 10
3.714668
 20
-13.525229
 30
0.0
 11
2.950262999999999
 21
-13.532165
 31
0.0
  0
LINE
  5
FE
330
4B9
100
AcDbEntity
  8
1
100
AcDbLine
 10
10.246061
 20
-11.506757
 30
0.0
 11
10.095546
 21
-11.527182
 31
0.0
  0
LINE
  5
FF
330
4B9
100
AcDbEntity
  8
1
100
AcDbLine
 10
10.095546
 20
-11.527182
 30
0.0
 11
9.944072999999999
 21
-11.545296
 31
0.0
  0
LINE
  5
100
330
4B9
100
AcDbEntity
  8
1
100
AcDbLine
 10
9.944072999999999
 20
-11.545296
 30
0.0
 11
9.791641999999999
 21
-11.561126
 31
0.0
  0
LINE
  5
101
330
4B9
100
AcDbEntity
  8
1
100
AcDbLine
 10
9.791641999999999
 20
-11.561126
 30
0.0
 11
9.638260999999999
 21
-11.574657
 31
0.0
  0
LINE
  5
102
330
4B9
100
AcDbEntity
  8
1
100
AcDbLine
 10
9.638260999999999
 20
-11.574657
 30
0.0
 11
9.483921
 21
-11.58595
 31
0.0
  0
LINE
  5
103
330
4B9
100
AcDbEntity
  8
1
100
AcDbLine
 10
9.483921
 20
-11.58595
 30
0.0
 11
9.328602
 21
-11.595147
 31
0.0
  0
LINE
  5
104
330
4B9
100
AcDbEntity
  8
1
100
AcDbLine
 10
9.328602
 20
-11.595147
 30
0.0
 11
9.172323999999999
 21
-11.602263
 31
0.0
  0
LINE
  5
105
330
4B9
100
AcDbEntity
  8
1
100
AcDbLine
 10
9.172323999999999
 20
-11.602263
 30
0.0
 11
9.015064999999999
 21
-11.607305
 31
0.0
  0
LINE
  5
106
330
4B9
100
AcDbEntity
  8
1
100
AcDbLine
 10
9.015064999999999
 20
-11.607305
 30
0.0
 11
8.856742
 21
-11.610396
 31
0.0
  0
LINE
  5
107
330
4B9
100
AcDbEntity
  8
1
100
AcDbLine
 10
8.856742
 20
-11.610396
 30
0.0
 11
8.697461
 21
-11.611549
 31
0.0
  0
LINE
  5
108
330
4B9
100
AcDbEntity
  8
1
100
AcDbLine
 10
8.697461
 20
-11.611549
 30
0.0
 11
8.537116000000001
 21
-11.610756
 31
0.0
  0
LINE
  5
109
330
4B9
100
AcDbEntity
  8
1
100
AcDbLine
 10
8.537116000000001
 20
-11.610756
 30
0.0
 11
8.375291999999999
 21
-11.608095
 31
0.0
  0
LINE
  5
10A
330
4B9
100
AcDbEntity
  8
1
100
AcDbLine
 10
8.375291999999999
 20
-11.608095
 30
0.0
 11
8.211937999999999
 21
-11.603575
 31
0.0
  0
LINE
  5
10B
330
4B9
100
AcDbEntity
  8
1
100
AcDbLine
 10
8.211937999999999
 20
-11.603575
 30
0.0
 11
8.047107
 21
-11.597177
 31
0.0
  0
LINE
  5
10C
330
4B9
100
AcDbEntity
  8
1
100
AcDbLine
 10
8.047107
 20
-11.597177
 30
0.0
 11
7.880546
 21
-11.588937
 31
0.0
  0
LINE
  5
10D
330
4B9
100
AcDbEntity
  8
1
100
AcDbLine
 10
7.880546
 20
-11.588937
 30
0.0
 11
7.712222999999999
 21
-11.578847
 31
0.0
  0
LINE
  5
10E
330
4B9
100
AcDbEntity
  8
1
100
AcDbLine
 10
7.712222999999999
 20
-11.578847
 30
0.0
 11
7.542171
 21
-11.566888
 31
0.0
  0
LINE
  5
10F
330
4B9
100
AcDbEntity
  8
1
100
AcDbLine
 10
7.542171
 20
-11.566888
 30
0.0
 11
7.370233999999999
 21
-11.553078
 31
0.0
  0
LINE
  5
110
330
4B9
100
AcDbEntity
  8
1
100
AcDbLine
 10
7.370233999999999
 20
-11.553078
 30
0.0
 11
7.196463999999999
 21
-11.537408
 31
0.0
  0
LINE
  5
111
330
4B9
100
AcDbEntity
  8
1
100
AcDbLine
 10
7.196463999999999
 20
-11.537408
 30
0.0
 11
7.020808999999999
 21
-11.519848
 31
0.0
  0
LINE
  5
112
330
4B9
100
AcDbEntity
  8
1
100
AcDbLine
 10
7.020808999999999
 20
-11.519848
 30
0.0
 11
6.84296
 21
-11.500379
 31
0.0
  0
LINE
  5
113
330
4B9
100
AcDbEntity
  8
1
100
AcDbLine
 10
6.84296
 20
-11.500379
 30
0.0
 11
6.662942
 21
-11.478987
 31
0.0
  0
LINE
  5
114
330
4B9
100
AcDbEntity
  8
1
100
AcDbLine
 10
6.662942
 20
-11.478987
 30
0.0
 11
6.480729
 21
-11.455635
 31
0.0
  0
LINE
  5
115
330
4B9
100
AcDbEntity
  8
1
100
AcDbLine
 10
6.480729
 20
-11.455635
 30
0.0
 11
6.295937999999999
 21
-11.430265
 31
0.0
  0
LINE
  5
116
330
4B9
100
AcDbEntity
  8
1
100
AcDbLine
 10
6.295937999999999
 20
-11.430265
 30
0.0
 11
6.108437
 21
-11.402835
 31
0.0
  0
LINE
  5
117
330
4B9
100
AcDbEntity
  8
1
100
AcDbLine
 10
6.108437
 20
-11.402835
 30
0.0
 11
5.918357
 21
-11.373323
 31
0.0
  0
LINE
  5
118
330
4B9
100
AcDbEntity
  8
1
100
AcDbLine
 10
5.918357
 20
-11.373323
 30
0.0
 11
5.725698
 21
-11.341691
 31
0.0
  0
LINE
  5
119
330
4B9
100
AcDbEntity
  8
1
100
AcDbLine
 10
2.999155
 20
-13.533331
 30
0.0
 11
2.993654
 21
-13.533317
 31
0.0
  0
LINE
  5
11A
330
4B9
100
AcDbEntity
  8
1
100
AcDbLine
 10
2.993654
 20
-13.533317
 30
0.0
 11
2.988170999999999
 21
-13.533273
 31
0.0
  0
LINE
  5
11B
330
4B9
100
AcDbEntity
  8
1
100
AcDbLine
 10
2.988170999999999
 20
-13.533273
 30
0.0
 11
2.982704999999999
 21
-13.533202
 31
0.0
  0
LINE
  5
11C
330
4B9
100
AcDbEntity
  8
1
100
AcDbLine
 10
2.982704999999999
 20
-13.533202
 30
0.0
 11
2.977254999999999
 21
-13.5331
 31
0.0
  0
LINE
  5
11D
330
4B9
100
AcDbEntity
  8
1
100
AcDbLine
 10
2.977254999999999
 20
-13.5331
 30
0.0
 11
2.971823
 21
-13.532971
 31
0.0
  0
LINE
  5
11E
330
4B9
100
AcDbEntity
  8
1
100
AcDbLine
 10
2.971823
 20
-13.532971
 30
0.0
 11
2.966406999999999
 21
-13.532812
 31
0.0
  0
LINE
  5
11F
330
4B9
100
AcDbEntity
  8
1
100
AcDbLine
 10
2.966406999999999
 20
-13.532812
 30
0.0
 11
2.961009
 21
-13.532624
 31
0.0
  0
LINE
  5
120
330
4B9
100
AcDbEntity
  8
1
100
AcDbLine
 10
2.961009
 20
-13.532624
 30
0.0
 11
2.955627
 21
-13.532409
 31
0.0
  0
LINE
  5
121
330
4B9
100
AcDbEntity
  8
1
100
AcDbLine
 10
2.955627
 20
-13.532409
 30
0.0
 11
2.950262999999999
 21
-13.532165
 31
0.0
  0
LINE
  5
122
330
4B9
100
AcDbEntity
  8
1
100
AcDbLine
 10
3.057008
 20
-13.531195
 30
0.0
 11
2.999155
 21
-13.533331
 31
0.0
  0
LINE
  5
123
330
4B9
100
AcDbEntity
  8
1
100
AcDbLine
 10
9.055747999999999
 20
-9.042491
 30
0.0
 11
9.02846
 21
-9.079950999999999
 31
0.0
  0
LINE
  5
124
330
4B9
100
AcDbEntity
  8
1
100
AcDbLine
 10
9.02846
 20
-9.079950999999999
 30
0.0
 11
9.000752
 21
-9.117057
 31
0.0
  0
LINE
  5
125
330
4B9
100
AcDbEntity
  8
1
100
AcDbLine
 10
9.000752
 20
-9.117057
 30
0.0
 11
8.972627000000001
 21
-9.153808999999998
 31
0.0
  0
LINE
  5
126
330
4B9
100
AcDbEntity
  8
1
100
AcDbLine
 10
8.972627000000001
 20
-9.153808999999998
 30
0.0
 11
8.944074999999999
 21
-9.190219
 31
0.0
  0
LINE
  5
127
330
4B9
100
AcDbEntity
  8
1
100
AcDbLine
 10
8.944074999999999
 20
-9.190219
 30
0.0
 11
8.915108999999999
 21
-9.226281
 31
0.0
  0
LINE
  5
128
330
4B9
100
AcDbEntity
  8
1
100
AcDbLine
 10
8.915108999999999
 20
-9.226281
 30
0.0
 11
8.885761
 21
-9.261974999999999
 31
0.0
  0
LINE
  5
129
330
4B9
100
AcDbEntity
  8
1
100
AcDbLine
 10
8.885761
 20
-9.261974999999999
 30
0.0
 11
8.856042
 21
-9.297297
 31
0.0
  0
LINE
  5
12A
330
4B9
100
AcDbEntity
  8
1
100
AcDbLine
 10
8.856042
 20
-9.297297
 30
0.0
 11
8.825944999999999
 21
-9.332254999999999
 31
0.0
  0
LINE
  5
12B
330
4B9
100
AcDbEntity
  8
1
100
AcDbLine
 10
8.825944999999999
 20
-9.332254999999999
 30
0.0
 11
8.795471
 21
-9.366850999999998
 31
0.0
  0
LINE
  5
12C
330
4B9
100
AcDbEntity
  8
1
100
AcDbLine
 10
8.795471
 20
-9.366850999999998
 30
0.0
 11
8.781985999999999
 21
-9.394266
 31
0.0
  0
LINE
  5
12D
330
4B9
100
AcDbEntity
  8
1
100
AcDbLine
 10
8.781985999999999
 20
-9.394266
 30
0.0
 11
8.767036
 21
-9.422235
 31
0.0
  0
LINE
  5
12E
330
4B9
100
AcDbEntity
  8
1
100
AcDbLine
 10
8.767036
 20
-9.422235
 30
0.0
 11
8.750591
 21
-9.450707000000001
 31
0.0
  0
LINE
  5
12F
330
4B9
100
AcDbEntity
  8
1
100
AcDbLine
 10
8.750591
 20
-9.450707000000001
 30
0.0
 11
8.732603999999998
 21
-9.479666999999999
 31
0.0
  0
LINE
  5
130
330
4B9
100
AcDbEntity
  8
1
100
AcDbLine
 10
8.732603999999998
 20
-9.479666999999999
 30
0.0
 11
8.713057
 21
-9.509012
 31
0.0
  0
LINE
  5
131
330
4B9
100
AcDbEntity
  8
1
100
AcDbLine
 10
8.713057
 20
-9.509012
 30
0.0
 11
8.691971
 21
-9.538552000000001
 31
0.0
  0
LINE
  5
132
330
4B9
100
AcDbEntity
  8
1
100
AcDbLine
 10
8.691971
 20
-9.538552000000001
 30
0.0
 11
8.669325999999999
 21
-9.568214999999998
 31
0.0
  0
LINE
  5
133
330
4B9
100
AcDbEntity
  8
1
100
AcDbLine
 10
8.669325999999999
 20
-9.568214999999998
 30
0.0
 11
8.645097999999999
 21
-9.597955
 31
0.0
  0
LINE
  5
134
330
4B9
100
AcDbEntity
  8
1
100
AcDbLine
 10
8.645097999999999
 20
-9.597955
 30
0.0
 11
8.619324
 21
-9.627646
 31
0.0
  0
LINE
  5
135
330
4B9
100
AcDbEntity
  8
1
100
AcDbLine
 10
8.619324
 20
-9.627646
 30
0.0
 11
8.592002
 21
-9.657201999999999
 31
0.0
  0
LINE
  5
136
330
4B9
100
AcDbEntity
  8
1
100
AcDbLine
 10
8.592002
 20
-9.657201999999999
 30
0.0
 11
8.563102999999999
 21
-9.686586999999999
 31
0.0
  0
LINE
  5
137
330
4B9
100
AcDbEntity
  8
1
100
AcDbLine
 10
8.563102999999999
 20
-9.686586999999999
 30
0.0
 11
8.532619999999999
 21
-9.715747
 31
0.0
  0
LINE
  5
138
330
4B9
100
AcDbEntity
  8
1
100
AcDbLine
 10
8.532619999999999
 20
-9.715747
 30
0.0
 11
8.500507999999999
 21
-9.744635999999999
 31
0.0
  0
LINE
  5
139
330
4B9
100
AcDbEntity
  8
1
100
AcDbLine
 10
8.500507999999999
 20
-9.744635999999999
 30
0.0
 11
8.466787
 21
-9.773158999999999
 31
0.0
  0
LINE
  5
13A
330
4B9
100
AcDbEntity
  8
1
100
AcDbLine
 10
8.466787
 20
-9.773158999999999
 30
0.0
 11
8.431546
 21
-9.801191000000001
 31
0.0
  0
LINE
  5
13B
330
4B9
100
AcDbEntity
  8
1
100
AcDbLine
 10
8.431546
 20
-9.801191000000001
 30
0.0
 11
8.394769999999999
 21
-9.828663999999999
 31
0.0
  0
LINE
  5
13C
330
4B9
100
AcDbEntity
  8
1
100
AcDbLine
 10
8.394769999999999
 20
-9.828663999999999
 30
0.0
 11
8.356466000000001
 21
-9.855505
 31
0.0
  0
LINE
  5
13D
330
4B9
100
AcDbEntity
  8
1
100
AcDbLine
 10
8.356466000000001
 20
-9.855505
 30
0.0
 11
8.316762999999999
 21
-9.881581
 31
0.0
  0
LINE
  5
13E
330
4B9
100
AcDbEntity
  8
1
100
AcDbLine
 10
8.316762999999999
 20
-9.881581
 30
0.0
 11
8.275600999999999
 21
-9.906860999999999
 31
0.0
  0
LINE
  5
13F
330
4B9
100
AcDbEntity
  8
1
100
AcDbLine
 10
8.275600999999999
 20
-9.906860999999999
 30
0.0
 11
8.233048
 21
-9.931236999999999
 31
0.0
  0
LINE
  5
140
330
4B9
100
AcDbEntity
  8
1
100
AcDbLine
 10
8.233048
 20
-9.931236999999999
 30
0.0
 11
8.189442999999998
 21
-9.954487
 31
0.0
  0
LINE
  5
141
330
4B9
100
AcDbEntity
  8
1
100
AcDbLine
 10
8.189442999999998
 20
-9.954487
 30
0.0
 11
8.144828
 21
-9.976555000000001
 31
0.0
  0
LINE
  5
142
330
4B9
100
AcDbEntity
  8
1
100
AcDbLine
 10
8.144828
 20
-9.976555000000001
 30
0.0
 11
8.099199999999999
 21
-9.99741
 31
0.0
  0
LINE
  5
143
330
4B9
100
AcDbEntity
  8
1
100
AcDbLine
 10
8.099199999999999
 20
-9.99741
 30
0.0
 11
8.052846999999999
 21
-10.016908
 31
0.0
  0
LINE
  5
144
330
4B9
100
AcDbEntity
  8
1
100
AcDbLine
 10
8.052846999999999
 20
-10.016908
 30
0.0
 11
8.00651
 21
-10.034759
 31
0.0
  0
LINE
  5
145
330
4B9
100
AcDbEntity
  8
1
100
AcDbLine
 10
9.457487
 20
-8.109992
 30
0.0
 11
9.457067
 21
-8.133435
 31
0.0
  0
LINE
  5
146
330
4B9
100
AcDbEntity
  8
1
100
AcDbLine
 10
9.457067
 20
-8.133435
 30
0.0
 11
9.455735999999999
 21
-8.157617
 31
0.0
  0
LINE
  5
147
330
4B9
100
AcDbEntity
  8
1
100
AcDbLine
 10
9.455735999999999
 20
-8.157617
 30
0.0
 11
9.453492999999999
 21
-8.182539999999999
 31
0.0
  0
LINE
  5
148
330
4B9
100
AcDbEntity
  8
1
100
AcDbLine
 10
9.453492999999999
 20
-8.182539999999999
 30
0.0
 11
9.450361
 21
-8.208210000000001
 31
0.0
  0
LINE
  5
149
330
4B9
100
AcDbEntity
  8
1
100
AcDbLine
 10
9.450361
 20
-8.208210000000001
 30
0.0
 11
9.446317
 21
-8.234630000000001
 31
0.0
  0
LINE
  5
14A
330
4B9
100
AcDbEntity
  8
1
100
AcDbLine
 10
9.446317
 20
-8.234630000000001
 30
0.0
 11
9.441296000000001
 21
-8.261801
 31
0.0
  0
LINE
  5
14B
330
4B9
100
AcDbEntity
  8
1
100
AcDbLine
 10
9.441296000000001
 20
-8.261801
 30
0.0
 11
9.435296000000001
 21
-8.289730999999999
 31
0.0
  0
LINE
  5
14C
330
4B9
100
AcDbEntity
  8
1
100
AcDbLine
 10
9.435296000000001
 20
-8.289730999999999
 30
0.0
 11
9.428319
 21
-8.318422999999999
 31
0.0
  0
LINE
  5
14D
330
4B9
100
AcDbEntity
  8
1
100
AcDbLine
 10
9.428319
 20
-8.318422999999999
 30
0.0
 11
9.420302000000001
 21
-8.347877999999999
 31
0.0
  0
LINE
  5
14E
330
4B9
100
AcDbEntity
  8
1
100
AcDbLine
 10
9.420302000000001
 20
-8.347877999999999
 30
0.0
 11
9.411267
 21
-8.378054999999999
 31
0.0
  0
LINE
  5
14F
330
4B9
100
AcDbEntity
  8
1
100
AcDbLine
 10
9.411267
 20
-8.378054999999999
 30
0.0
 11
9.401191999999999
 21
-8.409005
 31
0.0
  0
LINE
  5
150
330
4B9
100
AcDbEntity
  8
1
100
AcDbLine
 10
9.401191999999999
 20
-8.409005
 30
0.0
 11
9.38995
 21
-8.440877999999999
 31
0.0
  0
LINE
  5
151
330
4B9
100
AcDbEntity
  8
1
100
AcDbLine
 10
9.38995
 20
-8.440877999999999
 30
0.0
 11
9.377542999999999
 21
-8.473708
 31
0.0
  0
LINE
  5
152
330
4B9
100
AcDbEntity
  8
1
100
AcDbLine
 10
9.377542999999999
 20
-8.473708
 30
0.0
 11
9.36397
 21
-8.507475999999998
 31
0.0
  0
LINE
  5
153
330
4B9
100
AcDbEntity
  8
1
100
AcDbLine
 10
9.36397
 20
-8.507475999999998
 30
0.0
 11
9.349100999999999
 21
-8.542239
 31
0.0
  0
LINE
  5
154
330
4B9
100
AcDbEntity
  8
1
100
AcDbLine
 10
9.349100999999999
 20
-8.542239
 30
0.0
 11
9.332933999999999
 21
-8.578027
 31
0.0
  0
LINE
  5
155
330
4B9
100
AcDbEntity
  8
1
100
AcDbLine
 10
9.332933999999999
 20
-8.578027
 30
0.0
 11
9.315472999999999
 21
-8.614831999999999
 31
0.0
  0
LINE
  5
156
330
4B9
100
AcDbEntity
  8
1
100
AcDbLine
 10
9.315472999999999
 20
-8.614831999999999
 30
0.0
 11
9.296588999999999
 21
-8.65266
 31
0.0
  0
LINE
  5
157
330
4B9
100
AcDbEntity
  8
1
100
AcDbLine
 10
9.296588999999999
 20
-8.65266
 30
0.0
 11
9.276303999999999
 21
-8.691508
 31
0.0
  0
LINE
  5
158
330
4B9
100
AcDbEntity
  8
1
100
AcDbLine
 10
9.276303999999999
 20
-8.691508
 30
0.0
 11
9.254599999999999
 21
-8.731403999999999
 31
0.0
  0
LINE
  5
159
330
4B9
100
AcDbEntity
  8
1
100
AcDbLine
 10
9.254599999999999
 20
-8.731403999999999
 30
0.0
 11
9.231292999999999
 21
-8.772403
 31
0.0
  0
LINE
  5
15A
330
4B9
100
AcDbEntity
  8
1
100
AcDbLine
 10
9.231292999999999
 20
-8.772403
 30
0.0
 11
9.206392999999998
 21
-8.814541
 31
0.0
  0
LINE
  5
15B
330
4B9
100
AcDbEntity
  8
1
100
AcDbLine
 10
9.206392999999998
 20
-8.814541
 30
0.0
 11
9.179896000000001
 21
-8.857815999999999
 31
0.0
  0
LINE
  5
15C
330
4B9
100
AcDbEntity
  8
1
100
AcDbLine
 10
9.179896000000001
 20
-8.857815999999999
 30
0.0
 11
9.151597999999999
 21
-8.902229
 31
0.0
  0
LINE
  5
15D
330
4B9
100
AcDbEntity
  8
1
100
AcDbLine
 10
9.151597999999999
 20
-8.902229
 30
0.0
 11
9.121435999999999
 21
-8.947792999999998
 31
0.0
  0
LINE
  5
15E
330
4B9
100
AcDbEntity
  8
1
100
AcDbLine
 10
9.121435999999999
 20
-8.947792999999998
 30
0.0
 11
9.089483999999998
 21
-8.994539999999998
 31
0.0
  0
LINE
  5
15F
330
4B9
100
AcDbEntity
  8
1
100
AcDbLine
 10
9.089483999999998
 20
-8.994539999999998
 30
0.0
 11
9.055747999999999
 21
-9.042491
 31
0.0
  0
LINE
  5
160
330
4B9
100
AcDbEntity
  8
1
100
AcDbLine
 10
8.391548
 20
-13.488899
 30
0.0
 11
8.391548
 21
-13.346153
 31
0.0
  0
LINE
  5
161
330
4B9
100
AcDbEntity
  8
1
100
AcDbLine
 10
9.745649999999999
 20
-9.006059
 30
0.0
 11
9.586565999999999
 21
-9.059644
 31
0.0
  0
LINE
  5
162
330
4B9
100
AcDbEntity
  8
1
100
AcDbLine
 10
9.586565999999999
 20
-9.059644
 30
0.0
 11
9.427605999999999
 21
-9.115909
 31
0.0
  0
LINE
  5
163
330
4B9
100
AcDbEntity
  8
1
100
AcDbLine
 10
9.427605999999999
 20
-9.115909
 30
0.0
 11
9.268893999999999
 21
-9.174808
 31
0.0
  0
LINE
  5
164
330
4B9
100
AcDbEntity
  8
1
100
AcDbLine
 10
9.268893999999999
 20
-9.174808
 30
0.0
 11
9.110552
 21
-9.236297999999999
 31
0.0
  0
LINE
  5
165
330
4B9
100
AcDbEntity
  8
1
100
AcDbLine
 10
9.110552
 20
-9.236297999999999
 30
0.0
 11
8.952702999999999
 21
-9.300328
 31
0.0
  0
LINE
  5
166
330
4B9
100
AcDbEntity
  8
1
100
AcDbLine
 10
8.952702999999999
 20
-9.300328
 30
0.0
 11
8.795471
 21
-9.366850999999998
 31
0.0
  0
LINE
  5
167
330
4B9
100
AcDbEntity
  8
1
100
AcDbLine
 10
8.00651
 20
-10.034759
 30
0.0
 11
7.958097
 21
-10.051721
 31
0.0
  0
LINE
  5
168
330
4B9
100
AcDbEntity
  8
1
100
AcDbLine
 10
7.958097
 20
-10.051721
 30
0.0
 11
7.909988
 21
-10.066918
 31
0.0
  0
LINE
  5
169
330
4B9
100
AcDbEntity
  8
1
100
AcDbLine
 10
7.909988
 20
-10.066918
 30
0.0
 11
7.861527
 21
-10.080597
 31
0.0
  0
LINE
  5
16A
330
4B9
100
AcDbEntity
  8
1
100
AcDbLine
 10
7.861527
 20
-10.080597
 30
0.0
 11
7.812732
 21
-10.09276
 31
0.0
  0
LINE
  5
16B
330
4B9
100
AcDbEntity
  8
1
100
AcDbLine
 10
7.812732
 20
-10.09276
 30
0.0
 11
7.76383
 21
-10.103349
 31
0.0
  0
LINE
  5
16C
330
4B9
100
AcDbEntity
  8
1
100
AcDbLine
 10
7.76383
 20
-10.103349
 30
0.0
 11
7.714889
 21
-10.112367
 31
0.0
  0
LINE
  5
16D
330
4B9
100
AcDbEntity
  8
1
100
AcDbLine
 10
7.714889
 20
-10.112367
 30
0.0
 11
7.665911
 21
-10.119834
 31
0.0
  0
LINE
  5
16E
330
4B9
100
AcDbEntity
  8
1
100
AcDbLine
 10
7.665911
 20
-10.119834
 30
0.0
 11
7.617021
 21
-10.125734
 31
0.0
  0
LINE
  5
16F
330
4B9
100
AcDbEntity
  8
1
100
AcDbLine
 10
7.617021
 20
-10.125734
 30
0.0
 11
7.568250999999999
 21
-10.130081
 31
0.0
  0
LINE
  5
170
330
4B9
100
AcDbEntity
  8
1
100
AcDbLine
 10
7.568250999999999
 20
-10.130081
 30
0.0
 11
7.519638999999999
 21
-10.132896
 31
0.0
  0
LINE
  5
171
330
4B9
100
AcDbEntity
  8
1
100
AcDbLine
 10
7.519638999999999
 20
-10.132896
 30
0.0
 11
7.471324
 21
-10.134174
 31
0.0
  0
LINE
  5
172
330
4B9
100
AcDbEntity
  8
1
100
AcDbLine
 10
7.471324
 20
-10.134174
 30
0.0
 11
7.423372
 21
-10.133932
 31
0.0
  0
LINE
  5
173
330
4B9
100
AcDbEntity
  8
1
100
AcDbLine
 10
7.423372
 20
-10.133932
 30
0.0
 11
7.375783999999999
 21
-10.132208
 31
0.0
  0
LINE
  5
174
330
4B9
100
AcDbEntity
  8
1
100
AcDbLine
 10
7.375783999999999
 20
-10.132208
 30
0.0
 11
7.328591
 21
-10.129032
 31
0.0
  0
LINE
  5
175
330
4B9
100
AcDbEntity
  8
1
100
AcDbLine
 10
9.365244
 20
-7.823158999999999
 30
0.0
 11
9.376412
 21
-7.837649
 31
0.0
  0
LINE
  5
176
330
4B9
100
AcDbEntity
  8
1
100
AcDbLine
 10
9.376412
 20
-7.837649
 30
0.0
 11
9.386886999999999
 21
-7.852682
 31
0.0
  0
LINE
  5
177
330
4B9
100
AcDbEntity
  8
1
100
AcDbLine
 10
9.386886999999999
 20
-7.852682
 30
0.0
 11
9.396668
 21
-7.868255999999999
 31
0.0
  0
LINE
  5
178
330
4B9
100
AcDbEntity
  8
1
100
AcDbLine
 10
9.396668
 20
-7.868255999999999
 30
0.0
 11
9.405756
 21
-7.884332
 31
0.0
  0
LINE
  5
179
330
4B9
100
AcDbEntity
  8
1
100
AcDbLine
 10
9.405756
 20
-7.884332
 30
0.0
 11
9.414150999999998
 21
-7.900950999999999
 31
0.0
  0
LINE
  5
17A
330
4B9
100
AcDbEntity
  8
1
100
AcDbLine
 10
9.414150999999998
 20
-7.900950999999999
 30
0.0
 11
9.421856
 21
-7.918232
 31
0.0
  0
LINE
  5
17B
330
4B9
100
AcDbEntity
  8
1
100
AcDbLine
 10
9.421856
 20
-7.918232
 30
0.0
 11
9.428891999999999
 21
-7.93616
 31
0.0
  0
LINE
  5
17C
330
4B9
100
AcDbEntity
  8
1
100
AcDbLine
 10
9.428891999999999
 20
-7.93616
 30
0.0
 11
9.435238999999999
 21
-7.954749
 31
0.0
  0
LINE
  5
17D
330
4B9
100
AcDbEntity
  8
1
100
AcDbLine
 10
9.435238999999999
 20
-7.954749
 30
0.0
 11
9.440839
 21
-7.974161999999999
 31
0.0
  0
LINE
  5
17E
330
4B9
100
AcDbEntity
  8
1
100
AcDbLine
 10
9.440839
 20
-7.974161999999999
 30
0.0
 11
9.445717
 21
-7.994391999999999
 31
0.0
  0
LINE
  5
17F
330
4B9
100
AcDbEntity
  8
1
100
AcDbLine
 10
9.445717
 20
-7.994391999999999
 30
0.0
 11
9.449849
 21
-8.015444999999999
 31
0.0
  0
LINE
  5
180
330
4B9
100
AcDbEntity
  8
1
100
AcDbLine
 10
9.449849
 20
-8.015444999999999
 30
0.0
 11
9.453103999999999
 21
-8.037513
 31
0.0
  0
LINE
  5
181
330
4B9
100
AcDbEntity
  8
1
100
AcDbLine
 10
9.453103999999999
 20
-8.037513
 30
0.0
 11
9.455441
 21
-8.060658999999999
 31
0.0
  0
LINE
  5
182
330
4B9
100
AcDbEntity
  8
1
100
AcDbLine
 10
9.455441
 20
-8.060658999999999
 30
0.0
 11
9.456902000000001
 21
-8.084817999999998
 31
0.0
  0
LINE
  5
183
330
4B9
100
AcDbEntity
  8
1
100
AcDbLine
 10
9.456902000000001
 20
-8.084817999999998
 30
0.0
 11
9.457487
 21
-8.109992
 31
0.0
  0
LINE
  5
184
330
4B9
100
AcDbEntity
  8
1
100
AcDbLine
 10
7.328591
 20
-10.129032
 30
0.0
 11
7.305813
 21
-10.120054
 31
0.0
  0
LINE
  5
185
330
4B9
100
AcDbEntity
  8
1
100
AcDbLine
 10
7.305813
 20
-10.120054
 30
0.0
 11
7.283682
 21
-10.110046
 31
0.0
  0
LINE
  5
186
330
4B9
100
AcDbEntity
  8
1
100
AcDbLine
 10
7.283682
 20
-10.110046
 30
0.0
 11
7.262196
 21
-10.099004
 31
0.0
  0
LINE
  5
187
330
4B9
100
AcDbEntity
  8
1
100
AcDbLine
 10
7.262196
 20
-10.099004
 30
0.0
 11
7.241336999999999
 21
-10.086906
 31
0.0
  0
LINE
  5
188
330
4B9
100
AcDbEntity
  8
1
100
AcDbLine
 10
7.241336999999999
 20
-10.086906
 30
0.0
 11
7.221116999999999
 21
-10.073769
 31
0.0
  0
LINE
  5
189
330
4B9
100
AcDbEntity
  8
1
100
AcDbLine
 10
7.221116999999999
 20
-10.073769
 30
0.0
 11
7.201574
 21
-10.059641
 31
0.0
  0
LINE
  5
18A
330
4B9
100
AcDbEntity
  8
1
100
AcDbLine
 10
7.201574
 20
-10.059641
 30
0.0
 11
7.182727
 21
-10.044546
 31
0.0
  0
LINE
  5
18B
330
4B9
100
AcDbEntity
  8
1
100
AcDbLine
 10
7.182727
 20
-10.044546
 30
0.0
 11
7.164552
 21
-10.028454
 31
0.0
  0
LINE
  5
18C
330
4B9
100
AcDbEntity
  8
1
100
AcDbLine
 10
7.164552
 20
-10.028454
 30
0.0
 11
7.147028999999998
 21
-10.011346
 31
0.0
  0
LINE
  5
18D
330
4B9
100
AcDbEntity
  8
1
100
AcDbLine
 10
7.147028999999998
 20
-10.011346
 30
0.0
 11
7.130130999999999
 21
-9.993203999999998
 31
0.0
  0
LINE
  5
18E
330
4B9
100
AcDbEntity
  8
1
100
AcDbLine
 10
7.130130999999999
 20
-9.993203999999998
 30
0.0
 11
7.113878999999998
 21
-9.974041999999998
 31
0.0
  0
LINE
  5
18F
330
4B9
100
AcDbEntity
  8
1
100
AcDbLine
 10
7.113878999999998
 20
-9.974041999999998
 30
0.0
 11
7.09833
 21
-9.953882
 31
0.0
  0
LINE
  5
190
330
4B9
100
AcDbEntity
  8
1
100
AcDbLine
 10
7.09833
 20
-9.953882
 30
0.0
 11
7.083483
 21
-9.932727999999999
 31
0.0
  0
LINE
  5
191
330
4B9
100
AcDbEntity
  8
1
100
AcDbLine
 10
7.083483
 20
-9.932727999999999
 30
0.0
 11
7.069335
 21
-9.910574
 31
0.0
  0
LINE
  5
192
330
4B9
100
AcDbEntity
  8
1
100
AcDbLine
 10
7.069335
 20
-9.910574
 30
0.0
 11
7.055933
 21
-9.887427
 31
0.0
  0
LINE
  5
193
330
4B9
100
AcDbEntity
  8
1
100
AcDbLine
 10
7.055933
 20
-9.887427
 30
0.0
 11
7.043277999999999
 21
-9.863305
 31
0.0
  0
LINE
  5
194
330
4B9
100
AcDbEntity
  8
1
100
AcDbLine
 10
7.043277999999999
 20
-9.863305
 30
0.0
 11
7.031367999999999
 21
-9.838188
 31
0.0
  0
LINE
  5
195
330
4B9
100
AcDbEntity
  8
1
100
AcDbLine
 10
7.031367999999999
 20
-9.838188
 30
0.0
 11
7.020243999999999
 21
-9.812022999999999
 31
0.0
  0
LINE
  5
196
330
4B9
100
AcDbEntity
  8
1
100
AcDbLine
 10
7.020243999999999
 20
-9.812022999999999
 30
0.0
 11
7.009888
 21
-9.784769
 31
0.0
  0
LINE
  5
197
330
4B9
100
AcDbEntity
  8
1
100
AcDbLine
 10
7.009888
 20
-9.784769
 30
0.0
 11
7.000319
 21
-9.756463999999999
 31
0.0
  0
LINE
  5
198
330
4B9
100
AcDbEntity
  8
1
100
AcDbLine
 10
7.000319
 20
-9.756463999999999
 30
0.0
 11
6.991635999999999
 21
-9.72718
 31
0.0
  0
LINE
  5
199
330
4B9
100
AcDbEntity
  8
1
100
AcDbLine
 10
6.991635999999999
 20
-9.72718
 30
0.0
 11
6.983846999999999
 21
-9.696936
 31
0.0
  0
LINE
  5
19A
330
4B9
100
AcDbEntity
  8
1
100
AcDbLine
 10
6.983846999999999
 20
-9.696936
 30
0.0
 11
6.976946
 21
-9.665713
 31
0.0
  0
LINE
  5
19B
330
4B9
100
AcDbEntity
  8
1
100
AcDbLine
 10
6.976946
 20
-9.665713
 30
0.0
 11
6.971013
 21
-9.633514999999999
 31
0.0
  0
LINE
  5
19C
330
4B9
100
AcDbEntity
  8
1
100
AcDbLine
 10
6.971013
 20
-9.633514999999999
 30
0.0
 11
6.966042999999999
 21
-9.600348
 31
0.0
  0
LINE
  5
19D
330
4B9
100
AcDbEntity
  8
1
100
AcDbLine
 10
6.966042999999999
 20
-9.600348
 30
0.0
 11
6.962044
 21
-9.566209999999999
 31
0.0
  0
LINE
  5
19E
330
4B9
100
AcDbEntity
  8
1
100
AcDbLine
 10
6.962044
 20
-9.566209999999999
 30
0.0
 11
6.959111999999999
 21
-9.531100999999999
 31
0.0
  0
LINE
  5
19F
330
4B9
100
AcDbEntity
  8
1
100
AcDbLine
 10
6.959111999999999
 20
-9.531100999999999
 30
0.0
 11
6.957244999999999
 21
-9.494984
 31
0.0
  0
LINE
  5
1A0
330
4B9
100
AcDbEntity
  8
1
100
AcDbLine
 10
6.957244999999999
 20
-9.494984
 30
0.0
 11
6.95645
 21
-9.4579
 31
0.0
  0
LINE
  5
1A1
330
4B9
100
AcDbEntity
  8
1
100
AcDbLine
 10
6.95645
 20
-9.4579
 30
0.0
 11
6.95683
 21
-9.419957
 31
0.0
  0
LINE
  5
1A2
330
4B9
100
AcDbEntity
  8
1
100
AcDbLine
 10
6.95683
 20
-9.419957
 30
0.0
 11
6.958388
 21
-9.381194
 31
0.0
  0
LINE
  5
1A3
330
4B9
100
AcDbEntity
  8
1
100
AcDbLine
 10
6.958388
 20
-9.381194
 30
0.0
 11
6.961128999999999
 21
-9.34158
 31
0.0
  0
LINE
  5
1A4
330
4B9
100
AcDbEntity
  8
1
100
AcDbLine
 10
6.961128999999999
 20
-9.34158
 30
0.0
 11
6.965167
 21
-9.301116
 31
0.0
  0
LINE
  5
1A5
330
4B9
100
AcDbEntity
  8
1
100
AcDbLine
 10
6.965167
 20
-9.301116
 30
0.0
 11
6.970511
 21
-9.259759999999999
 31
0.0
  0
LINE
  5
1A6
330
4B9
100
AcDbEntity
  8
1
100
AcDbLine
 10
6.970511
 20
-9.259759999999999
 30
0.0
 11
6.977161999999999
 21
-9.217564999999998
 31
0.0
  0
LINE
  5
1A7
330
4B9
100
AcDbEntity
  8
1
100
AcDbLine
 10
6.977161999999999
 20
-9.217564999999998
 30
0.0
 11
6.985224
 21
-9.174677
 31
0.0
  0
LINE
  5
1A8
330
4B9
100
AcDbEntity
  8
1
100
AcDbLine
 10
6.985224
 20
-9.174677
 30
0.0
 11
6.994700999999999
 21
-9.131121999999999
 31
0.0
  0
LINE
  5
1A9
330
4B9
100
AcDbEntity
  8
1
100
AcDbLine
 10
6.994700999999999
 20
-9.131121999999999
 30
0.0
 11
7.005600999999999
 21
-9.086886999999999
 31
0.0
  0
LINE
  5
1AA
330
4B9
100
AcDbEntity
  8
1
100
AcDbLine
 10
7.005600999999999
 20
-9.086886999999999
 30
0.0
 11
7.018032999999999
 21
-9.042074000000001
 31
0.0
  0
LINE
  5
1AB
330
4B9
100
AcDbEntity
  8
1
100
AcDbLine
 10
7.018032999999999
 20
-9.042074000000001
 30
0.0
 11
7.032007000000001
 21
-8.996677999999999
 31
0.0
  0
LINE
  5
1AC
330
4B9
100
AcDbEntity
  8
1
100
AcDbLine
 10
7.032007000000001
 20
-8.996677999999999
 30
0.0
 11
7.047528999999999
 21
-8.95072
 31
0.0
  0
LINE
  5
1AD
330
4B9
100
AcDbEntity
  8
1
100
AcDbLine
 10
7.047528999999999
 20
-8.95072
 30
0.0
 11
7.064697999999999
 21
-8.904338
 31
0.0
  0
LINE
  5
1AE
330
4B9
100
AcDbEntity
  8
1
100
AcDbLine
 10
7.064697999999999
 20
-8.904338
 30
0.0
 11
7.083553999999999
 21
-8.857583999999999
 31
0.0
  0
LINE
  5
1AF
330
4B9
100
AcDbEntity
  8
1
100
AcDbLine
 10
7.083553999999999
 20
-8.857583999999999
 30
0.0
 11
7.104077
 21
-8.810428999999999
 31
0.0
  0
LINE
  5
1B0
330
4B9
100
AcDbEntity
  8
1
100
AcDbLine
 10
7.104077
 20
-8.810428999999999
 30
0.0
 11
7.126276999999999
 21
-8.762883
 31
0.0
  0
LINE
  5
1B1
330
4B9
100
AcDbEntity
  8
1
100
AcDbLine
 10
9.015544999999999
 20
-13.802043
 30
0.0
 11
8.990914999999999
 21
-13.796696
 31
0.0
  0
LINE
  5
1B2
330
4B9
100
AcDbEntity
  8
1
100
AcDbLine
 10
8.990914999999999
 20
-13.796696
 30
0.0
 11
8.904589999999998
 21
-13.773471
 31
0.0
  0
LINE
  5
1B3
330
4B9
100
AcDbEntity
  8
1
100
AcDbLine
 10
8.904589999999998
 20
-13.773471
 30
0.0
 11
8.818394999999998
 21
-13.743279
 31
0.0
  0
LINE
  5
1B4
330
4B9
100
AcDbEntity
  8
1
100
AcDbLine
 10
8.818394999999998
 20
-13.743279
 30
0.0
 11
8.732374999999999
 21
-13.706143
 31
0.0
  0
LINE
  5
1B5
330
4B9
100
AcDbEntity
  8
1
100
AcDbLine
 10
8.732374999999999
 20
-13.706143
 30
0.0
 11
8.646666999999998
 21
-13.66213
 31
0.0
  0
LINE
  5
1B6
330
4B9
100
AcDbEntity
  8
1
100
AcDbLine
 10
8.646666999999998
 20
-13.66213
 30
0.0
 11
8.561315999999999
 21
-13.611264
 31
0.0
  0
LINE
  5
1B7
330
4B9
100
AcDbEntity
  8
1
100
AcDbLine
 10
8.561315999999999
 20
-13.611264
 30
0.0
 11
8.476275999999998
 21
-13.553519
 31
0.0
  0
LINE
  5
1B8
330
4B9
100
AcDbEntity
  8
1
100
AcDbLine
 10
8.476275999999998
 20
-13.553519
 30
0.0
 11
8.391548
 21
-13.488899
 31
0.0
  0
LINE
  5
1B9
330
4B9
100
AcDbEntity
  8
1
100
AcDbLine
 10
9.977783
 20
-13.999998
 30
0.0
 11
9.015738
 21
-13.802091
 31
0.0
  0
LINE
  5
1BA
330
4B9
100
AcDbEntity
  8
1
100
AcDbLine
 10
8.391548
 20
-13.488899
 30
0.0
 11
8.611062999999999
 21
-13.520636
 31
0.0
  0
LINE
  5
1BB
330
4B9
100
AcDbEntity
  8
1
100
AcDbLine
 10
9.01012
 20
-4.509254
 30
0.0
 11
8.262007999999999
 21
-4.779676999999999
 31
0.0
  0
LINE
  5
1BC
330
4B9
100
AcDbEntity
  8
1
100
AcDbLine
 10
8.262007999999999
 20
-4.779676999999999
 30
0.0
 11
7.510599
 21
-5.048169
 31
0.0
  0
LINE
  5
1BD
330
4B9
100
AcDbEntity
  8
1
100
AcDbLine
 10
7.510599
 20
-5.048169
 30
0.0
 11
6.75583
 21
-5.314741
 31
0.0
  0
LINE
  5
1BE
330
4B9
100
AcDbEntity
  8
1
100
AcDbLine
 10
6.75583
 20
-5.314741
 30
0.0
 11
5.997762999999999
 21
-5.579382999999999
 31
0.0
  0
LINE
  5
1BF
330
4B9
100
AcDbEntity
  8
1
100
AcDbLine
 10
5.997762999999999
 20
-5.579382999999999
 30
0.0
 11
5.238012
 21
-5.841505
 31
0.0
  0
LINE
  5
1C0
330
4B9
100
AcDbEntity
  8
1
100
AcDbLine
 10
5.238012
 20
-5.841505
 30
0.0
 11
4.477113
 21
-6.100909999999999
 31
0.0
  0
LINE
  5
1C1
330
4B9
100
AcDbEntity
  8
1
100
AcDbLine
 10
4.477113
 20
-6.100909999999999
 30
0.0
 11
3.71453
 21
-6.357794999999999
 31
0.0
  0
LINE
  5
1C2
330
4B9
100
AcDbEntity
  8
1
100
AcDbLine
 10
3.71453
 20
-6.357794999999999
 30
0.0
 11
2.950262999999999
 21
-6.612161
 31
0.0
  0
LINE
  5
1C3
330
4B9
100
AcDbEntity
  8
1
100
AcDbLine
 10
9.964089999999998
 20
-6.848789
 30
0.0
 11
9.964089999999998
 21
-7.19707
 31
0.0
  0
LINE
  5
1C4
330
4B9
100
AcDbEntity
  8
1
100
AcDbLine
 10
8.611062999999999
 20
-4.748029999999999
 30
0.0
 11
8.625922
 21
-4.856036
 31
0.0
  0
LINE
  5
1C5
330
4B9
100
AcDbEntity
  8
1
100
AcDbLine
 10
8.625922
 20
-4.856036
 30
0.0
 11
8.645412
 21
-4.963458999999999
 31
0.0
  0
LINE
  5
1C6
330
4B9
100
AcDbEntity
  8
1
100
AcDbLine
 10
8.645412
 20
-4.963458999999999
 30
0.0
 11
8.669534999999999
 21
-5.070319999999999
 31
0.0
  0
LINE
  5
1C7
330
4B9
100
AcDbEntity
  8
1
100
AcDbLine
 10
8.669534999999999
 20
-5.070319999999999
 30
0.0
 11
8.698199
 21
-5.176733999999999
 31
0.0
  0
LINE
  5
1C8
330
4B9
100
AcDbEntity
  8
1
100
AcDbLine
 10
8.698199
 20
-5.176733999999999
 30
0.0
 11
8.731494999999998
 21
-5.282624
 31
0.0
  0
LINE
  5
1C9
330
4B9
100
AcDbEntity
  8
1
100
AcDbLine
 10
8.731494999999998
 20
-5.282624
 30
0.0
 11
8.769693
 21
-5.38773
 31
0.0
  0
LINE
  5
1CA
330
4B9
100
AcDbEntity
  8
1
100
AcDbLine
 10
8.769693
 20
-5.38773
 30
0.0
 11
8.812863999999999
 21
-5.492129
 31
0.0
  0
LINE
  5
1CB
330
4B9
100
AcDbEntity
  8
1
100
AcDbLine
 10
8.812863999999999
 20
-5.492129
 30
0.0
 11
8.860936999999999
 21
-5.595788999999999
 31
0.0
  0
LINE
  5
1CC
330
4B9
100
AcDbEntity
  8
1
100
AcDbLine
 10
8.860936999999999
 20
-5.595788999999999
 30
0.0
 11
8.913975999999999
 21
-5.698297
 31
0.0
  0
LINE
  5
1CD
330
4B9
100
AcDbEntity
  8
1
100
AcDbLine
 10
8.913975999999999
 20
-5.698297
 30
0.0
 11
8.971944
 21
-5.799548
 31
0.0
  0
LINE
  5
1CE
330
4B9
100
AcDbEntity
  8
1
100
AcDbLine
 10
8.971944
 20
-5.799548
 30
0.0
 11
9.034877999999999
 21
-5.899701
 31
0.0
  0
LINE
  5
1CF
330
4B9
100
AcDbEntity
  8
1
100
AcDbLine
 10
9.034877999999999
 20
-5.899701
 30
0.0
 11
9.102950999999999
 21
-5.998727999999999
 31
0.0
  0
LINE
  5
1D0
330
4B9
100
AcDbEntity
  8
1
100
AcDbLine
 10
9.102950999999999
 20
-5.998727999999999
 30
0.0
 11
9.176031
 21
-6.096544
 31
0.0
  0
LINE
  5
1D1
330
4B9
100
AcDbEntity
  8
1
100
AcDbLine
 10
9.176031
 20
-6.096544
 30
0.0
 11
9.254251
 21
-6.193289
 31
0.0
  0
LINE
  5
1D2
330
4B9
100
AcDbEntity
  8
1
100
AcDbLine
 10
9.254251
 20
-6.193289
 30
0.0
 11
9.338179
 21
-6.289273999999999
 31
0.0
  0
LINE
  5
1D3
330
4B9
100
AcDbEntity
  8
1
100
AcDbLine
 10
9.338179
 20
-6.289273999999999
 30
0.0
 11
9.427953999999999
 21
-6.384713999999999
 31
0.0
  0
LINE
  5
1D4
330
4B9
100
AcDbEntity
  8
1
100
AcDbLine
 10
9.427953999999999
 20
-6.384713999999999
 30
0.0
 11
9.523436999999999
 21
-6.479443999999999
 31
0.0
  0
LINE
  5
1D5
330
4B9
100
AcDbEntity
  8
1
100
AcDbLine
 10
9.523436999999999
 20
-6.479443999999999
 30
0.0
 11
9.624776999999999
 21
-6.573217999999998
 31
0.0
  0
LINE
  5
1D6
330
4B9
100
AcDbEntity
  8
1
100
AcDbLine
 10
9.624776999999999
 20
-6.573217999999998
 30
0.0
 11
9.732025
 21
-6.665972
 31
0.0
  0
LINE
  5
1D7
330
4B9
100
AcDbEntity
  8
1
100
AcDbLine
 10
9.732025
 20
-6.665972
 30
0.0
 11
9.845129
 21
-6.757821
 31
0.0
  0
LINE
  5
1D8
330
4B9
100
AcDbEntity
  8
1
100
AcDbLine
 10
9.845129
 20
-6.757821
 30
0.0
 11
9.964089999999998
 21
-6.848789
 31
0.0
  0
LINE
  5
1D9
330
4B9
100
AcDbEntity
  8
1
100
AcDbLine
 10
8.391548
 20
-4.804224999999999
 30
0.0
 11
8.391548
 21
-4.732851999999999
 31
0.0
  0
LINE
  5
1DA
330
4B9
100
AcDbEntity
  8
1
100
AcDbLine
 10
9.164089999999999
 20
-7.373213999999999
 30
0.0
 11
9.077436999999999
 21
-7.099092999999998
 31
0.0
  0
LINE
  5
1DB
330
4B9
100
AcDbEntity
  8
1
100
AcDbLine
 10
9.077436999999999
 20
-7.099092999999998
 30
0.0
 11
8.990949999999999
 21
-6.822016
 31
0.0
  0
LINE
  5
1DC
330
4B9
100
AcDbEntity
  8
1
100
AcDbLine
 10
8.990949999999999
 20
-6.822016
 30
0.0
 11
8.904628999999999
 21
-6.541983
 31
0.0
  0
LINE
  5
1DD
330
4B9
100
AcDbEntity
  8
1
100
AcDbLine
 10
8.904628999999999
 20
-6.541983
 30
0.0
 11
8.818424999999999
 21
-6.258826999999999
 31
0.0
  0
LINE
  5
1DE
330
4B9
100
AcDbEntity
  8
1
100
AcDbLine
 10
8.818424999999999
 20
-6.258826999999999
 30
0.0
 11
8.732388
 21
-5.972716
 31
0.0
  0
LINE
  5
1DF
330
4B9
100
AcDbEntity
  8
1
100
AcDbLine
 10
8.732388
 20
-5.972716
 30
0.0
 11
8.646665999999999
 21
-5.684150999999999
 31
0.0
  0
LINE
  5
1E0
330
4B9
100
AcDbEntity
  8
1
100
AcDbLine
 10
8.646665999999999
 20
-5.684150999999999
 30
0.0
 11
8.561310999999999
 21
-5.393297
 31
0.0
  0
LINE
  5
1E1
330
4B9
100
AcDbEntity
  8
1
100
AcDbLine
 10
8.561310999999999
 20
-5.393297
 30
0.0
 11
8.476271
 21
-5.099988999999999
 31
0.0
  0
LINE
  5
1E2
330
4B9
100
AcDbEntity
  8
1
100
AcDbLine
 10
8.476271
 20
-5.099988999999999
 30
0.0
 11
8.391548
 21
-4.804224999999999
 31
0.0
  0
LINE
  5
1E3
330
4B9
100
AcDbEntity
  8
1
100
AcDbLine
 10
8.391548
 20
-4.804224999999999
 30
0.0
 11
8.611062999999999
 21
-4.748029999999999
 31
0.0
  0
LINE
  5
1E4
330
4B9
100
AcDbEntity
  8
1
100
AcDbLine
 10
9.164089999999999
 20
-7.373213999999999
 30
0.0
 11
9.295919999999998
 21
-7.344425
 31
0.0
  0
LINE
  5
1E5
330
4B9
100
AcDbEntity
  8
1
100
AcDbLine
 10
9.295919999999998
 20
-7.344425
 30
0.0
 11
9.964089999999998
 21
-7.19707
 31
0.0
  0
LINE
  5
1E6
330
4B9
100
AcDbEntity
  8
1
100
AcDbLine
 10
9.164089999999999
 20
4.55461
 30
0.0
 11
8.468802
 21
6.716661
 31
0.0
  0
LINE
  5
1E7
330
4B9
100
AcDbEntity
  8
1
100
AcDbLine
 10
9.164089999999999
 20
6.449101
 30
0.0
 11
9.164089999999999
 21
4.55461
 31
0.0
  0
LINE
  5
1E8
330
4B9
100
AcDbEntity
  8
1
100
AcDbLine
 10
5.725698
 20
0.723513
 30
0.0
 11
5.582533999999999
 21
0.9445899999999999
 31
0.0
  0
LINE
  5
1E9
330
4B9
100
AcDbEntity
  8
1
100
AcDbLine
 10
5.582533999999999
 20
0.9445899999999999
 30
0.0
 11
5.440860999999999
 21
1.172415999999999
 31
0.0
  0
LINE
  5
1EA
330
4B9
100
AcDbEntity
  8
1
100
AcDbLine
 10
5.440860999999999
 20
1.172415999999999
 30
0.0
 11
5.30068
 21
1.406895999999999
 31
0.0
  0
LINE
  5
1EB
330
4B9
100
AcDbEntity
  8
1
100
AcDbLine
 10
5.30068
 20
1.406895999999999
 30
0.0
 11
5.161725999999999
 21
1.648424
 31
0.0
  0
LINE
  5
1EC
330
4B9
100
AcDbEntity
  8
1
100
AcDbLine
 10
5.161725999999999
 20
1.648424
 30
0.0
 11
5.024262999999999
 21
1.896378999999999
 31
0.0
  0
LINE
  5
1ED
330
4B9
100
AcDbEntity
  8
1
100
AcDbLine
 10
5.024262999999999
 20
1.896378999999999
 30
0.0
 11
4.889078999999999
 21
2.149135999999999
 31
0.0
  0
LINE
  5
1EE
330
4B9
100
AcDbEntity
  8
1
100
AcDbLine
 10
4.889078999999999
 20
2.149135999999999
 30
0.0
 11
4.756287
 21
2.40654
 31
0.0
  0
LINE
  5
1EF
330
4B9
100
AcDbEntity
  8
1
100
AcDbLine
 10
4.756287
 20
2.40654
 30
0.0
 11
4.625773999999999
 21
2.66846
 31
0.0
  0
LINE
  5
1F0
330
4B9
100
AcDbEntity
  8
1
100
AcDbLine
 10
4.625773999999999
 20
2.66846
 30
0.0
 11
4.497994999999999
 21
2.933324999999999
 31
0.0
  0
LINE
  5
1F1
330
4B9
100
AcDbEntity
  8
1
100
AcDbLine
 10
4.497994999999999
 20
2.933324999999999
 30
0.0
 11
4.373024
 21
3.200924999999999
 31
0.0
  0
LINE
  5
1F2
330
4B9
100
AcDbEntity
  8
1
100
AcDbLine
 10
4.373024
 20
3.200924999999999
 30
0.0
 11
4.250785999999999
 21
3.471147
 31
0.0
  0
LINE
  5
1F3
330
4B9
100
AcDbEntity
  8
1
100
AcDbLine
 10
4.250785999999999
 20
3.471147
 30
0.0
 11
4.131507
 21
3.742582
 31
0.0
  0
LINE
  5
1F4
330
4B9
100
AcDbEntity
  8
1
100
AcDbLine
 10
4.131507
 20
3.742582
 30
0.0
 11
4.015213
 21
4.015044999999999
 31
0.0
  0
LINE
  5
1F5
330
4B9
100
AcDbEntity
  8
1
100
AcDbLine
 10
4.015213
 20
4.015044999999999
 30
0.0
 11
3.901877999999999
 21
4.288387999999999
 31
0.0
  0
LINE
  5
1F6
330
4B9
100
AcDbEntity
  8
1
100
AcDbLine
 10
3.901877999999999
 20
4.288387999999999
 30
0.0
 11
3.791655999999999
 21
4.561301
 31
0.0
  0
LINE
  5
1F7
330
4B9
100
AcDbEntity
  8
1
100
AcDbLine
 10
3.791655999999999
 20
4.561301
 30
0.0
 11
3.684505999999999
 21
4.833730999999999
 31
0.0
  0
LINE
  5
1F8
330
4B9
100
AcDbEntity
  8
1
100
AcDbLine
 10
3.684505999999999
 20
4.833730999999999
 30
0.0
 11
3.580469999999999
 21
5.105412
 31
0.0
  0
LINE
  5
1F9
330
4B9
100
AcDbEntity
  8
1
100
AcDbLine
 10
3.580469999999999
 20
5.105412
 30
0.0
 11
3.479820999999999
 21
5.374766
 31
0.0
  0
LINE
  5
1FA
330
4B9
100
AcDbEntity
  8
1
100
AcDbLine
 10
3.479820999999999
 20
5.374766
 30
0.0
 11
3.382555
 21
5.641687999999999
 31
0.0
  0
LINE
  5
1FB
330
4B9
100
AcDbEntity
  8
1
100
AcDbLine
 10
3.382555
 20
5.641687999999999
 30
0.0
 11
3.288676
 21
5.906030999999999
 31
0.0
  0
LINE
  5
1FC
330
4B9
100
AcDbEntity
  8
1
100
AcDbLine
 10
3.288676
 20
5.906030999999999
 30
0.0
 11
3.198479
 21
6.166243999999999
 31
0.0
  0
LINE
  5
1FD
330
4B9
100
AcDbEntity
  8
1
100
AcDbLine
 10
3.198479
 20
6.166243999999999
 30
0.0
 11
3.112058999999999
 21
6.421783999999999
 31
0.0
  0
LINE
  5
1FE
330
4B9
100
AcDbEntity
  8
1
100
AcDbLine
 10
3.112058999999999
 20
6.421783999999999
 30
0.0
 11
3.029320999999999
 21
6.673058999999999
 31
0.0
  0
LINE
  5
1FF
330
4B9
100
AcDbEntity
  8
1
100
AcDbLine
 10
3.029320999999999
 20
6.673058999999999
 30
0.0
 11
2.950262999999999
 21
6.920003999999999
 31
0.0
  0
LINE
  5
200
330
4B9
100
AcDbEntity
  8
1
100
AcDbLine
 10
7.328591
 20
0.56327
 30
0.0
 11
7.181299
 21
0.5587489999999999
 31
0.0
  0
LINE
  5
201
330
4B9
100
AcDbEntity
  8
1
100
AcDbLine
 10
7.181299
 20
0.5587489999999999
 30
0.0
 11
7.036116999999999
 21
0.557495
 31
0.0
  0
LINE
  5
202
330
4B9
100
AcDbEntity
  8
1
100
AcDbLine
 10
7.036116999999999
 20
0.557495
 30
0.0
 11
6.893166
 21
0.5595090000000001
 31
0.0
  0
LINE
  5
203
330
4B9
100
AcDbEntity
  8
1
100
AcDbLine
 10
6.893166
 20
0.5595090000000001
 30
0.0
 11
6.752561999999999
 21
0.564788
 31
0.0
  0
LINE
  5
204
330
4B9
100
AcDbEntity
  8
1
100
AcDbLine
 10
6.752561999999999
 20
0.564788
 30
0.0
 11
6.614422
 21
0.5733290000000001
 31
0.0
  0
LINE
  5
205
330
4B9
100
AcDbEntity
  8
1
100
AcDbLine
 10
6.614422
 20
0.5733290000000001
 30
0.0
 11
6.47886
 21
0.5851250000000001
 31
0.0
  0
LINE
  5
206
330
4B9
100
AcDbEntity
  8
1
100
AcDbLine
 10
6.47886
 20
0.5851250000000001
 30
0.0
 11
6.345985999999999
 21
0.600165
 31
0.0
  0
LINE
  5
207
330
4B9
100
AcDbEntity
  8
1
100
AcDbLine
 10
6.345985999999999
 20
0.600165
 30
0.0
 11
6.215911
 21
0.6184380000000001
 31
0.0
  0
LINE
  5
208
330
4B9
100
AcDbEntity
  8
1
100
AcDbLine
 10
6.215911
 20
0.6184380000000001
 30
0.0
 11
6.088741
 21
0.639928
 31
0.0
  0
LINE
  5
209
330
4B9
100
AcDbEntity
  8
1
100
AcDbLine
 10
6.088741
 20
0.639928
 30
0.0
 11
5.964580999999999
 21
0.664617
 31
0.0
  0
LINE
  5
20A
330
4B9
100
AcDbEntity
  8
1
100
AcDbLine
 10
5.964580999999999
 20
0.664617
 30
0.0
 11
5.843534
 21
0.692487
 31
0.0
  0
LINE
  5
20B
330
4B9
100
AcDbEntity
  8
1
100
AcDbLine
 10
5.843534
 20
0.692487
 30
0.0
 11
5.725698
 21
0.723513
 31
0.0
  0
LINE
  5
20C
330
4B9
100
AcDbEntity
  8
1
100
AcDbLine
 10
10.246061
 20
0.4158350000000001
 30
0.0
 11
10.095546
 21
0.376959
 31
0.0
  0
LINE
  5
20D
330
4B9
100
AcDbEntity
  8
1
100
AcDbLine
 10
10.095546
 20
0.376959
 30
0.0
 11
9.944072999999999
 21
0.342327
 31
0.0
  0
LINE
  5
20E
330
4B9
100
AcDbEntity
  8
1
100
AcDbLine
 10
9.944072999999999
 20
0.342327
 30
0.0
 11
9.791641999999999
 21
0.311939
 31
0.0
  0
LINE
  5
20F
330
4B9
100
AcDbEntity
  8
1
100
AcDbLine
 10
9.791641999999999
 20
0.311939
 30
0.0
 11
9.638260999999999
 21
0.285874
 31
0.0
  0
LINE
  5
210
330
4B9
100
AcDbEntity
  8
1
100
AcDbLine
 10
9.638260999999999
 20
0.285874
 30
0.0
 11
9.483921
 21
0.264054
 31
0.0
  0
LINE
  5
211
330
4B9
100
AcDbEntity
  8
1
100
AcDbLine
 10
9.483921
 20
0.264054
 30
0.0
 11
9.328602
 21
0.246244
 31
0.0
  0
LINE
  5
212
330
4B9
100
AcDbEntity
  8
1
100
AcDbLine
 10
9.328602
 20
0.246244
 30
0.0
 11
9.172323999999999
 21
0.232435
 31
0.0
  0
LINE
  5
213
330
4B9
100
AcDbEntity
  8
1
100
AcDbLine
 10
9.172323999999999
 20
0.232435
 30
0.0
 11
9.015064999999999
 21
0.222635
 31
0.0
  0
LINE
  5
214
330
4B9
100
AcDbEntity
  8
1
100
AcDbLine
 10
9.015064999999999
 20
0.222635
 30
0.0
 11
8.856742
 21
0.216623
 31
0.0
  0
LINE
  5
215
330
4B9
100
AcDbEntity
  8
1
100
AcDbLine
 10
8.856742
 20
0.216623
 30
0.0
 11
8.697461
 21
0.214378
 31
0.0
  0
LINE
  5
216
330
4B9
100
AcDbEntity
  8
1
100
AcDbLine
 10
8.697461
 20
0.214378
 30
0.0
 11
8.537116000000001
 21
0.215923
 31
0.0
  0
LINE
  5
217
330
4B9
100
AcDbEntity
  8
1
100
AcDbLine
 10
8.537116000000001
 20
0.215923
 30
0.0
 11
8.375291999999999
 21
0.2211
 31
0.0
  0
LINE
  5
218
330
4B9
100
AcDbEntity
  8
1
100
AcDbLine
 10
8.375291999999999
 20
0.2211
 30
0.0
 11
8.211937999999999
 21
0.229886
 31
0.0
  0
LINE
  5
219
330
4B9
100
AcDbEntity
  8
1
100
AcDbLine
 10
8.211937999999999
 20
0.229886
 30
0.0
 11
8.047107
 21
0.242305
 31
0.0
  0
LINE
  5
21A
330
4B9
100
AcDbEntity
  8
1
100
AcDbLine
 10
8.047107
 20
0.242305
 30
0.0
 11
7.880546
 21
0.258274
 31
0.0
  0
LINE
  5
21B
330
4B9
100
AcDbEntity
  8
1
100
AcDbLine
 10
7.880546
 20
0.258274
 30
0.0
 11
7.712222999999999
 21
0.277786
 31
0.0
  0
LINE
  5
21C
330
4B9
100
AcDbEntity
  8
1
100
AcDbLine
 10
7.712222999999999
 20
0.277786
 30
0.0
 11
7.542171
 21
0.300848
 31
0.0
  0
LINE
  5
21D
330
4B9
100
AcDbEntity
  8
1
100
AcDbLine
 10
7.542171
 20
0.300848
 30
0.0
 11
7.370233999999999
 21
0.3274
 31
0.0
  0
LINE
  5
21E
330
4B9
100
AcDbEntity
  8
1
100
AcDbLine
 10
7.370233999999999
 20
0.3274
 30
0.0
 11
7.196463999999999
 21
0.357425
 31
0.0
  0
LINE
  5
21F
330
4B9
100
AcDbEntity
  8
1
100
AcDbLine
 10
7.196463999999999
 20
0.357425
 30
0.0
 11
7.020808999999999
 21
0.390938
 31
0.0
  0
LINE
  5
220
330
4B9
100
AcDbEntity
  8
1
100
AcDbLine
 10
7.020808999999999
 20
0.390938
 30
0.0
 11
6.84296
 21
0.4279370000000001
 31
0.0
  0
LINE
  5
221
330
4B9
100
AcDbEntity
  8
1
100
AcDbLine
 10
6.84296
 20
0.4279370000000001
 30
0.0
 11
6.662942
 21
0.468399
 31
0.0
  0
LINE
  5
222
330
4B9
100
AcDbEntity
  8
1
100
AcDbLine
 10
6.662942
 20
0.468399
 30
0.0
 11
6.480729
 21
0.5123439999999999
 31
0.0
  0
LINE
  5
223
330
4B9
100
AcDbEntity
  8
1
100
AcDbLine
 10
6.480729
 20
0.5123439999999999
 30
0.0
 11
6.295937999999999
 21
0.5598250000000001
 31
0.0
  0
LINE
  5
224
330
4B9
100
AcDbEntity
  8
1
100
AcDbLine
 10
6.295937999999999
 20
0.5598250000000001
 30
0.0
 11
6.108437
 21
0.6108570000000001
 31
0.0
  0
LINE
  5
225
330
4B9
100
AcDbEntity
  8
1
100
AcDbLine
 10
6.108437
 20
0.6108570000000001
 30
0.0
 11
5.918357
 21
0.6654210000000001
 31
0.0
  0
LINE
  5
226
330
4B9
100
AcDbEntity
  8
1
100
AcDbLine
 10
5.918357
 20
0.6654210000000001
 30
0.0
 11
5.725698
 21
0.723513
 31
0.0
  0
LINE
  5
227
330
4B9
100
AcDbEntity
  8
1
100
AcDbLine
 10
9.457487
 20
1.923339999999999
 30
0.0
 11
9.457065
 21
1.899850999999999
 31
0.0
  0
LINE
  5
228
330
4B9
100
AcDbEntity
  8
1
100
AcDbLine
 10
9.457065
 20
1.899850999999999
 30
0.0
 11
9.455728
 21
1.875638
 31
0.0
  0
LINE
  5
229
330
4B9
100
AcDbEntity
  8
1
100
AcDbLine
 10
9.455728
 20
1.875638
 30
0.0
 11
9.453477000000001
 21
1.850704
 31
0.0
  0
LINE
  5
22A
330
4B9
100
AcDbEntity
  8
1
100
AcDbLine
 10
9.453477000000001
 20
1.850704
 30
0.0
 11
9.450333
 21
1.825050999999999
 31
0.0
  0
LINE
  5
22B
330
4B9
100
AcDbEntity
  8
1
100
AcDbLine
 10
9.450333
 20
1.825050999999999
 30
0.0
 11
9.446274
 21
1.798681999999999
 31
0.0
  0
LINE
  5
22C
330
4B9
100
AcDbEntity
  8
1
100
AcDbLine
 10
9.446274
 20
1.798681999999999
 30
0.0
 11
9.441236999999999
 21
1.771606
 31
0.0
  0
LINE
  5
22D
330
4B9
100
AcDbEntity
  8
1
100
AcDbLine
 10
9.441236999999999
 20
1.771606
 30
0.0
 11
9.435219
 21
1.743825999999999
 31
0.0
  0
LINE
  5
22E
330
4B9
100
AcDbEntity
  8
1
100
AcDbLine
 10
9.435219
 20
1.743825999999999
 30
0.0
 11
9.428221
 21
1.715345
 31
0.0
  0
LINE
  5
22F
330
4B9
100
AcDbEntity
  8
1
100
AcDbLine
 10
9.428221
 20
1.715345
 30
0.0
 11
9.420183999999999
 21
1.686177999999999
 31
0.0
  0
LINE
  5
230
330
4B9
100
AcDbEntity
  8
1
100
AcDbLine
 10
9.420183999999999
 20
1.686177999999999
 30
0.0
 11
9.411127
 21
1.656375999999999
 31
0.0
  0
LINE
  5
231
330
4B9
100
AcDbEntity
  8
1
100
AcDbLine
 10
9.411127
 20
1.656375999999999
 30
0.0
 11
9.401030999999999
 21
1.625898
 31
0.0
  0
LINE
  5
232
330
4B9
100
AcDbEntity
  8
1
100
AcDbLine
 10
9.401030999999999
 20
1.625898
 30
0.0
 11
9.38977
 21
1.594618
 31
0.0
  0
LINE
  5
233
330
4B9
100
AcDbEntity
  8
1
100
AcDbLine
 10
9.38977
 20
1.594618
 30
0.0
 11
9.377342999999999
 21
1.562516
 31
0.0
  0
LINE
  5
234
330
4B9
100
AcDbEntity
  8
1
100
AcDbLine
 10
9.377342999999999
 20
1.562516
 30
0.0
 11
9.363752999999999
 21
1.529629999999999
 31
0.0
  0
LINE
  5
235
330
4B9
100
AcDbEntity
  8
1
100
AcDbLine
 10
9.363752999999999
 20
1.529629999999999
 30
0.0
 11
9.348867999999999
 21
1.495928
 31
0.0
  0
LINE
  5
236
330
4B9
100
AcDbEntity
  8
1
100
AcDbLine
 10
9.348867999999999
 20
1.495928
 30
0.0
 11
9.332689999999999
 21
1.461402999999999
 31
0.0
  0
LINE
  5
237
330
4B9
100
AcDbEntity
  8
1
100
AcDbLine
 10
9.332689999999999
 20
1.461402999999999
 30
0.0
 11
9.31522
 21
1.426083999999999
 31
0.0
  0
LINE
  5
238
330
4B9
100
AcDbEntity
  8
1
100
AcDbLine
 10
9.31522
 20
1.426083999999999
 30
0.0
 11
9.296332000000001
 21
1.389999999999999
 31
0.0
  0
LINE
  5
239
330
4B9
100
AcDbEntity
  8
1
100
AcDbLine
 10
9.296332000000001
 20
1.389999999999999
 30
0.0
 11
9.276047999999999
 21
1.353177999999999
 31
0.0
  0
LINE
  5
23A
330
4B9
100
AcDbEntity
  8
1
100
AcDbLine
 10
9.276047999999999
 20
1.353177999999999
 30
0.0
 11
9.254349000000001
 21
1.315620999999999
 31
0.0
  0
LINE
  5
23B
330
4B9
100
AcDbEntity
  8
1
100
AcDbLine
 10
9.254349000000001
 20
1.315620999999999
 30
0.0
 11
9.231053999999998
 21
1.277320999999999
 31
0.0
  0
LINE
  5
23C
330
4B9
100
AcDbEntity
  8
1
100
AcDbLine
 10
9.231053999999998
 20
1.277320999999999
 30
0.0
 11
9.206172999999999
 21
1.238279
 31
0.0
  0
LINE
  5
23D
330
4B9
100
AcDbEntity
  8
1
100
AcDbLine
 10
9.206172999999999
 20
1.238279
 30
0.0
 11
9.179702
 21
1.198533999999999
 31
0.0
  0
LINE
  5
23E
330
4B9
100
AcDbEntity
  8
1
100
AcDbLine
 10
9.179702
 20
1.198533999999999
 30
0.0
 11
9.151438999999999
 21
1.158144999999999
 31
0.0
  0
LINE
  5
23F
330
4B9
100
AcDbEntity
  8
1
100
AcDbLine
 10
9.151438999999999
 20
1.158144999999999
 30
0.0
 11
9.121321
 21
1.117152
 31
0.0
  0
LINE
  5
240
330
4B9
100
AcDbEntity
  8
1
100
AcDbLine
 10
9.121321
 20
1.117152
 30
0.0
 11
9.089422
 21
1.075566999999999
 31
0.0
  0
LINE
  5
241
330
4B9
100
AcDbEntity
  8
1
100
AcDbLine
 10
9.089422
 20
1.075566999999999
 30
0.0
 11
9.055747999999999
 21
1.033419
 31
0.0
  0
LINE
  5
242
330
4B9
100
AcDbEntity
  8
1
100
AcDbLine
 10
9.365244
 20
2.210174
 30
0.0
 11
9.376412
 21
2.195683
 31
0.0
  0
LINE
  5
243
330
4B9
100
AcDbEntity
  8
1
100
AcDbLine
 10
9.376412
 20
2.195683
 30
0.0
 11
9.386886999999999
 21
2.180649999999999
 31
0.0
  0
LINE
  5
244
330
4B9
100
AcDbEntity
  8
1
100
AcDbLine
 10
9.386886999999999
 20
2.180649999999999
 30
0.0
 11
9.396668
 21
2.165076
 31
0.0
  0
LINE
  5
245
330
4B9
100
AcDbEntity
  8
1
100
AcDbLine
 10
9.396668
 20
2.165076
 30
0.0
 11
9.405756
 21
2.148999
 31
0.0
  0
LINE
  5
246
330
4B9
100
AcDbEntity
  8
1
100
AcDbLine
 10
9.405756
 20
2.148999
 30
0.0
 11
9.414150999999998
 21
2.132379
 31
0.0
  0
LINE
  5
247
330
4B9
100
AcDbEntity
  8
1
100
AcDbLine
 10
9.414150999999998
 20
2.132379
 30
0.0
 11
9.421857000000001
 21
2.115099
 31
0.0
  0
LINE
  5
248
330
4B9
100
AcDbEntity
  8
1
100
AcDbLine
 10
9.421857000000001
 20
2.115099
 30
0.0
 11
9.428892999999998
 21
2.097172
 31
0.0
  0
LINE
  5
249
330
4B9
100
AcDbEntity
  8
1
100
AcDbLine
 10
9.428892999999998
 20
2.097172
 30
0.0
 11
9.435238999999999
 21
2.078581999999999
 31
0.0
  0
LINE
  5
24A
330
4B9
100
AcDbEntity
  8
1
100
AcDbLine
 10
9.435238999999999
 20
2.078581999999999
 30
0.0
 11
9.440839
 21
2.059168
 31
0.0
  0
LINE
  5
24B
330
4B9
100
AcDbEntity
  8
1
100
AcDbLine
 10
9.440839
 20
2.059168
 30
0.0
 11
9.445717
 21
2.038939
 31
0.0
  0
LINE
  5
24C
330
4B9
100
AcDbEntity
  8
1
100
AcDbLine
 10
9.445717
 20
2.038939
 30
0.0
 11
9.449849
 21
2.017884999999999
 31
0.0
  0
LINE
  5
24D
330
4B9
100
AcDbEntity
  8
1
100
AcDbLine
 10
9.449849
 20
2.017884999999999
 30
0.0
 11
9.453105
 21
1.995815999999999
 31
0.0
  0
LINE
  5
24E
330
4B9
100
AcDbEntity
  8
1
100
AcDbLine
 10
9.453105
 20
1.995815999999999
 30
0.0
 11
9.455441
 21
1.972670999999999
 31
0.0
  0
LINE
  5
24F
330
4B9
100
AcDbEntity
  8
1
100
AcDbLine
 10
9.455441
 20
1.972670999999999
 30
0.0
 11
9.456902000000001
 21
1.948513
 31
0.0
  0
LINE
  5
250
330
4B9
100
AcDbEntity
  8
1
100
AcDbLine
 10
9.456902000000001
 20
1.948513
 30
0.0
 11
9.457487
 21
1.923339999999999
 31
0.0
  0
LINE
  5
251
330
4B9
100
AcDbEntity
  8
1
100
AcDbLine
 10
8.931602999999999
 20
0.8939909999999999
 30
0.0
 11
8.915108999999999
 21
0.877073
 31
0.0
  0
LINE
  5
252
330
4B9
100
AcDbEntity
  8
1
100
AcDbLine
 10
8.915108999999999
 20
0.877073
 30
0.0
 11
8.885761
 21
0.8478139999999999
 31
0.0
  0
LINE
  5
253
330
4B9
100
AcDbEntity
  8
1
100
AcDbLine
 10
8.885761
 20
0.8478139999999999
 30
0.0
 11
8.856042
 21
0.819251
 31
0.0
  0
LINE
  5
254
330
4B9
100
AcDbEntity
  8
1
100
AcDbLine
 10
8.856042
 20
0.819251
 30
0.0
 11
8.825944999999999
 21
0.7913800000000001
 31
0.0
  0
LINE
  5
255
330
4B9
100
AcDbEntity
  8
1
100
AcDbLine
 10
8.825944999999999
 20
0.7913800000000001
 30
0.0
 11
8.795471
 21
0.7642050000000001
 31
0.0
  0
LINE
  5
256
330
4B9
100
AcDbEntity
  8
1
100
AcDbLine
 10
9.055747999999999
 20
1.033419
 30
0.0
 11
9.02846
 21
1.000831999999999
 31
0.0
  0
LINE
  5
257
330
4B9
100
AcDbEntity
  8
1
100
AcDbLine
 10
9.02846
 20
1.000831999999999
 30
0.0
 11
9.000752
 21
0.9689009999999999
 31
0.0
  0
LINE
  5
258
330
4B9
100
AcDbEntity
  8
1
100
AcDbLine
 10
9.000752
 20
0.9689009999999999
 30
0.0
 11
8.972627000000001
 21
0.93763
 31
0.0
  0
LINE
  5
259
330
4B9
100
AcDbEntity
  8
1
100
AcDbLine
 10
8.972627000000001
 20
0.93763
 30
0.0
 11
8.944074999999999
 21
0.907018
 31
0.0
  0
LINE
  5
25A
330
4B9
100
AcDbEntity
  8
1
100
AcDbLine
 10
8.944074999999999
 20
0.907018
 30
0.0
 11
8.931602999999999
 21
0.8939909999999999
 31
0.0
  0
LINE
  5
25B
330
4B9
100
AcDbEntity
  8
1
100
AcDbLine
 10
7.126276999999999
 20
1.821091
 30
0.0
 11
7.150413999999999
 21
1.852154
 31
0.0
  0
LINE
  5
25C
330
4B9
100
AcDbEntity
  8
1
100
AcDbLine
 10
7.150413999999999
 20
1.852154
 30
0.0
 11
7.176605999999999
 21
1.882879999999999
 31
0.0
  0
LINE
  5
25D
330
4B9
100
AcDbEntity
  8
1
100
AcDbLine
 10
7.176605999999999
 20
1.882879999999999
 30
0.0
 11
7.205772
 21
1.914227999999999
 31
0.0
  0
LINE
  5
25E
330
4B9
100
AcDbEntity
  8
1
100
AcDbLine
 10
7.328591
 20
0.56327
 30
0.0
 11
7.305813
 21
0.581811
 31
0.0
  0
LINE
  5
25F
330
4B9
100
AcDbEntity
  8
1
100
AcDbLine
 10
7.305813
 20
0.581811
 30
0.0
 11
7.283682
 21
0.6009790000000001
 31
0.0
  0
LINE
  5
260
330
4B9
100
AcDbEntity
  8
1
100
AcDbLine
 10
7.283682
 20
0.6009790000000001
 30
0.0
 11
7.262196
 21
0.6207690000000001
 31
0.0
  0
LINE
  5
261
330
4B9
100
AcDbEntity
  8
1
100
AcDbLine
 10
7.262196
 20
0.6207690000000001
 30
0.0
 11
7.241336999999999
 21
0.6412
 31
0.0
  0
LINE
  5
262
330
4B9
100
AcDbEntity
  8
1
100
AcDbLine
 10
7.241336999999999
 20
0.6412
 30
0.0
 11
7.221116999999999
 21
0.662241
 31
0.0
  0
LINE
  5
263
330
4B9
100
AcDbEntity
  8
1
100
AcDbLine
 10
7.221116999999999
 20
0.662241
 30
0.0
 11
7.201574
 21
0.683824
 31
0.0
  0
LINE
  5
264
330
4B9
100
AcDbEntity
  8
1
100
AcDbLine
 10
7.201574
 20
0.683824
 30
0.0
 11
7.182727
 21
0.7059140000000001
 31
0.0
  0
LINE
  5
265
330
4B9
100
AcDbEntity
  8
1
100
AcDbLine
 10
7.182727
 20
0.7059140000000001
 30
0.0
 11
7.164552
 21
0.7285370000000001
 31
0.0
  0
LINE
  5
266
330
4B9
100
AcDbEntity
  8
1
100
AcDbLine
 10
7.164552
 20
0.7285370000000001
 30
0.0
 11
7.147028999999998
 21
0.7517110000000001
 31
0.0
  0
LINE
  5
267
330
4B9
100
AcDbEntity
  8
1
100
AcDbLine
 10
7.147028999999998
 20
0.7517110000000001
 30
0.0
 11
7.130130999999999
 21
0.775462
 31
0.0
  0
LINE
  5
268
330
4B9
100
AcDbEntity
  8
1
100
AcDbLine
 10
7.130130999999999
 20
0.775462
 30
0.0
 11
7.113878999999998
 21
0.799759
 31
0.0
  0
LINE
  5
269
330
4B9
100
AcDbEntity
  8
1
100
AcDbLine
 10
7.113878999999998
 20
0.799759
 30
0.0
 11
7.09833
 21
0.8245499999999999
 31
0.0
  0
LINE
  5
26A
330
4B9
100
AcDbEntity
  8
1
100
AcDbLine
 10
7.09833
 20
0.8245499999999999
 30
0.0
 11
7.083483
 21
0.849826
 31
0.0
  0
LINE
  5
26B
330
4B9
100
AcDbEntity
  8
1
100
AcDbLine
 10
7.083483
 20
0.849826
 30
0.0
 11
7.069335
 21
0.8755879999999999
 31
0.0
  0
LINE
  5
26C
330
4B9
100
AcDbEntity
  8
1
100
AcDbLine
 10
7.069335
 20
0.8755879999999999
 30
0.0
 11
7.055933
 21
0.901804
 31
0.0
  0
LINE
  5
26D
330
4B9
100
AcDbEntity
  8
1
100
AcDbLine
 10
7.055933
 20
0.901804
 30
0.0
 11
7.043277999999999
 21
0.928453
 31
0.0
  0
LINE
  5
26E
330
4B9
100
AcDbEntity
  8
1
100
AcDbLine
 10
7.043277999999999
 20
0.928453
 30
0.0
 11
7.031367999999999
 21
0.9555520000000001
 31
0.0
  0
LINE
  5
26F
330
4B9
100
AcDbEntity
  8
1
100
AcDbLine
 10
7.031367999999999
 20
0.9555520000000001
 30
0.0
 11
7.020243999999999
 21
0.98312
 31
0.0
  0
LINE
  5
270
330
4B9
100
AcDbEntity
  8
1
100
AcDbLine
 10
7.020243999999999
 20
0.98312
 30
0.0
 11
7.009888
 21
1.011198
 31
0.0
  0
LINE
  5
271
330
4B9
100
AcDbEntity
  8
1
100
AcDbLine
 10
7.009888
 20
1.011198
 30
0.0
 11
7.000319
 21
1.039744
 31
0.0
  0
LINE
  5
272
330
4B9
100
AcDbEntity
  8
1
100
AcDbLine
 10
7.000319
 20
1.039744
 30
0.0
 11
6.991635999999999
 21
1.068648
 31
0.0
  0
LINE
  5
273
330
4B9
100
AcDbEntity
  8
1
100
AcDbLine
 10
6.991635999999999
 20
1.068648
 30
0.0
 11
6.983846999999999
 21
1.097887999999999
 31
0.0
  0
LINE
  5
274
330
4B9
100
AcDbEntity
  8
1
100
AcDbLine
 10
6.983846999999999
 20
1.097887999999999
 30
0.0
 11
6.976946
 21
1.127487999999999
 31
0.0
  0
LINE
  5
275
330
4B9
100
AcDbEntity
  8
1
100
AcDbLine
 10
6.976946
 20
1.127487999999999
 30
0.0
 11
6.971013
 21
1.157401
 31
0.0
  0
LINE
  5
276
330
4B9
100
AcDbEntity
  8
1
100
AcDbLine
 10
6.971013
 20
1.157401
 30
0.0
 11
6.966042999999999
 21
1.187629
 31
0.0
  0
LINE
  5
277
330
4B9
100
AcDbEntity
  8
1
100
AcDbLine
 10
6.966042999999999
 20
1.187629
 30
0.0
 11
6.962044
 21
1.218177
 31
0.0
  0
LINE
  5
278
330
4B9
100
AcDbEntity
  8
1
100
AcDbLine
 10
6.962044
 20
1.218177
 30
0.0
 11
6.959111999999999
 21
1.248998999999999
 31
0.0
  0
LINE
  5
279
330
4B9
100
AcDbEntity
  8
1
100
AcDbLine
 10
6.959111999999999
 20
1.248998999999999
 30
0.0
 11
6.957244999999999
 21
1.280130999999999
 31
0.0
  0
LINE
  5
27A
330
4B9
100
AcDbEntity
  8
1
100
AcDbLine
 10
6.957244999999999
 20
1.280130999999999
 30
0.0
 11
6.95645
 21
1.311545
 31
0.0
  0
LINE
  5
27B
330
4B9
100
AcDbEntity
  8
1
100
AcDbLine
 10
6.95645
 20
1.311545
 30
0.0
 11
6.95683
 21
1.343107999999999
 31
0.0
  0
LINE
  5
27C
330
4B9
100
AcDbEntity
  8
1
100
AcDbLine
 10
6.95683
 20
1.343107999999999
 30
0.0
 11
6.958388
 21
1.374795999999999
 31
0.0
  0
LINE
  5
27D
330
4B9
100
AcDbEntity
  8
1
100
AcDbLine
 10
6.958388
 20
1.374795999999999
 30
0.0
 11
6.961128999999999
 21
1.406643
 31
0.0
  0
LINE
  5
27E
330
4B9
100
AcDbEntity
  8
1
100
AcDbLine
 10
6.961128999999999
 20
1.406643
 30
0.0
 11
6.965167
 21
1.438603999999999
 31
0.0
  0
LINE
  5
27F
330
4B9
100
AcDbEntity
  8
1
100
AcDbLine
 10
6.965167
 20
1.438603999999999
 30
0.0
 11
6.970511
 21
1.470725
 31
0.0
  0
LINE
  5
280
330
4B9
100
AcDbEntity
  8
1
100
AcDbLine
 10
6.970511
 20
1.470725
 30
0.0
 11
6.977161999999999
 21
1.502979
 31
0.0
  0
LINE
  5
281
330
4B9
100
AcDbEntity
  8
1
100
AcDbLine
 10
6.977161999999999
 20
1.502979
 30
0.0
 11
6.985224
 21
1.535207999999999
 31
0.0
  0
LINE
  5
282
330
4B9
100
AcDbEntity
  8
1
100
AcDbLine
 10
6.985224
 20
1.535207999999999
 30
0.0
 11
6.994700999999999
 21
1.567411
 31
0.0
  0
LINE
  5
283
330
4B9
100
AcDbEntity
  8
1
100
AcDbLine
 10
6.994700999999999
 20
1.567411
 30
0.0
 11
7.005600999999999
 21
1.599611
 31
0.0
  0
LINE
  5
284
330
4B9
100
AcDbEntity
  8
1
100
AcDbLine
 10
7.005600999999999
 20
1.599611
 30
0.0
 11
7.018032999999999
 21
1.631696999999999
 31
0.0
  0
LINE
  5
285
330
4B9
100
AcDbEntity
  8
1
100
AcDbLine
 10
7.018032999999999
 20
1.631696999999999
 30
0.0
 11
7.032007000000001
 21
1.663691999999999
 31
0.0
  0
LINE
  5
286
330
4B9
100
AcDbEntity
  8
1
100
AcDbLine
 10
7.032007000000001
 20
1.663691999999999
 30
0.0
 11
7.047528999999999
 21
1.695604
 31
0.0
  0
LINE
  5
287
330
4B9
100
AcDbEntity
  8
1
100
AcDbLine
 10
7.047528999999999
 20
1.695604
 30
0.0
 11
7.064697999999999
 21
1.727295999999999
 31
0.0
  0
LINE
  5
288
330
4B9
100
AcDbEntity
  8
1
100
AcDbLine
 10
7.064697999999999
 20
1.727295999999999
 30
0.0
 11
7.083553999999999
 21
1.758736999999999
 31
0.0
  0
LINE
  5
289
330
4B9
100
AcDbEntity
  8
1
100
AcDbLine
 10
7.083553999999999
 20
1.758736999999999
 30
0.0
 11
7.104077
 21
1.789995
 31
0.0
  0
LINE
  5
28A
330
4B9
100
AcDbEntity
  8
1
100
AcDbLine
 10
7.104077
 20
1.789995
 30
0.0
 11
7.126276999999999
 21
1.821091
 31
0.0
  0
LINE
  5
28B
330
4B9
100
AcDbEntity
  8
1
100
AcDbLine
 10
8.795471
 20
0.7642050000000001
 30
0.0
 11
8.781985999999999
 21
0.75562
 31
0.0
  0
LINE
  5
28C
330
4B9
100
AcDbEntity
  8
1
100
AcDbLine
 10
8.781985999999999
 20
0.75562
 30
0.0
 11
8.767036
 21
0.7467420000000001
 31
0.0
  0
LINE
  5
28D
330
4B9
100
AcDbEntity
  8
1
100
AcDbLine
 10
8.767036
 20
0.7467420000000001
 30
0.0
 11
8.750591
 21
0.737621
 31
0.0
  0
LINE
  5
28E
330
4B9
100
AcDbEntity
  8
1
100
AcDbLine
 10
8.750591
 20
0.737621
 30
0.0
 11
8.732603999999998
 21
0.728304
 31
0.0
  0
LINE
  5
28F
330
4B9
100
AcDbEntity
  8
1
100
AcDbLine
 10
8.732603999999998
 20
0.728304
 30
0.0
 11
8.713057
 21
0.718842
 31
0.0
  0
LINE
  5
290
330
4B9
100
AcDbEntity
  8
1
100
AcDbLine
 10
8.713057
 20
0.718842
 30
0.0
 11
8.691971
 21
0.709273
 31
0.0
  0
LINE
  5
291
330
4B9
100
AcDbEntity
  8
1
100
AcDbLine
 10
8.691971
 20
0.709273
 30
0.0
 11
8.669325999999999
 21
0.6996220000000001
 31
0.0
  0
LINE
  5
292
330
4B9
100
AcDbEntity
  8
1
100
AcDbLine
 10
8.669325999999999
 20
0.6996220000000001
 30
0.0
 11
8.645097999999999
 21
0.6899370000000001
 31
0.0
  0
LINE
  5
293
330
4B9
100
AcDbEntity
  8
1
100
AcDbLine
 10
8.645097999999999
 20
0.6899370000000001
 30
0.0
 11
8.619324
 21
0.6802690000000001
 31
0.0
  0
LINE
  5
294
330
4B9
100
AcDbEntity
  8
1
100
AcDbLine
 10
8.619324
 20
0.6802690000000001
 30
0.0
 11
8.592002
 21
0.670647
 31
0.0
  0
LINE
  5
295
330
4B9
100
AcDbEntity
  8
1
100
AcDbLine
 10
8.592002
 20
0.670647
 30
0.0
 11
8.563102999999999
 21
0.661097
 31
0.0
  0
LINE
  5
296
330
4B9
100
AcDbEntity
  8
1
100
AcDbLine
 10
8.563102999999999
 20
0.661097
 30
0.0
 11
8.532619999999999
 21
0.6516700000000001
 31
0.0
  0
LINE
  5
297
330
4B9
100
AcDbEntity
  8
1
100
AcDbLine
 10
8.532619999999999
 20
0.6516700000000001
 30
0.0
 11
8.500507999999999
 21
0.6423760000000001
 31
0.0
  0
LINE
  5
298
330
4B9
100
AcDbEntity
  8
1
100
AcDbLine
 10
8.500507999999999
 20
0.6423760000000001
 30
0.0
 11
8.466787
 21
0.6332600000000001
 31
0.0
  0
LINE
  5
299
330
4B9
100
AcDbEntity
  8
1
100
AcDbLine
 10
8.466787
 20
0.6332600000000001
 30
0.0
 11
8.431546
 21
0.6244069999999999
 31
0.0
  0
LINE
  5
29A
330
4B9
100
AcDbEntity
  8
1
100
AcDbLine
 10
8.431546
 20
0.6244069999999999
 30
0.0
 11
8.394769999999999
 21
0.615827
 31
0.0
  0
LINE
  5
29B
330
4B9
100
AcDbEntity
  8
1
100
AcDbLine
 10
8.394769999999999
 20
0.615827
 30
0.0
 11
8.356466000000001
 21
0.6075470000000001
 31
0.0
  0
LINE
  5
29C
330
4B9
100
AcDbEntity
  8
1
100
AcDbLine
 10
8.356466000000001
 20
0.6075470000000001
 30
0.0
 11
8.316762999999999
 21
0.599671
 31
0.0
  0
LINE
  5
29D
330
4B9
100
AcDbEntity
  8
1
100
AcDbLine
 10
8.316762999999999
 20
0.599671
 30
0.0
 11
8.275600999999999
 21
0.5921890000000002
 31
0.0
  0
LINE
  5
29E
330
4B9
100
AcDbEntity
  8
1
100
AcDbLine
 10
8.275600999999999
 20
0.5921890000000002
 30
0.0
 11
8.233048
 21
0.585128
 31
0.0
  0
LINE
  5
29F
330
4B9
100
AcDbEntity
  8
1
100
AcDbLine
 10
8.233048
 20
0.585128
 30
0.0
 11
8.189442999999998
 21
0.5786249999999999
 31
0.0
  0
LINE
  5
2A0
330
4B9
100
AcDbEntity
  8
1
100
AcDbLine
 10
8.189442999999998
 20
0.5786249999999999
 30
0.0
 11
8.144828
 21
0.5726640000000001
 31
0.0
  0
LINE
  5
2A1
330
4B9
100
AcDbEntity
  8
1
100
AcDbLine
 10
8.144828
 20
0.5726640000000001
 30
0.0
 11
8.099199999999999
 21
0.5672340000000001
 31
0.0
  0
LINE
  5
2A2
330
4B9
100
AcDbEntity
  8
1
100
AcDbLine
 10
8.099199999999999
 20
0.5672340000000001
 30
0.0
 11
8.052846999999999
 21
0.562446
 31
0.0
  0
LINE
  5
2A3
330
4B9
100
AcDbEntity
  8
1
100
AcDbLine
 10
8.052846999999999
 20
0.562446
 30
0.0
 11
8.005807
 21
0.5582760000000001
 31
0.0
  0
LINE
  5
2A4
330
4B9
100
AcDbEntity
  8
1
100
AcDbLine
 10
8.005807
 20
0.5582760000000001
 30
0.0
 11
7.958097
 21
0.55469
 31
0.0
  0
LINE
  5
2A5
330
4B9
100
AcDbEntity
  8
1
100
AcDbLine
 10
7.958097
 20
0.55469
 30
0.0
 11
7.909988
 21
0.5517800000000001
 31
0.0
  0
LINE
  5
2A6
330
4B9
100
AcDbEntity
  8
1
100
AcDbLine
 10
7.909988
 20
0.5517800000000001
 30
0.0
 11
7.861527
 21
0.5495100000000001
 31
0.0
  0
LINE
  5
2A7
330
4B9
100
AcDbEntity
  8
1
100
AcDbLine
 10
7.861527
 20
0.5495100000000001
 30
0.0
 11
7.812732
 21
0.5478390000000001
 31
0.0
  0
LINE
  5
2A8
330
4B9
100
AcDbEntity
  8
1
100
AcDbLine
 10
7.812732
 20
0.5478390000000001
 30
0.0
 11
7.76383
 21
0.5468260000000001
 31
0.0
  0
LINE
  5
2A9
330
4B9
100
AcDbEntity
  8
1
100
AcDbLine
 10
7.76383
 20
0.5468260000000001
 30
0.0
 11
7.714889
 21
0.546434
 31
0.0
  0
LINE
  5
2AA
330
4B9
100
AcDbEntity
  8
1
100
AcDbLine
 10
7.714889
 20
0.546434
 30
0.0
 11
7.665911
 21
0.5466140000000001
 31
0.0
  0
LINE
  5
2AB
330
4B9
100
AcDbEntity
  8
1
100
AcDbLine
 10
7.665911
 20
0.5466140000000001
 30
0.0
 11
7.617021
 21
0.547405
 31
0.0
  0
LINE
  5
2AC
330
4B9
100
AcDbEntity
  8
1
100
AcDbLine
 10
7.617021
 20
0.547405
 30
0.0
 11
7.568250999999999
 21
0.548766
 31
0.0
  0
LINE
  5
2AD
330
4B9
100
AcDbEntity
  8
1
100
AcDbLine
 10
7.568250999999999
 20
0.548766
 30
0.0
 11
7.519638999999999
 21
0.5506510000000001
 31
0.0
  0
LINE
  5
2AE
330
4B9
100
AcDbEntity
  8
1
100
AcDbLine
 10
7.519638999999999
 20
0.5506510000000001
 30
0.0
 11
7.471324
 21
0.553082
 31
0.0
  0
LINE
  5
2AF
330
4B9
100
AcDbEntity
  8
1
100
AcDbLine
 10
7.471324
 20
0.553082
 30
0.0
 11
7.423372
 21
0.556036
 31
0.0
  0
LINE
  5
2B0
330
4B9
100
AcDbEntity
  8
1
100
AcDbLine
 10
7.423372
 20
0.556036
 30
0.0
 11
7.375783999999999
 21
0.5594470000000001
 31
0.0
  0
LINE
  5
2B1
330
4B9
100
AcDbEntity
  8
1
100
AcDbLine
 10
7.375783999999999
 20
0.5594470000000001
 30
0.0
 11
7.328591
 21
0.56327
 31
0.0
  0
LINE
  5
2B2
330
4B9
100
AcDbEntity
  8
1
100
AcDbLine
 10
7.205772
 20
1.914227999999999
 30
0.0
 11
7.235217999999999
 21
1.943532
 31
0.0
  0
LINE
  5
2B3
330
4B9
100
AcDbEntity
  8
1
100
AcDbLine
 10
7.235217999999999
 20
1.943532
 30
0.0
 11
7.267663999999999
 21
1.973513999999999
 31
0.0
  0
LINE
  5
2B4
330
4B9
100
AcDbEntity
  8
1
100
AcDbLine
 10
7.267663999999999
 20
1.973513999999999
 30
0.0
 11
7.302192999999999
 21
2.002947
 31
0.0
  0
LINE
  5
2B5
330
4B9
100
AcDbEntity
  8
1
100
AcDbLine
 10
7.302192999999999
 20
2.002947
 30
0.0
 11
7.338847999999999
 21
2.031846999999999
 31
0.0
  0
LINE
  5
2B6
330
4B9
100
AcDbEntity
  8
1
100
AcDbLine
 10
7.338847999999999
 20
2.031846999999999
 30
0.0
 11
7.37761
 21
2.060254999999999
 31
0.0
  0
LINE
  5
2B7
330
4B9
100
AcDbEntity
  8
1
100
AcDbLine
 10
7.37761
 20
2.060254999999999
 30
0.0
 11
7.418371999999999
 21
2.087908
 31
0.0
  0
LINE
  5
2B8
330
4B9
100
AcDbEntity
  8
1
100
AcDbLine
 10
7.418371999999999
 20
2.087908
 30
0.0
 11
7.461138
 21
2.114805
 31
0.0
  0
LINE
  5
2B9
330
4B9
100
AcDbEntity
  8
1
100
AcDbLine
 10
7.461138
 20
2.114805
 30
0.0
 11
7.505921999999999
 21
2.141002999999999
 31
0.0
  0
LINE
  5
2BA
330
4B9
100
AcDbEntity
  8
1
100
AcDbLine
 10
7.505921999999999
 20
2.141002999999999
 30
0.0
 11
7.552636999999999
 21
2.166322
 31
0.0
  0
LINE
  5
2BB
330
4B9
100
AcDbEntity
  8
1
100
AcDbLine
 10
7.552636999999999
 20
2.166322
 30
0.0
 11
7.60128
 21
2.190777999999999
 31
0.0
  0
LINE
  5
2BC
330
4B9
100
AcDbEntity
  8
1
100
AcDbLine
 10
7.60128
 20
2.190777999999999
 30
0.0
 11
7.651867999999999
 21
2.214409999999999
 31
0.0
  0
LINE
  5
2BD
330
4B9
100
AcDbEntity
  8
1
100
AcDbLine
 10
7.651867999999999
 20
2.214409999999999
 30
0.0
 11
7.704332
 21
2.237067999999999
 31
0.0
  0
LINE
  5
2BE
330
4B9
100
AcDbEntity
  8
1
100
AcDbLine
 10
7.704332
 20
2.237067999999999
 30
0.0
 11
7.758846000000001
 21
2.258815999999999
 31
0.0
  0
LINE
  5
2BF
330
4B9
100
AcDbEntity
  8
1
100
AcDbLine
 10
7.758846000000001
 20
2.258815999999999
 30
0.0
 11
7.815244999999999
 21
2.279644999999999
 31
0.0
  0
LINE
  5
2C0
330
4B9
100
AcDbEntity
  8
1
100
AcDbLine
 10
7.815244999999999
 20
2.279644999999999
 30
0.0
 11
7.872955
 21
2.299277
 31
0.0
  0
LINE
  5
2C1
330
4B9
100
AcDbEntity
  8
1
100
AcDbLine
 10
7.872955
 20
2.299277
 30
0.0
 11
7.932141999999999
 21
2.317695999999999
 31
0.0
  0
LINE
  5
2C2
330
4B9
100
AcDbEntity
  8
1
100
AcDbLine
 10
7.932141999999999
 20
2.317695999999999
 30
0.0
 11
7.992633999999999
 21
2.334943999999999
 31
0.0
  0
LINE
  5
2C3
330
4B9
100
AcDbEntity
  8
1
100
AcDbLine
 10
7.992633999999999
 20
2.334943999999999
 30
0.0
 11
8.053328
 21
2.350783
 31
0.0
  0
LINE
  5
2C4
330
4B9
100
AcDbEntity
  8
1
100
AcDbLine
 10
8.053328
 20
2.350783
 30
0.0
 11
8.114163000000001
 21
2.365104
 31
0.0
  0
LINE
  5
2C5
330
4B9
100
AcDbEntity
  8
1
100
AcDbLine
 10
8.114163000000001
 20
2.365104
 30
0.0
 11
8.175175999999998
 21
2.377987
 31
0.0
  0
LINE
  5
2C6
330
4B9
100
AcDbEntity
  8
1
100
AcDbLine
 10
8.175175999999998
 20
2.377987
 30
0.0
 11
8.235400999999999
 21
2.389442999999999
 31
0.0
  0
LINE
  5
2C7
330
4B9
100
AcDbEntity
  8
1
100
AcDbLine
 10
8.235400999999999
 20
2.389442999999999
 30
0.0
 11
8.294745999999999
 21
2.399370999999999
 31
0.0
  0
LINE
  5
2C8
330
4B9
100
AcDbEntity
  8
1
100
AcDbLine
 10
8.294745999999999
 20
2.399370999999999
 30
0.0
 11
8.353274
 21
2.407806
 31
0.0
  0
LINE
  5
2C9
330
4B9
100
AcDbEntity
  8
1
100
AcDbLine
 10
8.353274
 20
2.407806
 30
0.0
 11
8.410232
 21
2.414919999999999
 31
0.0
  0
LINE
  5
2CA
330
4B9
100
AcDbEntity
  8
1
100
AcDbLine
 10
8.410232
 20
2.414919999999999
 30
0.0
 11
8.465486999999999
 21
2.420634999999999
 31
0.0
  0
LINE
  5
2CB
330
4B9
100
AcDbEntity
  8
1
100
AcDbLine
 10
8.465486999999999
 20
2.420634999999999
 30
0.0
 11
8.519146
 21
2.424946999999999
 31
0.0
  0
LINE
  5
2CC
330
4B9
100
AcDbEntity
  8
1
100
AcDbLine
 10
8.519146
 20
2.424946999999999
 30
0.0
 11
8.570821999999999
 21
2.428128
 31
0.0
  0
LINE
  5
2CD
330
4B9
100
AcDbEntity
  8
1
100
AcDbLine
 10
8.570821999999999
 20
2.428128
 30
0.0
 11
8.620321
 21
2.430142
 31
0.0
  0
LINE
  5
2CE
330
4B9
100
AcDbEntity
  8
1
100
AcDbLine
 10
8.620321
 20
2.430142
 30
0.0
 11
8.667817999999998
 21
2.430947
 31
0.0
  0
LINE
  5
2CF
330
4B9
100
AcDbEntity
  8
1
100
AcDbLine
 10
8.667817999999998
 20
2.430947
 30
0.0
 11
8.713485
 21
2.430811
 31
0.0
  0
LINE
  5
2D0
330
4B9
100
AcDbEntity
  8
1
100
AcDbLine
 10
8.713485
 20
2.430811
 30
0.0
 11
8.757277999999999
 21
2.429743
 31
0.0
  0
LINE
  5
2D1
330
4B9
100
AcDbEntity
  8
1
100
AcDbLine
 10
8.757277999999999
 20
2.429743
 30
0.0
 11
8.799228999999998
 21
2.427674999999999
 31
0.0
  0
LINE
  5
2D2
330
4B9
100
AcDbEntity
  8
1
100
AcDbLine
 10
8.799228999999998
 20
2.427674999999999
 30
0.0
 11
8.839634
 21
2.424779999999999
 31
0.0
  0
LINE
  5
2D3
330
4B9
100
AcDbEntity
  8
1
100
AcDbLine
 10
8.839634
 20
2.424779999999999
 30
0.0
 11
8.878529999999999
 21
2.421063999999999
 31
0.0
  0
LINE
  5
2D4
330
4B9
100
AcDbEntity
  8
1
100
AcDbLine
 10
8.878529999999999
 20
2.421063999999999
 30
0.0
 11
8.915872
 21
2.416477999999999
 31
0.0
  0
LINE
  5
2D5
330
4B9
100
AcDbEntity
  8
1
100
AcDbLine
 10
8.915872
 20
2.416477999999999
 30
0.0
 11
8.951836
 21
2.411119999999999
 31
0.0
  0
LINE
  5
2D6
330
4B9
100
AcDbEntity
  8
1
100
AcDbLine
 10
8.951836
 20
2.411119999999999
 30
0.0
 11
8.986508
 21
2.404965999999999
 31
0.0
  0
LINE
  5
2D7
330
4B9
100
AcDbEntity
  8
1
100
AcDbLine
 10
8.986508
 20
2.404965999999999
 30
0.0
 11
9.019797
 21
2.398009
 31
0.0
  0
LINE
  5
2D8
330
4B9
100
AcDbEntity
  8
1
100
AcDbLine
 10
9.019797
 20
2.398009
 30
0.0
 11
9.051614999999999
 21
2.390376999999999
 31
0.0
  0
LINE
  5
2D9
330
4B9
100
AcDbEntity
  8
1
100
AcDbLine
 10
9.051614999999999
 20
2.390376999999999
 30
0.0
 11
9.081908999999999
 21
2.38206
 31
0.0
  0
LINE
  5
2DA
330
4B9
100
AcDbEntity
  8
1
100
AcDbLine
 10
9.081908999999999
 20
2.38206
 30
0.0
 11
9.11073
 21
2.37304
 31
0.0
  0
LINE
  5
2DB
330
4B9
100
AcDbEntity
  8
1
100
AcDbLine
 10
9.11073
 20
2.37304
 30
0.0
 11
9.138135
 21
2.363433999999999
 31
0.0
  0
LINE
  5
2DC
330
4B9
100
AcDbEntity
  8
1
100
AcDbLine
 10
9.138135
 20
2.363433999999999
 30
0.0
 11
9.164101999999999
 21
2.353242999999999
 31
0.0
  0
LINE
  5
2DD
330
4B9
100
AcDbEntity
  8
1
100
AcDbLine
 10
9.164101999999999
 20
2.353242999999999
 30
0.0
 11
9.188653
 21
2.342442999999999
 31
0.0
  0
LINE
  5
2DE
330
4B9
100
AcDbEntity
  8
1
100
AcDbLine
 10
9.188653
 20
2.342442999999999
 30
0.0
 11
9.211918999999999
 21
2.331113999999999
 31
0.0
  0
LINE
  5
2DF
330
4B9
100
AcDbEntity
  8
1
100
AcDbLine
 10
9.211918999999999
 20
2.331113999999999
 30
0.0
 11
9.233943
 21
2.31922
 31
0.0
  0
LINE
  5
2E0
330
4B9
100
AcDbEntity
  8
1
100
AcDbLine
 10
9.233943
 20
2.31922
 30
0.0
 11
9.254682
 21
2.306780999999999
 31
0.0
  0
LINE
  5
2E1
330
4B9
100
AcDbEntity
  8
1
100
AcDbLine
 10
9.254682
 20
2.306780999999999
 30
0.0
 11
9.274143999999999
 21
2.293959999999999
 31
0.0
  0
LINE
  5
2E2
330
4B9
100
AcDbEntity
  8
1
100
AcDbLine
 10
9.274143999999999
 20
2.293959999999999
 30
0.0
 11
9.292289999999999
 21
2.280764
 31
0.0
  0
LINE
  5
2E3
330
4B9
100
AcDbEntity
  8
1
100
AcDbLine
 10
9.292289999999999
 20
2.280764
 30
0.0
 11
9.309158
 21
2.267174999999999
 31
0.0
  0
LINE
  5
2E4
330
4B9
100
AcDbEntity
  8
1
100
AcDbLine
 10
9.309158
 20
2.267174999999999
 30
0.0
 11
9.324875
 21
2.253312999999999
 31
0.0
  0
LINE
  5
2E5
330
4B9
100
AcDbEntity
  8
1
100
AcDbLine
 10
9.324875
 20
2.253312999999999
 30
0.0
 11
9.339482999999999
 21
2.239215
 31
0.0
  0
LINE
  5
2E6
330
4B9
100
AcDbEntity
  8
1
100
AcDbLine
 10
9.339482999999999
 20
2.239215
 30
0.0
 11
9.352938999999999
 21
2.224834999999999
 31
0.0
  0
LINE
  5
2E7
330
4B9
100
AcDbEntity
  8
1
100
AcDbLine
 10
9.352938999999999
 20
2.224834999999999
 30
0.0
 11
9.365244
 21
2.210174
 31
0.0
  0
LINE
  5
2E8
330
4B9
100
AcDbEntity
  8
1
100
AcDbLine
 10
9.745649999999999
 20
1.027272999999999
 30
0.0
 11
9.586565999999999
 21
0.9764089999999999
 31
0.0
  0
LINE
  5
2E9
330
4B9
100
AcDbEntity
  8
1
100
AcDbLine
 10
9.586565999999999
 20
0.9764089999999999
 30
0.0
 11
9.427605999999999
 21
0.9283049999999999
 31
0.0
  0
LINE
  5
2EA
330
4B9
100
AcDbEntity
  8
1
100
AcDbLine
 10
9.427605999999999
 20
0.9283049999999999
 30
0.0
 11
9.268893999999999
 21
0.8829969999999999
 31
0.0
  0
LINE
  5
2EB
330
4B9
100
AcDbEntity
  8
1
100
AcDbLine
 10
9.268893999999999
 20
0.8829969999999999
 30
0.0
 11
9.110552
 21
0.8405239999999999
 31
0.0
  0
LINE
  5
2EC
330
4B9
100
AcDbEntity
  8
1
100
AcDbLine
 10
9.110552
 20
0.8405239999999999
 30
0.0
 11
8.952702999999999
 21
0.8009169999999999
 31
0.0
  0
LINE
  5
2ED
330
4B9
100
AcDbEntity
  8
1
100
AcDbLine
 10
8.952702999999999
 20
0.8009169999999999
 30
0.0
 11
8.795471
 21
0.7642050000000001
 31
0.0
  0
LINE
  5
2EE
330
4B9
100
AcDbEntity
  8
1
100
AcDbLine
 10
10.246061
 20
11.922592
 30
0.0
 11
10.095546
 21
11.904141
 31
0.0
  0
LINE
  5
2EF
330
4B9
100
AcDbEntity
  8
1
100
AcDbLine
 10
10.095546
 20
11.904141
 30
0.0
 11
9.944072999999999
 21
11.887622
 31
0.0
  0
LINE
  5
2F0
330
4B9
100
AcDbEntity
  8
1
100
AcDbLine
 10
9.944072999999999
 20
11.887622
 30
0.0
 11
9.791641999999999
 21
11.873065
 31
0.0
  0
LINE
  5
2F1
330
4B9
100
AcDbEntity
  8
1
100
AcDbLine
 10
9.791641999999999
 20
11.873065
 30
0.0
 11
9.638260999999999
 21
11.86053
 31
0.0
  0
LINE
  5
2F2
330
4B9
100
AcDbEntity
  8
1
100
AcDbLine
 10
9.638260999999999
 20
11.86053
 30
0.0
 11
9.483921
 21
11.850005
 31
0.0
  0
LINE
  5
2F3
330
4B9
100
AcDbEntity
  8
1
100
AcDbLine
 10
9.483921
 20
11.850005
 30
0.0
 11
9.328602
 21
11.841391
 31
0.0
  0
LINE
  5
2F4
330
4B9
100
AcDbEntity
  8
1
100
AcDbLine
 10
9.328602
 20
11.841391
 30
0.0
 11
9.172323999999999
 21
11.834698
 31
0.0
  0
LINE
  5
2F5
330
4B9
100
AcDbEntity
  8
1
100
AcDbLine
 10
9.172323999999999
 20
11.834698
 30
0.0
 11
9.015064999999999
 21
11.82994
 31
0.0
  0
LINE
  5
2F6
330
4B9
100
AcDbEntity
  8
1
100
AcDbLine
 10
9.015064999999999
 20
11.82994
 30
0.0
 11
8.856742
 21
11.827019
 31
0.0
  0
LINE
  5
2F7
330
4B9
100
AcDbEntity
  8
1
100
AcDbLine
 10
8.856742
 20
11.827019
 30
0.0
 11
8.697461
 21
11.825928
 31
0.0
  0
LINE
  5
2F8
330
4B9
100
AcDbEntity
  8
1
100
AcDbLine
 10
8.697461
 20
11.825928
 30
0.0
 11
8.537116000000001
 21
11.826678
 31
0.0
  0
LINE
  5
2F9
330
4B9
100
AcDbEntity
  8
1
100
AcDbLine
 10
8.537116000000001
 20
11.826678
 30
0.0
 11
8.375291999999999
 21
11.829194
 31
0.0
  0
LINE
  5
2FA
330
4B9
100
AcDbEntity
  8
1
100
AcDbLine
 10
8.375291999999999
 20
11.829194
 30
0.0
 11
8.211937999999999
 21
11.833461
 31
0.0
  0
LINE
  5
2FB
330
4B9
100
AcDbEntity
  8
1
100
AcDbLine
 10
8.211937999999999
 20
11.833461
 30
0.0
 11
8.047107
 21
11.839482
 31
0.0
  0
LINE
  5
2FC
330
4B9
100
AcDbEntity
  8
1
100
AcDbLine
 10
8.047107
 20
11.839482
 30
0.0
 11
7.880546
 21
11.847211
 31
0.0
  0
LINE
  5
2FD
330
4B9
100
AcDbEntity
  8
1
100
AcDbLine
 10
7.880546
 20
11.847211
 30
0.0
 11
7.712222999999999
 21
11.856632
 31
0.0
  0
LINE
  5
2FE
330
4B9
100
AcDbEntity
  8
1
100
AcDbLine
 10
7.712222999999999
 20
11.856632
 30
0.0
 11
7.542171
 21
11.867736
 31
0.0
  0
LINE
  5
2FF
330
4B9
100
AcDbEntity
  8
1
100
AcDbLine
 10
7.542171
 20
11.867736
 30
0.0
 11
7.370233999999999
 21
11.880479
 31
0.0
  0
LINE
  5
300
330
4B9
100
AcDbEntity
  8
1
100
AcDbLine
 10
7.370233999999999
 20
11.880479
 30
0.0
 11
7.196463999999999
 21
11.894833
 31
0.0
  0
LINE
  5
301
330
4B9
100
AcDbEntity
  8
1
100
AcDbLine
 10
7.196463999999999
 20
11.894833
 30
0.0
 11
7.020808999999999
 21
11.910786
 31
0.0
  0
LINE
  5
302
330
4B9
100
AcDbEntity
  8
1
100
AcDbLine
 10
7.020808999999999
 20
11.910786
 30
0.0
 11
6.84296
 21
11.928317
 31
0.0
  0
LINE
  5
303
330
4B9
100
AcDbEntity
  8
1
100
AcDbLine
 10
6.84296
 20
11.928317
 30
0.0
 11
6.662942
 21
11.947386
 31
0.0
  0
LINE
  5
304
330
4B9
100
AcDbEntity
  8
1
100
AcDbLine
 10
6.662942
 20
11.947386
 30
0.0
 11
6.480729
 21
11.967979
 31
0.0
  0
LINE
  5
305
330
4B9
100
AcDbEntity
  8
1
100
AcDbLine
 10
6.480729
 20
11.967979
 30
0.0
 11
6.295937999999999
 21
11.990089
 31
0.0
  0
LINE
  5
306
330
4B9
100
AcDbEntity
  8
1
100
AcDbLine
 10
6.295937999999999
 20
11.990089
 30
0.0
 11
6.108437
 21
12.013692
 31
0.0
  0
LINE
  5
307
330
4B9
100
AcDbEntity
  8
1
100
AcDbLine
 10
6.108437
 20
12.013692
 30
0.0
 11
5.918357
 21
12.038743
 31
0.0
  0
LINE
  5
308
330
4B9
100
AcDbEntity
  8
1
100
AcDbLine
 10
5.918357
 20
12.038743
 30
0.0
 11
5.725698
 21
12.065204
 31
0.0
  0
LINE
  5
309
330
4B9
100
AcDbEntity
  8
1
100
AcDbLine
 10
8.391548
 20
8.613299000000001
 30
0.0
 11
8.262007999999999
 21
8.575072
 31
0.0
  0
LINE
  5
30A
330
4B9
100
AcDbEntity
  8
1
100
AcDbLine
 10
8.262007999999999
 20
8.575072
 30
0.0
 11
7.510599
 21
8.35021
 31
0.0
  0
LINE
  5
30B
330
4B9
100
AcDbEntity
  8
1
100
AcDbLine
 10
7.510599
 20
8.35021
 30
0.0
 11
6.75583
 21
8.121219999999999
 31
0.0
  0
LINE
  5
30C
330
4B9
100
AcDbEntity
  8
1
100
AcDbLine
 10
6.75583
 20
8.121219999999999
 30
0.0
 11
5.997762999999999
 21
7.888136
 31
0.0
  0
LINE
  5
30D
330
4B9
100
AcDbEntity
  8
1
100
AcDbLine
 10
5.997762999999999
 20
7.888136
 30
0.0
 11
5.238012
 21
7.651424
 31
0.0
  0
LINE
  5
30E
330
4B9
100
AcDbEntity
  8
1
100
AcDbLine
 10
5.238012
 20
7.651424
 30
0.0
 11
4.477113
 21
7.411242999999998
 31
0.0
  0
LINE
  5
30F
330
4B9
100
AcDbEntity
  8
1
100
AcDbLine
 10
4.477113
 20
7.411242999999998
 30
0.0
 11
3.71453
 21
7.167436999999999
 31
0.0
  0
LINE
  5
310
330
4B9
100
AcDbEntity
  8
1
100
AcDbLine
 10
3.71453
 20
7.167436999999999
 30
0.0
 11
2.950262999999999
 21
6.920003999999999
 31
0.0
  0
LINE
  5
311
330
4B9
100
AcDbEntity
  8
1
100
AcDbLine
 10
7.891547999999999
 20
6.792747
 30
0.0
 11
7.725378
 21
6.739685
 31
0.0
  0
LINE
  5
312
330
4B9
100
AcDbEntity
  8
1
100
AcDbLine
 10
7.725378
 20
6.739685
 30
0.0
 11
7.559628
 21
6.68971
 31
0.0
  0
LINE
  5
313
330
4B9
100
AcDbEntity
  8
1
100
AcDbLine
 10
7.559628
 20
6.68971
 30
0.0
 11
7.394299
 21
6.642819
 31
0.0
  0
LINE
  5
314
330
4B9
100
AcDbEntity
  8
1
100
AcDbLine
 10
7.394299
 20
6.642819
 30
0.0
 11
7.229250999999999
 21
6.598981
 31
0.0
  0
LINE
  5
315
330
4B9
100
AcDbEntity
  8
1
100
AcDbLine
 10
7.229250999999999
 20
6.598981
 30
0.0
 11
7.064622999999999
 21
6.558227
 31
0.0
  0
LINE
  5
316
330
4B9
100
AcDbEntity
  8
1
100
AcDbLine
 10
7.064622999999999
 20
6.558227
 30
0.0
 11
6.900833
 21
6.520661
 31
0.0
  0
LINE
  5
317
330
4B9
100
AcDbEntity
  8
1
100
AcDbLine
 10
6.900833
 20
6.520661
 30
0.0
 11
6.737882
 21
6.486291999999999
 31
0.0
  0
LINE
  5
318
330
4B9
100
AcDbEntity
  8
1
100
AcDbLine
 10
6.737882
 20
6.486291999999999
 30
0.0
 11
6.575769
 21
6.455112
 31
0.0
  0
LINE
  5
319
330
4B9
100
AcDbEntity
  8
1
100
AcDbLine
 10
6.575769
 20
6.455112
 30
0.0
 11
6.414903999999999
 21
6.4272
 31
0.0
  0
LINE
  5
31A
330
4B9
100
AcDbEntity
  8
1
100
AcDbLine
 10
6.414903999999999
 20
6.4272
 30
0.0
 11
6.25529
 21
6.402562999999999
 31
0.0
  0
LINE
  5
31B
330
4B9
100
AcDbEntity
  8
1
100
AcDbLine
 10
6.25529
 20
6.402562999999999
 30
0.0
 11
6.096924999999999
 21
6.381193999999999
 31
0.0
  0
LINE
  5
31C
330
4B9
100
AcDbEntity
  8
1
100
AcDbLine
 10
6.096924999999999
 20
6.381193999999999
 30
0.0
 11
5.940208999999999
 21
6.363147
 31
0.0
  0
LINE
  5
31D
330
4B9
100
AcDbEntity
  8
1
100
AcDbLine
 10
5.940208999999999
 20
6.363147
 30
0.0
 11
5.785147
 21
6.34843
 31
0.0
  0
LINE
  5
31E
330
4B9
100
AcDbEntity
  8
1
100
AcDbLine
 10
5.785147
 20
6.34843
 30
0.0
 11
5.631733999999999
 21
6.337034
 31
0.0
  0
LINE
  5
31F
330
4B9
100
AcDbEntity
  8
1
100
AcDbLine
 10
5.631733999999999
 20
6.337034
 30
0.0
 11
5.48036
 21
6.32899
 31
0.0
  0
LINE
  5
320
330
4B9
100
AcDbEntity
  8
1
100
AcDbLine
 10
5.48036
 20
6.32899
 30
0.0
 11
5.331029
 21
6.324302999999999
 31
0.0
  0
LINE
  5
321
330
4B9
100
AcDbEntity
  8
1
100
AcDbLine
 10
5.331029
 20
6.324302999999999
 30
0.0
 11
5.183735999999999
 21
6.322968
 31
0.0
  0
LINE
  5
322
330
4B9
100
AcDbEntity
  8
1
100
AcDbLine
 10
5.183735999999999
 20
6.322968
 30
0.0
 11
5.038853999999999
 21
6.324987
 31
0.0
  0
LINE
  5
323
330
4B9
100
AcDbEntity
  8
1
100
AcDbLine
 10
5.038853999999999
 20
6.324987
 30
0.0
 11
4.89639
 21
6.330369
 31
0.0
  0
LINE
  5
324
330
4B9
100
AcDbEntity
  8
1
100
AcDbLine
 10
4.89639
 20
6.330369
 30
0.0
 11
4.756337999999999
 21
6.339104999999999
 31
0.0
  0
LINE
  5
325
330
4B9
100
AcDbEntity
  8
1
100
AcDbLine
 10
4.756337999999999
 20
6.339104999999999
 30
0.0
 11
4.619050999999999
 21
6.351170999999999
 31
0.0
  0
LINE
  5
326
330
4B9
100
AcDbEntity
  8
1
100
AcDbLine
 10
4.619050999999999
 20
6.351170999999999
 30
0.0
 11
4.484537999999999
 21
6.366577999999999
 31
0.0
  0
LINE
  5
327
330
4B9
100
AcDbEntity
  8
1
100
AcDbLine
 10
4.484537999999999
 20
6.366577999999999
 30
0.0
 11
4.352791999999999
 21
6.385318999999999
 31
0.0
  0
LINE
  5
328
330
4B9
100
AcDbEntity
  8
1
100
AcDbLine
 10
4.352791999999999
 20
6.385318999999999
 30
0.0
 11
4.224145
 21
6.407341999999999
 31
0.0
  0
LINE
  5
329
330
4B9
100
AcDbEntity
  8
1
100
AcDbLine
 10
4.224145
 20
6.407341999999999
 30
0.0
 11
4.098606
 21
6.432657999999999
 31
0.0
  0
LINE
  5
32A
330
4B9
100
AcDbEntity
  8
1
100
AcDbLine
 10
4.098606
 20
6.432657999999999
 30
0.0
 11
3.976167999999999
 21
6.461259
 31
0.0
  0
LINE
  5
32B
330
4B9
100
AcDbEntity
  8
1
100
AcDbLine
 10
3.976167999999999
 20
6.461259
 30
0.0
 11
3.85714
 21
6.493071999999999
 31
0.0
  0
LINE
  5
32C
330
4B9
100
AcDbEntity
  8
1
100
AcDbLine
 10
3.85714
 20
6.493071999999999
 30
0.0
 11
3.74153
 21
6.528105
 31
0.0
  0
LINE
  5
32D
330
4B9
100
AcDbEntity
  8
1
100
AcDbLine
 10
3.74153
 20
6.528105
 30
0.0
 11
3.629330999999999
 21
6.566349999999999
 31
0.0
  0
LINE
  5
32E
330
4B9
100
AcDbEntity
  8
1
100
AcDbLine
 10
3.629330999999999
 20
6.566349999999999
 30
0.0
 11
3.520826999999999
 21
6.60771
 31
0.0
  0
LINE
  5
32F
330
4B9
100
AcDbEntity
  8
1
100
AcDbLine
 10
3.520826999999999
 20
6.60771
 30
0.0
 11
3.416026999999999
 21
6.652191999999999
 31
0.0
  0
LINE
  5
330
330
4B9
100
AcDbEntity
  8
1
100
AcDbLine
 10
3.416026999999999
 20
6.652191999999999
 30
0.0
 11
3.314921
 21
6.699789999999999
 31
0.0
  0
LINE
  5
331
330
4B9
100
AcDbEntity
  8
1
100
AcDbLine
 10
3.314921
 20
6.699789999999999
 30
0.0
 11
3.217766
 21
6.750383
 31
0.0
  0
LINE
  5
332
330
4B9
100
AcDbEntity
  8
1
100
AcDbLine
 10
3.217766
 20
6.750383
 30
0.0
 11
3.124648
 21
6.803927999999999
 31
0.0
  0
LINE
  5
333
330
4B9
100
AcDbEntity
  8
1
100
AcDbLine
 10
3.124648
 20
6.803927999999999
 30
0.0
 11
3.035479999999999
 21
6.860469
 31
0.0
  0
LINE
  5
334
330
4B9
100
AcDbEntity
  8
1
100
AcDbLine
 10
3.035479999999999
 20
6.860469
 30
0.0
 11
2.950262999999999
 21
6.920003999999999
 31
0.0
  0
LINE
  5
335
330
4B9
100
AcDbEntity
  8
1
100
AcDbLine
 10
5.587220999999999
 20
12.16063
 30
0.0
 11
5.043319999999999
 21
12.539549
 31
0.0
  0
LINE
  5
336
330
4B9
100
AcDbEntity
  8
1
100
AcDbLine
 10
5.725698
 20
12.065204
 30
0.0
 11
5.587220999999999
 21
12.16063
 31
0.0
  0
LINE
  5
337
330
4B9
100
AcDbEntity
  8
1
100
AcDbLine
 10
8.611062999999999
 20
8.772605
 30
0.0
 11
8.625918999999999
 21
8.686494999999998
 31
0.0
  0
LINE
  5
338
330
4B9
100
AcDbEntity
  8
1
100
AcDbLine
 10
8.625918999999999
 20
8.686494999999998
 30
0.0
 11
8.645405999999999
 21
8.600874000000001
 31
0.0
  0
LINE
  5
339
330
4B9
100
AcDbEntity
  8
1
100
AcDbLine
 10
8.645405999999999
 20
8.600874000000001
 30
0.0
 11
8.669522
 21
8.515741
 31
0.0
  0
LINE
  5
33A
330
4B9
100
AcDbEntity
  8
1
100
AcDbLine
 10
8.669522
 20
8.515741
 30
0.0
 11
8.698178
 21
8.430996999999999
 31
0.0
  0
LINE
  5
33B
330
4B9
100
AcDbEntity
  8
1
100
AcDbLine
 10
8.698178
 20
8.430996999999999
 30
0.0
 11
8.731465
 21
8.346736999999999
 31
0.0
  0
LINE
  5
33C
330
4B9
100
AcDbEntity
  8
1
100
AcDbLine
 10
8.731465
 20
8.346736999999999
 30
0.0
 11
8.769652999999999
 21
8.263251
 31
0.0
  0
LINE
  5
33D
330
4B9
100
AcDbEntity
  8
1
100
AcDbLine
 10
8.769652999999999
 20
8.263251
 30
0.0
 11
8.812811999999999
 21
8.180508999999998
 31
0.0
  0
LINE
  5
33E
330
4B9
100
AcDbEntity
  8
1
100
AcDbLine
 10
8.812811999999999
 20
8.180508999999998
 30
0.0
 11
8.860872
 21
8.098544999999999
 31
0.0
  0
LINE
  5
33F
330
4B9
100
AcDbEntity
  8
1
100
AcDbLine
 10
8.860872
 20
8.098544999999999
 30
0.0
 11
8.913899
 21
8.01776
 31
0.0
  0
LINE
  5
340
330
4B9
100
AcDbEntity
  8
1
100
AcDbLine
 10
8.913899
 20
8.01776
 30
0.0
 11
8.971855999999998
 21
7.938272999999999
 31
0.0
  0
LINE
  5
341
330
4B9
100
AcDbEntity
  8
1
100
AcDbLine
 10
8.971855999999998
 20
7.938272999999999
 30
0.0
 11
9.034777999999999
 21
7.859983999999999
 31
0.0
  0
LINE
  5
342
330
4B9
100
AcDbEntity
  8
1
100
AcDbLine
 10
9.034777999999999
 20
7.859983999999999
 30
0.0
 11
9.102843
 21
7.782978999999999
 31
0.0
  0
LINE
  5
343
330
4B9
100
AcDbEntity
  8
1
100
AcDbLine
 10
9.102843
 20
7.782978999999999
 30
0.0
 11
9.175917
 21
7.707347
 31
0.0
  0
LINE
  5
344
330
4B9
100
AcDbEntity
  8
1
100
AcDbLine
 10
9.175917
 20
7.707347
 30
0.0
 11
9.254132
 21
7.633016
 31
0.0
  0
LINE
  5
345
330
4B9
100
AcDbEntity
  8
1
100
AcDbLine
 10
9.254132
 20
7.633016
 30
0.0
 11
9.33806
 21
7.559835999999999
 31
0.0
  0
LINE
  5
346
330
4B9
100
AcDbEntity
  8
1
100
AcDbLine
 10
9.33806
 20
7.559835999999999
 30
0.0
 11
9.427839999999999
 21
7.487658999999999
 31
0.0
  0
LINE
  5
347
330
4B9
100
AcDbEntity
  8
1
100
AcDbLine
 10
9.427839999999999
 20
7.487658999999999
 30
0.0
 11
9.523333
 21
7.416633
 31
0.0
  0
LINE
  5
348
330
4B9
100
AcDbEntity
  8
1
100
AcDbLine
 10
9.523333
 20
7.416633
 30
0.0
 11
9.624689
 21
7.347052999999999
 31
0.0
  0
LINE
  5
349
330
4B9
100
AcDbEntity
  8
1
100
AcDbLine
 10
9.624689
 20
7.347052999999999
 30
0.0
 11
9.731958999999999
 21
7.27902
 31
0.0
  0
LINE
  5
34A
330
4B9
100
AcDbEntity
  8
1
100
AcDbLine
 10
9.731958999999999
 20
7.27902
 30
0.0
 11
9.845092999999998
 21
7.212444
 31
0.0
  0
LINE
  5
34B
330
4B9
100
AcDbEntity
  8
1
100
AcDbLine
 10
9.845092999999998
 20
7.212444
 30
0.0
 11
9.964089999999998
 21
7.14733
 31
0.0
  0
LINE
  5
34C
330
4B9
100
AcDbEntity
  8
1
100
AcDbLine
 10
8.391548
 20
7.059002999999999
 30
0.0
 11
8.468802
 21
6.716661
 31
0.0
  0
LINE
  5
34D
330
4B9
100
AcDbEntity
  8
1
100
AcDbLine
 10
9.164089999999999
 20
6.449101
 30
0.0
 11
9.077436999999999
 21
6.713891999999999
 31
0.0
  0
LINE
  5
34E
330
4B9
100
AcDbEntity
  8
1
100
AcDbLine
 10
9.077436999999999
 20
6.713891999999999
 30
0.0
 11
8.990949999999999
 21
6.974690999999999
 31
0.0
  0
LINE
  5
34F
330
4B9
100
AcDbEntity
  8
1
100
AcDbLine
 10
8.990949999999999
 20
6.974690999999999
 30
0.0
 11
8.904628999999999
 21
7.231499
 31
0.0
  0
LINE
  5
350
330
4B9
100
AcDbEntity
  8
1
100
AcDbLine
 10
8.904628999999999
 20
7.231499
 30
0.0
 11
8.818424999999999
 21
7.48446
 31
0.0
  0
LINE
  5
351
330
4B9
100
AcDbEntity
  8
1
100
AcDbLine
 10
8.818424999999999
 20
7.48446
 30
0.0
 11
8.732388
 21
7.73343
 31
0.0
  0
LINE
  5
352
330
4B9
100
AcDbEntity
  8
1
100
AcDbLine
 10
8.732388
 20
7.73343
 30
0.0
 11
8.646665999999999
 21
7.977978999999999
 31
0.0
  0
LINE
  5
353
330
4B9
100
AcDbEntity
  8
1
100
AcDbLine
 10
8.646665999999999
 20
7.977978999999999
 30
0.0
 11
8.561310999999999
 21
8.217964999999999
 31
0.0
  0
LINE
  5
354
330
4B9
100
AcDbEntity
  8
1
100
AcDbLine
 10
8.561310999999999
 20
8.217964999999999
 30
0.0
 11
8.476271
 21
8.453528999999999
 31
0.0
  0
LINE
  5
355
330
4B9
100
AcDbEntity
  8
1
100
AcDbLine
 10
8.476271
 20
8.453528999999999
 30
0.0
 11
8.391548
 21
8.684674000000001
 31
0.0
  0
LINE
  5
356
330
4B9
100
AcDbEntity
  8
1
100
AcDbLine
 10
9.964089999999998
 20
7.14733
 30
0.0
 11
9.964089999999998
 21
6.798216
 31
0.0
  0
LINE
  5
357
330
4B9
100
AcDbEntity
  8
1
100
AcDbLine
 10
8.391548
 20
8.684674000000001
 30
0.0
 11
8.391548
 21
7.059002999999999
 31
0.0
  0
LINE
  5
358
330
4B9
100
AcDbEntity
  8
1
100
AcDbLine
 10
8.414369999999999
 20
6.964382
 30
0.0
 11
7.891547999999999
 21
6.792747
 31
0.0
  0
LINE
  5
359
330
4B9
100
AcDbEntity
  8
1
100
AcDbLine
 10
9.561382999999999
 20
6.622902999999999
 30
0.0
 11
9.964089999999998
 21
6.798216
 31
0.0
  0
LINE
  5
35A
330
4B9
100
AcDbEntity
  8
1
100
AcDbLine
 10
9.164089999999999
 20
6.449101
 30
0.0
 11
9.561382999999999
 21
6.622902999999999
 31
0.0
  0
LINE
  5
35B
330
4B9
100
AcDbEntity
  8
1
100
AcDbLine
 10
8.391548
 20
8.684674000000001
 30
0.0
 11
8.611062999999999
 21
8.772605
 31
0.0
  0
LINE
  5
35C
330
4B9
100
AcDbEntity
  8
1
100
AcDbLine
 10
16.0
 20
-4.664829
 30
0.0
 11
16.0
 21
-0.680801
 31
0.0
  0
LINE
  5
35D
330
4B9
100
AcDbEntity
  8
1
100
AcDbLine
 10
15.5
 20
-1.517582999999999
 30
0.0
 11
15.5
 21
6.634605
 31
0.0
  0
LINE
  5
35E
330
4B9
100
AcDbEntity
  8
1
100
AcDbLine
 10
14.1
 20
1.487849999999999
 30
0.0
 11
14.1
 21
-2.584071999999999
 31
0.0
  0
LINE
  5
35F
330
4B9
100
AcDbEntity
  8
1
100
AcDbLine
 10
16.0
 20
-9.827403999999999
 30
0.0
 11
16.0
 21
-6.388524999999999
 31
0.0
  0
LINE
  5
360
330
4B9
100
AcDbEntity
  8
1
100
AcDbLine
 10
15.5
 20
-11.582837
 30
0.0
 11
15.5
 21
-5.012611999999999
 31
0.0
  0
LINE
  5
361
330
4B9
100
AcDbEntity
  8
1
100
AcDbLine
 10
16.0
 20
-12.893822
 30
0.0
 11
14.4941
 21
-13.999998
 31
0.0
  0
LINE
  5
362
330
4B9
100
AcDbEntity
  8
1
100
AcDbLine
 10
16.0
 20
-11.58925
 30
0.0
 11
14.085676
 21
-12.995437
 31
0.0
  0
LINE
  5
363
330
4B9
100
AcDbEntity
  8
1
100
AcDbLine
 10
15.5
 20
-11.582837
 30
0.0
 11
15.353302
 21
-11.713502
 31
0.0
  0
LINE
  5
364
330
4B9
100
AcDbEntity
  8
1
100
AcDbLine
 10
15.353302
 20
-11.713502
 30
0.0
 11
15.204418
 21
-11.845199
 31
0.0
  0
LINE
  5
365
330
4B9
100
AcDbEntity
  8
1
100
AcDbLine
 10
15.204418
 20
-11.845199
 30
0.0
 11
15.053348
 21
-11.977928
 31
0.0
  0
LINE
  5
366
330
4B9
100
AcDbEntity
  8
1
100
AcDbLine
 10
15.053348
 20
-11.977928
 30
0.0
 11
14.900128
 21
-12.111667
 31
0.0
  0
LINE
  5
367
330
4B9
100
AcDbEntity
  8
1
100
AcDbLine
 10
14.900128
 20
-12.111667
 30
0.0
 11
14.744721
 21
-12.246436
 31
0.0
  0
LINE
  5
368
330
4B9
100
AcDbEntity
  8
1
100
AcDbLine
 10
14.744721
 20
-12.246436
 30
0.0
 11
14.587016
 21
-12.382309
 31
0.0
  0
LINE
  5
369
330
4B9
100
AcDbEntity
  8
1
100
AcDbLine
 10
14.587016
 20
-12.382309
 30
0.0
 11
14.426976
 21
-12.519307
 31
0.0
  0
LINE
  5
36A
330
4B9
100
AcDbEntity
  8
1
100
AcDbLine
 10
14.426976
 20
-12.519307
 30
0.0
 11
14.264637
 21
-12.657408
 31
0.0
  0
LINE
  5
36B
330
4B9
100
AcDbEntity
  8
1
100
AcDbLine
 10
14.264637
 20
-12.657408
 30
0.0
 11
14.1
 21
-12.79661
 31
0.0
  0
LINE
  5
36C
330
4B9
100
AcDbEntity
  8
1
100
AcDbLine
 10
15.5
 20
-9.649352999999999
 30
0.0
 11
15.353392
 21
-9.783650999999998
 31
0.0
  0
LINE
  5
36D
330
4B9
100
AcDbEntity
  8
1
100
AcDbLine
 10
15.353392
 20
-9.783650999999998
 30
0.0
 11
15.204576
 21
-9.91924
 31
0.0
  0
LINE
  5
36E
330
4B9
100
AcDbEntity
  8
1
100
AcDbLine
 10
15.204576
 20
-9.91924
 30
0.0
 11
15.053552
 21
-10.056119
 31
0.0
  0
LINE
  5
36F
330
4B9
100
AcDbEntity
  8
1
100
AcDbLine
 10
15.053552
 20
-10.056119
 30
0.0
 11
14.90036
 21
-10.194261
 31
0.0
  0
LINE
  5
370
330
4B9
100
AcDbEntity
  8
1
100
AcDbLine
 10
14.90036
 20
-10.194261
 30
0.0
 11
14.74496
 21
-10.333693
 31
0.0
  0
LINE
  5
371
330
4B9
100
AcDbEntity
  8
1
100
AcDbLine
 10
14.74496
 20
-10.333693
 30
0.0
 11
14.587235
 21
-10.474498
 31
0.0
  0
LINE
  5
372
330
4B9
100
AcDbEntity
  8
1
100
AcDbLine
 10
14.587235
 20
-10.474498
 30
0.0
 11
14.427147
 21
-10.616704
 31
0.0
  0
LINE
  5
373
330
4B9
100
AcDbEntity
  8
1
100
AcDbLine
 10
14.427147
 20
-10.616704
 30
0.0
 11
14.264736
 21
-10.760285
 31
0.0
  0
LINE
  5
374
330
4B9
100
AcDbEntity
  8
1
100
AcDbLine
 10
14.264736
 20
-10.760285
 30
0.0
 11
14.1
 21
-10.905239
 31
0.0
  0
LINE
  5
375
330
4B9
100
AcDbEntity
  8
1
100
AcDbLine
 10
14.1
 20
-10.905239
 30
0.0
 11
14.1
 21
-12.79661
 31
0.0
  0
LINE
  5
376
330
4B9
100
AcDbEntity
  8
1
100
AcDbLine
 10
16.0
 20
-12.893822
 30
0.0
 11
16.0
 21
-10.033332
 31
0.0
  0
LINE
  5
377
330
4B9
100
AcDbEntity
  8
1
100
AcDbLine
 10
15.5
 20
-8.678903
 30
0.0
 11
16.0
 21
-8.847782
 31
0.0
  0
LINE
  5
378
330
4B9
100
AcDbEntity
  8
1
100
AcDbLine
 10
15.5
 20
-9.044871
 30
0.0
 11
16.0
 21
-9.213749999999999
 31
0.0
  0
LINE
  5
379
330
4B9
100
AcDbEntity
  8
1
100
AcDbLine
 10
16.0
 20
-9.827403999999999
 30
0.0
 11
15.5
 21
-9.825267
 31
0.0
  0
LINE
  5
37A
330
4B9
100
AcDbEntity
  8
1
100
AcDbLine
 10
15.5
 20
-10.033332
 30
0.0
 11
16.0
 21
-10.033332
 31
0.0
  0
LINE
  5
37B
330
4B9
100
AcDbEntity
  8
1
100
AcDbLine
 10
15.5
 20
-10.237559
 30
0.0
 11
16.0
 21
-10.237559
 31
0.0
  0
LINE
  5
37C
330
4B9
100
AcDbEntity
  8
1
100
AcDbLine
 10
16.0
 20
-4.664829
 30
0.0
 11
14.608258
 21
-5.632878999999999
 31
0.0
  0
LINE
  5
37D
330
4B9
100
AcDbEntity
  8
1
100
AcDbLine
 10
14.493217
 20
-5.303612
 30
0.0
 11
16.0
 21
-4.255543
 31
0.0
  0
LINE
  5
37E
330
4B9
100
AcDbEntity
  8
1
100
AcDbLine
 10
16.0
 20
-1.356646
 30
0.0
 11
14.085676
 21
-2.688188999999999
 31
0.0
  0
LINE
  5
37F
330
4B9
100
AcDbEntity
  8
1
100
AcDbLine
 10
14.900128
 20
-1.978929
 30
0.0
 11
14.587016
 21
-2.21704
 31
0.0
  0
LINE
  5
380
330
4B9
100
AcDbEntity
  8
1
100
AcDbLine
 10
14.493217
 20
-5.303612
 30
0.0
 11
14.441429
 21
-4.995173999999999
 31
0.0
  0
LINE
  5
381
330
4B9
100
AcDbEntity
  8
1
100
AcDbLine
 10
14.441429
 20
-4.995173999999999
 30
0.0
 11
14.391275
 21
-4.691201999999999
 31
0.0
  0
LINE
  5
382
330
4B9
100
AcDbEntity
  8
1
100
AcDbLine
 10
14.391275
 20
-4.691201999999999
 30
0.0
 11
14.342753
 21
-4.391696999999999
 31
0.0
  0
LINE
  5
383
330
4B9
100
AcDbEntity
  8
1
100
AcDbLine
 10
14.342753
 20
-4.391696999999999
 30
0.0
 11
14.295875
 21
-4.096669
 31
0.0
  0
LINE
  5
384
330
4B9
100
AcDbEntity
  8
1
100
AcDbLine
 10
14.295875
 20
-4.096669
 30
0.0
 11
14.25063
 21
-3.806108
 31
0.0
  0
LINE
  5
385
330
4B9
100
AcDbEntity
  8
1
100
AcDbLine
 10
14.25063
 20
-3.806108
 30
0.0
 11
14.20699
 21
-3.519982
 31
0.0
  0
LINE
  5
386
330
4B9
100
AcDbEntity
  8
1
100
AcDbLine
 10
14.20699
 20
-3.519982
 30
0.0
 11
14.164947
 21
-3.238281999999999
 31
0.0
  0
LINE
  5
387
330
4B9
100
AcDbEntity
  8
1
100
AcDbLine
 10
14.164947
 20
-3.238281999999999
 30
0.0
 11
14.124509
 21
-2.961017
 31
0.0
  0
LINE
  5
388
330
4B9
100
AcDbEntity
  8
1
100
AcDbLine
 10
14.124509
 20
-2.961017
 30
0.0
 11
14.085676
 21
-2.688188999999999
 31
0.0
  0
LINE
  5
389
330
4B9
100
AcDbEntity
  8
1
100
AcDbLine
 10
14.493481
 20
-5.303429
 30
0.0
 11
14.511439
 21
-5.358289
 31
0.0
  0
LINE
  5
38A
330
4B9
100
AcDbEntity
  8
1
100
AcDbLine
 10
14.511439
 20
-5.358289
 30
0.0
 11
14.529865
 21
-5.413167999999999
 31
0.0
  0
LINE
  5
38B
330
4B9
100
AcDbEntity
  8
1
100
AcDbLine
 10
14.529865
 20
-5.413167999999999
 30
0.0
 11
14.54876
 21
-5.468066999999999
 31
0.0
  0
LINE
  5
38C
330
4B9
100
AcDbEntity
  8
1
100
AcDbLine
 10
14.54876
 20
-5.468066999999999
 30
0.0
 11
14.568124
 21
-5.522983999999999
 31
0.0
  0
LINE
  5
38D
330
4B9
100
AcDbEntity
  8
1
100
AcDbLine
 10
14.568124
 20
-5.522983999999999
 30
0.0
 11
14.587957
 21
-5.577922
 31
0.0
  0
LINE
  5
38E
330
4B9
100
AcDbEntity
  8
1
100
AcDbLine
 10
14.587957
 20
-5.577922
 30
0.0
 11
14.608258
 21
-5.632878999999999
 31
0.0
  0
LINE
  5
38F
330
4B9
100
AcDbEntity
  8
1
100
AcDbLine
 10
14.587016
 20
-2.21704
 30
0.0
 11
14.264637
 21
-2.460423
 31
0.0
  0
LINE
  5
390
330
4B9
100
AcDbEntity
  8
1
100
AcDbLine
 10
14.264637
 20
-2.460423
 30
0.0
 11
14.1
 21
-2.584071999999999
 31
0.0
  0
LINE
  5
391
330
4B9
100
AcDbEntity
  8
1
100
AcDbLine
 10
15.204418
 20
-1.7458
 30
0.0
 11
14.900128
 21
-1.978929
 31
0.0
  0
LINE
  5
392
330
4B9
100
AcDbEntity
  8
1
100
AcDbLine
 10
15.5
 20
-1.517582999999999
 30
0.0
 11
15.204418
 21
-1.7458
 31
0.0
  0
LINE
  5
393
330
4B9
100
AcDbEntity
  8
1
100
AcDbLine
 10
15.5
 20
-6.219647
 30
0.0
 11
16.0
 21
-6.388524999999999
 31
0.0
  0
LINE
  5
394
330
4B9
100
AcDbEntity
  8
1
100
AcDbLine
 10
14.90036
 20
1.881067999999999
 30
0.0
 11
14.587235
 21
1.726623
 31
0.0
  0
LINE
  5
395
330
4B9
100
AcDbEntity
  8
1
100
AcDbLine
 10
14.587235
 20
1.726623
 30
0.0
 11
14.264736
 21
1.568381
 31
0.0
  0
LINE
  5
396
330
4B9
100
AcDbEntity
  8
1
100
AcDbLine
 10
14.264736
 20
1.568381
 30
0.0
 11
14.1
 21
1.487849999999999
 31
0.0
  0
LINE
  5
397
330
4B9
100
AcDbEntity
  8
1
100
AcDbLine
 10
12.407985
 20
1.014016
 30
0.0
 11
11.549191
 21
0.775442
 31
0.0
  0
LINE
  5
398
330
4B9
100
AcDbEntity
  8
1
100
AcDbLine
 10
13.258299
 20
1.251498999999999
 30
0.0
 11
12.407985
 21
1.014016
 31
0.0
  0
LINE
  5
399
330
4B9
100
AcDbEntity
  8
1
100
AcDbLine
 10
14.1
 20
1.487849999999999
 30
0.0
 11
13.258299
 21
1.251498999999999
 31
0.0
  0
LINE
  5
39A
330
4B9
100
AcDbEntity
  8
1
100
AcDbLine
 10
16.0
 20
1.277977
 30
0.0
 11
16.0
 21
5.296686
 31
0.0
  0
LINE
  5
39B
330
4B9
100
AcDbEntity
  8
1
100
AcDbLine
 10
16.0
 20
5.296686
 30
0.0
 11
15.5
 21
5.655680999999999
 31
0.0
  0
LINE
  5
39C
330
4B9
100
AcDbEntity
  8
1
100
AcDbLine
 10
15.5
 20
3.89771
 30
0.0
 11
16.0
 21
3.738751999999999
 31
0.0
  0
LINE
  5
39D
330
4B9
100
AcDbEntity
  8
1
100
AcDbLine
 10
15.5
 20
1.582905999999999
 30
0.0
 11
16.0
 21
1.423948
 31
0.0
  0
LINE
  5
39E
330
4B9
100
AcDbEntity
  8
1
100
AcDbLine
 10
15.204576
 20
2.031919999999999
 30
0.0
 11
14.90036
 21
1.881067999999999
 31
0.0
  0
LINE
  5
39F
330
4B9
100
AcDbEntity
  8
1
100
AcDbLine
 10
15.5
 20
2.179232999999999
 30
0.0
 11
15.204576
 21
2.031919999999999
 31
0.0
  0
LINE
  5
3A0
330
4B9
100
AcDbEntity
  8
1
100
AcDbLine
 10
15.5
 20
1.436935
 30
0.0
 11
16.0
 21
1.277977
 31
0.0
  0
LINE
  5
3A1
330
4B9
100
AcDbEntity
  8
1
100
AcDbLine
 10
15.5
 20
-0.844944
 30
0.0
 11
16.0
 21
-0.680801
 31
0.0
  0
LINE
  5
3A2
330
4B9
100
AcDbEntity
  8
1
100
AcDbLine
 10
15.5
 20
11.828584
 30
0.0
 11
15.353392
 21
11.889672
 31
0.0
  0
LINE
  5
3A3
330
4B9
100
AcDbEntity
  8
1
100
AcDbLine
 10
15.353392
 20
11.889672
 30
0.0
 11
15.204576
 21
11.95116
 31
0.0
  0
LINE
  5
3A4
330
4B9
100
AcDbEntity
  8
1
100
AcDbLine
 10
15.204576
 20
11.95116
 30
0.0
 11
15.053553
 21
12.013048
 31
0.0
  0
LINE
  5
3A5
330
4B9
100
AcDbEntity
  8
1
100
AcDbLine
 10
15.053553
 20
12.013048
 30
0.0
 11
14.90036
 21
12.075327
 31
0.0
  0
LINE
  5
3A6
330
4B9
100
AcDbEntity
  8
1
100
AcDbLine
 10
14.90036
 20
12.075327
 30
0.0
 11
14.74496
 21
12.138008
 31
0.0
  0
LINE
  5
3A7
330
4B9
100
AcDbEntity
  8
1
100
AcDbLine
 10
14.74496
 20
12.138008
 30
0.0
 11
14.587235
 21
12.201121
 31
0.0
  0
LINE
  5
3A8
330
4B9
100
AcDbEntity
  8
1
100
AcDbLine
 10
14.587235
 20
12.201121
 30
0.0
 11
14.427148
 21
12.264677
 31
0.0
  0
LINE
  5
3A9
330
4B9
100
AcDbEntity
  8
1
100
AcDbLine
 10
14.427148
 20
12.264677
 30
0.0
 11
14.264736
 21
12.328667
 31
0.0
  0
LINE
  5
3AA
330
4B9
100
AcDbEntity
  8
1
100
AcDbLine
 10
14.264736
 20
12.328667
 30
0.0
 11
14.1
 21
12.393089
 31
0.0
  0
LINE
  5
3AB
330
4B9
100
AcDbEntity
  8
1
100
AcDbLine
 10
16.0
 20
10.232603
 30
0.0
 11
14.085676
 21
10.30725
 31
0.0
  0
LINE
  5
3AC
330
4B9
100
AcDbEntity
  8
1
100
AcDbLine
 10
14.493217
 20
8.568996
 30
0.0
 11
16.0
 21
8.510241
 31
0.0
  0
LINE
  5
3AD
330
4B9
100
AcDbEntity
  8
1
100
AcDbLine
 10
16.0
 20
8.228992999999999
 30
0.0
 11
14.608258
 21
8.283261999999998
 31
0.0
  0
LINE
  5
3AE
330
4B9
100
AcDbEntity
  8
1
100
AcDbLine
 10
14.493217
 20
8.568996
 30
0.0
 11
14.441429
 21
8.775675999999998
 31
0.0
  0
LINE
  5
3AF
330
4B9
100
AcDbEntity
  8
1
100
AcDbLine
 10
14.441429
 20
8.775675999999998
 30
0.0
 11
14.391275
 21
8.978961999999999
 31
0.0
  0
LINE
  5
3B0
330
4B9
100
AcDbEntity
  8
1
100
AcDbLine
 10
14.391275
 20
8.978961999999999
 30
0.0
 11
14.342753
 21
9.178855
 31
0.0
  0
LINE
  5
3B1
330
4B9
100
AcDbEntity
  8
1
100
AcDbLine
 10
14.342753
 20
9.178855
 30
0.0
 11
14.295875
 21
9.375344999999999
 31
0.0
  0
LINE
  5
3B2
330
4B9
100
AcDbEntity
  8
1
100
AcDbLine
 10
14.295875
 20
9.375344999999999
 30
0.0
 11
14.25063
 21
9.568441999999999
 31
0.0
  0
LINE
  5
3B3
330
4B9
100
AcDbEntity
  8
1
100
AcDbLine
 10
14.25063
 20
9.568441999999999
 30
0.0
 11
14.20699
 21
9.758177999999999
 31
0.0
  0
LINE
  5
3B4
330
4B9
100
AcDbEntity
  8
1
100
AcDbLine
 10
14.20699
 20
9.758177999999999
 30
0.0
 11
14.164947
 21
9.944563999999999
 31
0.0
  0
LINE
  5
3B5
330
4B9
100
AcDbEntity
  8
1
100
AcDbLine
 10
14.164947
 20
9.944563999999999
 30
0.0
 11
14.124509
 21
10.127588
 31
0.0
  0
LINE
  5
3B6
330
4B9
100
AcDbEntity
  8
1
100
AcDbLine
 10
14.124509
 20
10.127588
 30
0.0
 11
14.085676
 21
10.30725
 31
0.0
  0
LINE
  5
3B7
330
4B9
100
AcDbEntity
  8
1
100
AcDbLine
 10
14.493481
 20
8.568986999999999
 30
0.0
 11
14.511439
 21
8.522005
 31
0.0
  0
LINE
  5
3B8
330
4B9
100
AcDbEntity
  8
1
100
AcDbLine
 10
14.511439
 20
8.522005
 30
0.0
 11
14.529865
 21
8.474767999999999
 31
0.0
  0
LINE
  5
3B9
330
4B9
100
AcDbEntity
  8
1
100
AcDbLine
 10
14.529865
 20
8.474767999999999
 30
0.0
 11
14.54876
 21
8.427274999999999
 31
0.0
  0
LINE
  5
3BA
330
4B9
100
AcDbEntity
  8
1
100
AcDbLine
 10
14.54876
 20
8.427274999999999
 30
0.0
 11
14.568124
 21
8.379527000000001
 31
0.0
  0
LINE
  5
3BB
330
4B9
100
AcDbEntity
  8
1
100
AcDbLine
 10
14.568124
 20
8.379527000000001
 30
0.0
 11
14.587957
 21
8.331521999999999
 31
0.0
  0
LINE
  5
3BC
330
4B9
100
AcDbEntity
  8
1
100
AcDbLine
 10
14.587957
 20
8.331521999999999
 30
0.0
 11
14.608258
 21
8.283261999999998
 31
0.0
  0
LINE
  5
3BD
330
4B9
100
AcDbEntity
  8
1
100
AcDbLine
 10
14.1
 20
12.393089
 30
0.0
 11
14.1
 21
10.306691
 31
0.0
  0
LINE
  5
3BE
330
4B9
100
AcDbEntity
  8
1
100
AcDbLine
 10
15.5
 20
11.828584
 30
0.0
 11
15.5
 21
10.252099
 31
0.0
  0
LINE
  5
3BF
330
4B9
100
AcDbEntity
  8
1
100
AcDbLine
 10
0.0
 20
13.533331
 30
0.0
 11
2.999155
 21
13.533331
 31
0.0
  0
LINE
  5
3C0
330
4B9
100
AcDbEntity
  8
1
100
AcDbLine
 10
8.391548
 20
13.346153
 30
0.0
 11
8.262285
 21
13.354732
 31
0.0
  0
LINE
  5
3C1
330
4B9
100
AcDbEntity
  8
1
100
AcDbLine
 10
8.262285
 20
13.354732
 30
0.0
 11
7.510889999999999
 21
13.398363
 31
0.0
  0
LINE
  5
3C2
330
4B9
100
AcDbEntity
  8
1
100
AcDbLine
 10
7.510889999999999
 20
13.398363
 30
0.0
 11
6.756139999999999
 21
13.435947
 31
0.0
  0
LINE
  5
3C3
330
4B9
100
AcDbEntity
  8
1
100
AcDbLine
 10
6.756139999999999
 20
13.435947
 30
0.0
 11
5.998089
 21
13.467507
 31
0.0
  0
LINE
  5
3C4
330
4B9
100
AcDbEntity
  8
1
100
AcDbLine
 10
5.998089
 20
13.467507
 30
0.0
 11
5.238317999999999
 21
13.492919
 31
0.0
  0
LINE
  5
3C5
330
4B9
100
AcDbEntity
  8
1
100
AcDbLine
 10
5.238317999999999
 20
13.492919
 30
0.0
 11
4.477352999999999
 21
13.512147
 31
0.0
  0
LINE
  5
3C6
330
4B9
100
AcDbEntity
  8
1
100
AcDbLine
 10
4.477352999999999
 20
13.512147
 30
0.0
 11
3.714668
 21
13.525229
 31
0.0
  0
LINE
  5
3C7
330
4B9
100
AcDbEntity
  8
1
100
AcDbLine
 10
3.714668
 20
13.525229
 30
0.0
 11
3.057008
 21
13.531195
 31
0.0
  0
LINE
  5
3C8
330
4B9
100
AcDbEntity
  8
1
100
AcDbLine
 10
9.164089999999999
 20
13.822316
 30
0.0
 11
9.077415
 21
13.812978
 31
0.0
  0
LINE
  5
3C9
330
4B9
100
AcDbEntity
  8
1
100
AcDbLine
 10
9.077415
 20
13.812978
 30
0.0
 11
9.015544999999999
 21
13.802043
 31
0.0
  0
LINE
  5
3CA
330
4B9
100
AcDbEntity
  8
1
100
AcDbLine
 10
9.015544999999999
 20
13.802043
 30
0.0
 11
8.990914999999999
 21
13.796696
 31
0.0
  0
LINE
  5
3CB
330
4B9
100
AcDbEntity
  8
1
100
AcDbLine
 10
8.990914999999999
 20
13.796696
 30
0.0
 11
8.904589999999998
 21
13.773471
 31
0.0
  0
LINE
  5
3CC
330
4B9
100
AcDbEntity
  8
1
100
AcDbLine
 10
8.904589999999998
 20
13.773471
 30
0.0
 11
8.818394999999998
 21
13.743279
 31
0.0
  0
LINE
  5
3CD
330
4B9
100
AcDbEntity
  8
1
100
AcDbLine
 10
8.818394999999998
 20
13.743279
 30
0.0
 11
8.732374999999999
 21
13.706143
 31
0.0
  0
LINE
  5
3CE
330
4B9
100
AcDbEntity
  8
1
100
AcDbLine
 10
8.732374999999999
 20
13.706143
 30
0.0
 11
8.646666999999998
 21
13.66213
 31
0.0
  0
LINE
  5
3CF
330
4B9
100
AcDbEntity
  8
1
100
AcDbLine
 10
8.646666999999998
 20
13.66213
 30
0.0
 11
8.561315999999999
 21
13.611264
 31
0.0
  0
LINE
  5
3D0
330
4B9
100
AcDbEntity
  8
1
100
AcDbLine
 10
8.561315999999999
 20
13.611264
 30
0.0
 11
8.476275999999998
 21
13.553519
 31
0.0
  0
LINE
  5
3D1
330
4B9
100
AcDbEntity
  8
1
100
AcDbLine
 10
8.476275999999998
 20
13.553519
 30
0.0
 11
8.391548
 21
13.488899
 31
0.0
  0
LINE
  5
3D2
330
4B9
100
AcDbEntity
  8
1
100
AcDbLine
 10
9.976976999999999
 20
13.999998
 30
0.0
 11
14.6
 21
13.999998
 31
0.0
  0
LINE
  5
3D3
330
4B9
100
AcDbEntity
  8
1
100
AcDbLine
 10
14.6
 20
13.999998
 30
0.0
 11
16.0
 21
13.191708
 31
0.0
  0
LINE
  5
3D4
330
4B9
100
AcDbEntity
  8
1
100
AcDbLine
 10
16.0
 20
13.191708
 30
0.0
 11
16.0
 21
12.715607
 31
0.0
  0
LINE
  5
3D5
330
4B9
100
AcDbEntity
  8
1
100
AcDbLine
 10
9.977783
 20
-13.999998
 30
0.0
 11
14.4941
 21
-13.999998
 31
0.0
  0
LINE
  5
3D6
330
4B9
100
AcDbEntity
  8
1
100
AcDbLine
 10
9.164089999999999
 20
13.822316
 30
0.0
 11
9.976976999999999
 21
13.999998
 31
0.0
  0
LINE
  5
3D7
330
4B9
100
AcDbEntity
  8
1
100
AcDbLine
 10
14.085676
 20
-12.995437
 30
0.0
 11
14.4941
 21
-13.999998
 31
0.0
  0
LINE
  5
3D8
330
4B9
100
AcDbEntity
  8
SK4
100
AcDbLine
 10
16.537797
 20
0.0
 30
0.0
 11
-13.85
 21
0.0
 31
0.0
  0
LINE
  5
3D9
330
4B9
100
AcDbEntity
  8
SK1
100
AcDbLine
 10
-10.85
 20
7.225611999999999
 30
0.0
 11
0.0
 21
8.174174
 31
0.0
  0
LINE
  5
3DA
330
4B9
100
AcDbEntity
  8
SK1
100
AcDbLine
 10
-10.85
 20
-7.225610999999999
 30
0.0
 11
0.0
 21
-8.174174
 31
0.0
  0
LINE
  5
3DB
330
4B9
100
AcDbEntity
  8
SK1
100
AcDbLine
 10
-10.85
 20
7.225611999999999
 30
0.0
 11
-10.85
 21
-7.225610999999999
 31
0.0
  0
LINE
  5
3DC
330
4B9
100
AcDbEntity
  8
SK1
100
AcDbLine
 10
-13.85
 20
6.725611999999999
 30
0.0
 11
-13.85
 21
-6.725610999999999
 31
0.0
  0
LINE
  5
3DD
330
4B9
100
AcDbEntity
  8
SK1
100
AcDbLine
 10
-13.85
 20
-6.725610999999999
 30
0.0
 11
-10.85
 21
-6.725610999999999
 31
0.0
  0
LINE
  5
3DE
330
4B9
100
AcDbEntity
  8
SK1
100
AcDbLine
 10
-13.85
 20
6.725611999999999
 30
0.0
 11
-10.85
 21
6.725611999999999
 31
0.0
  0
LINE
  5
3DF
330
4B9
100
AcDbEntity
  8
80
100
AcDbLine
 10
0.0
 20
0.0
 30
0.0
 11
-11.35
 21
0.0
 31
0.0
  0
LINE
  5
3E0
330
4B9
100
AcDbEntity
  8
81
100
AcDbLine
 10
16.0
 20
0.0
 30
0.0
 11
25.787315
 21
0.0
 31
0.0
  0
LINE
  5
3E1
330
4B9
100
AcDbEntity
  8
4
100
AcDbLine
 10
0.0
 20
0.0
 30
0.0
 11
19.806472
 21
0.0
 31
0.0
  0
POINT
  5
3E2
330
4B9
100
AcDbEntity
  8
81
100
AcDbPoint
 10
16.0
 20
14.0
 30
0.0
  0
POINT
  5
3E3
330
4B9
100
AcDbEntity
  8
80
100
AcDbPoint
 10
0.0
 20
0.0
 30
0.0
  0
TEXT
  5
3E4
330
4B9
100
AcDbEntity
  8
SK6
100
AcDbText
 10
-13.422705
 20
15.263159
 30
0.0
 40
3.5
  1
HFS16
 41
0.7919989887640446
  7
SANDVIK_STYLE
 72
     5
 11
-1.674719999999999
 21
15.263159
 31
0.0
100
AcDbText
  0
TEXT
  5
3E5
330
4B9
100
AcDbEntity
  8
SK6
100
AcDbText
 10
-22.035733
 20
-35.590344
 30
0.0
 40
3.5
  1
830A-E06D2800H7S16
 41
0.7987657938718664
  7
SANDVIK_STYLE
 72
     5
 11
25.757087
 21
-35.590344
 31
0.0
100
AcDbText
  0
TEXT
  5
3E6
330
4B9
100
AcDbEntity
  8
2
100
AcDbText
 10
10.243403
 20
29.582748
 30
0.0
 40
3.5
  1
L=16 
100
AcDbText
  0
INSERT
  5
3E7
330
4B9
100
AcDbEntity
  8
2
100
AcDbBlockReference
  2
*D0
 10
0.0
 20
0.0
 30
0.0
  0
TEXT
  5
3E8
330
4B9
100
AcDbEntity
  8
2
100
AcDbText
 10
34.301955
 20
1.828558
 30
0.0
 40
3.5
  1
%%c28 H7
 50
90.0
100
AcDbText
  0
INSERT
  5
3E9
330
4B9
100
AcDbEntity
  8
2
100
AcDbBlockReference
  2
*D1
 10
0.0
 20
0.0
 30
0.0
  0
ENDSEC
  0
SECTION
  2
OBJECTS
  0
DICTIONARY
  5
455
330
0
100
AcDbDictionary
281
     1
  3
ACAD_CIP_PREVIOUS_PRODUCT_INFO
350
4EC
  3
ACAD_COLOR
350
4AB
  3
ACAD_DETAILVIEWSTYLE
350
4B3
  3
ACAD_GROUP
350
456
  3
ACAD_LAYOUT
350
4AA
  3
ACAD_MATERIAL
350
459
  3
ACAD_MLEADERSTYLE
350
4AE
  3
ACAD_MLINESTYLE
350
4A7
  3
ACAD_PLOTSETTINGS
350
4A9
  3
ACAD_PLOTSTYLENAME
350
457
  3
ACAD_SCALELIST
350
48B
  3
ACAD_SECTIONVIEWSTYLE
350
4B0
  3
ACAD_TABLESTYLE
350
4AC
  3
ACAD_VISUALSTYLE
350
472
  3
ACDB_RECOMPOSE_DATA
350
548
  3
AcDbVariableDictionary
350
53B
  3
DWGPROPS
350
549
  0
DICTIONARY
  5
4EF
330
49D
100
AcDbDictionary
280
     1
281
     1
  3
ADSK_XREC_LAYER_RECONCILED
360
4F0
  0
DICTIONARY
  5
4F1
330
4BD
100
AcDbDictionary
280
     1
281
     1
  3
ADSK_XREC_LAYER_RECONCILED
360
4F2
  0
DICTIONARY
  5
4F3
330
4C1
100
AcDbDictionary
280
     1
281
     1
  3
ADSK_XREC_LAYER_RECONCILED
360
4F4
  0
DICTIONARY
  5
4F5
330
4C2
100
AcDbDictionary
280
     1
281
     1
  3
ADSK_XREC_LAYER_RECONCILED
360
4F6
  0
DICTIONARY
  5
4F7
330
4C3
100
AcDbDictionary
280
     1
281
     1
  3
ADSK_XREC_LAYER_RECONCILED
360
4F8
  0
DICTIONARY
  5
4F9
330
4C4
100
AcDbDictionary
280
     1
281
     1
  3
ADSK_XREC_LAYER_RECONCILED
360
4FA
  0
DICTIONARY
  5
4FB
330
4C5
100
AcDbDictionary
280
     1
281
     1
  3
ADSK_XREC_LAYER_RECONCILED
360
4FC
  0
DICTIONARY
  5
4FD
330
4C6
100
AcDbDictionary
280
     1
281
     1
  3
ADSK_XREC_LAYER_RECONCILED
360
4FE
  0
DICTIONARY
  5
4FF
330
4C7
100
AcDbDictionary
280
     1
281
     1
  3
ADSK_XREC_LAYER_RECONCILED
360
500
  0
DICTIONARY
  5
501
330
4C8
100
AcDbDictionary
280
     1
281
     1
  3
ADSK_XREC_LAYER_RECONCILED
360
502
  0
DICTIONARY
  5
503
330
4C9
100
AcDbDictionary
280
     1
281
     1
  3
ADSK_XREC_LAYER_RECONCILED
360
504
  0
DICTIONARY
  5
505
330
4CA
100
AcDbDictionary
280
     1
281
     1
  3
ADSK_XREC_LAYER_RECONCILED
360
506
  0
DICTIONARY
  5
507
330
4CB
100
AcDbDictionary
280
     1
281
     1
  3
ADSK_XREC_LAYER_RECONCILED
360
508
  0
DICTIONARY
  5
509
330
4CC
100
AcDbDictionary
280
     1
281
     1
  3
ADSK_XREC_LAYER_RECONCILED
360
50A
  0
DICTIONARY
  5
50B
330
4CD
100
AcDbDictionary
280
     1
281
     1
  3
ADSK_XREC_LAYER_RECONCILED
360
50C
  0
DICTIONARY
  5
50D
330
4CE
100
AcDbDictionary
280
     1
281
     1
  3
ADSK_XREC_LAYER_RECONCILED
360
50E
  0
DICTIONARY
  5
50F
330
4CF
100
AcDbDictionary
280
     1
281
     1
  3
ADSK_XREC_LAYER_RECONCILED
360
510
  0
DICTIONARY
  5
511
330
4D0
100
AcDbDictionary
280
     1
281
     1
  3
ADSK_XREC_LAYER_RECONCILED
360
512
  0
DICTIONARY
  5
513
330
4D1
100
AcDbDictionary
280
     1
281
     1
  3
ADSK_XREC_LAYER_RECONCILED
360
514
  0
DICTIONARY
  5
515
330
4D2
100
AcDbDictionary
280
     1
281
     1
  3
ADSK_XREC_LAYER_RECONCILED
360
516
  0
DICTIONARY
  5
517
330
4D3
100
AcDbDictionary
280
     1
281
     1
  3
ADSK_XREC_LAYER_RECONCILED
360
518
  0
DICTIONARY
  5
519
330
4D4
100
AcDbDictionary
280
     1
281
     1
  3
ADSK_XREC_LAYER_RECONCILED
360
51A
  0
DICTIONARY
  5
51B
330
4D5
100
AcDbDictionary
280
     1
281
     1
  3
ADSK_XREC_LAYER_RECONCILED
360
51C
  0
DICTIONARY
  5
51D
330
4D6
100
AcDbDictionary
280
     1
281
     1
  3
ADSK_XREC_LAYER_RECONCILED
360
51E
  0
DICTIONARY
  5
51F
330
4D7
100
AcDbDictionary
280
     1
281
     1
  3
ADSK_XREC_LAYER_RECONCILED
360
520
  0
DICTIONARY
  5
521
330
4D8
100
AcDbDictionary
280
     1
281
     1
  3
ADSK_XREC_LAYER_RECONCILED
360
522
  0
DICTIONARY
  5
523
330
4D9
100
AcDbDictionary
280
     1
281
     1
  3
ADSK_XREC_LAYER_RECONCILED
360
524
  0
DICTIONARY
  5
525
330
4DA
100
AcDbDictionary
280
     1
281
     1
  3
ADSK_XREC_LAYER_RECONCILED
360
526
  0
DICTIONARY
  5
527
330
4DB
100
AcDbDictionary
280
     1
281
     1
  3
ADSK_XREC_LAYER_RECONCILED
360
528
  0
DICTIONARY
  5
529
330
4DC
100
AcDbDictionary
280
     1
281
     1
  3
ADSK_XREC_LAYER_RECONCILED
360
52A
  0
DICTIONARY
  5
52B
330
4DD
100
AcDbDictionary
280
     1
281
     1
  3
ADSK_XREC_LAYER_RECONCILED
360
52C
  0
DICTIONARY
  5
52D
330
4DE
100
AcDbDictionary
280
     1
281
     1
  3
ADSK_XREC_LAYER_RECONCILED
360
52E
  0
DICTIONARY
  5
52F
330
4DF
100
AcDbDictionary
280
     1
281
     1
  3
ADSK_XREC_LAYER_RECONCILED
360
530
  0
DICTIONARY
  5
531
330
4E0
100
AcDbDictionary
280
     1
281
     1
  3
ADSK_XREC_LAYER_RECONCILED
360
532
  0
DICTIONARY
  5
533
330
4E1
100
AcDbDictionary
280
     1
281
     1
  3
ADSK_XREC_LAYER_RECONCILED
360
534
  0
DICTIONARY
  5
535
330
4E2
100
AcDbDictionary
280
     1
281
     1
  3
ADSK_XREC_LAYER_RECONCILED
360
536
  0
DICTIONARY
  5
537
330
4E3
100
AcDbDictionary
280
     1
281
     1
  3
ADSK_XREC_LAYER_RECONCILED
360
538
  0
DICTIONARY
  5
539
330
4E4
100
AcDbDictionary
280
     1
281
     1
  3
ADSK_XREC_LAYER_RECONCILED
360
53A
  0
XRECORD
  5
4EC
102
{ACAD_REACTORS
330
455
102
}
330
455
100
AcDbXrecord
280
     1
300
AMECH_PP
300
2013
300
PDSU_F_S
  0
DICTIONARY
  5
4AB
102
{ACAD_REACTORS
330
455
102
}
330
455
100
AcDbDictionary
281
     1
  0
DICTIONARY
  5
4B3
102
{ACAD_REACTORS
330
455
102
}
330
455
100
AcDbDictionary
281
     1
  3
Imperial24
350
4B4
  0
DICTIONARY
  5
456
102
{ACAD_REACTORS
330
455
102
}
330
455
100
AcDbDictionary
281
     1
  0
DICTIONARY
  5
4AA
102
{ACAD_REACTORS
330
455
102
}
330
455
100
AcDbDictionary
281
     1
  3
Layout1
350
4B8
  3
Model
350
4BC
  0
DICTIONARY
  5
459
102
{ACAD_REACTORS
330
455
102
}
330
455
100
AcDbDictionary
281
     1
  3
ByBlock
350
462
  3
ByLayer
350
45A
  3
Global
350
46A
  0
DICTIONARY
  5
4AE
102
{ACAD_REACTORS
330
455
102
}
330
455
100
AcDbDictionary
281
     1
  3
Standard
350
4AF
  0
DICTIONARY
  5
4A7
102
{ACAD_REACTORS
330
455
102
}
330
455
100
AcDbDictionary
281
     1
  3
Standard
350
4A8
  0
DICTIONARY
  5
4A9
102
{ACAD_REACTORS
330
455
102
}
330
455
100
AcDbDictionary
281
     1
  0
ACDBDICTIONARYWDFLT
  5
457
102
{ACAD_REACTORS
330
455
102
}
330
455
100
AcDbDictionary
281
     1
  3
Normal
350
458
100
AcDbDictionaryWithDefault
340
458
  0
DICTIONARY
  5
48B
102
{ACAD_REACTORS
330
455
102
}
330
455
100
AcDbDictionary
281
     1
  3
A0
350
48C
  3
A1
350
48D
  3
A2
350
48E
  3
A3
350
48F
  3
A4
350
490
  3
A5
350
491
  3
A6
350
492
  3
A7
350
493
  3
A8
350
494
  3
A9
350
495
  3
B0
350
496
  3
B1
350
497
  3
B2
350
498
  3
B3
350
499
  3
B4
350
49A
  3
B5
350
49B
  3
B6
350
49C
  0
DICTIONARY
  5
4B0
102
{ACAD_REACTORS
330
455
102
}
330
455
100
AcDbDictionary
281
     1
  3
Imperial24
350
4B2
  0
DICTIONARY
  5
4AC
102
{ACAD_REACTORS
330
455
102
}
330
455
100
AcDbDictionary
281
     1
  3
Standard
350
4AD
  0
DICTIONARY
  5
472
102
{ACAD_REACTORS
330
455
102
}
330
455
100
AcDbDictionary
281
     1
  3
2dWireframe
350
478
  3
Basic
350
477
  3
Brighten
350
47E
  3
ColorChange
350
482
  3
Conceptual
350
47B
  3
Dim
350
47D
  3
EdgeColorOff
350
48A
  3
Facepattern
350
481
  3
Flat
350
473
  3
FlatWithEdges
350
474
  3
Gouraud
350
475
  3
GouraudWithEdges
350
476
  3
Hidden
350
47A
  3
JitterOff
350
488
  3
Linepattern
350
480
  3
OverhangOff
350
489
  3
Realistic
350
47C
  3
Shaded
350
487
  3
Shaded with edges
350
486
  3
Shades of Gray
350
483
  3
Sketchy
350
484
  3
Thicken
350
47F
  3
Wireframe
350
479
  3
X-Ray
350
485
  0
XRECORD
  5
548
102
{ACAD_REACTORS
330
455
102
}
330
455
100
AcDbXrecord
280
     1
 90
        1
330
4AD
  0
DICTIONARY
  5
53B
102
{ACAD_REACTORS
330
455
102
}
330
455
100
AcDbDictionary
281
     1
  3
CANNOSCALE
350
540
  3
CMLEADERSTYLE
350
53D
  3
CTABLESTYLE
350
53C
  3
CVIEWDETAILSTYLE
350
53E
  3
CVIEWSECTIONSTYLE
350
53F
  3
DIMASSOC
350
543
  3
INDEXCTL
350
542
  3
SORTENTS
350
541
  3
XCLIPFRAME
350
544
  0
XRECORD
  5
549
102
{ACAD_REACTORS
330
455
102
}
330
455
100
AcDbXrecord
280
     1
  1
DWGPROPS COOKIE
  2

  3

  4

  6

  7

  8
Micke
  9

300
=
301
=
302
=
303
=
304
=
305
=
306
=
307
=
308
=
309
=
 40
0.0000043981481481
 41
2456818.31954684
 42
2456818.319551238
  1

 90
        0
  0
XRECORD
  5
4F0
102
{ACAD_REACTORS
330
4EF
102
}
330
4EF
100
AcDbXrecord
280
     1
290
     1
  0
XRECORD
  5
4F2
102
{ACAD_REACTORS
330
4F1
102
}
330
4F1
100
AcDbXrecord
280
     1
290
     1
  0
XRECORD
  5
4F4
102
{ACAD_REACTORS
330
4F3
102
}
330
4F3
100
AcDbXrecord
280
     1
290
     1
  0
XRECORD
  5
4F6
102
{ACAD_REACTORS
330
4F5
102
}
330
4F5
100
AcDbXrecord
280
     1
290
     1
  0
XRECORD
  5
4F8
102
{ACAD_REACTORS
330
4F7
102
}
330
4F7
100
AcDbXrecord
280
     1
290
     1
  0
XRECORD
  5
4FA
102
{ACAD_REACTORS
330
4F9
102
}
330
4F9
100
AcDbXrecord
280
     1
290
     1
  0
XRECORD
  5
4FC
102
{ACAD_REACTORS
330
4FB
102
}
330
4FB
100
AcDbXrecord
280
     1
290
     1
  0
XRECORD
  5
4FE
102
{ACAD_REACTORS
330
4FD
102
}
330
4FD
100
AcDbXrecord
280
     1
290
     1
  0
XRECORD
  5
500
102
{ACAD_REACTORS
330
4FF
102
}
330
4FF
100
AcDbXrecord
280
     1
290
     1
  0
XRECORD
  5
502
102
{ACAD_REACTORS
330
501
102
}
330
501
100
AcDbXrecord
280
     1
290
     1
  0
XRECORD
  5
504
102
{ACAD_REACTORS
330
503
102
}
330
503
100
AcDbXrecord
280
     1
290
     1
  0
XRECORD
  5
506
102
{ACAD_REACTORS
330
505
102
}
330
505
100
AcDbXrecord
280
     1
290
     1
  0
XRECORD
  5
508
102
{ACAD_REACTORS
330
507
102
}
330
507
100
AcDbXrecord
280
     1
290
     1
  0
XRECORD
  5
50A
102
{ACAD_REACTORS
330
509
102
}
330
509
100
AcDbXrecord
280
     1
290
     1
  0
XRECORD
  5
50C
102
{ACAD_REACTORS
330
50B
102
}
330
50B
100
AcDbXrecord
280
     1
290
     1
  0
XRECORD
  5
50E
102
{ACAD_REACTORS
330
50D
102
}
330
50D
100
AcDbXrecord
280
     1
290
     1
  0
XRECORD
  5
510
102
{ACAD_REACTORS
330
50F
102
}
330
50F
100
AcDbXrecord
280
     1
290
     1
  0
XRECORD
  5
512
102
{ACAD_REACTORS
330
511
102
}
330
511
100
AcDbXrecord
280
     1
290
     1
  0
XRECORD
  5
514
102
{ACAD_REACTORS
330
513
102
}
330
513
100
AcDbXrecord
280
     1
290
     1
  0
XRECORD
  5
516
102
{ACAD_REACTORS
330
515
102
}
330
515
100
AcDbXrecord
280
     1
290
     1
  0
XRECORD
  5
518
102
{ACAD_REACTORS
330
517
102
}
330
517
100
AcDbXrecord
280
     1
290
     1
  0
XRECORD
  5
51A
102
{ACAD_REACTORS
330
519
102
}
330
519
100
AcDbXrecord
280
     1
290
     1
  0
XRECORD
  5
51C
102
{ACAD_REACTORS
330
51B
102
}
330
51B
100
AcDbXrecord
280
     1
290
     1
  0
XRECORD
  5
51E
102
{ACAD_REACTORS
330
51D
102
}
330
51D
100
AcDbXrecord
280
     1
290
     1
  0
XRECORD
  5
520
102
{ACAD_REACTORS
330
51F
102
}
330
51F
100
AcDbXrecord
280
     1
290
     1
  0
XRECORD
  5
522
102
{ACAD_REACTORS
330
521
102
}
330
521
100
AcDbXrecord
280
     1
290
     1
  0
XRECORD
  5
524
102
{ACAD_REACTORS
330
523
102
}
330
523
100
AcDbXrecord
280
     1
290
     1
  0
XRECORD
  5
526
102
{ACAD_REACTORS
330
525
102
}
330
525
100
AcDbXrecord
280
     1
290
     1
  0
XRECORD
  5
528
102
{ACAD_REACTORS
330
527
102
}
330
527
100
AcDbXrecord
280
     1
290
     1
  0
XRECORD
  5
52A
102
{ACAD_REACTORS
330
529
102
}
330
529
100
AcDbXrecord
280
     1
290
     1
  0
XRECORD
  5
52C
102
{ACAD_REACTORS
330
52B
102
}
330
52B
100
AcDbXrecord
280
     1
290
     1
  0
XRECORD
  5
52E
102
{ACAD_REACTORS
330
52D
102
}
330
52D
100
AcDbXrecord
280
     1
290
     1
  0
XRECORD
  5
530
102
{ACAD_REACTORS
330
52F
102
}
330
52F
100
AcDbXrecord
280
     1
290
     1
  0
XRECORD
  5
532
102
{ACAD_REACTORS
330
531
102
}
330
531
100
AcDbXrecord
280
     1
290
     1
  0
XRECORD
  5
534
102
{ACAD_REACTORS
330
533
102
}
330
533
100
AcDbXrecord
280
     1
290
     1
  0
XRECORD
  5
536
102
{ACAD_REACTORS
330
535
102
}
330
535
100
AcDbXrecord
280
     1
290
     1
  0
XRECORD
  5
538
102
{ACAD_REACTORS
330
537
102
}
330
537
100
AcDbXrecord
280
     1
290
     1
  0
XRECORD
  5
53A
102
{ACAD_REACTORS
330
539
102
}
330
539
100
AcDbXrecord
280
     1
290
     1
  0
ACDBDETAILVIEWSTYLE
  5
4B4
102
{ACAD_REACTORS
330
4B3
102
}
330
4B3
100
AcDbModelDocViewStyle
 70
     0
  3
Imperial24
290
     0
100
AcDbDetailViewStyle
 70
     0
 71
     0
 90
        3
 71
     1
340
49E
 40
0.24
340
0
 40
0.24
300

 40
0.36
280
     3
 71
     2
340
4A5
 90
       25
 71
     3
340
49E
 40
0.24
 90
        1
 40
0.75
 90
        1
300
%<\AcVar ViewType \f "%tc1">% %<\AcVar ViewDetailId>%\PSCALE %<\AcVar ViewScale \f "%sn">%
 71
     4
340
4A5
 90
       25
340
4A5
 90
       25
280
     0
  0
LAYOUT
  5
4B8
102
{ACAD_XDICTIONARY
360
57F
102
}
102
{ACAD_REACTORS
330
4AA
102
}
330
4AA
100
AcDbPlotSettings
  1

  2
Brother DCP-9020CDW Printer
  4

  6

 40
0.0
 41
0.0
 42
0.0
 43
0.0
 44
0.0
 45
0.0
 46
0.0
 47
0.0
 48
0.0
 49
0.0
140
0.0
141
0.0
142
1.0
143
1.0
 70
   688
 72
     0
 73
     0
 74
     5
  7

 75
    16
147
1.0
148
0.0
149
0.0
100
AcDbLayout
  1
Layout1
 70
     1
 71
     1
 10
0.0
 20
0.0
 11
12.0
 21
9.0
 12
0.0
 22
0.0
 32
0.0
 14
1.000000000000000E+20
 24
1.000000000000000E+20
 34
1.000000000000000E+20
 15
-1.000000000000000E+20
 25
-1.000000000000000E+20
 35
-1.000000000000000E+20
146
0.0
 13
0.0
 23
0.0
 33
0.0
 16
1.0
 26
0.0
 36
0.0
 17
0.0
 27
1.0
 37
0.0
 76
     0
330
4B5
  0
LAYOUT
  5
4BC
102
{ACAD_XDICTIONARY
360
581
102
}
102
{ACAD_REACTORS
330
4AA
102
}
330
4AA
100
AcDbPlotSettings
  1

  2
Brother DCP-9020CDW Printer
  4

  6

 40
0.0
 41
0.0
 42
0.0
 43
0.0
 44
0.0
 45
0.0
 46
0.0
 47
0.0
 48
0.0
 49
0.0
140
0.0
141
0.0
142
1.0
143
1.0
 70
  1712
 72
     0
 73
     0
 74
     0
  7

 75
     0
147
1.0
148
0.0
149
0.0
100
AcDbLayout
  1
Model
 70
     1
 71
     0
 10
0.0
 20
0.0
 11
12.0
 21
9.0
 12
0.0
 22
0.0
 32
0.0
 14
0.0
 24
0.0
 34
0.0
 15
0.0
 25
0.0
 35
0.0
146
0.0
 13
0.0
 23
0.0
 33
0.0
 16
1.0
 26
0.0
 36
0.0
 17
0.0
 27
1.0
 37
0.0
 76
     0
330
4B9
331
4E8
  0
MATERIAL
  5
462
102
{ACAD_XDICTIONARY
360
463
102
}
102
{ACAD_REACTORS
330
459
102
}
330
459
100
AcDbMaterial
  1
ByBlock
 72
     0
 43
0.0208333333333333
 43
0.0
 43
0.0
 43
0.0
 43
0.0
 43
0.0208333333333333
 43
0.0
 43
0.0
 43
0.0
 43
0.0
 43
1.0
 43
0.0
 43
0.0
 43
0.0
 43
0.0
 43
1.0
 77
     0
 47
0.0208333333333333
 47
0.0
 47
0.0
 47
0.0
 47
0.0
 47
0.0208333333333333
 47
0.0
 47
0.0
 47
0.0
 47
0.0
 47
1.0
 47
0.0
 47
0.0
 47
0.0
 47
0.0
 47
1.0
171
     0
 49
0.0208333333333333
 49
0.0
 49
0.0
 49
0.0
 49
0.0
 49
0.0208333333333333
 49
0.0
 49
0.0
 49
0.0
 49
0.0
 49
1.0
 49
0.0
 49
0.0
 49
0.0
 49
0.0
 49
1.0
175
     0
142
0.0208333333333333
142
0.0
142
0.0
142
0.0
142
0.0
142
0.0208333333333333
142
0.0
142
0.0
142
0.0
142
0.0
142
1.0
142
0.0
142
0.0
142
0.0
142
0.0
142
1.0
179
     0
144
0.0208333333333333
144
0.0
144
0.0
144
0.0
144
0.0
144
0.0208333333333333
144
0.0
144
0.0
144
0.0
144
0.0
144
1.0
144
0.0
144
0.0
144
0.0
144
0.0
144
1.0
147
0.0208333333333333
147
0.0
147
0.0
147
0.0
147
0.0
147
0.0208333333333333
147
0.0
147
0.0
147
0.0
147
0.0
147
1.0
147
0.0
147
0.0
147
0.0
147
0.0
147
1.0
  0
MATERIAL
  5
45A
102
{ACAD_XDICTIONARY
360
45B
102
}
102
{ACAD_REACTORS
330
459
102
}
330
459
100
AcDbMaterial
  1
ByLayer
 72
     0
 43
0.0208333333333333
 43
0.0
 43
0.0
 43
0.0
 43
0.0
 43
0.0208333333333333
 43
0.0
 43
0.0
 43
0.0
 43
0.0
 43
1.0
 43
0.0
 43
0.0
 43
0.0
 43
0.0
 43
1.0
 77
     0
 47
0.0208333333333333
 47
0.0
 47
0.0
 47
0.0
 47
0.0
 47
0.0208333333333333
 47
0.0
 47
0.0
 47
0.0
 47
0.0
 47
1.0
 47
0.0
 47
0.0
 47
0.0
 47
0.0
 47
1.0
171
     0
 49
0.0208333333333333
 49
0.0
 49
0.0
 49
0.0
 49
0.0
 49
0.0208333333333333
 49
0.0
 49
0.0
 49
0.0
 49
0.0
 49
1.0
 49
0.0
 49
0.0
 49
0.0
 49
0.0
 49
1.0
175
     0
142
0.0208333333333333
142
0.0
142
0.0
142
0.0
142
0.0
142
0.0208333333333333
142
0.0
142
0.0
142
0.0
142
0.0
142
1.0
142
0.0
142
0.0
142
0.0
142
0.0
142
1.0
179
     0
144
0.0208333333333333
144
0.0
144
0.0
144
0.0
144
0.0
144
0.0208333333333333
144
0.0
144
0.0
144
0.0
144
0.0
144
1.0
144
0.0
144
0.0
144
0.0
144
0.0
144
1.0
147
0.0208333333333333
147
0.0
147
0.0
147
0.0
147
0.0
147
0.0208333333333333
147
0.0
147
0.0
147
0.0
147
0.0
147
1.0
147
0.0
147
0.0
147
0.0
147
0.0
147
1.0
  0
MATERIAL
  5
46A
102
{ACAD_XDICTIONARY
360
46B
102
}
102
{ACAD_REACTORS
330
459
102
}
330
459
100
AcDbMaterial
  1
Global
 72
     0
 43
0.0208333333333333
 43
0.0
 43
0.0
 43
0.0
 43
0.0
 43
0.0208333333333333
 43
0.0
 43
0.0
 43
0.0
 43
0.0
 43
1.0
 43
0.0
 43
0.0
 43
0.0
 43
0.0
 43
1.0
 77
     0
 47
0.0208333333333333
 47
0.0
 47
0.0
 47
0.0
 47
0.0
 47
0.0208333333333333
 47
0.0
 47
0.0
 47
0.0
 47
0.0
 47
1.0
 47
0.0
 47
0.0
 47
0.0
 47
0.0
 47
1.0
171
     0
 49
0.0208333333333333
 49
0.0
 49
0.0
 49
0.0
 49
0.0
 49
0.0208333333333333
 49
0.0
 49
0.0
 49
0.0
 49
0.0
 49
1.0
 49
0.0
 49
0.0
 49
0.0
 49
0.0
 49
1.0
175
     0
142
0.0208333333333333
142
0.0
142
0.0
142
0.0
142
0.0
142
0.0208333333333333
142
0.0
142
0.0
142
0.0
142
0.0
142
1.0
142
0.0
142
0.0
142
0.0
142
0.0
142
1.0
179
     0
144
0.0208333333333333
144
0.0
144
0.0
144
0.0
144
0.0
144
0.0208333333333333
144
0.0
144
0.0
144
0.0
144
0.0
144
1.0
144
0.0
144
0.0
144
0.0
144
0.0
144
1.0
147
0.0208333333333333
147
0.0
147
0.0
147
0.0
147
0.0
147
0.0208333333333333
147
0.0
147
0.0
147
0.0
147
0.0
147
1.0
147
0.0
147
0.0
147
0.0
147
0.0
147
1.0
  0
MLEADERSTYLE
  5
4AF
102
{ACAD_REACTORS
330
4AE
102
}
330
4AE
100
AcDbMLeaderStyle
170
     2
171
     1
172
     0
 90
        2
 40
0.0
 41
0.0
173
     1
 91
-1056964608
340
4A3
 92
       -2
290
     1
 42
0.09
291
     1
 43
0.36
  3
Standard
 44
0.18
300

342
49E
174
     1
178
     6
175
     1
176
     0
 93
-1056964608
 45
0.18
292
     0
297
     0
 46
0.18
 94
-1056964608
 47
1.0
 49
1.0
140
1.0
293
     1
141
0.0
294
     1
177
     0
142
1.0
295
     0
296
     0
143
0.125
1001
ACAD_MLEADERVER
1070
     2
  0
MLINESTYLE
  5
4A8
102
{ACAD_REACTORS
330
4A7
102
}
330
4A7
100
AcDbMlineStyle
  2
STANDARD
 70
     0
  3

 62
   256
 51
90.0
 52
90.0
 71
     2
 49
0.5
 62
   256
  6
BYLAYER
 49
-0.5
 62
   256
  6
BYLAYER
  0
ACDBPLACEHOLDER
  5
458
102
{ACAD_REACTORS
330
457
102
}
330
457
  0
SCALE
  5
48C
102
{ACAD_REACTORS
330
48B
102
}
330
48B
100
AcDbScale
 70
     0
300
1:1
140
1.0
141
1.0
290
     1
  0
SCALE
  5
48D
102
{ACAD_REACTORS
330
48B
102
}
330
48B
100
AcDbScale
 70
     0
300
1/128" = 1'-0"
140
0.0078125
141
12.0
290
     0
  0
SCALE
  5
48E
102
{ACAD_REACTORS
330
48B
102
}
330
48B
100
AcDbScale
 70
     0
300
1/64" = 1'-0"
140
0.015625
141
12.0
290
     0
  0
SCALE
  5
48F
102
{ACAD_REACTORS
330
48B
102
}
330
48B
100
AcDbScale
 70
     0
300
1/32" = 1'-0"
140
0.03125
141
12.0
290
     0
  0
SCALE
  5
490
102
{ACAD_REACTORS
330
48B
102
}
330
48B
100
AcDbScale
 70
     0
300
1/16" = 1'-0"
140
0.0625
141
12.0
290
     0
  0
SCALE
  5
491
102
{ACAD_REACTORS
330
48B
102
}
330
48B
100
AcDbScale
 70
     0
300
3/32" = 1'-0"
140
0.09375
141
12.0
290
     0
  0
SCALE
  5
492
102
{ACAD_REACTORS
330
48B
102
}
330
48B
100
AcDbScale
 70
     0
300
1/8" = 1'-0"
140
0.125
141
12.0
290
     0
  0
SCALE
  5
493
102
{ACAD_REACTORS
330
48B
102
}
330
48B
100
AcDbScale
 70
     0
300
3/16" = 1'-0"
140
0.1875
141
12.0
290
     0
  0
SCALE
  5
494
102
{ACAD_REACTORS
330
48B
102
}
330
48B
100
AcDbScale
 70
     0
300
1/4" = 1'-0"
140
0.25
141
12.0
290
     0
  0
SCALE
  5
495
102
{ACAD_REACTORS
330
48B
102
}
330
48B
100
AcDbScale
 70
     0
300
3/8" = 1'-0"
140
0.375
141
12.0
290
     0
  0
SCALE
  5
496
102
{ACAD_REACTORS
330
48B
102
}
330
48B
100
AcDbScale
 70
     0
300
1/2" = 1'-0"
140
0.5
141
12.0
290
     0
  0
SCALE
  5
497
102
{ACAD_REACTORS
330
48B
102
}
330
48B
100
AcDbScale
 70
     0
300
3/4" = 1'-0"
140
0.75
141
12.0
290
     0
  0
SCALE
  5
498
102
{ACAD_REACTORS
330
48B
102
}
330
48B
100
AcDbScale
 70
     0
300
1" = 1'-0"
140
1.0
141
12.0
290
     0
  0
SCALE
  5
499
102
{ACAD_REACTORS
330
48B
102
}
330
48B
100
AcDbScale
 70
     0
300
1-1/2" = 1'-0"
140
1.5
141
12.0
290
     0
  0
SCALE
  5
49A
102
{ACAD_REACTORS
330
48B
102
}
330
48B
100
AcDbScale
 70
     0
300
3" = 1'-0"
140
3.0
141
12.0
290
     0
  0
SCALE
  5
49B
102
{ACAD_REACTORS
330
48B
102
}
330
48B
100
AcDbScale
 70
     0
300
6" = 1'-0"
140
6.0
141
12.0
290
     0
  0
SCALE
  5
49C
102
{ACAD_REACTORS
330
48B
102
}
330
48B
100
AcDbScale
 70
     0
300
1'-0" = 1'-0"
140
12.0
141
12.0
290
     0
  0
ACDBSECTIONVIEWSTYLE
  5
4B2
102
{ACAD_REACTORS
330
4B0
102
}
330
4B0
100
AcDbModelDocViewStyle
 70
     0
  3
Imperial24
290
     0
100
AcDbSectionViewStyle
 70
     0
 71
     0
 90
       78
 71
     1
340
49E
 40
0.24
340
0
340
0
 40
0.24
300
I, O, Q, S, X, Z
 40
0.48
 90
        3
 40
0.18
 90
        1
 71
     2
340
4B1
 90
       25
340
4A5
 90
       50
 40
0.24
 40
0.0
 40
0.24
 71
     3
340
49E
 40
0.24
 90
        1
 40
0.75
 90
        1
300
%<\AcVar ViewType \f "%tc1">% %<\AcVar ViewSectionStartId>%-%<\AcVar ViewSectionEndId>%\PSCALE %<\AcVar ViewScale \f "%sn">%
 71
     4
300
ANSI31
 40
1.0
 90
        0
290
     0
290
     0
 90
        6
 40
0.0
 40
1.570796326794896
 40
0.2617993877991494
 40
1.308996938995747
 40
-0.2617993877991494
 40
1.832595714594046
  0
TABLESTYLE
  5
4AD
102
{ACAD_XDICTIONARY
360
546
102
}
102
{ACAD_REACTORS
330
4AC
102
}
330
4AC
100
AcDbTableStyle
  3
Standard
 70
     0
 71
     0
 40
0.06
 41
0.06
280
     0
281
     0
  7
STANDARD
140
0.18
170
     2
 62
     0
 63
     7
283
     0
274
    -2
284
     1
 64
     0
275
    -2
285
     1
 65
     0
276
    -2
286
     1
 66
     0
277
    -2
287
     1
 67
     0
278
    -2
288
     1
 68
     0
279
    -2
289
     1
 69
     0
  7
STANDARD
140
0.25
170
     5
 62
     0
 63
     7
283
     0
274
    -2
284
     1
 64
     0
275
    -2
285
     1
 65
     0
276
    -2
286
     1
 66
     0
277
    -2
287
     1
 67
     0
278
    -2
288
     1
 68
     0
279
    -2
289
     1
 69
     0
  7
STANDARD
140
0.18
170
     5
 62
     0
 63
     7
283
     0
274
    -2
284
     1
 64
     0
275
    -2
285
     1
 65
     0
276
    -2
286
     1
 66
     0
277
    -2
287
     1
 67
     0
278
    -2
288
     1
 68
     0
279
    -2
289
     1
 69
     0
  0
VISUALSTYLE
  5
478
102
{ACAD_XDICTIONARY
360
557
102
}
102
{ACAD_REACTORS
330
472
102
}
330
472
100
AcDbVisualStyle
  2
2dWireframe
 70
     4
 71
     0
 72
     2
 73
     0
 90
        0
 40
-0.6
 41
-30.0
 62
     5
 63
     7
 74
     1
 91
        4
 64
     7
 65
   257
 75
     1
175
     1
 42
1.0
 92
        0
 66
   257
 43
1.0
 76
     1
 77
     6
 78
     2
 67
     7
 79
     5
170
     0
171
     0
290
     0
174
     0
 93
        1
 44
0.0
173
     0
291
     0
 45
0.0
1001
ACAD
1000
AcDbSavedByObjectVersion
1070
     0
  0
VISUALSTYLE
  5
477
102
{ACAD_XDICTIONARY
360
555
102
}
102
{ACAD_REACTORS
330
472
102
}
330
472
100
AcDbVisualStyle
  2
Basic
 70
     7
 71
     1
 72
     0
 73
     1
 90
        0
 40
-0.6
 41
-30.0
 62
     5
 63
     7
 74
     0
 91
        4
 64
     7
 65
   257
 75
     1
175
     1
 42
1.0
 92
        8
 66
     7
 43
1.0
 76
     1
 77
     6
 78
     2
 67
     7
 79
     5
170
     0
171
     0
290
     0
174
     0
 93
        1
 44
0.0
173
     0
291
     1
 45
0.0
1001
ACAD
1000
AcDbSavedByObjectVersion
1070
     0
  0
VISUALSTYLE
  5
47E
102
{ACAD_XDICTIONARY
360
563
102
}
102
{ACAD_REACTORS
330
472
102
}
330
472
100
AcDbVisualStyle
  2
Brighten
 70
    12
 71
     2
 72
     2
 73
     0
 90
        0
 40
-0.6
 41
-30.0
 62
     5
 63
     7
 74
     1
 91
        4
 64
     7
 65
   257
 75
     1
175
     1
 42
1.0
 92
        8
 66
     7
 43
1.0
 76
     1
 77
     6
 78
     2
 67
     7
 79
     5
170
     0
171
     0
290
     0
174
     0
 93
        1
 44
50.0
173
     0
291
     1
 45
0.0
1001
ACAD
1000
AcDbSavedByObjectVersion
1070
     0
  0
VISUALSTYLE
  5
482
102
{ACAD_XDICTIONARY
360
56B
102
}
102
{ACAD_REACTORS
330
472
102
}
330
472
100
AcDbVisualStyle
  2
ColorChange
 70
    16
 71
     2
 72
     2
 73
     3
 90
        0
 40
-0.6
 41
-30.0
 62
     5
 63
     8
 74
     1
 91
        4
 64
     7
 65
   257
 75
     1
175
     1
 42
1.0
 92
        8
 66
     8
 43
1.0
 76
     1
 77
     6
 78
     2
 67
     7
 79
     5
170
     0
171
     0
290
     0
174
     0
 93
        1
 44
0.0
173
     0
291
     1
 45
0.0
1001
ACAD
1000
AcDbSavedByObjectVersion
1070
     0
  0
VISUALSTYLE
  5
47B
102
{ACAD_XDICTIONARY
360
55D
102
}
102
{ACAD_REACTORS
330
472
102
}
330
472
100
AcDbVisualStyle
  2
Conceptual
 70
     9
 71
     3
 72
     2
 73
     0
 90
        0
 40
-0.6
 41
-30.0
 62
     5
 63
     7
 74
     2
 91
        2
 64
     7
 65
   257
 75
     1
175
     1
 42
179.0
 92
        8
 66
     7
 43
1.0
 76
     1
 77
     6
 78
     2
 67
     7
 79
     3
170
     0
171
     0
290
     0
174
     0
 93
        1
 44
0.0
173
     0
291
     0
 45
0.0
1001
ACAD
1000
AcDbSavedByObjectVersion
1070
     0
  0
VISUALSTYLE
  5
47D
102
{ACAD_XDICTIONARY
360
561
102
}
102
{ACAD_REACTORS
330
472
102
}
330
472
100
AcDbVisualStyle
  2
Dim
 70
    11
 71
     2
 72
     2
 73
     0
 90
        0
 40
-0.6
 41
-30.0
 62
     5
 63
     7
 74
     1
 91
        4
 64
     7
 65
   257
 75
     1
175
     1
 42
1.0
 92
        8
 66
     7
 43
1.0
 76
     1
 77
     6
 78
     2
 67
     7
 79
     5
170
     0
171
     0
290
     0
174
     0
 93
        1
 44
-50.0
173
     0
291
     1
 45
0.0
1001
ACAD
1000
AcDbSavedByObjectVersion
1070
     0
  0
VISUALSTYLE
  5
48A
102
{ACAD_XDICTIONARY
360
57B
102
}
102
{ACAD_REACTORS
330
472
102
}
330
472
100
AcDbVisualStyle
  2
EdgeColorOff
 70
    22
 71
     2
 72
     2
 73
     0
 90
        0
 40
-0.6
 41
-30.0
 62
     5
 63
     7
 74
     1
 91
        4
 64
     7
 65
   257
 75
     1
175
     1
 42
1.0
 92
        8
 66
     7
 43
1.0
 76
     1
 77
     6
 78
     2
 67
     7
 79
     5
170
     0
171
     0
290
     0
174
     0
 93
        1
 44
0.0
173
     0
291
     1
 45
0.0
1001
ACAD
1000
AcDbSavedByObjectVersion
1070
     0
  0
VISUALSTYLE
  5
481
102
{ACAD_XDICTIONARY
360
569
102
}
102
{ACAD_REACTORS
330
472
102
}
330
472
100
AcDbVisualStyle
  2
Facepattern
 70
    15
 71
     2
 72
     2
 73
     0
 90
        0
 40
-0.6
 41
-30.0
 62
     5
 63
     7
 74
     1
 91
        4
 64
     7
 65
   257
 75
     1
175
     1
 42
1.0
 92
        8
 66
     7
 43
1.0
 76
     1
 77
     6
 78
     2
 67
     7
 79
     5
170
     0
171
     0
290
     0
174
     0
 93
        1
 44
0.0
173
     0
291
     1
 45
0.0
1001
ACAD
1000
AcDbSavedByObjectVersion
1070
     0
  0
VISUALSTYLE
  5
473
102
{ACAD_XDICTIONARY
360
54D
102
}
102
{ACAD_REACTORS
330
472
102
}
330
472
100
AcDbVisualStyle
  2
Flat
 70
     0
 71
     2
 72
     1
 73
     1
 90
        2
 40
-0.6
 41
30.0
 62
     5
 63
     7
 74
     0
 91
        0
 64
     7
 65
   257
 75
     1
175
     1
 42
1.0
 92
        8
 66
     7
 43
1.0
 76
     1
 77
     6
 78
     2
 67
     7
 79
     5
170
     0
171
     0
290
     0
174
     0
 93
       13
 44
0.0
173
     0
291
     1
 45
0.0
1001
ACAD
1000
AcDbSavedByObjectVersion
1070
     0
  0
VISUALSTYLE
  5
474
102
{ACAD_XDICTIONARY
360
54F
102
}
102
{ACAD_REACTORS
330
472
102
}
330
472
100
AcDbVisualStyle
  2
FlatWithEdges
 70
     1
 71
     2
 72
     1
 73
     1
 90
        2
 40
-0.6
 41
30.0
 62
     5
 63
     7
 74
     1
 91
        0
 64
     7
 65
   257
 75
     1
175
     1
 42
1.0
 92
        0
 66
   257
 43
1.0
 76
     1
 77
     6
 78
     2
 67
     7
 79
     5
170
     0
171
     0
290
     0
174
     0
 93
       13
 44
0.0
173
     0
291
     1
 45
0.0
1001
ACAD
1000
AcDbSavedByObjectVersion
1070
     0
  0
VISUALSTYLE
  5
475
102
{ACAD_XDICTIONARY
360
551
102
}
102
{ACAD_REACTORS
330
472
102
}
330
472
100
AcDbVisualStyle
  2
Gouraud
 70
     2
 71
     2
 72
     2
 73
     1
 90
        2
 40
-0.6
 41
30.0
 62
     5
 63
     7
 74
     0
 91
        0
 64
     7
 65
   257
 75
     1
175
     1
 42
1.0
 92
        0
 66
     7
 43
1.0
 76
     1
 77
     6
 78
     2
 67
     7
 79
     5
170
     0
171
     0
290
     0
174
     0
 93
       13
 44
0.0
173
     0
291
     1
 45
0.0
1001
ACAD
1000
AcDbSavedByObjectVersion
1070
     0
  0
VISUALSTYLE
  5
476
102
{ACAD_XDICTIONARY
360
553
102
}
102
{ACAD_REACTORS
330
472
102
}
330
472
100
AcDbVisualStyle
  2
GouraudWithEdges
 70
     3
 71
     2
 72
     2
 73
     1
 90
        2
 40
-0.6
 41
30.0
 62
     5
 63
     7
 74
     1
 91
        0
 64
     7
 65
   257
 75
     1
175
     1
 42
1.0
 92
        0
 66
   257
 43
1.0
 76
     1
 77
     6
 78
     2
 67
     7
 79
     5
170
     0
171
     0
290
     0
174
     0
 93
       13
 44
0.0
173
     0
291
     1
 45
0.0
1001
ACAD
1000
AcDbSavedByObjectVersion
1070
     0
  0
VISUALSTYLE
  5
47A
102
{ACAD_XDICTIONARY
360
55B
102
}
102
{ACAD_REACTORS
330
472
102
}
330
472
100
AcDbVisualStyle
  2
Hidden
 70
     6
 71
     1
 72
     2
 73
     2
 90
        0
 40
-0.6
 41
-30.0
 62
     5
 63
     7
 74
     2
 91
        2
 64
     7
 65
   257
 75
     2
175
     1
 42
40.0
 92
        0
 66
   257
 43
1.0
 76
     1
 77
     6
 78
     2
 67
     7
 79
     3
170
     0
171
     0
290
     0
174
     0
 93
        1
 44
0.0
173
     0
291
     0
 45
0.0
1001
ACAD
1000
AcDbSavedByObjectVersion
1070
     0
  0
VISUALSTYLE
  5
488
102
{ACAD_XDICTIONARY
360
577
102
}
102
{ACAD_REACTORS
330
472
102
}
330
472
100
AcDbVisualStyle
  2
JitterOff
 70
    20
 71
     2
 72
     2
 73
     0
 90
        0
 40
-0.6
 41
-30.0
 62
     5
 63
     7
 74
     1
 91
        4
 64
     7
 65
   257
 75
     1
175
     1
 42
1.0
 92
       10
 66
     7
 43
1.0
 76
     1
 77
     6
 78
     2
 67
     7
 79
     5
170
     0
171
     0
290
     0
174
     0
 93
        1
 44
0.0
173
     0
291
     1
 45
0.0
1001
ACAD
1000
AcDbSavedByObjectVersion
1070
     0
  0
VISUALSTYLE
  5
480
102
{ACAD_XDICTIONARY
360
567
102
}
102
{ACAD_REACTORS
330
472
102
}
330
472
100
AcDbVisualStyle
  2
Linepattern
 70
    14
 71
     2
 72
     2
 73
     0
 90
        0
 40
-0.6
 41
-30.0
 62
     5
 63
     7
 74
     1
 91
        4
 64
     7
 65
   257
 75
     7
175
     7
 42
1.0
 92
        8
 66
     7
 43
1.0
 76
     1
 77
     6
 78
     2
 67
     7
 79
     5
170
     0
171
     0
290
     0
174
     0
 93
        1
 44
0.0
173
     0
291
     1
 45
0.0
1001
ACAD
1000
AcDbSavedByObjectVersion
1070
     0
  0
VISUALSTYLE
  5
489
102
{ACAD_XDICTIONARY
360
579
102
}
102
{ACAD_REACTORS
330
472
102
}
330
472
100
AcDbVisualStyle
  2
OverhangOff
 70
    21
 71
     2
 72
     2
 73
     0
 90
        0
 40
-0.6
 41
-30.0
 62
     5
 63
     7
 74
     1
 91
        4
 64
     7
 65
   257
 75
     1
175
     1
 42
1.0
 92
        9
 66
     7
 43
1.0
 76
     1
 77
     6
 78
     2
 67
     7
 79
     5
170
     0
171
     0
290
     0
174
     0
 93
        1
 44
0.0
173
     0
291
     1
 45
0.0
1001
ACAD
1000
AcDbSavedByObjectVersion
1070
     0
  0
VISUALSTYLE
  5
47C
102
{ACAD_XDICTIONARY
360
55F
102
}
102
{ACAD_REACTORS
330
472
102
}
330
472
100
AcDbVisualStyle
  2
Realistic
 70
     8
 71
     2
 72
     3
 73
     0
 90
        2
 40
-0.6
 41
30.0
 62
     5
 63
     7
 74
     0
 91
        0
 64
     7
 65
   257
 75
     1
175
     1
 42
1.0
 92
        8
 66
   257
 43
1.0
 76
     1
 77
     6
 78
     2
 67
     7
 79
     3
170
     0
171
     0
290
     0
174
     0
 93
       13
 44
0.0
173
     0
291
     0
 45
0.0
1001
ACAD
1000
AcDbSavedByObjectVersion
1070
     0
  0
VISUALSTYLE
  5
487
102
{ACAD_XDICTIONARY
360
575
102
}
102
{ACAD_REACTORS
330
472
102
}
330
472
100
AcDbVisualStyle
  2
Shaded
 70
    27
 71
     2
 72
     2
 73
     1
 90
        2
 40
-0.6
 41
30.0
 62
     5
 63
     7
 74
     0
 91
        4
 64
     7
 65
   257
 75
     1
175
     1
 42
1.0
 92
        8
 66
   257
 43
1.0
 76
     1
 77
     6
 78
     2
 67
     8
 79
     3
170
     0
171
     0
290
     0
174
     0
 93
        5
 44
0.0
173
     0
291
     0
 45
0.0
1001
ACAD
1000
AcDbSavedByObjectVersion
1070
     0
  0
VISUALSTYLE
  5
486
102
{ACAD_XDICTIONARY
360
573
102
}
102
{ACAD_REACTORS
330
472
102
}
330
472
100
AcDbVisualStyle
  2
Shaded with edges
 70
    26
 71
     2
 72
     2
 73
     1
 90
        2
 40
-0.6
 41
30.0
 62
     5
 63
     7
 74
     1
 91
       10
 64
     7
 65
   257
 75
     2
175
     1
 42
1.0
 92
        8
 66
   257
 43
1.0
 76
     1
 77
     6
 78
     2
 67
     7
 79
     3
170
     0
171
     0
290
     0
174
     0
 93
        5
 44
0.0
173
     0
291
     0
 45
0.0
1001
ACAD
1000
AcDbSavedByObjectVersion
1070
     0
  0
VISUALSTYLE
  5
483
102
{ACAD_XDICTIONARY
360
56D
102
}
102
{ACAD_REACTORS
330
472
102
}
330
472
100
AcDbVisualStyle
  2
Shades of Gray
 70
    23
 71
     2
 72
     2
 73
     3
 90
        0
 40
-0.6
 41
-30.0
 62
     5
 63
     7
 74
     2
 91
        2
 64
     7
 65
     7
 75
     1
175
     1
 42
40.0
 92
        8
 66
     7
 43
1.0
 76
     1
 77
     6
 78
     2
 67
     7
 79
     3
170
     0
171
     0
290
     0
174
     0
 93
        1
 44
0.0
173
     0
291
     0
 45
0.0
1001
ACAD
1000
AcDbSavedByObjectVersion
1070
     0
  0
VISUALSTYLE
  5
484
102
{ACAD_XDICTIONARY
360
56F
102
}
102
{ACAD_REACTORS
330
472
102
}
330
472
100
AcDbVisualStyle
  2
Sketchy
 70
    24
 71
     1
 72
     2
 73
     2
 90
        0
 40
-0.6
 41
-30.0
 62
     5
 63
     7
 74
     2
 91
        2
 64
     7
 65
     7
 75
     1
175
     1
 42
40.0
 92
       11
 66
     7
 43
1.0
 76
     1
 77
     6
 78
     2
 67
     7
 79
     6
170
     0
171
     0
290
     0
174
     0
 93
        1
 44
0.0
173
     0
291
     0
 45
0.0
1001
ACAD
1000
AcDbSavedByObjectVersion
1070
     0
  0
VISUALSTYLE
  5
47F
102
{ACAD_XDICTIONARY
360
565
102
}
102
{ACAD_REACTORS
330
472
102
}
330
472
100
AcDbVisualStyle
  2
Thicken
 70
    13
 71
     2
 72
     2
 73
     0
 90
        0
 40
-0.6
 41
-30.0
 62
     5
 63
     7
 74
     1
 91
        4
 64
     7
 65
   257
 75
     1
175
     1
 42
1.0
 92
       12
 66
     7
 43
1.0
 76
     1
 77
     6
 78
     2
 67
     7
 79
     5
170
     0
171
     0
290
     0
174
     0
 93
        1
 44
0.0
173
     0
291
     1
 45
0.0
1001
ACAD
1000
AcDbSavedByObjectVersion
1070
     0
  0
VISUALSTYLE
  5
479
102
{ACAD_XDICTIONARY
360
559
102
}
102
{ACAD_REACTORS
330
472
102
}
330
472
100
AcDbVisualStyle
  2
Wireframe
 70
     5
 71
     0
 72
     2
 73
     0
 90
        0
 40
-0.6
 41
-30.0
 62
     5
 63
     7
 74
     1
 91
        4
 64
     7
 65
   257
 75
     1
175
     1
 42
1.0
 92
        0
 66
   257
 43
1.0
 76
     1
 77
     6
 78
     2
 67
     7
 79
     3
170
     0
171
     0
290
     0
174
     0
 93
        1
 44
0.0
173
     0
291
     0
 45
0.0
1001
ACAD
1000
AcDbSavedByObjectVersion
1070
     0
  0
VISUALSTYLE
  5
485
102
{ACAD_XDICTIONARY
360
571
102
}
102
{ACAD_REACTORS
330
472
102
}
330
472
100
AcDbVisualStyle
  2
X-Ray
 70
    25
 71
     2
 72
     2
 73
     1
 90
        1
 40
0.5
 41
-30.0
 62
     5
 63
     7
 74
     1
 91
        0
 64
     7
 65
   257
 75
     1
175
     1
 42
1.0
 92
        8
 66
     7
 43
1.0
 76
     1
 77
     6
 78
     2
 67
     7
 79
     3
170
     0
171
     0
290
     0
174
     0
 93
       13
 44
0.0
173
     0
291
     0
 45
0.0
1001
ACAD
1000
AcDbSavedByObjectVersion
1070
     0
  0
DICTIONARYVAR
  5
540
102
{ACAD_REACTORS
330
53B
102
}
330
53B
100
DictionaryVariables
280
     0
  1
1:1
  0
DICTIONARYVAR
  5
53D
102
{ACAD_REACTORS
330
53B
102
}
330
53B
100
DictionaryVariables
280
     0
  1
STANDARD
  0
DICTIONARYVAR
  5
53C
102
{ACAD_REACTORS
330
53B
102
}
330
53B
100
DictionaryVariables
280
     0
  1
STANDARD
  0
DICTIONARYVAR
  5
53E
102
{ACAD_REACTORS
330
53B
102
}
330
53B
100
DictionaryVariables
280
     0
  1
Imperial24
  0
DICTIONARYVAR
  5
53F
102
{ACAD_REACTORS
330
53B
102
}
330
53B
100
DictionaryVariables
280
     0
  1
Imperial24
  0
DICTIONARYVAR
  5
543
102
{ACAD_REACTORS
330
53B
102
}
330
53B
100
DictionaryVariables
280
     0
  1
1
  0
DICTIONARYVAR
  5
542
102
{ACAD_REACTORS
330
53B
102
}
330
53B
100
DictionaryVariables
280
     0
  1
0
  0
DICTIONARYVAR
  5
541
102
{ACAD_REACTORS
330
53B
102
}
330
53B
100
DictionaryVariables
280
     0
  1
127
  0
DICTIONARYVAR
  5
544
102
{ACAD_REACTORS
330
53B
102
}
330
53B
100
DictionaryVariables
280
     0
  1
2
  0
DICTIONARY
  5
57F
330
4B8
100
AcDbDictionary
280
     1
281
     1
  3
ACAD_XREC_ROUNDTRIP
360
580
  0
DICTIONARY
  5
581
330
4BC
100
AcDbDictionary
280
     1
281
     1
  3
ACAD_XREC_ROUNDTRIP
360
582
  0
DICTIONARY
  5
463
330
462
100
AcDbDictionary
280
     1
281
     1
  3
ACAD_XREC_ROUNDTRIP
360
54B
  3
BUMPTILE
360
465
  3
DIFFUSETILE
360
464
  3
OPACITYTILE
360
468
  3
REFLECTIONTILE
360
467
  3
REFRACTIONTILE
360
469
  3
SPECULARTILE
360
466
  0
DICTIONARY
  5
45B
330
45A
100
AcDbDictionary
280
     1
281
     1
  3
ACAD_XREC_ROUNDTRIP
360
54A
  3
BUMPTILE
360
45D
  3
DIFFUSETILE
360
45C
  3
OPACITYTILE
360
460
  3
REFLECTIONTILE
360
45F
  3
REFRACTIONTILE
360
461
  3
SPECULARTILE
360
45E
  0
DICTIONARY
  5
46B
330
46A
100
AcDbDictionary
280
     1
281
     1
  3
ACAD_XREC_ROUNDTRIP
360
54C
  3
BUMPTILE
360
46D
  3
DIFFUSETILE
360
46C
  3
OPACITYTILE
360
470
  3
REFLECTIONTILE
360
46F
  3
REFRACTIONTILE
360
471
  3
SPECULARTILE
360
46E
  0
DICTIONARY
  5
546
330
4AD
100
AcDbDictionary
280
     1
281
     1
  3
ACAD_ROUNDTRIP_2008_TABLESTYLE_CELLSTYLEMAP
360
547
  3
ACAD_XREC_ROUNDTRIP
360
57D
  0
DICTIONARY
  5
557
330
478
100
AcDbDictionary
280
     1
281
     1
  3
ACAD_XREC_ROUNDTRIP
360
558
  0
DICTIONARY
  5
555
330
477
100
AcDbDictionary
280
     1
281
     1
  3
ACAD_XREC_ROUNDTRIP
360
556
  0
DICTIONARY
  5
563
330
47E
100
AcDbDictionary
280
     1
281
     1
  3
ACAD_XREC_ROUNDTRIP
360
564
  0
DICTIONARY
  5
56B
330
482
100
AcDbDictionary
280
     1
281
     1
  3
ACAD_XREC_ROUNDTRIP
360
56C
  0
DICTIONARY
  5
55D
330
47B
100
AcDbDictionary
280
     1
281
     1
  3
ACAD_XREC_ROUNDTRIP
360
55E
  0
DICTIONARY
  5
561
330
47D
100
AcDbDictionary
280
     1
281
     1
  3
ACAD_XREC_ROUNDTRIP
360
562
  0
DICTIONARY
  5
57B
330
48A
100
AcDbDictionary
280
     1
281
     1
  3
ACAD_XREC_ROUNDTRIP
360
57C
  0
DICTIONARY
  5
569
330
481
100
AcDbDictionary
280
     1
281
     1
  3
ACAD_XREC_ROUNDTRIP
360
56A
  0
DICTIONARY
  5
54D
330
473
100
AcDbDictionary
280
     1
281
     1
  3
ACAD_XREC_ROUNDTRIP
360
54E
  0
DICTIONARY
  5
54F
330
474
100
AcDbDictionary
280
     1
281
     1
  3
ACAD_XREC_ROUNDTRIP
360
550
  0
DICTIONARY
  5
551
330
475
100
AcDbDictionary
280
     1
281
     1
  3
ACAD_XREC_ROUNDTRIP
360
552
  0
DICTIONARY
  5
553
330
476
100
AcDbDictionary
280
     1
281
     1
  3
ACAD_XREC_ROUNDTRIP
360
554
  0
DICTIONARY
  5
55B
330
47A
100
AcDbDictionary
280
     1
281
     1
  3
ACAD_XREC_ROUNDTRIP
360
55C
  0
DICTIONARY
  5
577
330
488
100
AcDbDictionary
280
     1
281
     1
  3
ACAD_XREC_ROUNDTRIP
360
578
  0
DICTIONARY
  5
567
330
480
100
AcDbDictionary
280
     1
281
     1
  3
ACAD_XREC_ROUNDTRIP
360
568
  0
DICTIONARY
  5
579
330
489
100
AcDbDictionary
280
     1
281
     1
  3
ACAD_XREC_ROUNDTRIP
360
57A
  0
DICTIONARY
  5
55F
330
47C
100
AcDbDictionary
280
     1
281
     1
  3
ACAD_XREC_ROUNDTRIP
360
560
  0
DICTIONARY
  5
575
330
487
100
AcDbDictionary
280
     1
281
     1
  3
ACAD_XREC_ROUNDTRIP
360
576
  0
DICTIONARY
  5
573
330
486
100
AcDbDictionary
280
     1
281
     1
  3
ACAD_XREC_ROUNDTRIP
360
574
  0
DICTIONARY
  5
56D
330
483
100
AcDbDictionary
280
     1
281
     1
  3
ACAD_XREC_ROUNDTRIP
360
56E
  0
DICTIONARY
  5
56F
330
484
100
AcDbDictionary
280
     1
281
     1
  3
ACAD_XREC_ROUNDTRIP
360
570
  0
DICTIONARY
  5
565
330
47F
100
AcDbDictionary
280
     1
281
     1
  3
ACAD_XREC_ROUNDTRIP
360
566
  0
DICTIONARY
  5
559
330
479
100
AcDbDictionary
280
     1
281
     1
  3
ACAD_XREC_ROUNDTRIP
360
55A
  0
DICTIONARY
  5
571
330
485
100
AcDbDictionary
280
     1
281
     1
  3
ACAD_XREC_ROUNDTRIP
360
572
  0
XRECORD
  5
580
102
{ACAD_REACTORS
330
57F
102
}
330
57F
100
AcDbXrecord
280
     1
102
SHADEPLOT
 70
     0
102
SHADEPLOTRESLEVEL
 70
     2
102
SHADEPLOTCUSTOMDPI
 70
   300
  0
XRECORD
  5
582
102
{ACAD_REACTORS
330
581
102
}
330
581
100
AcDbXrecord
280
     1
102
SHADEPLOT
 70
     0
102
SHADEPLOTRESLEVEL
 70
     2
102
SHADEPLOTCUSTOMDPI
 70
   300
  0
XRECORD
  5
54B
102
{ACAD_REACTORS
330
463
102
}
330
463
100
AcDbXrecord
280
     1
102
MATERIAL
148
0.0
149
0.0
149
0.0
 93
        0
 94
      127
282
     0
 72
     0
 77
     0
171
     0
175
     0
179
     0
273
     0
  0
XRECORD
  5
465
102
{ACAD_REACTORS
330
463
102
}
330
463
100
AcDbXrecord
280
     1
270
     1
271
     1
  0
XRECORD
  5
464
102
{ACAD_REACTORS
330
463
102
}
330
463
100
AcDbXrecord
280
     1
270
     1
271
     1
  0
XRECORD
  5
468
102
{ACAD_REACTORS
330
463
102
}
330
463
100
AcDbXrecord
280
     1
270
     1
271
     1
  0
XRECORD
  5
467
102
{ACAD_REACTORS
330
463
102
}
330
463
100
AcDbXrecord
280
     1
270
     1
271
     1
  0
XRECORD
  5
469
102
{ACAD_REACTORS
330
463
102
}
330
463
100
AcDbXrecord
280
     1
270
     1
271
     1
  0
XRECORD
  5
466
102
{ACAD_REACTORS
330
463
102
}
330
463
100
AcDbXrecord
280
     1
270
     1
271
     1
  0
XRECORD
  5
54A
102
{ACAD_REACTORS
330
45B
102
}
330
45B
100
AcDbXrecord
280
     1
102
MATERIAL
148
0.0
149
0.0
149
0.0
 93
        0
 94
      127
282
     0
 72
     0
 77
     0
171
     0
175
     0
179
     0
273
     0
  0
XRECORD
  5
45D
102
{ACAD_REACTORS
330
45B
102
}
330
45B
100
AcDbXrecord
280
     1
270
     1
271
     1
  0
XRECORD
  5
45C
102
{ACAD_REACTORS
330
45B
102
}
330
45B
100
AcDbXrecord
280
     1
270
     1
271
     1
  0
XRECORD
  5
460
102
{ACAD_REACTORS
330
45B
102
}
330
45B
100
AcDbXrecord
280
     1
270
     1
271
     1
  0
XRECORD
  5
45F
102
{ACAD_REACTORS
330
45B
102
}
330
45B
100
AcDbXrecord
280
     1
270
     1
271
     1
  0
XRECORD
  5
461
102
{ACAD_REACTORS
330
45B
102
}
330
45B
100
AcDbXrecord
280
     1
270
     1
271
     1
  0
XRECORD
  5
45E
102
{ACAD_REACTORS
330
45B
102
}
330
45B
100
AcDbXrecord
280
     1
270
     1
271
     1
  0
XRECORD
  5
54C
102
{ACAD_REACTORS
330
46B
102
}
330
46B
100
AcDbXrecord
280
     1
102
MATERIAL
148
0.0
149
0.0
149
0.0
 93
        0
 94
      127
282
     0
 72
     0
 77
     0
171
     0
175
     0
179
     0
273
     0
  0
XRECORD
  5
46D
102
{ACAD_REACTORS
330
46B
102
}
330
46B
100
AcDbXrecord
280
     1
270
     1
271
     1
  0
XRECORD
  5
46C
102
{ACAD_REACTORS
330
46B
102
}
330
46B
100
AcDbXrecord
280
     1
270
     1
271
     1
  0
XRECORD
  5
470
102
{ACAD_REACTORS
330
46B
102
}
330
46B
100
AcDbXrecord
280
     1
270
     1
271
     1
  0
XRECORD
  5
46F
102
{ACAD_REACTORS
330
46B
102
}
330
46B
100
AcDbXrecord
280
     1
270
     1
271
     1
  0
XRECORD
  5
471
102
{ACAD_REACTORS
330
46B
102
}
330
46B
100
AcDbXrecord
280
     1
270
     1
271
     1
  0
XRECORD
  5
46E
102
{ACAD_REACTORS
330
46B
102
}
330
46B
100
AcDbXrecord
280
     1
270
     1
271
     1
  0
CELLSTYLEMAP
  5
547
102
{ACAD_REACTORS
330
546
102
}
330
546
100
AcDbCellStyleMap
 90
        3
300
CELLSTYLE
  1
TABLEFORMAT_BEGIN
 90
        5
170
     1
 91
        0
 92
    32768
 62
   257
 93
        1
300
CONTENTFORMAT
  1
CONTENTFORMAT_BEGIN
 90
        0
 91
        0
 92
      512
 93
        0
300

 40
0.0
140
1.0
 94
        5
 62
     0
340
49E
144
0.25
309
CONTENTFORMAT_END
171
     0
 94
        0
309
TABLEFORMAT_END
  1
CELLSTYLE_BEGIN
 90
        1
 91
        1
300
_TITLE
309
CELLSTYLE_END
300
CELLSTYLE
  1
TABLEFORMAT_BEGIN
 90
        5
170
     1
 91
        0
 92
        0
 62
   257
 93
        1
300
CONTENTFORMAT
  1
CONTENTFORMAT_BEGIN
 90
        0
 91
        0
 92
      512
 93
        0
300

 40
0.0
140
1.0
 94
        5
 62
     0
340
49E
144
0.18
309
CONTENTFORMAT_END
171
     0
 94
        0
309
TABLEFORMAT_END
  1
CELLSTYLE_BEGIN
 90
        2
 91
        1
300
_HEADER
309
CELLSTYLE_END
300
CELLSTYLE
  1
TABLEFORMAT_BEGIN
 90
        5
170
     1
 91
        0
 92
        0
 62
   257
 93
        1
300
CONTENTFORMAT
  1
CONTENTFORMAT_BEGIN
 90
        0
 91
        0
 92
      512
 93
        0
300

 40
0.0
140
1.0
 94
        2
 62
     0
340
49E
144
0.18
309
CONTENTFORMAT_END
171
     0
 94
        0
309
TABLEFORMAT_END
  1
CELLSTYLE_BEGIN
 90
        3
 91
        2
300
_DATA
309
CELLSTYLE_END
  0
XRECORD
  5
57D
102
{ACAD_REACTORS
330
546
102
}
330
546
100
AcDbXrecord
280
     1
102
ACAD_ROUNDTRIP_PRE2007_TABLESTYLE
 90
      512
 91
        0
  1

 92
      512
 93
        0
  2

 94
      512
 95
        0
  3

  0
XRECORD
  5
558
102
{ACAD_REACTORS
330
557
102
}
330
557
100
AcDbXrecord
280
     1
102
RTVSPost2010Prop28
280
     1
102
RTVSPost2010PropOp28
 70
     1
102
RTVSPost2010Prop29
280
     1
102
RTVSPost2010PropOp29
 70
     1
102
RTVSPost2010Prop30
280
     0
102
RTVSPost2010PropOp30
 70
     1
102
RTVSPost2010Prop31
280
     0
102
RTVSPost2010PropOp31
 70
     1
102
RTVSPost2010Prop32
280
     0
102
RTVSPost2010PropOp32
 70
     1
102
RTVSPost2010Prop33
280
     0
102
RTVSPost2010PropOp33
 70
     1
102
RTVSPost2010Prop34
280
     0
102
RTVSPost2010PropOp34
 70
     1
102
RTVSPost2010Prop35
280
     0
102
RTVSPost2010PropOp35
 70
     1
102
RTVSPost2010Prop36
280
     0
102
RTVSPost2010PropOp36
 70
     1
102
RTVSPost2010Prop37
 90
       50
102
RTVSPost2010PropOp37
 70
     1
102
RTVSPost2010Prop38
140
0.0
102
RTVSPost2010PropOp38
 70
     1
102
RTVSPost2010Prop39
140
1.0
102
RTVSPost2010PropOp39
 70
     1
102
RTVSPost2010Prop40
 90
        0
102
RTVSPost2010PropOp40
 70
     1
102
RTVSPost2010Prop41ColorIndex
 90
       18
102
RTVSPost2010Prop41ColorRGB
 90
        0
102
RTVSPost2010PropOp41
 70
     1
102
RTVSPost2010Prop42
 90
       50
102
RTVSPost2010PropOp42
 70
     1
102
RTVSPost2010Prop43
 90
        3
102
RTVSPost2010PropOp43
 70
     1
102
RTVSPost2010Prop44ColorIndex
 90
        5
102
RTVSPost2010Prop44ColorRGB
 90
      255
102
RTVSPost2010PropOp44
 70
     1
102
RTVSPost2010Prop45
280
     0
102
RTVSPost2010PropOp45
 70
     1
102
RTVSPost2010Prop46
 90
       50
102
RTVSPost2010PropOp46
 70
     1
102
RTVSPost2010Prop47
 90
       50
102
RTVSPost2010PropOp47
 70
     1
102
RTVSPost2010Prop48
 90
       50
102
RTVSPost2010PropOp48
 70
     1
102
RTVSPost2010Prop49
280
     0
102
RTVSPost2010PropOp49
 70
     1
102
RTVSPost2010Prop50
 90
       50
102
RTVSPost2010PropOp50
 70
     1
102
RTVSPost2010Prop51ColorIndex
 90
      256
102
RTVSPost2010Prop51ColorRGB
 90
-16777216
102
RTVSPost2010PropOp51
 70
     0
102
RTVSPost2010Prop52
140
1.0
102
RTVSPost2010PropOp52
 70
     0
102
RTVSPost2010Prop53
 90
        2
102
RTVSPost2010PropOp53
 70
     1
102
RTVSPost2010Prop54
  1
strokes_ogs.tif
102
RTVSPost2010PropOp54
 70
     1
102
RTVSPost2010Prop55
280
     0
102
RTVSPost2010PropOp55
 70
     1
102
RTVSPost2010Prop56
140
1.0
102
RTVSPost2010PropOp56
 70
     1
102
RTVSPost2010Prop57
140
1.0
102
RTVSPost2010PropOp57
 70
     1
102
RTVSPropertyOp0
 70
     1
102
RTVSPropertyOp1
 70
     1
102
RTVSPropertyOp2
 70
     1
102
RTVSPropertyOp3
 70
     1
102
RTVSPropertyOp4
 70
     1
102
RTVSPropertyOp5
 70
     1
102
RTVSPropertyOp6
 70
     1
102
RTVSPropertyOp7
 70
     1
102
RTVSPropertyOp8
 70
     1
102
RTVSPropertyOp9
 70
     1
102
RTVSPropertyOp10
 70
     1
102
RTVSPropertyOp11
 70
     1
102
RTVSPropertyOp12
 70
     1
102
RTVSPropertyOp13
 70
     1
102
RTVSPropertyOp14
 70
     1
102
RTVSPropertyOp15
 70
     1
102
RTVSPropertyOp16
 70
     1
102
RTVSPropertyOp17
 70
     1
102
RTVSPropertyOp18
 70
     1
102
RTVSPropertyOp19
 70
     1
102
RTVSPropertyOp20
 70
     1
102
RTVSPropertyOp21
 70
     1
102
RTVSPropertyOp22
 70
     1
102
RTVSPropertyOp23
 70
     1
102
RTVSPropertyOp24
 70
     1
102
RTVSPropertyOp25
 70
     1
102
RTVSPropertyOp26
 70
     1
102
RTVSPropertyOp27
 70
     1
102
RTVSPropertyOp28
 70
     1
102
RTVSPropertyOp29
 70
     1
102
RTVSPropertyOp30
 70
     1
102
RTVSPropertyOp31
 70
     1
102
RTVSPropertyOp32
 70
     1
102
RTVSPropertyOp33
 70
     1
102
RTVSPropertyOp34
 70
     1
102
RTVSPropertyOp35
 70
     1
102
RTVSPropertyOp36
 70
     1
102
RTVSPropertyOp37
 70
     1
102
RTVSPropertyOp38
 70
     1
102
RTVSPropertyOp39
 70
     1
102
RTVSPropertyOp40
 70
     1
102
RTVSPropertyOp41
 70
     1
102
RTVSPropertyOp42
 70
     1
102
RTVSPropertyOp43
 70
     1
102
RTVSPropertyOp44
 70
     1
102
RTVSPropertyOp45
 70
     1
102
RTVSPropertyOp46
 70
     1
102
RTVSPropertyOp47
 70
     1
102
RTVSPropertyOp48
 70
     1
102
RTVSPropertyOp49
 70
     1
102
RTVSPropertyOp50
 70
     1
102
RTVSPropertyOp51
 70
     0
102
RTVSPropertyOp52
 70
     0
102
RTVSPropertyOp53
 70
     1
102
RTVSPropertyOp54
 70
     1
102
RTVSPropertyOp55
 70
     1
102
RTVSPropertyOp56
 70
     1
102
RTVSPropertyOp57
 70
     1
102
RTVSPropertyOp58
 70
     1
102
RTVSPropertyOp59
 70
     1
102
RTVSPropertyOp60
 70
     1
102
RTVSPropertyOp61
 70
     1
102
RTVSPropertyOp62
 70
     1
  0
XRECORD
  5
556
102
{ACAD_REACTORS
330
555
102
}
330
555
100
AcDbXrecord
280
     1
102
RTVSPost2010Prop28
280
     0
102
RTVSPost2010PropOp28
 70
     1
102
RTVSPost2010Prop29
280
     1
102
RTVSPost2010PropOp29
 70
     1
102
RTVSPost2010Prop30
280
     1
102
RTVSPost2010PropOp30
 70
     1
102
RTVSPost2010Prop31
280
     0
102
RTVSPost2010PropOp31
 70
     1
102
RTVSPost2010Prop32
280
     0
102
RTVSPost2010PropOp32
 70
     1
102
RTVSPost2010Prop33
280
     0
102
RTVSPost2010PropOp33
 70
     1
102
RTVSPost2010Prop34
280
     0
102
RTVSPost2010PropOp34
 70
     1
102
RTVSPost2010Prop35
280
     0
102
RTVSPost2010PropOp35
 70
     1
102
RTVSPost2010Prop36
280
     0
102
RTVSPost2010PropOp36
 70
     1
102
RTVSPost2010Prop37
 90
       50
102
RTVSPost2010PropOp37
 70
     1
102
RTVSPost2010Prop38
140
0.0
102
RTVSPost2010PropOp38
 70
     1
102
RTVSPost2010Prop39
140
1.0
102
RTVSPost2010PropOp39
 70
     1
102
RTVSPost2010Prop40
 90
        0
102
RTVSPost2010PropOp40
 70
     1
102
RTVSPost2010Prop41ColorIndex
 90
       18
102
RTVSPost2010Prop41ColorRGB
 90
        0
102
RTVSPost2010PropOp41
 70
     1
102
RTVSPost2010Prop42
 90
       50
102
RTVSPost2010PropOp42
 70
     1
102
RTVSPost2010Prop43
 90
        3
102
RTVSPost2010PropOp43
 70
     1
102
RTVSPost2010Prop44ColorIndex
 90
        5
102
RTVSPost2010Prop44ColorRGB
 90
      255
102
RTVSPost2010PropOp44
 70
     1
102
RTVSPost2010Prop45
280
     0
102
RTVSPost2010PropOp45
 70
     1
102
RTVSPost2010Prop46
 90
       50
102
RTVSPost2010PropOp46
 70
     1
102
RTVSPost2010Prop47
 90
       50
102
RTVSPost2010PropOp47
 70
     1
102
RTVSPost2010Prop48
 90
       50
102
RTVSPost2010PropOp48
 70
     1
102
RTVSPost2010Prop49
280
     0
102
RTVSPost2010PropOp49
 70
     1
102
RTVSPost2010Prop50
 90
       50
102
RTVSPost2010PropOp50
 70
     1
102
RTVSPost2010Prop51ColorIndex
 90
      256
102
RTVSPost2010Prop51ColorRGB
 90
-16777216
102
RTVSPost2010PropOp51
 70
     0
102
RTVSPost2010Prop52
140
1.0
102
RTVSPost2010PropOp52
 70
     0
102
RTVSPost2010Prop53
 90
        2
102
RTVSPost2010PropOp53
 70
     1
102
RTVSPost2010Prop54
  1
strokes_ogs.tif
102
RTVSPost2010PropOp54
 70
     1
102
RTVSPost2010Prop55
280
     0
102
RTVSPost2010PropOp55
 70
     1
102
RTVSPost2010Prop56
140
1.0
102
RTVSPost2010PropOp56
 70
     1
102
RTVSPost2010Prop57
140
1.0
102
RTVSPost2010PropOp57
 70
     1
102
RTVSPropertyOp0
 70
     1
102
RTVSPropertyOp1
 70
     1
102
RTVSPropertyOp2
 70
     1
102
RTVSPropertyOp3
 70
     1
102
RTVSPropertyOp4
 70
     1
102
RTVSPropertyOp5
 70
     1
102
RTVSPropertyOp6
 70
     1
102
RTVSPropertyOp7
 70
     1
102
RTVSPropertyOp8
 70
     1
102
RTVSPropertyOp9
 70
     1
102
RTVSPropertyOp10
 70
     1
102
RTVSPropertyOp11
 70
     1
102
RTVSPropertyOp12
 70
     1
102
RTVSPropertyOp13
 70
     1
102
RTVSPropertyOp14
 70
     1
102
RTVSPropertyOp15
 70
     1
102
RTVSPropertyOp16
 70
     1
102
RTVSPropertyOp17
 70
     1
102
RTVSPropertyOp18
 70
     1
102
RTVSPropertyOp19
 70
     1
102
RTVSPropertyOp20
 70
     1
102
RTVSPropertyOp21
 70
     1
102
RTVSPropertyOp22
 70
     1
102
RTVSPropertyOp23
 70
     1
102
RTVSPropertyOp24
 70
     1
102
RTVSPropertyOp25
 70
     1
102
RTVSPropertyOp26
 70
     1
102
RTVSPropertyOp27
 70
     1
102
RTVSPropertyOp28
 70
     1
102
RTVSPropertyOp29
 70
     1
102
RTVSPropertyOp30
 70
     1
102
RTVSPropertyOp31
 70
     1
102
RTVSPropertyOp32
 70
     1
102
RTVSPropertyOp33
 70
     1
102
RTVSPropertyOp34
 70
     1
102
RTVSPropertyOp35
 70
     1
102
RTVSPropertyOp36
 70
     1
102
RTVSPropertyOp37
 70
     1
102
RTVSPropertyOp38
 70
     1
102
RTVSPropertyOp39
 70
     1
102
RTVSPropertyOp40
 70
     1
102
RTVSPropertyOp41
 70
     1
102
RTVSPropertyOp42
 70
     1
102
RTVSPropertyOp43
 70
     1
102
RTVSPropertyOp44
 70
     1
102
RTVSPropertyOp45
 70
     1
102
RTVSPropertyOp46
 70
     1
102
RTVSPropertyOp47
 70
     1
102
RTVSPropertyOp48
 70
     1
102
RTVSPropertyOp49
 70
     1
102
RTVSPropertyOp50
 70
     1
102
RTVSPropertyOp51
 70
     0
102
RTVSPropertyOp52
 70
     0
102
RTVSPropertyOp53
 70
     1
102
RTVSPropertyOp54
 70
     1
102
RTVSPropertyOp55
 70
     1
102
RTVSPropertyOp56
 70
     1
102
RTVSPropertyOp57
 70
     1
102
RTVSPropertyOp58
 70
     1
102
RTVSPropertyOp59
 70
     1
102
RTVSPropertyOp60
 70
     1
102
RTVSPropertyOp61
 70
     1
102
RTVSPropertyOp62
 70
     1
  0
XRECORD
  5
564
102
{ACAD_REACTORS
330
563
102
}
330
563
100
AcDbXrecord
280
     1
102
RTVSPost2010Prop28
280
     0
102
RTVSPost2010PropOp28
 70
     1
102
RTVSPost2010Prop29
280
     1
102
RTVSPost2010PropOp29
 70
     1
102
RTVSPost2010Prop30
280
     1
102
RTVSPost2010PropOp30
 70
     1
102
RTVSPost2010Prop31
280
     0
102
RTVSPost2010PropOp31
 70
     1
102
RTVSPost2010Prop32
280
     0
102
RTVSPost2010PropOp32
 70
     1
102
RTVSPost2010Prop33
280
     0
102
RTVSPost2010PropOp33
 70
     1
102
RTVSPost2010Prop34
280
     0
102
RTVSPost2010PropOp34
 70
     1
102
RTVSPost2010Prop35
280
     0
102
RTVSPost2010PropOp35
 70
     1
102
RTVSPost2010Prop36
280
     0
102
RTVSPost2010PropOp36
 70
     1
102
RTVSPost2010Prop37
 90
       50
102
RTVSPost2010PropOp37
 70
     1
102
RTVSPost2010Prop38
140
0.0
102
RTVSPost2010PropOp38
 70
     1
102
RTVSPost2010Prop39
140
1.0
102
RTVSPost2010PropOp39
 70
     1
102
RTVSPost2010Prop40
 90
        0
102
RTVSPost2010PropOp40
 70
     1
102
RTVSPost2010Prop41ColorIndex
 90
       18
102
RTVSPost2010Prop41ColorRGB
 90
        0
102
RTVSPost2010PropOp41
 70
     1
102
RTVSPost2010Prop42
 90
       50
102
RTVSPost2010PropOp42
 70
     1
102
RTVSPost2010Prop43
 90
        3
102
RTVSPost2010PropOp43
 70
     1
102
RTVSPost2010Prop44ColorIndex
 90
        5
102
RTVSPost2010Prop44ColorRGB
 90
      255
102
RTVSPost2010PropOp44
 70
     1
102
RTVSPost2010Prop45
280
     0
102
RTVSPost2010PropOp45
 70
     1
102
RTVSPost2010Prop46
 90
       50
102
RTVSPost2010PropOp46
 70
     1
102
RTVSPost2010Prop47
 90
       50
102
RTVSPost2010PropOp47
 70
     1
102
RTVSPost2010Prop48
 90
       50
102
RTVSPost2010PropOp48
 70
     1
102
RTVSPost2010Prop49
280
     0
102
RTVSPost2010PropOp49
 70
     1
102
RTVSPost2010Prop50
 90
       50
102
RTVSPost2010PropOp50
 70
     1
102
RTVSPost2010Prop51ColorIndex
 90
      256
102
RTVSPost2010Prop51ColorRGB
 90
-16777216
102
RTVSPost2010PropOp51
 70
     0
102
RTVSPost2010Prop52
140
1.0
102
RTVSPost2010PropOp52
 70
     0
102
RTVSPost2010Prop53
 90
        2
102
RTVSPost2010PropOp53
 70
     1
102
RTVSPost2010Prop54
  1
strokes_ogs.tif
102
RTVSPost2010PropOp54
 70
     1
102
RTVSPost2010Prop55
280
     0
102
RTVSPost2010PropOp55
 70
     1
102
RTVSPost2010Prop56
140
1.0
102
RTVSPost2010PropOp56
 70
     1
102
RTVSPost2010Prop57
140
1.0
102
RTVSPost2010PropOp57
 70
     1
102
RTVSPropertyOp0
 70
     1
102
RTVSPropertyOp1
 70
     1
102
RTVSPropertyOp2
 70
     1
102
RTVSPropertyOp3
 70
     1
102
RTVSPropertyOp4
 70
     1
102
RTVSPropertyOp5
 70
     1
102
RTVSPropertyOp6
 70
     1
102
RTVSPropertyOp7
 70
     1
102
RTVSPropertyOp8
 70
     1
102
RTVSPropertyOp9
 70
     1
102
RTVSPropertyOp10
 70
     1
102
RTVSPropertyOp11
 70
     1
102
RTVSPropertyOp12
 70
     1
102
RTVSPropertyOp13
 70
     1
102
RTVSPropertyOp14
 70
     1
102
RTVSPropertyOp15
 70
     1
102
RTVSPropertyOp16
 70
     1
102
RTVSPropertyOp17
 70
     1
102
RTVSPropertyOp18
 70
     1
102
RTVSPropertyOp19
 70
     1
102
RTVSPropertyOp20
 70
     1
102
RTVSPropertyOp21
 70
     1
102
RTVSPropertyOp22
 70
     1
102
RTVSPropertyOp23
 70
     1
102
RTVSPropertyOp24
 70
     1
102
RTVSPropertyOp25
 70
     1
102
RTVSPropertyOp26
 70
     1
102
RTVSPropertyOp27
 70
     1
102
RTVSPropertyOp28
 70
     1
102
RTVSPropertyOp29
 70
     1
102
RTVSPropertyOp30
 70
     1
102
RTVSPropertyOp31
 70
     1
102
RTVSPropertyOp32
 70
     1
102
RTVSPropertyOp33
 70
     1
102
RTVSPropertyOp34
 70
     1
102
RTVSPropertyOp35
 70
     1
102
RTVSPropertyOp36
 70
     1
102
RTVSPropertyOp37
 70
     1
102
RTVSPropertyOp38
 70
     1
102
RTVSPropertyOp39
 70
     1
102
RTVSPropertyOp40
 70
     1
102
RTVSPropertyOp41
 70
     1
102
RTVSPropertyOp42
 70
     1
102
RTVSPropertyOp43
 70
     1
102
RTVSPropertyOp44
 70
     1
102
RTVSPropertyOp45
 70
     1
102
RTVSPropertyOp46
 70
     1
102
RTVSPropertyOp47
 70
     1
102
RTVSPropertyOp48
 70
     1
102
RTVSPropertyOp49
 70
     1
102
RTVSPropertyOp50
 70
     1
102
RTVSPropertyOp51
 70
     0
102
RTVSPropertyOp52
 70
     0
102
RTVSPropertyOp53
 70
     1
102
RTVSPropertyOp54
 70
     1
102
RTVSPropertyOp55
 70
     1
102
RTVSPropertyOp56
 70
     1
102
RTVSPropertyOp57
 70
     1
102
RTVSPropertyOp58
 70
     1
102
RTVSPropertyOp59
 70
     1
102
RTVSPropertyOp60
 70
     1
102
RTVSPropertyOp61
 70
     1
102
RTVSPropertyOp62
 70
     1
  0
XRECORD
  5
56C
102
{ACAD_REACTORS
330
56B
102
}
330
56B
100
AcDbXrecord
280
     1
102
RTVSPost2010Prop28
280
     0
102
RTVSPost2010PropOp28
 70
     1
102
RTVSPost2010Prop29
280
     1
102
RTVSPost2010PropOp29
 70
     1
102
RTVSPost2010Prop30
280
     1
102
RTVSPost2010PropOp30
 70
     1
102
RTVSPost2010Prop31
280
     0
102
RTVSPost2010PropOp31
 70
     1
102
RTVSPost2010Prop32
280
     0
102
RTVSPost2010PropOp32
 70
     1
102
RTVSPost2010Prop33
280
     0
102
RTVSPost2010PropOp33
 70
     1
102
RTVSPost2010Prop34
280
     0
102
RTVSPost2010PropOp34
 70
     1
102
RTVSPost2010Prop35
280
     0
102
RTVSPost2010PropOp35
 70
     1
102
RTVSPost2010Prop36
280
     0
102
RTVSPost2010PropOp36
 70
     1
102
RTVSPost2010Prop37
 90
       50
102
RTVSPost2010PropOp37
 70
     1
102
RTVSPost2010Prop38
140
0.0
102
RTVSPost2010PropOp38
 70
     1
102
RTVSPost2010Prop39
140
1.0
102
RTVSPost2010PropOp39
 70
     1
102
RTVSPost2010Prop40
 90
        0
102
RTVSPost2010PropOp40
 70
     1
102
RTVSPost2010Prop41ColorIndex
 90
       18
102
RTVSPost2010Prop41ColorRGB
 90
        0
102
RTVSPost2010PropOp41
 70
     1
102
RTVSPost2010Prop42
 90
       50
102
RTVSPost2010PropOp42
 70
     1
102
RTVSPost2010Prop43
 90
        3
102
RTVSPost2010PropOp43
 70
     1
102
RTVSPost2010Prop44ColorIndex
 90
        5
102
RTVSPost2010Prop44ColorRGB
 90
      255
102
RTVSPost2010PropOp44
 70
     1
102
RTVSPost2010Prop45
280
     0
102
RTVSPost2010PropOp45
 70
     1
102
RTVSPost2010Prop46
 90
       50
102
RTVSPost2010PropOp46
 70
     1
102
RTVSPost2010Prop47
 90
       50
102
RTVSPost2010PropOp47
 70
     1
102
RTVSPost2010Prop48
 90
       50
102
RTVSPost2010PropOp48
 70
     1
102
RTVSPost2010Prop49
280
     0
102
RTVSPost2010PropOp49
 70
     1
102
RTVSPost2010Prop50
 90
       50
102
RTVSPost2010PropOp50
 70
     1
102
RTVSPost2010Prop51ColorIndex
 90
      256
102
RTVSPost2010Prop51ColorRGB
 90
-16777216
102
RTVSPost2010PropOp51
 70
     0
102
RTVSPost2010Prop52
140
1.0
102
RTVSPost2010PropOp52
 70
     0
102
RTVSPost2010Prop53
 90
        2
102
RTVSPost2010PropOp53
 70
     1
102
RTVSPost2010Prop54
  1
strokes_ogs.tif
102
RTVSPost2010PropOp54
 70
     1
102
RTVSPost2010Prop55
280
     0
102
RTVSPost2010PropOp55
 70
     1
102
RTVSPost2010Prop56
140
1.0
102
RTVSPost2010PropOp56
 70
     1
102
RTVSPost2010Prop57
140
1.0
102
RTVSPost2010PropOp57
 70
     1
102
RTVSPropertyOp0
 70
     1
102
RTVSPropertyOp1
 70
     1
102
RTVSPropertyOp2
 70
     1
102
RTVSPropertyOp3
 70
     1
102
RTVSPropertyOp4
 70
     1
102
RTVSPropertyOp5
 70
     1
102
RTVSPropertyOp6
 70
     1
102
RTVSPropertyOp7
 70
     1
102
RTVSPropertyOp8
 70
     1
102
RTVSPropertyOp9
 70
     1
102
RTVSPropertyOp10
 70
     1
102
RTVSPropertyOp11
 70
     1
102
RTVSPropertyOp12
 70
     1
102
RTVSPropertyOp13
 70
     1
102
RTVSPropertyOp14
 70
     1
102
RTVSPropertyOp15
 70
     1
102
RTVSPropertyOp16
 70
     1
102
RTVSPropertyOp17
 70
     1
102
RTVSPropertyOp18
 70
     1
102
RTVSPropertyOp19
 70
     1
102
RTVSPropertyOp20
 70
     1
102
RTVSPropertyOp21
 70
     1
102
RTVSPropertyOp22
 70
     1
102
RTVSPropertyOp23
 70
     1
102
RTVSPropertyOp24
 70
     1
102
RTVSPropertyOp25
 70
     1
102
RTVSPropertyOp26
 70
     1
102
RTVSPropertyOp27
 70
     1
102
RTVSPropertyOp28
 70
     1
102
RTVSPropertyOp29
 70
     1
102
RTVSPropertyOp30
 70
     1
102
RTVSPropertyOp31
 70
     1
102
RTVSPropertyOp32
 70
     1
102
RTVSPropertyOp33
 70
     1
102
RTVSPropertyOp34
 70
     1
102
RTVSPropertyOp35
 70
     1
102
RTVSPropertyOp36
 70
     1
102
RTVSPropertyOp37
 70
     1
102
RTVSPropertyOp38
 70
     1
102
RTVSPropertyOp39
 70
     1
102
RTVSPropertyOp40
 70
     1
102
RTVSPropertyOp41
 70
     1
102
RTVSPropertyOp42
 70
     1
102
RTVSPropertyOp43
 70
     1
102
RTVSPropertyOp44
 70
     1
102
RTVSPropertyOp45
 70
     1
102
RTVSPropertyOp46
 70
     1
102
RTVSPropertyOp47
 70
     1
102
RTVSPropertyOp48
 70
     1
102
RTVSPropertyOp49
 70
     1
102
RTVSPropertyOp50
 70
     1
102
RTVSPropertyOp51
 70
     0
102
RTVSPropertyOp52
 70
     0
102
RTVSPropertyOp53
 70
     1
102
RTVSPropertyOp54
 70
     1
102
RTVSPropertyOp55
 70
     1
102
RTVSPropertyOp56
 70
     1
102
RTVSPropertyOp57
 70
     1
102
RTVSPropertyOp58
 70
     1
102
RTVSPropertyOp59
 70
     1
102
RTVSPropertyOp60
 70
     1
102
RTVSPropertyOp61
 70
     1
102
RTVSPropertyOp62
 70
     1
  0
XRECORD
  5
55E
102
{ACAD_REACTORS
330
55D
102
}
330
55D
100
AcDbXrecord
280
     1
102
RTVSPost2010Prop28
280
     0
102
RTVSPost2010PropOp28
 70
     1
102
RTVSPost2010Prop29
280
     1
102
RTVSPost2010PropOp29
 70
     1
102
RTVSPost2010Prop30
280
     1
102
RTVSPost2010PropOp30
 70
     1
102
RTVSPost2010Prop31
280
     0
102
RTVSPost2010PropOp31
 70
     1
102
RTVSPost2010Prop32
280
     0
102
RTVSPost2010PropOp32
 70
     1
102
RTVSPost2010Prop33
280
     0
102
RTVSPost2010PropOp33
 70
     1
102
RTVSPost2010Prop34
280
     0
102
RTVSPost2010PropOp34
 70
     1
102
RTVSPost2010Prop35
280
     0
102
RTVSPost2010PropOp35
 70
     1
102
RTVSPost2010Prop36
280
     0
102
RTVSPost2010PropOp36
 70
     1
102
RTVSPost2010Prop37
 90
       50
102
RTVSPost2010PropOp37
 70
     1
102
RTVSPost2010Prop38
140
0.0
102
RTVSPost2010PropOp38
 70
     1
102
RTVSPost2010Prop39
140
1.0
102
RTVSPost2010PropOp39
 70
     1
102
RTVSPost2010Prop40
 90
        0
102
RTVSPost2010PropOp40
 70
     1
102
RTVSPost2010Prop41ColorIndex
 90
       18
102
RTVSPost2010Prop41ColorRGB
 90
        0
102
RTVSPost2010PropOp41
 70
     1
102
RTVSPost2010Prop42
 90
       50
102
RTVSPost2010PropOp42
 70
     1
102
RTVSPost2010Prop43
 90
        3
102
RTVSPost2010PropOp43
 70
     1
102
RTVSPost2010Prop44ColorIndex
 90
        5
102
RTVSPost2010Prop44ColorRGB
 90
      255
102
RTVSPost2010PropOp44
 70
     1
102
RTVSPost2010Prop45
280
     0
102
RTVSPost2010PropOp45
 70
     1
102
RTVSPost2010Prop46
 90
       50
102
RTVSPost2010PropOp46
 70
     1
102
RTVSPost2010Prop47
 90
       50
102
RTVSPost2010PropOp47
 70
     1
102
RTVSPost2010Prop48
 90
       50
102
RTVSPost2010PropOp48
 70
     1
102
RTVSPost2010Prop49
280
     0
102
RTVSPost2010PropOp49
 70
     1
102
RTVSPost2010Prop50
 90
       50
102
RTVSPost2010PropOp50
 70
     1
102
RTVSPost2010Prop51ColorIndex
 90
      256
102
RTVSPost2010Prop51ColorRGB
 90
-16777216
102
RTVSPost2010PropOp51
 70
     0
102
RTVSPost2010Prop52
140
1.0
102
RTVSPost2010PropOp52
 70
     0
102
RTVSPost2010Prop53
 90
        2
102
RTVSPost2010PropOp53
 70
     1
102
RTVSPost2010Prop54
  1
strokes_ogs.tif
102
RTVSPost2010PropOp54
 70
     1
102
RTVSPost2010Prop55
280
     0
102
RTVSPost2010PropOp55
 70
     1
102
RTVSPost2010Prop56
140
1.0
102
RTVSPost2010PropOp56
 70
     1
102
RTVSPost2010Prop57
140
1.0
102
RTVSPost2010PropOp57
 70
     1
102
RTVSPropertyOp0
 70
     1
102
RTVSPropertyOp1
 70
     1
102
RTVSPropertyOp2
 70
     1
102
RTVSPropertyOp3
 70
     1
102
RTVSPropertyOp4
 70
     1
102
RTVSPropertyOp5
 70
     1
102
RTVSPropertyOp6
 70
     1
102
RTVSPropertyOp7
 70
     1
102
RTVSPropertyOp8
 70
     1
102
RTVSPropertyOp9
 70
     1
102
RTVSPropertyOp10
 70
     1
102
RTVSPropertyOp11
 70
     1
102
RTVSPropertyOp12
 70
     1
102
RTVSPropertyOp13
 70
     1
102
RTVSPropertyOp14
 70
     1
102
RTVSPropertyOp15
 70
     1
102
RTVSPropertyOp16
 70
     1
102
RTVSPropertyOp17
 70
     1
102
RTVSPropertyOp18
 70
     1
102
RTVSPropertyOp19
 70
     1
102
RTVSPropertyOp20
 70
     1
102
RTVSPropertyOp21
 70
     1
102
RTVSPropertyOp22
 70
     1
102
RTVSPropertyOp23
 70
     1
102
RTVSPropertyOp24
 70
     1
102
RTVSPropertyOp25
 70
     1
102
RTVSPropertyOp26
 70
     1
102
RTVSPropertyOp27
 70
     1
102
RTVSPropertyOp28
 70
     1
102
RTVSPropertyOp29
 70
     1
102
RTVSPropertyOp30
 70
     1
102
RTVSPropertyOp31
 70
     1
102
RTVSPropertyOp32
 70
     1
102
RTVSPropertyOp33
 70
     1
102
RTVSPropertyOp34
 70
     1
102
RTVSPropertyOp35
 70
     1
102
RTVSPropertyOp36
 70
     1
102
RTVSPropertyOp37
 70
     1
102
RTVSPropertyOp38
 70
     1
102
RTVSPropertyOp39
 70
     1
102
RTVSPropertyOp40
 70
     1
102
RTVSPropertyOp41
 70
     1
102
RTVSPropertyOp42
 70
     1
102
RTVSPropertyOp43
 70
     1
102
RTVSPropertyOp44
 70
     1
102
RTVSPropertyOp45
 70
     1
102
RTVSPropertyOp46
 70
     1
102
RTVSPropertyOp47
 70
     1
102
RTVSPropertyOp48
 70
     1
102
RTVSPropertyOp49
 70
     1
102
RTVSPropertyOp50
 70
     1
102
RTVSPropertyOp51
 70
     0
102
RTVSPropertyOp52
 70
     0
102
RTVSPropertyOp53
 70
     1
102
RTVSPropertyOp54
 70
     1
102
RTVSPropertyOp55
 70
     1
102
RTVSPropertyOp56
 70
     1
102
RTVSPropertyOp57
 70
     1
102
RTVSPropertyOp58
 70
     1
102
RTVSPropertyOp59
 70
     1
102
RTVSPropertyOp60
 70
     1
102
RTVSPropertyOp61
 70
     1
102
RTVSPropertyOp62
 70
     1
  0
XRECORD
  5
562
102
{ACAD_REACTORS
330
561
102
}
330
561
100
AcDbXrecord
280
     1
102
RTVSPost2010Prop28
280
     0
102
RTVSPost2010PropOp28
 70
     1
102
RTVSPost2010Prop29
280
     1
102
RTVSPost2010PropOp29
 70
     1
102
RTVSPost2010Prop30
280
     1
102
RTVSPost2010PropOp30
 70
     1
102
RTVSPost2010Prop31
280
     0
102
RTVSPost2010PropOp31
 70
     1
102
RTVSPost2010Prop32
280
     0
102
RTVSPost2010PropOp32
 70
     1
102
RTVSPost2010Prop33
280
     0
102
RTVSPost2010PropOp33
 70
     1
102
RTVSPost2010Prop34
280
     0
102
RTVSPost2010PropOp34
 70
     1
102
RTVSPost2010Prop35
280
     0
102
RTVSPost2010PropOp35
 70
     1
102
RTVSPost2010Prop36
280
     0
102
RTVSPost2010PropOp36
 70
     1
102
RTVSPost2010Prop37
 90
       50
102
RTVSPost2010PropOp37
 70
     1
102
RTVSPost2010Prop38
140
0.0
102
RTVSPost2010PropOp38
 70
     1
102
RTVSPost2010Prop39
140
1.0
102
RTVSPost2010PropOp39
 70
     1
102
RTVSPost2010Prop40
 90
        0
102
RTVSPost2010PropOp40
 70
     1
102
RTVSPost2010Prop41ColorIndex
 90
       18
102
RTVSPost2010Prop41ColorRGB
 90
        0
102
RTVSPost2010PropOp41
 70
     1
102
RTVSPost2010Prop42
 90
       50
102
RTVSPost2010PropOp42
 70
     1
102
RTVSPost2010Prop43
 90
        3
102
RTVSPost2010PropOp43
 70
     1
102
RTVSPost2010Prop44ColorIndex
 90
        5
102
RTVSPost2010Prop44ColorRGB
 90
      255
102
RTVSPost2010PropOp44
 70
     1
102
RTVSPost2010Prop45
280
     0
102
RTVSPost2010PropOp45
 70
     1
102
RTVSPost2010Prop46
 90
       50
102
RTVSPost2010PropOp46
 70
     1
102
RTVSPost2010Prop47
 90
       50
102
RTVSPost2010PropOp47
 70
     1
102
RTVSPost2010Prop48
 90
       50
102
RTVSPost2010PropOp48
 70
     1
102
RTVSPost2010Prop49
280
     0
102
RTVSPost2010PropOp49
 70
     1
102
RTVSPost2010Prop50
 90
       50
102
RTVSPost2010PropOp50
 70
     1
102
RTVSPost2010Prop51ColorIndex
 90
      256
102
RTVSPost2010Prop51ColorRGB
 90
-16777216
102
RTVSPost2010PropOp51
 70
     0
102
RTVSPost2010Prop52
140
1.0
102
RTVSPost2010PropOp52
 70
     0
102
RTVSPost2010Prop53
 90
        2
102
RTVSPost2010PropOp53
 70
     1
102
RTVSPost2010Prop54
  1
strokes_ogs.tif
102
RTVSPost2010PropOp54
 70
     1
102
RTVSPost2010Prop55
280
     0
102
RTVSPost2010PropOp55
 70
     1
102
RTVSPost2010Prop56
140
1.0
102
RTVSPost2010PropOp56
 70
     1
102
RTVSPost2010Prop57
140
1.0
102
RTVSPost2010PropOp57
 70
     1
102
RTVSPropertyOp0
 70
     1
102
RTVSPropertyOp1
 70
     1
102
RTVSPropertyOp2
 70
     1
102
RTVSPropertyOp3
 70
     1
102
RTVSPropertyOp4
 70
     1
102
RTVSPropertyOp5
 70
     1
102
RTVSPropertyOp6
 70
     1
102
RTVSPropertyOp7
 70
     1
102
RTVSPropertyOp8
 70
     1
102
RTVSPropertyOp9
 70
     1
102
RTVSPropertyOp10
 70
     1
102
RTVSPropertyOp11
 70
     1
102
RTVSPropertyOp12
 70
     1
102
RTVSPropertyOp13
 70
     1
102
RTVSPropertyOp14
 70
     1
102
RTVSPropertyOp15
 70
     1
102
RTVSPropertyOp16
 70
     1
102
RTVSPropertyOp17
 70
     1
102
RTVSPropertyOp18
 70
     1
102
RTVSPropertyOp19
 70
     1
102
RTVSPropertyOp20
 70
     1
102
RTVSPropertyOp21
 70
     1
102
RTVSPropertyOp22
 70
     1
102
RTVSPropertyOp23
 70
     1
102
RTVSPropertyOp24
 70
     1
102
RTVSPropertyOp25
 70
     1
102
RTVSPropertyOp26
 70
     1
102
RTVSPropertyOp27
 70
     1
102
RTVSPropertyOp28
 70
     1
102
RTVSPropertyOp29
 70
     1
102
RTVSPropertyOp30
 70
     1
102
RTVSPropertyOp31
 70
     1
102
RTVSPropertyOp32
 70
     1
102
RTVSPropertyOp33
 70
     1
102
RTVSPropertyOp34
 70
     1
102
RTVSPropertyOp35
 70
     1
102
RTVSPropertyOp36
 70
     1
102
RTVSPropertyOp37
 70
     1
102
RTVSPropertyOp38
 70
     1
102
RTVSPropertyOp39
 70
     1
102
RTVSPropertyOp40
 70
     1
102
RTVSPropertyOp41
 70
     1
102
RTVSPropertyOp42
 70
     1
102
RTVSPropertyOp43
 70
     1
102
RTVSPropertyOp44
 70
     1
102
RTVSPropertyOp45
 70
     1
102
RTVSPropertyOp46
 70
     1
102
RTVSPropertyOp47
 70
     1
102
RTVSPropertyOp48
 70
     1
102
RTVSPropertyOp49
 70
     1
102
RTVSPropertyOp50
 70
     1
102
RTVSPropertyOp51
 70
     0
102
RTVSPropertyOp52
 70
     0
102
RTVSPropertyOp53
 70
     1
102
RTVSPropertyOp54
 70
     1
102
RTVSPropertyOp55
 70
     1
102
RTVSPropertyOp56
 70
     1
102
RTVSPropertyOp57
 70
     1
102
RTVSPropertyOp58
 70
     1
102
RTVSPropertyOp59
 70
     1
102
RTVSPropertyOp60
 70
     1
102
RTVSPropertyOp61
 70
     1
102
RTVSPropertyOp62
 70
     1
  0
XRECORD
  5
57C
102
{ACAD_REACTORS
330
57B
102
}
330
57B
100
AcDbXrecord
280
     1
102
RTVSPost2010Prop28
280
     0
102
RTVSPost2010PropOp28
 70
     1
102
RTVSPost2010Prop29
280
     1
102
RTVSPost2010PropOp29
 70
     1
102
RTVSPost2010Prop30
280
     1
102
RTVSPost2010PropOp30
 70
     1
102
RTVSPost2010Prop31
280
     0
102
RTVSPost2010PropOp31
 70
     1
102
RTVSPost2010Prop32
280
     0
102
RTVSPost2010PropOp32
 70
     1
102
RTVSPost2010Prop33
280
     0
102
RTVSPost2010PropOp33
 70
     1
102
RTVSPost2010Prop34
280
     0
102
RTVSPost2010PropOp34
 70
     1
102
RTVSPost2010Prop35
280
     0
102
RTVSPost2010PropOp35
 70
     1
102
RTVSPost2010Prop36
280
     0
102
RTVSPost2010PropOp36
 70
     1
102
RTVSPost2010Prop37
 90
       50
102
RTVSPost2010PropOp37
 70
     0
102
RTVSPost2010Prop38
140
0.0
102
RTVSPost2010PropOp38
 70
     0
102
RTVSPost2010Prop39
140
1.0
102
RTVSPost2010PropOp39
 70
     0
102
RTVSPost2010Prop40
 90
        0
102
RTVSPost2010PropOp40
 70
     0
102
RTVSPost2010Prop41ColorIndex
 90
       18
102
RTVSPost2010Prop41ColorRGB
 90
        0
102
RTVSPost2010PropOp41
 70
     0
102
RTVSPost2010Prop42
 90
       50
102
RTVSPost2010PropOp42
 70
     0
102
RTVSPost2010Prop43
 90
        3
102
RTVSPost2010PropOp43
 70
     0
102
RTVSPost2010Prop44ColorIndex
 90
        5
102
RTVSPost2010Prop44ColorRGB
 90
      255
102
RTVSPost2010PropOp44
 70
     0
102
RTVSPost2010Prop45
280
     0
102
RTVSPost2010PropOp45
 70
     1
102
RTVSPost2010Prop46
 90
       50
102
RTVSPost2010PropOp46
 70
     0
102
RTVSPost2010Prop47
 90
       50
102
RTVSPost2010PropOp47
 70
     0
102
RTVSPost2010Prop48
 90
       50
102
RTVSPost2010PropOp48
 70
     0
102
RTVSPost2010Prop49
280
     0
102
RTVSPost2010PropOp49
 70
     1
102
RTVSPost2010Prop50
 90
       50
102
RTVSPost2010PropOp50
 70
     0
102
RTVSPost2010Prop51ColorIndex
 90
      256
102
RTVSPost2010Prop51ColorRGB
 90
-16777216
102
RTVSPost2010PropOp51
 70
     0
102
RTVSPost2010Prop52
140
1.0
102
RTVSPost2010PropOp52
 70
     0
102
RTVSPost2010Prop53
 90
        2
102
RTVSPost2010PropOp53
 70
     0
102
RTVSPost2010Prop54
  1
strokes_ogs.tif
102
RTVSPost2010PropOp54
 70
     0
102
RTVSPost2010Prop55
280
     0
102
RTVSPost2010PropOp55
 70
     1
102
RTVSPost2010Prop56
140
1.0
102
RTVSPost2010PropOp56
 70
     0
102
RTVSPost2010Prop57
140
1.0
102
RTVSPost2010PropOp57
 70
     0
102
RTVSPropertyOp0
 70
     0
102
RTVSPropertyOp1
 70
     0
102
RTVSPropertyOp2
 70
     0
102
RTVSPropertyOp3
 70
     0
102
RTVSPropertyOp4
 70
     0
102
RTVSPropertyOp5
 70
     0
102
RTVSPropertyOp6
 70
     0
102
RTVSPropertyOp7
 70
     0
102
RTVSPropertyOp8
 70
     0
102
RTVSPropertyOp9
 70
     0
102
RTVSPropertyOp10
 70
     0
102
RTVSPropertyOp11
 70
     0
102
RTVSPropertyOp12
 70
     0
102
RTVSPropertyOp13
 70
     0
102
RTVSPropertyOp14
 70
     2
102
RTVSPropertyOp15
 70
     0
102
RTVSPropertyOp16
 70
     0
102
RTVSPropertyOp17
 70
     0
102
RTVSPropertyOp18
 70
     0
102
RTVSPropertyOp19
 70
     0
102
RTVSPropertyOp20
 70
     0
102
RTVSPropertyOp21
 70
     0
102
RTVSPropertyOp22
 70
     0
102
RTVSPropertyOp23
 70
     0
102
RTVSPropertyOp24
 70
     0
102
RTVSPropertyOp25
 70
     0
102
RTVSPropertyOp26
 70
     0
102
RTVSPropertyOp27
 70
     0
102
RTVSPropertyOp28
 70
     1
102
RTVSPropertyOp29
 70
     1
102
RTVSPropertyOp30
 70
     1
102
RTVSPropertyOp31
 70
     1
102
RTVSPropertyOp32
 70
     1
102
RTVSPropertyOp33
 70
     1
102
RTVSPropertyOp34
 70
     1
102
RTVSPropertyOp35
 70
     1
102
RTVSPropertyOp36
 70
     1
102
RTVSPropertyOp37
 70
     0
102
RTVSPropertyOp38
 70
     0
102
RTVSPropertyOp39
 70
     0
102
RTVSPropertyOp40
 70
     0
102
RTVSPropertyOp41
 70
     0
102
RTVSPropertyOp42
 70
     0
102
RTVSPropertyOp43
 70
     0
102
RTVSPropertyOp44
 70
     0
102
RTVSPropertyOp45
 70
     1
102
RTVSPropertyOp46
 70
     0
102
RTVSPropertyOp47
 70
     0
102
RTVSPropertyOp48
 70
     0
102
RTVSPropertyOp49
 70
     1
102
RTVSPropertyOp50
 70
     0
102
RTVSPropertyOp51
 70
     0
102
RTVSPropertyOp52
 70
     0
102
RTVSPropertyOp53
 70
     0
102
RTVSPropertyOp54
 70
     0
102
RTVSPropertyOp55
 70
     1
102
RTVSPropertyOp56
 70
     0
102
RTVSPropertyOp57
 70
     0
102
RTVSPropertyOp58
 70
     0
102
RTVSPropertyOp59
 70
     0
102
RTVSPropertyOp60
 70
     0
102
RTVSPropertyOp61
 70
     0
102
RTVSPropertyOp62
 70
     0
  0
XRECORD
  5
56A
102
{ACAD_REACTORS
330
569
102
}
330
569
100
AcDbXrecord
280
     1
102
RTVSPost2010Prop28
280
     0
102
RTVSPost2010PropOp28
 70
     1
102
RTVSPost2010Prop29
280
     1
102
RTVSPost2010PropOp29
 70
     1
102
RTVSPost2010Prop30
280
     1
102
RTVSPost2010PropOp30
 70
     1
102
RTVSPost2010Prop31
280
     0
102
RTVSPost2010PropOp31
 70
     1
102
RTVSPost2010Prop32
280
     0
102
RTVSPost2010PropOp32
 70
     1
102
RTVSPost2010Prop33
280
     0
102
RTVSPost2010PropOp33
 70
     1
102
RTVSPost2010Prop34
280
     0
102
RTVSPost2010PropOp34
 70
     1
102
RTVSPost2010Prop35
280
     0
102
RTVSPost2010PropOp35
 70
     1
102
RTVSPost2010Prop36
280
     0
102
RTVSPost2010PropOp36
 70
     1
102
RTVSPost2010Prop37
 90
       50
102
RTVSPost2010PropOp37
 70
     1
102
RTVSPost2010Prop38
140
0.0
102
RTVSPost2010PropOp38
 70
     1
102
RTVSPost2010Prop39
140
1.0
102
RTVSPost2010PropOp39
 70
     1
102
RTVSPost2010Prop40
 90
        0
102
RTVSPost2010PropOp40
 70
     1
102
RTVSPost2010Prop41ColorIndex
 90
       18
102
RTVSPost2010Prop41ColorRGB
 90
        0
102
RTVSPost2010PropOp41
 70
     1
102
RTVSPost2010Prop42
 90
       50
102
RTVSPost2010PropOp42
 70
     1
102
RTVSPost2010Prop43
 90
        3
102
RTVSPost2010PropOp43
 70
     1
102
RTVSPost2010Prop44ColorIndex
 90
        5
102
RTVSPost2010Prop44ColorRGB
 90
      255
102
RTVSPost2010PropOp44
 70
     1
102
RTVSPost2010Prop45
280
     0
102
RTVSPost2010PropOp45
 70
     1
102
RTVSPost2010Prop46
 90
       50
102
RTVSPost2010PropOp46
 70
     1
102
RTVSPost2010Prop47
 90
       50
102
RTVSPost2010PropOp47
 70
     1
102
RTVSPost2010Prop48
 90
       50
102
RTVSPost2010PropOp48
 70
     1
102
RTVSPost2010Prop49
280
     0
102
RTVSPost2010PropOp49
 70
     1
102
RTVSPost2010Prop50
 90
       50
102
RTVSPost2010PropOp50
 70
     1
102
RTVSPost2010Prop51ColorIndex
 90
      256
102
RTVSPost2010Prop51ColorRGB
 90
-16777216
102
RTVSPost2010PropOp51
 70
     0
102
RTVSPost2010Prop52
140
1.0
102
RTVSPost2010PropOp52
 70
     0
102
RTVSPost2010Prop53
 90
        2
102
RTVSPost2010PropOp53
 70
     1
102
RTVSPost2010Prop54
  1
strokes_ogs.tif
102
RTVSPost2010PropOp54
 70
     1
102
RTVSPost2010Prop55
280
     0
102
RTVSPost2010PropOp55
 70
     1
102
RTVSPost2010Prop56
140
1.0
102
RTVSPost2010PropOp56
 70
     1
102
RTVSPost2010Prop57
140
1.0
102
RTVSPost2010PropOp57
 70
     1
102
RTVSPropertyOp0
 70
     1
102
RTVSPropertyOp1
 70
     1
102
RTVSPropertyOp2
 70
     1
102
RTVSPropertyOp3
 70
     1
102
RTVSPropertyOp4
 70
     1
102
RTVSPropertyOp5
 70
     1
102
RTVSPropertyOp6
 70
     1
102
RTVSPropertyOp7
 70
     1
102
RTVSPropertyOp8
 70
     1
102
RTVSPropertyOp9
 70
     1
102
RTVSPropertyOp10
 70
     1
102
RTVSPropertyOp11
 70
     1
102
RTVSPropertyOp12
 70
     1
102
RTVSPropertyOp13
 70
     1
102
RTVSPropertyOp14
 70
     1
102
RTVSPropertyOp15
 70
     1
102
RTVSPropertyOp16
 70
     1
102
RTVSPropertyOp17
 70
     1
102
RTVSPropertyOp18
 70
     1
102
RTVSPropertyOp19
 70
     1
102
RTVSPropertyOp20
 70
     1
102
RTVSPropertyOp21
 70
     1
102
RTVSPropertyOp22
 70
     1
102
RTVSPropertyOp23
 70
     1
102
RTVSPropertyOp24
 70
     1
102
RTVSPropertyOp25
 70
     1
102
RTVSPropertyOp26
 70
     1
102
RTVSPropertyOp27
 70
     1
102
RTVSPropertyOp28
 70
     1
102
RTVSPropertyOp29
 70
     1
102
RTVSPropertyOp30
 70
     1
102
RTVSPropertyOp31
 70
     1
102
RTVSPropertyOp32
 70
     1
102
RTVSPropertyOp33
 70
     1
102
RTVSPropertyOp34
 70
     1
102
RTVSPropertyOp35
 70
     1
102
RTVSPropertyOp36
 70
     1
102
RTVSPropertyOp37
 70
     1
102
RTVSPropertyOp38
 70
     1
102
RTVSPropertyOp39
 70
     1
102
RTVSPropertyOp40
 70
     1
102
RTVSPropertyOp41
 70
     1
102
RTVSPropertyOp42
 70
     1
102
RTVSPropertyOp43
 70
     1
102
RTVSPropertyOp44
 70
     1
102
RTVSPropertyOp45
 70
     1
102
RTVSPropertyOp46
 70
     1
102
RTVSPropertyOp47
 70
     1
102
RTVSPropertyOp48
 70
     1
102
RTVSPropertyOp49
 70
     1
102
RTVSPropertyOp50
 70
     1
102
RTVSPropertyOp51
 70
     0
102
RTVSPropertyOp52
 70
     0
102
RTVSPropertyOp53
 70
     1
102
RTVSPropertyOp54
 70
     1
102
RTVSPropertyOp55
 70
     1
102
RTVSPropertyOp56
 70
     1
102
RTVSPropertyOp57
 70
     1
102
RTVSPropertyOp58
 70
     1
102
RTVSPropertyOp59
 70
     1
102
RTVSPropertyOp60
 70
     1
102
RTVSPropertyOp61
 70
     1
102
RTVSPropertyOp62
 70
     1
  0
XRECORD
  5
54E
102
{ACAD_REACTORS
330
54D
102
}
330
54D
100
AcDbXrecord
280
     1
102
RTVSPost2010Prop28
280
     0
102
RTVSPost2010PropOp28
 70
     1
102
RTVSPost2010Prop29
280
     1
102
RTVSPost2010PropOp29
 70
     1
102
RTVSPost2010Prop30
280
     1
102
RTVSPost2010PropOp30
 70
     1
102
RTVSPost2010Prop31
280
     0
102
RTVSPost2010PropOp31
 70
     1
102
RTVSPost2010Prop32
280
     0
102
RTVSPost2010PropOp32
 70
     1
102
RTVSPost2010Prop33
280
     0
102
RTVSPost2010PropOp33
 70
     1
102
RTVSPost2010Prop34
280
     0
102
RTVSPost2010PropOp34
 70
     1
102
RTVSPost2010Prop35
280
     0
102
RTVSPost2010PropOp35
 70
     1
102
RTVSPost2010Prop36
280
     0
102
RTVSPost2010PropOp36
 70
     1
102
RTVSPost2010Prop37
 90
       50
102
RTVSPost2010PropOp37
 70
     1
102
RTVSPost2010Prop38
140
0.0
102
RTVSPost2010PropOp38
 70
     1
102
RTVSPost2010Prop39
140
1.0
102
RTVSPost2010PropOp39
 70
     1
102
RTVSPost2010Prop40
 90
        0
102
RTVSPost2010PropOp40
 70
     1
102
RTVSPost2010Prop41ColorIndex
 90
       18
102
RTVSPost2010Prop41ColorRGB
 90
        0
102
RTVSPost2010PropOp41
 70
     1
102
RTVSPost2010Prop42
 90
       50
102
RTVSPost2010PropOp42
 70
     1
102
RTVSPost2010Prop43
 90
        3
102
RTVSPost2010PropOp43
 70
     1
102
RTVSPost2010Prop44ColorIndex
 90
        5
102
RTVSPost2010Prop44ColorRGB
 90
      255
102
RTVSPost2010PropOp44
 70
     1
102
RTVSPost2010Prop45
280
     0
102
RTVSPost2010PropOp45
 70
     1
102
RTVSPost2010Prop46
 90
       50
102
RTVSPost2010PropOp46
 70
     1
102
RTVSPost2010Prop47
 90
       50
102
RTVSPost2010PropOp47
 70
     1
102
RTVSPost2010Prop48
 90
       50
102
RTVSPost2010PropOp48
 70
     1
102
RTVSPost2010Prop49
280
     0
102
RTVSPost2010PropOp49
 70
     1
102
RTVSPost2010Prop50
 90
       50
102
RTVSPost2010PropOp50
 70
     1
102
RTVSPost2010Prop51ColorIndex
 90
      256
102
RTVSPost2010Prop51ColorRGB
 90
-16777216
102
RTVSPost2010PropOp51
 70
     0
102
RTVSPost2010Prop52
140
1.0
102
RTVSPost2010PropOp52
 70
     0
102
RTVSPost2010Prop53
 90
        2
102
RTVSPost2010PropOp53
 70
     1
102
RTVSPost2010Prop54
  1
strokes_ogs.tif
102
RTVSPost2010PropOp54
 70
     1
102
RTVSPost2010Prop55
280
     0
102
RTVSPost2010PropOp55
 70
     1
102
RTVSPost2010Prop56
140
1.0
102
RTVSPost2010PropOp56
 70
     1
102
RTVSPost2010Prop57
140
1.0
102
RTVSPost2010PropOp57
 70
     1
102
RTVSPropertyOp0
 70
     1
102
RTVSPropertyOp1
 70
     1
102
RTVSPropertyOp2
 70
     1
102
RTVSPropertyOp3
 70
     1
102
RTVSPropertyOp4
 70
     1
102
RTVSPropertyOp5
 70
     1
102
RTVSPropertyOp6
 70
     1
102
RTVSPropertyOp7
 70
     1
102
RTVSPropertyOp8
 70
     1
102
RTVSPropertyOp9
 70
     1
102
RTVSPropertyOp10
 70
     1
102
RTVSPropertyOp11
 70
     1
102
RTVSPropertyOp12
 70
     1
102
RTVSPropertyOp13
 70
     1
102
RTVSPropertyOp14
 70
     1
102
RTVSPropertyOp15
 70
     1
102
RTVSPropertyOp16
 70
     1
102
RTVSPropertyOp17
 70
     1
102
RTVSPropertyOp18
 70
     1
102
RTVSPropertyOp19
 70
     1
102
RTVSPropertyOp20
 70
     1
102
RTVSPropertyOp21
 70
     1
102
RTVSPropertyOp22
 70
     1
102
RTVSPropertyOp23
 70
     1
102
RTVSPropertyOp24
 70
     1
102
RTVSPropertyOp25
 70
     1
102
RTVSPropertyOp26
 70
     1
102
RTVSPropertyOp27
 70
     1
102
RTVSPropertyOp28
 70
     1
102
RTVSPropertyOp29
 70
     1
102
RTVSPropertyOp30
 70
     1
102
RTVSPropertyOp31
 70
     1
102
RTVSPropertyOp32
 70
     1
102
RTVSPropertyOp33
 70
     1
102
RTVSPropertyOp34
 70
     1
102
RTVSPropertyOp35
 70
     1
102
RTVSPropertyOp36
 70
     1
102
RTVSPropertyOp37
 70
     1
102
RTVSPropertyOp38
 70
     1
102
RTVSPropertyOp39
 70
     1
102
RTVSPropertyOp40
 70
     1
102
RTVSPropertyOp41
 70
     1
102
RTVSPropertyOp42
 70
     1
102
RTVSPropertyOp43
 70
     1
102
RTVSPropertyOp44
 70
     1
102
RTVSPropertyOp45
 70
     1
102
RTVSPropertyOp46
 70
     1
102
RTVSPropertyOp47
 70
     1
102
RTVSPropertyOp48
 70
     1
102
RTVSPropertyOp49
 70
     1
102
RTVSPropertyOp50
 70
     1
102
RTVSPropertyOp51
 70
     0
102
RTVSPropertyOp52
 70
     0
102
RTVSPropertyOp53
 70
     1
102
RTVSPropertyOp54
 70
     1
102
RTVSPropertyOp55
 70
     1
102
RTVSPropertyOp56
 70
     1
102
RTVSPropertyOp57
 70
     1
102
RTVSPropertyOp58
 70
     1
102
RTVSPropertyOp59
 70
     1
102
RTVSPropertyOp60
 70
     1
102
RTVSPropertyOp61
 70
     1
102
RTVSPropertyOp62
 70
     1
  0
XRECORD
  5
550
102
{ACAD_REACTORS
330
54F
102
}
330
54F
100
AcDbXrecord
280
     1
102
RTVSPost2010Prop28
280
     0
102
RTVSPost2010PropOp28
 70
     1
102
RTVSPost2010Prop29
280
     1
102
RTVSPost2010PropOp29
 70
     1
102
RTVSPost2010Prop30
280
     1
102
RTVSPost2010PropOp30
 70
     1
102
RTVSPost2010Prop31
280
     0
102
RTVSPost2010PropOp31
 70
     1
102
RTVSPost2010Prop32
280
     0
102
RTVSPost2010PropOp32
 70
     1
102
RTVSPost2010Prop33
280
     0
102
RTVSPost2010PropOp33
 70
     1
102
RTVSPost2010Prop34
280
     0
102
RTVSPost2010PropOp34
 70
     1
102
RTVSPost2010Prop35
280
     0
102
RTVSPost2010PropOp35
 70
     1
102
RTVSPost2010Prop36
280
     0
102
RTVSPost2010PropOp36
 70
     1
102
RTVSPost2010Prop37
 90
       50
102
RTVSPost2010PropOp37
 70
     1
102
RTVSPost2010Prop38
140
0.0
102
RTVSPost2010PropOp38
 70
     1
102
RTVSPost2010Prop39
140
1.0
102
RTVSPost2010PropOp39
 70
     1
102
RTVSPost2010Prop40
 90
        0
102
RTVSPost2010PropOp40
 70
     1
102
RTVSPost2010Prop41ColorIndex
 90
       18
102
RTVSPost2010Prop41ColorRGB
 90
        0
102
RTVSPost2010PropOp41
 70
     1
102
RTVSPost2010Prop42
 90
       50
102
RTVSPost2010PropOp42
 70
     1
102
RTVSPost2010Prop43
 90
        3
102
RTVSPost2010PropOp43
 70
     1
102
RTVSPost2010Prop44ColorIndex
 90
        5
102
RTVSPost2010Prop44ColorRGB
 90
      255
102
RTVSPost2010PropOp44
 70
     1
102
RTVSPost2010Prop45
280
     0
102
RTVSPost2010PropOp45
 70
     1
102
RTVSPost2010Prop46
 90
       50
102
RTVSPost2010PropOp46
 70
     1
102
RTVSPost2010Prop47
 90
       50
102
RTVSPost2010PropOp47
 70
     1
102
RTVSPost2010Prop48
 90
       50
102
RTVSPost2010PropOp48
 70
     1
102
RTVSPost2010Prop49
280
     0
102
RTVSPost2010PropOp49
 70
     1
102
RTVSPost2010Prop50
 90
       50
102
RTVSPost2010PropOp50
 70
     1
102
RTVSPost2010Prop51ColorIndex
 90
      256
102
RTVSPost2010Prop51ColorRGB
 90
-16777216
102
RTVSPost2010PropOp51
 70
     0
102
RTVSPost2010Prop52
140
1.0
102
RTVSPost2010PropOp52
 70
     0
102
RTVSPost2010Prop53
 90
        2
102
RTVSPost2010PropOp53
 70
     1
102
RTVSPost2010Prop54
  1
strokes_ogs.tif
102
RTVSPost2010PropOp54
 70
     1
102
RTVSPost2010Prop55
280
     0
102
RTVSPost2010PropOp55
 70
     1
102
RTVSPost2010Prop56
140
1.0
102
RTVSPost2010PropOp56
 70
     1
102
RTVSPost2010Prop57
140
1.0
102
RTVSPost2010PropOp57
 70
     1
102
RTVSPropertyOp0
 70
     1
102
RTVSPropertyOp1
 70
     1
102
RTVSPropertyOp2
 70
     1
102
RTVSPropertyOp3
 70
     1
102
RTVSPropertyOp4
 70
     1
102
RTVSPropertyOp5
 70
     1
102
RTVSPropertyOp6
 70
     1
102
RTVSPropertyOp7
 70
     1
102
RTVSPropertyOp8
 70
     1
102
RTVSPropertyOp9
 70
     1
102
RTVSPropertyOp10
 70
     1
102
RTVSPropertyOp11
 70
     1
102
RTVSPropertyOp12
 70
     1
102
RTVSPropertyOp13
 70
     1
102
RTVSPropertyOp14
 70
     1
102
RTVSPropertyOp15
 70
     1
102
RTVSPropertyOp16
 70
     1
102
RTVSPropertyOp17
 70
     1
102
RTVSPropertyOp18
 70
     1
102
RTVSPropertyOp19
 70
     1
102
RTVSPropertyOp20
 70
     1
102
RTVSPropertyOp21
 70
     1
102
RTVSPropertyOp22
 70
     1
102
RTVSPropertyOp23
 70
     1
102
RTVSPropertyOp24
 70
     1
102
RTVSPropertyOp25
 70
     1
102
RTVSPropertyOp26
 70
     1
102
RTVSPropertyOp27
 70
     1
102
RTVSPropertyOp28
 70
     1
102
RTVSPropertyOp29
 70
     1
102
RTVSPropertyOp30
 70
     1
102
RTVSPropertyOp31
 70
     1
102
RTVSPropertyOp32
 70
     1
102
RTVSPropertyOp33
 70
     1
102
RTVSPropertyOp34
 70
     1
102
RTVSPropertyOp35
 70
     1
102
RTVSPropertyOp36
 70
     1
102
RTVSPropertyOp37
 70
     1
102
RTVSPropertyOp38
 70
     1
102
RTVSPropertyOp39
 70
     1
102
RTVSPropertyOp40
 70
     1
102
RTVSPropertyOp41
 70
     1
102
RTVSPropertyOp42
 70
     1
102
RTVSPropertyOp43
 70
     1
102
RTVSPropertyOp44
 70
     1
102
RTVSPropertyOp45
 70
     1
102
RTVSPropertyOp46
 70
     1
102
RTVSPropertyOp47
 70
     1
102
RTVSPropertyOp48
 70
     1
102
RTVSPropertyOp49
 70
     1
102
RTVSPropertyOp50
 70
     1
102
RTVSPropertyOp51
 70
     0
102
RTVSPropertyOp52
 70
     0
102
RTVSPropertyOp53
 70
     1
102
RTVSPropertyOp54
 70
     1
102
RTVSPropertyOp55
 70
     1
102
RTVSPropertyOp56
 70
     1
102
RTVSPropertyOp57
 70
     1
102
RTVSPropertyOp58
 70
     1
102
RTVSPropertyOp59
 70
     1
102
RTVSPropertyOp60
 70
     1
102
RTVSPropertyOp61
 70
     1
102
RTVSPropertyOp62
 70
     1
  0
XRECORD
  5
552
102
{ACAD_REACTORS
330
551
102
}
330
551
100
AcDbXrecord
280
     1
102
RTVSPost2010Prop28
280
     0
102
RTVSPost2010PropOp28
 70
     1
102
RTVSPost2010Prop29
280
     1
102
RTVSPost2010PropOp29
 70
     1
102
RTVSPost2010Prop30
280
     1
102
RTVSPost2010PropOp30
 70
     1
102
RTVSPost2010Prop31
280
     0
102
RTVSPost2010PropOp31
 70
     1
102
RTVSPost2010Prop32
280
     0
102
RTVSPost2010PropOp32
 70
     1
102
RTVSPost2010Prop33
280
     0
102
RTVSPost2010PropOp33
 70
     1
102
RTVSPost2010Prop34
280
     0
102
RTVSPost2010PropOp34
 70
     1
102
RTVSPost2010Prop35
280
     0
102
RTVSPost2010PropOp35
 70
     1
102
RTVSPost2010Prop36
280
     0
102
RTVSPost2010PropOp36
 70
     1
102
RTVSPost2010Prop37
 90
       50
102
RTVSPost2010PropOp37
 70
     1
102
RTVSPost2010Prop38
140
0.0
102
RTVSPost2010PropOp38
 70
     1
102
RTVSPost2010Prop39
140
1.0
102
RTVSPost2010PropOp39
 70
     1
102
RTVSPost2010Prop40
 90
        0
102
RTVSPost2010PropOp40
 70
     1
102
RTVSPost2010Prop41ColorIndex
 90
       18
102
RTVSPost2010Prop41ColorRGB
 90
        0
102
RTVSPost2010PropOp41
 70
     1
102
RTVSPost2010Prop42
 90
       50
102
RTVSPost2010PropOp42
 70
     1
102
RTVSPost2010Prop43
 90
        3
102
RTVSPost2010PropOp43
 70
     1
102
RTVSPost2010Prop44ColorIndex
 90
        5
102
RTVSPost2010Prop44ColorRGB
 90
      255
102
RTVSPost2010PropOp44
 70
     1
102
RTVSPost2010Prop45
280
     0
102
RTVSPost2010PropOp45
 70
     1
102
RTVSPost2010Prop46
 90
       50
102
RTVSPost2010PropOp46
 70
     1
102
RTVSPost2010Prop47
 90
       50
102
RTVSPost2010PropOp47
 70
     1
102
RTVSPost2010Prop48
 90
       50
102
RTVSPost2010PropOp48
 70
     1
102
RTVSPost2010Prop49
280
     0
102
RTVSPost2010PropOp49
 70
     1
102
RTVSPost2010Prop50
 90
       50
102
RTVSPost2010PropOp50
 70
     1
102
RTVSPost2010Prop51ColorIndex
 90
      256
102
RTVSPost2010Prop51ColorRGB
 90
-16777216
102
RTVSPost2010PropOp51
 70
     0
102
RTVSPost2010Prop52
140
1.0
102
RTVSPost2010PropOp52
 70
     0
102
RTVSPost2010Prop53
 90
        2
102
RTVSPost2010PropOp53
 70
     1
102
RTVSPost2010Prop54
  1
strokes_ogs.tif
102
RTVSPost2010PropOp54
 70
     1
102
RTVSPost2010Prop55
280
     0
102
RTVSPost2010PropOp55
 70
     1
102
RTVSPost2010Prop56
140
1.0
102
RTVSPost2010PropOp56
 70
     1
102
RTVSPost2010Prop57
140
1.0
102
RTVSPost2010PropOp57
 70
     1
102
RTVSPropertyOp0
 70
     1
102
RTVSPropertyOp1
 70
     1
102
RTVSPropertyOp2
 70
     1
102
RTVSPropertyOp3
 70
     1
102
RTVSPropertyOp4
 70
     1
102
RTVSPropertyOp5
 70
     1
102
RTVSPropertyOp6
 70
     1
102
RTVSPropertyOp7
 70
     1
102
RTVSPropertyOp8
 70
     1
102
RTVSPropertyOp9
 70
     1
102
RTVSPropertyOp10
 70
     1
102
RTVSPropertyOp11
 70
     1
102
RTVSPropertyOp12
 70
     1
102
RTVSPropertyOp13
 70
     1
102
RTVSPropertyOp14
 70
     1
102
RTVSPropertyOp15
 70
     1
102
RTVSPropertyOp16
 70
     1
102
RTVSPropertyOp17
 70
     1
102
RTVSPropertyOp18
 70
     1
102
RTVSPropertyOp19
 70
     1
102
RTVSPropertyOp20
 70
     1
102
RTVSPropertyOp21
 70
     1
102
RTVSPropertyOp22
 70
     1
102
RTVSPropertyOp23
 70
     1
102
RTVSPropertyOp24
 70
     1
102
RTVSPropertyOp25
 70
     1
102
RTVSPropertyOp26
 70
     1
102
RTVSPropertyOp27
 70
     1
102
RTVSPropertyOp28
 70
     1
102
RTVSPropertyOp29
 70
     1
102
RTVSPropertyOp30
 70
     1
102
RTVSPropertyOp31
 70
     1
102
RTVSPropertyOp32
 70
     1
102
RTVSPropertyOp33
 70
     1
102
RTVSPropertyOp34
 70
     1
102
RTVSPropertyOp35
 70
     1
102
RTVSPropertyOp36
 70
     1
102
RTVSPropertyOp37
 70
     1
102
RTVSPropertyOp38
 70
     1
102
RTVSPropertyOp39
 70
     1
102
RTVSPropertyOp40
 70
     1
102
RTVSPropertyOp41
 70
     1
102
RTVSPropertyOp42
 70
     1
102
RTVSPropertyOp43
 70
     1
102
RTVSPropertyOp44
 70
     1
102
RTVSPropertyOp45
 70
     1
102
RTVSPropertyOp46
 70
     1
102
RTVSPropertyOp47
 70
     1
102
RTVSPropertyOp48
 70
     1
102
RTVSPropertyOp49
 70
     1
102
RTVSPropertyOp50
 70
     1
102
RTVSPropertyOp51
 70
     0
102
RTVSPropertyOp52
 70
     0
102
RTVSPropertyOp53
 70
     1
102
RTVSPropertyOp54
 70
     1
102
RTVSPropertyOp55
 70
     1
102
RTVSPropertyOp56
 70
     1
102
RTVSPropertyOp57
 70
     1
102
RTVSPropertyOp58
 70
     1
102
RTVSPropertyOp59
 70
     1
102
RTVSPropertyOp60
 70
     1
102
RTVSPropertyOp61
 70
     1
102
RTVSPropertyOp62
 70
     1
  0
XRECORD
  5
554
102
{ACAD_REACTORS
330
553
102
}
330
553
100
AcDbXrecord
280
     1
102
RTVSPost2010Prop28
280
     0
102
RTVSPost2010PropOp28
 70
     1
102
RTVSPost2010Prop29
280
     1
102
RTVSPost2010PropOp29
 70
     1
102
RTVSPost2010Prop30
280
     1
102
RTVSPost2010PropOp30
 70
     1
102
RTVSPost2010Prop31
280
     0
102
RTVSPost2010PropOp31
 70
     1
102
RTVSPost2010Prop32
280
     0
102
RTVSPost2010PropOp32
 70
     1
102
RTVSPost2010Prop33
280
     0
102
RTVSPost2010PropOp33
 70
     1
102
RTVSPost2010Prop34
280
     0
102
RTVSPost2010PropOp34
 70
     1
102
RTVSPost2010Prop35
280
     0
102
RTVSPost2010PropOp35
 70
     1
102
RTVSPost2010Prop36
280
     0
102
RTVSPost2010PropOp36
 70
     1
102
RTVSPost2010Prop37
 90
       50
102
RTVSPost2010PropOp37
 70
     1
102
RTVSPost2010Prop38
140
0.0
102
RTVSPost2010PropOp38
 70
     1
102
RTVSPost2010Prop39
140
1.0
102
RTVSPost2010PropOp39
 70
     1
102
RTVSPost2010Prop40
 90
        0
102
RTVSPost2010PropOp40
 70
     1
102
RTVSPost2010Prop41ColorIndex
 90
       18
102
RTVSPost2010Prop41ColorRGB
 90
        0
102
RTVSPost2010PropOp41
 70
     1
102
RTVSPost2010Prop42
 90
       50
102
RTVSPost2010PropOp42
 70
     1
102
RTVSPost2010Prop43
 90
        3
102
RTVSPost2010PropOp43
 70
     1
102
RTVSPost2010Prop44ColorIndex
 90
        5
102
RTVSPost2010Prop44ColorRGB
 90
      255
102
RTVSPost2010PropOp44
 70
     1
102
RTVSPost2010Prop45
280
     0
102
RTVSPost2010PropOp45
 70
     1
102
RTVSPost2010Prop46
 90
       50
102
RTVSPost2010PropOp46
 70
     1
102
RTVSPost2010Prop47
 90
       50
102
RTVSPost2010PropOp47
 70
     1
102
RTVSPost2010Prop48
 90
       50
102
RTVSPost2010PropOp48
 70
     1
102
RTVSPost2010Prop49
280
     0
102
RTVSPost2010PropOp49
 70
     1
102
RTVSPost2010Prop50
 90
       50
102
RTVSPost2010PropOp50
 70
     1
102
RTVSPost2010Prop51ColorIndex
 90
      256
102
RTVSPost2010Prop51ColorRGB
 90
-16777216
102
RTVSPost2010PropOp51
 70
     0
102
RTVSPost2010Prop52
140
1.0
102
RTVSPost2010PropOp52
 70
     0
102
RTVSPost2010Prop53
 90
        2
102
RTVSPost2010PropOp53
 70
     1
102
RTVSPost2010Prop54
  1
strokes_ogs.tif
102
RTVSPost2010PropOp54
 70
     1
102
RTVSPost2010Prop55
280
     0
102
RTVSPost2010PropOp55
 70
     1
102
RTVSPost2010Prop56
140
1.0
102
RTVSPost2010PropOp56
 70
     1
102
RTVSPost2010Prop57
140
1.0
102
RTVSPost2010PropOp57
 70
     1
102
RTVSPropertyOp0
 70
     1
102
RTVSPropertyOp1
 70
     1
102
RTVSPropertyOp2
 70
     1
102
RTVSPropertyOp3
 70
     1
102
RTVSPropertyOp4
 70
     1
102
RTVSPropertyOp5
 70
     1
102
RTVSPropertyOp6
 70
     1
102
RTVSPropertyOp7
 70
     1
102
RTVSPropertyOp8
 70
     1
102
RTVSPropertyOp9
 70
     1
102
RTVSPropertyOp10
 70
     1
102
RTVSPropertyOp11
 70
     1
102
RTVSPropertyOp12
 70
     1
102
RTVSPropertyOp13
 70
     1
102
RTVSPropertyOp14
 70
     1
102
RTVSPropertyOp15
 70
     1
102
RTVSPropertyOp16
 70
     1
102
RTVSPropertyOp17
 70
     1
102
RTVSPropertyOp18
 70
     1
102
RTVSPropertyOp19
 70
     1
102
RTVSPropertyOp20
 70
     1
102
RTVSPropertyOp21
 70
     1
102
RTVSPropertyOp22
 70
     1
102
RTVSPropertyOp23
 70
     1
102
RTVSPropertyOp24
 70
     1
102
RTVSPropertyOp25
 70
     1
102
RTVSPropertyOp26
 70
     1
102
RTVSPropertyOp27
 70
     1
102
RTVSPropertyOp28
 70
     1
102
RTVSPropertyOp29
 70
     1
102
RTVSPropertyOp30
 70
     1
102
RTVSPropertyOp31
 70
     1
102
RTVSPropertyOp32
 70
     1
102
RTVSPropertyOp33
 70
     1
102
RTVSPropertyOp34
 70
     1
102
RTVSPropertyOp35
 70
     1
102
RTVSPropertyOp36
 70
     1
102
RTVSPropertyOp37
 70
     1
102
RTVSPropertyOp38
 70
     1
102
RTVSPropertyOp39
 70
     1
102
RTVSPropertyOp40
 70
     1
102
RTVSPropertyOp41
 70
     1
102
RTVSPropertyOp42
 70
     1
102
RTVSPropertyOp43
 70
     1
102
RTVSPropertyOp44
 70
     1
102
RTVSPropertyOp45
 70
     1
102
RTVSPropertyOp46
 70
     1
102
RTVSPropertyOp47
 70
     1
102
RTVSPropertyOp48
 70
     1
102
RTVSPropertyOp49
 70
     1
102
RTVSPropertyOp50
 70
     1
102
RTVSPropertyOp51
 70
     0
102
RTVSPropertyOp52
 70
     0
102
RTVSPropertyOp53
 70
     1
102
RTVSPropertyOp54
 70
     1
102
RTVSPropertyOp55
 70
     1
102
RTVSPropertyOp56
 70
     1
102
RTVSPropertyOp57
 70
     1
102
RTVSPropertyOp58
 70
     1
102
RTVSPropertyOp59
 70
     1
102
RTVSPropertyOp60
 70
     1
102
RTVSPropertyOp61
 70
     1
102
RTVSPropertyOp62
 70
     1
  0
XRECORD
  5
55C
102
{ACAD_REACTORS
330
55B
102
}
330
55B
100
AcDbXrecord
280
     1
102
RTVSPost2010Prop28
280
     0
102
RTVSPost2010PropOp28
 70
     1
102
RTVSPost2010Prop29
280
     1
102
RTVSPost2010PropOp29
 70
     1
102
RTVSPost2010Prop30
280
     1
102
RTVSPost2010PropOp30
 70
     1
102
RTVSPost2010Prop31
280
     0
102
RTVSPost2010PropOp31
 70
     1
102
RTVSPost2010Prop32
280
     0
102
RTVSPost2010PropOp32
 70
     1
102
RTVSPost2010Prop33
280
     0
102
RTVSPost2010PropOp33
 70
     1
102
RTVSPost2010Prop34
280
     0
102
RTVSPost2010PropOp34
 70
     1
102
RTVSPost2010Prop35
280
     0
102
RTVSPost2010PropOp35
 70
     1
102
RTVSPost2010Prop36
280
     0
102
RTVSPost2010PropOp36
 70
     1
102
RTVSPost2010Prop37
 90
       50
102
RTVSPost2010PropOp37
 70
     1
102
RTVSPost2010Prop38
140
0.0
102
RTVSPost2010PropOp38
 70
     1
102
RTVSPost2010Prop39
140
1.0
102
RTVSPost2010PropOp39
 70
     1
102
RTVSPost2010Prop40
 90
        0
102
RTVSPost2010PropOp40
 70
     1
102
RTVSPost2010Prop41ColorIndex
 90
       18
102
RTVSPost2010Prop41ColorRGB
 90
        0
102
RTVSPost2010PropOp41
 70
     1
102
RTVSPost2010Prop42
 90
       50
102
RTVSPost2010PropOp42
 70
     1
102
RTVSPost2010Prop43
 90
        3
102
RTVSPost2010PropOp43
 70
     1
102
RTVSPost2010Prop44ColorIndex
 90
        5
102
RTVSPost2010Prop44ColorRGB
 90
      255
102
RTVSPost2010PropOp44
 70
     1
102
RTVSPost2010Prop45
280
     0
102
RTVSPost2010PropOp45
 70
     1
102
RTVSPost2010Prop46
 90
       50
102
RTVSPost2010PropOp46
 70
     1
102
RTVSPost2010Prop47
 90
       50
102
RTVSPost2010PropOp47
 70
     1
102
RTVSPost2010Prop48
 90
       50
102
RTVSPost2010PropOp48
 70
     1
102
RTVSPost2010Prop49
280
     0
102
RTVSPost2010PropOp49
 70
     1
102
RTVSPost2010Prop50
 90
       50
102
RTVSPost2010PropOp50
 70
     1
102
RTVSPost2010Prop51ColorIndex
 90
      256
102
RTVSPost2010Prop51ColorRGB
 90
-16777216
102
RTVSPost2010PropOp51
 70
     0
102
RTVSPost2010Prop52
140
1.0
102
RTVSPost2010PropOp52
 70
     0
102
RTVSPost2010Prop53
 90
        2
102
RTVSPost2010PropOp53
 70
     1
102
RTVSPost2010Prop54
  1
strokes_ogs.tif
102
RTVSPost2010PropOp54
 70
     1
102
RTVSPost2010Prop55
280
     0
102
RTVSPost2010PropOp55
 70
     1
102
RTVSPost2010Prop56
140
1.0
102
RTVSPost2010PropOp56
 70
     1
102
RTVSPost2010Prop57
140
1.0
102
RTVSPost2010PropOp57
 70
     1
102
RTVSPropertyOp0
 70
     1
102
RTVSPropertyOp1
 70
     1
102
RTVSPropertyOp2
 70
     1
102
RTVSPropertyOp3
 70
     1
102
RTVSPropertyOp4
 70
     1
102
RTVSPropertyOp5
 70
     1
102
RTVSPropertyOp6
 70
     1
102
RTVSPropertyOp7
 70
     1
102
RTVSPropertyOp8
 70
     1
102
RTVSPropertyOp9
 70
     1
102
RTVSPropertyOp10
 70
     1
102
RTVSPropertyOp11
 70
     1
102
RTVSPropertyOp12
 70
     1
102
RTVSPropertyOp13
 70
     1
102
RTVSPropertyOp14
 70
     1
102
RTVSPropertyOp15
 70
     1
102
RTVSPropertyOp16
 70
     1
102
RTVSPropertyOp17
 70
     1
102
RTVSPropertyOp18
 70
     1
102
RTVSPropertyOp19
 70
     1
102
RTVSPropertyOp20
 70
     1
102
RTVSPropertyOp21
 70
     1
102
RTVSPropertyOp22
 70
     1
102
RTVSPropertyOp23
 70
     1
102
RTVSPropertyOp24
 70
     1
102
RTVSPropertyOp25
 70
     1
102
RTVSPropertyOp26
 70
     1
102
RTVSPropertyOp27
 70
     1
102
RTVSPropertyOp28
 70
     1
102
RTVSPropertyOp29
 70
     1
102
RTVSPropertyOp30
 70
     1
102
RTVSPropertyOp31
 70
     1
102
RTVSPropertyOp32
 70
     1
102
RTVSPropertyOp33
 70
     1
102
RTVSPropertyOp34
 70
     1
102
RTVSPropertyOp35
 70
     1
102
RTVSPropertyOp36
 70
     1
102
RTVSPropertyOp37
 70
     1
102
RTVSPropertyOp38
 70
     1
102
RTVSPropertyOp39
 70
     1
102
RTVSPropertyOp40
 70
     1
102
RTVSPropertyOp41
 70
     1
102
RTVSPropertyOp42
 70
     1
102
RTVSPropertyOp43
 70
     1
102
RTVSPropertyOp44
 70
     1
102
RTVSPropertyOp45
 70
     1
102
RTVSPropertyOp46
 70
     1
102
RTVSPropertyOp47
 70
     1
102
RTVSPropertyOp48
 70
     1
102
RTVSPropertyOp49
 70
     1
102
RTVSPropertyOp50
 70
     1
102
RTVSPropertyOp51
 70
     0
102
RTVSPropertyOp52
 70
     0
102
RTVSPropertyOp53
 70
     1
102
RTVSPropertyOp54
 70
     1
102
RTVSPropertyOp55
 70
     1
102
RTVSPropertyOp56
 70
     1
102
RTVSPropertyOp57
 70
     1
102
RTVSPropertyOp58
 70
     1
102
RTVSPropertyOp59
 70
     1
102
RTVSPropertyOp60
 70
     1
102
RTVSPropertyOp61
 70
     1
102
RTVSPropertyOp62
 70
     1
  0
XRECORD
  5
578
102
{ACAD_REACTORS
330
577
102
}
330
577
100
AcDbXrecord
280
     1
102
RTVSPost2010Prop28
280
     0
102
RTVSPost2010PropOp28
 70
     1
102
RTVSPost2010Prop29
280
     1
102
RTVSPost2010PropOp29
 70
     1
102
RTVSPost2010Prop30
280
     1
102
RTVSPost2010PropOp30
 70
     1
102
RTVSPost2010Prop31
280
     0
102
RTVSPost2010PropOp31
 70
     1
102
RTVSPost2010Prop32
280
     0
102
RTVSPost2010PropOp32
 70
     1
102
RTVSPost2010Prop33
280
     0
102
RTVSPost2010PropOp33
 70
     1
102
RTVSPost2010Prop34
280
     0
102
RTVSPost2010PropOp34
 70
     1
102
RTVSPost2010Prop35
280
     0
102
RTVSPost2010PropOp35
 70
     1
102
RTVSPost2010Prop36
280
     0
102
RTVSPost2010PropOp36
 70
     1
102
RTVSPost2010Prop37
 90
       50
102
RTVSPost2010PropOp37
 70
     0
102
RTVSPost2010Prop38
140
0.0
102
RTVSPost2010PropOp38
 70
     0
102
RTVSPost2010Prop39
140
1.0
102
RTVSPost2010PropOp39
 70
     0
102
RTVSPost2010Prop40
 90
        0
102
RTVSPost2010PropOp40
 70
     0
102
RTVSPost2010Prop41ColorIndex
 90
       18
102
RTVSPost2010Prop41ColorRGB
 90
        0
102
RTVSPost2010PropOp41
 70
     0
102
RTVSPost2010Prop42
 90
       50
102
RTVSPost2010PropOp42
 70
     0
102
RTVSPost2010Prop43
 90
        3
102
RTVSPost2010PropOp43
 70
     0
102
RTVSPost2010Prop44ColorIndex
 90
        5
102
RTVSPost2010Prop44ColorRGB
 90
      255
102
RTVSPost2010PropOp44
 70
     0
102
RTVSPost2010Prop45
280
     0
102
RTVSPost2010PropOp45
 70
     1
102
RTVSPost2010Prop46
 90
       50
102
RTVSPost2010PropOp46
 70
     0
102
RTVSPost2010Prop47
 90
       50
102
RTVSPost2010PropOp47
 70
     0
102
RTVSPost2010Prop48
 90
       50
102
RTVSPost2010PropOp48
 70
     0
102
RTVSPost2010Prop49
280
     0
102
RTVSPost2010PropOp49
 70
     1
102
RTVSPost2010Prop50
 90
       50
102
RTVSPost2010PropOp50
 70
     0
102
RTVSPost2010Prop51ColorIndex
 90
      256
102
RTVSPost2010Prop51ColorRGB
 90
-16777216
102
RTVSPost2010PropOp51
 70
     0
102
RTVSPost2010Prop52
140
1.0
102
RTVSPost2010PropOp52
 70
     0
102
RTVSPost2010Prop53
 90
        2
102
RTVSPost2010PropOp53
 70
     0
102
RTVSPost2010Prop54
  1
strokes_ogs.tif
102
RTVSPost2010PropOp54
 70
     0
102
RTVSPost2010Prop55
280
     0
102
RTVSPost2010PropOp55
 70
     1
102
RTVSPost2010Prop56
140
1.0
102
RTVSPost2010PropOp56
 70
     0
102
RTVSPost2010Prop57
140
1.0
102
RTVSPost2010PropOp57
 70
     0
102
RTVSPropertyOp0
 70
     0
102
RTVSPropertyOp1
 70
     0
102
RTVSPropertyOp2
 70
     0
102
RTVSPropertyOp3
 70
     0
102
RTVSPropertyOp4
 70
     0
102
RTVSPropertyOp5
 70
     0
102
RTVSPropertyOp6
 70
     0
102
RTVSPropertyOp7
 70
     0
102
RTVSPropertyOp8
 70
     0
102
RTVSPropertyOp9
 70
     0
102
RTVSPropertyOp10
 70
     0
102
RTVSPropertyOp11
 70
     0
102
RTVSPropertyOp12
 70
     0
102
RTVSPropertyOp13
 70
     0
102
RTVSPropertyOp14
 70
     2
102
RTVSPropertyOp15
 70
     0
102
RTVSPropertyOp16
 70
     0
102
RTVSPropertyOp17
 70
     0
102
RTVSPropertyOp18
 70
     0
102
RTVSPropertyOp19
 70
     0
102
RTVSPropertyOp20
 70
     0
102
RTVSPropertyOp21
 70
     0
102
RTVSPropertyOp22
 70
     0
102
RTVSPropertyOp23
 70
     0
102
RTVSPropertyOp24
 70
     0
102
RTVSPropertyOp25
 70
     0
102
RTVSPropertyOp26
 70
     0
102
RTVSPropertyOp27
 70
     0
102
RTVSPropertyOp28
 70
     1
102
RTVSPropertyOp29
 70
     1
102
RTVSPropertyOp30
 70
     1
102
RTVSPropertyOp31
 70
     1
102
RTVSPropertyOp32
 70
     1
102
RTVSPropertyOp33
 70
     1
102
RTVSPropertyOp34
 70
     1
102
RTVSPropertyOp35
 70
     1
102
RTVSPropertyOp36
 70
     1
102
RTVSPropertyOp37
 70
     0
102
RTVSPropertyOp38
 70
     0
102
RTVSPropertyOp39
 70
     0
102
RTVSPropertyOp40
 70
     0
102
RTVSPropertyOp41
 70
     0
102
RTVSPropertyOp42
 70
     0
102
RTVSPropertyOp43
 70
     0
102
RTVSPropertyOp44
 70
     0
102
RTVSPropertyOp45
 70
     1
102
RTVSPropertyOp46
 70
     0
102
RTVSPropertyOp47
 70
     0
102
RTVSPropertyOp48
 70
     0
102
RTVSPropertyOp49
 70
     1
102
RTVSPropertyOp50
 70
     0
102
RTVSPropertyOp51
 70
     0
102
RTVSPropertyOp52
 70
     0
102
RTVSPropertyOp53
 70
     0
102
RTVSPropertyOp54
 70
     0
102
RTVSPropertyOp55
 70
     1
102
RTVSPropertyOp56
 70
     0
102
RTVSPropertyOp57
 70
     0
102
RTVSPropertyOp58
 70
     0
102
RTVSPropertyOp59
 70
     0
102
RTVSPropertyOp60
 70
     0
102
RTVSPropertyOp61
 70
     0
102
RTVSPropertyOp62
 70
     0
  0
XRECORD
  5
568
102
{ACAD_REACTORS
330
567
102
}
330
567
100
AcDbXrecord
280
     1
102
RTVSPost2010Prop28
280
     0
102
RTVSPost2010PropOp28
 70
     1
102
RTVSPost2010Prop29
280
     1
102
RTVSPost2010PropOp29
 70
     1
102
RTVSPost2010Prop30
280
     1
102
RTVSPost2010PropOp30
 70
     1
102
RTVSPost2010Prop31
280
     0
102
RTVSPost2010PropOp31
 70
     1
102
RTVSPost2010Prop32
280
     0
102
RTVSPost2010PropOp32
 70
     1
102
RTVSPost2010Prop33
280
     0
102
RTVSPost2010PropOp33
 70
     1
102
RTVSPost2010Prop34
280
     0
102
RTVSPost2010PropOp34
 70
     1
102
RTVSPost2010Prop35
280
     0
102
RTVSPost2010PropOp35
 70
     1
102
RTVSPost2010Prop36
280
     0
102
RTVSPost2010PropOp36
 70
     1
102
RTVSPost2010Prop37
 90
       50
102
RTVSPost2010PropOp37
 70
     1
102
RTVSPost2010Prop38
140
0.0
102
RTVSPost2010PropOp38
 70
     1
102
RTVSPost2010Prop39
140
1.0
102
RTVSPost2010PropOp39
 70
     1
102
RTVSPost2010Prop40
 90
        0
102
RTVSPost2010PropOp40
 70
     1
102
RTVSPost2010Prop41ColorIndex
 90
       18
102
RTVSPost2010Prop41ColorRGB
 90
        0
102
RTVSPost2010PropOp41
 70
     1
102
RTVSPost2010Prop42
 90
       50
102
RTVSPost2010PropOp42
 70
     1
102
RTVSPost2010Prop43
 90
        3
102
RTVSPost2010PropOp43
 70
     1
102
RTVSPost2010Prop44ColorIndex
 90
        5
102
RTVSPost2010Prop44ColorRGB
 90
      255
102
RTVSPost2010PropOp44
 70
     1
102
RTVSPost2010Prop45
280
     0
102
RTVSPost2010PropOp45
 70
     1
102
RTVSPost2010Prop46
 90
       50
102
RTVSPost2010PropOp46
 70
     1
102
RTVSPost2010Prop47
 90
       50
102
RTVSPost2010PropOp47
 70
     1
102
RTVSPost2010Prop48
 90
       50
102
RTVSPost2010PropOp48
 70
     1
102
RTVSPost2010Prop49
280
     0
102
RTVSPost2010PropOp49
 70
     1
102
RTVSPost2010Prop50
 90
       50
102
RTVSPost2010PropOp50
 70
     1
102
RTVSPost2010Prop51ColorIndex
 90
      256
102
RTVSPost2010Prop51ColorRGB
 90
-16777216
102
RTVSPost2010PropOp51
 70
     0
102
RTVSPost2010Prop52
140
1.0
102
RTVSPost2010PropOp52
 70
     0
102
RTVSPost2010Prop53
 90
        2
102
RTVSPost2010PropOp53
 70
     1
102
RTVSPost2010Prop54
  1
strokes_ogs.tif
102
RTVSPost2010PropOp54
 70
     1
102
RTVSPost2010Prop55
280
     0
102
RTVSPost2010PropOp55
 70
     1
102
RTVSPost2010Prop56
140
1.0
102
RTVSPost2010PropOp56
 70
     1
102
RTVSPost2010Prop57
140
1.0
102
RTVSPost2010PropOp57
 70
     1
102
RTVSPropertyOp0
 70
     1
102
RTVSPropertyOp1
 70
     1
102
RTVSPropertyOp2
 70
     1
102
RTVSPropertyOp3
 70
     1
102
RTVSPropertyOp4
 70
     1
102
RTVSPropertyOp5
 70
     1
102
RTVSPropertyOp6
 70
     1
102
RTVSPropertyOp7
 70
     1
102
RTVSPropertyOp8
 70
     1
102
RTVSPropertyOp9
 70
     1
102
RTVSPropertyOp10
 70
     1
102
RTVSPropertyOp11
 70
     1
102
RTVSPropertyOp12
 70
     1
102
RTVSPropertyOp13
 70
     1
102
RTVSPropertyOp14
 70
     1
102
RTVSPropertyOp15
 70
     1
102
RTVSPropertyOp16
 70
     1
102
RTVSPropertyOp17
 70
     1
102
RTVSPropertyOp18
 70
     1
102
RTVSPropertyOp19
 70
     1
102
RTVSPropertyOp20
 70
     1
102
RTVSPropertyOp21
 70
     1
102
RTVSPropertyOp22
 70
     1
102
RTVSPropertyOp23
 70
     1
102
RTVSPropertyOp24
 70
     1
102
RTVSPropertyOp25
 70
     1
102
RTVSPropertyOp26
 70
     1
102
RTVSPropertyOp27
 70
     1
102
RTVSPropertyOp28
 70
     1
102
RTVSPropertyOp29
 70
     1
102
RTVSPropertyOp30
 70
     1
102
RTVSPropertyOp31
 70
     1
102
RTVSPropertyOp32
 70
     1
102
RTVSPropertyOp33
 70
     1
102
RTVSPropertyOp34
 70
     1
102
RTVSPropertyOp35
 70
     1
102
RTVSPropertyOp36
 70
     1
102
RTVSPropertyOp37
 70
     1
102
RTVSPropertyOp38
 70
     1
102
RTVSPropertyOp39
 70
     1
102
RTVSPropertyOp40
 70
     1
102
RTVSPropertyOp41
 70
     1
102
RTVSPropertyOp42
 70
     1
102
RTVSPropertyOp43
 70
     1
102
RTVSPropertyOp44
 70
     1
102
RTVSPropertyOp45
 70
     1
102
RTVSPropertyOp46
 70
     1
102
RTVSPropertyOp47
 70
     1
102
RTVSPropertyOp48
 70
     1
102
RTVSPropertyOp49
 70
     1
102
RTVSPropertyOp50
 70
     1
102
RTVSPropertyOp51
 70
     0
102
RTVSPropertyOp52
 70
     0
102
RTVSPropertyOp53
 70
     1
102
RTVSPropertyOp54
 70
     1
102
RTVSPropertyOp55
 70
     1
102
RTVSPropertyOp56
 70
     1
102
RTVSPropertyOp57
 70
     1
102
RTVSPropertyOp58
 70
     1
102
RTVSPropertyOp59
 70
     1
102
RTVSPropertyOp60
 70
     1
102
RTVSPropertyOp61
 70
     1
102
RTVSPropertyOp62
 70
     1
  0
XRECORD
  5
57A
102
{ACAD_REACTORS
330
579
102
}
330
579
100
AcDbXrecord
280
     1
102
RTVSPost2010Prop28
280
     0
102
RTVSPost2010PropOp28
 70
     1
102
RTVSPost2010Prop29
280
     1
102
RTVSPost2010PropOp29
 70
     1
102
RTVSPost2010Prop30
280
     1
102
RTVSPost2010PropOp30
 70
     1
102
RTVSPost2010Prop31
280
     0
102
RTVSPost2010PropOp31
 70
     1
102
RTVSPost2010Prop32
280
     0
102
RTVSPost2010PropOp32
 70
     1
102
RTVSPost2010Prop33
280
     0
102
RTVSPost2010PropOp33
 70
     1
102
RTVSPost2010Prop34
280
     0
102
RTVSPost2010PropOp34
 70
     1
102
RTVSPost2010Prop35
280
     0
102
RTVSPost2010PropOp35
 70
     1
102
RTVSPost2010Prop36
280
     0
102
RTVSPost2010PropOp36
 70
     1
102
RTVSPost2010Prop37
 90
       50
102
RTVSPost2010PropOp37
 70
     0
102
RTVSPost2010Prop38
140
0.0
102
RTVSPost2010PropOp38
 70
     0
102
RTVSPost2010Prop39
140
1.0
102
RTVSPost2010PropOp39
 70
     0
102
RTVSPost2010Prop40
 90
        0
102
RTVSPost2010PropOp40
 70
     0
102
RTVSPost2010Prop41ColorIndex
 90
       18
102
RTVSPost2010Prop41ColorRGB
 90
        0
102
RTVSPost2010PropOp41
 70
     0
102
RTVSPost2010Prop42
 90
       50
102
RTVSPost2010PropOp42
 70
     0
102
RTVSPost2010Prop43
 90
        3
102
RTVSPost2010PropOp43
 70
     0
102
RTVSPost2010Prop44ColorIndex
 90
        5
102
RTVSPost2010Prop44ColorRGB
 90
      255
102
RTVSPost2010PropOp44
 70
     0
102
RTVSPost2010Prop45
280
     0
102
RTVSPost2010PropOp45
 70
     1
102
RTVSPost2010Prop46
 90
       50
102
RTVSPost2010PropOp46
 70
     0
102
RTVSPost2010Prop47
 90
       50
102
RTVSPost2010PropOp47
 70
     0
102
RTVSPost2010Prop48
 90
       50
102
RTVSPost2010PropOp48
 70
     0
102
RTVSPost2010Prop49
280
     0
102
RTVSPost2010PropOp49
 70
     1
102
RTVSPost2010Prop50
 90
       50
102
RTVSPost2010PropOp50
 70
     0
102
RTVSPost2010Prop51ColorIndex
 90
      256
102
RTVSPost2010Prop51ColorRGB
 90
-16777216
102
RTVSPost2010PropOp51
 70
     0
102
RTVSPost2010Prop52
140
1.0
102
RTVSPost2010PropOp52
 70
     0
102
RTVSPost2010Prop53
 90
        2
102
RTVSPost2010PropOp53
 70
     0
102
RTVSPost2010Prop54
  1
strokes_ogs.tif
102
RTVSPost2010PropOp54
 70
     0
102
RTVSPost2010Prop55
280
     0
102
RTVSPost2010PropOp55
 70
     1
102
RTVSPost2010Prop56
140
1.0
102
RTVSPost2010PropOp56
 70
     0
102
RTVSPost2010Prop57
140
1.0
102
RTVSPost2010PropOp57
 70
     0
102
RTVSPropertyOp0
 70
     0
102
RTVSPropertyOp1
 70
     0
102
RTVSPropertyOp2
 70
     0
102
RTVSPropertyOp3
 70
     0
102
RTVSPropertyOp4
 70
     0
102
RTVSPropertyOp5
 70
     0
102
RTVSPropertyOp6
 70
     0
102
RTVSPropertyOp7
 70
     0
102
RTVSPropertyOp8
 70
     0
102
RTVSPropertyOp9
 70
     0
102
RTVSPropertyOp10
 70
     0
102
RTVSPropertyOp11
 70
     0
102
RTVSPropertyOp12
 70
     0
102
RTVSPropertyOp13
 70
     0
102
RTVSPropertyOp14
 70
     2
102
RTVSPropertyOp15
 70
     0
102
RTVSPropertyOp16
 70
     0
102
RTVSPropertyOp17
 70
     0
102
RTVSPropertyOp18
 70
     0
102
RTVSPropertyOp19
 70
     0
102
RTVSPropertyOp20
 70
     0
102
RTVSPropertyOp21
 70
     0
102
RTVSPropertyOp22
 70
     0
102
RTVSPropertyOp23
 70
     0
102
RTVSPropertyOp24
 70
     0
102
RTVSPropertyOp25
 70
     0
102
RTVSPropertyOp26
 70
     0
102
RTVSPropertyOp27
 70
     0
102
RTVSPropertyOp28
 70
     1
102
RTVSPropertyOp29
 70
     1
102
RTVSPropertyOp30
 70
     1
102
RTVSPropertyOp31
 70
     1
102
RTVSPropertyOp32
 70
     1
102
RTVSPropertyOp33
 70
     1
102
RTVSPropertyOp34
 70
     1
102
RTVSPropertyOp35
 70
     1
102
RTVSPropertyOp36
 70
     1
102
RTVSPropertyOp37
 70
     0
102
RTVSPropertyOp38
 70
     0
102
RTVSPropertyOp39
 70
     0
102
RTVSPropertyOp40
 70
     0
102
RTVSPropertyOp41
 70
     0
102
RTVSPropertyOp42
 70
     0
102
RTVSPropertyOp43
 70
     0
102
RTVSPropertyOp44
 70
     0
102
RTVSPropertyOp45
 70
     1
102
RTVSPropertyOp46
 70
     0
102
RTVSPropertyOp47
 70
     0
102
RTVSPropertyOp48
 70
     0
102
RTVSPropertyOp49
 70
     1
102
RTVSPropertyOp50
 70
     0
102
RTVSPropertyOp51
 70
     0
102
RTVSPropertyOp52
 70
     0
102
RTVSPropertyOp53
 70
     0
102
RTVSPropertyOp54
 70
     0
102
RTVSPropertyOp55
 70
     1
102
RTVSPropertyOp56
 70
     0
102
RTVSPropertyOp57
 70
     0
102
RTVSPropertyOp58
 70
     0
102
RTVSPropertyOp59
 70
     0
102
RTVSPropertyOp60
 70
     0
102
RTVSPropertyOp61
 70
     0
102
RTVSPropertyOp62
 70
     0
  0
XRECORD
  5
560
102
{ACAD_REACTORS
330
55F
102
}
330
55F
100
AcDbXrecord
280
     1
102
RTVSPost2010Prop28
280
     0
102
RTVSPost2010PropOp28
 70
     1
102
RTVSPost2010Prop29
280
     1
102
RTVSPost2010PropOp29
 70
     1
102
RTVSPost2010Prop30
280
     1
102
RTVSPost2010PropOp30
 70
     1
102
RTVSPost2010Prop31
280
     0
102
RTVSPost2010PropOp31
 70
     1
102
RTVSPost2010Prop32
280
     0
102
RTVSPost2010PropOp32
 70
     1
102
RTVSPost2010Prop33
280
     0
102
RTVSPost2010PropOp33
 70
     1
102
RTVSPost2010Prop34
280
     0
102
RTVSPost2010PropOp34
 70
     1
102
RTVSPost2010Prop35
280
     0
102
RTVSPost2010PropOp35
 70
     1
102
RTVSPost2010Prop36
280
     0
102
RTVSPost2010PropOp36
 70
     1
102
RTVSPost2010Prop37
 90
       50
102
RTVSPost2010PropOp37
 70
     1
102
RTVSPost2010Prop38
140
0.0
102
RTVSPost2010PropOp38
 70
     1
102
RTVSPost2010Prop39
140
1.0
102
RTVSPost2010PropOp39
 70
     1
102
RTVSPost2010Prop40
 90
        0
102
RTVSPost2010PropOp40
 70
     1
102
RTVSPost2010Prop41ColorIndex
 90
       18
102
RTVSPost2010Prop41ColorRGB
 90
        0
102
RTVSPost2010PropOp41
 70
     1
102
RTVSPost2010Prop42
 90
       50
102
RTVSPost2010PropOp42
 70
     1
102
RTVSPost2010Prop43
 90
        3
102
RTVSPost2010PropOp43
 70
     1
102
RTVSPost2010Prop44ColorIndex
 90
        5
102
RTVSPost2010Prop44ColorRGB
 90
      255
102
RTVSPost2010PropOp44
 70
     1
102
RTVSPost2010Prop45
280
     0
102
RTVSPost2010PropOp45
 70
     1
102
RTVSPost2010Prop46
 90
       50
102
RTVSPost2010PropOp46
 70
     1
102
RTVSPost2010Prop47
 90
       50
102
RTVSPost2010PropOp47
 70
     1
102
RTVSPost2010Prop48
 90
       50
102
RTVSPost2010PropOp48
 70
     1
102
RTVSPost2010Prop49
280
     0
102
RTVSPost2010PropOp49
 70
     1
102
RTVSPost2010Prop50
 90
       50
102
RTVSPost2010PropOp50
 70
     1
102
RTVSPost2010Prop51ColorIndex
 90
      256
102
RTVSPost2010Prop51ColorRGB
 90
-16777216
102
RTVSPost2010PropOp51
 70
     0
102
RTVSPost2010Prop52
140
1.0
102
RTVSPost2010PropOp52
 70
     0
102
RTVSPost2010Prop53
 90
        2
102
RTVSPost2010PropOp53
 70
     1
102
RTVSPost2010Prop54
  1
strokes_ogs.tif
102
RTVSPost2010PropOp54
 70
     1
102
RTVSPost2010Prop55
280
     0
102
RTVSPost2010PropOp55
 70
     1
102
RTVSPost2010Prop56
140
1.0
102
RTVSPost2010PropOp56
 70
     1
102
RTVSPost2010Prop57
140
1.0
102
RTVSPost2010PropOp57
 70
     1
102
RTVSPropertyOp0
 70
     1
102
RTVSPropertyOp1
 70
     1
102
RTVSPropertyOp2
 70
     1
102
RTVSPropertyOp3
 70
     1
102
RTVSPropertyOp4
 70
     1
102
RTVSPropertyOp5
 70
     1
102
RTVSPropertyOp6
 70
     1
102
RTVSPropertyOp7
 70
     1
102
RTVSPropertyOp8
 70
     1
102
RTVSPropertyOp9
 70
     1
102
RTVSPropertyOp10
 70
     1
102
RTVSPropertyOp11
 70
     1
102
RTVSPropertyOp12
 70
     1
102
RTVSPropertyOp13
 70
     1
102
RTVSPropertyOp14
 70
     1
102
RTVSPropertyOp15
 70
     1
102
RTVSPropertyOp16
 70
     1
102
RTVSPropertyOp17
 70
     1
102
RTVSPropertyOp18
 70
     1
102
RTVSPropertyOp19
 70
     1
102
RTVSPropertyOp20
 70
     1
102
RTVSPropertyOp21
 70
     1
102
RTVSPropertyOp22
 70
     1
102
RTVSPropertyOp23
 70
     1
102
RTVSPropertyOp24
 70
     1
102
RTVSPropertyOp25
 70
     1
102
RTVSPropertyOp26
 70
     1
102
RTVSPropertyOp27
 70
     1
102
RTVSPropertyOp28
 70
     1
102
RTVSPropertyOp29
 70
     1
102
RTVSPropertyOp30
 70
     1
102
RTVSPropertyOp31
 70
     1
102
RTVSPropertyOp32
 70
     1
102
RTVSPropertyOp33
 70
     1
102
RTVSPropertyOp34
 70
     1
102
RTVSPropertyOp35
 70
     1
102
RTVSPropertyOp36
 70
     1
102
RTVSPropertyOp37
 70
     1
102
RTVSPropertyOp38
 70
     1
102
RTVSPropertyOp39
 70
     1
102
RTVSPropertyOp40
 70
     1
102
RTVSPropertyOp41
 70
     1
102
RTVSPropertyOp42
 70
     1
102
RTVSPropertyOp43
 70
     1
102
RTVSPropertyOp44
 70
     1
102
RTVSPropertyOp45
 70
     1
102
RTVSPropertyOp46
 70
     1
102
RTVSPropertyOp47
 70
     1
102
RTVSPropertyOp48
 70
     1
102
RTVSPropertyOp49
 70
     1
102
RTVSPropertyOp50
 70
     1
102
RTVSPropertyOp51
 70
     0
102
RTVSPropertyOp52
 70
     0
102
RTVSPropertyOp53
 70
     1
102
RTVSPropertyOp54
 70
     1
102
RTVSPropertyOp55
 70
     1
102
RTVSPropertyOp56
 70
     1
102
RTVSPropertyOp57
 70
     1
102
RTVSPropertyOp58
 70
     1
102
RTVSPropertyOp59
 70
     1
102
RTVSPropertyOp60
 70
     1
102
RTVSPropertyOp61
 70
     1
102
RTVSPropertyOp62
 70
     1
  0
XRECORD
  5
576
102
{ACAD_REACTORS
330
575
102
}
330
575
100
AcDbXrecord
280
     1
102
RTVSPost2010Prop28
280
     0
102
RTVSPost2010PropOp28
 70
     1
102
RTVSPost2010Prop29
280
     1
102
RTVSPost2010PropOp29
 70
     1
102
RTVSPost2010Prop30
280
     1
102
RTVSPost2010PropOp30
 70
     1
102
RTVSPost2010Prop31
280
     0
102
RTVSPost2010PropOp31
 70
     1
102
RTVSPost2010Prop32
280
     0
102
RTVSPost2010PropOp32
 70
     1
102
RTVSPost2010Prop33
280
     0
102
RTVSPost2010PropOp33
 70
     1
102
RTVSPost2010Prop34
280
     0
102
RTVSPost2010PropOp34
 70
     1
102
RTVSPost2010Prop35
280
     0
102
RTVSPost2010PropOp35
 70
     1
102
RTVSPost2010Prop36
280
     0
102
RTVSPost2010PropOp36
 70
     1
102
RTVSPost2010Prop37
 90
       50
102
RTVSPost2010PropOp37
 70
     1
102
RTVSPost2010Prop38
140
0.0
102
RTVSPost2010PropOp38
 70
     1
102
RTVSPost2010Prop39
140
1.0
102
RTVSPost2010PropOp39
 70
     1
102
RTVSPost2010Prop40
 90
        0
102
RTVSPost2010PropOp40
 70
     1
102
RTVSPost2010Prop41ColorIndex
 90
       18
102
RTVSPost2010Prop41ColorRGB
 90
        0
102
RTVSPost2010PropOp41
 70
     1
102
RTVSPost2010Prop42
 90
       50
102
RTVSPost2010PropOp42
 70
     1
102
RTVSPost2010Prop43
 90
        3
102
RTVSPost2010PropOp43
 70
     1
102
RTVSPost2010Prop44ColorIndex
 90
        5
102
RTVSPost2010Prop44ColorRGB
 90
      255
102
RTVSPost2010PropOp44
 70
     1
102
RTVSPost2010Prop45
280
     0
102
RTVSPost2010PropOp45
 70
     1
102
RTVSPost2010Prop46
 90
       50
102
RTVSPost2010PropOp46
 70
     1
102
RTVSPost2010Prop47
 90
       50
102
RTVSPost2010PropOp47
 70
     1
102
RTVSPost2010Prop48
 90
       50
102
RTVSPost2010PropOp48
 70
     1
102
RTVSPost2010Prop49
280
     0
102
RTVSPost2010PropOp49
 70
     1
102
RTVSPost2010Prop50
 90
       50
102
RTVSPost2010PropOp50
 70
     1
102
RTVSPost2010Prop51ColorIndex
 90
      256
102
RTVSPost2010Prop51ColorRGB
 90
-16777216
102
RTVSPost2010PropOp51
 70
     0
102
RTVSPost2010Prop52
140
1.0
102
RTVSPost2010PropOp52
 70
     0
102
RTVSPost2010Prop53
 90
        2
102
RTVSPost2010PropOp53
 70
     1
102
RTVSPost2010Prop54
  1
strokes_ogs.tif
102
RTVSPost2010PropOp54
 70
     1
102
RTVSPost2010Prop55
280
     0
102
RTVSPost2010PropOp55
 70
     1
102
RTVSPost2010Prop56
140
1.0
102
RTVSPost2010PropOp56
 70
     1
102
RTVSPost2010Prop57
140
1.0
102
RTVSPost2010PropOp57
 70
     1
102
RTVSPropertyOp0
 70
     1
102
RTVSPropertyOp1
 70
     1
102
RTVSPropertyOp2
 70
     1
102
RTVSPropertyOp3
 70
     1
102
RTVSPropertyOp4
 70
     1
102
RTVSPropertyOp5
 70
     1
102
RTVSPropertyOp6
 70
     1
102
RTVSPropertyOp7
 70
     1
102
RTVSPropertyOp8
 70
     1
102
RTVSPropertyOp9
 70
     1
102
RTVSPropertyOp10
 70
     1
102
RTVSPropertyOp11
 70
     1
102
RTVSPropertyOp12
 70
     1
102
RTVSPropertyOp13
 70
     1
102
RTVSPropertyOp14
 70
     1
102
RTVSPropertyOp15
 70
     1
102
RTVSPropertyOp16
 70
     1
102
RTVSPropertyOp17
 70
     1
102
RTVSPropertyOp18
 70
     1
102
RTVSPropertyOp19
 70
     1
102
RTVSPropertyOp20
 70
     1
102
RTVSPropertyOp21
 70
     1
102
RTVSPropertyOp22
 70
     1
102
RTVSPropertyOp23
 70
     1
102
RTVSPropertyOp24
 70
     1
102
RTVSPropertyOp25
 70
     1
102
RTVSPropertyOp26
 70
     1
102
RTVSPropertyOp27
 70
     1
102
RTVSPropertyOp28
 70
     1
102
RTVSPropertyOp29
 70
     1
102
RTVSPropertyOp30
 70
     1
102
RTVSPropertyOp31
 70
     1
102
RTVSPropertyOp32
 70
     1
102
RTVSPropertyOp33
 70
     1
102
RTVSPropertyOp34
 70
     1
102
RTVSPropertyOp35
 70
     1
102
RTVSPropertyOp36
 70
     1
102
RTVSPropertyOp37
 70
     1
102
RTVSPropertyOp38
 70
     1
102
RTVSPropertyOp39
 70
     1
102
RTVSPropertyOp40
 70
     1
102
RTVSPropertyOp41
 70
     1
102
RTVSPropertyOp42
 70
     1
102
RTVSPropertyOp43
 70
     1
102
RTVSPropertyOp44
 70
     1
102
RTVSPropertyOp45
 70
     1
102
RTVSPropertyOp46
 70
     1
102
RTVSPropertyOp47
 70
     1
102
RTVSPropertyOp48
 70
     1
102
RTVSPropertyOp49
 70
     1
102
RTVSPropertyOp50
 70
     1
102
RTVSPropertyOp51
 70
     0
102
RTVSPropertyOp52
 70
     0
102
RTVSPropertyOp53
 70
     1
102
RTVSPropertyOp54
 70
     1
102
RTVSPropertyOp55
 70
     1
102
RTVSPropertyOp56
 70
     1
102
RTVSPropertyOp57
 70
     1
102
RTVSPropertyOp58
 70
     1
102
RTVSPropertyOp59
 70
     1
102
RTVSPropertyOp60
 70
     1
102
RTVSPropertyOp61
 70
     1
102
RTVSPropertyOp62
 70
     1
  0
XRECORD
  5
574
102
{ACAD_REACTORS
330
573
102
}
330
573
100
AcDbXrecord
280
     1
102
RTVSPost2010Prop28
280
     0
102
RTVSPost2010PropOp28
 70
     1
102
RTVSPost2010Prop29
280
     1
102
RTVSPost2010PropOp29
 70
     1
102
RTVSPost2010Prop30
280
     1
102
RTVSPost2010PropOp30
 70
     1
102
RTVSPost2010Prop31
280
     0
102
RTVSPost2010PropOp31
 70
     1
102
RTVSPost2010Prop32
280
     0
102
RTVSPost2010PropOp32
 70
     1
102
RTVSPost2010Prop33
280
     0
102
RTVSPost2010PropOp33
 70
     1
102
RTVSPost2010Prop34
280
     0
102
RTVSPost2010PropOp34
 70
     1
102
RTVSPost2010Prop35
280
     0
102
RTVSPost2010PropOp35
 70
     1
102
RTVSPost2010Prop36
280
     0
102
RTVSPost2010PropOp36
 70
     1
102
RTVSPost2010Prop37
 90
       50
102
RTVSPost2010PropOp37
 70
     1
102
RTVSPost2010Prop38
140
0.0
102
RTVSPost2010PropOp38
 70
     1
102
RTVSPost2010Prop39
140
1.0
102
RTVSPost2010PropOp39
 70
     1
102
RTVSPost2010Prop40
 90
        0
102
RTVSPost2010PropOp40
 70
     1
102
RTVSPost2010Prop41ColorIndex
 90
       18
102
RTVSPost2010Prop41ColorRGB
 90
        0
102
RTVSPost2010PropOp41
 70
     1
102
RTVSPost2010Prop42
 90
       50
102
RTVSPost2010PropOp42
 70
     1
102
RTVSPost2010Prop43
 90
        3
102
RTVSPost2010PropOp43
 70
     1
102
RTVSPost2010Prop44ColorIndex
 90
        5
102
RTVSPost2010Prop44ColorRGB
 90
      255
102
RTVSPost2010PropOp44
 70
     1
102
RTVSPost2010Prop45
280
     0
102
RTVSPost2010PropOp45
 70
     1
102
RTVSPost2010Prop46
 90
       50
102
RTVSPost2010PropOp46
 70
     1
102
RTVSPost2010Prop47
 90
       50
102
RTVSPost2010PropOp47
 70
     1
102
RTVSPost2010Prop48
 90
       50
102
RTVSPost2010PropOp48
 70
     1
102
RTVSPost2010Prop49
280
     0
102
RTVSPost2010PropOp49
 70
     1
102
RTVSPost2010Prop50
 90
       50
102
RTVSPost2010PropOp50
 70
     1
102
RTVSPost2010Prop51ColorIndex
 90
      256
102
RTVSPost2010Prop51ColorRGB
 90
-16777216
102
RTVSPost2010PropOp51
 70
     0
102
RTVSPost2010Prop52
140
1.0
102
RTVSPost2010PropOp52
 70
     0
102
RTVSPost2010Prop53
 90
        2
102
RTVSPost2010PropOp53
 70
     1
102
RTVSPost2010Prop54
  1
strokes_ogs.tif
102
RTVSPost2010PropOp54
 70
     1
102
RTVSPost2010Prop55
280
     0
102
RTVSPost2010PropOp55
 70
     1
102
RTVSPost2010Prop56
140
1.0
102
RTVSPost2010PropOp56
 70
     1
102
RTVSPost2010Prop57
140
1.0
102
RTVSPost2010PropOp57
 70
     1
102
RTVSPropertyOp0
 70
     1
102
RTVSPropertyOp1
 70
     1
102
RTVSPropertyOp2
 70
     1
102
RTVSPropertyOp3
 70
     1
102
RTVSPropertyOp4
 70
     1
102
RTVSPropertyOp5
 70
     1
102
RTVSPropertyOp6
 70
     1
102
RTVSPropertyOp7
 70
     1
102
RTVSPropertyOp8
 70
     1
102
RTVSPropertyOp9
 70
     1
102
RTVSPropertyOp10
 70
     1
102
RTVSPropertyOp11
 70
     1
102
RTVSPropertyOp12
 70
     1
102
RTVSPropertyOp13
 70
     1
102
RTVSPropertyOp14
 70
     1
102
RTVSPropertyOp15
 70
     1
102
RTVSPropertyOp16
 70
     1
102
RTVSPropertyOp17
 70
     1
102
RTVSPropertyOp18
 70
     1
102
RTVSPropertyOp19
 70
     1
102
RTVSPropertyOp20
 70
     1
102
RTVSPropertyOp21
 70
     1
102
RTVSPropertyOp22
 70
     1
102
RTVSPropertyOp23
 70
     1
102
RTVSPropertyOp24
 70
     1
102
RTVSPropertyOp25
 70
     1
102
RTVSPropertyOp26
 70
     1
102
RTVSPropertyOp27
 70
     1
102
RTVSPropertyOp28
 70
     1
102
RTVSPropertyOp29
 70
     1
102
RTVSPropertyOp30
 70
     1
102
RTVSPropertyOp31
 70
     1
102
RTVSPropertyOp32
 70
     1
102
RTVSPropertyOp33
 70
     1
102
RTVSPropertyOp34
 70
     1
102
RTVSPropertyOp35
 70
     1
102
RTVSPropertyOp36
 70
     1
102
RTVSPropertyOp37
 70
     1
102
RTVSPropertyOp38
 70
     1
102
RTVSPropertyOp39
 70
     1
102
RTVSPropertyOp40
 70
     1
102
RTVSPropertyOp41
 70
     1
102
RTVSPropertyOp42
 70
     1
102
RTVSPropertyOp43
 70
     1
102
RTVSPropertyOp44
 70
     1
102
RTVSPropertyOp45
 70
     1
102
RTVSPropertyOp46
 70
     1
102
RTVSPropertyOp47
 70
     1
102
RTVSPropertyOp48
 70
     1
102
RTVSPropertyOp49
 70
     1
102
RTVSPropertyOp50
 70
     1
102
RTVSPropertyOp51
 70
     0
102
RTVSPropertyOp52
 70
     0
102
RTVSPropertyOp53
 70
     1
102
RTVSPropertyOp54
 70
     1
102
RTVSPropertyOp55
 70
     1
102
RTVSPropertyOp56
 70
     1
102
RTVSPropertyOp57
 70
     1
102
RTVSPropertyOp58
 70
     1
102
RTVSPropertyOp59
 70
     1
102
RTVSPropertyOp60
 70
     1
102
RTVSPropertyOp61
 70
     1
102
RTVSPropertyOp62
 70
     1
  0
XRECORD
  5
56E
102
{ACAD_REACTORS
330
56D
102
}
330
56D
100
AcDbXrecord
280
     1
102
RTVSPost2010Prop28
280
     0
102
RTVSPost2010PropOp28
 70
     1
102
RTVSPost2010Prop29
280
     1
102
RTVSPost2010PropOp29
 70
     1
102
RTVSPost2010Prop30
280
     1
102
RTVSPost2010PropOp30
 70
     1
102
RTVSPost2010Prop31
280
     0
102
RTVSPost2010PropOp31
 70
     1
102
RTVSPost2010Prop32
280
     0
102
RTVSPost2010PropOp32
 70
     1
102
RTVSPost2010Prop33
280
     0
102
RTVSPost2010PropOp33
 70
     1
102
RTVSPost2010Prop34
280
     0
102
RTVSPost2010PropOp34
 70
     1
102
RTVSPost2010Prop35
280
     0
102
RTVSPost2010PropOp35
 70
     1
102
RTVSPost2010Prop36
280
     0
102
RTVSPost2010PropOp36
 70
     1
102
RTVSPost2010Prop37
 90
       50
102
RTVSPost2010PropOp37
 70
     1
102
RTVSPost2010Prop38
140
0.0
102
RTVSPost2010PropOp38
 70
     1
102
RTVSPost2010Prop39
140
1.0
102
RTVSPost2010PropOp39
 70
     1
102
RTVSPost2010Prop40
 90
        0
102
RTVSPost2010PropOp40
 70
     1
102
RTVSPost2010Prop41ColorIndex
 90
       18
102
RTVSPost2010Prop41ColorRGB
 90
        0
102
RTVSPost2010PropOp41
 70
     1
102
RTVSPost2010Prop42
 90
       50
102
RTVSPost2010PropOp42
 70
     1
102
RTVSPost2010Prop43
 90
        3
102
RTVSPost2010PropOp43
 70
     1
102
RTVSPost2010Prop44ColorIndex
 90
        5
102
RTVSPost2010Prop44ColorRGB
 90
      255
102
RTVSPost2010PropOp44
 70
     1
102
RTVSPost2010Prop45
280
     0
102
RTVSPost2010PropOp45
 70
     1
102
RTVSPost2010Prop46
 90
       50
102
RTVSPost2010PropOp46
 70
     1
102
RTVSPost2010Prop47
 90
       50
102
RTVSPost2010PropOp47
 70
     1
102
RTVSPost2010Prop48
 90
       50
102
RTVSPost2010PropOp48
 70
     1
102
RTVSPost2010Prop49
280
     0
102
RTVSPost2010PropOp49
 70
     1
102
RTVSPost2010Prop50
 90
       50
102
RTVSPost2010PropOp50
 70
     1
102
RTVSPost2010Prop51ColorIndex
 90
      256
102
RTVSPost2010Prop51ColorRGB
 90
-16777216
102
RTVSPost2010PropOp51
 70
     0
102
RTVSPost2010Prop52
140
1.0
102
RTVSPost2010PropOp52
 70
     0
102
RTVSPost2010Prop53
 90
        2
102
RTVSPost2010PropOp53
 70
     1
102
RTVSPost2010Prop54
  1
strokes_ogs.tif
102
RTVSPost2010PropOp54
 70
     1
102
RTVSPost2010Prop55
280
     0
102
RTVSPost2010PropOp55
 70
     1
102
RTVSPost2010Prop56
140
1.0
102
RTVSPost2010PropOp56
 70
     1
102
RTVSPost2010Prop57
140
1.0
102
RTVSPost2010PropOp57
 70
     1
102
RTVSPropertyOp0
 70
     1
102
RTVSPropertyOp1
 70
     1
102
RTVSPropertyOp2
 70
     1
102
RTVSPropertyOp3
 70
     1
102
RTVSPropertyOp4
 70
     1
102
RTVSPropertyOp5
 70
     1
102
RTVSPropertyOp6
 70
     1
102
RTVSPropertyOp7
 70
     1
102
RTVSPropertyOp8
 70
     1
102
RTVSPropertyOp9
 70
     1
102
RTVSPropertyOp10
 70
     1
102
RTVSPropertyOp11
 70
     1
102
RTVSPropertyOp12
 70
     1
102
RTVSPropertyOp13
 70
     1
102
RTVSPropertyOp14
 70
     1
102
RTVSPropertyOp15
 70
     1
102
RTVSPropertyOp16
 70
     1
102
RTVSPropertyOp17
 70
     1
102
RTVSPropertyOp18
 70
     1
102
RTVSPropertyOp19
 70
     1
102
RTVSPropertyOp20
 70
     1
102
RTVSPropertyOp21
 70
     1
102
RTVSPropertyOp22
 70
     1
102
RTVSPropertyOp23
 70
     1
102
RTVSPropertyOp24
 70
     1
102
RTVSPropertyOp25
 70
     1
102
RTVSPropertyOp26
 70
     1
102
RTVSPropertyOp27
 70
     1
102
RTVSPropertyOp28
 70
     1
102
RTVSPropertyOp29
 70
     1
102
RTVSPropertyOp30
 70
     1
102
RTVSPropertyOp31
 70
     1
102
RTVSPropertyOp32
 70
     1
102
RTVSPropertyOp33
 70
     1
102
RTVSPropertyOp34
 70
     1
102
RTVSPropertyOp35
 70
     1
102
RTVSPropertyOp36
 70
     1
102
RTVSPropertyOp37
 70
     1
102
RTVSPropertyOp38
 70
     1
102
RTVSPropertyOp39
 70
     1
102
RTVSPropertyOp40
 70
     1
102
RTVSPropertyOp41
 70
     1
102
RTVSPropertyOp42
 70
     1
102
RTVSPropertyOp43
 70
     1
102
RTVSPropertyOp44
 70
     1
102
RTVSPropertyOp45
 70
     1
102
RTVSPropertyOp46
 70
     1
102
RTVSPropertyOp47
 70
     1
102
RTVSPropertyOp48
 70
     1
102
RTVSPropertyOp49
 70
     1
102
RTVSPropertyOp50
 70
     1
102
RTVSPropertyOp51
 70
     0
102
RTVSPropertyOp52
 70
     0
102
RTVSPropertyOp53
 70
     1
102
RTVSPropertyOp54
 70
     1
102
RTVSPropertyOp55
 70
     1
102
RTVSPropertyOp56
 70
     1
102
RTVSPropertyOp57
 70
     1
102
RTVSPropertyOp58
 70
     1
102
RTVSPropertyOp59
 70
     1
102
RTVSPropertyOp60
 70
     1
102
RTVSPropertyOp61
 70
     1
102
RTVSPropertyOp62
 70
     1
  0
XRECORD
  5
570
102
{ACAD_REACTORS
330
56F
102
}
330
56F
100
AcDbXrecord
280
     1
102
RTVSPost2010Prop28
280
     0
102
RTVSPost2010PropOp28
 70
     1
102
RTVSPost2010Prop29
280
     1
102
RTVSPost2010PropOp29
 70
     1
102
RTVSPost2010Prop30
280
     1
102
RTVSPost2010PropOp30
 70
     1
102
RTVSPost2010Prop31
280
     0
102
RTVSPost2010PropOp31
 70
     1
102
RTVSPost2010Prop32
280
     0
102
RTVSPost2010PropOp32
 70
     1
102
RTVSPost2010Prop33
280
     0
102
RTVSPost2010PropOp33
 70
     1
102
RTVSPost2010Prop34
280
     0
102
RTVSPost2010PropOp34
 70
     1
102
RTVSPost2010Prop35
280
     0
102
RTVSPost2010PropOp35
 70
     1
102
RTVSPost2010Prop36
280
     0
102
RTVSPost2010PropOp36
 70
     1
102
RTVSPost2010Prop37
 90
       50
102
RTVSPost2010PropOp37
 70
     1
102
RTVSPost2010Prop38
140
0.0
102
RTVSPost2010PropOp38
 70
     1
102
RTVSPost2010Prop39
140
1.0
102
RTVSPost2010PropOp39
 70
     1
102
RTVSPost2010Prop40
 90
        0
102
RTVSPost2010PropOp40
 70
     1
102
RTVSPost2010Prop41ColorIndex
 90
       18
102
RTVSPost2010Prop41ColorRGB
 90
        0
102
RTVSPost2010PropOp41
 70
     1
102
RTVSPost2010Prop42
 90
       50
102
RTVSPost2010PropOp42
 70
     1
102
RTVSPost2010Prop43
 90
        3
102
RTVSPost2010PropOp43
 70
     1
102
RTVSPost2010Prop44ColorIndex
 90
        5
102
RTVSPost2010Prop44ColorRGB
 90
      255
102
RTVSPost2010PropOp44
 70
     1
102
RTVSPost2010Prop45
280
     0
102
RTVSPost2010PropOp45
 70
     1
102
RTVSPost2010Prop46
 90
       50
102
RTVSPost2010PropOp46
 70
     1
102
RTVSPost2010Prop47
 90
       50
102
RTVSPost2010PropOp47
 70
     1
102
RTVSPost2010Prop48
 90
       50
102
RTVSPost2010PropOp48
 70
     1
102
RTVSPost2010Prop49
280
     0
102
RTVSPost2010PropOp49
 70
     1
102
RTVSPost2010Prop50
 90
       50
102
RTVSPost2010PropOp50
 70
     1
102
RTVSPost2010Prop51ColorIndex
 90
      256
102
RTVSPost2010Prop51ColorRGB
 90
-16777216
102
RTVSPost2010PropOp51
 70
     0
102
RTVSPost2010Prop52
140
1.0
102
RTVSPost2010PropOp52
 70
     0
102
RTVSPost2010Prop53
 90
        2
102
RTVSPost2010PropOp53
 70
     1
102
RTVSPost2010Prop54
  1
strokes_ogs.tif
102
RTVSPost2010PropOp54
 70
     1
102
RTVSPost2010Prop55
280
     0
102
RTVSPost2010PropOp55
 70
     1
102
RTVSPost2010Prop56
140
1.0
102
RTVSPost2010PropOp56
 70
     1
102
RTVSPost2010Prop57
140
1.0
102
RTVSPost2010PropOp57
 70
     1
102
RTVSPropertyOp0
 70
     1
102
RTVSPropertyOp1
 70
     1
102
RTVSPropertyOp2
 70
     1
102
RTVSPropertyOp3
 70
     1
102
RTVSPropertyOp4
 70
     1
102
RTVSPropertyOp5
 70
     1
102
RTVSPropertyOp6
 70
     1
102
RTVSPropertyOp7
 70
     1
102
RTVSPropertyOp8
 70
     1
102
RTVSPropertyOp9
 70
     1
102
RTVSPropertyOp10
 70
     1
102
RTVSPropertyOp11
 70
     1
102
RTVSPropertyOp12
 70
     1
102
RTVSPropertyOp13
 70
     1
102
RTVSPropertyOp14
 70
     1
102
RTVSPropertyOp15
 70
     1
102
RTVSPropertyOp16
 70
     1
102
RTVSPropertyOp17
 70
     1
102
RTVSPropertyOp18
 70
     1
102
RTVSPropertyOp19
 70
     1
102
RTVSPropertyOp20
 70
     1
102
RTVSPropertyOp21
 70
     1
102
RTVSPropertyOp22
 70
     1
102
RTVSPropertyOp23
 70
     1
102
RTVSPropertyOp24
 70
     1
102
RTVSPropertyOp25
 70
     1
102
RTVSPropertyOp26
 70
     1
102
RTVSPropertyOp27
 70
     1
102
RTVSPropertyOp28
 70
     1
102
RTVSPropertyOp29
 70
     1
102
RTVSPropertyOp30
 70
     1
102
RTVSPropertyOp31
 70
     1
102
RTVSPropertyOp32
 70
     1
102
RTVSPropertyOp33
 70
     1
102
RTVSPropertyOp34
 70
     1
102
RTVSPropertyOp35
 70
     1
102
RTVSPropertyOp36
 70
     1
102
RTVSPropertyOp37
 70
     1
102
RTVSPropertyOp38
 70
     1
102
RTVSPropertyOp39
 70
     1
102
RTVSPropertyOp40
 70
     1
102
RTVSPropertyOp41
 70
     1
102
RTVSPropertyOp42
 70
     1
102
RTVSPropertyOp43
 70
     1
102
RTVSPropertyOp44
 70
     1
102
RTVSPropertyOp45
 70
     1
102
RTVSPropertyOp46
 70
     1
102
RTVSPropertyOp47
 70
     1
102
RTVSPropertyOp48
 70
     1
102
RTVSPropertyOp49
 70
     1
102
RTVSPropertyOp50
 70
     1
102
RTVSPropertyOp51
 70
     0
102
RTVSPropertyOp52
 70
     0
102
RTVSPropertyOp53
 70
     1
102
RTVSPropertyOp54
 70
     1
102
RTVSPropertyOp55
 70
     1
102
RTVSPropertyOp56
 70
     1
102
RTVSPropertyOp57
 70
     1
102
RTVSPropertyOp58
 70
     1
102
RTVSPropertyOp59
 70
     1
102
RTVSPropertyOp60
 70
     1
102
RTVSPropertyOp61
 70
     1
102
RTVSPropertyOp62
 70
     1
  0
XRECORD
  5
566
102
{ACAD_REACTORS
330
565
102
}
330
565
100
AcDbXrecord
280
     1
102
RTVSPost2010Prop28
280
     0
102
RTVSPost2010PropOp28
 70
     1
102
RTVSPost2010Prop29
280
     1
102
RTVSPost2010PropOp29
 70
     1
102
RTVSPost2010Prop30
280
     1
102
RTVSPost2010PropOp30
 70
     1
102
RTVSPost2010Prop31
280
     0
102
RTVSPost2010PropOp31
 70
     1
102
RTVSPost2010Prop32
280
     0
102
RTVSPost2010PropOp32
 70
     1
102
RTVSPost2010Prop33
280
     0
102
RTVSPost2010PropOp33
 70
     1
102
RTVSPost2010Prop34
280
     0
102
RTVSPost2010PropOp34
 70
     1
102
RTVSPost2010Prop35
280
     0
102
RTVSPost2010PropOp35
 70
     1
102
RTVSPost2010Prop36
280
     0
102
RTVSPost2010PropOp36
 70
     1
102
RTVSPost2010Prop37
 90
       50
102
RTVSPost2010PropOp37
 70
     1
102
RTVSPost2010Prop38
140
0.0
102
RTVSPost2010PropOp38
 70
     1
102
RTVSPost2010Prop39
140
1.0
102
RTVSPost2010PropOp39
 70
     1
102
RTVSPost2010Prop40
 90
        0
102
RTVSPost2010PropOp40
 70
     1
102
RTVSPost2010Prop41ColorIndex
 90
       18
102
RTVSPost2010Prop41ColorRGB
 90
        0
102
RTVSPost2010PropOp41
 70
     1
102
RTVSPost2010Prop42
 90
       50
102
RTVSPost2010PropOp42
 70
     1
102
RTVSPost2010Prop43
 90
        3
102
RTVSPost2010PropOp43
 70
     1
102
RTVSPost2010Prop44ColorIndex
 90
        5
102
RTVSPost2010Prop44ColorRGB
 90
      255
102
RTVSPost2010PropOp44
 70
     1
102
RTVSPost2010Prop45
280
     0
102
RTVSPost2010PropOp45
 70
     1
102
RTVSPost2010Prop46
 90
       50
102
RTVSPost2010PropOp46
 70
     1
102
RTVSPost2010Prop47
 90
       50
102
RTVSPost2010PropOp47
 70
     1
102
RTVSPost2010Prop48
 90
       50
102
RTVSPost2010PropOp48
 70
     1
102
RTVSPost2010Prop49
280
     0
102
RTVSPost2010PropOp49
 70
     1
102
RTVSPost2010Prop50
 90
       50
102
RTVSPost2010PropOp50
 70
     1
102
RTVSPost2010Prop51ColorIndex
 90
      256
102
RTVSPost2010Prop51ColorRGB
 90
-16777216
102
RTVSPost2010PropOp51
 70
     0
102
RTVSPost2010Prop52
140
1.0
102
RTVSPost2010PropOp52
 70
     0
102
RTVSPost2010Prop53
 90
        2
102
RTVSPost2010PropOp53
 70
     1
102
RTVSPost2010Prop54
  1
strokes_ogs.tif
102
RTVSPost2010PropOp54
 70
     1
102
RTVSPost2010Prop55
280
     0
102
RTVSPost2010PropOp55
 70
     1
102
RTVSPost2010Prop56
140
1.0
102
RTVSPost2010PropOp56
 70
     1
102
RTVSPost2010Prop57
140
1.0
102
RTVSPost2010PropOp57
 70
     1
102
RTVSPropertyOp0
 70
     1
102
RTVSPropertyOp1
 70
     1
102
RTVSPropertyOp2
 70
     1
102
RTVSPropertyOp3
 70
     1
102
RTVSPropertyOp4
 70
     1
102
RTVSPropertyOp5
 70
     1
102
RTVSPropertyOp6
 70
     1
102
RTVSPropertyOp7
 70
     1
102
RTVSPropertyOp8
 70
     1
102
RTVSPropertyOp9
 70
     1
102
RTVSPropertyOp10
 70
     1
102
RTVSPropertyOp11
 70
     1
102
RTVSPropertyOp12
 70
     1
102
RTVSPropertyOp13
 70
     1
102
RTVSPropertyOp14
 70
     1
102
RTVSPropertyOp15
 70
     1
102
RTVSPropertyOp16
 70
     1
102
RTVSPropertyOp17
 70
     1
102
RTVSPropertyOp18
 70
     1
102
RTVSPropertyOp19
 70
     1
102
RTVSPropertyOp20
 70
     1
102
RTVSPropertyOp21
 70
     1
102
RTVSPropertyOp22
 70
     1
102
RTVSPropertyOp23
 70
     1
102
RTVSPropertyOp24
 70
     1
102
RTVSPropertyOp25
 70
     1
102
RTVSPropertyOp26
 70
     1
102
RTVSPropertyOp27
 70
     1
102
RTVSPropertyOp28
 70
     1
102
RTVSPropertyOp29
 70
     1
102
RTVSPropertyOp30
 70
     1
102
RTVSPropertyOp31
 70
     1
102
RTVSPropertyOp32
 70
     1
102
RTVSPropertyOp33
 70
     1
102
RTVSPropertyOp34
 70
     1
102
RTVSPropertyOp35
 70
     1
102
RTVSPropertyOp36
 70
     1
102
RTVSPropertyOp37
 70
     1
102
RTVSPropertyOp38
 70
     1
102
RTVSPropertyOp39
 70
     1
102
RTVSPropertyOp40
 70
     1
102
RTVSPropertyOp41
 70
     1
102
RTVSPropertyOp42
 70
     1
102
RTVSPropertyOp43
 70
     1
102
RTVSPropertyOp44
 70
     1
102
RTVSPropertyOp45
 70
     1
102
RTVSPropertyOp46
 70
     1
102
RTVSPropertyOp47
 70
     1
102
RTVSPropertyOp48
 70
     1
102
RTVSPropertyOp49
 70
     1
102
RTVSPropertyOp50
 70
     1
102
RTVSPropertyOp51
 70
     0
102
RTVSPropertyOp52
 70
     0
102
RTVSPropertyOp53
 70
     1
102
RTVSPropertyOp54
 70
     1
102
RTVSPropertyOp55
 70
     1
102
RTVSPropertyOp56
 70
     1
102
RTVSPropertyOp57
 70
     1
102
RTVSPropertyOp58
 70
     1
102
RTVSPropertyOp59
 70
     1
102
RTVSPropertyOp60
 70
     1
102
RTVSPropertyOp61
 70
     1
102
RTVSPropertyOp62
 70
     1
  0
XRECORD
  5
55A
102
{ACAD_REACTORS
330
559
102
}
330
559
100
AcDbXrecord
280
     1
102
RTVSPost2010Prop28
280
     0
102
RTVSPost2010PropOp28
 70
     1
102
RTVSPost2010Prop29
280
     1
102
RTVSPost2010PropOp29
 70
     1
102
RTVSPost2010Prop30
280
     1
102
RTVSPost2010PropOp30
 70
     1
102
RTVSPost2010Prop31
280
     0
102
RTVSPost2010PropOp31
 70
     1
102
RTVSPost2010Prop32
280
     0
102
RTVSPost2010PropOp32
 70
     1
102
RTVSPost2010Prop33
280
     0
102
RTVSPost2010PropOp33
 70
     1
102
RTVSPost2010Prop34
280
     0
102
RTVSPost2010PropOp34
 70
     1
102
RTVSPost2010Prop35
280
     0
102
RTVSPost2010PropOp35
 70
     1
102
RTVSPost2010Prop36
280
     0
102
RTVSPost2010PropOp36
 70
     1
102
RTVSPost2010Prop37
 90
       50
102
RTVSPost2010PropOp37
 70
     1
102
RTVSPost2010Prop38
140
0.0
102
RTVSPost2010PropOp38
 70
     1
102
RTVSPost2010Prop39
140
1.0
102
RTVSPost2010PropOp39
 70
     1
102
RTVSPost2010Prop40
 90
        0
102
RTVSPost2010PropOp40
 70
     1
102
RTVSPost2010Prop41ColorIndex
 90
       18
102
RTVSPost2010Prop41ColorRGB
 90
        0
102
RTVSPost2010PropOp41
 70
     1
102
RTVSPost2010Prop42
 90
       50
102
RTVSPost2010PropOp42
 70
     1
102
RTVSPost2010Prop43
 90
        3
102
RTVSPost2010PropOp43
 70
     1
102
RTVSPost2010Prop44ColorIndex
 90
        5
102
RTVSPost2010Prop44ColorRGB
 90
      255
102
RTVSPost2010PropOp44
 70
     1
102
RTVSPost2010Prop45
280
     0
102
RTVSPost2010PropOp45
 70
     1
102
RTVSPost2010Prop46
 90
       50
102
RTVSPost2010PropOp46
 70
     1
102
RTVSPost2010Prop47
 90
       50
102
RTVSPost2010PropOp47
 70
     1
102
RTVSPost2010Prop48
 90
       50
102
RTVSPost2010PropOp48
 70
     1
102
RTVSPost2010Prop49
280
     0
102
RTVSPost2010PropOp49
 70
     1
102
RTVSPost2010Prop50
 90
       50
102
RTVSPost2010PropOp50
 70
     1
102
RTVSPost2010Prop51ColorIndex
 90
      256
102
RTVSPost2010Prop51ColorRGB
 90
-16777216
102
RTVSPost2010PropOp51
 70
     0
102
RTVSPost2010Prop52
140
1.0
102
RTVSPost2010PropOp52
 70
     0
102
RTVSPost2010Prop53
 90
        2
102
RTVSPost2010PropOp53
 70
     1
102
RTVSPost2010Prop54
  1
strokes_ogs.tif
102
RTVSPost2010PropOp54
 70
     1
102
RTVSPost2010Prop55
280
     0
102
RTVSPost2010PropOp55
 70
     1
102
RTVSPost2010Prop56
140
1.0
102
RTVSPost2010PropOp56
 70
     1
102
RTVSPost2010Prop57
140
1.0
102
RTVSPost2010PropOp57
 70
     1
102
RTVSPropertyOp0
 70
     1
102
RTVSPropertyOp1
 70
     1
102
RTVSPropertyOp2
 70
     1
102
RTVSPropertyOp3
 70
     1
102
RTVSPropertyOp4
 70
     1
102
RTVSPropertyOp5
 70
     1
102
RTVSPropertyOp6
 70
     1
102
RTVSPropertyOp7
 70
     1
102
RTVSPropertyOp8
 70
     1
102
RTVSPropertyOp9
 70
     1
102
RTVSPropertyOp10
 70
     1
102
RTVSPropertyOp11
 70
     1
102
RTVSPropertyOp12
 70
     1
102
RTVSPropertyOp13
 70
     1
102
RTVSPropertyOp14
 70
     1
102
RTVSPropertyOp15
 70
     1
102
RTVSPropertyOp16
 70
     1
102
RTVSPropertyOp17
 70
     1
102
RTVSPropertyOp18
 70
     1
102
RTVSPropertyOp19
 70
     1
102
RTVSPropertyOp20
 70
     1
102
RTVSPropertyOp21
 70
     1
102
RTVSPropertyOp22
 70
     1
102
RTVSPropertyOp23
 70
     1
102
RTVSPropertyOp24
 70
     1
102
RTVSPropertyOp25
 70
     1
102
RTVSPropertyOp26
 70
     1
102
RTVSPropertyOp27
 70
     1
102
RTVSPropertyOp28
 70
     1
102
RTVSPropertyOp29
 70
     1
102
RTVSPropertyOp30
 70
     1
102
RTVSPropertyOp31
 70
     1
102
RTVSPropertyOp32
 70
     1
102
RTVSPropertyOp33
 70
     1
102
RTVSPropertyOp34
 70
     1
102
RTVSPropertyOp35
 70
     1
102
RTVSPropertyOp36
 70
     1
102
RTVSPropertyOp37
 70
     1
102
RTVSPropertyOp38
 70
     1
102
RTVSPropertyOp39
 70
     1
102
RTVSPropertyOp40
 70
     1
102
RTVSPropertyOp41
 70
     1
102
RTVSPropertyOp42
 70
     1
102
RTVSPropertyOp43
 70
     1
102
RTVSPropertyOp44
 70
     1
102
RTVSPropertyOp45
 70
     1
102
RTVSPropertyOp46
 70
     1
102
RTVSPropertyOp47
 70
     1
102
RTVSPropertyOp48
 70
     1
102
RTVSPropertyOp49
 70
     1
102
RTVSPropertyOp50
 70
     1
102
RTVSPropertyOp51
 70
     0
102
RTVSPropertyOp52
 70
     0
102
RTVSPropertyOp53
 70
     1
102
RTVSPropertyOp54
 70
     1
102
RTVSPropertyOp55
 70
     1
102
RTVSPropertyOp56
 70
     1
102
RTVSPropertyOp57
 70
     1
102
RTVSPropertyOp58
 70
     1
102
RTVSPropertyOp59
 70
     1
102
RTVSPropertyOp60
 70
     1
102
RTVSPropertyOp61
 70
     1
102
RTVSPropertyOp62
 70
     1
  0
XRECORD
  5
572
102
{ACAD_REACTORS
330
571
102
}
330
571
100
AcDbXrecord
280
     1
102
RTVSPost2010Prop28
280
     0
102
RTVSPost2010PropOp28
 70
     1
102
RTVSPost2010Prop29
280
     1
102
RTVSPost2010PropOp29
 70
     1
102
RTVSPost2010Prop30
280
     1
102
RTVSPost2010PropOp30
 70
     1
102
RTVSPost2010Prop31
280
     0
102
RTVSPost2010PropOp31
 70
     1
102
RTVSPost2010Prop32
280
     0
102
RTVSPost2010PropOp32
 70
     1
102
RTVSPost2010Prop33
280
     0
102
RTVSPost2010PropOp33
 70
     1
102
RTVSPost2010Prop34
280
     0
102
RTVSPost2010PropOp34
 70
     1
102
RTVSPost2010Prop35
280
     0
102
RTVSPost2010PropOp35
 70
     1
102
RTVSPost2010Prop36
280
     0
102
RTVSPost2010PropOp36
 70
     1
102
RTVSPost2010Prop37
 90
       50
102
RTVSPost2010PropOp37
 70
     1
102
RTVSPost2010Prop38
140
0.0
102
RTVSPost2010PropOp38
 70
     1
102
RTVSPost2010Prop39
140
1.0
102
RTVSPost2010PropOp39
 70
     1
102
RTVSPost2010Prop40
 90
        0
102
RTVSPost2010PropOp40
 70
     1
102
RTVSPost2010Prop41ColorIndex
 90
       18
102
RTVSPost2010Prop41ColorRGB
 90
        0
102
RTVSPost2010PropOp41
 70
     1
102
RTVSPost2010Prop42
 90
       50
102
RTVSPost2010PropOp42
 70
     1
102
RTVSPost2010Prop43
 90
        3
102
RTVSPost2010PropOp43
 70
     1
102
RTVSPost2010Prop44ColorIndex
 90
        5
102
RTVSPost2010Prop44ColorRGB
 90
      255
102
RTVSPost2010PropOp44
 70
     1
102
RTVSPost2010Prop45
280
     0
102
RTVSPost2010PropOp45
 70
     1
102
RTVSPost2010Prop46
 90
       50
102
RTVSPost2010PropOp46
 70
     1
102
RTVSPost2010Prop47
 90
       50
102
RTVSPost2010PropOp47
 70
     1
102
RTVSPost2010Prop48
 90
       50
102
RTVSPost2010PropOp48
 70
     1
102
RTVSPost2010Prop49
280
     0
102
RTVSPost2010PropOp49
 70
     1
102
RTVSPost2010Prop50
 90
       50
102
RTVSPost2010PropOp50
 70
     1
102
RTVSPost2010Prop51ColorIndex
 90
      256
102
RTVSPost2010Prop51ColorRGB
 90
-16777216
102
RTVSPost2010PropOp51
 70
     0
102
RTVSPost2010Prop52
140
1.0
102
RTVSPost2010PropOp52
 70
     0
102
RTVSPost2010Prop53
 90
        2
102
RTVSPost2010PropOp53
 70
     1
102
RTVSPost2010Prop54
  1
strokes_ogs.tif
102
RTVSPost2010PropOp54
 70
     1
102
RTVSPost2010Prop55
280
     0
102
RTVSPost2010PropOp55
 70
     1
102
RTVSPost2010Prop56
140
1.0
102
RTVSPost2010PropOp56
 70
     1
102
RTVSPost2010Prop57
140
1.0
102
RTVSPost2010PropOp57
 70
     1
102
RTVSPropertyOp0
 70
     1
102
RTVSPropertyOp1
 70
     1
102
RTVSPropertyOp2
 70
     1
102
RTVSPropertyOp3
 70
     1
102
RTVSPropertyOp4
 70
     1
102
RTVSPropertyOp5
 70
     1
102
RTVSPropertyOp6
 70
     1
102
RTVSPropertyOp7
 70
     1
102
RTVSPropertyOp8
 70
     1
102
RTVSPropertyOp9
 70
     1
102
RTVSPropertyOp10
 70
     1
102
RTVSPropertyOp11
 70
     1
102
RTVSPropertyOp12
 70
     1
102
RTVSPropertyOp13
 70
     1
102
RTVSPropertyOp14
 70
     1
102
RTVSPropertyOp15
 70
     1
102
RTVSPropertyOp16
 70
     1
102
RTVSPropertyOp17
 70
     1
102
RTVSPropertyOp18
 70
     1
102
RTVSPropertyOp19
 70
     1
102
RTVSPropertyOp20
 70
     1
102
RTVSPropertyOp21
 70
     1
102
RTVSPropertyOp22
 70
     1
102
RTVSPropertyOp23
 70
     1
102
RTVSPropertyOp24
 70
     1
102
RTVSPropertyOp25
 70
     1
102
RTVSPropertyOp26
 70
     1
102
RTVSPropertyOp27
 70
     1
102
RTVSPropertyOp28
 70
     1
102
RTVSPropertyOp29
 70
     1
102
RTVSPropertyOp30
 70
     1
102
RTVSPropertyOp31
 70
     1
102
RTVSPropertyOp32
 70
     1
102
RTVSPropertyOp33
 70
     1
102
RTVSPropertyOp34
 70
     1
102
RTVSPropertyOp35
 70
     1
102
RTVSPropertyOp36
 70
     1
102
RTVSPropertyOp37
 70
     1
102
RTVSPropertyOp38
 70
     1
102
RTVSPropertyOp39
 70
     1
102
RTVSPropertyOp40
 70
     1
102
RTVSPropertyOp41
 70
     1
102
RTVSPropertyOp42
 70
     1
102
RTVSPropertyOp43
 70
     1
102
RTVSPropertyOp44
 70
     1
102
RTVSPropertyOp45
 70
     1
102
RTVSPropertyOp46
 70
     1
102
RTVSPropertyOp47
 70
     1
102
RTVSPropertyOp48
 70
     1
102
RTVSPropertyOp49
 70
     1
102
RTVSPropertyOp50
 70
     1
102
RTVSPropertyOp51
 70
     0
102
RTVSPropertyOp52
 70
     0
102
RTVSPropertyOp53
 70
     1
102
RTVSPropertyOp54
 70
     1
102
RTVSPropertyOp55
 70
     1
102
RTVSPropertyOp56
 70
     1
102
RTVSPropertyOp57
 70
     1
102
RTVSPropertyOp58
 70
     1
102
RTVSPropertyOp59
 70
     1
102
RTVSPropertyOp60
 70
     1
102
RTVSPropertyOp61
 70
     1
102
RTVSPropertyOp62
 70
     1
  0
ENDSEC
  0
EOF
