  0
SECTION
  2
HEADER
  9
$ACADVER
  1
AC1015
  9
$ACADMAINTVER
 70
    20
  9
$DWGCODEPAGE
  3
ANSI_1252
  9
$INSBASE
 10
0.0
 20
0.0
 30
0.0
  9
$EXTMIN
 10
-13.85
 20
-34.37893
 30
0.0
  9
$EXTMAX
 10
36.11413300000001
 20
32.58275000000001
 30
0.0
  9
$LIMMIN
 10
0.0
 20
0.0
  9
$LIMMAX
 10
12.0
 20
9.0
  9
$ORTHOMODE
 70
     0
  9
$REGENMODE
 70
     1
  9
$FILLMODE
 70
     1
  9
$QTEXTMODE
 70
     0
  9
$MIRRTEXT
 70
     1
  9
$LTSCALE
 40
1.0
  9
$ATTMODE
 70
     1
  9
$TEXTSIZE
 40
3.0
  9
$TRACEWID
 40
10.0
  9
$TEXTSTYLE
  7
SANDVIK_STYLE
  9
$CLAYER
  8
1
  9
$CELTYPE
  6
ByLayer
  9
$CECOLOR
 62
   256
  9
$CELTSCALE
 40
1.0
  9
$DISPSILH
 70
     0
  9
$DIMSCALE
 40
1.0
  9
$DIMASZ
 40
0.18
  9
$DIMEXO
 40
0.0625
  9
$DIMDLI
 40
0.38
  9
$DIMRND
 40
0.0
  9
$DIMDLE
 40
0.0
  9
$DIMEXE
 40
0.18
  9
$DIMTP
 40
0.0
  9
$DIMTM
 40
0.0
  9
$DIMTXT
 40
0.18
  9
$DIMCEN
 40
0.09
  9
$DIMTSZ
 40
0.0
  9
$DIMTOL
 70
     0
  9
$DIMLIM
 70
     0
  9
$DIMTIH
 70
     1
  9
$DIMTOH
 70
     1
  9
$DIMSE1
 70
     0
  9
$DIMSE2
 70
     0
  9
$DIMTAD
 70
     0
  9
$DIMZIN
 70
     0
  9
$DIMBLK
  1

  9
$DIMASO
 70
     1
  9
$DIMSHO
 70
     1
  9
$DIMPOST
  1

  9
$DIMAPOST
  1

  9
$DIMALT
 70
     0
  9
$DIMALTD
 70
     2
  9
$DIMALTF
 40
25.4
  9
$DIMLFAC
 40
1.0
  9
$DIMTOFL
 70
     0
  9
$DIMTVP
 40
0.0
  9
$DIMTIX
 70
     0
  9
$DIMSOXD
 70
     0
  9
$DIMSAH
 70
     0
  9
$DIMBLK1
  1

  9
$DIMBLK2
  1

  9
$DIMSTYLE
  2
STANDARD
  9
$DIMCLRD
 70
     0
  9
$DIMCLRE
 70
     0
  9
$DIMCLRT
 70
     0
  9
$DIMTFAC
 40
1.0
  9
$DIMGAP
 40
0.09
  9
$DIMJUST
 70
     0
  9
$DIMSD1
 70
     0
  9
$DIMSD2
 70
     0
  9
$DIMTOLJ
 70
     1
  9
$DIMTZIN
 70
     0
  9
$DIMALTZ
 70
     0
  9
$DIMALTTZ
 70
     0
  9
$DIMUPT
 70
     0
  9
$DIMDEC
 70
     4
  9
$DIMTDEC
 70
     4
  9
$DIMALTU
 70
     2
  9
$DIMALTTD
 70
     2
  9
$DIMTXSTY
  7
STANDARD
  9
$DIMAUNIT
 70
     0
  9
$DIMADEC
 70
     0
  9
$DIMALTRND
 40
0.0
  9
$DIMAZIN
 70
     0
  9
$DIMDSEP
 70
    46
  9
$DIMATFIT
 70
     3
  9
$DIMFRAC
 70
     0
  9
$DIMLDRBLK
  1

  9
$DIMLUNIT
 70
     2
  9
$DIMLWD
 70
    -2
  9
$DIMLWE
 70
    -2
  9
$DIMTMOVE
 70
     0
  9
$LUNITS
 70
     2
  9
$LUPREC
 70
     2
  9
$SKETCHINC
 40
0.0
  9
$FILLETRAD
 40
0.0
  9
$AUNITS
 70
     0
  9
$AUPREC
 70
     2
  9
$MENU
  1
acad
  9
$ELEVATION
 40
0.0
  9
$PELEVATION
 40
0.0
  9
$THICKNESS
 40
0.0
  9
$LIMCHECK
 70
     0
  9
$CHAMFERA
 40
0.0
  9
$CHAMFERB
 40
0.0
  9
$CHAMFERC
 40
0.0
  9
$CHAMFERD
 40
0.0
  9
$SKPOLY
 70
     0
  9
$TDCREATE
 40
2456818.319554491
  9
$TDUCREATE
 40
2456818.236221157
  9
$TDUPDATE
 40
2456818.319558854
  9
$TDUUPDATE
 40
2456818.236225521
  9
$TDINDWG
 40
0.0000051157
  9
$TDUSRTIMER
 40
0.0000051157
  9
$USRTIMER
 70
     1
  9
$ANGBASE
 50
0.0
  9
$ANGDIR
 70
     0
  9
$PDMODE
 70
     0
  9
$PDSIZE
 40
0.0
  9
$PLINEWID
 40
0.0
  9
$SPLFRAME
 70
     0
  9
$SPLINETYPE
 70
     6
  9
$SPLINESEGS
 70
     8
  9
$HANDSEED
  5
585
  9
$SURFTAB1
 70
     6
  9
$SURFTAB2
 70
     6
  9
$SURFTYPE
 70
     6
  9
$SURFU
 70
     6
  9
$SURFV
 70
     6
  9
$UCSBASE
  2

  9
$UCSNAME
  2

  9
$UCSORG
 10
0.0
 20
0.0
 30
0.0
  9
$UCSXDIR
 10
1.0
 20
0.0
 30
0.0
  9
$UCSYDIR
 10
0.0
 20
1.0
 30
0.0
  9
$UCSORTHOREF
  2

  9
$UCSORTHOVIEW
 70
     0
  9
$UCSORGTOP
 10
0.0
 20
0.0
 30
0.0
  9
$UCSORGBOTTOM
 10
0.0
 20
0.0
 30
0.0
  9
$UCSORGLEFT
 10
0.0
 20
0.0
 30
0.0
  9
$UCSORGRIGHT
 10
0.0
 20
0.0
 30
0.0
  9
$UCSORGFRONT
 10
0.0
 20
0.0
 30
0.0
  9
$UCSORGBACK
 10
0.0
 20
0.0
 30
0.0
  9
$PUCSBASE
  2

  9
$PUCSNAME
  2

  9
$PUCSORG
 10
0.0
 20
0.0
 30
0.0
  9
$PUCSXDIR
 10
1.0
 20
0.0
 30
0.0
  9
$PUCSYDIR
 10
0.0
 20
1.0
 30
0.0
  9
$PUCSORTHOREF
  2

  9
$PUCSORTHOVIEW
 70
     0
  9
$PUCSORGTOP
 10
0.0
 20
0.0
 30
0.0
  9
$PUCSORGBOTTOM
 10
0.0
 20
0.0
 30
0.0
  9
$PUCSORGLEFT
 10
0.0
 20
0.0
 30
0.0
  9
$PUCSORGRIGHT
 10
0.0
 20
0.0
 30
0.0
  9
$PUCSORGFRONT
 10
0.0
 20
0.0
 30
0.0
  9
$PUCSORGBACK
 10
0.0
 20
0.0
 30
0.0
  9
$USERI1
 70
     0
  9
$USERI2
 70
     0
  9
$USERI3
 70
     0
  9
$USERI4
 70
     0
  9
$USERI5
 70
     0
  9
$USERR1
 40
0.0
  9
$USERR2
 40
0.0
  9
$USERR3
 40
0.0
  9
$USERR4
 40
0.0
  9
$USERR5
 40
0.0
  9
$WORLDVIEW
 70
     1
  9
$SHADEDGE
 70
     3
  9
$SHADEDIF
 70
    70
  9
$TILEMODE
 70
     1
  9
$MAXACTVP
 70
    16
  9
$PINSBASE
 10
0.0
 20
0.0
 30
0.0
  9
$PLIMCHECK
 70
     0
  9
$PEXTMIN
 10
1.000000000000000E+20
 20
1.000000000000000E+20
 30
1.000000000000000E+20
  9
$PEXTMAX
 10
-1.000000000000000E+20
 20
-1.000000000000000E+20
 30
-1.000000000000000E+20
  9
$PLIMMIN
 10
0.0
 20
0.0
  9
$PLIMMAX
 10
12.0
 20
9.0
  9
$UNITMODE
 70
     0
  9
$VISRETAIN
 70
     0
  9
$PLINEGEN
 70
     0
  9
$PSLTSCALE
 70
     1
  9
$TREEDEPTH
 70
  3020
  9
$CMLSTYLE
  2
Standard
  9
$CMLJUST
 70
     0
  9
$CMLSCALE
 40
1.0
  9
$PROXYGRAPHICS
 70
     1
  9
$MEASUREMENT
 70
     0
  9
$CELWEIGHT
370
    -1
  9
$ENDCAPS
280
     0
  9
$JOINSTYLE
280
     0
  9
$LWDISPLAY
290
     0
  9
$INSUNITS
 70
     0
  9
$HYPERLINKBASE
  1

  9
$STYLESHEET
  1

  9
$XEDIT
290
     1
  9
$CEPSNTYPE
380
     0
  9
$PSTYLEMODE
290
     1
  9
$FINGERPRINTGUID
  2
{EBE00EA0-E69B-4C5D-BE86-6E2A3C990935}
  9
$VERSIONGUID
  2
{C328703D-235F-4545-97F1-7747174C7BFD}
  9
$EXTNAMES
290
     1
  9
$PSVPSCALE
 40
0.0
  9
$OLESTARTUP
290
     0
  0
ENDSEC
  0
SECTION
  2
CLASSES
  0
CLASS
  1
ACDBDICTIONARYWDFLT
  2
AcDbDictionaryWithDefault
  3
ObjectDBX Classes
 90
        0
280
     0
281
     0
  0
CLASS
  1
MATERIAL
  2
AcDbMaterial
  3
ObjectDBX Classes
 90
     1153
280
     0
281
     0
  0
CLASS
  1
VISUALSTYLE
  2
AcDbVisualStyle
  3
ObjectDBX Classes
 90
     4095
280
     0
281
     0
  0
CLASS
  1
SCALE
  2
AcDbScale
  3
ObjectDBX Classes
 90
     1153
280
     0
281
     0
  0
CLASS
  1
TABLESTYLE
  2
AcDbTableStyle
  3
ObjectDBX Classes
 90
     4095
280
     0
281
     0
  0
CLASS
  1
MLEADERSTYLE
  2
AcDbMLeaderStyle
  3
ACDB_MLEADERSTYLE_CLASS
 90
     4095
280
     0
281
     0
  0
CLASS
  1
ACDBSECTIONVIEWSTYLE
  2
AcDbSectionViewStyle
  3
ObjectDBX Classes
 90
     1025
280
     0
281
     0
  0
CLASS
  1
ACDBDETAILVIEWSTYLE
  2
AcDbDetailViewStyle
  3
ObjectDBX Classes
 90
     1025
280
     0
281
     0
  0
CLASS
  1
EXACXREFPANELOBJECT
  2
ExAcXREFPanelObject
  3
EXAC_ESW
 90
     1025
280
     0
281
     0
  0
CLASS
  1
NPOCOLLECTION
  2
AcDbImpNonPersistentObjectsCollection
  3
ObjectDBX Classes
 90
     1153
280
     0
281
     0
  0
CLASS
  1
DICTIONARYVAR
  2
AcDbDictionaryVar
  3
ObjectDBX Classes
 90
        0
280
     0
281
     0
  0
CLASS
  1
CELLSTYLEMAP
  2
AcDbCellStyleMap
  3
ObjectDBX Classes
 90
     1152
280
     0
281
     0
  0
CLASS
  1
ACDBPLACEHOLDER
  2
AcDbPlaceHolder
  3
ObjectDBX Classes
 90
        0
280
     0
281
     0
  0
CLASS
  1
LAYOUT
  2
AcDbLayout
  3
ObjectDBX Classes
 90
        0
280
     0
281
     0
  0
ENDSEC
  0
SECTION
  2
TABLES
  0
TABLE
  2
VPORT
  5
453
330
0
100
AcDbSymbolTable
 70
     1
  0
VPORT
  5
4EA
330
453
100
AcDbSymbolTableRecord
100
AcDbViewportTableRecord
  2
*Active
 70
     0
 10
0.0
 20
0.0
 11
1.0
 21
1.0
 12
11.1320665
 22
-0.8980899999999962
 13
0.0
 23
0.0
 14
1.0
 24
1.0
 15
0.0
 25
0.0
 16
0.0
 26
0.0
 36
1.0
 17
0.0
 27
0.0
 37
0.0
 40
74.93585135566188
 41
2.2
 42
50.0
 43
0.0
 44
0.0
 50
0.0
 51
0.0
 71
     0
 72
   100
 73
     1
 74
     1
 75
     0
 76
     0
 77
     0
 78
     0
281
     0
 65
     1
110
0.0
120
0.0
130
0.0
111
1.0
121
0.0
131
0.0
112
0.0
122
1.0
132
0.0
 79
     0
146
0.0
1001
ACAD_NAV_VCDISPLAY
1070
     3
  0
ENDTAB
  0
TABLE
  2
LTYPE
  5
450
330
0
100
AcDbSymbolTable
 70
     4
  0
LTYPE
  5
4A5
330
450
100
AcDbSymbolTableRecord
100
AcDbLinetypeTableRecord
  2
ByBlock
 70
     0
  3

 72
    65
 73
     0
 40
0.0
  0
LTYPE
  5
4A6
330
450
100
AcDbSymbolTableRecord
100
AcDbLinetypeTableRecord
  2
ByLayer
 70
     0
  3

 72
    65
 73
     0
 40
0.0
  0
LTYPE
  5
4A7
330
450
100
AcDbSymbolTableRecord
100
AcDbLinetypeTableRecord
  2
CONTINUOUS
 70
     0
  3
Solid line
 72
    65
 73
     0
 40
0.0
  0
LTYPE
  5
4B3
330
450
100
AcDbSymbolTableRecord
100
AcDbLinetypeTableRecord
  2
PHANTOM2
 70
     0
  3
Phantom (.5x) ___ _ _ ___ _ _ ___ _ _ ___ _ _
 72
    65
 73
     6
 40
1.25
 49
0.625
 74
     0
 49
-0.125
 74
     0
 49
0.125
 74
     0
 49
-0.125
 74
     0
 49
0.125
 74
     0
 49
-0.125
 74
     0
  0
LTYPE
  5
4C1
330
450
100
AcDbSymbolTableRecord
100
AcDbLinetypeTableRecord
  2
CENTER
 70
     0
  3
____ _ ____ _ ____ _ ____ _ ____ _ ____ _ ____
 72
    65
 73
     4
 40
5.059897
 49
3.162434999999999
 74
     0
 49
-0.6324870000000001
 74
     0
 49
0.6324870000000001
 74
     0
 49
-0.6324870000000001
 74
     0
  0
LTYPE
  5
4C2
330
450
100
AcDbSymbolTableRecord
100
AcDbLinetypeTableRecord
  2
DASHED
 70
     0
  3
__ __ __ __ __ __ __ __ __ __ __ __ __ __ __ __
 72
    65
 73
     2
 40
7.589844999999999
 49
5.059897
 74
     0
 49
-2.529948
 74
     0
  0
ENDTAB
  0
TABLE
  2
LAYER
  5
44D
330
0
100
AcDbSymbolTable
 70
    38
  0
LAYER
  5
49F
102
{ACAD_XDICTIONARY
360
4F1
102
}
330
44D
100
AcDbSymbolTableRecord
100
AcDbLayerTableRecord
  2
0
 70
     0
 62
     7
  6
CONTINUOUS
370
    -3
390
45A
  0
LAYER
  5
4BF
102
{ACAD_XDICTIONARY
360
4F3
102
}
330
44D
100
AcDbSymbolTableRecord
100
AcDbLayerTableRecord
  2
1
 70
     0
 62
     4
  6
CONTINUOUS
370
    -3
390
45A
  0
LAYER
  5
4C3
102
{ACAD_XDICTIONARY
360
4F5
102
}
330
44D
100
AcDbSymbolTableRecord
100
AcDbLayerTableRecord
  2
61
 70
     0
 62
     5
  6
CONTINUOUS
370
    -3
390
45A
  0
LAYER
  5
4C4
102
{ACAD_XDICTIONARY
360
4F7
102
}
330
44D
100
AcDbSymbolTableRecord
100
AcDbLayerTableRecord
  2
62
 70
     0
 62
    -5
  6
CONTINUOUS
370
    -3
390
45A
  0
LAYER
  5
4C5
102
{ACAD_XDICTIONARY
360
4F9
102
}
330
44D
100
AcDbSymbolTableRecord
100
AcDbLayerTableRecord
  2
63
 70
     0
 62
    -5
  6
CONTINUOUS
370
    -3
390
45A
  0
LAYER
  5
4C6
102
{ACAD_XDICTIONARY
360
4FB
102
}
330
44D
100
AcDbSymbolTableRecord
100
AcDbLayerTableRecord
  2
64
 70
     0
 62
    -5
  6
CONTINUOUS
370
    -3
390
45A
  0
LAYER
  5
4C7
102
{ACAD_XDICTIONARY
360
4FD
102
}
330
44D
100
AcDbSymbolTableRecord
100
AcDbLayerTableRecord
  2
65
 70
     0
 62
    -5
  6
CONTINUOUS
370
    -3
390
45A
  0
LAYER
  5
4C8
102
{ACAD_XDICTIONARY
360
4FF
102
}
330
44D
100
AcDbSymbolTableRecord
100
AcDbLayerTableRecord
  2
66
 70
     0
 62
    -5
  6
CONTINUOUS
370
    -3
390
45A
  0
LAYER
  5
4C9
102
{ACAD_XDICTIONARY
360
501
102
}
330
44D
100
AcDbSymbolTableRecord
100
AcDbLayerTableRecord
  2
67
 70
     0
 62
    -5
  6
CONTINUOUS
370
    -3
390
45A
  0
LAYER
  5
4CA
102
{ACAD_XDICTIONARY
360
503
102
}
330
44D
100
AcDbSymbolTableRecord
100
AcDbLayerTableRecord
  2
68
 70
     0
 62
    -5
  6
CONTINUOUS
370
    -3
390
45A
  0
LAYER
  5
4CB
102
{ACAD_XDICTIONARY
360
505
102
}
330
44D
100
AcDbSymbolTableRecord
100
AcDbLayerTableRecord
  2
69
 70
     0
 62
    -5
  6
CONTINUOUS
370
    -3
390
45A
  0
LAYER
  5
4CC
102
{ACAD_XDICTIONARY
360
507
102
}
330
44D
100
AcDbSymbolTableRecord
100
AcDbLayerTableRecord
  2
70
 70
     0
 62
     5
  6
CONTINUOUS
370
    -3
390
45A
  0
LAYER
  5
4CD
102
{ACAD_XDICTIONARY
360
509
102
}
330
44D
100
AcDbSymbolTableRecord
100
AcDbLayerTableRecord
  2
2
 70
     0
 62
     7
  6
CONTINUOUS
370
    -3
390
45A
  0
LAYER
  5
4CE
102
{ACAD_XDICTIONARY
360
50B
102
}
330
44D
100
AcDbSymbolTableRecord
100
AcDbLayerTableRecord
  2
3
 70
     0
 62
     1
  6
DASHED
370
    -3
390
45A
  0
LAYER
  5
4CF
102
{ACAD_XDICTIONARY
360
50D
102
}
330
44D
100
AcDbSymbolTableRecord
100
AcDbLayerTableRecord
  2
4
 70
     0
 62
    -2
  6
CENTER
370
    -3
390
45A
  0
LAYER
  5
4D0
102
{ACAD_XDICTIONARY
360
50F
102
}
330
44D
100
AcDbSymbolTableRecord
100
AcDbLayerTableRecord
  2
5
 70
     0
 62
    -7
  6
CONTINUOUS
370
    -3
390
45A
  0
LAYER
  5
4D1
102
{ACAD_XDICTIONARY
360
511
102
}
330
44D
100
AcDbSymbolTableRecord
100
AcDbLayerTableRecord
  2
SK1
 70
     0
 62
     4
  6
CONTINUOUS
370
    -3
390
45A
  0
LAYER
  5
4D2
102
{ACAD_XDICTIONARY
360
513
102
}
330
44D
100
AcDbSymbolTableRecord
100
AcDbLayerTableRecord
  2
6
 70
     0
 62
     5
  6
CONTINUOUS
370
    -3
390
45A
  0
LAYER
  5
4D3
102
{ACAD_XDICTIONARY
360
515
102
}
330
44D
100
AcDbSymbolTableRecord
100
AcDbLayerTableRecord
  2
SK2
 70
     0
 62
     7
  6
CONTINUOUS
370
    -3
390
45A
  0
LAYER
  5
4D4
102
{ACAD_XDICTIONARY
360
517
102
}
330
44D
100
AcDbSymbolTableRecord
100
AcDbLayerTableRecord
  2
SK3
 70
     0
 62
     1
  6
DASHED
370
    -3
390
45A
  0
LAYER
  5
4D5
102
{ACAD_XDICTIONARY
360
519
102
}
330
44D
100
AcDbSymbolTableRecord
100
AcDbLayerTableRecord
  2
SK4
 70
     0
 62
     2
  6
CENTER
370
    -3
390
45A
  0
LAYER
  5
4D6
102
{ACAD_XDICTIONARY
360
51B
102
}
330
44D
100
AcDbSymbolTableRecord
100
AcDbLayerTableRecord
  2
CUT
 70
     0
 62
    -1
  6
CONTINUOUS
370
    -3
390
45A
  0
LAYER
  5
4D7
102
{ACAD_XDICTIONARY
360
51D
102
}
330
44D
100
AcDbSymbolTableRecord
100
AcDbLayerTableRecord
  2
SK6
 70
     0
 62
     5
  6
CONTINUOUS
370
    -3
390
45A
  0
LAYER
  5
4D8
102
{ACAD_XDICTIONARY
360
51F
102
}
330
44D
100
AcDbSymbolTableRecord
100
AcDbLayerTableRecord
  2
80
 70
     0
 62
    -2
  6
CENTER
370
    -3
390
45A
  0
LAYER
  5
4D9
102
{ACAD_XDICTIONARY
360
521
102
}
330
44D
100
AcDbSymbolTableRecord
100
AcDbLayerTableRecord
  2
81
 70
     0
 62
    -2
  6
CENTER
370
    -3
390
45A
  0
LAYER
  5
4DA
102
{ACAD_XDICTIONARY
360
523
102
}
330
44D
100
AcDbSymbolTableRecord
100
AcDbLayerTableRecord
  2
82
 70
     0
 62
    -2
  6
CENTER
370
    -3
390
45A
  0
LAYER
  5
4DB
102
{ACAD_XDICTIONARY
360
525
102
}
330
44D
100
AcDbSymbolTableRecord
100
AcDbLayerTableRecord
  2
NOCUT
 70
     0
 62
     7
  6
CONTINUOUS
370
    -3
390
45A
  0
LAYER
  5
4DC
102
{ACAD_XDICTIONARY
360
527
102
}
330
44D
100
AcDbSymbolTableRecord
100
AcDbLayerTableRecord
  2
50
 70
     0
 62
    -7
  6
CONTINUOUS
370
    -3
390
45A
  0
LAYER
  5
4DD
102
{ACAD_XDICTIONARY
360
529
102
}
330
44D
100
AcDbSymbolTableRecord
100
AcDbLayerTableRecord
  2
51
 70
     0
 62
     7
  6
CONTINUOUS
370
    -3
390
45A
  0
LAYER
  5
4DE
102
{ACAD_XDICTIONARY
360
52B
102
}
330
44D
100
AcDbSymbolTableRecord
100
AcDbLayerTableRecord
  2
52
 70
     0
 62
    -7
  6
CONTINUOUS
370
    -3
390
45A
  0
LAYER
  5
4DF
102
{ACAD_XDICTIONARY
360
52D
102
}
330
44D
100
AcDbSymbolTableRecord
100
AcDbLayerTableRecord
  2
53
 70
     0
 62
    -7
  6
CONTINUOUS
370
    -3
390
45A
  0
LAYER
  5
4E0
102
{ACAD_XDICTIONARY
360
52F
102
}
330
44D
100
AcDbSymbolTableRecord
100
AcDbLayerTableRecord
  2
54
 70
     0
 62
    -7
  6
CONTINUOUS
370
    -3
390
45A
  0
LAYER
  5
4E1
102
{ACAD_XDICTIONARY
360
531
102
}
330
44D
100
AcDbSymbolTableRecord
100
AcDbLayerTableRecord
  2
55
 70
     0
 62
    -7
  6
CONTINUOUS
370
    -3
390
45A
  0
LAYER
  5
4E2
102
{ACAD_XDICTIONARY
360
533
102
}
330
44D
100
AcDbSymbolTableRecord
100
AcDbLayerTableRecord
  2
56
 70
     0
 62
    -7
  6
CONTINUOUS
370
    -3
390
45A
  0
LAYER
  5
4E3
102
{ACAD_XDICTIONARY
360
535
102
}
330
44D
100
AcDbSymbolTableRecord
100
AcDbLayerTableRecord
  2
57
 70
     0
 62
    -7
  6
CONTINUOUS
370
    -3
390
45A
  0
LAYER
  5
4E4
102
{ACAD_XDICTIONARY
360
537
102
}
330
44D
100
AcDbSymbolTableRecord
100
AcDbLayerTableRecord
  2
58
 70
     0
 62
    -7
  6
CONTINUOUS
370
    -3
390
45A
  0
LAYER
  5
4E5
102
{ACAD_XDICTIONARY
360
539
102
}
330
44D
100
AcDbSymbolTableRecord
100
AcDbLayerTableRecord
  2
2L
 70
     0
 62
     7
  6
CONTINUOUS
370
    -3
390
45A
  0
LAYER
  5
4E6
102
{ACAD_XDICTIONARY
360
53B
102
}
330
44D
100
AcDbSymbolTableRecord
100
AcDbLayerTableRecord
  2
59
 70
     0
 62
    -7
  6
CONTINUOUS
370
    -3
390
45A
  0
ENDTAB
  0
TABLE
  2
STYLE
  5
44E
330
0
100
AcDbSymbolTable
 70
     3
  0
STYLE
  5
4A0
330
44E
100
AcDbSymbolTableRecord
100
AcDbTextStyleTableRecord
  2
STANDARD
 70
     0
 40
0.0
 41
1.0
 50
0.0
 71
     0
 42
4.5
  3
simplex.shx
  4

  0
STYLE
  5
4A4
330
44E
100
AcDbSymbolTableRecord
100
AcDbTextStyleTableRecord
  2
Annotative
 70
     0
 40
0.0
 41
1.0
 50
0.0
 71
     0
 42
0.2
  3
txt
  4

1001
AcadAnnotative
1000
AnnotativeData
1002
{
1070
     1
1070
     1
1002
}
  0
STYLE
  5
4C0
330
44E
100
AcDbSymbolTableRecord
100
AcDbTextStyleTableRecord
  2
SANDVIK_STYLE
 70
     0
 40
3.0
 41
1.0
 50
0.0
 71
     0
 42
3.0
  3
simplex.shx
  4

  0
ENDTAB
  0
TABLE
  2
VIEW
  5
451
330
0
100
AcDbSymbolTable
 70
     0
  0
ENDTAB
  0
TABLE
  2
UCS
  5
452
330
0
100
AcDbSymbolTable
 70
     0
  0
ENDTAB
  0
TABLE
  2
APPID
  5
454
330
0
100
AcDbSymbolTable
 70
     4
  0
APPID
  5
4A1
330
454
100
AcDbSymbolTableRecord
100
AcDbRegAppTableRecord
  2
ACAD
 70
     0
  0
APPID
  5
4A8
330
454
100
AcDbSymbolTableRecord
100
AcDbRegAppTableRecord
  2
AcadAnnotative
 70
     0
  0
APPID
  5
547
330
454
100
AcDbSymbolTableRecord
100
AcDbRegAppTableRecord
  2
ACAD_NAV_VCDISPLAY
 70
     0
  0
APPID
  5
580
330
454
100
AcDbSymbolTableRecord
100
AcDbRegAppTableRecord
  2
ACAD_MLEADERVER
 70
     0
  0
ENDTAB
  0
TABLE
  2
DIMSTYLE
  5
455
330
0
100
AcDbSymbolTable
 70
     3
100
AcDbDimStyleTable
 71
     0
  0
DIMSTYLE
105
4A2
330
455
100
AcDbSymbolTableRecord
100
AcDbDimStyleTableRecord
  2
STANDARD
 70
     0
  4
 
 41
3.0
 42
2.5
 43
10.0
 44
2.5
 46
1.25
 73
     0
 74
     0
140
3.0
141
-3.0
143
0.039
145
1.5
146
0.75
147
1.5
271
     2
272
     2
279
     2
340
4C0
  0
DIMSTYLE
105
4A3
330
455
100
AcDbSymbolTableRecord
100
AcDbDimStyleTableRecord
  2
Annotative
 70
     0
340
4A0
1001
AcadAnnotative
1000
AnnotativeData
1002
{
1070
     1
1070
     1
1002
}
  0
DIMSTYLE
105
4E7
330
455
100
AcDbSymbolTableRecord
100
AcDbDimStyleTableRecord
  2
SANDVIK_DIM
 70
     0
  4
 
 40
0.0
 41
4.57
 42
0.0
 44
5.0
 73
     0
 74
     0
 77
     1
 78
     8
140
4.5
147
2.299999999999999
176
   256
177
   256
178
   256
271
     2
272
     2
279
     2
340
4C0
  0
ENDTAB
  0
TABLE
  2
BLOCK_RECORD
  5
44C
330
0
100
AcDbSymbolTable
 70
     2
  0
BLOCK_RECORD
  5
4BB
330
44C
100
AcDbSymbolTableRecord
100
AcDbBlockTableRecord
  2
*Model_Space
340
4BE
  0
BLOCK_RECORD
  5
4B7
330
44C
100
AcDbSymbolTableRecord
100
AcDbBlockTableRecord
  2
*Paper_Space
340
4BA
  0
BLOCK_RECORD
  5
4EB
330
44C
100
AcDbSymbolTableRecord
100
AcDbBlockTableRecord
  2
*D0
340
0
102
{BLKREFS
331
3E9
102
}
  0
BLOCK_RECORD
  5
4EC
330
44C
100
AcDbSymbolTableRecord
100
AcDbBlockTableRecord
  2
*D1
340
0
102
{BLKREFS
331
3EB
102
}
  0
ENDTAB
  0
ENDSEC
  0
SECTION
  2
BLOCKS
  0
BLOCK
  5
4BC
330
4BB
100
AcDbEntity
  8
0
100
AcDbBlockBegin
  2
*Model_Space
 70
     0
 10
0.0
 20
0.0
 30
0.0
  3
*Model_Space
  1

  0
ENDBLK
  5
4BD
330
4BB
100
AcDbEntity
  8
0
100
AcDbBlockEnd
  0
BLOCK
  5
4B8
330
4B7
100
AcDbEntity
 67
     1
  8
0
100
AcDbBlockBegin
  2
*Paper_Space
 70
     0
 10
0.0
 20
0.0
 30
0.0
  3
*Paper_Space
  1

  0
ENDBLK
  5
4B9
330
4B7
100
AcDbEntity
 67
     1
  8
0
100
AcDbBlockEnd
  0
BLOCK
  5
2
330
4EB
100
AcDbEntity
  8
0
100
AcDbBlockBegin
  2
*D0
 70
     1
 10
0.0
 20
0.0
 30
0.0
  3
*D0
  1

  0
LINE
  5
3
330
4EB
100
AcDbEntity
  8
0
100
AcDbLine
 10
0.0
 20
14.5
 30
0.0
 11
0.0
 21
29.5
 31
0.0
  0
LINE
  5
4
330
4EB
100
AcDbEntity
  8
0
100
AcDbLine
 10
16.0
 20
14.5
 30
0.0
 11
16.0
 21
29.5
 31
0.0
  0
LINE
  5
5
330
4EB
100
AcDbEntity
  8
0
100
AcDbLine
 10
2.5
 20
28.5
 30
0.0
 11
13.5
 21
28.5
 31
0.0
  0
LINE
  5
6
330
4EB
100
AcDbEntity
  8
0
100
AcDbLine
 10
2.5
 20
28.916667
 30
0.0
 11
2.5
 21
28.08333300000001
 31
0.0
  0
LINE
  5
7
330
4EB
100
AcDbEntity
  8
0
100
AcDbLine
 10
2.5
 20
28.08333300000001
 30
0.0
 11
0.0
 21
28.5
 31
0.0
  0
LINE
  5
8
330
4EB
100
AcDbEntity
  8
0
100
AcDbLine
 10
0.0
 20
28.5
 30
0.0
 11
0.0
 21
28.5
 31
0.0
  0
LINE
  5
9
330
4EB
100
AcDbEntity
  8
0
100
AcDbLine
 10
0.0
 20
28.5
 30
0.0
 11
2.5
 21
28.916667
 31
0.0
  0
LINE
  5
A
330
4EB
100
AcDbEntity
  8
0
100
AcDbLine
 10
13.5
 20
28.916667
 30
0.0
 11
13.5
 21
28.08333300000001
 31
0.0
  0
LINE
  5
B
330
4EB
100
AcDbEntity
  8
0
100
AcDbLine
 10
13.5
 20
28.08333300000001
 30
0.0
 11
16.0
 21
28.5
 31
0.0
  0
LINE
  5
C
330
4EB
100
AcDbEntity
  8
0
100
AcDbLine
 10
16.0
 20
28.5
 30
0.0
 11
16.0
 21
28.5
 31
0.0
  0
LINE
  5
D
330
4EB
100
AcDbEntity
  8
0
100
AcDbLine
 10
16.0
 20
28.5
 30
0.0
 11
13.5
 21
28.916667
 31
0.0
  0
ENDBLK
  5
E
330
4EB
100
AcDbEntity
  8
0
100
AcDbBlockEnd
  0
BLOCK
  5
F
330
4EC
100
AcDbEntity
  8
0
100
AcDbBlockBegin
  2
*D1
 70
     1
 10
0.0
 20
0.0
 30
0.0
  3
*D1
  1

  0
LINE
  5
10
330
4EC
100
AcDbEntity
  8
0
100
AcDbLine
 10
17.0
 20
13.5
 30
0.0
 11
36.11413300000001
 21
13.5
 31
0.0
  0
LINE
  5
11
330
4EC
100
AcDbEntity
  8
0
100
AcDbLine
 10
17.0
 20
-13.5
 30
0.0
 11
36.11413300000001
 21
-13.5
 31
0.0
  0
LINE
  5
12
330
4EC
100
AcDbEntity
  8
0
100
AcDbLine
 10
35.114133
 20
11.0
 30
0.0
 11
35.114133
 21
-11.0
 31
0.0
  0
LINE
  5
13
330
4EC
100
AcDbEntity
  8
0
100
AcDbLine
 10
34.697466
 20
11.0
 30
0.0
 11
35.530799
 21
11.0
 31
0.0
  0
LINE
  5
14
330
4EC
100
AcDbEntity
  8
0
100
AcDbLine
 10
35.530799
 20
11.0
 30
0.0
 11
35.114133
 21
13.5
 31
0.0
  0
LINE
  5
15
330
4EC
100
AcDbEntity
  8
0
100
AcDbLine
 10
35.114133
 20
13.5
 30
0.0
 11
35.114133
 21
13.5
 31
0.0
  0
LINE
  5
16
330
4EC
100
AcDbEntity
  8
0
100
AcDbLine
 10
35.114133
 20
13.5
 30
0.0
 11
34.697466
 21
11.0
 31
0.0
  0
LINE
  5
17
330
4EC
100
AcDbEntity
  8
0
100
AcDbLine
 10
34.697466
 20
-11.0
 30
0.0
 11
35.530799
 21
-11.0
 31
0.0
  0
LINE
  5
18
330
4EC
100
AcDbEntity
  8
0
100
AcDbLine
 10
35.530799
 20
-11.0
 30
0.0
 11
35.114133
 21
-13.5
 31
0.0
  0
LINE
  5
19
330
4EC
100
AcDbEntity
  8
0
100
AcDbLine
 10
35.114133
 20
-13.5
 30
0.0
 11
35.114133
 21
-13.5
 31
0.0
  0
LINE
  5
1A
330
4EC
100
AcDbEntity
  8
0
100
AcDbLine
 10
35.114133
 20
-13.5
 30
0.0
 11
34.697466
 21
-11.0
 31
0.0
  0
ENDBLK
  5
1B
330
4EC
100
AcDbEntity
  8
0
100
AcDbBlockEnd
  0
ENDSEC
  0
SECTION
  2
ENTITIES
  0
LINE
  5
1C
330
4BB
100
AcDbEntity
  8
1
100
AcDbLine
 10
16.0
 20
6.555935999999999
 30
0.0
 11
16.0
 21
12.43333
 31
0.0
  0
LINE
  5
1D
330
4BB
100
AcDbEntity
  8
1
100
AcDbLine
 10
16.0
 20
12.43333
 30
0.0
 11
16.0
 21
12.69171
 31
0.0
  0
LINE
  5
1E
330
4BB
100
AcDbEntity
  8
1
100
AcDbLine
 10
9.164089999999999
 20
13.328664
 30
0.0
 11
9.164089999999999
 21
11.411791
 31
0.0
  0
LINE
  5
1F
330
4BB
100
AcDbEntity
  8
1
100
AcDbLine
 10
5.043319999999999
 20
12.091709
 30
0.0
 11
4.910915
 21
12.17993
 31
0.0
  0
LINE
  5
20
330
4BB
100
AcDbEntity
  8
1
100
AcDbLine
 10
4.910915
 20
12.17993
 30
0.0
 11
4.780808999999999
 21
12.265772
 31
0.0
  0
LINE
  5
21
330
4BB
100
AcDbEntity
  8
1
100
AcDbLine
 10
4.780808999999999
 20
12.265772
 30
0.0
 11
4.652842999999999
 21
12.348954
 31
0.0
  0
LINE
  5
22
330
4BB
100
AcDbEntity
  8
1
100
AcDbLine
 10
4.652842999999999
 20
12.348954
 30
0.0
 11
4.527605999999999
 21
12.428666
 31
0.0
  0
LINE
  5
23
330
4BB
100
AcDbEntity
  8
1
100
AcDbLine
 10
4.527605999999999
 20
12.428666
 30
0.0
 11
4.405253
 21
12.504622
 31
0.0
  0
LINE
  5
24
330
4BB
100
AcDbEntity
  8
1
100
AcDbLine
 10
4.405253
 20
12.504622
 30
0.0
 11
4.285629
 21
12.576664
 31
0.0
  0
LINE
  5
25
330
4BB
100
AcDbEntity
  8
1
100
AcDbLine
 10
4.285629
 20
12.576664
 30
0.0
 11
4.168860999999999
 21
12.644307
 31
0.0
  0
LINE
  5
26
330
4BB
100
AcDbEntity
  8
1
100
AcDbLine
 10
4.168860999999999
 20
12.644307
 30
0.0
 11
4.054953
 21
12.70738
 31
0.0
  0
LINE
  5
27
330
4BB
100
AcDbEntity
  8
1
100
AcDbLine
 10
4.054953
 20
12.70738
 30
0.0
 11
3.943901
 21
12.765708
 31
0.0
  0
LINE
  5
28
330
4BB
100
AcDbEntity
  8
1
100
AcDbLine
 10
3.943901
 20
12.765708
 30
0.0
 11
3.835820999999999
 21
12.818919
 31
0.0
  0
LINE
  5
29
330
4BB
100
AcDbEntity
  8
1
100
AcDbLine
 10
3.835820999999999
 20
12.818919
 30
0.0
 11
3.730748
 21
12.866884
 31
0.0
  0
LINE
  5
2A
330
4BB
100
AcDbEntity
  8
1
100
AcDbLine
 10
3.730748
 20
12.866884
 30
0.0
 11
3.628646999999999
 21
12.909519
 31
0.0
  0
LINE
  5
2B
330
4BB
100
AcDbEntity
  8
1
100
AcDbLine
 10
3.628646999999999
 20
12.909519
 30
0.0
 11
3.529530999999999
 21
12.946634
 31
0.0
  0
LINE
  5
2C
330
4BB
100
AcDbEntity
  8
1
100
AcDbLine
 10
3.529530999999999
 20
12.946634
 30
0.0
 11
3.433344
 21
12.978172
 31
0.0
  0
LINE
  5
2D
330
4BB
100
AcDbEntity
  8
1
100
AcDbLine
 10
3.433344
 20
12.978172
 30
0.0
 11
3.340141999999999
 21
13.004063
 31
0.0
  0
LINE
  5
2E
330
4BB
100
AcDbEntity
  8
1
100
AcDbLine
 10
3.340141999999999
 20
13.004063
 30
0.0
 11
3.250103999999999
 21
13.024186
 31
0.0
  0
LINE
  5
2F
330
4BB
100
AcDbEntity
  8
1
100
AcDbLine
 10
3.250103999999999
 20
13.024186
 30
0.0
 11
3.163289999999999
 21
13.038533
 31
0.0
  0
LINE
  5
30
330
4BB
100
AcDbEntity
  8
1
100
AcDbLine
 10
3.163289999999999
 20
13.038533
 30
0.0
 11
3.079639999999999
 21
13.047135
 31
0.0
  0
LINE
  5
31
330
4BB
100
AcDbEntity
  8
1
100
AcDbLine
 10
3.079639999999999
 20
13.047135
 30
0.0
 11
2.999155
 21
13.05
 31
0.0
  0
LINE
  5
32
330
4BB
100
AcDbEntity
  8
1
100
AcDbLine
 10
8.391548
 20
13.007154
 30
0.0
 11
8.391548
 21
11.406481
 31
0.0
  0
LINE
  5
33
330
4BB
100
AcDbEntity
  8
1
100
AcDbLine
 10
0.0
 20
-13.05
 30
0.0
 11
0.0
 21
13.05
 31
0.0
  0
LINE
  5
34
330
4BB
100
AcDbEntity
  8
1
100
AcDbLine
 10
14.608258
 20
-5.431706
 30
0.0
 11
14.0945
 21
-5.603851999999999
 31
0.0
  0
LINE
  5
35
330
4BB
100
AcDbEntity
  8
1
100
AcDbLine
 10
14.0945
 20
-5.603851999999999
 30
0.0
 11
13.580068
 21
-5.774897
 31
0.0
  0
LINE
  5
36
330
4BB
100
AcDbEntity
  8
1
100
AcDbLine
 10
13.580068
 20
-5.774897
 30
0.0
 11
13.064961
 21
-5.94484
 31
0.0
  0
LINE
  5
37
330
4BB
100
AcDbEntity
  8
1
100
AcDbLine
 10
13.064961
 20
-5.94484
 30
0.0
 11
12.549034
 21
-6.113726999999999
 31
0.0
  0
LINE
  5
38
330
4BB
100
AcDbEntity
  8
1
100
AcDbLine
 10
12.549034
 20
-6.113726999999999
 30
0.0
 11
12.032433
 21
-6.281512999999999
 31
0.0
  0
LINE
  5
39
330
4BB
100
AcDbEntity
  8
1
100
AcDbLine
 10
12.032433
 20
-6.281512999999999
 30
0.0
 11
11.515594
 21
-6.44805
 31
0.0
  0
LINE
  5
3A
330
4BB
100
AcDbEntity
  8
1
100
AcDbLine
 10
11.515594
 20
-6.44805
 30
0.0
 11
10.998664
 21
-6.613291999999999
 31
0.0
  0
LINE
  5
3B
330
4BB
100
AcDbEntity
  8
1
100
AcDbLine
 10
10.998664
 20
-6.613291999999999
 30
0.0
 11
10.481496
 21
-6.777286999999999
 31
0.0
  0
LINE
  5
3C
330
4BB
100
AcDbEntity
  8
1
100
AcDbLine
 10
10.481496
 20
-6.777286999999999
 30
0.0
 11
9.964089999999998
 21
-6.940033
 31
0.0
  0
LINE
  5
3D
330
4BB
100
AcDbEntity
  8
1
100
AcDbLine
 10
14.493228
 20
-5.113266999999999
 30
0.0
 11
13.992493
 21
-5.28263
 31
0.0
  0
LINE
  5
3E
330
4BB
100
AcDbEntity
  8
1
100
AcDbLine
 10
13.992493
 20
-5.28263
 30
0.0
 11
13.491041
 21
-5.45115
 31
0.0
  0
LINE
  5
3F
330
4BB
100
AcDbEntity
  8
1
100
AcDbLine
 10
13.491041
 20
-5.45115
 30
0.0
 11
12.988872
 21
-5.618792
 31
0.0
  0
LINE
  5
40
330
4BB
100
AcDbEntity
  8
1
100
AcDbLine
 10
12.988872
 20
-5.618792
 30
0.0
 11
12.485863
 21
-5.785527
 31
0.0
  0
LINE
  5
41
330
4BB
100
AcDbEntity
  8
1
100
AcDbLine
 10
12.485863
 20
-5.785527
 30
0.0
 11
11.982136
 21
-5.951318999999999
 31
0.0
  0
LINE
  5
42
330
4BB
100
AcDbEntity
  8
1
100
AcDbLine
 10
11.982136
 20
-5.951318999999999
 30
0.0
 11
11.478059
 21
-6.116114999999999
 31
0.0
  0
LINE
  5
43
330
4BB
100
AcDbEntity
  8
1
100
AcDbLine
 10
11.478059
 20
-6.116114999999999
 30
0.0
 11
10.973754
 21
-6.279878
 31
0.0
  0
LINE
  5
44
330
4BB
100
AcDbEntity
  8
1
100
AcDbLine
 10
10.973754
 20
-6.279878
 30
0.0
 11
10.469097
 21
-6.442580999999999
 31
0.0
  0
LINE
  5
45
330
4BB
100
AcDbEntity
  8
1
100
AcDbLine
 10
10.469097
 20
-6.442580999999999
 30
0.0
 11
9.964089999999998
 21
-6.604189999999999
 31
0.0
  0
LINE
  5
46
330
4BB
100
AcDbEntity
  8
1
100
AcDbLine
 10
14.1
 20
11.95048
 30
0.0
 11
13.68022
 21
11.904042
 31
0.0
  0
LINE
  5
47
330
4BB
100
AcDbEntity
  8
1
100
AcDbLine
 10
13.68022
 20
11.904042
 30
0.0
 11
13.258299
 21
11.856611
 31
0.0
  0
LINE
  5
48
330
4BB
100
AcDbEntity
  8
1
100
AcDbLine
 10
13.258299
 20
11.856611
 30
0.0
 11
12.834235
 21
11.808184
 31
0.0
  0
LINE
  5
49
330
4BB
100
AcDbEntity
  8
1
100
AcDbLine
 10
12.834235
 20
11.808184
 30
0.0
 11
12.407985
 21
11.758762
 31
0.0
  0
LINE
  5
4A
330
4BB
100
AcDbEntity
  8
1
100
AcDbLine
 10
12.407985
 20
11.758762
 30
0.0
 11
11.979592
 21
11.708345
 31
0.0
  0
LINE
  5
4B
330
4BB
100
AcDbEntity
  8
1
100
AcDbLine
 10
11.979592
 20
11.708345
 30
0.0
 11
11.549191
 21
11.656938
 31
0.0
  0
LINE
  5
4C
330
4BB
100
AcDbEntity
  8
1
100
AcDbLine
 10
11.549191
 20
11.656938
 30
0.0
 11
11.116824
 21
11.604544
 31
0.0
  0
LINE
  5
4D
330
4BB
100
AcDbEntity
  8
1
100
AcDbLine
 10
11.116824
 20
11.604544
 30
0.0
 11
10.682447
 21
11.55116
 31
0.0
  0
LINE
  5
4E
330
4BB
100
AcDbEntity
  8
1
100
AcDbLine
 10
10.682447
 20
11.55116
 30
0.0
 11
10.246061
 21
11.496787
 31
0.0
  0
LINE
  5
4F
330
4BB
100
AcDbEntity
  8
1
100
AcDbLine
 10
8.611062999999999
 20
-4.578458999999999
 30
0.0
 11
9.234792999999999
 21
-4.3605
 31
0.0
  0
LINE
  5
50
330
4BB
100
AcDbEntity
  8
1
100
AcDbLine
 10
9.234792999999999
 20
-4.3605
 30
0.0
 11
9.85468
 21
-4.141842999999999
 31
0.0
  0
LINE
  5
51
330
4BB
100
AcDbEntity
  8
1
100
AcDbLine
 10
9.85468
 20
-4.141842999999999
 30
0.0
 11
10.470721
 21
-3.922484999999999
 31
0.0
  0
LINE
  5
52
330
4BB
100
AcDbEntity
  8
1
100
AcDbLine
 10
10.470721
 20
-3.922484999999999
 30
0.0
 11
11.08294
 21
-3.702405
 31
0.0
  0
LINE
  5
53
330
4BB
100
AcDbEntity
  8
1
100
AcDbLine
 10
11.08294
 20
-3.702405
 30
0.0
 11
11.691314
 21
-3.481626
 31
0.0
  0
LINE
  5
54
330
4BB
100
AcDbEntity
  8
1
100
AcDbLine
 10
11.691314
 20
-3.481626
 30
0.0
 11
12.295781
 21
-3.260207999999999
 31
0.0
  0
LINE
  5
55
330
4BB
100
AcDbEntity
  8
1
100
AcDbLine
 10
12.295781
 20
-3.260207999999999
 30
0.0
 11
12.896319
 21
-3.038173
 31
0.0
  0
LINE
  5
56
330
4BB
100
AcDbEntity
  8
1
100
AcDbLine
 10
12.896319
 20
-3.038173
 30
0.0
 11
13.492951
 21
-2.815497
 31
0.0
  0
LINE
  5
57
330
4BB
100
AcDbEntity
  8
1
100
AcDbLine
 10
13.492951
 20
-2.815497
 30
0.0
 11
14.085676
 21
-2.592181999999999
 31
0.0
  0
LINE
  5
58
330
4BB
100
AcDbEntity
  8
1
100
AcDbLine
 10
14.1
 20
-2.491783999999999
 30
0.0
 11
13.390715
 21
-2.759456999999999
 31
0.0
  0
LINE
  5
59
330
4BB
100
AcDbEntity
  8
1
100
AcDbLine
 10
13.390715
 20
-2.759456999999999
 30
0.0
 11
12.675378
 21
-3.026349999999999
 31
0.0
  0
LINE
  5
5A
330
4BB
100
AcDbEntity
  8
1
100
AcDbLine
 10
12.675378
 20
-3.026349999999999
 30
0.0
 11
11.953989
 21
-3.292462999999999
 31
0.0
  0
LINE
  5
5B
330
4BB
100
AcDbEntity
  8
1
100
AcDbLine
 10
11.953989
 20
-3.292462999999999
 30
0.0
 11
11.226105
 21
-3.557976999999999
 31
0.0
  0
LINE
  5
5C
330
4BB
100
AcDbEntity
  8
1
100
AcDbLine
 10
11.226105
 20
-3.557976999999999
 30
0.0
 11
10.492168
 21
-3.822710999999999
 31
0.0
  0
LINE
  5
5D
330
4BB
100
AcDbEntity
  8
1
100
AcDbLine
 10
10.492168
 20
-3.822710999999999
 30
0.0
 11
9.753516000000001
 21
-4.086123
 31
0.0
  0
LINE
  5
5E
330
4BB
100
AcDbEntity
  8
1
100
AcDbLine
 10
9.753516000000001
 20
-4.086123
 30
0.0
 11
9.01012
 21
-4.348208999999999
 31
0.0
  0
LINE
  5
5F
330
4BB
100
AcDbEntity
  8
1
100
AcDbLine
 10
8.611062999999999
 20
8.459298999999999
 30
0.0
 11
9.234792999999999
 21
8.636239999999999
 31
0.0
  0
LINE
  5
60
330
4BB
100
AcDbEntity
  8
1
100
AcDbLine
 10
9.234792999999999
 20
8.636239999999999
 30
0.0
 11
9.85468
 21
8.810048
 31
0.0
  0
LINE
  5
61
330
4BB
100
AcDbEntity
  8
1
100
AcDbLine
 10
9.85468
 20
8.810048
 30
0.0
 11
10.470721
 21
8.980721
 31
0.0
  0
LINE
  5
62
330
4BB
100
AcDbEntity
  8
1
100
AcDbLine
 10
10.470721
 20
8.980721
 30
0.0
 11
11.08294
 21
9.148253
 31
0.0
  0
LINE
  5
63
330
4BB
100
AcDbEntity
  8
1
100
AcDbLine
 10
11.08294
 20
9.148253
 30
0.0
 11
11.691314
 21
9.312650999999998
 31
0.0
  0
LINE
  5
64
330
4BB
100
AcDbEntity
  8
1
100
AcDbLine
 10
11.691314
 20
9.312650999999998
 30
0.0
 11
12.295781
 21
9.473935
 31
0.0
  0
LINE
  5
65
330
4BB
100
AcDbEntity
  8
1
100
AcDbLine
 10
12.295781
 20
9.473935
 30
0.0
 11
12.896319
 21
9.632114999999998
 31
0.0
  0
LINE
  5
66
330
4BB
100
AcDbEntity
  8
1
100
AcDbLine
 10
12.896319
 20
9.632114999999998
 30
0.0
 11
13.492951
 21
9.787182000000001
 31
0.0
  0
LINE
  5
67
330
4BB
100
AcDbEntity
  8
1
100
AcDbLine
 10
13.492951
 20
9.787182000000001
 30
0.0
 11
14.085676
 21
9.939135
 31
0.0
  0
LINE
  5
68
330
4BB
100
AcDbEntity
  8
1
100
AcDbLine
 10
14.493228
 20
8.263597999999999
 30
0.0
 11
13.992493
 21
8.117444
 31
0.0
  0
LINE
  5
69
330
4BB
100
AcDbEntity
  8
1
100
AcDbLine
 10
13.992493
 20
8.117444
 30
0.0
 11
13.491041
 21
7.969671
 31
0.0
  0
LINE
  5
6A
330
4BB
100
AcDbEntity
  8
1
100
AcDbLine
 10
13.491041
 20
7.969671
 30
0.0
 11
12.988872
 21
7.820300999999999
 31
0.0
  0
LINE
  5
6B
330
4BB
100
AcDbEntity
  8
1
100
AcDbLine
 10
12.988872
 20
7.820300999999999
 30
0.0
 11
12.485863
 21
7.669353
 31
0.0
  0
LINE
  5
6C
330
4BB
100
AcDbEntity
  8
1
100
AcDbLine
 10
12.485863
 20
7.669353
 30
0.0
 11
11.982136
 21
7.516858999999999
 31
0.0
  0
LINE
  5
6D
330
4BB
100
AcDbEntity
  8
1
100
AcDbLine
 10
11.982136
 20
7.516858999999999
 30
0.0
 11
11.478059
 21
7.362855
 31
0.0
  0
LINE
  5
6E
330
4BB
100
AcDbEntity
  8
1
100
AcDbLine
 10
11.478059
 20
7.362855
 30
0.0
 11
10.973754
 21
7.207374
 31
0.0
  0
LINE
  5
6F
330
4BB
100
AcDbEntity
  8
1
100
AcDbLine
 10
10.973754
 20
7.207374
 30
0.0
 11
10.469097
 21
7.050436999999999
 31
0.0
  0
LINE
  5
70
330
4BB
100
AcDbEntity
  8
1
100
AcDbLine
 10
10.469097
 20
7.050436999999999
 30
0.0
 11
9.964089999999998
 21
6.892069
 31
0.0
  0
LINE
  5
71
330
4BB
100
AcDbEntity
  8
1
100
AcDbLine
 10
14.608258
 20
7.987433
 30
0.0
 11
14.0945
 21
7.834308
 31
0.0
  0
LINE
  5
72
330
4BB
100
AcDbEntity
  8
1
100
AcDbLine
 10
14.0945
 20
7.834308
 30
0.0
 11
13.580068
 21
7.679653
 31
0.0
  0
LINE
  5
73
330
4BB
100
AcDbEntity
  8
1
100
AcDbLine
 10
13.580068
 20
7.679653
 30
0.0
 11
13.064961
 21
7.523467999999999
 31
0.0
  0
LINE
  5
74
330
4BB
100
AcDbEntity
  8
1
100
AcDbLine
 10
13.064961
 20
7.523467999999999
 30
0.0
 11
12.549034
 21
7.365708999999999
 31
0.0
  0
LINE
  5
75
330
4BB
100
AcDbEntity
  8
1
100
AcDbLine
 10
12.549034
 20
7.365708999999999
 30
0.0
 11
12.032433
 21
7.206421999999999
 31
0.0
  0
LINE
  5
76
330
4BB
100
AcDbEntity
  8
1
100
AcDbLine
 10
12.032433
 20
7.206421999999999
 30
0.0
 11
11.515594
 21
7.045736999999999
 31
0.0
  0
LINE
  5
77
330
4BB
100
AcDbEntity
  8
1
100
AcDbLine
 10
11.515594
 20
7.045736999999999
 30
0.0
 11
10.998664
 21
6.883696
 31
0.0
  0
LINE
  5
78
330
4BB
100
AcDbEntity
  8
1
100
AcDbLine
 10
10.998664
 20
6.883696
 30
0.0
 11
10.481496
 21
6.720258999999999
 31
0.0
  0
LINE
  5
79
330
4BB
100
AcDbEntity
  8
1
100
AcDbLine
 10
10.481496
 20
6.720258999999999
 30
0.0
 11
9.964089999999998
 21
6.555422999999999
 31
0.0
  0
LINE
  5
7A
330
4BB
100
AcDbEntity
  8
1
100
AcDbLine
 10
9.164089999999999
 20
4.391945999999999
 30
0.0
 11
16.0
 21
6.555935999999999
 31
0.0
  0
LINE
  5
7B
330
4BB
100
AcDbEntity
  8
1
100
AcDbLine
 10
11.549191
 20
0.747748
 30
0.0
 11
10.682447
 21
0.5168010000000001
 31
0.0
  0
LINE
  5
7C
330
4BB
100
AcDbEntity
  8
1
100
AcDbLine
 10
10.682447
 20
0.5168010000000001
 30
0.0
 11
10.246061
 21
0.4009840000000001
 31
0.0
  0
LINE
  5
7D
330
4BB
100
AcDbEntity
  8
1
100
AcDbLine
 10
15.5
 20
2.812195
 30
0.0
 11
9.745649999999999
 21
0.990585
 31
0.0
  0
LINE
  5
7E
330
4BB
100
AcDbEntity
  8
1
100
AcDbLine
 10
8.611062999999999
 20
-13.037758
 30
0.0
 11
9.234792999999999
 21
-12.996741
 31
0.0
  0
LINE
  5
7F
330
4BB
100
AcDbEntity
  8
1
100
AcDbLine
 10
9.234792999999999
 20
-12.996741
 30
0.0
 11
9.85468
 21
-12.95189
 31
0.0
  0
LINE
  5
80
330
4BB
100
AcDbEntity
  8
1
100
AcDbLine
 10
9.85468
 20
-12.95189
 30
0.0
 11
10.470721
 21
-12.903206
 31
0.0
  0
LINE
  5
81
330
4BB
100
AcDbEntity
  8
1
100
AcDbLine
 10
10.470721
 20
-12.903206
 30
0.0
 11
11.08294
 21
-12.850658
 31
0.0
  0
LINE
  5
82
330
4BB
100
AcDbEntity
  8
1
100
AcDbLine
 10
11.08294
 20
-12.850658
 30
0.0
 11
11.691314
 21
-12.794277
 31
0.0
  0
LINE
  5
83
330
4BB
100
AcDbEntity
  8
1
100
AcDbLine
 10
11.691314
 20
-12.794277
 30
0.0
 11
12.295781
 21
-12.734144
 31
0.0
  0
LINE
  5
84
330
4BB
100
AcDbEntity
  8
1
100
AcDbLine
 10
12.295781
 20
-12.734144
 30
0.0
 11
12.896319
 21
-12.670287
 31
0.0
  0
LINE
  5
85
330
4BB
100
AcDbEntity
  8
1
100
AcDbLine
 10
12.896319
 20
-12.670287
 30
0.0
 11
13.492951
 21
-12.602677
 31
0.0
  0
LINE
  5
86
330
4BB
100
AcDbEntity
  8
1
100
AcDbLine
 10
13.492951
 20
-12.602677
 30
0.0
 11
14.085676
 21
-12.531317
 31
0.0
  0
LINE
  5
87
330
4BB
100
AcDbEntity
  8
1
100
AcDbLine
 10
14.1
 20
-10.515768
 30
0.0
 11
13.68022
 21
-10.583151
 31
0.0
  0
LINE
  5
88
330
4BB
100
AcDbEntity
  8
1
100
AcDbLine
 10
13.68022
 20
-10.583151
 30
0.0
 11
13.258299
 21
-10.649808
 31
0.0
  0
LINE
  5
89
330
4BB
100
AcDbEntity
  8
1
100
AcDbLine
 10
13.258299
 20
-10.649808
 30
0.0
 11
12.834235
 21
-10.715741
 31
0.0
  0
LINE
  5
8A
330
4BB
100
AcDbEntity
  8
1
100
AcDbLine
 10
12.834235
 20
-10.715741
 30
0.0
 11
12.407985
 21
-10.780959
 31
0.0
  0
LINE
  5
8B
330
4BB
100
AcDbEntity
  8
1
100
AcDbLine
 10
12.407985
 20
-10.780959
 30
0.0
 11
11.979592
 21
-10.845454
 31
0.0
  0
LINE
  5
8C
330
4BB
100
AcDbEntity
  8
1
100
AcDbLine
 10
11.979592
 20
-10.845454
 30
0.0
 11
11.549191
 21
-10.909189
 31
0.0
  0
LINE
  5
8D
330
4BB
100
AcDbEntity
  8
1
100
AcDbLine
 10
11.549191
 20
-10.909189
 30
0.0
 11
11.116824
 21
-10.972153
 31
0.0
  0
LINE
  5
8E
330
4BB
100
AcDbEntity
  8
1
100
AcDbLine
 10
11.116824
 20
-10.972153
 30
0.0
 11
10.682447
 21
-11.034358
 31
0.0
  0
LINE
  5
8F
330
4BB
100
AcDbEntity
  8
1
100
AcDbLine
 10
10.682447
 20
-11.034358
 30
0.0
 11
10.246061
 21
-11.095803
 31
0.0
  0
LINE
  5
90
330
4BB
100
AcDbEntity
  8
1
100
AcDbLine
 10
15.5
 20
-6.862805
 30
0.0
 11
9.745649999999999
 21
-8.684414999999999
 31
0.0
  0
LINE
  5
91
330
4BB
100
AcDbEntity
  8
1
100
AcDbLine
 10
14.1
 20
-12.33959
 30
0.0
 11
13.390781
 21
-12.425862
 31
0.0
  0
LINE
  5
92
330
4BB
100
AcDbEntity
  8
1
100
AcDbLine
 10
13.390781
 20
-12.425862
 30
0.0
 11
12.6755
 21
-12.506747
 31
0.0
  0
LINE
  5
93
330
4BB
100
AcDbEntity
  8
1
100
AcDbLine
 10
12.6755
 20
-12.506747
 30
0.0
 11
11.954157
 21
-12.58224
 31
0.0
  0
LINE
  5
94
330
4BB
100
AcDbEntity
  8
1
100
AcDbLine
 10
11.954157
 20
-12.58224
 30
0.0
 11
11.226304
 21
-12.652424
 31
0.0
  0
LINE
  5
95
330
4BB
100
AcDbEntity
  8
1
100
AcDbLine
 10
11.226304
 20
-12.652424
 30
0.0
 11
10.492389
 21
-12.717218
 31
0.0
  0
LINE
  5
96
330
4BB
100
AcDbEntity
  8
1
100
AcDbLine
 10
10.492389
 20
-12.717218
 30
0.0
 11
9.753755999999999
 21
-12.776382
 31
0.0
  0
LINE
  5
97
330
4BB
100
AcDbEntity
  8
1
100
AcDbLine
 10
9.753755999999999
 20
-12.776382
 30
0.0
 11
9.010379999999999
 21
-12.829896
 31
0.0
  0
LINE
  5
98
330
4BB
100
AcDbEntity
  8
1
100
AcDbLine
 10
0.0
 20
-13.05
 30
0.0
 11
2.950262999999999
 21
-13.05
 31
0.0
  0
LINE
  5
99
330
4BB
100
AcDbEntity
  8
1
100
AcDbLine
 10
7.126276999999999
 20
-8.449925
 30
0.0
 11
7.150382
 21
-8.403524
 31
0.0
  0
LINE
  5
9A
330
4BB
100
AcDbEntity
  8
1
100
AcDbLine
 10
7.150382
 20
-8.403524
 30
0.0
 11
7.176543999999999
 21
-8.356844
 31
0.0
  0
LINE
  5
9B
330
4BB
100
AcDbEntity
  8
1
100
AcDbLine
 10
7.176543999999999
 20
-8.356844
 30
0.0
 11
7.204774999999999
 21
-8.309902000000001
 31
0.0
  0
LINE
  5
9C
330
4BB
100
AcDbEntity
  8
1
100
AcDbLine
 10
7.204774999999999
 20
-8.309902000000001
 30
0.0
 11
7.235097
 21
-8.262591999999999
 31
0.0
  0
LINE
  5
9D
330
4BB
100
AcDbEntity
  8
1
100
AcDbLine
 10
7.235097
 20
-8.262591999999999
 30
0.0
 11
7.267514999999999
 21
-8.215056999999999
 31
0.0
  0
LINE
  5
9E
330
4BB
100
AcDbEntity
  8
1
100
AcDbLine
 10
7.267514999999999
 20
-8.215056999999999
 30
0.0
 11
7.302016
 21
-8.167689999999998
 31
0.0
  0
LINE
  5
9F
330
4BB
100
AcDbEntity
  8
1
100
AcDbLine
 10
7.302016
 20
-8.167689999999998
 30
0.0
 11
7.338642999999999
 21
-8.120511999999999
 31
0.0
  0
LINE
  5
A0
330
4BB
100
AcDbEntity
  8
1
100
AcDbLine
 10
7.338642999999999
 20
-8.120511999999999
 30
0.0
 11
7.377378
 21
-8.073546
 31
0.0
  0
LINE
  5
A1
330
4BB
100
AcDbEntity
  8
1
100
AcDbLine
 10
7.377378
 20
-8.073546
 30
0.0
 11
7.418110999999999
 21
-8.027181
 31
0.0
  0
LINE
  5
A2
330
4BB
100
AcDbEntity
  8
1
100
AcDbLine
 10
7.418110999999999
 20
-8.027181
 30
0.0
 11
7.460846
 21
-7.981477
 31
0.0
  0
LINE
  5
A3
330
4BB
100
AcDbEntity
  8
1
100
AcDbLine
 10
7.460846
 20
-7.981477
 30
0.0
 11
7.505599
 21
-7.936417999999998
 31
0.0
  0
LINE
  5
A4
330
4BB
100
AcDbEntity
  8
1
100
AcDbLine
 10
7.505599
 20
-7.936417999999998
 30
0.0
 11
7.552275999999999
 21
-7.892289999999999
 31
0.0
  0
LINE
  5
A5
330
4BB
100
AcDbEntity
  8
1
100
AcDbLine
 10
7.552275999999999
 20
-7.892289999999999
 30
0.0
 11
7.600877999999999
 21
-7.849133
 31
0.0
  0
LINE
  5
A6
330
4BB
100
AcDbEntity
  8
1
100
AcDbLine
 10
7.600877999999999
 20
-7.849133
 30
0.0
 11
7.651417999999999
 21
-7.806949
 31
0.0
  0
LINE
  5
A7
330
4BB
100
AcDbEntity
  8
1
100
AcDbLine
 10
7.651417999999999
 20
-7.806949
 30
0.0
 11
7.703828999999998
 21
-7.765972999999999
 31
0.0
  0
LINE
  5
A8
330
4BB
100
AcDbEntity
  8
1
100
AcDbLine
 10
7.703828999999998
 20
-7.765972999999999
 30
0.0
 11
7.758278999999999
 21
-7.726138
 31
0.0
  0
LINE
  5
A9
330
4BB
100
AcDbEntity
  8
1
100
AcDbLine
 10
7.758278999999999
 20
-7.726138
 30
0.0
 11
7.814608999999999
 21
-7.687555999999999
 31
0.0
  0
LINE
  5
AA
330
4BB
100
AcDbEntity
  8
1
100
AcDbLine
 10
7.814608999999999
 20
-7.687555999999999
 30
0.0
 11
7.872250999999999
 21
-7.650725999999999
 31
0.0
  0
LINE
  5
AB
330
4BB
100
AcDbEntity
  8
1
100
AcDbLine
 10
7.872250999999999
 20
-7.650725999999999
 30
0.0
 11
7.931372
 21
-7.615642999999999
 31
0.0
  0
LINE
  5
AC
330
4BB
100
AcDbEntity
  8
1
100
AcDbLine
 10
7.931372
 20
-7.615642999999999
 30
0.0
 11
7.991799999999999
 21
-7.582336999999999
 31
0.0
  0
LINE
  5
AD
330
4BB
100
AcDbEntity
  8
1
100
AcDbLine
 10
7.991799999999999
 20
-7.582336999999999
 30
0.0
 11
8.052449000000001
 21
-7.551333999999999
 31
0.0
  0
LINE
  5
AE
330
4BB
100
AcDbEntity
  8
1
100
AcDbLine
 10
8.052449000000001
 20
-7.551333999999999
 30
0.0
 11
8.113260999999999
 21
-7.522733999999999
 31
0.0
  0
LINE
  5
AF
330
4BB
100
AcDbEntity
  8
1
100
AcDbLine
 10
8.113260999999999
 20
-7.522733999999999
 30
0.0
 11
8.174272
 21
-7.496425
 31
0.0
  0
LINE
  5
B0
330
4BB
100
AcDbEntity
  8
1
100
AcDbLine
 10
8.174272
 20
-7.496425
 30
0.0
 11
8.234519
 21
-7.472566999999999
 31
0.0
  0
LINE
  5
B1
330
4BB
100
AcDbEntity
  8
1
100
AcDbLine
 10
8.234519
 20
-7.472566999999999
 30
0.0
 11
8.272396
 21
-7.458689999999999
 31
0.0
  0
LINE
  5
B2
330
4BB
100
AcDbEntity
  8
1
100
AcDbLine
 10
8.272396
 20
-7.458689999999999
 30
0.0
 11
8.293917999999999
 21
-7.451219999999999
 31
0.0
  0
LINE
  5
B3
330
4BB
100
AcDbEntity
  8
1
100
AcDbLine
 10
8.293917999999999
 20
-7.451219999999999
 30
0.0
 11
8.352524
 21
-7.432282
 31
0.0
  0
LINE
  5
B4
330
4BB
100
AcDbEntity
  8
1
100
AcDbLine
 10
8.352524
 20
-7.432282
 30
0.0
 11
8.409574
 21
-7.415653999999999
 31
0.0
  0
LINE
  5
B5
330
4BB
100
AcDbEntity
  8
1
100
AcDbLine
 10
8.409574
 20
-7.415653999999999
 30
0.0
 11
8.464930999999999
 21
-7.401361999999999
 31
0.0
  0
LINE
  5
B6
330
4BB
100
AcDbEntity
  8
1
100
AcDbLine
 10
8.464930999999999
 20
-7.401361999999999
 30
0.0
 11
8.518703999999999
 21
-7.389317
 31
0.0
  0
LINE
  5
B7
330
4BB
100
AcDbEntity
  8
1
100
AcDbLine
 10
8.518703999999999
 20
-7.389317
 30
0.0
 11
8.570491999999999
 21
-7.379232
 31
0.0
  0
LINE
  5
B8
330
4BB
100
AcDbEntity
  8
1
100
AcDbLine
 10
8.570491999999999
 20
-7.379232
 30
0.0
 11
8.620096
 21
-7.371094
 31
0.0
  0
LINE
  5
B9
330
4BB
100
AcDbEntity
  8
1
100
AcDbLine
 10
8.620096
 20
-7.371094
 30
0.0
 11
8.667695
 21
-7.364853
 31
0.0
  0
LINE
  5
BA
330
4BB
100
AcDbEntity
  8
1
100
AcDbLine
 10
8.667695
 20
-7.364853
 30
0.0
 11
8.713454999999999
 21
-7.360155
 31
0.0
  0
LINE
  5
BB
330
4BB
100
AcDbEntity
  8
1
100
AcDbLine
 10
8.713454999999999
 20
-7.360155
 30
0.0
 11
8.757329999999999
 21
-7.356942
 31
0.0
  0
LINE
  5
BC
330
4BB
100
AcDbEntity
  8
1
100
AcDbLine
 10
8.757329999999999
 20
-7.356942
 30
0.0
 11
8.799353999999999
 21
-7.355222999999999
 31
0.0
  0
LINE
  5
BD
330
4BB
100
AcDbEntity
  8
1
100
AcDbLine
 10
8.799353999999999
 20
-7.355222999999999
 30
0.0
 11
8.839819999999999
 21
-7.354754999999999
 31
0.0
  0
LINE
  5
BE
330
4BB
100
AcDbEntity
  8
1
100
AcDbLine
 10
8.839819999999999
 20
-7.354754999999999
 30
0.0
 11
8.878762
 21
-7.355485999999999
 31
0.0
  0
LINE
  5
BF
330
4BB
100
AcDbEntity
  8
1
100
AcDbLine
 10
8.878762
 20
-7.355485999999999
 30
0.0
 11
8.916136999999999
 21
-7.357431
 31
0.0
  0
LINE
  5
C0
330
4BB
100
AcDbEntity
  8
1
100
AcDbLine
 10
8.916136999999999
 20
-7.357431
 30
0.0
 11
8.952121999999999
 21
-7.360444999999999
 31
0.0
  0
LINE
  5
C1
330
4BB
100
AcDbEntity
  8
1
100
AcDbLine
 10
8.952121999999999
 20
-7.360444999999999
 30
0.0
 11
8.986800999999999
 21
-7.364517999999999
 31
0.0
  0
LINE
  5
C2
330
4BB
100
AcDbEntity
  8
1
100
AcDbLine
 10
8.986800999999999
 20
-7.364517999999999
 30
0.0
 11
9.020083999999998
 21
-7.369632000000001
 31
0.0
  0
LINE
  5
C3
330
4BB
100
AcDbEntity
  8
1
100
AcDbLine
 10
9.020083999999998
 20
-7.369632000000001
 30
0.0
 11
9.05189
 21
-7.375636999999999
 31
0.0
  0
LINE
  5
C4
330
4BB
100
AcDbEntity
  8
1
100
AcDbLine
 10
9.05189
 20
-7.375636999999999
 30
0.0
 11
9.082166
 21
-7.382516999999999
 31
0.0
  0
LINE
  5
C5
330
4BB
100
AcDbEntity
  8
1
100
AcDbLine
 10
9.082166
 20
-7.382516999999999
 30
0.0
 11
9.110961999999998
 21
-7.390261999999999
 31
0.0
  0
LINE
  5
C6
330
4BB
100
AcDbEntity
  8
1
100
AcDbLine
 10
9.110961999999998
 20
-7.390261999999999
 30
0.0
 11
9.138341999999999
 21
-7.398738
 31
0.0
  0
LINE
  5
C7
330
4BB
100
AcDbEntity
  8
1
100
AcDbLine
 10
9.138341999999999
 20
-7.398738
 30
0.0
 11
9.164286
 21
-7.407919999999999
 31
0.0
  0
LINE
  5
C8
330
4BB
100
AcDbEntity
  8
1
100
AcDbLine
 10
9.164286
 20
-7.407919999999999
 30
0.0
 11
9.188812999999999
 21
-7.417813
 31
0.0
  0
LINE
  5
C9
330
4BB
100
AcDbEntity
  8
1
100
AcDbLine
 10
9.188812999999999
 20
-7.417813
 30
0.0
 11
9.212057000000001
 21
-7.428319999999999
 31
0.0
  0
LINE
  5
CA
330
4BB
100
AcDbEntity
  8
1
100
AcDbLine
 10
9.212057000000001
 20
-7.428319999999999
 30
0.0
 11
9.234059
 21
-7.439458
 31
0.0
  0
LINE
  5
CB
330
4BB
100
AcDbEntity
  8
1
100
AcDbLine
 10
9.234059
 20
-7.439458
 30
0.0
 11
9.254777999999999
 21
-7.451197999999999
 31
0.0
  0
LINE
  5
CC
330
4BB
100
AcDbEntity
  8
1
100
AcDbLine
 10
9.254777999999999
 20
-7.451197999999999
 30
0.0
 11
9.274221999999999
 21
-7.463367999999999
 31
0.0
  0
LINE
  5
CD
330
4BB
100
AcDbEntity
  8
1
100
AcDbLine
 10
9.274221999999999
 20
-7.463367999999999
 30
0.0
 11
9.29235
 21
-7.47595
 31
0.0
  0
LINE
  5
CE
330
4BB
100
AcDbEntity
  8
1
100
AcDbLine
 10
9.29235
 20
-7.47595
 30
0.0
 11
9.309203
 21
-7.488952999999999
 31
0.0
  0
LINE
  5
CF
330
4BB
100
AcDbEntity
  8
1
100
AcDbLine
 10
9.309203
 20
-7.488952999999999
 30
0.0
 11
9.324907000000001
 21
-7.50225
 31
0.0
  0
LINE
  5
D0
330
4BB
100
AcDbEntity
  8
1
100
AcDbLine
 10
9.324907000000001
 20
-7.50225
 30
0.0
 11
9.339501999999999
 21
-7.515799999999999
 31
0.0
  0
LINE
  5
D1
330
4BB
100
AcDbEntity
  8
1
100
AcDbLine
 10
9.339501999999999
 20
-7.515799999999999
 30
0.0
 11
9.352947999999999
 21
-7.529636999999999
 31
0.0
  0
LINE
  5
D2
330
4BB
100
AcDbEntity
  8
1
100
AcDbLine
 10
9.352947999999999
 20
-7.529636999999999
 30
0.0
 11
9.365244
 21
-7.543761999999999
 31
0.0
  0
LINE
  5
D3
330
4BB
100
AcDbEntity
  8
1
100
AcDbLine
 10
5.725698
 20
-10.936632
 30
0.0
 11
5.580208999999999
 21
-10.816557
 31
0.0
  0
LINE
  5
D4
330
4BB
100
AcDbEntity
  8
1
100
AcDbLine
 10
5.580208999999999
 20
-10.816557
 30
0.0
 11
5.436805
 21
-10.690091
 31
0.0
  0
LINE
  5
D5
330
4BB
100
AcDbEntity
  8
1
100
AcDbLine
 10
5.436805
 20
-10.690091
 30
0.0
 11
5.295485
 21
-10.557023
 31
0.0
  0
LINE
  5
D6
330
4BB
100
AcDbEntity
  8
1
100
AcDbLine
 10
5.295485
 20
-10.557023
 30
0.0
 11
5.1561
 21
-10.416918
 31
0.0
  0
LINE
  5
D7
330
4BB
100
AcDbEntity
  8
1
100
AcDbLine
 10
5.1561
 20
-10.416918
 30
0.0
 11
5.018798999999999
 21
-10.269776
 31
0.0
  0
LINE
  5
D8
330
4BB
100
AcDbEntity
  8
1
100
AcDbLine
 10
5.018798999999999
 20
-10.269776
 30
0.0
 11
4.884028999999999
 21
-10.11609
 31
0.0
  0
LINE
  5
D9
330
4BB
100
AcDbEntity
  8
1
100
AcDbLine
 10
4.884028999999999
 20
-10.11609
 30
0.0
 11
4.751853999999999
 21
-9.955702999999999
 31
0.0
  0
LINE
  5
DA
330
4BB
100
AcDbEntity
  8
1
100
AcDbLine
 10
4.751853999999999
 20
-9.955702999999999
 30
0.0
 11
4.622209999999999
 21
-9.78846
 31
0.0
  0
LINE
  5
DB
330
4BB
100
AcDbEntity
  8
1
100
AcDbLine
 10
4.622209999999999
 20
-9.78846
 30
0.0
 11
4.495341999999999
 21
-9.614945999999999
 31
0.0
  0
LINE
  5
DC
330
4BB
100
AcDbEntity
  8
1
100
AcDbLine
 10
4.495341999999999
 20
-9.614945999999999
 30
0.0
 11
4.371300999999999
 21
-9.435103999999999
 31
0.0
  0
LINE
  5
DD
330
4BB
100
AcDbEntity
  8
1
100
AcDbLine
 10
4.371300999999999
 20
-9.435103999999999
 30
0.0
 11
4.250036999999999
 21
-9.248806
 31
0.0
  0
LINE
  5
DE
330
4BB
100
AcDbEntity
  8
1
100
AcDbLine
 10
4.250036999999999
 20
-9.248806
 30
0.0
 11
4.131642
 21
-9.056642999999999
 31
0.0
  0
LINE
  5
DF
330
4BB
100
AcDbEntity
  8
1
100
AcDbLine
 10
4.131642
 20
-9.056642999999999
 30
0.0
 11
4.016083999999999
 21
-8.858503999999999
 31
0.0
  0
LINE
  5
E0
330
4BB
100
AcDbEntity
  8
1
100
AcDbLine
 10
4.016083999999999
 20
-8.858503999999999
 30
0.0
 11
3.903394999999999
 21
-8.654425999999999
 31
0.0
  0
LINE
  5
E1
330
4BB
100
AcDbEntity
  8
1
100
AcDbLine
 10
3.903394999999999
 20
-8.654425999999999
 30
0.0
 11
3.793769999999999
 21
-8.445311999999999
 31
0.0
  0
LINE
  5
E2
330
4BB
100
AcDbEntity
  8
1
100
AcDbLine
 10
3.793769999999999
 20
-8.445311999999999
 30
0.0
 11
3.687230999999999
 21
-8.231249
 31
0.0
  0
LINE
  5
E3
330
4BB
100
AcDbEntity
  8
1
100
AcDbLine
 10
3.687230999999999
 20
-8.231249
 30
0.0
 11
3.583755999999999
 21
-8.012216
 31
0.0
  0
LINE
  5
E4
330
4BB
100
AcDbEntity
  8
1
100
AcDbLine
 10
3.583755999999999
 20
-8.012216
 30
0.0
 11
3.483471999999999
 21
-7.789049
 31
0.0
  0
LINE
  5
E5
330
4BB
100
AcDbEntity
  8
1
100
AcDbLine
 10
3.483471999999999
 20
-7.789049
 30
0.0
 11
3.386376
 21
-7.56188
 31
0.0
  0
LINE
  5
E6
330
4BB
100
AcDbEntity
  8
1
100
AcDbLine
 10
3.386376
 20
-7.56188
 30
0.0
 11
3.292470999999999
 21
-7.330742999999999
 31
0.0
  0
LINE
  5
E7
330
4BB
100
AcDbEntity
  8
1
100
AcDbLine
 10
3.292470999999999
 20
-7.330742999999999
 30
0.0
 11
3.201893
 21
-7.0964
 31
0.0
  0
LINE
  5
E8
330
4BB
100
AcDbEntity
  8
1
100
AcDbLine
 10
3.201893
 20
-7.0964
 30
0.0
 11
3.114688999999999
 21
-6.859196
 31
0.0
  0
LINE
  5
E9
330
4BB
100
AcDbEntity
  8
1
100
AcDbLine
 10
3.114688999999999
 20
-6.859196
 30
0.0
 11
3.030812
 21
-6.619025999999999
 31
0.0
  0
LINE
  5
EA
330
4BB
100
AcDbEntity
  8
1
100
AcDbLine
 10
3.030812
 20
-6.619025999999999
 30
0.0
 11
2.950262999999999
 21
-6.376012999999999
 31
0.0
  0
LINE
  5
EB
330
4BB
100
AcDbEntity
  8
1
100
AcDbLine
 10
7.328591
 20
-9.767283
 30
0.0
 11
7.181299
 21
-9.856177999999999
 31
0.0
  0
LINE
  5
EC
330
4BB
100
AcDbEntity
  8
1
100
AcDbLine
 10
7.181299
 20
-9.856177999999999
 30
0.0
 11
7.036116999999999
 21
-9.946887
 31
0.0
  0
LINE
  5
ED
330
4BB
100
AcDbEntity
  8
1
100
AcDbLine
 10
7.036116999999999
 20
-9.946887
 30
0.0
 11
6.893166
 21
-10.039333
 31
0.0
  0
LINE
  5
EE
330
4BB
100
AcDbEntity
  8
1
100
AcDbLine
 10
6.893166
 20
-10.039333
 30
0.0
 11
6.752561999999999
 21
-10.133444
 31
0.0
  0
LINE
  5
EF
330
4BB
100
AcDbEntity
  8
1
100
AcDbLine
 10
6.752561999999999
 20
-10.133444
 30
0.0
 11
6.614422
 21
-10.22914
 31
0.0
  0
LINE
  5
F0
330
4BB
100
AcDbEntity
  8
1
100
AcDbLine
 10
6.614422
 20
-10.22914
 30
0.0
 11
6.47886
 21
-10.326342
 31
0.0
  0
LINE
  5
F1
330
4BB
100
AcDbEntity
  8
1
100
AcDbLine
 10
6.47886
 20
-10.326342
 30
0.0
 11
6.345985999999999
 21
-10.424971
 31
0.0
  0
LINE
  5
F2
330
4BB
100
AcDbEntity
  8
1
100
AcDbLine
 10
6.345985999999999
 20
-10.424971
 30
0.0
 11
6.215911
 21
-10.524944
 31
0.0
  0
LINE
  5
F3
330
4BB
100
AcDbEntity
  8
1
100
AcDbLine
 10
6.215911
 20
-10.524944
 30
0.0
 11
6.088741
 21
-10.626182
 31
0.0
  0
LINE
  5
F4
330
4BB
100
AcDbEntity
  8
1
100
AcDbLine
 10
6.088741
 20
-10.626182
 30
0.0
 11
5.964580999999999
 21
-10.728599
 31
0.0
  0
LINE
  5
F5
330
4BB
100
AcDbEntity
  8
1
100
AcDbLine
 10
5.964580999999999
 20
-10.728599
 30
0.0
 11
5.843534
 21
-10.832111
 31
0.0
  0
LINE
  5
F6
330
4BB
100
AcDbEntity
  8
1
100
AcDbLine
 10
5.843534
 20
-10.832111
 30
0.0
 11
5.725698
 21
-10.936632
 31
0.0
  0
LINE
  5
F7
330
4BB
100
AcDbEntity
  8
1
100
AcDbLine
 10
9.010379999999999
 20
-12.829896
 30
0.0
 11
8.262285
 21
-12.877779
 31
0.0
  0
LINE
  5
F8
330
4BB
100
AcDbEntity
  8
1
100
AcDbLine
 10
8.262285
 20
-12.877779
 30
0.0
 11
7.510889999999999
 21
-12.919852
 31
0.0
  0
LINE
  5
F9
330
4BB
100
AcDbEntity
  8
1
100
AcDbLine
 10
7.510889999999999
 20
-12.919852
 30
0.0
 11
6.756139999999999
 21
-12.956094
 31
0.0
  0
LINE
  5
FA
330
4BB
100
AcDbEntity
  8
1
100
AcDbLine
 10
6.756139999999999
 20
-12.956094
 30
0.0
 11
5.998089
 21
-12.986526
 31
0.0
  0
LINE
  5
FB
330
4BB
100
AcDbEntity
  8
1
100
AcDbLine
 10
5.998089
 20
-12.986526
 30
0.0
 11
5.238317999999999
 21
-13.011031
 31
0.0
  0
LINE
  5
FC
330
4BB
100
AcDbEntity
  8
1
100
AcDbLine
 10
5.238317999999999
 20
-13.011031
 30
0.0
 11
4.477352999999999
 21
-13.029572
 31
0.0
  0
LINE
  5
FD
330
4BB
100
AcDbEntity
  8
1
100
AcDbLine
 10
4.477352999999999
 20
-13.029572
 30
0.0
 11
3.714668
 21
-13.042187
 31
0.0
  0
LINE
  5
FE
330
4BB
100
AcDbEntity
  8
1
100
AcDbLine
 10
3.714668
 20
-13.042187
 30
0.0
 11
2.950262999999999
 21
-13.048875
 31
0.0
  0
LINE
  5
FF
330
4BB
100
AcDbEntity
  8
1
100
AcDbLine
 10
10.246061
 20
-11.095803
 30
0.0
 11
10.095546
 21
-11.115498
 31
0.0
  0
LINE
  5
100
330
4BB
100
AcDbEntity
  8
1
100
AcDbLine
 10
10.095546
 20
-11.115498
 30
0.0
 11
9.944072999999999
 21
-11.132965
 31
0.0
  0
LINE
  5
101
330
4BB
100
AcDbEntity
  8
1
100
AcDbLine
 10
9.944072999999999
 20
-11.132965
 30
0.0
 11
9.791641999999999
 21
-11.14823
 31
0.0
  0
LINE
  5
102
330
4BB
100
AcDbEntity
  8
1
100
AcDbLine
 10
9.791641999999999
 20
-11.14823
 30
0.0
 11
9.638260999999999
 21
-11.161278
 31
0.0
  0
LINE
  5
103
330
4BB
100
AcDbEntity
  8
1
100
AcDbLine
 10
9.638260999999999
 20
-11.161278
 30
0.0
 11
9.483921
 21
-11.172168
 31
0.0
  0
LINE
  5
104
330
4BB
100
AcDbEntity
  8
1
100
AcDbLine
 10
9.483921
 20
-11.172168
 30
0.0
 11
9.328602
 21
-11.181036
 31
0.0
  0
LINE
  5
105
330
4BB
100
AcDbEntity
  8
1
100
AcDbLine
 10
9.328602
 20
-11.181036
 30
0.0
 11
9.172323999999999
 21
-11.187898
 31
0.0
  0
LINE
  5
106
330
4BB
100
AcDbEntity
  8
1
100
AcDbLine
 10
9.172323999999999
 20
-11.187898
 30
0.0
 11
9.015064999999999
 21
-11.19276
 31
0.0
  0
LINE
  5
107
330
4BB
100
AcDbEntity
  8
1
100
AcDbLine
 10
9.015064999999999
 20
-11.19276
 30
0.0
 11
8.856742
 21
-11.19574
 31
0.0
  0
LINE
  5
108
330
4BB
100
AcDbEntity
  8
1
100
AcDbLine
 10
8.856742
 20
-11.19574
 30
0.0
 11
8.697461
 21
-11.196853
 31
0.0
  0
LINE
  5
109
330
4BB
100
AcDbEntity
  8
1
100
AcDbLine
 10
8.697461
 20
-11.196853
 30
0.0
 11
8.537116000000001
 21
-11.196088
 31
0.0
  0
LINE
  5
10A
330
4BB
100
AcDbEntity
  8
1
100
AcDbLine
 10
8.537116000000001
 20
-11.196088
 30
0.0
 11
8.375291999999999
 21
-11.193522
 31
0.0
  0
LINE
  5
10B
330
4BB
100
AcDbEntity
  8
1
100
AcDbLine
 10
8.375291999999999
 20
-11.193522
 30
0.0
 11
8.211937999999999
 21
-11.189163
 31
0.0
  0
LINE
  5
10C
330
4BB
100
AcDbEntity
  8
1
100
AcDbLine
 10
8.211937999999999
 20
-11.189163
 30
0.0
 11
8.047107
 21
-11.182994
 31
0.0
  0
LINE
  5
10D
330
4BB
100
AcDbEntity
  8
1
100
AcDbLine
 10
8.047107
 20
-11.182994
 30
0.0
 11
7.880546
 21
-11.175048
 31
0.0
  0
LINE
  5
10E
330
4BB
100
AcDbEntity
  8
1
100
AcDbLine
 10
7.880546
 20
-11.175048
 30
0.0
 11
7.712222999999999
 21
-11.165318
 31
0.0
  0
LINE
  5
10F
330
4BB
100
AcDbEntity
  8
1
100
AcDbLine
 10
7.712222999999999
 20
-11.165318
 30
0.0
 11
7.542171
 21
-11.153787
 31
0.0
  0
LINE
  5
110
330
4BB
100
AcDbEntity
  8
1
100
AcDbLine
 10
7.542171
 20
-11.153787
 30
0.0
 11
7.370233999999999
 21
-11.14047
 31
0.0
  0
LINE
  5
111
330
4BB
100
AcDbEntity
  8
1
100
AcDbLine
 10
7.370233999999999
 20
-11.14047
 30
0.0
 11
7.196463999999999
 21
-11.125359
 31
0.0
  0
LINE
  5
112
330
4BB
100
AcDbEntity
  8
1
100
AcDbLine
 10
7.196463999999999
 20
-11.125359
 30
0.0
 11
7.020808999999999
 21
-11.108427
 31
0.0
  0
LINE
  5
113
330
4BB
100
AcDbEntity
  8
1
100
AcDbLine
 10
7.020808999999999
 20
-11.108427
 30
0.0
 11
6.84296
 21
-11.089653
 31
0.0
  0
LINE
  5
114
330
4BB
100
AcDbEntity
  8
1
100
AcDbLine
 10
6.84296
 20
-11.089653
 30
0.0
 11
6.662942
 21
-11.069025
 31
0.0
  0
LINE
  5
115
330
4BB
100
AcDbEntity
  8
1
100
AcDbLine
 10
6.662942
 20
-11.069025
 30
0.0
 11
6.480729
 21
-11.046507
 31
0.0
  0
LINE
  5
116
330
4BB
100
AcDbEntity
  8
1
100
AcDbLine
 10
6.480729
 20
-11.046507
 30
0.0
 11
6.295937999999999
 21
-11.022042
 31
0.0
  0
LINE
  5
117
330
4BB
100
AcDbEntity
  8
1
100
AcDbLine
 10
6.295937999999999
 20
-11.022042
 30
0.0
 11
6.108437
 21
-10.995592
 31
0.0
  0
LINE
  5
118
330
4BB
100
AcDbEntity
  8
1
100
AcDbLine
 10
6.108437
 20
-10.995592
 30
0.0
 11
5.918357
 21
-10.967134
 31
0.0
  0
LINE
  5
119
330
4BB
100
AcDbEntity
  8
1
100
AcDbLine
 10
5.918357
 20
-10.967134
 30
0.0
 11
5.725698
 21
-10.936632
 31
0.0
  0
LINE
  5
11A
330
4BB
100
AcDbEntity
  8
1
100
AcDbLine
 10
2.999155
 20
-13.05
 30
0.0
 11
2.993654
 21
-13.049986
 31
0.0
  0
LINE
  5
11B
330
4BB
100
AcDbEntity
  8
1
100
AcDbLine
 10
2.993654
 20
-13.049986
 30
0.0
 11
2.988170999999999
 21
-13.049944
 31
0.0
  0
LINE
  5
11C
330
4BB
100
AcDbEntity
  8
1
100
AcDbLine
 10
2.988170999999999
 20
-13.049944
 30
0.0
 11
2.982704999999999
 21
-13.049875
 31
0.0
  0
LINE
  5
11D
330
4BB
100
AcDbEntity
  8
1
100
AcDbLine
 10
2.982704999999999
 20
-13.049875
 30
0.0
 11
2.977254999999999
 21
-13.049777
 31
0.0
  0
LINE
  5
11E
330
4BB
100
AcDbEntity
  8
1
100
AcDbLine
 10
2.977254999999999
 20
-13.049777
 30
0.0
 11
2.971823
 21
-13.049652
 31
0.0
  0
LINE
  5
11F
330
4BB
100
AcDbEntity
  8
1
100
AcDbLine
 10
2.971823
 20
-13.049652
 30
0.0
 11
2.966406999999999
 21
-13.049499
 31
0.0
  0
LINE
  5
120
330
4BB
100
AcDbEntity
  8
1
100
AcDbLine
 10
2.966406999999999
 20
-13.049499
 30
0.0
 11
2.961009
 21
-13.049318
 31
0.0
  0
LINE
  5
121
330
4BB
100
AcDbEntity
  8
1
100
AcDbLine
 10
2.961009
 20
-13.049318
 30
0.0
 11
2.955627
 21
-13.04911
 31
0.0
  0
LINE
  5
122
330
4BB
100
AcDbEntity
  8
1
100
AcDbLine
 10
2.955627
 20
-13.04911
 30
0.0
 11
2.950262999999999
 21
-13.048875
 31
0.0
  0
LINE
  5
123
330
4BB
100
AcDbEntity
  8
1
100
AcDbLine
 10
3.057008
 20
-13.04794
 30
0.0
 11
2.999155
 21
-13.05
 31
0.0
  0
LINE
  5
124
330
4BB
100
AcDbEntity
  8
1
100
AcDbLine
 10
9.055747999999999
 20
-8.719547
 30
0.0
 11
9.02846
 21
-8.755668
 31
0.0
  0
LINE
  5
125
330
4BB
100
AcDbEntity
  8
1
100
AcDbLine
 10
9.02846
 20
-8.755668
 30
0.0
 11
9.000752
 21
-8.791449
 31
0.0
  0
LINE
  5
126
330
4BB
100
AcDbEntity
  8
1
100
AcDbLine
 10
9.000752
 20
-8.791449
 30
0.0
 11
8.972627000000001
 21
-8.826888
 31
0.0
  0
LINE
  5
127
330
4BB
100
AcDbEntity
  8
1
100
AcDbLine
 10
8.972627000000001
 20
-8.826888
 30
0.0
 11
8.944074999999999
 21
-8.861997999999999
 31
0.0
  0
LINE
  5
128
330
4BB
100
AcDbEntity
  8
1
100
AcDbLine
 10
8.944074999999999
 20
-8.861997999999999
 30
0.0
 11
8.915108999999999
 21
-8.896772
 31
0.0
  0
LINE
  5
129
330
4BB
100
AcDbEntity
  8
1
100
AcDbLine
 10
8.915108999999999
 20
-8.896772
 30
0.0
 11
8.885761
 21
-8.931191999999999
 31
0.0
  0
LINE
  5
12A
330
4BB
100
AcDbEntity
  8
1
100
AcDbLine
 10
8.885761
 20
-8.931191999999999
 30
0.0
 11
8.856042
 21
-8.965251999999999
 31
0.0
  0
LINE
  5
12B
330
4BB
100
AcDbEntity
  8
1
100
AcDbLine
 10
8.856042
 20
-8.965251999999999
 30
0.0
 11
8.825944999999999
 21
-8.998961999999998
 31
0.0
  0
LINE
  5
12C
330
4BB
100
AcDbEntity
  8
1
100
AcDbLine
 10
8.825944999999999
 20
-8.998961999999998
 30
0.0
 11
8.795471
 21
-9.032322
 31
0.0
  0
LINE
  5
12D
330
4BB
100
AcDbEntity
  8
1
100
AcDbLine
 10
8.795471
 20
-9.032322
 30
0.0
 11
8.781985999999999
 21
-9.058758
 31
0.0
  0
LINE
  5
12E
330
4BB
100
AcDbEntity
  8
1
100
AcDbLine
 10
8.781985999999999
 20
-9.058758
 30
0.0
 11
8.767036
 21
-9.085727999999999
 31
0.0
  0
LINE
  5
12F
330
4BB
100
AcDbEntity
  8
1
100
AcDbLine
 10
8.767036
 20
-9.085727999999999
 30
0.0
 11
8.750591
 21
-9.113182999999999
 31
0.0
  0
LINE
  5
130
330
4BB
100
AcDbEntity
  8
1
100
AcDbLine
 10
8.750591
 20
-9.113182999999999
 30
0.0
 11
8.732603999999998
 21
-9.141109
 31
0.0
  0
LINE
  5
131
330
4BB
100
AcDbEntity
  8
1
100
AcDbLine
 10
8.732603999999998
 20
-9.141109
 30
0.0
 11
8.713057
 21
-9.169406
 31
0.0
  0
LINE
  5
132
330
4BB
100
AcDbEntity
  8
1
100
AcDbLine
 10
8.713057
 20
-9.169406
 30
0.0
 11
8.691971
 21
-9.197891
 31
0.0
  0
LINE
  5
133
330
4BB
100
AcDbEntity
  8
1
100
AcDbLine
 10
8.691971
 20
-9.197891
 30
0.0
 11
8.669325999999999
 21
-9.226494
 31
0.0
  0
LINE
  5
134
330
4BB
100
AcDbEntity
  8
1
100
AcDbLine
 10
8.669325999999999
 20
-9.226494
 30
0.0
 11
8.645097999999999
 21
-9.255172999999999
 31
0.0
  0
LINE
  5
135
330
4BB
100
AcDbEntity
  8
1
100
AcDbLine
 10
8.645097999999999
 20
-9.255172999999999
 30
0.0
 11
8.619324
 21
-9.283803
 31
0.0
  0
LINE
  5
136
330
4BB
100
AcDbEntity
  8
1
100
AcDbLine
 10
8.619324
 20
-9.283803
 30
0.0
 11
8.592002
 21
-9.312302999999999
 31
0.0
  0
LINE
  5
137
330
4BB
100
AcDbEntity
  8
1
100
AcDbLine
 10
8.592002
 20
-9.312302999999999
 30
0.0
 11
8.563102999999999
 21
-9.340638999999999
 31
0.0
  0
LINE
  5
138
330
4BB
100
AcDbEntity
  8
1
100
AcDbLine
 10
8.563102999999999
 20
-9.340638999999999
 30
0.0
 11
8.532619999999999
 21
-9.368757
 31
0.0
  0
LINE
  5
139
330
4BB
100
AcDbEntity
  8
1
100
AcDbLine
 10
8.532619999999999
 20
-9.368757
 30
0.0
 11
8.500507999999999
 21
-9.396613999999999
 31
0.0
  0
LINE
  5
13A
330
4BB
100
AcDbEntity
  8
1
100
AcDbLine
 10
8.500507999999999
 20
-9.396613999999999
 30
0.0
 11
8.466787
 21
-9.424119000000001
 31
0.0
  0
LINE
  5
13B
330
4BB
100
AcDbEntity
  8
1
100
AcDbLine
 10
8.466787
 20
-9.424119000000001
 30
0.0
 11
8.431546
 21
-9.45115
 31
0.0
  0
LINE
  5
13C
330
4BB
100
AcDbEntity
  8
1
100
AcDbLine
 10
8.431546
 20
-9.45115
 30
0.0
 11
8.394769999999999
 21
-9.477641
 31
0.0
  0
LINE
  5
13D
330
4BB
100
AcDbEntity
  8
1
100
AcDbLine
 10
8.394769999999999
 20
-9.477641
 30
0.0
 11
8.356466000000001
 21
-9.503524
 31
0.0
  0
LINE
  5
13E
330
4BB
100
AcDbEntity
  8
1
100
AcDbLine
 10
8.356466000000001
 20
-9.503524
 30
0.0
 11
8.316762999999999
 21
-9.528669
 31
0.0
  0
LINE
  5
13F
330
4BB
100
AcDbEntity
  8
1
100
AcDbLine
 10
8.316762999999999
 20
-9.528669
 30
0.0
 11
8.275600999999999
 21
-9.553044999999999
 31
0.0
  0
LINE
  5
140
330
4BB
100
AcDbEntity
  8
1
100
AcDbLine
 10
8.275600999999999
 20
-9.553044999999999
 30
0.0
 11
8.233048
 21
-9.576551
 31
0.0
  0
LINE
  5
141
330
4BB
100
AcDbEntity
  8
1
100
AcDbLine
 10
8.233048
 20
-9.576551
 30
0.0
 11
8.189442999999998
 21
-9.598971
 31
0.0
  0
LINE
  5
142
330
4BB
100
AcDbEntity
  8
1
100
AcDbLine
 10
8.189442999999998
 20
-9.598971
 30
0.0
 11
8.144828
 21
-9.620250999999999
 31
0.0
  0
LINE
  5
143
330
4BB
100
AcDbEntity
  8
1
100
AcDbLine
 10
8.144828
 20
-9.620250999999999
 30
0.0
 11
8.099199999999999
 21
-9.640361
 31
0.0
  0
LINE
  5
144
330
4BB
100
AcDbEntity
  8
1
100
AcDbLine
 10
8.099199999999999
 20
-9.640361
 30
0.0
 11
8.052846999999999
 21
-9.659162
 31
0.0
  0
LINE
  5
145
330
4BB
100
AcDbEntity
  8
1
100
AcDbLine
 10
8.052846999999999
 20
-9.659162
 30
0.0
 11
8.00651
 21
-9.676375999999999
 31
0.0
  0
LINE
  5
146
330
4BB
100
AcDbEntity
  8
1
100
AcDbLine
 10
9.457487
 20
-7.820350999999999
 30
0.0
 11
9.457067
 21
-7.842957000000001
 31
0.0
  0
LINE
  5
147
330
4BB
100
AcDbEntity
  8
1
100
AcDbLine
 10
9.457067
 20
-7.842957000000001
 30
0.0
 11
9.455735999999999
 21
-7.866274999999999
 31
0.0
  0
LINE
  5
148
330
4BB
100
AcDbEntity
  8
1
100
AcDbLine
 10
9.455735999999999
 20
-7.866274999999999
 30
0.0
 11
9.453492999999999
 21
-7.890308
 31
0.0
  0
LINE
  5
149
330
4BB
100
AcDbEntity
  8
1
100
AcDbLine
 10
9.453492999999999
 20
-7.890308
 30
0.0
 11
9.450361
 21
-7.915060999999999
 31
0.0
  0
LINE
  5
14A
330
4BB
100
AcDbEntity
  8
1
100
AcDbLine
 10
9.450361
 20
-7.915060999999999
 30
0.0
 11
9.446317
 21
-7.940536999999999
 31
0.0
  0
LINE
  5
14B
330
4BB
100
AcDbEntity
  8
1
100
AcDbLine
 10
9.446317
 20
-7.940536999999999
 30
0.0
 11
9.441296000000001
 21
-7.966738
 31
0.0
  0
LINE
  5
14C
330
4BB
100
AcDbEntity
  8
1
100
AcDbLine
 10
9.441296000000001
 20
-7.966738
 30
0.0
 11
9.435296000000001
 21
-7.993671
 31
0.0
  0
LINE
  5
14D
330
4BB
100
AcDbEntity
  8
1
100
AcDbLine
 10
9.435296000000001
 20
-7.993671
 30
0.0
 11
9.428319
 21
-8.021338
 31
0.0
  0
LINE
  5
14E
330
4BB
100
AcDbEntity
  8
1
100
AcDbLine
 10
9.428319
 20
-8.021338
 30
0.0
 11
9.420302000000001
 21
-8.049741
 31
0.0
  0
LINE
  5
14F
330
4BB
100
AcDbEntity
  8
1
100
AcDbLine
 10
9.420302000000001
 20
-8.049741
 30
0.0
 11
9.411267
 21
-8.078839999999999
 31
0.0
  0
LINE
  5
150
330
4BB
100
AcDbEntity
  8
1
100
AcDbLine
 10
9.411267
 20
-8.078839999999999
 30
0.0
 11
9.401191999999999
 21
-8.108685000000001
 31
0.0
  0
LINE
  5
151
330
4BB
100
AcDbEntity
  8
1
100
AcDbLine
 10
9.401191999999999
 20
-8.108685000000001
 30
0.0
 11
9.38995
 21
-8.139419
 31
0.0
  0
LINE
  5
152
330
4BB
100
AcDbEntity
  8
1
100
AcDbLine
 10
9.38995
 20
-8.139419
 30
0.0
 11
9.377542999999999
 21
-8.171075999999999
 31
0.0
  0
LINE
  5
153
330
4BB
100
AcDbEntity
  8
1
100
AcDbLine
 10
9.377542999999999
 20
-8.171075999999999
 30
0.0
 11
9.36397
 21
-8.203637999999999
 31
0.0
  0
LINE
  5
154
330
4BB
100
AcDbEntity
  8
1
100
AcDbLine
 10
9.36397
 20
-8.203637999999999
 30
0.0
 11
9.349100999999999
 21
-8.237160000000001
 31
0.0
  0
LINE
  5
155
330
4BB
100
AcDbEntity
  8
1
100
AcDbLine
 10
9.349100999999999
 20
-8.237160000000001
 30
0.0
 11
9.332933999999999
 21
-8.27167
 31
0.0
  0
LINE
  5
156
330
4BB
100
AcDbEntity
  8
1
100
AcDbLine
 10
9.332933999999999
 20
-8.27167
 30
0.0
 11
9.315472999999999
 21
-8.307161
 31
0.0
  0
LINE
  5
157
330
4BB
100
AcDbEntity
  8
1
100
AcDbLine
 10
9.315472999999999
 20
-8.307161
 30
0.0
 11
9.296588999999999
 21
-8.343638
 31
0.0
  0
LINE
  5
158
330
4BB
100
AcDbEntity
  8
1
100
AcDbLine
 10
9.296588999999999
 20
-8.343638
 30
0.0
 11
9.276303999999999
 21
-8.381097999999999
 31
0.0
  0
LINE
  5
159
330
4BB
100
AcDbEntity
  8
1
100
AcDbLine
 10
9.276303999999999
 20
-8.381097999999999
 30
0.0
 11
9.254599999999999
 21
-8.41957
 31
0.0
  0
LINE
  5
15A
330
4BB
100
AcDbEntity
  8
1
100
AcDbLine
 10
9.254599999999999
 20
-8.41957
 30
0.0
 11
9.231292999999999
 21
-8.459103999999999
 31
0.0
  0
LINE
  5
15B
330
4BB
100
AcDbEntity
  8
1
100
AcDbLine
 10
9.231292999999999
 20
-8.459103999999999
 30
0.0
 11
9.206392999999998
 21
-8.499736999999999
 31
0.0
  0
LINE
  5
15C
330
4BB
100
AcDbEntity
  8
1
100
AcDbLine
 10
9.206392999999998
 20
-8.499736999999999
 30
0.0
 11
9.179896000000001
 21
-8.541466999999999
 31
0.0
  0
LINE
  5
15D
330
4BB
100
AcDbEntity
  8
1
100
AcDbLine
 10
9.179896000000001
 20
-8.541466999999999
 30
0.0
 11
9.151597999999999
 21
-8.584292999999998
 31
0.0
  0
LINE
  5
15E
330
4BB
100
AcDbEntity
  8
1
100
AcDbLine
 10
9.151597999999999
 20
-8.584292999999998
 30
0.0
 11
9.121435999999999
 21
-8.62823
 31
0.0
  0
LINE
  5
15F
330
4BB
100
AcDbEntity
  8
1
100
AcDbLine
 10
9.121435999999999
 20
-8.62823
 30
0.0
 11
9.089483999999998
 21
-8.673308
 31
0.0
  0
LINE
  5
160
330
4BB
100
AcDbEntity
  8
1
100
AcDbLine
 10
9.089483999999998
 20
-8.673308
 30
0.0
 11
9.055747999999999
 21
-8.719547
 31
0.0
  0
LINE
  5
161
330
4BB
100
AcDbEntity
  8
1
100
AcDbLine
 10
8.391548
 20
-13.007154
 30
0.0
 11
8.391548
 21
-12.869506
 31
0.0
  0
LINE
  5
162
330
4BB
100
AcDbEntity
  8
1
100
AcDbLine
 10
9.745649999999999
 20
-8.684414999999999
 30
0.0
 11
9.586565999999999
 21
-8.736086
 31
0.0
  0
LINE
  5
163
330
4BB
100
AcDbEntity
  8
1
100
AcDbLine
 10
9.586565999999999
 20
-8.736086
 30
0.0
 11
9.427605999999999
 21
-8.790341999999998
 31
0.0
  0
LINE
  5
164
330
4BB
100
AcDbEntity
  8
1
100
AcDbLine
 10
9.427605999999999
 20
-8.790341999999998
 30
0.0
 11
9.268893999999999
 21
-8.847137
 31
0.0
  0
LINE
  5
165
330
4BB
100
AcDbEntity
  8
1
100
AcDbLine
 10
9.268893999999999
 20
-8.847137
 30
0.0
 11
9.110552
 21
-8.906430999999999
 31
0.0
  0
LINE
  5
166
330
4BB
100
AcDbEntity
  8
1
100
AcDbLine
 10
9.110552
 20
-8.906430999999999
 30
0.0
 11
8.952702999999999
 21
-8.968175
 31
0.0
  0
LINE
  5
167
330
4BB
100
AcDbEntity
  8
1
100
AcDbLine
 10
8.952702999999999
 20
-8.968175
 30
0.0
 11
8.795471
 21
-9.032322
 31
0.0
  0
LINE
  5
168
330
4BB
100
AcDbEntity
  8
1
100
AcDbLine
 10
8.00651
 20
-9.676375999999999
 30
0.0
 11
7.958097
 21
-9.692732000000001
 31
0.0
  0
LINE
  5
169
330
4BB
100
AcDbEntity
  8
1
100
AcDbLine
 10
7.958097
 20
-9.692732000000001
 30
0.0
 11
7.909988
 21
-9.707386999999998
 31
0.0
  0
LINE
  5
16A
330
4BB
100
AcDbEntity
  8
1
100
AcDbLine
 10
7.909988
 20
-9.707386999999998
 30
0.0
 11
7.861527
 21
-9.720577
 31
0.0
  0
LINE
  5
16B
330
4BB
100
AcDbEntity
  8
1
100
AcDbLine
 10
7.861527
 20
-9.720577
 30
0.0
 11
7.812732
 21
-9.732305
 31
0.0
  0
LINE
  5
16C
330
4BB
100
AcDbEntity
  8
1
100
AcDbLine
 10
7.812732
 20
-9.732305
 30
0.0
 11
7.76383
 21
-9.742516999999999
 31
0.0
  0
LINE
  5
16D
330
4BB
100
AcDbEntity
  8
1
100
AcDbLine
 10
7.76383
 20
-9.742516999999999
 30
0.0
 11
7.714889
 21
-9.751211999999998
 31
0.0
  0
LINE
  5
16E
330
4BB
100
AcDbEntity
  8
1
100
AcDbLine
 10
7.714889
 20
-9.751211999999998
 30
0.0
 11
7.665911
 21
-9.758413
 31
0.0
  0
LINE
  5
16F
330
4BB
100
AcDbEntity
  8
1
100
AcDbLine
 10
7.665911
 20
-9.758413
 30
0.0
 11
7.617021
 21
-9.764102000000001
 31
0.0
  0
LINE
  5
170
330
4BB
100
AcDbEntity
  8
1
100
AcDbLine
 10
7.617021
 20
-9.764102000000001
 30
0.0
 11
7.568250999999999
 21
-9.768294
 31
0.0
  0
LINE
  5
171
330
4BB
100
AcDbEntity
  8
1
100
AcDbLine
 10
7.568250999999999
 20
-9.768294
 30
0.0
 11
7.519638999999999
 21
-9.771008999999999
 31
0.0
  0
LINE
  5
172
330
4BB
100
AcDbEntity
  8
1
100
AcDbLine
 10
7.519638999999999
 20
-9.771008999999999
 30
0.0
 11
7.471324
 21
-9.772241000000001
 31
0.0
  0
LINE
  5
173
330
4BB
100
AcDbEntity
  8
1
100
AcDbLine
 10
7.471324
 20
-9.772241000000001
 30
0.0
 11
7.423372
 21
-9.772007999999999
 31
0.0
  0
LINE
  5
174
330
4BB
100
AcDbEntity
  8
1
100
AcDbLine
 10
7.423372
 20
-9.772007999999999
 30
0.0
 11
7.375783999999999
 21
-9.770344999999998
 31
0.0
  0
LINE
  5
175
330
4BB
100
AcDbEntity
  8
1
100
AcDbLine
 10
7.375783999999999
 20
-9.770344999999998
 30
0.0
 11
7.328591
 21
-9.767283
 31
0.0
  0
LINE
  5
176
330
4BB
100
AcDbEntity
  8
1
100
AcDbLine
 10
9.365244
 20
-7.543761999999999
 30
0.0
 11
9.376412
 21
-7.557733999999999
 31
0.0
  0
LINE
  5
177
330
4BB
100
AcDbEntity
  8
1
100
AcDbLine
 10
9.376412
 20
-7.557733999999999
 30
0.0
 11
9.386886999999999
 21
-7.57223
 31
0.0
  0
LINE
  5
178
330
4BB
100
AcDbEntity
  8
1
100
AcDbLine
 10
9.386886999999999
 20
-7.57223
 30
0.0
 11
9.396668
 21
-7.587247
 31
0.0
  0
LINE
  5
179
330
4BB
100
AcDbEntity
  8
1
100
AcDbLine
 10
9.396668
 20
-7.587247
 30
0.0
 11
9.405756
 21
-7.60275
 31
0.0
  0
LINE
  5
17A
330
4BB
100
AcDbEntity
  8
1
100
AcDbLine
 10
9.405756
 20
-7.60275
 30
0.0
 11
9.414150999999998
 21
-7.618775999999999
 31
0.0
  0
LINE
  5
17B
330
4BB
100
AcDbEntity
  8
1
100
AcDbLine
 10
9.414150999999998
 20
-7.618775999999999
 30
0.0
 11
9.421856
 21
-7.635438999999999
 31
0.0
  0
LINE
  5
17C
330
4BB
100
AcDbEntity
  8
1
100
AcDbLine
 10
9.421856
 20
-7.635438999999999
 30
0.0
 11
9.428891999999999
 21
-7.652727
 31
0.0
  0
LINE
  5
17D
330
4BB
100
AcDbEntity
  8
1
100
AcDbLine
 10
9.428891999999999
 20
-7.652727
 30
0.0
 11
9.435238999999999
 21
-7.670652
 31
0.0
  0
LINE
  5
17E
330
4BB
100
AcDbEntity
  8
1
100
AcDbLine
 10
9.435238999999999
 20
-7.670652
 30
0.0
 11
9.440839
 21
-7.689372
 31
0.0
  0
LINE
  5
17F
330
4BB
100
AcDbEntity
  8
1
100
AcDbLine
 10
9.440839
 20
-7.689372
 30
0.0
 11
9.445717
 21
-7.708878999999999
 31
0.0
  0
LINE
  5
180
330
4BB
100
AcDbEntity
  8
1
100
AcDbLine
 10
9.445717
 20
-7.708878999999999
 30
0.0
 11
9.449849
 21
-7.72918
 31
0.0
  0
LINE
  5
181
330
4BB
100
AcDbEntity
  8
1
100
AcDbLine
 10
9.449849
 20
-7.72918
 30
0.0
 11
9.453103999999999
 21
-7.75046
 31
0.0
  0
LINE
  5
182
330
4BB
100
AcDbEntity
  8
1
100
AcDbLine
 10
9.453103999999999
 20
-7.75046
 30
0.0
 11
9.455441
 21
-7.772778999999998
 31
0.0
  0
LINE
  5
183
330
4BB
100
AcDbEntity
  8
1
100
AcDbLine
 10
9.455441
 20
-7.772778999999998
 30
0.0
 11
9.456902000000001
 21
-7.796075999999999
 31
0.0
  0
LINE
  5
184
330
4BB
100
AcDbEntity
  8
1
100
AcDbLine
 10
9.456902000000001
 20
-7.796075999999999
 30
0.0
 11
9.457487
 21
-7.820350999999999
 31
0.0
  0
LINE
  5
185
330
4BB
100
AcDbEntity
  8
1
100
AcDbLine
 10
7.328591
 20
-9.767283
 30
0.0
 11
7.305813
 21
-9.758625
 31
0.0
  0
LINE
  5
186
330
4BB
100
AcDbEntity
  8
1
100
AcDbLine
 10
7.305813
 20
-9.758625
 30
0.0
 11
7.283682
 21
-9.748974
 31
0.0
  0
LINE
  5
187
330
4BB
100
AcDbEntity
  8
1
100
AcDbLine
 10
7.283682
 20
-9.748974
 30
0.0
 11
7.262196
 21
-9.738325999999998
 31
0.0
  0
LINE
  5
188
330
4BB
100
AcDbEntity
  8
1
100
AcDbLine
 10
7.262196
 20
-9.738325999999998
 30
0.0
 11
7.241336999999999
 21
-9.726661
 31
0.0
  0
LINE
  5
189
330
4BB
100
AcDbEntity
  8
1
100
AcDbLine
 10
7.241336999999999
 20
-9.726661
 30
0.0
 11
7.221116999999999
 21
-9.713992999999998
 31
0.0
  0
LINE
  5
18A
330
4BB
100
AcDbEntity
  8
1
100
AcDbLine
 10
7.221116999999999
 20
-9.713992999999998
 30
0.0
 11
7.201574
 21
-9.700369999999999
 31
0.0
  0
LINE
  5
18B
330
4BB
100
AcDbEntity
  8
1
100
AcDbLine
 10
7.201574
 20
-9.700369999999999
 30
0.0
 11
7.182727
 21
-9.685813000000001
 31
0.0
  0
LINE
  5
18C
330
4BB
100
AcDbEntity
  8
1
100
AcDbLine
 10
7.182727
 20
-9.685813000000001
 30
0.0
 11
7.164552
 21
-9.670296
 31
0.0
  0
LINE
  5
18D
330
4BB
100
AcDbEntity
  8
1
100
AcDbLine
 10
7.164552
 20
-9.670296
 30
0.0
 11
7.147028999999998
 21
-9.653799000000001
 31
0.0
  0
LINE
  5
18E
330
4BB
100
AcDbEntity
  8
1
100
AcDbLine
 10
7.147028999999998
 20
-9.653799000000001
 30
0.0
 11
7.130130999999999
 21
-9.636305999999999
 31
0.0
  0
LINE
  5
18F
330
4BB
100
AcDbEntity
  8
1
100
AcDbLine
 10
7.130130999999999
 20
-9.636305999999999
 30
0.0
 11
7.113878999999998
 21
-9.617827999999999
 31
0.0
  0
LINE
  5
190
330
4BB
100
AcDbEntity
  8
1
100
AcDbLine
 10
7.113878999999998
 20
-9.617827999999999
 30
0.0
 11
7.09833
 21
-9.598386999999998
 31
0.0
  0
LINE
  5
191
330
4BB
100
AcDbEntity
  8
1
100
AcDbLine
 10
7.09833
 20
-9.598386999999998
 30
0.0
 11
7.083483
 21
-9.577989
 31
0.0
  0
LINE
  5
192
330
4BB
100
AcDbEntity
  8
1
100
AcDbLine
 10
7.083483
 20
-9.577989
 30
0.0
 11
7.069335
 21
-9.556625999999999
 31
0.0
  0
LINE
  5
193
330
4BB
100
AcDbEntity
  8
1
100
AcDbLine
 10
7.069335
 20
-9.556625999999999
 30
0.0
 11
7.055933
 21
-9.534305999999999
 31
0.0
  0
LINE
  5
194
330
4BB
100
AcDbEntity
  8
1
100
AcDbLine
 10
7.055933
 20
-9.534305999999999
 30
0.0
 11
7.043277999999999
 21
-9.511046
 31
0.0
  0
LINE
  5
195
330
4BB
100
AcDbEntity
  8
1
100
AcDbLine
 10
7.043277999999999
 20
-9.511046
 30
0.0
 11
7.031367999999999
 21
-9.486825999999998
 31
0.0
  0
LINE
  5
196
330
4BB
100
AcDbEntity
  8
1
100
AcDbLine
 10
7.031367999999999
 20
-9.486825999999998
 30
0.0
 11
7.020243999999999
 21
-9.461594999999999
 31
0.0
  0
LINE
  5
197
330
4BB
100
AcDbEntity
  8
1
100
AcDbLine
 10
7.020243999999999
 20
-9.461594999999999
 30
0.0
 11
7.009888
 21
-9.435313999999999
 31
0.0
  0
LINE
  5
198
330
4BB
100
AcDbEntity
  8
1
100
AcDbLine
 10
7.009888
 20
-9.435313999999999
 30
0.0
 11
7.000319
 21
-9.408021000000001
 31
0.0
  0
LINE
  5
199
330
4BB
100
AcDbEntity
  8
1
100
AcDbLine
 10
7.000319
 20
-9.408021000000001
 30
0.0
 11
6.991635999999999
 21
-9.379782
 31
0.0
  0
LINE
  5
19A
330
4BB
100
AcDbEntity
  8
1
100
AcDbLine
 10
6.991635999999999
 20
-9.379782
 30
0.0
 11
6.983846999999999
 21
-9.350619
 31
0.0
  0
LINE
  5
19B
330
4BB
100
AcDbEntity
  8
1
100
AcDbLine
 10
6.983846999999999
 20
-9.350619
 30
0.0
 11
6.976946
 21
-9.32051
 31
0.0
  0
LINE
  5
19C
330
4BB
100
AcDbEntity
  8
1
100
AcDbLine
 10
6.976946
 20
-9.32051
 30
0.0
 11
6.971013
 21
-9.289462999999999
 31
0.0
  0
LINE
  5
19D
330
4BB
100
AcDbEntity
  8
1
100
AcDbLine
 10
6.971013
 20
-9.289462999999999
 30
0.0
 11
6.966042999999999
 21
-9.257480000000001
 31
0.0
  0
LINE
  5
19E
330
4BB
100
AcDbEntity
  8
1
100
AcDbLine
 10
6.966042999999999
 20
-9.257480000000001
 30
0.0
 11
6.962044
 21
-9.224560999999999
 31
0.0
  0
LINE
  5
19F
330
4BB
100
AcDbEntity
  8
1
100
AcDbLine
 10
6.962044
 20
-9.224560999999999
 30
0.0
 11
6.959111999999999
 21
-9.190706
 31
0.0
  0
LINE
  5
1A0
330
4BB
100
AcDbEntity
  8
1
100
AcDbLine
 10
6.959111999999999
 20
-9.190706
 30
0.0
 11
6.957244999999999
 21
-9.155878999999998
 31
0.0
  0
LINE
  5
1A1
330
4BB
100
AcDbEntity
  8
1
100
AcDbLine
 10
6.957244999999999
 20
-9.155878999999998
 30
0.0
 11
6.95645
 21
-9.12012
 31
0.0
  0
LINE
  5
1A2
330
4BB
100
AcDbEntity
  8
1
100
AcDbLine
 10
6.95645
 20
-9.12012
 30
0.0
 11
6.95683
 21
-9.083530999999998
 31
0.0
  0
LINE
  5
1A3
330
4BB
100
AcDbEntity
  8
1
100
AcDbLine
 10
6.95683
 20
-9.083530999999998
 30
0.0
 11
6.958388
 21
-9.046153
 31
0.0
  0
LINE
  5
1A4
330
4BB
100
AcDbEntity
  8
1
100
AcDbLine
 10
6.958388
 20
-9.046153
 30
0.0
 11
6.961128999999999
 21
-9.007953999999999
 31
0.0
  0
LINE
  5
1A5
330
4BB
100
AcDbEntity
  8
1
100
AcDbLine
 10
6.961128999999999
 20
-9.007953999999999
 30
0.0
 11
6.965167
 21
-8.968933999999999
 31
0.0
  0
LINE
  5
1A6
330
4BB
100
AcDbEntity
  8
1
100
AcDbLine
 10
6.965167
 20
-8.968933999999999
 30
0.0
 11
6.970511
 21
-8.929054999999999
 31
0.0
  0
LINE
  5
1A7
330
4BB
100
AcDbEntity
  8
1
100
AcDbLine
 10
6.970511
 20
-8.929054999999999
 30
0.0
 11
6.977161999999999
 21
-8.888367
 31
0.0
  0
LINE
  5
1A8
330
4BB
100
AcDbEntity
  8
1
100
AcDbLine
 10
6.977161999999999
 20
-8.888367
 30
0.0
 11
6.985224
 21
-8.847011
 31
0.0
  0
LINE
  5
1A9
330
4BB
100
AcDbEntity
  8
1
100
AcDbLine
 10
6.985224
 20
-8.847011
 30
0.0
 11
6.994700999999999
 21
-8.805011999999999
 31
0.0
  0
LINE
  5
1AA
330
4BB
100
AcDbEntity
  8
1
100
AcDbLine
 10
6.994700999999999
 20
-8.805011999999999
 30
0.0
 11
7.005600999999999
 21
-8.762356
 31
0.0
  0
LINE
  5
1AB
330
4BB
100
AcDbEntity
  8
1
100
AcDbLine
 10
7.005600999999999
 20
-8.762356
 30
0.0
 11
7.018032999999999
 21
-8.719144
 31
0.0
  0
LINE
  5
1AC
330
4BB
100
AcDbEntity
  8
1
100
AcDbLine
 10
7.018032999999999
 20
-8.719144
 30
0.0
 11
7.032007000000001
 21
-8.675368999999999
 31
0.0
  0
LINE
  5
1AD
330
4BB
100
AcDbEntity
  8
1
100
AcDbLine
 10
7.032007000000001
 20
-8.675368999999999
 30
0.0
 11
7.047528999999999
 21
-8.631052999999999
 31
0.0
  0
LINE
  5
1AE
330
4BB
100
AcDbEntity
  8
1
100
AcDbLine
 10
7.047528999999999
 20
-8.631052999999999
 30
0.0
 11
7.064697999999999
 21
-8.586327
 31
0.0
  0
LINE
  5
1AF
330
4BB
100
AcDbEntity
  8
1
100
AcDbLine
 10
7.064697999999999
 20
-8.586327
 30
0.0
 11
7.083553999999999
 21
-8.541242999999999
 31
0.0
  0
LINE
  5
1B0
330
4BB
100
AcDbEntity
  8
1
100
AcDbLine
 10
7.083553999999999
 20
-8.541242999999999
 30
0.0
 11
7.104077
 21
-8.495772
 31
0.0
  0
LINE
  5
1B1
330
4BB
100
AcDbEntity
  8
1
100
AcDbLine
 10
7.104077
 20
-8.495772
 30
0.0
 11
7.126276999999999
 21
-8.449925
 31
0.0
  0
LINE
  5
1B2
330
4BB
100
AcDbEntity
  8
1
100
AcDbLine
 10
9.015544999999999
 20
-13.309114
 30
0.0
 11
8.990914999999999
 21
-13.303959
 31
0.0
  0
LINE
  5
1B3
330
4BB
100
AcDbEntity
  8
1
100
AcDbLine
 10
8.990914999999999
 20
-13.303959
 30
0.0
 11
8.904589999999998
 21
-13.281563
 31
0.0
  0
LINE
  5
1B4
330
4BB
100
AcDbEntity
  8
1
100
AcDbLine
 10
8.904589999999998
 20
-13.281563
 30
0.0
 11
8.818394999999998
 21
-13.252449
 31
0.0
  0
LINE
  5
1B5
330
4BB
100
AcDbEntity
  8
1
100
AcDbLine
 10
8.818394999999998
 20
-13.252449
 30
0.0
 11
8.732374999999999
 21
-13.216639
 31
0.0
  0
LINE
  5
1B6
330
4BB
100
AcDbEntity
  8
1
100
AcDbLine
 10
8.732374999999999
 20
-13.216639
 30
0.0
 11
8.646666999999998
 21
-13.174199
 31
0.0
  0
LINE
  5
1B7
330
4BB
100
AcDbEntity
  8
1
100
AcDbLine
 10
8.646666999999998
 20
-13.174199
 30
0.0
 11
8.561315999999999
 21
-13.125149
 31
0.0
  0
LINE
  5
1B8
330
4BB
100
AcDbEntity
  8
1
100
AcDbLine
 10
8.561315999999999
 20
-13.125149
 30
0.0
 11
8.476275999999998
 21
-13.069467
 31
0.0
  0
LINE
  5
1B9
330
4BB
100
AcDbEntity
  8
1
100
AcDbLine
 10
8.476275999999998
 20
-13.069467
 30
0.0
 11
8.391548
 21
-13.007154
 31
0.0
  0
LINE
  5
1BA
330
4BB
100
AcDbEntity
  8
1
100
AcDbLine
 10
9.977783
 20
-13.5
 30
0.0
 11
9.015738
 21
-13.309161
 31
0.0
  0
LINE
  5
1BB
330
4BB
100
AcDbEntity
  8
1
100
AcDbLine
 10
8.391548
 20
-13.007154
 30
0.0
 11
8.611062999999999
 21
-13.037758
 31
0.0
  0
LINE
  5
1BC
330
4BB
100
AcDbEntity
  8
1
100
AcDbLine
 10
9.01012
 20
-4.348208999999999
 30
0.0
 11
8.262007999999999
 21
-4.608975
 31
0.0
  0
LINE
  5
1BD
330
4BB
100
AcDbEntity
  8
1
100
AcDbLine
 10
8.262007999999999
 20
-4.608975
 30
0.0
 11
7.510599
 21
-4.867878
 31
0.0
  0
LINE
  5
1BE
330
4BB
100
AcDbEntity
  8
1
100
AcDbLine
 10
7.510599
 20
-4.867878
 30
0.0
 11
6.75583
 21
-5.124929999999999
 31
0.0
  0
LINE
  5
1BF
330
4BB
100
AcDbEntity
  8
1
100
AcDbLine
 10
6.75583
 20
-5.124929999999999
 30
0.0
 11
5.997762999999999
 21
-5.380119999999999
 31
0.0
  0
LINE
  5
1C0
330
4BB
100
AcDbEntity
  8
1
100
AcDbLine
 10
5.997762999999999
 20
-5.380119999999999
 30
0.0
 11
5.238012
 21
-5.632880999999999
 31
0.0
  0
LINE
  5
1C1
330
4BB
100
AcDbEntity
  8
1
100
AcDbLine
 10
5.238012
 20
-5.632880999999999
 30
0.0
 11
4.477113
 21
-5.883021
 31
0.0
  0
LINE
  5
1C2
330
4BB
100
AcDbEntity
  8
1
100
AcDbLine
 10
4.477113
 20
-5.883021
 30
0.0
 11
3.71453
 21
-6.130730999999999
 31
0.0
  0
LINE
  5
1C3
330
4BB
100
AcDbEntity
  8
1
100
AcDbLine
 10
3.71453
 20
-6.130730999999999
 30
0.0
 11
2.950262999999999
 21
-6.376012999999999
 31
0.0
  0
LINE
  5
1C4
330
4BB
100
AcDbEntity
  8
1
100
AcDbLine
 10
9.964089999999998
 20
-6.604189999999999
 30
0.0
 11
9.964089999999998
 21
-6.940033
 31
0.0
  0
LINE
  5
1C5
330
4BB
100
AcDbEntity
  8
1
100
AcDbLine
 10
8.611062999999999
 20
-4.578458999999999
 30
0.0
 11
8.625922
 21
-4.682606999999999
 31
0.0
  0
LINE
  5
1C6
330
4BB
100
AcDbEntity
  8
1
100
AcDbLine
 10
8.625922
 20
-4.682606999999999
 30
0.0
 11
8.645412
 21
-4.786192999999999
 31
0.0
  0
LINE
  5
1C7
330
4BB
100
AcDbEntity
  8
1
100
AcDbLine
 10
8.645412
 20
-4.786192999999999
 30
0.0
 11
8.669534999999999
 21
-4.889237999999999
 31
0.0
  0
LINE
  5
1C8
330
4BB
100
AcDbEntity
  8
1
100
AcDbLine
 10
8.669534999999999
 20
-4.889237999999999
 30
0.0
 11
8.698199
 21
-4.991851
 31
0.0
  0
LINE
  5
1C9
330
4BB
100
AcDbEntity
  8
1
100
AcDbLine
 10
8.698199
 20
-4.991851
 30
0.0
 11
8.731494999999998
 21
-5.093958999999999
 31
0.0
  0
LINE
  5
1CA
330
4BB
100
AcDbEntity
  8
1
100
AcDbLine
 10
8.731494999999998
 20
-5.093958999999999
 30
0.0
 11
8.769693
 21
-5.195312
 31
0.0
  0
LINE
  5
1CB
330
4BB
100
AcDbEntity
  8
1
100
AcDbLine
 10
8.769693
 20
-5.195312
 30
0.0
 11
8.812863999999999
 21
-5.295983
 31
0.0
  0
LINE
  5
1CC
330
4BB
100
AcDbEntity
  8
1
100
AcDbLine
 10
8.812863999999999
 20
-5.295983
 30
0.0
 11
8.860936999999999
 21
-5.39594
 31
0.0
  0
LINE
  5
1CD
330
4BB
100
AcDbEntity
  8
1
100
AcDbLine
 10
8.860936999999999
 20
-5.39594
 30
0.0
 11
8.913975999999999
 21
-5.494787
 31
0.0
  0
LINE
  5
1CE
330
4BB
100
AcDbEntity
  8
1
100
AcDbLine
 10
8.913975999999999
 20
-5.494787
 30
0.0
 11
8.971944
 21
-5.592422
 31
0.0
  0
LINE
  5
1CF
330
4BB
100
AcDbEntity
  8
1
100
AcDbLine
 10
8.971944
 20
-5.592422
 30
0.0
 11
9.034877999999999
 21
-5.688998
 31
0.0
  0
LINE
  5
1D0
330
4BB
100
AcDbEntity
  8
1
100
AcDbLine
 10
9.034877999999999
 20
-5.688998
 30
0.0
 11
9.102950999999999
 21
-5.784488999999999
 31
0.0
  0
LINE
  5
1D1
330
4BB
100
AcDbEntity
  8
1
100
AcDbLine
 10
9.102950999999999
 20
-5.784488999999999
 30
0.0
 11
9.176031
 21
-5.878810999999999
 31
0.0
  0
LINE
  5
1D2
330
4BB
100
AcDbEntity
  8
1
100
AcDbLine
 10
9.176031
 20
-5.878810999999999
 30
0.0
 11
9.254251
 21
-5.972101
 31
0.0
  0
LINE
  5
1D3
330
4BB
100
AcDbEntity
  8
1
100
AcDbLine
 10
9.254251
 20
-5.972101
 30
0.0
 11
9.338179
 21
-6.064658
 31
0.0
  0
LINE
  5
1D4
330
4BB
100
AcDbEntity
  8
1
100
AcDbLine
 10
9.338179
 20
-6.064658
 30
0.0
 11
9.427953999999999
 21
-6.15669
 31
0.0
  0
LINE
  5
1D5
330
4BB
100
AcDbEntity
  8
1
100
AcDbLine
 10
9.427953999999999
 20
-6.15669
 30
0.0
 11
9.523436999999999
 21
-6.248035999999999
 31
0.0
  0
LINE
  5
1D6
330
4BB
100
AcDbEntity
  8
1
100
AcDbLine
 10
9.523436999999999
 20
-6.248035999999999
 30
0.0
 11
9.624776999999999
 21
-6.338460999999999
 31
0.0
  0
LINE
  5
1D7
330
4BB
100
AcDbEntity
  8
1
100
AcDbLine
 10
9.624776999999999
 20
-6.338460999999999
 30
0.0
 11
9.732025
 21
-6.427901999999999
 31
0.0
  0
LINE
  5
1D8
330
4BB
100
AcDbEntity
  8
1
100
AcDbLine
 10
9.732025
 20
-6.427901999999999
 30
0.0
 11
9.845129
 21
-6.516471
 31
0.0
  0
LINE
  5
1D9
330
4BB
100
AcDbEntity
  8
1
100
AcDbLine
 10
9.845129
 20
-6.516471
 30
0.0
 11
9.964089999999998
 21
-6.604189999999999
 31
0.0
  0
LINE
  5
1DA
330
4BB
100
AcDbEntity
  8
1
100
AcDbLine
 10
8.391548
 20
-4.632646
 30
0.0
 11
8.391548
 21
-4.563822
 31
0.0
  0
LINE
  5
1DB
330
4BB
100
AcDbEntity
  8
1
100
AcDbLine
 10
9.164089999999999
 20
-7.109886
 30
0.0
 11
9.077436999999999
 21
-6.845555
 31
0.0
  0
LINE
  5
1DC
330
4BB
100
AcDbEntity
  8
1
100
AcDbLine
 10
9.077436999999999
 20
-6.845555
 30
0.0
 11
8.990949999999999
 21
-6.578373
 31
0.0
  0
LINE
  5
1DD
330
4BB
100
AcDbEntity
  8
1
100
AcDbLine
 10
8.990949999999999
 20
-6.578373
 30
0.0
 11
8.904628999999999
 21
-6.308341999999999
 31
0.0
  0
LINE
  5
1DE
330
4BB
100
AcDbEntity
  8
1
100
AcDbLine
 10
8.904628999999999
 20
-6.308341999999999
 30
0.0
 11
8.818424999999999
 21
-6.035299
 31
0.0
  0
LINE
  5
1DF
330
4BB
100
AcDbEntity
  8
1
100
AcDbLine
 10
8.818424999999999
 20
-6.035299
 30
0.0
 11
8.732388
 21
-5.759405999999999
 31
0.0
  0
LINE
  5
1E0
330
4BB
100
AcDbEntity
  8
1
100
AcDbLine
 10
8.732388
 20
-5.759405999999999
 30
0.0
 11
8.646665999999999
 21
-5.481145999999999
 31
0.0
  0
LINE
  5
1E1
330
4BB
100
AcDbEntity
  8
1
100
AcDbLine
 10
8.646665999999999
 20
-5.481145999999999
 30
0.0
 11
8.561310999999999
 21
-5.20068
 31
0.0
  0
LINE
  5
1E2
330
4BB
100
AcDbEntity
  8
1
100
AcDbLine
 10
8.561310999999999
 20
-5.20068
 30
0.0
 11
8.476271
 21
-4.917847
 31
0.0
  0
LINE
  5
1E3
330
4BB
100
AcDbEntity
  8
1
100
AcDbLine
 10
8.476271
 20
-4.917847
 30
0.0
 11
8.391548
 21
-4.632646
 31
0.0
  0
LINE
  5
1E4
330
4BB
100
AcDbEntity
  8
1
100
AcDbLine
 10
8.391548
 20
-4.632646
 30
0.0
 11
8.611062999999999
 21
-4.578458999999999
 31
0.0
  0
LINE
  5
1E5
330
4BB
100
AcDbEntity
  8
1
100
AcDbLine
 10
9.164089999999999
 20
-7.109886
 30
0.0
 11
9.295919999999998
 21
-7.082124999999999
 31
0.0
  0
LINE
  5
1E6
330
4BB
100
AcDbEntity
  8
1
100
AcDbLine
 10
9.295919999999998
 20
-7.082124999999999
 30
0.0
 11
9.964089999999998
 21
-6.940033
 31
0.0
  0
LINE
  5
1E7
330
4BB
100
AcDbEntity
  8
1
100
AcDbLine
 10
9.164089999999999
 20
4.391945999999999
 30
0.0
 11
8.468802
 21
6.476780999999999
 31
0.0
  0
LINE
  5
1E8
330
4BB
100
AcDbEntity
  8
1
100
AcDbLine
 10
9.164089999999999
 20
6.218776999999999
 30
0.0
 11
9.164089999999999
 21
4.391945999999999
 31
0.0
  0
LINE
  5
1E9
330
4BB
100
AcDbEntity
  8
1
100
AcDbLine
 10
5.725698
 20
0.697673
 30
0.0
 11
5.582533999999999
 21
0.9108549999999999
 31
0.0
  0
LINE
  5
1EA
330
4BB
100
AcDbEntity
  8
1
100
AcDbLine
 10
5.582533999999999
 20
0.9108549999999999
 30
0.0
 11
5.440860999999999
 21
1.130543999999999
 31
0.0
  0
LINE
  5
1EB
330
4BB
100
AcDbEntity
  8
1
100
AcDbLine
 10
5.440860999999999
 20
1.130543999999999
 30
0.0
 11
5.30068
 21
1.356649999999999
 31
0.0
  0
LINE
  5
1EC
330
4BB
100
AcDbEntity
  8
1
100
AcDbLine
 10
5.30068
 20
1.356649999999999
 30
0.0
 11
5.161725999999999
 21
1.589552
 31
0.0
  0
LINE
  5
1ED
330
4BB
100
AcDbEntity
  8
1
100
AcDbLine
 10
5.161725999999999
 20
1.589552
 30
0.0
 11
5.024262999999999
 21
1.828651999999999
 31
0.0
  0
LINE
  5
1EE
330
4BB
100
AcDbEntity
  8
1
100
AcDbLine
 10
5.024262999999999
 20
1.828651999999999
 30
0.0
 11
4.889078999999999
 21
2.072382
 31
0.0
  0
LINE
  5
1EF
330
4BB
100
AcDbEntity
  8
1
100
AcDbLine
 10
4.889078999999999
 20
2.072382
 30
0.0
 11
4.756287
 21
2.320593
 31
0.0
  0
LINE
  5
1F0
330
4BB
100
AcDbEntity
  8
1
100
AcDbLine
 10
4.756287
 20
2.320593
 30
0.0
 11
4.625773999999999
 21
2.573158999999999
 31
0.0
  0
LINE
  5
1F1
330
4BB
100
AcDbEntity
  8
1
100
AcDbLine
 10
4.625773999999999
 20
2.573158999999999
 30
0.0
 11
4.497994999999999
 21
2.828564
 31
0.0
  0
LINE
  5
1F2
330
4BB
100
AcDbEntity
  8
1
100
AcDbLine
 10
4.497994999999999
 20
2.828564
 30
0.0
 11
4.373024
 21
3.086606
 31
0.0
  0
LINE
  5
1F3
330
4BB
100
AcDbEntity
  8
1
100
AcDbLine
 10
4.373024
 20
3.086606
 30
0.0
 11
4.250785999999999
 21
3.347177999999999
 31
0.0
  0
LINE
  5
1F4
330
4BB
100
AcDbEntity
  8
1
100
AcDbLine
 10
4.250785999999999
 20
3.347177999999999
 30
0.0
 11
4.131507
 21
3.608919
 31
0.0
  0
LINE
  5
1F5
330
4BB
100
AcDbEntity
  8
1
100
AcDbLine
 10
4.131507
 20
3.608919
 30
0.0
 11
4.015213
 21
3.871651
 31
0.0
  0
LINE
  5
1F6
330
4BB
100
AcDbEntity
  8
1
100
AcDbLine
 10
4.015213
 20
3.871651
 30
0.0
 11
3.901877999999999
 21
4.135232
 31
0.0
  0
LINE
  5
1F7
330
4BB
100
AcDbEntity
  8
1
100
AcDbLine
 10
3.901877999999999
 20
4.135232
 30
0.0
 11
3.791655999999999
 21
4.398398
 31
0.0
  0
LINE
  5
1F8
330
4BB
100
AcDbEntity
  8
1
100
AcDbLine
 10
3.791655999999999
 20
4.398398
 30
0.0
 11
3.684505999999999
 21
4.661099
 31
0.0
  0
LINE
  5
1F9
330
4BB
100
AcDbEntity
  8
1
100
AcDbLine
 10
3.684505999999999
 20
4.661099
 30
0.0
 11
3.580469999999999
 21
4.923076999999999
 31
0.0
  0
LINE
  5
1FA
330
4BB
100
AcDbEntity
  8
1
100
AcDbLine
 10
3.580469999999999
 20
4.923076999999999
 30
0.0
 11
3.479820999999999
 21
5.182811
 31
0.0
  0
LINE
  5
1FB
330
4BB
100
AcDbEntity
  8
1
100
AcDbLine
 10
3.479820999999999
 20
5.182811
 30
0.0
 11
3.382555
 21
5.440199999999999
 31
0.0
  0
LINE
  5
1FC
330
4BB
100
AcDbEntity
  8
1
100
AcDbLine
 10
3.382555
 20
5.440199999999999
 30
0.0
 11
3.288676
 21
5.695101999999999
 31
0.0
  0
LINE
  5
1FD
330
4BB
100
AcDbEntity
  8
1
100
AcDbLine
 10
3.288676
 20
5.695101999999999
 30
0.0
 11
3.198479
 21
5.946022
 31
0.0
  0
LINE
  5
1FE
330
4BB
100
AcDbEntity
  8
1
100
AcDbLine
 10
3.198479
 20
5.946022
 30
0.0
 11
3.112058999999999
 21
6.192434999999999
 31
0.0
  0
LINE
  5
1FF
330
4BB
100
AcDbEntity
  8
1
100
AcDbLine
 10
3.112058999999999
 20
6.192434999999999
 30
0.0
 11
3.029320999999999
 21
6.434737
 31
0.0
  0
LINE
  5
200
330
4BB
100
AcDbEntity
  8
1
100
AcDbLine
 10
3.029320999999999
 20
6.434737
 30
0.0
 11
2.950262999999999
 21
6.672861999999999
 31
0.0
  0
LINE
  5
201
330
4BB
100
AcDbEntity
  8
1
100
AcDbLine
 10
7.328591
 20
0.5431530000000001
 30
0.0
 11
7.181299
 21
0.5387940000000001
 31
0.0
  0
LINE
  5
202
330
4BB
100
AcDbEntity
  8
1
100
AcDbLine
 10
7.181299
 20
0.5387940000000001
 30
0.0
 11
7.036116999999999
 21
0.5375850000000001
 31
0.0
  0
LINE
  5
203
330
4BB
100
AcDbEntity
  8
1
100
AcDbLine
 10
7.036116999999999
 20
0.5375850000000001
 30
0.0
 11
6.893166
 21
0.5395260000000001
 31
0.0
  0
LINE
  5
204
330
4BB
100
AcDbEntity
  8
1
100
AcDbLine
 10
6.893166
 20
0.5395260000000001
 30
0.0
 11
6.752561999999999
 21
0.5446170000000001
 31
0.0
  0
LINE
  5
205
330
4BB
100
AcDbEntity
  8
1
100
AcDbLine
 10
6.752561999999999
 20
0.5446170000000001
 30
0.0
 11
6.614422
 21
0.5528529999999999
 31
0.0
  0
LINE
  5
206
330
4BB
100
AcDbEntity
  8
1
100
AcDbLine
 10
6.614422
 20
0.5528529999999999
 30
0.0
 11
6.47886
 21
0.564228
 31
0.0
  0
LINE
  5
207
330
4BB
100
AcDbEntity
  8
1
100
AcDbLine
 10
6.47886
 20
0.564228
 30
0.0
 11
6.345985999999999
 21
0.57873
 31
0.0
  0
LINE
  5
208
330
4BB
100
AcDbEntity
  8
1
100
AcDbLine
 10
6.345985999999999
 20
0.57873
 30
0.0
 11
6.215911
 21
0.5963510000000002
 31
0.0
  0
LINE
  5
209
330
4BB
100
AcDbEntity
  8
1
100
AcDbLine
 10
6.215911
 20
0.5963510000000002
 30
0.0
 11
6.088741
 21
0.6170740000000001
 31
0.0
  0
LINE
  5
20A
330
4BB
100
AcDbEntity
  8
1
100
AcDbLine
 10
6.088741
 20
0.6170740000000001
 30
0.0
 11
5.964580999999999
 21
0.6408810000000001
 31
0.0
  0
LINE
  5
20B
330
4BB
100
AcDbEntity
  8
1
100
AcDbLine
 10
5.964580999999999
 20
0.6408810000000001
 30
0.0
 11
5.843534
 21
0.667755
 31
0.0
  0
LINE
  5
20C
330
4BB
100
AcDbEntity
  8
1
100
AcDbLine
 10
5.843534
 20
0.667755
 30
0.0
 11
5.725698
 21
0.697673
 31
0.0
  0
LINE
  5
20D
330
4BB
100
AcDbEntity
  8
1
100
AcDbLine
 10
10.246061
 20
0.4009840000000001
 30
0.0
 11
10.095546
 21
0.363496
 31
0.0
  0
LINE
  5
20E
330
4BB
100
AcDbEntity
  8
1
100
AcDbLine
 10
10.095546
 20
0.363496
 30
0.0
 11
9.944072999999999
 21
0.330101
 31
0.0
  0
LINE
  5
20F
330
4BB
100
AcDbEntity
  8
1
100
AcDbLine
 10
9.944072999999999
 20
0.330101
 30
0.0
 11
9.791641999999999
 21
0.300798
 31
0.0
  0
LINE
  5
210
330
4BB
100
AcDbEntity
  8
1
100
AcDbLine
 10
9.791641999999999
 20
0.300798
 30
0.0
 11
9.638260999999999
 21
0.2756639999999999
 31
0.0
  0
LINE
  5
211
330
4BB
100
AcDbEntity
  8
1
100
AcDbLine
 10
9.638260999999999
 20
0.2756639999999999
 30
0.0
 11
9.483921
 21
0.254623
 31
0.0
  0
LINE
  5
212
330
4BB
100
AcDbEntity
  8
1
100
AcDbLine
 10
9.483921
 20
0.254623
 30
0.0
 11
9.328602
 21
0.237449
 31
0.0
  0
LINE
  5
213
330
4BB
100
AcDbEntity
  8
1
100
AcDbLine
 10
9.328602
 20
0.237449
 30
0.0
 11
9.172323999999999
 21
0.224134
 31
0.0
  0
LINE
  5
214
330
4BB
100
AcDbEntity
  8
1
100
AcDbLine
 10
9.172323999999999
 20
0.224134
 30
0.0
 11
9.015064999999999
 21
0.214684
 31
0.0
  0
LINE
  5
215
330
4BB
100
AcDbEntity
  8
1
100
AcDbLine
 10
9.015064999999999
 20
0.214684
 30
0.0
 11
8.856742
 21
0.208887
 31
0.0
  0
LINE
  5
216
330
4BB
100
AcDbEntity
  8
1
100
AcDbLine
 10
8.856742
 20
0.208887
 30
0.0
 11
8.697461
 21
0.206722
 31
0.0
  0
LINE
  5
217
330
4BB
100
AcDbEntity
  8
1
100
AcDbLine
 10
8.697461
 20
0.206722
 30
0.0
 11
8.537116000000001
 21
0.208212
 31
0.0
  0
LINE
  5
218
330
4BB
100
AcDbEntity
  8
1
100
AcDbLine
 10
8.537116000000001
 20
0.208212
 30
0.0
 11
8.375291999999999
 21
0.213203
 31
0.0
  0
LINE
  5
219
330
4BB
100
AcDbEntity
  8
1
100
AcDbLine
 10
8.375291999999999
 20
0.213203
 30
0.0
 11
8.211937999999999
 21
0.221676
 31
0.0
  0
LINE
  5
21A
330
4BB
100
AcDbEntity
  8
1
100
AcDbLine
 10
8.211937999999999
 20
0.221676
 30
0.0
 11
8.047107
 21
0.233651
 31
0.0
  0
LINE
  5
21B
330
4BB
100
AcDbEntity
  8
1
100
AcDbLine
 10
8.047107
 20
0.233651
 30
0.0
 11
7.880546
 21
0.24905
 31
0.0
  0
LINE
  5
21C
330
4BB
100
AcDbEntity
  8
1
100
AcDbLine
 10
7.880546
 20
0.24905
 30
0.0
 11
7.712222999999999
 21
0.267865
 31
0.0
  0
LINE
  5
21D
330
4BB
100
AcDbEntity
  8
1
100
AcDbLine
 10
7.712222999999999
 20
0.267865
 30
0.0
 11
7.542171
 21
0.290104
 31
0.0
  0
LINE
  5
21E
330
4BB
100
AcDbEntity
  8
1
100
AcDbLine
 10
7.542171
 20
0.290104
 30
0.0
 11
7.370233999999999
 21
0.315708
 31
0.0
  0
LINE
  5
21F
330
4BB
100
AcDbEntity
  8
1
100
AcDbLine
 10
7.370233999999999
 20
0.315708
 30
0.0
 11
7.196463999999999
 21
0.34466
 31
0.0
  0
LINE
  5
220
330
4BB
100
AcDbEntity
  8
1
100
AcDbLine
 10
7.196463999999999
 20
0.34466
 30
0.0
 11
7.020808999999999
 21
0.376976
 31
0.0
  0
LINE
  5
221
330
4BB
100
AcDbEntity
  8
1
100
AcDbLine
 10
7.020808999999999
 20
0.376976
 30
0.0
 11
6.84296
 21
0.412653
 31
0.0
  0
LINE
  5
222
330
4BB
100
AcDbEntity
  8
1
100
AcDbLine
 10
6.84296
 20
0.412653
 30
0.0
 11
6.662942
 21
0.451671
 31
0.0
  0
LINE
  5
223
330
4BB
100
AcDbEntity
  8
1
100
AcDbLine
 10
6.662942
 20
0.451671
 30
0.0
 11
6.480729
 21
0.494046
 31
0.0
  0
LINE
  5
224
330
4BB
100
AcDbEntity
  8
1
100
AcDbLine
 10
6.480729
 20
0.494046
 30
0.0
 11
6.295937999999999
 21
0.5398310000000001
 31
0.0
  0
LINE
  5
225
330
4BB
100
AcDbEntity
  8
1
100
AcDbLine
 10
6.295937999999999
 20
0.5398310000000001
 30
0.0
 11
6.108437
 21
0.5890410000000001
 31
0.0
  0
LINE
  5
226
330
4BB
100
AcDbEntity
  8
1
100
AcDbLine
 10
6.108437
 20
0.5890410000000001
 30
0.0
 11
5.918357
 21
0.6416560000000001
 31
0.0
  0
LINE
  5
227
330
4BB
100
AcDbEntity
  8
1
100
AcDbLine
 10
5.918357
 20
0.6416560000000001
 30
0.0
 11
5.725698
 21
0.697673
 31
0.0
  0
LINE
  5
228
330
4BB
100
AcDbEntity
  8
1
100
AcDbLine
 10
9.457487
 20
1.854649
 30
0.0
 11
9.457065
 21
1.831999
 31
0.0
  0
LINE
  5
229
330
4BB
100
AcDbEntity
  8
1
100
AcDbLine
 10
9.457065
 20
1.831999
 30
0.0
 11
9.455728
 21
1.808650999999999
 31
0.0
  0
LINE
  5
22A
330
4BB
100
AcDbEntity
  8
1
100
AcDbLine
 10
9.455728
 20
1.808650999999999
 30
0.0
 11
9.453477000000001
 21
1.784608
 31
0.0
  0
LINE
  5
22B
330
4BB
100
AcDbEntity
  8
1
100
AcDbLine
 10
9.453477000000001
 20
1.784608
 30
0.0
 11
9.450333
 21
1.759870999999999
 31
0.0
  0
LINE
  5
22C
330
4BB
100
AcDbEntity
  8
1
100
AcDbLine
 10
9.450333
 20
1.759870999999999
 30
0.0
 11
9.446274
 21
1.734443999999999
 31
0.0
  0
LINE
  5
22D
330
4BB
100
AcDbEntity
  8
1
100
AcDbLine
 10
9.446274
 20
1.734443999999999
 30
0.0
 11
9.441236999999999
 21
1.708334999999999
 31
0.0
  0
LINE
  5
22E
330
4BB
100
AcDbEntity
  8
1
100
AcDbLine
 10
9.441236999999999
 20
1.708334999999999
 30
0.0
 11
9.435219
 21
1.681545999999999
 31
0.0
  0
LINE
  5
22F
330
4BB
100
AcDbEntity
  8
1
100
AcDbLine
 10
9.435219
 20
1.681545999999999
 30
0.0
 11
9.428221
 21
1.654083
 31
0.0
  0
LINE
  5
230
330
4BB
100
AcDbEntity
  8
1
100
AcDbLine
 10
9.428221
 20
1.654083
 30
0.0
 11
9.420183999999999
 21
1.625957999999999
 31
0.0
  0
LINE
  5
231
330
4BB
100
AcDbEntity
  8
1
100
AcDbLine
 10
9.420183999999999
 20
1.625957999999999
 30
0.0
 11
9.411127
 21
1.59722
 31
0.0
  0
LINE
  5
232
330
4BB
100
AcDbEntity
  8
1
100
AcDbLine
 10
9.411127
 20
1.59722
 30
0.0
 11
9.401030999999999
 21
1.567829999999999
 31
0.0
  0
LINE
  5
233
330
4BB
100
AcDbEntity
  8
1
100
AcDbLine
 10
9.401030999999999
 20
1.567829999999999
 30
0.0
 11
9.38977
 21
1.537668
 31
0.0
  0
LINE
  5
234
330
4BB
100
AcDbEntity
  8
1
100
AcDbLine
 10
9.38977
 20
1.537668
 30
0.0
 11
9.377342999999999
 21
1.506712
 31
0.0
  0
LINE
  5
235
330
4BB
100
AcDbEntity
  8
1
100
AcDbLine
 10
9.377342999999999
 20
1.506712
 30
0.0
 11
9.363752999999999
 21
1.475000999999999
 31
0.0
  0
LINE
  5
236
330
4BB
100
AcDbEntity
  8
1
100
AcDbLine
 10
9.363752999999999
 20
1.475000999999999
 30
0.0
 11
9.348867999999999
 21
1.442501999999999
 31
0.0
  0
LINE
  5
237
330
4BB
100
AcDbEntity
  8
1
100
AcDbLine
 10
9.348867999999999
 20
1.442501999999999
 30
0.0
 11
9.332689999999999
 21
1.40921
 31
0.0
  0
LINE
  5
238
330
4BB
100
AcDbEntity
  8
1
100
AcDbLine
 10
9.332689999999999
 20
1.40921
 30
0.0
 11
9.31522
 21
1.375153
 31
0.0
  0
LINE
  5
239
330
4BB
100
AcDbEntity
  8
1
100
AcDbLine
 10
9.31522
 20
1.375153
 30
0.0
 11
9.296332000000001
 21
1.340357999999999
 31
0.0
  0
LINE
  5
23A
330
4BB
100
AcDbEntity
  8
1
100
AcDbLine
 10
9.296332000000001
 20
1.340357999999999
 30
0.0
 11
9.276047999999999
 21
1.30485
 31
0.0
  0
LINE
  5
23B
330
4BB
100
AcDbEntity
  8
1
100
AcDbLine
 10
9.276047999999999
 20
1.30485
 30
0.0
 11
9.254349000000001
 21
1.268634
 31
0.0
  0
LINE
  5
23C
330
4BB
100
AcDbEntity
  8
1
100
AcDbLine
 10
9.254349000000001
 20
1.268634
 30
0.0
 11
9.231053999999998
 21
1.231702999999999
 31
0.0
  0
LINE
  5
23D
330
4BB
100
AcDbEntity
  8
1
100
AcDbLine
 10
9.231053999999998
 20
1.231702999999999
 30
0.0
 11
9.206172999999999
 21
1.194054999999999
 31
0.0
  0
LINE
  5
23E
330
4BB
100
AcDbEntity
  8
1
100
AcDbLine
 10
9.206172999999999
 20
1.194054999999999
 30
0.0
 11
9.179702
 21
1.155729
 31
0.0
  0
LINE
  5
23F
330
4BB
100
AcDbEntity
  8
1
100
AcDbLine
 10
9.179702
 20
1.155729
 30
0.0
 11
9.151438999999999
 21
1.116783
 31
0.0
  0
LINE
  5
240
330
4BB
100
AcDbEntity
  8
1
100
AcDbLine
 10
9.151438999999999
 20
1.116783
 30
0.0
 11
9.121321
 21
1.077254
 31
0.0
  0
LINE
  5
241
330
4BB
100
AcDbEntity
  8
1
100
AcDbLine
 10
9.121321
 20
1.077254
 30
0.0
 11
9.089422
 21
1.037154
 31
0.0
  0
LINE
  5
242
330
4BB
100
AcDbEntity
  8
1
100
AcDbLine
 10
9.089422
 20
1.037154
 30
0.0
 11
9.055747999999999
 21
0.9965110000000001
 31
0.0
  0
LINE
  5
243
330
4BB
100
AcDbEntity
  8
1
100
AcDbLine
 10
9.365244
 20
2.131238999999999
 30
0.0
 11
9.376412
 21
2.117265999999999
 31
0.0
  0
LINE
  5
244
330
4BB
100
AcDbEntity
  8
1
100
AcDbLine
 10
9.376412
 20
2.117265999999999
 30
0.0
 11
9.386886999999999
 21
2.10277
 31
0.0
  0
LINE
  5
245
330
4BB
100
AcDbEntity
  8
1
100
AcDbLine
 10
9.386886999999999
 20
2.10277
 30
0.0
 11
9.396668
 21
2.087752
 31
0.0
  0
LINE
  5
246
330
4BB
100
AcDbEntity
  8
1
100
AcDbLine
 10
9.396668
 20
2.087752
 30
0.0
 11
9.405756
 21
2.072249
 31
0.0
  0
LINE
  5
247
330
4BB
100
AcDbEntity
  8
1
100
AcDbLine
 10
9.405756
 20
2.072249
 30
0.0
 11
9.414150999999998
 21
2.056223
 31
0.0
  0
LINE
  5
248
330
4BB
100
AcDbEntity
  8
1
100
AcDbLine
 10
9.414150999999998
 20
2.056223
 30
0.0
 11
9.421857000000001
 21
2.039559999999999
 31
0.0
  0
LINE
  5
249
330
4BB
100
AcDbEntity
  8
1
100
AcDbLine
 10
9.421857000000001
 20
2.039559999999999
 30
0.0
 11
9.428892999999998
 21
2.022272999999999
 31
0.0
  0
LINE
  5
24A
330
4BB
100
AcDbEntity
  8
1
100
AcDbLine
 10
9.428892999999998
 20
2.022272999999999
 30
0.0
 11
9.435238999999999
 21
2.004347
 31
0.0
  0
LINE
  5
24B
330
4BB
100
AcDbEntity
  8
1
100
AcDbLine
 10
9.435238999999999
 20
2.004347
 30
0.0
 11
9.440839
 21
1.985625999999999
 31
0.0
  0
LINE
  5
24C
330
4BB
100
AcDbEntity
  8
1
100
AcDbLine
 10
9.440839
 20
1.985625999999999
 30
0.0
 11
9.445717
 21
1.96612
 31
0.0
  0
LINE
  5
24D
330
4BB
100
AcDbEntity
  8
1
100
AcDbLine
 10
9.445717
 20
1.96612
 30
0.0
 11
9.449849
 21
1.945818
 31
0.0
  0
LINE
  5
24E
330
4BB
100
AcDbEntity
  8
1
100
AcDbLine
 10
9.449849
 20
1.945818
 30
0.0
 11
9.453105
 21
1.924536999999999
 31
0.0
  0
LINE
  5
24F
330
4BB
100
AcDbEntity
  8
1
100
AcDbLine
 10
9.453105
 20
1.924536999999999
 30
0.0
 11
9.455441
 21
1.902218999999999
 31
0.0
  0
LINE
  5
250
330
4BB
100
AcDbEntity
  8
1
100
AcDbLine
 10
9.455441
 20
1.902218999999999
 30
0.0
 11
9.456902000000001
 21
1.878922999999999
 31
0.0
  0
LINE
  5
251
330
4BB
100
AcDbEntity
  8
1
100
AcDbLine
 10
9.456902000000001
 20
1.878922999999999
 30
0.0
 11
9.457487
 21
1.854649
 31
0.0
  0
LINE
  5
252
330
4BB
100
AcDbEntity
  8
1
100
AcDbLine
 10
8.931602999999999
 20
0.8620629999999998
 30
0.0
 11
8.915108999999999
 21
0.8457489999999999
 31
0.0
  0
LINE
  5
253
330
4BB
100
AcDbEntity
  8
1
100
AcDbLine
 10
8.915108999999999
 20
0.8457489999999999
 30
0.0
 11
8.885761
 21
0.8175349999999999
 31
0.0
  0
LINE
  5
254
330
4BB
100
AcDbEntity
  8
1
100
AcDbLine
 10
8.885761
 20
0.8175349999999999
 30
0.0
 11
8.856042
 21
0.789992
 31
0.0
  0
LINE
  5
255
330
4BB
100
AcDbEntity
  8
1
100
AcDbLine
 10
8.856042
 20
0.789992
 30
0.0
 11
8.825944999999999
 21
0.7631170000000001
 31
0.0
  0
LINE
  5
256
330
4BB
100
AcDbEntity
  8
1
100
AcDbLine
 10
8.825944999999999
 20
0.7631170000000001
 30
0.0
 11
8.795471
 21
0.7369120000000001
 31
0.0
  0
LINE
  5
257
330
4BB
100
AcDbEntity
  8
1
100
AcDbLine
 10
9.055747999999999
 20
0.9965110000000001
 30
0.0
 11
9.02846
 21
0.9650879999999999
 31
0.0
  0
LINE
  5
258
330
4BB
100
AcDbEntity
  8
1
100
AcDbLine
 10
9.02846
 20
0.9650879999999999
 30
0.0
 11
9.000752
 21
0.9342979999999998
 31
0.0
  0
LINE
  5
259
330
4BB
100
AcDbEntity
  8
1
100
AcDbLine
 10
9.000752
 20
0.9342979999999998
 30
0.0
 11
8.972627000000001
 21
0.904143
 31
0.0
  0
LINE
  5
25A
330
4BB
100
AcDbEntity
  8
1
100
AcDbLine
 10
8.972627000000001
 20
0.904143
 30
0.0
 11
8.944074999999999
 21
0.874624
 31
0.0
  0
LINE
  5
25B
330
4BB
100
AcDbEntity
  8
1
100
AcDbLine
 10
8.944074999999999
 20
0.874624
 30
0.0
 11
8.931602999999999
 21
0.8620629999999998
 31
0.0
  0
LINE
  5
25C
330
4BB
100
AcDbEntity
  8
1
100
AcDbLine
 10
7.126276999999999
 20
1.756051999999999
 30
0.0
 11
7.150413999999999
 21
1.786006
 31
0.0
  0
LINE
  5
25D
330
4BB
100
AcDbEntity
  8
1
100
AcDbLine
 10
7.150413999999999
 20
1.786006
 30
0.0
 11
7.176605999999999
 21
1.815634
 31
0.0
  0
LINE
  5
25E
330
4BB
100
AcDbEntity
  8
1
100
AcDbLine
 10
7.176605999999999
 20
1.815634
 30
0.0
 11
7.205772
 21
1.845862999999999
 31
0.0
  0
LINE
  5
25F
330
4BB
100
AcDbEntity
  8
1
100
AcDbLine
 10
7.328591
 20
0.5431530000000001
 30
0.0
 11
7.305813
 21
0.561032
 31
0.0
  0
LINE
  5
260
330
4BB
100
AcDbEntity
  8
1
100
AcDbLine
 10
7.305813
 20
0.561032
 30
0.0
 11
7.283682
 21
0.579516
 31
0.0
  0
LINE
  5
261
330
4BB
100
AcDbEntity
  8
1
100
AcDbLine
 10
7.283682
 20
0.579516
 30
0.0
 11
7.262196
 21
0.5985990000000001
 31
0.0
  0
LINE
  5
262
330
4BB
100
AcDbEntity
  8
1
100
AcDbLine
 10
7.262196
 20
0.5985990000000001
 30
0.0
 11
7.241336999999999
 21
0.6183
 31
0.0
  0
LINE
  5
263
330
4BB
100
AcDbEntity
  8
1
100
AcDbLine
 10
7.241336999999999
 20
0.6183
 30
0.0
 11
7.221116999999999
 21
0.6385890000000001
 31
0.0
  0
LINE
  5
264
330
4BB
100
AcDbEntity
  8
1
100
AcDbLine
 10
7.221116999999999
 20
0.6385890000000001
 30
0.0
 11
7.201574
 21
0.6594020000000001
 31
0.0
  0
LINE
  5
265
330
4BB
100
AcDbEntity
  8
1
100
AcDbLine
 10
7.201574
 20
0.6594020000000001
 30
0.0
 11
7.182727
 21
0.680703
 31
0.0
  0
LINE
  5
266
330
4BB
100
AcDbEntity
  8
1
100
AcDbLine
 10
7.182727
 20
0.680703
 30
0.0
 11
7.164552
 21
0.7025170000000001
 31
0.0
  0
LINE
  5
267
330
4BB
100
AcDbEntity
  8
1
100
AcDbLine
 10
7.164552
 20
0.7025170000000001
 30
0.0
 11
7.147028999999998
 21
0.7248640000000001
 31
0.0
  0
LINE
  5
268
330
4BB
100
AcDbEntity
  8
1
100
AcDbLine
 10
7.147028999999998
 20
0.7248640000000001
 30
0.0
 11
7.130130999999999
 21
0.747767
 31
0.0
  0
LINE
  5
269
330
4BB
100
AcDbEntity
  8
1
100
AcDbLine
 10
7.130130999999999
 20
0.747767
 30
0.0
 11
7.113878999999998
 21
0.771197
 31
0.0
  0
LINE
  5
26A
330
4BB
100
AcDbEntity
  8
1
100
AcDbLine
 10
7.113878999999998
 20
0.771197
 30
0.0
 11
7.09833
 21
0.7951020000000001
 31
0.0
  0
LINE
  5
26B
330
4BB
100
AcDbEntity
  8
1
100
AcDbLine
 10
7.09833
 20
0.7951020000000001
 30
0.0
 11
7.083483
 21
0.8194749999999999
 31
0.0
  0
LINE
  5
26C
330
4BB
100
AcDbEntity
  8
1
100
AcDbLine
 10
7.083483
 20
0.8194749999999999
 30
0.0
 11
7.069335
 21
0.844317
 31
0.0
  0
LINE
  5
26D
330
4BB
100
AcDbEntity
  8
1
100
AcDbLine
 10
7.069335
 20
0.844317
 30
0.0
 11
7.055933
 21
0.8695969999999999
 31
0.0
  0
LINE
  5
26E
330
4BB
100
AcDbEntity
  8
1
100
AcDbLine
 10
7.055933
 20
0.8695969999999999
 30
0.0
 11
7.043277999999999
 21
0.8952939999999999
 31
0.0
  0
LINE
  5
26F
330
4BB
100
AcDbEntity
  8
1
100
AcDbLine
 10
7.043277999999999
 20
0.8952939999999999
 30
0.0
 11
7.031367999999999
 21
0.9214259999999999
 31
0.0
  0
LINE
  5
270
330
4BB
100
AcDbEntity
  8
1
100
AcDbLine
 10
7.031367999999999
 20
0.9214259999999999
 30
0.0
 11
7.020243999999999
 21
0.9480079999999999
 31
0.0
  0
LINE
  5
271
330
4BB
100
AcDbEntity
  8
1
100
AcDbLine
 10
7.020243999999999
 20
0.9480079999999999
 30
0.0
 11
7.009888
 21
0.975084
 31
0.0
  0
LINE
  5
272
330
4BB
100
AcDbEntity
  8
1
100
AcDbLine
 10
7.009888
 20
0.975084
 30
0.0
 11
7.000319
 21
1.00261
 31
0.0
  0
LINE
  5
273
330
4BB
100
AcDbEntity
  8
1
100
AcDbLine
 10
7.000319
 20
1.00261
 30
0.0
 11
6.991635999999999
 21
1.030481999999999
 31
0.0
  0
LINE
  5
274
330
4BB
100
AcDbEntity
  8
1
100
AcDbLine
 10
6.991635999999999
 20
1.030481999999999
 30
0.0
 11
6.983846999999999
 21
1.058678
 31
0.0
  0
LINE
  5
275
330
4BB
100
AcDbEntity
  8
1
100
AcDbLine
 10
6.983846999999999
 20
1.058678
 30
0.0
 11
6.976946
 21
1.08722
 31
0.0
  0
LINE
  5
276
330
4BB
100
AcDbEntity
  8
1
100
AcDbLine
 10
6.976946
 20
1.08722
 30
0.0
 11
6.971013
 21
1.116064999999999
 31
0.0
  0
LINE
  5
277
330
4BB
100
AcDbEntity
  8
1
100
AcDbLine
 10
6.971013
 20
1.116064999999999
 30
0.0
 11
6.966042999999999
 21
1.145213999999999
 31
0.0
  0
LINE
  5
278
330
4BB
100
AcDbEntity
  8
1
100
AcDbLine
 10
6.966042999999999
 20
1.145213999999999
 30
0.0
 11
6.962044
 21
1.174671
 31
0.0
  0
LINE
  5
279
330
4BB
100
AcDbEntity
  8
1
100
AcDbLine
 10
6.962044
 20
1.174671
 30
0.0
 11
6.959111999999999
 21
1.204391999999999
 31
0.0
  0
LINE
  5
27A
330
4BB
100
AcDbEntity
  8
1
100
AcDbLine
 10
6.959111999999999
 20
1.204391999999999
 30
0.0
 11
6.957244999999999
 21
1.234412
 31
0.0
  0
LINE
  5
27B
330
4BB
100
AcDbEntity
  8
1
100
AcDbLine
 10
6.957244999999999
 20
1.234412
 30
0.0
 11
6.95645
 21
1.264704999999999
 31
0.0
  0
LINE
  5
27C
330
4BB
100
AcDbEntity
  8
1
100
AcDbLine
 10
6.95645
 20
1.264704999999999
 30
0.0
 11
6.95683
 21
1.295140999999999
 31
0.0
  0
LINE
  5
27D
330
4BB
100
AcDbEntity
  8
1
100
AcDbLine
 10
6.95683
 20
1.295140999999999
 30
0.0
 11
6.958388
 21
1.325696999999999
 31
0.0
  0
LINE
  5
27E
330
4BB
100
AcDbEntity
  8
1
100
AcDbLine
 10
6.958388
 20
1.325696999999999
 30
0.0
 11
6.961128999999999
 21
1.356406
 31
0.0
  0
LINE
  5
27F
330
4BB
100
AcDbEntity
  8
1
100
AcDbLine
 10
6.961128999999999
 20
1.356406
 30
0.0
 11
6.965167
 21
1.387224999999999
 31
0.0
  0
LINE
  5
280
330
4BB
100
AcDbEntity
  8
1
100
AcDbLine
 10
6.965167
 20
1.387224999999999
 30
0.0
 11
6.970511
 21
1.418199999999999
 31
0.0
  0
LINE
  5
281
330
4BB
100
AcDbEntity
  8
1
100
AcDbLine
 10
6.970511
 20
1.418199999999999
 30
0.0
 11
6.977161999999999
 21
1.449300999999999
 31
0.0
  0
LINE
  5
282
330
4BB
100
AcDbEntity
  8
1
100
AcDbLine
 10
6.977161999999999
 20
1.449300999999999
 30
0.0
 11
6.985224
 21
1.48038
 31
0.0
  0
LINE
  5
283
330
4BB
100
AcDbEntity
  8
1
100
AcDbLine
 10
6.985224
 20
1.48038
 30
0.0
 11
6.994700999999999
 21
1.511431999999999
 31
0.0
  0
LINE
  5
284
330
4BB
100
AcDbEntity
  8
1
100
AcDbLine
 10
6.994700999999999
 20
1.511431999999999
 30
0.0
 11
7.005600999999999
 21
1.542481999999999
 31
0.0
  0
LINE
  5
285
330
4BB
100
AcDbEntity
  8
1
100
AcDbLine
 10
7.005600999999999
 20
1.542481999999999
 30
0.0
 11
7.018032999999999
 21
1.573423
 31
0.0
  0
LINE
  5
286
330
4BB
100
AcDbEntity
  8
1
100
AcDbLine
 10
7.018032999999999
 20
1.573423
 30
0.0
 11
7.032007000000001
 21
1.604274999999999
 31
0.0
  0
LINE
  5
287
330
4BB
100
AcDbEntity
  8
1
100
AcDbLine
 10
7.032007000000001
 20
1.604274999999999
 30
0.0
 11
7.047528999999999
 21
1.635046999999999
 31
0.0
  0
LINE
  5
288
330
4BB
100
AcDbEntity
  8
1
100
AcDbLine
 10
7.047528999999999
 20
1.635046999999999
 30
0.0
 11
7.064697999999999
 21
1.665607
 31
0.0
  0
LINE
  5
289
330
4BB
100
AcDbEntity
  8
1
100
AcDbLine
 10
7.064697999999999
 20
1.665607
 30
0.0
 11
7.083553999999999
 21
1.695924999999999
 31
0.0
  0
LINE
  5
28A
330
4BB
100
AcDbEntity
  8
1
100
AcDbLine
 10
7.083553999999999
 20
1.695924999999999
 30
0.0
 11
7.104077
 21
1.726066999999999
 31
0.0
  0
LINE
  5
28B
330
4BB
100
AcDbEntity
  8
1
100
AcDbLine
 10
7.104077
 20
1.726066999999999
 30
0.0
 11
7.126276999999999
 21
1.756051999999999
 31
0.0
  0
LINE
  5
28C
330
4BB
100
AcDbEntity
  8
1
100
AcDbLine
 10
8.795471
 20
0.7369120000000001
 30
0.0
 11
8.781985999999999
 21
0.728633
 31
0.0
  0
LINE
  5
28D
330
4BB
100
AcDbEntity
  8
1
100
AcDbLine
 10
8.781985999999999
 20
0.728633
 30
0.0
 11
8.767036
 21
0.720073
 31
0.0
  0
LINE
  5
28E
330
4BB
100
AcDbEntity
  8
1
100
AcDbLine
 10
8.767036
 20
0.720073
 30
0.0
 11
8.750591
 21
0.711278
 31
0.0
  0
LINE
  5
28F
330
4BB
100
AcDbEntity
  8
1
100
AcDbLine
 10
8.750591
 20
0.711278
 30
0.0
 11
8.732603999999998
 21
0.7022940000000001
 31
0.0
  0
LINE
  5
290
330
4BB
100
AcDbEntity
  8
1
100
AcDbLine
 10
8.732603999999998
 20
0.7022940000000001
 30
0.0
 11
8.713057
 21
0.693169
 31
0.0
  0
LINE
  5
291
330
4BB
100
AcDbEntity
  8
1
100
AcDbLine
 10
8.713057
 20
0.693169
 30
0.0
 11
8.691971
 21
0.6839420000000001
 31
0.0
  0
LINE
  5
292
330
4BB
100
AcDbEntity
  8
1
100
AcDbLine
 10
8.691971
 20
0.6839420000000001
 30
0.0
 11
8.669325999999999
 21
0.674635
 31
0.0
  0
LINE
  5
293
330
4BB
100
AcDbEntity
  8
1
100
AcDbLine
 10
8.669325999999999
 20
0.674635
 30
0.0
 11
8.645097999999999
 21
0.665297
 31
0.0
  0
LINE
  5
294
330
4BB
100
AcDbEntity
  8
1
100
AcDbLine
 10
8.645097999999999
 20
0.665297
 30
0.0
 11
8.619324
 21
0.655974
 31
0.0
  0
LINE
  5
295
330
4BB
100
AcDbEntity
  8
1
100
AcDbLine
 10
8.619324
 20
0.655974
 30
0.0
 11
8.592002
 21
0.6466950000000001
 31
0.0
  0
LINE
  5
296
330
4BB
100
AcDbEntity
  8
1
100
AcDbLine
 10
8.592002
 20
0.6466950000000001
 30
0.0
 11
8.563102999999999
 21
0.6374870000000001
 31
0.0
  0
LINE
  5
297
330
4BB
100
AcDbEntity
  8
1
100
AcDbLine
 10
8.563102999999999
 20
0.6374870000000001
 30
0.0
 11
8.532619999999999
 21
0.628396
 31
0.0
  0
LINE
  5
298
330
4BB
100
AcDbEntity
  8
1
100
AcDbLine
 10
8.532619999999999
 20
0.628396
 30
0.0
 11
8.500507999999999
 21
0.6194340000000001
 31
0.0
  0
LINE
  5
299
330
4BB
100
AcDbEntity
  8
1
100
AcDbLine
 10
8.500507999999999
 20
0.6194340000000001
 30
0.0
 11
8.466787
 21
0.6106430000000001
 31
0.0
  0
LINE
  5
29A
330
4BB
100
AcDbEntity
  8
1
100
AcDbLine
 10
8.466787
 20
0.6106430000000001
 30
0.0
 11
8.431546
 21
0.602107
 31
0.0
  0
LINE
  5
29B
330
4BB
100
AcDbEntity
  8
1
100
AcDbLine
 10
8.431546
 20
0.602107
 30
0.0
 11
8.394769999999999
 21
0.5938340000000001
 31
0.0
  0
LINE
  5
29C
330
4BB
100
AcDbEntity
  8
1
100
AcDbLine
 10
8.394769999999999
 20
0.5938340000000001
 30
0.0
 11
8.356466000000001
 21
0.585849
 31
0.0
  0
LINE
  5
29D
330
4BB
100
AcDbEntity
  8
1
100
AcDbLine
 10
8.356466000000001
 20
0.585849
 30
0.0
 11
8.316762999999999
 21
0.578255
 31
0.0
  0
LINE
  5
29E
330
4BB
100
AcDbEntity
  8
1
100
AcDbLine
 10
8.316762999999999
 20
0.578255
 30
0.0
 11
8.275600999999999
 21
0.57104
 31
0.0
  0
LINE
  5
29F
330
4BB
100
AcDbEntity
  8
1
100
AcDbLine
 10
8.275600999999999
 20
0.57104
 30
0.0
 11
8.233048
 21
0.5642300000000001
 31
0.0
  0
LINE
  5
2A0
330
4BB
100
AcDbEntity
  8
1
100
AcDbLine
 10
8.233048
 20
0.5642300000000001
 30
0.0
 11
8.189442999999998
 21
0.557959
 31
0.0
  0
LINE
  5
2A1
330
4BB
100
AcDbEntity
  8
1
100
AcDbLine
 10
8.189442999999998
 20
0.557959
 30
0.0
 11
8.144828
 21
0.5522120000000001
 31
0.0
  0
LINE
  5
2A2
330
4BB
100
AcDbEntity
  8
1
100
AcDbLine
 10
8.144828
 20
0.5522120000000001
 30
0.0
 11
8.099199999999999
 21
0.546976
 31
0.0
  0
LINE
  5
2A3
330
4BB
100
AcDbEntity
  8
1
100
AcDbLine
 10
8.099199999999999
 20
0.546976
 30
0.0
 11
8.052846999999999
 21
0.5423590000000001
 31
0.0
  0
LINE
  5
2A4
330
4BB
100
AcDbEntity
  8
1
100
AcDbLine
 10
8.052846999999999
 20
0.5423590000000001
 30
0.0
 11
8.005807
 21
0.538337
 31
0.0
  0
LINE
  5
2A5
330
4BB
100
AcDbEntity
  8
1
100
AcDbLine
 10
8.005807
 20
0.538337
 30
0.0
 11
7.958097
 21
0.5348800000000001
 31
0.0
  0
LINE
  5
2A6
330
4BB
100
AcDbEntity
  8
1
100
AcDbLine
 10
7.958097
 20
0.5348800000000001
 30
0.0
 11
7.909988
 21
0.532073
 31
0.0
  0
LINE
  5
2A7
330
4BB
100
AcDbEntity
  8
1
100
AcDbLine
 10
7.909988
 20
0.532073
 30
0.0
 11
7.861527
 21
0.5298850000000001
 31
0.0
  0
LINE
  5
2A8
330
4BB
100
AcDbEntity
  8
1
100
AcDbLine
 10
7.861527
 20
0.5298850000000001
 30
0.0
 11
7.812732
 21
0.528273
 31
0.0
  0
LINE
  5
2A9
330
4BB
100
AcDbEntity
  8
1
100
AcDbLine
 10
7.812732
 20
0.528273
 30
0.0
 11
7.76383
 21
0.527297
 31
0.0
  0
LINE
  5
2AA
330
4BB
100
AcDbEntity
  8
1
100
AcDbLine
 10
7.76383
 20
0.527297
 30
0.0
 11
7.714889
 21
0.5269180000000001
 31
0.0
  0
LINE
  5
2AB
330
4BB
100
AcDbEntity
  8
1
100
AcDbLine
 10
7.714889
 20
0.5269180000000001
 30
0.0
 11
7.665911
 21
0.5270920000000001
 31
0.0
  0
LINE
  5
2AC
330
4BB
100
AcDbEntity
  8
1
100
AcDbLine
 10
7.665911
 20
0.5270920000000001
 30
0.0
 11
7.617021
 21
0.5278540000000001
 31
0.0
  0
LINE
  5
2AD
330
4BB
100
AcDbEntity
  8
1
100
AcDbLine
 10
7.617021
 20
0.5278540000000001
 30
0.0
 11
7.568250999999999
 21
0.5291670000000001
 31
0.0
  0
LINE
  5
2AE
330
4BB
100
AcDbEntity
  8
1
100
AcDbLine
 10
7.568250999999999
 20
0.5291670000000001
 30
0.0
 11
7.519638999999999
 21
0.5309850000000001
 31
0.0
  0
LINE
  5
2AF
330
4BB
100
AcDbEntity
  8
1
100
AcDbLine
 10
7.519638999999999
 20
0.5309850000000001
 30
0.0
 11
7.471324
 21
0.533329
 31
0.0
  0
LINE
  5
2B0
330
4BB
100
AcDbEntity
  8
1
100
AcDbLine
 10
7.471324
 20
0.533329
 30
0.0
 11
7.423372
 21
0.536177
 31
0.0
  0
LINE
  5
2B1
330
4BB
100
AcDbEntity
  8
1
100
AcDbLine
 10
7.423372
 20
0.536177
 30
0.0
 11
7.375783999999999
 21
0.5394670000000001
 31
0.0
  0
LINE
  5
2B2
330
4BB
100
AcDbEntity
  8
1
100
AcDbLine
 10
7.375783999999999
 20
0.5394670000000001
 30
0.0
 11
7.328591
 21
0.5431530000000001
 31
0.0
  0
LINE
  5
2B3
330
4BB
100
AcDbEntity
  8
1
100
AcDbLine
 10
7.205772
 20
1.845862999999999
 30
0.0
 11
7.235217999999999
 21
1.874120999999999
 31
0.0
  0
LINE
  5
2B4
330
4BB
100
AcDbEntity
  8
1
100
AcDbLine
 10
7.235217999999999
 20
1.874120999999999
 30
0.0
 11
7.267663999999999
 21
1.903031999999999
 31
0.0
  0
LINE
  5
2B5
330
4BB
100
AcDbEntity
  8
1
100
AcDbLine
 10
7.267663999999999
 20
1.903031999999999
 30
0.0
 11
7.302192999999999
 21
1.931414
 31
0.0
  0
LINE
  5
2B6
330
4BB
100
AcDbEntity
  8
1
100
AcDbLine
 10
7.302192999999999
 20
1.931414
 30
0.0
 11
7.338847999999999
 21
1.959281
 31
0.0
  0
LINE
  5
2B7
330
4BB
100
AcDbEntity
  8
1
100
AcDbLine
 10
7.338847999999999
 20
1.959281
 30
0.0
 11
7.37761
 21
1.986674999999999
 31
0.0
  0
LINE
  5
2B8
330
4BB
100
AcDbEntity
  8
1
100
AcDbLine
 10
7.37761
 20
1.986674999999999
 30
0.0
 11
7.418371999999999
 21
2.01334
 31
0.0
  0
LINE
  5
2B9
330
4BB
100
AcDbEntity
  8
1
100
AcDbLine
 10
7.418371999999999
 20
2.01334
 30
0.0
 11
7.461138
 21
2.039275999999999
 31
0.0
  0
LINE
  5
2BA
330
4BB
100
AcDbEntity
  8
1
100
AcDbLine
 10
7.461138
 20
2.039275999999999
 30
0.0
 11
7.505921999999999
 21
2.064538999999999
 31
0.0
  0
LINE
  5
2BB
330
4BB
100
AcDbEntity
  8
1
100
AcDbLine
 10
7.505921999999999
 20
2.064538999999999
 30
0.0
 11
7.552636999999999
 21
2.088954
 31
0.0
  0
LINE
  5
2BC
330
4BB
100
AcDbEntity
  8
1
100
AcDbLine
 10
7.552636999999999
 20
2.088954
 30
0.0
 11
7.60128
 21
2.112535999999999
 31
0.0
  0
LINE
  5
2BD
330
4BB
100
AcDbEntity
  8
1
100
AcDbLine
 10
7.60128
 20
2.112535999999999
 30
0.0
 11
7.651867999999999
 21
2.135324
 31
0.0
  0
LINE
  5
2BE
330
4BB
100
AcDbEntity
  8
1
100
AcDbLine
 10
7.651867999999999
 20
2.135324
 30
0.0
 11
7.704332
 21
2.157172999999999
 31
0.0
  0
LINE
  5
2BF
330
4BB
100
AcDbEntity
  8
1
100
AcDbLine
 10
7.704332
 20
2.157172999999999
 30
0.0
 11
7.758846000000001
 21
2.178144
 31
0.0
  0
LINE
  5
2C0
330
4BB
100
AcDbEntity
  8
1
100
AcDbLine
 10
7.758846000000001
 20
2.178144
 30
0.0
 11
7.815244999999999
 21
2.19823
 31
0.0
  0
LINE
  5
2C1
330
4BB
100
AcDbEntity
  8
1
100
AcDbLine
 10
7.815244999999999
 20
2.19823
 30
0.0
 11
7.872955
 21
2.217159999999999
 31
0.0
  0
LINE
  5
2C2
330
4BB
100
AcDbEntity
  8
1
100
AcDbLine
 10
7.872955
 20
2.217159999999999
 30
0.0
 11
7.932141999999999
 21
2.234922
 31
0.0
  0
LINE
  5
2C3
330
4BB
100
AcDbEntity
  8
1
100
AcDbLine
 10
7.932141999999999
 20
2.234922
 30
0.0
 11
7.992633999999999
 21
2.251554
 31
0.0
  0
LINE
  5
2C4
330
4BB
100
AcDbEntity
  8
1
100
AcDbLine
 10
7.992633999999999
 20
2.251554
 30
0.0
 11
8.053328
 21
2.266827
 31
0.0
  0
LINE
  5
2C5
330
4BB
100
AcDbEntity
  8
1
100
AcDbLine
 10
8.053328
 20
2.266827
 30
0.0
 11
8.114163000000001
 21
2.280635999999999
 31
0.0
  0
LINE
  5
2C6
330
4BB
100
AcDbEntity
  8
1
100
AcDbLine
 10
8.114163000000001
 20
2.280635999999999
 30
0.0
 11
8.175175999999998
 21
2.293058999999999
 31
0.0
  0
LINE
  5
2C7
330
4BB
100
AcDbEntity
  8
1
100
AcDbLine
 10
8.175175999999998
 20
2.293058999999999
 30
0.0
 11
8.235400999999999
 21
2.304105999999999
 31
0.0
  0
LINE
  5
2C8
330
4BB
100
AcDbEntity
  8
1
100
AcDbLine
 10
8.235400999999999
 20
2.304105999999999
 30
0.0
 11
8.294745999999999
 21
2.313679999999999
 31
0.0
  0
LINE
  5
2C9
330
4BB
100
AcDbEntity
  8
1
100
AcDbLine
 10
8.294745999999999
 20
2.313679999999999
 30
0.0
 11
8.353274
 21
2.321813
 31
0.0
  0
LINE
  5
2CA
330
4BB
100
AcDbEntity
  8
1
100
AcDbLine
 10
8.353274
 20
2.321813
 30
0.0
 11
8.410232
 21
2.328672999999999
 31
0.0
  0
LINE
  5
2CB
330
4BB
100
AcDbEntity
  8
1
100
AcDbLine
 10
8.410232
 20
2.328672999999999
 30
0.0
 11
8.465486999999999
 21
2.334184
 31
0.0
  0
LINE
  5
2CC
330
4BB
100
AcDbEntity
  8
1
100
AcDbLine
 10
8.465486999999999
 20
2.334184
 30
0.0
 11
8.519146
 21
2.338341999999999
 31
0.0
  0
LINE
  5
2CD
330
4BB
100
AcDbEntity
  8
1
100
AcDbLine
 10
8.519146
 20
2.338341999999999
 30
0.0
 11
8.570821999999999
 21
2.341409999999999
 31
0.0
  0
LINE
  5
2CE
330
4BB
100
AcDbEntity
  8
1
100
AcDbLine
 10
8.570821999999999
 20
2.341409999999999
 30
0.0
 11
8.620321
 21
2.343350999999999
 31
0.0
  0
LINE
  5
2CF
330
4BB
100
AcDbEntity
  8
1
100
AcDbLine
 10
8.620321
 20
2.343350999999999
 30
0.0
 11
8.667817999999998
 21
2.344127999999999
 31
0.0
  0
LINE
  5
2D0
330
4BB
100
AcDbEntity
  8
1
100
AcDbLine
 10
8.667817999999998
 20
2.344127999999999
 30
0.0
 11
8.713485
 21
2.343997
 31
0.0
  0
LINE
  5
2D1
330
4BB
100
AcDbEntity
  8
1
100
AcDbLine
 10
8.713485
 20
2.343997
 30
0.0
 11
8.757277999999999
 21
2.342966999999999
 31
0.0
  0
LINE
  5
2D2
330
4BB
100
AcDbEntity
  8
1
100
AcDbLine
 10
8.757277999999999
 20
2.342966999999999
 30
0.0
 11
8.799228999999998
 21
2.340972999999999
 31
0.0
  0
LINE
  5
2D3
330
4BB
100
AcDbEntity
  8
1
100
AcDbLine
 10
8.799228999999998
 20
2.340972999999999
 30
0.0
 11
8.839634
 21
2.338181
 31
0.0
  0
LINE
  5
2D4
330
4BB
100
AcDbEntity
  8
1
100
AcDbLine
 10
8.839634
 20
2.338181
 30
0.0
 11
8.878529999999999
 21
2.334598
 31
0.0
  0
LINE
  5
2D5
330
4BB
100
AcDbEntity
  8
1
100
AcDbLine
 10
8.878529999999999
 20
2.334598
 30
0.0
 11
8.915872
 21
2.330175
 31
0.0
  0
LINE
  5
2D6
330
4BB
100
AcDbEntity
  8
1
100
AcDbLine
 10
8.915872
 20
2.330175
 30
0.0
 11
8.951836
 21
2.325009
 31
0.0
  0
LINE
  5
2D7
330
4BB
100
AcDbEntity
  8
1
100
AcDbLine
 10
8.951836
 20
2.325009
 30
0.0
 11
8.986508
 21
2.319075
 31
0.0
  0
LINE
  5
2D8
330
4BB
100
AcDbEntity
  8
1
100
AcDbLine
 10
8.986508
 20
2.319075
 30
0.0
 11
9.019797
 21
2.312366999999999
 31
0.0
  0
LINE
  5
2D9
330
4BB
100
AcDbEntity
  8
1
100
AcDbLine
 10
9.019797
 20
2.312366999999999
 30
0.0
 11
9.051614999999999
 21
2.305006999999999
 31
0.0
  0
LINE
  5
2DA
330
4BB
100
AcDbEntity
  8
1
100
AcDbLine
 10
9.051614999999999
 20
2.305006999999999
 30
0.0
 11
9.081908999999999
 21
2.296987
 31
0.0
  0
LINE
  5
2DB
330
4BB
100
AcDbEntity
  8
1
100
AcDbLine
 10
9.081908999999999
 20
2.296987
 30
0.0
 11
9.11073
 21
2.288288999999999
 31
0.0
  0
LINE
  5
2DC
330
4BB
100
AcDbEntity
  8
1
100
AcDbLine
 10
9.11073
 20
2.288288999999999
 30
0.0
 11
9.138135
 21
2.279025999999999
 31
0.0
  0
LINE
  5
2DD
330
4BB
100
AcDbEntity
  8
1
100
AcDbLine
 10
9.138135
 20
2.279025999999999
 30
0.0
 11
9.164101999999999
 21
2.269198999999999
 31
0.0
  0
LINE
  5
2DE
330
4BB
100
AcDbEntity
  8
1
100
AcDbLine
 10
9.164101999999999
 20
2.269198999999999
 30
0.0
 11
9.188653
 21
2.258785
 31
0.0
  0
LINE
  5
2DF
330
4BB
100
AcDbEntity
  8
1
100
AcDbLine
 10
9.188653
 20
2.258785
 30
0.0
 11
9.211918999999999
 21
2.247859999999999
 31
0.0
  0
LINE
  5
2E0
330
4BB
100
AcDbEntity
  8
1
100
AcDbLine
 10
9.211918999999999
 20
2.247859999999999
 30
0.0
 11
9.233943
 21
2.236390999999999
 31
0.0
  0
LINE
  5
2E1
330
4BB
100
AcDbEntity
  8
1
100
AcDbLine
 10
9.233943
 20
2.236390999999999
 30
0.0
 11
9.254682
 21
2.224396
 31
0.0
  0
LINE
  5
2E2
330
4BB
100
AcDbEntity
  8
1
100
AcDbLine
 10
9.254682
 20
2.224396
 30
0.0
 11
9.274143999999999
 21
2.212034
 31
0.0
  0
LINE
  5
2E3
330
4BB
100
AcDbEntity
  8
1
100
AcDbLine
 10
9.274143999999999
 20
2.212034
 30
0.0
 11
9.292289999999999
 21
2.199308999999999
 31
0.0
  0
LINE
  5
2E4
330
4BB
100
AcDbEntity
  8
1
100
AcDbLine
 10
9.292289999999999
 20
2.199308999999999
 30
0.0
 11
9.309158
 21
2.186204999999999
 31
0.0
  0
LINE
  5
2E5
330
4BB
100
AcDbEntity
  8
1
100
AcDbLine
 10
9.309158
 20
2.186204999999999
 30
0.0
 11
9.324875
 21
2.172836999999999
 31
0.0
  0
LINE
  5
2E6
330
4BB
100
AcDbEntity
  8
1
100
AcDbLine
 10
9.324875
 20
2.172836999999999
 30
0.0
 11
9.339482999999999
 21
2.159243
 31
0.0
  0
LINE
  5
2E7
330
4BB
100
AcDbEntity
  8
1
100
AcDbLine
 10
9.339482999999999
 20
2.159243
 30
0.0
 11
9.352938999999999
 21
2.145376999999999
 31
0.0
  0
LINE
  5
2E8
330
4BB
100
AcDbEntity
  8
1
100
AcDbLine
 10
9.352938999999999
 20
2.145376999999999
 30
0.0
 11
9.365244
 21
2.131238999999999
 31
0.0
  0
LINE
  5
2E9
330
4BB
100
AcDbEntity
  8
1
100
AcDbLine
 10
9.745649999999999
 20
0.990585
 30
0.0
 11
9.586565999999999
 21
0.9415370000000001
 31
0.0
  0
LINE
  5
2EA
330
4BB
100
AcDbEntity
  8
1
100
AcDbLine
 10
9.586565999999999
 20
0.9415370000000001
 30
0.0
 11
9.427605999999999
 21
0.895151
 31
0.0
  0
LINE
  5
2EB
330
4BB
100
AcDbEntity
  8
1
100
AcDbLine
 10
9.427605999999999
 20
0.895151
 30
0.0
 11
9.268893999999999
 21
0.851462
 31
0.0
  0
LINE
  5
2EC
330
4BB
100
AcDbEntity
  8
1
100
AcDbLine
 10
9.268893999999999
 20
0.851462
 30
0.0
 11
9.110552
 21
0.810505
 31
0.0
  0
LINE
  5
2ED
330
4BB
100
AcDbEntity
  8
1
100
AcDbLine
 10
9.110552
 20
0.810505
 30
0.0
 11
8.952702999999999
 21
0.772312
 31
0.0
  0
LINE
  5
2EE
330
4BB
100
AcDbEntity
  8
1
100
AcDbLine
 10
8.952702999999999
 20
0.772312
 30
0.0
 11
8.795471
 21
0.7369120000000001
 31
0.0
  0
LINE
  5
2EF
330
4BB
100
AcDbEntity
  8
1
100
AcDbLine
 10
10.246061
 20
11.496787
 30
0.0
 11
10.095546
 21
11.478995
 31
0.0
  0
LINE
  5
2F0
330
4BB
100
AcDbEntity
  8
1
100
AcDbLine
 10
10.095546
 20
11.478995
 30
0.0
 11
9.944072999999999
 21
11.463066
 31
0.0
  0
LINE
  5
2F1
330
4BB
100
AcDbEntity
  8
1
100
AcDbLine
 10
9.944072999999999
 20
11.463066
 30
0.0
 11
9.791641999999999
 21
11.449028
 31
0.0
  0
LINE
  5
2F2
330
4BB
100
AcDbEntity
  8
1
100
AcDbLine
 10
9.791641999999999
 20
11.449028
 30
0.0
 11
9.638260999999999
 21
11.436941
 31
0.0
  0
LINE
  5
2F3
330
4BB
100
AcDbEntity
  8
1
100
AcDbLine
 10
9.638260999999999
 20
11.436941
 30
0.0
 11
9.483921
 21
11.426793
 31
0.0
  0
LINE
  5
2F4
330
4BB
100
AcDbEntity
  8
1
100
AcDbLine
 10
9.483921
 20
11.426793
 30
0.0
 11
9.328602
 21
11.418486
 31
0.0
  0
LINE
  5
2F5
330
4BB
100
AcDbEntity
  8
1
100
AcDbLine
 10
9.328602
 20
11.418486
 30
0.0
 11
9.172323999999999
 21
11.412032
 31
0.0
  0
LINE
  5
2F6
330
4BB
100
AcDbEntity
  8
1
100
AcDbLine
 10
9.172323999999999
 20
11.412032
 30
0.0
 11
9.015064999999999
 21
11.407444
 31
0.0
  0
LINE
  5
2F7
330
4BB
100
AcDbEntity
  8
1
100
AcDbLine
 10
9.015064999999999
 20
11.407444
 30
0.0
 11
8.856742
 21
11.404627
 31
0.0
  0
LINE
  5
2F8
330
4BB
100
AcDbEntity
  8
1
100
AcDbLine
 10
8.856742
 20
11.404627
 30
0.0
 11
8.697461
 21
11.403575
 31
0.0
  0
LINE
  5
2F9
330
4BB
100
AcDbEntity
  8
1
100
AcDbLine
 10
8.697461
 20
11.403575
 30
0.0
 11
8.537116000000001
 21
11.404298
 31
0.0
  0
LINE
  5
2FA
330
4BB
100
AcDbEntity
  8
1
100
AcDbLine
 10
8.537116000000001
 20
11.404298
 30
0.0
 11
8.375291999999999
 21
11.406725
 31
0.0
  0
LINE
  5
2FB
330
4BB
100
AcDbEntity
  8
1
100
AcDbLine
 10
8.375291999999999
 20
11.406725
 30
0.0
 11
8.211937999999999
 21
11.410839
 31
0.0
  0
LINE
  5
2FC
330
4BB
100
AcDbEntity
  8
1
100
AcDbLine
 10
8.211937999999999
 20
11.410839
 30
0.0
 11
8.047107
 21
11.416645
 31
0.0
  0
LINE
  5
2FD
330
4BB
100
AcDbEntity
  8
1
100
AcDbLine
 10
8.047107
 20
11.416645
 30
0.0
 11
7.880546
 21
11.424098
 31
0.0
  0
LINE
  5
2FE
330
4BB
100
AcDbEntity
  8
1
100
AcDbLine
 10
7.880546
 20
11.424098
 30
0.0
 11
7.712222999999999
 21
11.433183
 31
0.0
  0
LINE
  5
2FF
330
4BB
100
AcDbEntity
  8
1
100
AcDbLine
 10
7.712222999999999
 20
11.433183
 30
0.0
 11
7.542171
 21
11.44389
 31
0.0
  0
LINE
  5
300
330
4BB
100
AcDbEntity
  8
1
100
AcDbLine
 10
7.542171
 20
11.44389
 30
0.0
 11
7.370233999999999
 21
11.456178
 31
0.0
  0
LINE
  5
301
330
4BB
100
AcDbEntity
  8
1
100
AcDbLine
 10
7.370233999999999
 20
11.456178
 30
0.0
 11
7.196463999999999
 21
11.47002
 31
0.0
  0
LINE
  5
302
330
4BB
100
AcDbEntity
  8
1
100
AcDbLine
 10
7.196463999999999
 20
11.47002
 30
0.0
 11
7.020808999999999
 21
11.485403
 31
0.0
  0
LINE
  5
303
330
4BB
100
AcDbEntity
  8
1
100
AcDbLine
 10
7.020808999999999
 20
11.485403
 30
0.0
 11
6.84296
 21
11.502307
 31
0.0
  0
LINE
  5
304
330
4BB
100
AcDbEntity
  8
1
100
AcDbLine
 10
6.84296
 20
11.502307
 30
0.0
 11
6.662942
 21
11.520695
 31
0.0
  0
LINE
  5
305
330
4BB
100
AcDbEntity
  8
1
100
AcDbLine
 10
6.662942
 20
11.520695
 30
0.0
 11
6.480729
 21
11.540553
 31
0.0
  0
LINE
  5
306
330
4BB
100
AcDbEntity
  8
1
100
AcDbLine
 10
6.480729
 20
11.540553
 30
0.0
 11
6.295937999999999
 21
11.561874
 31
0.0
  0
LINE
  5
307
330
4BB
100
AcDbEntity
  8
1
100
AcDbLine
 10
6.295937999999999
 20
11.561874
 30
0.0
 11
6.108437
 21
11.584633
 31
0.0
  0
LINE
  5
308
330
4BB
100
AcDbEntity
  8
1
100
AcDbLine
 10
6.108437
 20
11.584633
 30
0.0
 11
5.918357
 21
11.60879
 31
0.0
  0
LINE
  5
309
330
4BB
100
AcDbEntity
  8
1
100
AcDbLine
 10
5.918357
 20
11.60879
 30
0.0
 11
5.725698
 21
11.634306
 31
0.0
  0
LINE
  5
30A
330
4BB
100
AcDbEntity
  8
1
100
AcDbLine
 10
8.391548
 20
8.305683
 30
0.0
 11
8.262007999999999
 21
8.268821
 31
0.0
  0
LINE
  5
30B
330
4BB
100
AcDbEntity
  8
1
100
AcDbLine
 10
8.262007999999999
 20
8.268821
 30
0.0
 11
7.510599
 21
8.051989
 31
0.0
  0
LINE
  5
30C
330
4BB
100
AcDbEntity
  8
1
100
AcDbLine
 10
7.510599
 20
8.051989
 30
0.0
 11
6.75583
 21
7.831177999999999
 31
0.0
  0
LINE
  5
30D
330
4BB
100
AcDbEntity
  8
1
100
AcDbLine
 10
6.75583
 20
7.831177999999999
 30
0.0
 11
5.997762999999999
 21
7.606417999999999
 31
0.0
  0
LINE
  5
30E
330
4BB
100
AcDbEntity
  8
1
100
AcDbLine
 10
5.997762999999999
 20
7.606417999999999
 30
0.0
 11
5.238012
 21
7.378158999999999
 31
0.0
  0
LINE
  5
30F
330
4BB
100
AcDbEntity
  8
1
100
AcDbLine
 10
5.238012
 20
7.378158999999999
 30
0.0
 11
4.477113
 21
7.146557
 31
0.0
  0
LINE
  5
310
330
4BB
100
AcDbEntity
  8
1
100
AcDbLine
 10
4.477113
 20
7.146557
 30
0.0
 11
3.71453
 21
6.911458
 31
0.0
  0
LINE
  5
311
330
4BB
100
AcDbEntity
  8
1
100
AcDbLine
 10
3.71453
 20
6.911458
 30
0.0
 11
2.950262999999999
 21
6.672861999999999
 31
0.0
  0
LINE
  5
312
330
4BB
100
AcDbEntity
  8
1
100
AcDbLine
 10
7.891547999999999
 20
6.550149
 30
0.0
 11
7.725378
 21
6.498982999999999
 31
0.0
  0
LINE
  5
313
330
4BB
100
AcDbEntity
  8
1
100
AcDbLine
 10
7.725378
 20
6.498982999999999
 30
0.0
 11
7.559628
 21
6.450792999999999
 31
0.0
  0
LINE
  5
314
330
4BB
100
AcDbEntity
  8
1
100
AcDbLine
 10
7.559628
 20
6.450792999999999
 30
0.0
 11
7.394299
 21
6.405577
 31
0.0
  0
LINE
  5
315
330
4BB
100
AcDbEntity
  8
1
100
AcDbLine
 10
7.394299
 20
6.405577
 30
0.0
 11
7.229250999999999
 21
6.363304
 31
0.0
  0
LINE
  5
316
330
4BB
100
AcDbEntity
  8
1
100
AcDbLine
 10
7.229250999999999
 20
6.363304
 30
0.0
 11
7.064622999999999
 21
6.324005
 31
0.0
  0
LINE
  5
317
330
4BB
100
AcDbEntity
  8
1
100
AcDbLine
 10
7.064622999999999
 20
6.324005
 30
0.0
 11
6.900833
 21
6.287780999999999
 31
0.0
  0
LINE
  5
318
330
4BB
100
AcDbEntity
  8
1
100
AcDbLine
 10
6.900833
 20
6.287780999999999
 30
0.0
 11
6.737882
 21
6.25464
 31
0.0
  0
LINE
  5
319
330
4BB
100
AcDbEntity
  8
1
100
AcDbLine
 10
6.737882
 20
6.25464
 30
0.0
 11
6.575769
 21
6.224573
 31
0.0
  0
LINE
  5
31A
330
4BB
100
AcDbEntity
  8
1
100
AcDbLine
 10
6.575769
 20
6.224573
 30
0.0
 11
6.414903999999999
 21
6.197658
 31
0.0
  0
LINE
  5
31B
330
4BB
100
AcDbEntity
  8
1
100
AcDbLine
 10
6.414903999999999
 20
6.197658
 30
0.0
 11
6.25529
 21
6.173900999999999
 31
0.0
  0
LINE
  5
31C
330
4BB
100
AcDbEntity
  8
1
100
AcDbLine
 10
6.25529
 20
6.173900999999999
 30
0.0
 11
6.096924999999999
 21
6.153296
 31
0.0
  0
LINE
  5
31D
330
4BB
100
AcDbEntity
  8
1
100
AcDbLine
 10
6.096924999999999
 20
6.153296
 30
0.0
 11
5.940208999999999
 21
6.135893
 31
0.0
  0
LINE
  5
31E
330
4BB
100
AcDbEntity
  8
1
100
AcDbLine
 10
5.940208999999999
 20
6.135893
 30
0.0
 11
5.785147
 21
6.121700999999999
 31
0.0
  0
LINE
  5
31F
330
4BB
100
AcDbEntity
  8
1
100
AcDbLine
 10
5.785147
 20
6.121700999999999
 30
0.0
 11
5.631733999999999
 21
6.110712
 31
0.0
  0
LINE
  5
320
330
4BB
100
AcDbEntity
  8
1
100
AcDbLine
 10
5.631733999999999
 20
6.110712
 30
0.0
 11
5.48036
 21
6.102955
 31
0.0
  0
LINE
  5
321
330
4BB
100
AcDbEntity
  8
1
100
AcDbLine
 10
5.48036
 20
6.102955
 30
0.0
 11
5.331029
 21
6.098436
 31
0.0
  0
LINE
  5
322
330
4BB
100
AcDbEntity
  8
1
100
AcDbLine
 10
5.331029
 20
6.098436
 30
0.0
 11
5.183735999999999
 21
6.097148999999999
 31
0.0
  0
LINE
  5
323
330
4BB
100
AcDbEntity
  8
1
100
AcDbLine
 10
5.183735999999999
 20
6.097148999999999
 30
0.0
 11
5.038853999999999
 21
6.099094999999999
 31
0.0
  0
LINE
  5
324
330
4BB
100
AcDbEntity
  8
1
100
AcDbLine
 10
5.038853999999999
 20
6.099094999999999
 30
0.0
 11
4.89639
 21
6.104284999999999
 31
0.0
  0
LINE
  5
325
330
4BB
100
AcDbEntity
  8
1
100
AcDbLine
 10
4.89639
 20
6.104284999999999
 30
0.0
 11
4.756337999999999
 21
6.112708999999999
 31
0.0
  0
LINE
  5
326
330
4BB
100
AcDbEntity
  8
1
100
AcDbLine
 10
4.756337999999999
 20
6.112708999999999
 30
0.0
 11
4.619050999999999
 21
6.124344999999999
 31
0.0
  0
LINE
  5
327
330
4BB
100
AcDbEntity
  8
1
100
AcDbLine
 10
4.619050999999999
 20
6.124344999999999
 30
0.0
 11
4.484537999999999
 21
6.139202
 31
0.0
  0
LINE
  5
328
330
4BB
100
AcDbEntity
  8
1
100
AcDbLine
 10
4.484537999999999
 20
6.139202
 30
0.0
 11
4.352791999999999
 21
6.157271999999999
 31
0.0
  0
LINE
  5
329
330
4BB
100
AcDbEntity
  8
1
100
AcDbLine
 10
4.352791999999999
 20
6.157271999999999
 30
0.0
 11
4.224145
 21
6.178509
 31
0.0
  0
LINE
  5
32A
330
4BB
100
AcDbEntity
  8
1
100
AcDbLine
 10
4.224145
 20
6.178509
 30
0.0
 11
4.098606
 21
6.202922
 31
0.0
  0
LINE
  5
32B
330
4BB
100
AcDbEntity
  8
1
100
AcDbLine
 10
4.098606
 20
6.202922
 30
0.0
 11
3.976167999999999
 21
6.230501
 31
0.0
  0
LINE
  5
32C
330
4BB
100
AcDbEntity
  8
1
100
AcDbLine
 10
3.976167999999999
 20
6.230501
 30
0.0
 11
3.85714
 21
6.261176999999999
 31
0.0
  0
LINE
  5
32D
330
4BB
100
AcDbEntity
  8
1
100
AcDbLine
 10
3.85714
 20
6.261176999999999
 30
0.0
 11
3.74153
 21
6.294958999999999
 31
0.0
  0
LINE
  5
32E
330
4BB
100
AcDbEntity
  8
1
100
AcDbLine
 10
3.74153
 20
6.294958999999999
 30
0.0
 11
3.629330999999999
 21
6.331838999999999
 31
0.0
  0
LINE
  5
32F
330
4BB
100
AcDbEntity
  8
1
100
AcDbLine
 10
3.629330999999999
 20
6.331838999999999
 30
0.0
 11
3.520826999999999
 21
6.371720999999999
 31
0.0
  0
LINE
  5
330
330
4BB
100
AcDbEntity
  8
1
100
AcDbLine
 10
3.520826999999999
 20
6.371720999999999
 30
0.0
 11
3.416026999999999
 21
6.414615
 31
0.0
  0
LINE
  5
331
330
4BB
100
AcDbEntity
  8
1
100
AcDbLine
 10
3.416026999999999
 20
6.414615
 30
0.0
 11
3.314921
 21
6.460512999999999
 31
0.0
  0
LINE
  5
332
330
4BB
100
AcDbEntity
  8
1
100
AcDbLine
 10
3.314921
 20
6.460512999999999
 30
0.0
 11
3.217766
 21
6.509298
 31
0.0
  0
LINE
  5
333
330
4BB
100
AcDbEntity
  8
1
100
AcDbLine
 10
3.217766
 20
6.509298
 30
0.0
 11
3.124648
 21
6.560931
 31
0.0
  0
LINE
  5
334
330
4BB
100
AcDbEntity
  8
1
100
AcDbLine
 10
3.124648
 20
6.560931
 30
0.0
 11
3.035479999999999
 21
6.615452999999999
 31
0.0
  0
LINE
  5
335
330
4BB
100
AcDbEntity
  8
1
100
AcDbLine
 10
3.035479999999999
 20
6.615452999999999
 30
0.0
 11
2.950262999999999
 21
6.672861999999999
 31
0.0
  0
LINE
  5
336
330
4BB
100
AcDbEntity
  8
1
100
AcDbLine
 10
5.587220999999999
 20
11.726324
 30
0.0
 11
5.043319999999999
 21
12.091709
 31
0.0
  0
LINE
  5
337
330
4BB
100
AcDbEntity
  8
1
100
AcDbLine
 10
5.725698
 20
11.634306
 30
0.0
 11
5.587220999999999
 21
11.726324
 31
0.0
  0
LINE
  5
338
330
4BB
100
AcDbEntity
  8
1
100
AcDbLine
 10
8.611062999999999
 20
8.459298999999999
 30
0.0
 11
8.625918999999999
 21
8.376264
 31
0.0
  0
LINE
  5
339
330
4BB
100
AcDbEntity
  8
1
100
AcDbLine
 10
8.625918999999999
 20
8.376264
 30
0.0
 11
8.645405999999999
 21
8.293700999999998
 31
0.0
  0
LINE
  5
33A
330
4BB
100
AcDbEntity
  8
1
100
AcDbLine
 10
8.645405999999999
 20
8.293700999999998
 30
0.0
 11
8.669522
 21
8.211608999999999
 31
0.0
  0
LINE
  5
33B
330
4BB
100
AcDbEntity
  8
1
100
AcDbLine
 10
8.669522
 20
8.211608999999999
 30
0.0
 11
8.698178
 21
8.129891
 31
0.0
  0
LINE
  5
33C
330
4BB
100
AcDbEntity
  8
1
100
AcDbLine
 10
8.698178
 20
8.129891
 30
0.0
 11
8.731465
 21
8.048639999999998
 31
0.0
  0
LINE
  5
33D
330
4BB
100
AcDbEntity
  8
1
100
AcDbLine
 10
8.731465
 20
8.048639999999998
 30
0.0
 11
8.769652999999999
 21
7.968136999999999
 31
0.0
  0
LINE
  5
33E
330
4BB
100
AcDbEntity
  8
1
100
AcDbLine
 10
8.769652999999999
 20
7.968136999999999
 30
0.0
 11
8.812811999999999
 21
7.888349
 31
0.0
  0
LINE
  5
33F
330
4BB
100
AcDbEntity
  8
1
100
AcDbLine
 10
8.812811999999999
 20
7.888349
 30
0.0
 11
8.860872
 21
7.809311999999999
 31
0.0
  0
LINE
  5
340
330
4BB
100
AcDbEntity
  8
1
100
AcDbLine
 10
8.860872
 20
7.809311999999999
 30
0.0
 11
8.913899
 21
7.731413
 31
0.0
  0
LINE
  5
341
330
4BB
100
AcDbEntity
  8
1
100
AcDbLine
 10
8.913899
 20
7.731413
 30
0.0
 11
8.971855999999998
 21
7.654764
 31
0.0
  0
LINE
  5
342
330
4BB
100
AcDbEntity
  8
1
100
AcDbLine
 10
8.971855999999998
 20
7.654764
 30
0.0
 11
9.034777999999999
 21
7.579271
 31
0.0
  0
LINE
  5
343
330
4BB
100
AcDbEntity
  8
1
100
AcDbLine
 10
9.034777999999999
 20
7.579271
 30
0.0
 11
9.102843
 21
7.505016999999999
 31
0.0
  0
LINE
  5
344
330
4BB
100
AcDbEntity
  8
1
100
AcDbLine
 10
9.102843
 20
7.505016999999999
 30
0.0
 11
9.175917
 21
7.432085
 31
0.0
  0
LINE
  5
345
330
4BB
100
AcDbEntity
  8
1
100
AcDbLine
 10
9.175917
 20
7.432085
 30
0.0
 11
9.254132
 21
7.360408999999999
 31
0.0
  0
LINE
  5
346
330
4BB
100
AcDbEntity
  8
1
100
AcDbLine
 10
9.254132
 20
7.360408999999999
 30
0.0
 11
9.33806
 21
7.289842999999999
 31
0.0
  0
LINE
  5
347
330
4BB
100
AcDbEntity
  8
1
100
AcDbLine
 10
9.33806
 20
7.289842999999999
 30
0.0
 11
9.427839999999999
 21
7.220242999999999
 31
0.0
  0
LINE
  5
348
330
4BB
100
AcDbEntity
  8
1
100
AcDbLine
 10
9.427839999999999
 20
7.220242999999999
 30
0.0
 11
9.523333
 21
7.151753999999999
 31
0.0
  0
LINE
  5
349
330
4BB
100
AcDbEntity
  8
1
100
AcDbLine
 10
9.523333
 20
7.151753999999999
 30
0.0
 11
9.624689
 21
7.084658999999999
 31
0.0
  0
LINE
  5
34A
330
4BB
100
AcDbEntity
  8
1
100
AcDbLine
 10
9.624689
 20
7.084658999999999
 30
0.0
 11
9.731958999999999
 21
7.019055999999999
 31
0.0
  0
LINE
  5
34B
330
4BB
100
AcDbEntity
  8
1
100
AcDbLine
 10
9.731958999999999
 20
7.019055999999999
 30
0.0
 11
9.845092999999998
 21
6.954857999999999
 31
0.0
  0
LINE
  5
34C
330
4BB
100
AcDbEntity
  8
1
100
AcDbLine
 10
9.845092999999998
 20
6.954857999999999
 30
0.0
 11
9.964089999999998
 21
6.892069
 31
0.0
  0
LINE
  5
34D
330
4BB
100
AcDbEntity
  8
1
100
AcDbLine
 10
8.391548
 20
6.806897
 30
0.0
 11
8.468802
 21
6.476780999999999
 31
0.0
  0
LINE
  5
34E
330
4BB
100
AcDbEntity
  8
1
100
AcDbLine
 10
9.164089999999999
 20
6.218776999999999
 30
0.0
 11
9.077436999999999
 21
6.474110999999999
 31
0.0
  0
LINE
  5
34F
330
4BB
100
AcDbEntity
  8
1
100
AcDbLine
 10
9.077436999999999
 20
6.474110999999999
 30
0.0
 11
8.990949999999999
 21
6.725594999999999
 31
0.0
  0
LINE
  5
350
330
4BB
100
AcDbEntity
  8
1
100
AcDbLine
 10
8.990949999999999
 20
6.725594999999999
 30
0.0
 11
8.904628999999999
 21
6.973233
 31
0.0
  0
LINE
  5
351
330
4BB
100
AcDbEntity
  8
1
100
AcDbLine
 10
8.904628999999999
 20
6.973233
 30
0.0
 11
8.818424999999999
 21
7.217158
 31
0.0
  0
LINE
  5
352
330
4BB
100
AcDbEntity
  8
1
100
AcDbLine
 10
8.818424999999999
 20
7.217158
 30
0.0
 11
8.732388
 21
7.457236999999999
 31
0.0
  0
LINE
  5
353
330
4BB
100
AcDbEntity
  8
1
100
AcDbLine
 10
8.732388
 20
7.457236999999999
 30
0.0
 11
8.646665999999999
 21
7.693052999999999
 31
0.0
  0
LINE
  5
354
330
4BB
100
AcDbEntity
  8
1
100
AcDbLine
 10
8.646665999999999
 20
7.693052999999999
 30
0.0
 11
8.561310999999999
 21
7.924466999999999
 31
0.0
  0
LINE
  5
355
330
4BB
100
AcDbEntity
  8
1
100
AcDbLine
 10
8.561310999999999
 20
7.924466999999999
 30
0.0
 11
8.476271
 21
8.151617999999999
 31
0.0
  0
LINE
  5
356
330
4BB
100
AcDbEntity
  8
1
100
AcDbLine
 10
8.476271
 20
8.151617999999999
 30
0.0
 11
8.391548
 21
8.374508
 31
0.0
  0
LINE
  5
357
330
4BB
100
AcDbEntity
  8
1
100
AcDbLine
 10
9.964089999999998
 20
6.892069
 30
0.0
 11
9.964089999999998
 21
6.555422999999999
 31
0.0
  0
LINE
  5
358
330
4BB
100
AcDbEntity
  8
1
100
AcDbLine
 10
8.391548
 20
8.374508
 30
0.0
 11
8.391548
 21
6.806897
 31
0.0
  0
LINE
  5
359
330
4BB
100
AcDbEntity
  8
1
100
AcDbLine
 10
8.414369999999999
 20
6.715654999999999
 30
0.0
 11
7.891547999999999
 21
6.550149
 31
0.0
  0
LINE
  5
35A
330
4BB
100
AcDbEntity
  8
1
100
AcDbLine
 10
9.561382999999999
 20
6.386371999999999
 30
0.0
 11
9.964089999999998
 21
6.555422999999999
 31
0.0
  0
LINE
  5
35B
330
4BB
100
AcDbEntity
  8
1
100
AcDbLine
 10
9.164089999999999
 20
6.218776999999999
 30
0.0
 11
9.561382999999999
 21
6.386371999999999
 31
0.0
  0
LINE
  5
35C
330
4BB
100
AcDbEntity
  8
1
100
AcDbLine
 10
8.391548
 20
8.374508
 30
0.0
 11
8.611062999999999
 21
8.459298999999999
 31
0.0
  0
LINE
  5
35D
330
4BB
100
AcDbEntity
  8
1
100
AcDbLine
 10
16.0
 20
-4.498228
 30
0.0
 11
16.0
 21
-0.6564870000000001
 31
0.0
  0
LINE
  5
35E
330
4BB
100
AcDbEntity
  8
1
100
AcDbLine
 10
15.5
 20
-1.463384
 30
0.0
 11
15.5
 21
6.397655999999999
 31
0.0
  0
LINE
  5
35F
330
4BB
100
AcDbEntity
  8
1
100
AcDbLine
 10
14.1
 20
1.434712
 30
0.0
 11
14.1
 21
-2.491783999999999
 31
0.0
  0
LINE
  5
360
330
4BB
100
AcDbEntity
  8
1
100
AcDbLine
 10
16.0
 20
-9.476426
 30
0.0
 11
16.0
 21
-6.160363999999999
 31
0.0
  0
LINE
  5
361
330
4BB
100
AcDbEntity
  8
1
100
AcDbLine
 10
15.5
 20
-11.169165
 30
0.0
 11
15.5
 21
-4.833591
 31
0.0
  0
LINE
  5
362
330
4BB
100
AcDbEntity
  8
1
100
AcDbLine
 10
16.0
 20
-12.43333
 30
0.0
 11
14.4941
 21
-13.5
 31
0.0
  0
LINE
  5
363
330
4BB
100
AcDbEntity
  8
1
100
AcDbLine
 10
16.0
 20
-11.175349
 30
0.0
 11
14.085676
 21
-12.531317
 31
0.0
  0
LINE
  5
364
330
4BB
100
AcDbEntity
  8
1
100
AcDbLine
 10
15.5
 20
-11.169165
 30
0.0
 11
15.353302
 21
-11.295164
 31
0.0
  0
LINE
  5
365
330
4BB
100
AcDbEntity
  8
1
100
AcDbLine
 10
15.353302
 20
-11.295164
 30
0.0
 11
15.204418
 21
-11.422158
 31
0.0
  0
LINE
  5
366
330
4BB
100
AcDbEntity
  8
1
100
AcDbLine
 10
15.204418
 20
-11.422158
 30
0.0
 11
15.053348
 21
-11.550147
 31
0.0
  0
LINE
  5
367
330
4BB
100
AcDbEntity
  8
1
100
AcDbLine
 10
15.053348
 20
-11.550147
 30
0.0
 11
14.900128
 21
-11.679109
 31
0.0
  0
LINE
  5
368
330
4BB
100
AcDbEntity
  8
1
100
AcDbLine
 10
14.900128
 20
-11.679109
 30
0.0
 11
14.744721
 21
-11.809065
 31
0.0
  0
LINE
  5
369
330
4BB
100
AcDbEntity
  8
1
100
AcDbLine
 10
14.744721
 20
-11.809065
 30
0.0
 11
14.587016
 21
-11.940085
 31
0.0
  0
LINE
  5
36A
330
4BB
100
AcDbEntity
  8
1
100
AcDbLine
 10
14.587016
 20
-11.940085
 30
0.0
 11
14.426976
 21
-12.072191
 31
0.0
  0
LINE
  5
36B
330
4BB
100
AcDbEntity
  8
1
100
AcDbLine
 10
14.426976
 20
-12.072191
 30
0.0
 11
14.264637
 21
-12.205359
 31
0.0
  0
LINE
  5
36C
330
4BB
100
AcDbEntity
  8
1
100
AcDbLine
 10
14.264637
 20
-12.205359
 30
0.0
 11
14.1
 21
-12.33959
 31
0.0
  0
LINE
  5
36D
330
4BB
100
AcDbEntity
  8
1
100
AcDbLine
 10
15.5
 20
-9.304733999999999
 30
0.0
 11
15.353392
 21
-9.434236
 31
0.0
  0
LINE
  5
36E
330
4BB
100
AcDbEntity
  8
1
100
AcDbLine
 10
15.353392
 20
-9.434236
 30
0.0
 11
15.204576
 21
-9.564982999999999
 31
0.0
  0
LINE
  5
36F
330
4BB
100
AcDbEntity
  8
1
100
AcDbLine
 10
15.204576
 20
-9.564982999999999
 30
0.0
 11
15.053552
 21
-9.696974
 31
0.0
  0
LINE
  5
370
330
4BB
100
AcDbEntity
  8
1
100
AcDbLine
 10
15.053552
 20
-9.696974
 30
0.0
 11
14.90036
 21
-9.830180999999999
 31
0.0
  0
LINE
  5
371
330
4BB
100
AcDbEntity
  8
1
100
AcDbLine
 10
14.90036
 20
-9.830180999999999
 30
0.0
 11
14.74496
 21
-9.964633
 31
0.0
  0
LINE
  5
372
330
4BB
100
AcDbEntity
  8
1
100
AcDbLine
 10
14.74496
 20
-9.964633
 30
0.0
 11
14.587235
 21
-10.10041
 31
0.0
  0
LINE
  5
373
330
4BB
100
AcDbEntity
  8
1
100
AcDbLine
 10
14.587235
 20
-10.10041
 30
0.0
 11
14.427147
 21
-10.237537
 31
0.0
  0
LINE
  5
374
330
4BB
100
AcDbEntity
  8
1
100
AcDbLine
 10
14.427147
 20
-10.237537
 30
0.0
 11
14.264736
 21
-10.375991
 31
0.0
  0
LINE
  5
375
330
4BB
100
AcDbEntity
  8
1
100
AcDbLine
 10
14.264736
 20
-10.375991
 30
0.0
 11
14.1
 21
-10.515768
 31
0.0
  0
LINE
  5
376
330
4BB
100
AcDbEntity
  8
1
100
AcDbLine
 10
14.1
 20
-10.515768
 30
0.0
 11
14.1
 21
-12.33959
 31
0.0
  0
LINE
  5
377
330
4BB
100
AcDbEntity
  8
1
100
AcDbLine
 10
16.0
 20
-12.43333
 30
0.0
 11
16.0
 21
-9.675
 31
0.0
  0
LINE
  5
378
330
4BB
100
AcDbEntity
  8
1
100
AcDbLine
 10
15.5
 20
-8.368944
 30
0.0
 11
16.0
 21
-8.531791
 31
0.0
  0
LINE
  5
379
330
4BB
100
AcDbEntity
  8
1
100
AcDbLine
 10
15.5
 20
-8.721840999999999
 30
0.0
 11
16.0
 21
-8.884688999999999
 31
0.0
  0
LINE
  5
37A
330
4BB
100
AcDbEntity
  8
1
100
AcDbLine
 10
16.0
 20
-9.476426
 30
0.0
 11
15.5
 21
-9.474365999999999
 31
0.0
  0
LINE
  5
37B
330
4BB
100
AcDbEntity
  8
1
100
AcDbLine
 10
15.5
 20
-9.675
 30
0.0
 11
16.0
 21
-9.675
 31
0.0
  0
LINE
  5
37C
330
4BB
100
AcDbEntity
  8
1
100
AcDbLine
 10
15.5
 20
-9.871933999999999
 30
0.0
 11
16.0
 21
-9.871933
 31
0.0
  0
LINE
  5
37D
330
4BB
100
AcDbEntity
  8
1
100
AcDbLine
 10
16.0
 20
-4.498228
 30
0.0
 11
14.608258
 21
-5.431706
 31
0.0
  0
LINE
  5
37E
330
4BB
100
AcDbEntity
  8
1
100
AcDbLine
 10
14.493217
 20
-5.114198
 30
0.0
 11
16.0
 21
-4.103559999999999
 31
0.0
  0
LINE
  5
37F
330
4BB
100
AcDbEntity
  8
1
100
AcDbLine
 10
16.0
 20
-1.308194999999999
 30
0.0
 11
14.085676
 21
-2.592181999999999
 31
0.0
  0
LINE
  5
380
330
4BB
100
AcDbEntity
  8
1
100
AcDbLine
 10
14.900128
 20
-1.908253
 30
0.0
 11
14.587016
 21
-2.137859999999999
 31
0.0
  0
LINE
  5
381
330
4BB
100
AcDbEntity
  8
1
100
AcDbLine
 10
14.493217
 20
-5.114198
 30
0.0
 11
14.441429
 21
-4.816774999999999
 31
0.0
  0
LINE
  5
382
330
4BB
100
AcDbEntity
  8
1
100
AcDbLine
 10
14.441429
 20
-4.816774999999999
 30
0.0
 11
14.391275
 21
-4.523659999999999
 31
0.0
  0
LINE
  5
383
330
4BB
100
AcDbEntity
  8
1
100
AcDbLine
 10
14.391275
 20
-4.523659999999999
 30
0.0
 11
14.342753
 21
-4.234850999999999
 31
0.0
  0
LINE
  5
384
330
4BB
100
AcDbEntity
  8
1
100
AcDbLine
 10
14.342753
 20
-4.234850999999999
 30
0.0
 11
14.295875
 21
-3.950359999999999
 31
0.0
  0
LINE
  5
385
330
4BB
100
AcDbEntity
  8
1
100
AcDbLine
 10
14.295875
 20
-3.950359999999999
 30
0.0
 11
14.25063
 21
-3.670176
 31
0.0
  0
LINE
  5
386
330
4BB
100
AcDbEntity
  8
1
100
AcDbLine
 10
14.25063
 20
-3.670176
 30
0.0
 11
14.20699
 21
-3.394269
 31
0.0
  0
LINE
  5
387
330
4BB
100
AcDbEntity
  8
1
100
AcDbLine
 10
14.20699
 20
-3.394269
 30
0.0
 11
14.164947
 21
-3.12263
 31
0.0
  0
LINE
  5
388
330
4BB
100
AcDbEntity
  8
1
100
AcDbLine
 10
14.164947
 20
-3.12263
 30
0.0
 11
14.124509
 21
-2.855266999999999
 31
0.0
  0
LINE
  5
389
330
4BB
100
AcDbEntity
  8
1
100
AcDbLine
 10
14.124509
 20
-2.855266999999999
 30
0.0
 11
14.085676
 21
-2.592181999999999
 31
0.0
  0
LINE
  5
38A
330
4BB
100
AcDbEntity
  8
1
100
AcDbLine
 10
14.493481
 20
-5.114022
 30
0.0
 11
14.511439
 21
-5.166922
 31
0.0
  0
LINE
  5
38B
330
4BB
100
AcDbEntity
  8
1
100
AcDbLine
 10
14.511439
 20
-5.166922
 30
0.0
 11
14.529865
 21
-5.219841
 31
0.0
  0
LINE
  5
38C
330
4BB
100
AcDbEntity
  8
1
100
AcDbLine
 10
14.529865
 20
-5.219841
 30
0.0
 11
14.54876
 21
-5.272778999999999
 31
0.0
  0
LINE
  5
38D
330
4BB
100
AcDbEntity
  8
1
100
AcDbLine
 10
14.54876
 20
-5.272778999999999
 30
0.0
 11
14.568124
 21
-5.325734999999999
 31
0.0
  0
LINE
  5
38E
330
4BB
100
AcDbEntity
  8
1
100
AcDbLine
 10
14.568124
 20
-5.325734999999999
 30
0.0
 11
14.587957
 21
-5.378712
 31
0.0
  0
LINE
  5
38F
330
4BB
100
AcDbEntity
  8
1
100
AcDbLine
 10
14.587957
 20
-5.378712
 30
0.0
 11
14.608258
 21
-5.431706
 31
0.0
  0
LINE
  5
390
330
4BB
100
AcDbEntity
  8
1
100
AcDbLine
 10
14.587016
 20
-2.137859999999999
 30
0.0
 11
14.264637
 21
-2.372550999999999
 31
0.0
  0
LINE
  5
391
330
4BB
100
AcDbEntity
  8
1
100
AcDbLine
 10
14.264637
 20
-2.372550999999999
 30
0.0
 11
14.1
 21
-2.491783999999999
 31
0.0
  0
LINE
  5
392
330
4BB
100
AcDbEntity
  8
1
100
AcDbLine
 10
15.204418
 20
-1.683449999999999
 30
0.0
 11
14.900128
 21
-1.908253
 31
0.0
  0
LINE
  5
393
330
4BB
100
AcDbEntity
  8
1
100
AcDbLine
 10
15.5
 20
-1.463384
 30
0.0
 11
15.204418
 21
-1.683449999999999
 31
0.0
  0
LINE
  5
394
330
4BB
100
AcDbEntity
  8
1
100
AcDbLine
 10
15.5
 20
-5.997518
 30
0.0
 11
16.0
 21
-6.160363999999999
 31
0.0
  0
LINE
  5
395
330
4BB
100
AcDbEntity
  8
1
100
AcDbLine
 10
14.90036
 20
1.813886999999999
 30
0.0
 11
14.587235
 21
1.664958
 31
0.0
  0
LINE
  5
396
330
4BB
100
AcDbEntity
  8
1
100
AcDbLine
 10
14.587235
 20
1.664958
 30
0.0
 11
14.264736
 21
1.512367999999999
 31
0.0
  0
LINE
  5
397
330
4BB
100
AcDbEntity
  8
1
100
AcDbLine
 10
14.264736
 20
1.512367999999999
 30
0.0
 11
14.1
 21
1.434712
 31
0.0
  0
LINE
  5
398
330
4BB
100
AcDbEntity
  8
1
100
AcDbLine
 10
12.407985
 20
0.9778020000000001
 30
0.0
 11
11.549191
 21
0.747748
 31
0.0
  0
LINE
  5
399
330
4BB
100
AcDbEntity
  8
1
100
AcDbLine
 10
13.258299
 20
1.206803
 30
0.0
 11
12.407985
 21
0.9778020000000001
 31
0.0
  0
LINE
  5
39A
330
4BB
100
AcDbEntity
  8
1
100
AcDbLine
 10
14.1
 20
1.434712
 30
0.0
 11
13.258299
 21
1.206803
 31
0.0
  0
LINE
  5
39B
330
4BB
100
AcDbEntity
  8
1
100
AcDbLine
 10
16.0
 20
1.232334999999999
 30
0.0
 11
16.0
 21
5.107518999999999
 31
0.0
  0
LINE
  5
39C
330
4BB
100
AcDbEntity
  8
1
100
AcDbLine
 10
16.0
 20
5.107518999999999
 30
0.0
 11
15.5
 21
5.453693
 31
0.0
  0
LINE
  5
39D
330
4BB
100
AcDbEntity
  8
1
100
AcDbLine
 10
15.5
 20
3.758506999999999
 30
0.0
 11
16.0
 21
3.605226
 31
0.0
  0
LINE
  5
39E
330
4BB
100
AcDbEntity
  8
1
100
AcDbLine
 10
15.5
 20
1.526373999999999
 30
0.0
 11
16.0
 21
1.373093
 31
0.0
  0
LINE
  5
39F
330
4BB
100
AcDbEntity
  8
1
100
AcDbLine
 10
15.204576
 20
1.959351999999999
 30
0.0
 11
14.90036
 21
1.813886999999999
 31
0.0
  0
LINE
  5
3A0
330
4BB
100
AcDbEntity
  8
1
100
AcDbLine
 10
15.5
 20
2.101402999999999
 30
0.0
 11
15.204576
 21
1.959351999999999
 31
0.0
  0
LINE
  5
3A1
330
4BB
100
AcDbEntity
  8
1
100
AcDbLine
 10
15.5
 20
1.385615999999999
 30
0.0
 11
16.0
 21
1.232334999999999
 31
0.0
  0
LINE
  5
3A2
330
4BB
100
AcDbEntity
  8
1
100
AcDbLine
 10
15.5
 20
-0.8147680000000001
 30
0.0
 11
16.0
 21
-0.6564870000000001
 31
0.0
  0
LINE
  5
3A3
330
4BB
100
AcDbEntity
  8
1
100
AcDbLine
 10
15.5
 20
11.406137
 30
0.0
 11
15.353392
 21
11.465043
 31
0.0
  0
LINE
  5
3A4
330
4BB
100
AcDbEntity
  8
1
100
AcDbLine
 10
15.353392
 20
11.465043
 30
0.0
 11
15.204576
 21
11.524335
 31
0.0
  0
LINE
  5
3A5
330
4BB
100
AcDbEntity
  8
1
100
AcDbLine
 10
15.204576
 20
11.524335
 30
0.0
 11
15.053553
 21
11.584013
 31
0.0
  0
LINE
  5
3A6
330
4BB
100
AcDbEntity
  8
1
100
AcDbLine
 10
15.053553
 20
11.584013
 30
0.0
 11
14.90036
 21
11.644067
 31
0.0
  0
LINE
  5
3A7
330
4BB
100
AcDbEntity
  8
1
100
AcDbLine
 10
14.90036
 20
11.644067
 30
0.0
 11
14.74496
 21
11.704509
 31
0.0
  0
LINE
  5
3A8
330
4BB
100
AcDbEntity
  8
1
100
AcDbLine
 10
14.74496
 20
11.704509
 30
0.0
 11
14.587235
 21
11.765368
 31
0.0
  0
LINE
  5
3A9
330
4BB
100
AcDbEntity
  8
1
100
AcDbLine
 10
14.587235
 20
11.765368
 30
0.0
 11
14.427148
 21
11.826655
 31
0.0
  0
LINE
  5
3AA
330
4BB
100
AcDbEntity
  8
1
100
AcDbLine
 10
14.427148
 20
11.826655
 30
0.0
 11
14.264736
 21
11.888359
 31
0.0
  0
LINE
  5
3AB
330
4BB
100
AcDbEntity
  8
1
100
AcDbLine
 10
14.264736
 20
11.888359
 30
0.0
 11
14.1
 21
11.95048
 31
0.0
  0
LINE
  5
3AC
330
4BB
100
AcDbEntity
  8
1
100
AcDbLine
 10
16.0
 20
9.867153999999999
 30
0.0
 11
14.085676
 21
9.939135
 31
0.0
  0
LINE
  5
3AD
330
4BB
100
AcDbEntity
  8
1
100
AcDbLine
 10
14.493217
 20
8.262961999999999
 30
0.0
 11
16.0
 21
8.206305
 31
0.0
  0
LINE
  5
3AE
330
4BB
100
AcDbEntity
  8
1
100
AcDbLine
 10
16.0
 20
7.935102
 30
0.0
 11
14.608258
 21
7.987433
 31
0.0
  0
LINE
  5
3AF
330
4BB
100
AcDbEntity
  8
1
100
AcDbLine
 10
14.493217
 20
8.262961999999999
 30
0.0
 11
14.441429
 21
8.46226
 31
0.0
  0
LINE
  5
3B0
330
4BB
100
AcDbEntity
  8
1
100
AcDbLine
 10
14.441429
 20
8.46226
 30
0.0
 11
14.391275
 21
8.658286
 31
0.0
  0
LINE
  5
3B1
330
4BB
100
AcDbEntity
  8
1
100
AcDbLine
 10
14.391275
 20
8.658286
 30
0.0
 11
14.342753
 21
8.851039999999999
 31
0.0
  0
LINE
  5
3B2
330
4BB
100
AcDbEntity
  8
1
100
AcDbLine
 10
14.342753
 20
8.851039999999999
 30
0.0
 11
14.295875
 21
9.040511999999999
 31
0.0
  0
LINE
  5
3B3
330
4BB
100
AcDbEntity
  8
1
100
AcDbLine
 10
14.295875
 20
9.040511999999999
 30
0.0
 11
14.25063
 21
9.226713
 31
0.0
  0
LINE
  5
3B4
330
4BB
100
AcDbEntity
  8
1
100
AcDbLine
 10
14.25063
 20
9.226713
 30
0.0
 11
14.20699
 21
9.409672999999999
 31
0.0
  0
LINE
  5
3B5
330
4BB
100
AcDbEntity
  8
1
100
AcDbLine
 10
14.20699
 20
9.409672999999999
 30
0.0
 11
14.164947
 21
9.589401999999999
 31
0.0
  0
LINE
  5
3B6
330
4BB
100
AcDbEntity
  8
1
100
AcDbLine
 10
14.164947
 20
9.589401999999999
 30
0.0
 11
14.124509
 21
9.765889999999998
 31
0.0
  0
LINE
  5
3B7
330
4BB
100
AcDbEntity
  8
1
100
AcDbLine
 10
14.124509
 20
9.765889999999998
 30
0.0
 11
14.085676
 21
9.939135
 31
0.0
  0
LINE
  5
3B8
330
4BB
100
AcDbEntity
  8
1
100
AcDbLine
 10
14.493481
 20
8.262952999999999
 30
0.0
 11
14.511439
 21
8.217648999999999
 31
0.0
  0
LINE
  5
3B9
330
4BB
100
AcDbEntity
  8
1
100
AcDbLine
 10
14.511439
 20
8.217648999999999
 30
0.0
 11
14.529865
 21
8.172099000000001
 31
0.0
  0
LINE
  5
3BA
330
4BB
100
AcDbEntity
  8
1
100
AcDbLine
 10
14.529865
 20
8.172099000000001
 30
0.0
 11
14.54876
 21
8.126303
 31
0.0
  0
LINE
  5
3BB
330
4BB
100
AcDbEntity
  8
1
100
AcDbLine
 10
14.54876
 20
8.126303
 30
0.0
 11
14.568124
 21
8.08026
 31
0.0
  0
LINE
  5
3BC
330
4BB
100
AcDbEntity
  8
1
100
AcDbLine
 10
14.568124
 20
8.08026
 30
0.0
 11
14.587957
 21
8.033969
 31
0.0
  0
LINE
  5
3BD
330
4BB
100
AcDbEntity
  8
1
100
AcDbLine
 10
14.587957
 20
8.033969
 30
0.0
 11
14.608258
 21
7.987433
 31
0.0
  0
LINE
  5
3BE
330
4BB
100
AcDbEntity
  8
1
100
AcDbLine
 10
14.1
 20
11.95048
 30
0.0
 11
14.1
 21
9.938596999999999
 31
0.0
  0
LINE
  5
3BF
330
4BB
100
AcDbEntity
  8
1
100
AcDbLine
 10
15.5
 20
11.406137
 30
0.0
 11
15.5
 21
9.885953999999999
 31
0.0
  0
LINE
  5
3C0
330
4BB
100
AcDbEntity
  8
1
100
AcDbLine
 10
0.0
 20
13.05
 30
0.0
 11
2.999155
 21
13.05
 31
0.0
  0
LINE
  5
3C1
330
4BB
100
AcDbEntity
  8
1
100
AcDbLine
 10
8.391548
 20
12.869506
 30
0.0
 11
8.262285
 21
12.877779
 31
0.0
  0
LINE
  5
3C2
330
4BB
100
AcDbEntity
  8
1
100
AcDbLine
 10
8.262285
 20
12.877779
 30
0.0
 11
7.510889999999999
 21
12.919852
 31
0.0
  0
LINE
  5
3C3
330
4BB
100
AcDbEntity
  8
1
100
AcDbLine
 10
7.510889999999999
 20
12.919852
 30
0.0
 11
6.756139999999999
 21
12.956094
 31
0.0
  0
LINE
  5
3C4
330
4BB
100
AcDbEntity
  8
1
100
AcDbLine
 10
6.756139999999999
 20
12.956094
 30
0.0
 11
5.998089
 21
12.986526
 31
0.0
  0
LINE
  5
3C5
330
4BB
100
AcDbEntity
  8
1
100
AcDbLine
 10
5.998089
 20
12.986526
 30
0.0
 11
5.238317999999999
 21
13.011031
 31
0.0
  0
LINE
  5
3C6
330
4BB
100
AcDbEntity
  8
1
100
AcDbLine
 10
5.238317999999999
 20
13.011031
 30
0.0
 11
4.477352999999999
 21
13.029572
 31
0.0
  0
LINE
  5
3C7
330
4BB
100
AcDbEntity
  8
1
100
AcDbLine
 10
4.477352999999999
 20
13.029572
 30
0.0
 11
3.714668
 21
13.042187
 31
0.0
  0
LINE
  5
3C8
330
4BB
100
AcDbEntity
  8
1
100
AcDbLine
 10
3.714668
 20
13.042187
 30
0.0
 11
3.057008
 21
13.04794
 31
0.0
  0
LINE
  5
3C9
330
4BB
100
AcDbEntity
  8
1
100
AcDbLine
 10
9.164089999999999
 20
13.328664
 30
0.0
 11
9.077415
 21
13.319659
 31
0.0
  0
LINE
  5
3CA
330
4BB
100
AcDbEntity
  8
1
100
AcDbLine
 10
9.077415
 20
13.319659
 30
0.0
 11
9.015544999999999
 21
13.309114
 31
0.0
  0
LINE
  5
3CB
330
4BB
100
AcDbEntity
  8
1
100
AcDbLine
 10
9.015544999999999
 20
13.309114
 30
0.0
 11
8.990914999999999
 21
13.303959
 31
0.0
  0
LINE
  5
3CC
330
4BB
100
AcDbEntity
  8
1
100
AcDbLine
 10
8.990914999999999
 20
13.303959
 30
0.0
 11
8.904589999999998
 21
13.281563
 31
0.0
  0
LINE
  5
3CD
330
4BB
100
AcDbEntity
  8
1
100
AcDbLine
 10
8.904589999999998
 20
13.281563
 30
0.0
 11
8.818394999999998
 21
13.252449
 31
0.0
  0
LINE
  5
3CE
330
4BB
100
AcDbEntity
  8
1
100
AcDbLine
 10
8.818394999999998
 20
13.252449
 30
0.0
 11
8.732374999999999
 21
13.216639
 31
0.0
  0
LINE
  5
3CF
330
4BB
100
AcDbEntity
  8
1
100
AcDbLine
 10
8.732374999999999
 20
13.216639
 30
0.0
 11
8.646666999999998
 21
13.174199
 31
0.0
  0
LINE
  5
3D0
330
4BB
100
AcDbEntity
  8
1
100
AcDbLine
 10
8.646666999999998
 20
13.174199
 30
0.0
 11
8.561315999999999
 21
13.125149
 31
0.0
  0
LINE
  5
3D1
330
4BB
100
AcDbEntity
  8
1
100
AcDbLine
 10
8.561315999999999
 20
13.125149
 30
0.0
 11
8.476275999999998
 21
13.069467
 31
0.0
  0
LINE
  5
3D2
330
4BB
100
AcDbEntity
  8
1
100
AcDbLine
 10
8.476275999999998
 20
13.069467
 30
0.0
 11
8.391548
 21
13.007154
 31
0.0
  0
LINE
  5
3D3
330
4BB
100
AcDbEntity
  8
1
100
AcDbLine
 10
14.6
 20
13.5
 30
0.0
 11
16.0
 21
12.69171
 31
0.0
  0
LINE
  5
3D4
330
4BB
100
AcDbEntity
  8
1
100
AcDbLine
 10
16.0
 20
12.69171
 30
0.0
 11
14.6
 21
13.5
 31
0.0
  0
LINE
  5
3D5
330
4BB
100
AcDbEntity
  8
1
100
AcDbLine
 10
9.976976999999999
 20
13.5
 30
0.0
 11
14.4941
 21
13.5
 31
0.0
  0
LINE
  5
3D6
330
4BB
100
AcDbEntity
  8
1
100
AcDbLine
 10
14.4941
 20
13.5
 30
0.0
 11
14.6
 21
13.5
 31
0.0
  0
LINE
  5
3D7
330
4BB
100
AcDbEntity
  8
1
100
AcDbLine
 10
9.977783
 20
-13.5
 30
0.0
 11
14.4941
 21
-13.5
 31
0.0
  0
LINE
  5
3D8
330
4BB
100
AcDbEntity
  8
1
100
AcDbLine
 10
9.164089999999999
 20
13.328664
 30
0.0
 11
9.976976999999999
 21
13.5
 31
0.0
  0
LINE
  5
3D9
330
4BB
100
AcDbEntity
  8
1
100
AcDbLine
 10
14.085676
 20
-12.531317
 30
0.0
 11
14.4941
 21
-13.5
 31
0.0
  0
LINE
  5
3DA
330
4BB
100
AcDbEntity
  8
SK4
100
AcDbLine
 10
16.133297
 20
0.0
 30
0.0
 11
-13.85
 21
0.0
 31
0.0
  0
LINE
  5
3DB
330
4BB
100
AcDbEntity
  8
SK1
100
AcDbLine
 10
-10.85
 20
7.225611999999999
 30
0.0
 11
-10.85
 21
-7.225611999999999
 31
0.0
  0
LINE
  5
3DC
330
4BB
100
AcDbEntity
  8
SK1
100
AcDbLine
 10
-13.85
 20
6.725610999999999
 30
0.0
 11
-13.85
 21
-6.725611999999999
 31
0.0
  0
LINE
  5
3DD
330
4BB
100
AcDbEntity
  8
SK1
100
AcDbLine
 10
-10.85
 20
-7.225611999999999
 30
0.0
 11
0.0
 21
-8.174174
 31
0.0
  0
LINE
  5
3DE
330
4BB
100
AcDbEntity
  8
SK1
100
AcDbLine
 10
-13.85
 20
-6.725611999999999
 30
0.0
 11
-10.85
 21
-6.725611999999999
 31
0.0
  0
LINE
  5
3DF
330
4BB
100
AcDbEntity
  8
SK1
100
AcDbLine
 10
-10.85
 20
7.225611999999999
 30
0.0
 11
0.0
 21
8.174174
 31
0.0
  0
LINE
  5
3E0
330
4BB
100
AcDbEntity
  8
SK1
100
AcDbLine
 10
-13.85
 20
6.725610999999999
 30
0.0
 11
-10.85
 21
6.725610999999999
 31
0.0
  0
LINE
  5
3E1
330
4BB
100
AcDbEntity
  8
80
100
AcDbLine
 10
0.0
 20
0.0
 30
0.0
 11
-13.85
 21
0.0
 31
0.0
  0
LINE
  5
3E2
330
4BB
100
AcDbEntity
  8
81
100
AcDbLine
 10
16.0
 20
0.0
 30
0.0
 11
25.487249
 21
0.0
 31
0.0
  0
LINE
  5
3E3
330
4BB
100
AcDbEntity
  8
4
100
AcDbLine
 10
0.0
 20
0.0
 30
0.0
 11
23.154532
 21
0.0
 31
0.0
  0
POINT
  5
3E4
330
4BB
100
AcDbEntity
  8
81
100
AcDbPoint
 10
16.0
 20
13.5
 30
0.0
  0
POINT
  5
3E5
330
4BB
100
AcDbEntity
  8
80
100
AcDbPoint
 10
0.0
 20
0.0
 30
0.0
  0
TEXT
  5
3E6
330
4BB
100
AcDbEntity
  8
SK6
100
AcDbText
 10
-13.027613
 20
16.153219
 30
0.0
 40
3.5
  1
HFS16
 41
0.7919990561797757
  7
SANDVIK_STYLE
 72
     5
 11
-1.279627
 21
16.153219
 31
0.0
100
AcDbText
  0
TEXT
  5
3E7
330
4BB
100
AcDbEntity
  8
SK6
100
AcDbText
 10
-12.922203
 20
-34.37893
 30
0.0
 40
3.5
  1
830A-E06D2700H7S16
 41
0.798765793871866
  7
SANDVIK_STYLE
 72
     5
 11
34.870617
 21
-34.37893
 31
0.0
100
AcDbText
  0
TEXT
  5
3E8
330
4BB
100
AcDbEntity
  8
2
100
AcDbText
 10
10.243403
 20
29.08275
 30
0.0
 40
3.5
  1
L=16 
100
AcDbText
  0
INSERT
  5
3E9
330
4BB
100
AcDbEntity
  8
2
100
AcDbBlockReference
  2
*D0
 10
0.0
 20
0.0
 30
0.0
  0
TEXT
  5
3EA
330
4BB
100
AcDbEntity
  8
2
100
AcDbText
 10
34.531038
 20
1.652777999999999
 30
0.0
 40
3.5
  1
%%c27 H7
 50
90.0
100
AcDbText
  0
INSERT
  5
3EB
330
4BB
100
AcDbEntity
  8
2
100
AcDbBlockReference
  2
*D1
 10
0.0
 20
0.0
 30
0.0
  0
ENDSEC
  0
SECTION
  2
OBJECTS
  0
DICTIONARY
  5
457
330
0
100
AcDbDictionary
281
     1
  3
ACAD_CIP_PREVIOUS_PRODUCT_INFO
350
4EE
  3
ACAD_COLOR
350
4AD
  3
ACAD_DETAILVIEWSTYLE
350
4B5
  3
ACAD_GROUP
350
458
  3
ACAD_LAYOUT
350
4AC
  3
ACAD_MATERIAL
350
45B
  3
ACAD_MLEADERSTYLE
350
4B0
  3
ACAD_MLINESTYLE
350
4A9
  3
ACAD_PLOTSETTINGS
350
4AB
  3
ACAD_PLOTSTYLENAME
350
459
  3
ACAD_SCALELIST
350
48D
  3
ACAD_SECTIONVIEWSTYLE
350
4B2
  3
ACAD_TABLESTYLE
350
4AE
  3
ACAD_VISUALSTYLE
350
474
  3
ACDB_RECOMPOSE_DATA
350
54A
  3
AcDbVariableDictionary
350
53D
  3
DWGPROPS
350
54B
  0
DICTIONARY
  5
4F1
330
49F
100
AcDbDictionary
280
     1
281
     1
  3
ADSK_XREC_LAYER_RECONCILED
360
4F2
  0
DICTIONARY
  5
4F3
330
4BF
100
AcDbDictionary
280
     1
281
     1
  3
ADSK_XREC_LAYER_RECONCILED
360
4F4
  0
DICTIONARY
  5
4F5
330
4C3
100
AcDbDictionary
280
     1
281
     1
  3
ADSK_XREC_LAYER_RECONCILED
360
4F6
  0
DICTIONARY
  5
4F7
330
4C4
100
AcDbDictionary
280
     1
281
     1
  3
ADSK_XREC_LAYER_RECONCILED
360
4F8
  0
DICTIONARY
  5
4F9
330
4C5
100
AcDbDictionary
280
     1
281
     1
  3
ADSK_XREC_LAYER_RECONCILED
360
4FA
  0
DICTIONARY
  5
4FB
330
4C6
100
AcDbDictionary
280
     1
281
     1
  3
ADSK_XREC_LAYER_RECONCILED
360
4FC
  0
DICTIONARY
  5
4FD
330
4C7
100
AcDbDictionary
280
     1
281
     1
  3
ADSK_XREC_LAYER_RECONCILED
360
4FE
  0
DICTIONARY
  5
4FF
330
4C8
100
AcDbDictionary
280
     1
281
     1
  3
ADSK_XREC_LAYER_RECONCILED
360
500
  0
DICTIONARY
  5
501
330
4C9
100
AcDbDictionary
280
     1
281
     1
  3
ADSK_XREC_LAYER_RECONCILED
360
502
  0
DICTIONARY
  5
503
330
4CA
100
AcDbDictionary
280
     1
281
     1
  3
ADSK_XREC_LAYER_RECONCILED
360
504
  0
DICTIONARY
  5
505
330
4CB
100
AcDbDictionary
280
     1
281
     1
  3
ADSK_XREC_LAYER_RECONCILED
360
506
  0
DICTIONARY
  5
507
330
4CC
100
AcDbDictionary
280
     1
281
     1
  3
ADSK_XREC_LAYER_RECONCILED
360
508
  0
DICTIONARY
  5
509
330
4CD
100
AcDbDictionary
280
     1
281
     1
  3
ADSK_XREC_LAYER_RECONCILED
360
50A
  0
DICTIONARY
  5
50B
330
4CE
100
AcDbDictionary
280
     1
281
     1
  3
ADSK_XREC_LAYER_RECONCILED
360
50C
  0
DICTIONARY
  5
50D
330
4CF
100
AcDbDictionary
280
     1
281
     1
  3
ADSK_XREC_LAYER_RECONCILED
360
50E
  0
DICTIONARY
  5
50F
330
4D0
100
AcDbDictionary
280
     1
281
     1
  3
ADSK_XREC_LAYER_RECONCILED
360
510
  0
DICTIONARY
  5
511
330
4D1
100
AcDbDictionary
280
     1
281
     1
  3
ADSK_XREC_LAYER_RECONCILED
360
512
  0
DICTIONARY
  5
513
330
4D2
100
AcDbDictionary
280
     1
281
     1
  3
ADSK_XREC_LAYER_RECONCILED
360
514
  0
DICTIONARY
  5
515
330
4D3
100
AcDbDictionary
280
     1
281
     1
  3
ADSK_XREC_LAYER_RECONCILED
360
516
  0
DICTIONARY
  5
517
330
4D4
100
AcDbDictionary
280
     1
281
     1
  3
ADSK_XREC_LAYER_RECONCILED
360
518
  0
DICTIONARY
  5
519
330
4D5
100
AcDbDictionary
280
     1
281
     1
  3
ADSK_XREC_LAYER_RECONCILED
360
51A
  0
DICTIONARY
  5
51B
330
4D6
100
AcDbDictionary
280
     1
281
     1
  3
ADSK_XREC_LAYER_RECONCILED
360
51C
  0
DICTIONARY
  5
51D
330
4D7
100
AcDbDictionary
280
     1
281
     1
  3
ADSK_XREC_LAYER_RECONCILED
360
51E
  0
DICTIONARY
  5
51F
330
4D8
100
AcDbDictionary
280
     1
281
     1
  3
ADSK_XREC_LAYER_RECONCILED
360
520
  0
DICTIONARY
  5
521
330
4D9
100
AcDbDictionary
280
     1
281
     1
  3
ADSK_XREC_LAYER_RECONCILED
360
522
  0
DICTIONARY
  5
523
330
4DA
100
AcDbDictionary
280
     1
281
     1
  3
ADSK_XREC_LAYER_RECONCILED
360
524
  0
DICTIONARY
  5
525
330
4DB
100
AcDbDictionary
280
     1
281
     1
  3
ADSK_XREC_LAYER_RECONCILED
360
526
  0
DICTIONARY
  5
527
330
4DC
100
AcDbDictionary
280
     1
281
     1
  3
ADSK_XREC_LAYER_RECONCILED
360
528
  0
DICTIONARY
  5
529
330
4DD
100
AcDbDictionary
280
     1
281
     1
  3
ADSK_XREC_LAYER_RECONCILED
360
52A
  0
DICTIONARY
  5
52B
330
4DE
100
AcDbDictionary
280
     1
281
     1
  3
ADSK_XREC_LAYER_RECONCILED
360
52C
  0
DICTIONARY
  5
52D
330
4DF
100
AcDbDictionary
280
     1
281
     1
  3
ADSK_XREC_LAYER_RECONCILED
360
52E
  0
DICTIONARY
  5
52F
330
4E0
100
AcDbDictionary
280
     1
281
     1
  3
ADSK_XREC_LAYER_RECONCILED
360
530
  0
DICTIONARY
  5
531
330
4E1
100
AcDbDictionary
280
     1
281
     1
  3
ADSK_XREC_LAYER_RECONCILED
360
532
  0
DICTIONARY
  5
533
330
4E2
100
AcDbDictionary
280
     1
281
     1
  3
ADSK_XREC_LAYER_RECONCILED
360
534
  0
DICTIONARY
  5
535
330
4E3
100
AcDbDictionary
280
     1
281
     1
  3
ADSK_XREC_LAYER_RECONCILED
360
536
  0
DICTIONARY
  5
537
330
4E4
100
AcDbDictionary
280
     1
281
     1
  3
ADSK_XREC_LAYER_RECONCILED
360
538
  0
DICTIONARY
  5
539
330
4E5
100
AcDbDictionary
280
     1
281
     1
  3
ADSK_XREC_LAYER_RECONCILED
360
53A
  0
DICTIONARY
  5
53B
330
4E6
100
AcDbDictionary
280
     1
281
     1
  3
ADSK_XREC_LAYER_RECONCILED
360
53C
  0
XRECORD
  5
4EE
102
{ACAD_REACTORS
330
457
102
}
330
457
100
AcDbXrecord
280
     1
300
AMECH_PP
300
2013
300
PDSU_F_S
  0
DICTIONARY
  5
4AD
102
{ACAD_REACTORS
330
457
102
}
330
457
100
AcDbDictionary
281
     1
  0
DICTIONARY
  5
4B5
102
{ACAD_REACTORS
330
457
102
}
330
457
100
AcDbDictionary
281
     1
  3
Imperial24
350
4B6
  0
DICTIONARY
  5
458
102
{ACAD_REACTORS
330
457
102
}
330
457
100
AcDbDictionary
281
     1
  0
DICTIONARY
  5
4AC
102
{ACAD_REACTORS
330
457
102
}
330
457
100
AcDbDictionary
281
     1
  3
Layout1
350
4BA
  3
Model
350
4BE
  0
DICTIONARY
  5
45B
102
{ACAD_REACTORS
330
457
102
}
330
457
100
AcDbDictionary
281
     1
  3
ByBlock
350
464
  3
ByLayer
350
45C
  3
Global
350
46C
  0
DICTIONARY
  5
4B0
102
{ACAD_REACTORS
330
457
102
}
330
457
100
AcDbDictionary
281
     1
  3
Standard
350
4B1
  0
DICTIONARY
  5
4A9
102
{ACAD_REACTORS
330
457
102
}
330
457
100
AcDbDictionary
281
     1
  3
Standard
350
4AA
  0
DICTIONARY
  5
4AB
102
{ACAD_REACTORS
330
457
102
}
330
457
100
AcDbDictionary
281
     1
  0
ACDBDICTIONARYWDFLT
  5
459
102
{ACAD_REACTORS
330
457
102
}
330
457
100
AcDbDictionary
281
     1
  3
Normal
350
45A
100
AcDbDictionaryWithDefault
340
45A
  0
DICTIONARY
  5
48D
102
{ACAD_REACTORS
330
457
102
}
330
457
100
AcDbDictionary
281
     1
  3
A0
350
48E
  3
A1
350
48F
  3
A2
350
490
  3
A3
350
491
  3
A4
350
492
  3
A5
350
493
  3
A6
350
494
  3
A7
350
495
  3
A8
350
496
  3
A9
350
497
  3
B0
350
498
  3
B1
350
499
  3
B2
350
49A
  3
B3
350
49B
  3
B4
350
49C
  3
B5
350
49D
  3
B6
350
49E
  0
DICTIONARY
  5
4B2
102
{ACAD_REACTORS
330
457
102
}
330
457
100
AcDbDictionary
281
     1
  3
Imperial24
350
4B4
  0
DICTIONARY
  5
4AE
102
{ACAD_REACTORS
330
457
102
}
330
457
100
AcDbDictionary
281
     1
  3
Standard
350
4AF
  0
DICTIONARY
  5
474
102
{ACAD_REACTORS
330
457
102
}
330
457
100
AcDbDictionary
281
     1
  3
2dWireframe
350
47A
  3
Basic
350
479
  3
Brighten
350
480
  3
ColorChange
350
484
  3
Conceptual
350
47D
  3
Dim
350
47F
  3
EdgeColorOff
350
48C
  3
Facepattern
350
483
  3
Flat
350
475
  3
FlatWithEdges
350
476
  3
Gouraud
350
477
  3
GouraudWithEdges
350
478
  3
Hidden
350
47C
  3
JitterOff
350
48A
  3
Linepattern
350
482
  3
OverhangOff
350
48B
  3
Realistic
350
47E
  3
Shaded
350
489
  3
Shaded with edges
350
488
  3
Shades of Gray
350
485
  3
Sketchy
350
486
  3
Thicken
350
481
  3
Wireframe
350
47B
  3
X-Ray
350
487
  0
XRECORD
  5
54A
102
{ACAD_REACTORS
330
457
102
}
330
457
100
AcDbXrecord
280
     1
 90
        1
330
4AF
  0
DICTIONARY
  5
53D
102
{ACAD_REACTORS
330
457
102
}
330
457
100
AcDbDictionary
281
     1
  3
CANNOSCALE
350
542
  3
CMLEADERSTYLE
350
53F
  3
CTABLESTYLE
350
53E
  3
CVIEWDETAILSTYLE
350
540
  3
CVIEWSECTIONSTYLE
350
541
  3
DIMASSOC
350
545
  3
INDEXCTL
350
544
  3
SORTENTS
350
543
  3
XCLIPFRAME
350
546
  0
XRECORD
  5
54B
102
{ACAD_REACTORS
330
457
102
}
330
457
100
AcDbXrecord
280
     1
  1
DWGPROPS COOKIE
  2

  3

  4

  6

  7

  8
Micke
  9

300
=
301
=
302
=
303
=
304
=
305
=
306
=
307
=
308
=
309
=
 40
0.0000044212962963
 41
2456818.319554491
 42
2456818.319558854
  1

 90
        0
  0
XRECORD
  5
4F2
102
{ACAD_REACTORS
330
4F1
102
}
330
4F1
100
AcDbXrecord
280
     1
290
     1
  0
XRECORD
  5
4F4
102
{ACAD_REACTORS
330
4F3
102
}
330
4F3
100
AcDbXrecord
280
     1
290
     1
  0
XRECORD
  5
4F6
102
{ACAD_REACTORS
330
4F5
102
}
330
4F5
100
AcDbXrecord
280
     1
290
     1
  0
XRECORD
  5
4F8
102
{ACAD_REACTORS
330
4F7
102
}
330
4F7
100
AcDbXrecord
280
     1
290
     1
  0
XRECORD
  5
4FA
102
{ACAD_REACTORS
330
4F9
102
}
330
4F9
100
AcDbXrecord
280
     1
290
     1
  0
XRECORD
  5
4FC
102
{ACAD_REACTORS
330
4FB
102
}
330
4FB
100
AcDbXrecord
280
     1
290
     1
  0
XRECORD
  5
4FE
102
{ACAD_REACTORS
330
4FD
102
}
330
4FD
100
AcDbXrecord
280
     1
290
     1
  0
XRECORD
  5
500
102
{ACAD_REACTORS
330
4FF
102
}
330
4FF
100
AcDbXrecord
280
     1
290
     1
  0
XRECORD
  5
502
102
{ACAD_REACTORS
330
501
102
}
330
501
100
AcDbXrecord
280
     1
290
     1
  0
XRECORD
  5
504
102
{ACAD_REACTORS
330
503
102
}
330
503
100
AcDbXrecord
280
     1
290
     1
  0
XRECORD
  5
506
102
{ACAD_REACTORS
330
505
102
}
330
505
100
AcDbXrecord
280
     1
290
     1
  0
XRECORD
  5
508
102
{ACAD_REACTORS
330
507
102
}
330
507
100
AcDbXrecord
280
     1
290
     1
  0
XRECORD
  5
50A
102
{ACAD_REACTORS
330
509
102
}
330
509
100
AcDbXrecord
280
     1
290
     1
  0
XRECORD
  5
50C
102
{ACAD_REACTORS
330
50B
102
}
330
50B
100
AcDbXrecord
280
     1
290
     1
  0
XRECORD
  5
50E
102
{ACAD_REACTORS
330
50D
102
}
330
50D
100
AcDbXrecord
280
     1
290
     1
  0
XRECORD
  5
510
102
{ACAD_REACTORS
330
50F
102
}
330
50F
100
AcDbXrecord
280
     1
290
     1
  0
XRECORD
  5
512
102
{ACAD_REACTORS
330
511
102
}
330
511
100
AcDbXrecord
280
     1
290
     1
  0
XRECORD
  5
514
102
{ACAD_REACTORS
330
513
102
}
330
513
100
AcDbXrecord
280
     1
290
     1
  0
XRECORD
  5
516
102
{ACAD_REACTORS
330
515
102
}
330
515
100
AcDbXrecord
280
     1
290
     1
  0
XRECORD
  5
518
102
{ACAD_REACTORS
330
517
102
}
330
517
100
AcDbXrecord
280
     1
290
     1
  0
XRECORD
  5
51A
102
{ACAD_REACTORS
330
519
102
}
330
519
100
AcDbXrecord
280
     1
290
     1
  0
XRECORD
  5
51C
102
{ACAD_REACTORS
330
51B
102
}
330
51B
100
AcDbXrecord
280
     1
290
     1
  0
XRECORD
  5
51E
102
{ACAD_REACTORS
330
51D
102
}
330
51D
100
AcDbXrecord
280
     1
290
     1
  0
XRECORD
  5
520
102
{ACAD_REACTORS
330
51F
102
}
330
51F
100
AcDbXrecord
280
     1
290
     1
  0
XRECORD
  5
522
102
{ACAD_REACTORS
330
521
102
}
330
521
100
AcDbXrecord
280
     1
290
     1
  0
XRECORD
  5
524
102
{ACAD_REACTORS
330
523
102
}
330
523
100
AcDbXrecord
280
     1
290
     1
  0
XRECORD
  5
526
102
{ACAD_REACTORS
330
525
102
}
330
525
100
AcDbXrecord
280
     1
290
     1
  0
XRECORD
  5
528
102
{ACAD_REACTORS
330
527
102
}
330
527
100
AcDbXrecord
280
     1
290
     1
  0
XRECORD
  5
52A
102
{ACAD_REACTORS
330
529
102
}
330
529
100
AcDbXrecord
280
     1
290
     1
  0
XRECORD
  5
52C
102
{ACAD_REACTORS
330
52B
102
}
330
52B
100
AcDbXrecord
280
     1
290
     1
  0
XRECORD
  5
52E
102
{ACAD_REACTORS
330
52D
102
}
330
52D
100
AcDbXrecord
280
     1
290
     1
  0
XRECORD
  5
530
102
{ACAD_REACTORS
330
52F
102
}
330
52F
100
AcDbXrecord
280
     1
290
     1
  0
XRECORD
  5
532
102
{ACAD_REACTORS
330
531
102
}
330
531
100
AcDbXrecord
280
     1
290
     1
  0
XRECORD
  5
534
102
{ACAD_REACTORS
330
533
102
}
330
533
100
AcDbXrecord
280
     1
290
     1
  0
XRECORD
  5
536
102
{ACAD_REACTORS
330
535
102
}
330
535
100
AcDbXrecord
280
     1
290
     1
  0
XRECORD
  5
538
102
{ACAD_REACTORS
330
537
102
}
330
537
100
AcDbXrecord
280
     1
290
     1
  0
XRECORD
  5
53A
102
{ACAD_REACTORS
330
539
102
}
330
539
100
AcDbXrecord
280
     1
290
     1
  0
XRECORD
  5
53C
102
{ACAD_REACTORS
330
53B
102
}
330
53B
100
AcDbXrecord
280
     1
290
     1
  0
ACDBDETAILVIEWSTYLE
  5
4B6
102
{ACAD_REACTORS
330
4B5
102
}
330
4B5
100
AcDbModelDocViewStyle
 70
     0
  3
Imperial24
290
     0
100
AcDbDetailViewStyle
 70
     0
 71
     0
 90
        3
 71
     1
340
4A0
 40
0.24
340
0
 40
0.24
300

 40
0.36
280
     3
 71
     2
340
4A7
 90
       25
 71
     3
340
4A0
 40
0.24
 90
        1
 40
0.75
 90
        1
300
%<\AcVar ViewType \f "%tc1">% %<\AcVar ViewDetailId>%\PSCALE %<\AcVar ViewScale \f "%sn">%
 71
     4
340
4A7
 90
       25
340
4A7
 90
       25
280
     0
  0
LAYOUT
  5
4BA
102
{ACAD_XDICTIONARY
360
581
102
}
102
{ACAD_REACTORS
330
4AC
102
}
330
4AC
100
AcDbPlotSettings
  1

  2
Brother DCP-9020CDW Printer
  4

  6

 40
0.0
 41
0.0
 42
0.0
 43
0.0
 44
0.0
 45
0.0
 46
0.0
 47
0.0
 48
0.0
 49
0.0
140
0.0
141
0.0
142
1.0
143
1.0
 70
   688
 72
     0
 73
     0
 74
     5
  7

 75
    16
147
1.0
148
0.0
149
0.0
100
AcDbLayout
  1
Layout1
 70
     1
 71
     1
 10
0.0
 20
0.0
 11
12.0
 21
9.0
 12
0.0
 22
0.0
 32
0.0
 14
1.000000000000000E+20
 24
1.000000000000000E+20
 34
1.000000000000000E+20
 15
-1.000000000000000E+20
 25
-1.000000000000000E+20
 35
-1.000000000000000E+20
146
0.0
 13
0.0
 23
0.0
 33
0.0
 16
1.0
 26
0.0
 36
0.0
 17
0.0
 27
1.0
 37
0.0
 76
     0
330
4B7
  0
LAYOUT
  5
4BE
102
{ACAD_XDICTIONARY
360
583
102
}
102
{ACAD_REACTORS
330
4AC
102
}
330
4AC
100
AcDbPlotSettings
  1

  2
Brother DCP-9020CDW Printer
  4

  6

 40
0.0
 41
0.0
 42
0.0
 43
0.0
 44
0.0
 45
0.0
 46
0.0
 47
0.0
 48
0.0
 49
0.0
140
0.0
141
0.0
142
1.0
143
1.0
 70
  1712
 72
     0
 73
     0
 74
     0
  7

 75
     0
147
1.0
148
0.0
149
0.0
100
AcDbLayout
  1
Model
 70
     1
 71
     0
 10
0.0
 20
0.0
 11
12.0
 21
9.0
 12
0.0
 22
0.0
 32
0.0
 14
0.0
 24
0.0
 34
0.0
 15
0.0
 25
0.0
 35
0.0
146
0.0
 13
0.0
 23
0.0
 33
0.0
 16
1.0
 26
0.0
 36
0.0
 17
0.0
 27
1.0
 37
0.0
 76
     0
330
4BB
331
4EA
  0
MATERIAL
  5
464
102
{ACAD_XDICTIONARY
360
465
102
}
102
{ACAD_REACTORS
330
45B
102
}
330
45B
100
AcDbMaterial
  1
ByBlock
 72
     0
 43
0.0208333333333333
 43
0.0
 43
0.0
 43
0.0
 43
0.0
 43
0.0208333333333333
 43
0.0
 43
0.0
 43
0.0
 43
0.0
 43
1.0
 43
0.0
 43
0.0
 43
0.0
 43
0.0
 43
1.0
 77
     0
 47
0.0208333333333333
 47
0.0
 47
0.0
 47
0.0
 47
0.0
 47
0.0208333333333333
 47
0.0
 47
0.0
 47
0.0
 47
0.0
 47
1.0
 47
0.0
 47
0.0
 47
0.0
 47
0.0
 47
1.0
171
     0
 49
0.0208333333333333
 49
0.0
 49
0.0
 49
0.0
 49
0.0
 49
0.0208333333333333
 49
0.0
 49
0.0
 49
0.0
 49
0.0
 49
1.0
 49
0.0
 49
0.0
 49
0.0
 49
0.0
 49
1.0
175
     0
142
0.0208333333333333
142
0.0
142
0.0
142
0.0
142
0.0
142
0.0208333333333333
142
0.0
142
0.0
142
0.0
142
0.0
142
1.0
142
0.0
142
0.0
142
0.0
142
0.0
142
1.0
179
     0
144
0.0208333333333333
144
0.0
144
0.0
144
0.0
144
0.0
144
0.0208333333333333
144
0.0
144
0.0
144
0.0
144
0.0
144
1.0
144
0.0
144
0.0
144
0.0
144
0.0
144
1.0
147
0.0208333333333333
147
0.0
147
0.0
147
0.0
147
0.0
147
0.0208333333333333
147
0.0
147
0.0
147
0.0
147
0.0
147
1.0
147
0.0
147
0.0
147
0.0
147
0.0
147
1.0
  0
MATERIAL
  5
45C
102
{ACAD_XDICTIONARY
360
45D
102
}
102
{ACAD_REACTORS
330
45B
102
}
330
45B
100
AcDbMaterial
  1
ByLayer
 72
     0
 43
0.0208333333333333
 43
0.0
 43
0.0
 43
0.0
 43
0.0
 43
0.0208333333333333
 43
0.0
 43
0.0
 43
0.0
 43
0.0
 43
1.0
 43
0.0
 43
0.0
 43
0.0
 43
0.0
 43
1.0
 77
     0
 47
0.0208333333333333
 47
0.0
 47
0.0
 47
0.0
 47
0.0
 47
0.0208333333333333
 47
0.0
 47
0.0
 47
0.0
 47
0.0
 47
1.0
 47
0.0
 47
0.0
 47
0.0
 47
0.0
 47
1.0
171
     0
 49
0.0208333333333333
 49
0.0
 49
0.0
 49
0.0
 49
0.0
 49
0.0208333333333333
 49
0.0
 49
0.0
 49
0.0
 49
0.0
 49
1.0
 49
0.0
 49
0.0
 49
0.0
 49
0.0
 49
1.0
175
     0
142
0.0208333333333333
142
0.0
142
0.0
142
0.0
142
0.0
142
0.0208333333333333
142
0.0
142
0.0
142
0.0
142
0.0
142
1.0
142
0.0
142
0.0
142
0.0
142
0.0
142
1.0
179
     0
144
0.0208333333333333
144
0.0
144
0.0
144
0.0
144
0.0
144
0.0208333333333333
144
0.0
144
0.0
144
0.0
144
0.0
144
1.0
144
0.0
144
0.0
144
0.0
144
0.0
144
1.0
147
0.0208333333333333
147
0.0
147
0.0
147
0.0
147
0.0
147
0.0208333333333333
147
0.0
147
0.0
147
0.0
147
0.0
147
1.0
147
0.0
147
0.0
147
0.0
147
0.0
147
1.0
  0
MATERIAL
  5
46C
102
{ACAD_XDICTIONARY
360
46D
102
}
102
{ACAD_REACTORS
330
45B
102
}
330
45B
100
AcDbMaterial
  1
Global
 72
     0
 43
0.0208333333333333
 43
0.0
 43
0.0
 43
0.0
 43
0.0
 43
0.0208333333333333
 43
0.0
 43
0.0
 43
0.0
 43
0.0
 43
1.0
 43
0.0
 43
0.0
 43
0.0
 43
0.0
 43
1.0
 77
     0
 47
0.0208333333333333
 47
0.0
 47
0.0
 47
0.0
 47
0.0
 47
0.0208333333333333
 47
0.0
 47
0.0
 47
0.0
 47
0.0
 47
1.0
 47
0.0
 47
0.0
 47
0.0
 47
0.0
 47
1.0
171
     0
 49
0.0208333333333333
 49
0.0
 49
0.0
 49
0.0
 49
0.0
 49
0.0208333333333333
 49
0.0
 49
0.0
 49
0.0
 49
0.0
 49
1.0
 49
0.0
 49
0.0
 49
0.0
 49
0.0
 49
1.0
175
     0
142
0.0208333333333333
142
0.0
142
0.0
142
0.0
142
0.0
142
0.0208333333333333
142
0.0
142
0.0
142
0.0
142
0.0
142
1.0
142
0.0
142
0.0
142
0.0
142
0.0
142
1.0
179
     0
144
0.0208333333333333
144
0.0
144
0.0
144
0.0
144
0.0
144
0.0208333333333333
144
0.0
144
0.0
144
0.0
144
0.0
144
1.0
144
0.0
144
0.0
144
0.0
144
0.0
144
1.0
147
0.0208333333333333
147
0.0
147
0.0
147
0.0
147
0.0
147
0.0208333333333333
147
0.0
147
0.0
147
0.0
147
0.0
147
1.0
147
0.0
147
0.0
147
0.0
147
0.0
147
1.0
  0
MLEADERSTYLE
  5
4B1
102
{ACAD_REACTORS
330
4B0
102
}
330
4B0
100
AcDbMLeaderStyle
170
     2
171
     1
172
     0
 90
        2
 40
0.0
 41
0.0
173
     1
 91
-1056964608
340
4A5
 92
       -2
290
     1
 42
0.09
291
     1
 43
0.36
  3
Standard
 44
0.18
300

342
4A0
174
     1
178
     6
175
     1
176
     0
 93
-1056964608
 45
0.18
292
     0
297
     0
 46
0.18
 94
-1056964608
 47
1.0
 49
1.0
140
1.0
293
     1
141
0.0
294
     1
177
     0
142
1.0
295
     0
296
     0
143
0.125
1001
ACAD_MLEADERVER
1070
     2
  0
MLINESTYLE
  5
4AA
102
{ACAD_REACTORS
330
4A9
102
}
330
4A9
100
AcDbMlineStyle
  2
STANDARD
 70
     0
  3

 62
   256
 51
90.0
 52
90.0
 71
     2
 49
0.5
 62
   256
  6
BYLAYER
 49
-0.5
 62
   256
  6
BYLAYER
  0
ACDBPLACEHOLDER
  5
45A
102
{ACAD_REACTORS
330
459
102
}
330
459
  0
SCALE
  5
48E
102
{ACAD_REACTORS
330
48D
102
}
330
48D
100
AcDbScale
 70
     0
300
1:1
140
1.0
141
1.0
290
     1
  0
SCALE
  5
48F
102
{ACAD_REACTORS
330
48D
102
}
330
48D
100
AcDbScale
 70
     0
300
1/128" = 1'-0"
140
0.0078125
141
12.0
290
     0
  0
SCALE
  5
490
102
{ACAD_REACTORS
330
48D
102
}
330
48D
100
AcDbScale
 70
     0
300
1/64" = 1'-0"
140
0.015625
141
12.0
290
     0
  0
SCALE
  5
491
102
{ACAD_REACTORS
330
48D
102
}
330
48D
100
AcDbScale
 70
     0
300
1/32" = 1'-0"
140
0.03125
141
12.0
290
     0
  0
SCALE
  5
492
102
{ACAD_REACTORS
330
48D
102
}
330
48D
100
AcDbScale
 70
     0
300
1/16" = 1'-0"
140
0.0625
141
12.0
290
     0
  0
SCALE
  5
493
102
{ACAD_REACTORS
330
48D
102
}
330
48D
100
AcDbScale
 70
     0
300
3/32" = 1'-0"
140
0.09375
141
12.0
290
     0
  0
SCALE
  5
494
102
{ACAD_REACTORS
330
48D
102
}
330
48D
100
AcDbScale
 70
     0
300
1/8" = 1'-0"
140
0.125
141
12.0
290
     0
  0
SCALE
  5
495
102
{ACAD_REACTORS
330
48D
102
}
330
48D
100
AcDbScale
 70
     0
300
3/16" = 1'-0"
140
0.1875
141
12.0
290
     0
  0
SCALE
  5
496
102
{ACAD_REACTORS
330
48D
102
}
330
48D
100
AcDbScale
 70
     0
300
1/4" = 1'-0"
140
0.25
141
12.0
290
     0
  0
SCALE
  5
497
102
{ACAD_REACTORS
330
48D
102
}
330
48D
100
AcDbScale
 70
     0
300
3/8" = 1'-0"
140
0.375
141
12.0
290
     0
  0
SCALE
  5
498
102
{ACAD_REACTORS
330
48D
102
}
330
48D
100
AcDbScale
 70
     0
300
1/2" = 1'-0"
140
0.5
141
12.0
290
     0
  0
SCALE
  5
499
102
{ACAD_REACTORS
330
48D
102
}
330
48D
100
AcDbScale
 70
     0
300
3/4" = 1'-0"
140
0.75
141
12.0
290
     0
  0
SCALE
  5
49A
102
{ACAD_REACTORS
330
48D
102
}
330
48D
100
AcDbScale
 70
     0
300
1" = 1'-0"
140
1.0
141
12.0
290
     0
  0
SCALE
  5
49B
102
{ACAD_REACTORS
330
48D
102
}
330
48D
100
AcDbScale
 70
     0
300
1-1/2" = 1'-0"
140
1.5
141
12.0
290
     0
  0
SCALE
  5
49C
102
{ACAD_REACTORS
330
48D
102
}
330
48D
100
AcDbScale
 70
     0
300
3" = 1'-0"
140
3.0
141
12.0
290
     0
  0
SCALE
  5
49D
102
{ACAD_REACTORS
330
48D
102
}
330
48D
100
AcDbScale
 70
     0
300
6" = 1'-0"
140
6.0
141
12.0
290
     0
  0
SCALE
  5
49E
102
{ACAD_REACTORS
330
48D
102
}
330
48D
100
AcDbScale
 70
     0
300
1'-0" = 1'-0"
140
12.0
141
12.0
290
     0
  0
ACDBSECTIONVIEWSTYLE
  5
4B4
102
{ACAD_REACTORS
330
4B2
102
}
330
4B2
100
AcDbModelDocViewStyle
 70
     0
  3
Imperial24
290
     0
100
AcDbSectionViewStyle
 70
     0
 71
     0
 90
       78
 71
     1
340
4A0
 40
0.24
340
0
340
0
 40
0.24
300
I, O, Q, S, X, Z
 40
0.48
 90
        3
 40
0.18
 90
        1
 71
     2
340
4B3
 90
       25
340
4A7
 90
       50
 40
0.24
 40
0.0
 40
0.24
 71
     3
340
4A0
 40
0.24
 90
        1
 40
0.75
 90
        1
300
%<\AcVar ViewType \f "%tc1">% %<\AcVar ViewSectionStartId>%-%<\AcVar ViewSectionEndId>%\PSCALE %<\AcVar ViewScale \f "%sn">%
 71
     4
300
ANSI31
 40
1.0
 90
        0
290
     0
290
     0
 90
        6
 40
0.0
 40
1.570796326794896
 40
0.2617993877991494
 40
1.308996938995747
 40
-0.2617993877991494
 40
1.832595714594046
  0
TABLESTYLE
  5
4AF
102
{ACAD_XDICTIONARY
360
548
102
}
102
{ACAD_REACTORS
330
4AE
102
}
330
4AE
100
AcDbTableStyle
  3
Standard
 70
     0
 71
     0
 40
0.06
 41
0.06
280
     0
281
     0
  7
STANDARD
140
0.18
170
     2
 62
     0
 63
     7
283
     0
274
    -2
284
     1
 64
     0
275
    -2
285
     1
 65
     0
276
    -2
286
     1
 66
     0
277
    -2
287
     1
 67
     0
278
    -2
288
     1
 68
     0
279
    -2
289
     1
 69
     0
  7
STANDARD
140
0.25
170
     5
 62
     0
 63
     7
283
     0
274
    -2
284
     1
 64
     0
275
    -2
285
     1
 65
     0
276
    -2
286
     1
 66
     0
277
    -2
287
     1
 67
     0
278
    -2
288
     1
 68
     0
279
    -2
289
     1
 69
     0
  7
STANDARD
140
0.18
170
     5
 62
     0
 63
     7
283
     0
274
    -2
284
     1
 64
     0
275
    -2
285
     1
 65
     0
276
    -2
286
     1
 66
     0
277
    -2
287
     1
 67
     0
278
    -2
288
     1
 68
     0
279
    -2
289
     1
 69
     0
  0
VISUALSTYLE
  5
47A
102
{ACAD_XDICTIONARY
360
559
102
}
102
{ACAD_REACTORS
330
474
102
}
330
474
100
AcDbVisualStyle
  2
2dWireframe
 70
     4
 71
     0
 72
     2
 73
     0
 90
        0
 40
-0.6
 41
-30.0
 62
     5
 63
     7
 74
     1
 91
        4
 64
     7
 65
   257
 75
     1
175
     1
 42
1.0
 92
        0
 66
   257
 43
1.0
 76
     1
 77
     6
 78
     2
 67
     7
 79
     5
170
     0
171
     0
290
     0
174
     0
 93
        1
 44
0.0
173
     0
291
     0
 45
0.0
1001
ACAD
1000
AcDbSavedByObjectVersion
1070
     0
  0
VISUALSTYLE
  5
479
102
{ACAD_XDICTIONARY
360
557
102
}
102
{ACAD_REACTORS
330
474
102
}
330
474
100
AcDbVisualStyle
  2
Basic
 70
     7
 71
     1
 72
     0
 73
     1
 90
        0
 40
-0.6
 41
-30.0
 62
     5
 63
     7
 74
     0
 91
        4
 64
     7
 65
   257
 75
     1
175
     1
 42
1.0
 92
        8
 66
     7
 43
1.0
 76
     1
 77
     6
 78
     2
 67
     7
 79
     5
170
     0
171
     0
290
     0
174
     0
 93
        1
 44
0.0
173
     0
291
     1
 45
0.0
1001
ACAD
1000
AcDbSavedByObjectVersion
1070
     0
  0
VISUALSTYLE
  5
480
102
{ACAD_XDICTIONARY
360
565
102
}
102
{ACAD_REACTORS
330
474
102
}
330
474
100
AcDbVisualStyle
  2
Brighten
 70
    12
 71
     2
 72
     2
 73
     0
 90
        0
 40
-0.6
 41
-30.0
 62
     5
 63
     7
 74
     1
 91
        4
 64
     7
 65
   257
 75
     1
175
     1
 42
1.0
 92
        8
 66
     7
 43
1.0
 76
     1
 77
     6
 78
     2
 67
     7
 79
     5
170
     0
171
     0
290
     0
174
     0
 93
        1
 44
50.0
173
     0
291
     1
 45
0.0
1001
ACAD
1000
AcDbSavedByObjectVersion
1070
     0
  0
VISUALSTYLE
  5
484
102
{ACAD_XDICTIONARY
360
56D
102
}
102
{ACAD_REACTORS
330
474
102
}
330
474
100
AcDbVisualStyle
  2
ColorChange
 70
    16
 71
     2
 72
     2
 73
     3
 90
        0
 40
-0.6
 41
-30.0
 62
     5
 63
     8
 74
     1
 91
        4
 64
     7
 65
   257
 75
     1
175
     1
 42
1.0
 92
        8
 66
     8
 43
1.0
 76
     1
 77
     6
 78
     2
 67
     7
 79
     5
170
     0
171
     0
290
     0
174
     0
 93
        1
 44
0.0
173
     0
291
     1
 45
0.0
1001
ACAD
1000
AcDbSavedByObjectVersion
1070
     0
  0
VISUALSTYLE
  5
47D
102
{ACAD_XDICTIONARY
360
55F
102
}
102
{ACAD_REACTORS
330
474
102
}
330
474
100
AcDbVisualStyle
  2
Conceptual
 70
     9
 71
     3
 72
     2
 73
     0
 90
        0
 40
-0.6
 41
-30.0
 62
     5
 63
     7
 74
     2
 91
        2
 64
     7
 65
   257
 75
     1
175
     1
 42
179.0
 92
        8
 66
     7
 43
1.0
 76
     1
 77
     6
 78
     2
 67
     7
 79
     3
170
     0
171
     0
290
     0
174
     0
 93
        1
 44
0.0
173
     0
291
     0
 45
0.0
1001
ACAD
1000
AcDbSavedByObjectVersion
1070
     0
  0
VISUALSTYLE
  5
47F
102
{ACAD_XDICTIONARY
360
563
102
}
102
{ACAD_REACTORS
330
474
102
}
330
474
100
AcDbVisualStyle
  2
Dim
 70
    11
 71
     2
 72
     2
 73
     0
 90
        0
 40
-0.6
 41
-30.0
 62
     5
 63
     7
 74
     1
 91
        4
 64
     7
 65
   257
 75
     1
175
     1
 42
1.0
 92
        8
 66
     7
 43
1.0
 76
     1
 77
     6
 78
     2
 67
     7
 79
     5
170
     0
171
     0
290
     0
174
     0
 93
        1
 44
-50.0
173
     0
291
     1
 45
0.0
1001
ACAD
1000
AcDbSavedByObjectVersion
1070
     0
  0
VISUALSTYLE
  5
48C
102
{ACAD_XDICTIONARY
360
57D
102
}
102
{ACAD_REACTORS
330
474
102
}
330
474
100
AcDbVisualStyle
  2
EdgeColorOff
 70
    22
 71
     2
 72
     2
 73
     0
 90
        0
 40
-0.6
 41
-30.0
 62
     5
 63
     7
 74
     1
 91
        4
 64
     7
 65
   257
 75
     1
175
     1
 42
1.0
 92
        8
 66
     7
 43
1.0
 76
     1
 77
     6
 78
     2
 67
     7
 79
     5
170
     0
171
     0
290
     0
174
     0
 93
        1
 44
0.0
173
     0
291
     1
 45
0.0
1001
ACAD
1000
AcDbSavedByObjectVersion
1070
     0
  0
VISUALSTYLE
  5
483
102
{ACAD_XDICTIONARY
360
56B
102
}
102
{ACAD_REACTORS
330
474
102
}
330
474
100
AcDbVisualStyle
  2
Facepattern
 70
    15
 71
     2
 72
     2
 73
     0
 90
        0
 40
-0.6
 41
-30.0
 62
     5
 63
     7
 74
     1
 91
        4
 64
     7
 65
   257
 75
     1
175
     1
 42
1.0
 92
        8
 66
     7
 43
1.0
 76
     1
 77
     6
 78
     2
 67
     7
 79
     5
170
     0
171
     0
290
     0
174
     0
 93
        1
 44
0.0
173
     0
291
     1
 45
0.0
1001
ACAD
1000
AcDbSavedByObjectVersion
1070
     0
  0
VISUALSTYLE
  5
475
102
{ACAD_XDICTIONARY
360
54F
102
}
102
{ACAD_REACTORS
330
474
102
}
330
474
100
AcDbVisualStyle
  2
Flat
 70
     0
 71
     2
 72
     1
 73
     1
 90
        2
 40
-0.6
 41
30.0
 62
     5
 63
     7
 74
     0
 91
        0
 64
     7
 65
   257
 75
     1
175
     1
 42
1.0
 92
        8
 66
     7
 43
1.0
 76
     1
 77
     6
 78
     2
 67
     7
 79
     5
170
     0
171
     0
290
     0
174
     0
 93
       13
 44
0.0
173
     0
291
     1
 45
0.0
1001
ACAD
1000
AcDbSavedByObjectVersion
1070
     0
  0
VISUALSTYLE
  5
476
102
{ACAD_XDICTIONARY
360
551
102
}
102
{ACAD_REACTORS
330
474
102
}
330
474
100
AcDbVisualStyle
  2
FlatWithEdges
 70
     1
 71
     2
 72
     1
 73
     1
 90
        2
 40
-0.6
 41
30.0
 62
     5
 63
     7
 74
     1
 91
        0
 64
     7
 65
   257
 75
     1
175
     1
 42
1.0
 92
        0
 66
   257
 43
1.0
 76
     1
 77
     6
 78
     2
 67
     7
 79
     5
170
     0
171
     0
290
     0
174
     0
 93
       13
 44
0.0
173
     0
291
     1
 45
0.0
1001
ACAD
1000
AcDbSavedByObjectVersion
1070
     0
  0
VISUALSTYLE
  5
477
102
{ACAD_XDICTIONARY
360
553
102
}
102
{ACAD_REACTORS
330
474
102
}
330
474
100
AcDbVisualStyle
  2
Gouraud
 70
     2
 71
     2
 72
     2
 73
     1
 90
        2
 40
-0.6
 41
30.0
 62
     5
 63
     7
 74
     0
 91
        0
 64
     7
 65
   257
 75
     1
175
     1
 42
1.0
 92
        0
 66
     7
 43
1.0
 76
     1
 77
     6
 78
     2
 67
     7
 79
     5
170
     0
171
     0
290
     0
174
     0
 93
       13
 44
0.0
173
     0
291
     1
 45
0.0
1001
ACAD
1000
AcDbSavedByObjectVersion
1070
     0
  0
VISUALSTYLE
  5
478
102
{ACAD_XDICTIONARY
360
555
102
}
102
{ACAD_REACTORS
330
474
102
}
330
474
100
AcDbVisualStyle
  2
GouraudWithEdges
 70
     3
 71
     2
 72
     2
 73
     1
 90
        2
 40
-0.6
 41
30.0
 62
     5
 63
     7
 74
     1
 91
        0
 64
     7
 65
   257
 75
     1
175
     1
 42
1.0
 92
        0
 66
   257
 43
1.0
 76
     1
 77
     6
 78
     2
 67
     7
 79
     5
170
     0
171
     0
290
     0
174
     0
 93
       13
 44
0.0
173
     0
291
     1
 45
0.0
1001
ACAD
1000
AcDbSavedByObjectVersion
1070
     0
  0
VISUALSTYLE
  5
47C
102
{ACAD_XDICTIONARY
360
55D
102
}
102
{ACAD_REACTORS
330
474
102
}
330
474
100
AcDbVisualStyle
  2
Hidden
 70
     6
 71
     1
 72
     2
 73
     2
 90
        0
 40
-0.6
 41
-30.0
 62
     5
 63
     7
 74
     2
 91
        2
 64
     7
 65
   257
 75
     2
175
     1
 42
40.0
 92
        0
 66
   257
 43
1.0
 76
     1
 77
     6
 78
     2
 67
     7
 79
     3
170
     0
171
     0
290
     0
174
     0
 93
        1
 44
0.0
173
     0
291
     0
 45
0.0
1001
ACAD
1000
AcDbSavedByObjectVersion
1070
     0
  0
VISUALSTYLE
  5
48A
102
{ACAD_XDICTIONARY
360
579
102
}
102
{ACAD_REACTORS
330
474
102
}
330
474
100
AcDbVisualStyle
  2
JitterOff
 70
    20
 71
     2
 72
     2
 73
     0
 90
        0
 40
-0.6
 41
-30.0
 62
     5
 63
     7
 74
     1
 91
        4
 64
     7
 65
   257
 75
     1
175
     1
 42
1.0
 92
       10
 66
     7
 43
1.0
 76
     1
 77
     6
 78
     2
 67
     7
 79
     5
170
     0
171
     0
290
     0
174
     0
 93
        1
 44
0.0
173
     0
291
     1
 45
0.0
1001
ACAD
1000
AcDbSavedByObjectVersion
1070
     0
  0
VISUALSTYLE
  5
482
102
{ACAD_XDICTIONARY
360
569
102
}
102
{ACAD_REACTORS
330
474
102
}
330
474
100
AcDbVisualStyle
  2
Linepattern
 70
    14
 71
     2
 72
     2
 73
     0
 90
        0
 40
-0.6
 41
-30.0
 62
     5
 63
     7
 74
     1
 91
        4
 64
     7
 65
   257
 75
     7
175
     7
 42
1.0
 92
        8
 66
     7
 43
1.0
 76
     1
 77
     6
 78
     2
 67
     7
 79
     5
170
     0
171
     0
290
     0
174
     0
 93
        1
 44
0.0
173
     0
291
     1
 45
0.0
1001
ACAD
1000
AcDbSavedByObjectVersion
1070
     0
  0
VISUALSTYLE
  5
48B
102
{ACAD_XDICTIONARY
360
57B
102
}
102
{ACAD_REACTORS
330
474
102
}
330
474
100
AcDbVisualStyle
  2
OverhangOff
 70
    21
 71
     2
 72
     2
 73
     0
 90
        0
 40
-0.6
 41
-30.0
 62
     5
 63
     7
 74
     1
 91
        4
 64
     7
 65
   257
 75
     1
175
     1
 42
1.0
 92
        9
 66
     7
 43
1.0
 76
     1
 77
     6
 78
     2
 67
     7
 79
     5
170
     0
171
     0
290
     0
174
     0
 93
        1
 44
0.0
173
     0
291
     1
 45
0.0
1001
ACAD
1000
AcDbSavedByObjectVersion
1070
     0
  0
VISUALSTYLE
  5
47E
102
{ACAD_XDICTIONARY
360
561
102
}
102
{ACAD_REACTORS
330
474
102
}
330
474
100
AcDbVisualStyle
  2
Realistic
 70
     8
 71
     2
 72
     3
 73
     0
 90
        2
 40
-0.6
 41
30.0
 62
     5
 63
     7
 74
     0
 91
        0
 64
     7
 65
   257
 75
     1
175
     1
 42
1.0
 92
        8
 66
   257
 43
1.0
 76
     1
 77
     6
 78
     2
 67
     7
 79
     3
170
     0
171
     0
290
     0
174
     0
 93
       13
 44
0.0
173
     0
291
     0
 45
0.0
1001
ACAD
1000
AcDbSavedByObjectVersion
1070
     0
  0
VISUALSTYLE
  5
489
102
{ACAD_XDICTIONARY
360
577
102
}
102
{ACAD_REACTORS
330
474
102
}
330
474
100
AcDbVisualStyle
  2
Shaded
 70
    27
 71
     2
 72
     2
 73
     1
 90
        2
 40
-0.6
 41
30.0
 62
     5
 63
     7
 74
     0
 91
        4
 64
     7
 65
   257
 75
     1
175
     1
 42
1.0
 92
        8
 66
   257
 43
1.0
 76
     1
 77
     6
 78
     2
 67
     8
 79
     3
170
     0
171
     0
290
     0
174
     0
 93
        5
 44
0.0
173
     0
291
     0
 45
0.0
1001
ACAD
1000
AcDbSavedByObjectVersion
1070
     0
  0
VISUALSTYLE
  5
488
102
{ACAD_XDICTIONARY
360
575
102
}
102
{ACAD_REACTORS
330
474
102
}
330
474
100
AcDbVisualStyle
  2
Shaded with edges
 70
    26
 71
     2
 72
     2
 73
     1
 90
        2
 40
-0.6
 41
30.0
 62
     5
 63
     7
 74
     1
 91
       10
 64
     7
 65
   257
 75
     2
175
     1
 42
1.0
 92
        8
 66
   257
 43
1.0
 76
     1
 77
     6
 78
     2
 67
     7
 79
     3
170
     0
171
     0
290
     0
174
     0
 93
        5
 44
0.0
173
     0
291
     0
 45
0.0
1001
ACAD
1000
AcDbSavedByObjectVersion
1070
     0
  0
VISUALSTYLE
  5
485
102
{ACAD_XDICTIONARY
360
56F
102
}
102
{ACAD_REACTORS
330
474
102
}
330
474
100
AcDbVisualStyle
  2
Shades of Gray
 70
    23
 71
     2
 72
     2
 73
     3
 90
        0
 40
-0.6
 41
-30.0
 62
     5
 63
     7
 74
     2
 91
        2
 64
     7
 65
     7
 75
     1
175
     1
 42
40.0
 92
        8
 66
     7
 43
1.0
 76
     1
 77
     6
 78
     2
 67
     7
 79
     3
170
     0
171
     0
290
     0
174
     0
 93
        1
 44
0.0
173
     0
291
     0
 45
0.0
1001
ACAD
1000
AcDbSavedByObjectVersion
1070
     0
  0
VISUALSTYLE
  5
486
102
{ACAD_XDICTIONARY
360
571
102
}
102
{ACAD_REACTORS
330
474
102
}
330
474
100
AcDbVisualStyle
  2
Sketchy
 70
    24
 71
     1
 72
     2
 73
     2
 90
        0
 40
-0.6
 41
-30.0
 62
     5
 63
     7
 74
     2
 91
        2
 64
     7
 65
     7
 75
     1
175
     1
 42
40.0
 92
       11
 66
     7
 43
1.0
 76
     1
 77
     6
 78
     2
 67
     7
 79
     6
170
     0
171
     0
290
     0
174
     0
 93
        1
 44
0.0
173
     0
291
     0
 45
0.0
1001
ACAD
1000
AcDbSavedByObjectVersion
1070
     0
  0
VISUALSTYLE
  5
481
102
{ACAD_XDICTIONARY
360
567
102
}
102
{ACAD_REACTORS
330
474
102
}
330
474
100
AcDbVisualStyle
  2
Thicken
 70
    13
 71
     2
 72
     2
 73
     0
 90
        0
 40
-0.6
 41
-30.0
 62
     5
 63
     7
 74
     1
 91
        4
 64
     7
 65
   257
 75
     1
175
     1
 42
1.0
 92
       12
 66
     7
 43
1.0
 76
     1
 77
     6
 78
     2
 67
     7
 79
     5
170
     0
171
     0
290
     0
174
     0
 93
        1
 44
0.0
173
     0
291
     1
 45
0.0
1001
ACAD
1000
AcDbSavedByObjectVersion
1070
     0
  0
VISUALSTYLE
  5
47B
102
{ACAD_XDICTIONARY
360
55B
102
}
102
{ACAD_REACTORS
330
474
102
}
330
474
100
AcDbVisualStyle
  2
Wireframe
 70
     5
 71
     0
 72
     2
 73
     0
 90
        0
 40
-0.6
 41
-30.0
 62
     5
 63
     7
 74
     1
 91
        4
 64
     7
 65
   257
 75
     1
175
     1
 42
1.0
 92
        0
 66
   257
 43
1.0
 76
     1
 77
     6
 78
     2
 67
     7
 79
     3
170
     0
171
     0
290
     0
174
     0
 93
        1
 44
0.0
173
     0
291
     0
 45
0.0
1001
ACAD
1000
AcDbSavedByObjectVersion
1070
     0
  0
VISUALSTYLE
  5
487
102
{ACAD_XDICTIONARY
360
573
102
}
102
{ACAD_REACTORS
330
474
102
}
330
474
100
AcDbVisualStyle
  2
X-Ray
 70
    25
 71
     2
 72
     2
 73
     1
 90
        1
 40
0.5
 41
-30.0
 62
     5
 63
     7
 74
     1
 91
        0
 64
     7
 65
   257
 75
     1
175
     1
 42
1.0
 92
        8
 66
     7
 43
1.0
 76
     1
 77
     6
 78
     2
 67
     7
 79
     3
170
     0
171
     0
290
     0
174
     0
 93
       13
 44
0.0
173
     0
291
     0
 45
0.0
1001
ACAD
1000
AcDbSavedByObjectVersion
1070
     0
  0
DICTIONARYVAR
  5
542
102
{ACAD_REACTORS
330
53D
102
}
330
53D
100
DictionaryVariables
280
     0
  1
1:1
  0
DICTIONARYVAR
  5
53F
102
{ACAD_REACTORS
330
53D
102
}
330
53D
100
DictionaryVariables
280
     0
  1
STANDARD
  0
DICTIONARYVAR
  5
53E
102
{ACAD_REACTORS
330
53D
102
}
330
53D
100
DictionaryVariables
280
     0
  1
STANDARD
  0
DICTIONARYVAR
  5
540
102
{ACAD_REACTORS
330
53D
102
}
330
53D
100
DictionaryVariables
280
     0
  1
Imperial24
  0
DICTIONARYVAR
  5
541
102
{ACAD_REACTORS
330
53D
102
}
330
53D
100
DictionaryVariables
280
     0
  1
Imperial24
  0
DICTIONARYVAR
  5
545
102
{ACAD_REACTORS
330
53D
102
}
330
53D
100
DictionaryVariables
280
     0
  1
1
  0
DICTIONARYVAR
  5
544
102
{ACAD_REACTORS
330
53D
102
}
330
53D
100
DictionaryVariables
280
     0
  1
0
  0
DICTIONARYVAR
  5
543
102
{ACAD_REACTORS
330
53D
102
}
330
53D
100
DictionaryVariables
280
     0
  1
127
  0
DICTIONARYVAR
  5
546
102
{ACAD_REACTORS
330
53D
102
}
330
53D
100
DictionaryVariables
280
     0
  1
2
  0
DICTIONARY
  5
581
330
4BA
100
AcDbDictionary
280
     1
281
     1
  3
ACAD_XREC_ROUNDTRIP
360
582
  0
DICTIONARY
  5
583
330
4BE
100
AcDbDictionary
280
     1
281
     1
  3
ACAD_XREC_ROUNDTRIP
360
584
  0
DICTIONARY
  5
465
330
464
100
AcDbDictionary
280
     1
281
     1
  3
ACAD_XREC_ROUNDTRIP
360
54D
  3
BUMPTILE
360
467
  3
DIFFUSETILE
360
466
  3
OPACITYTILE
360
46A
  3
REFLECTIONTILE
360
469
  3
REFRACTIONTILE
360
46B
  3
SPECULARTILE
360
468
  0
DICTIONARY
  5
45D
330
45C
100
AcDbDictionary
280
     1
281
     1
  3
ACAD_XREC_ROUNDTRIP
360
54C
  3
BUMPTILE
360
45F
  3
DIFFUSETILE
360
45E
  3
OPACITYTILE
360
462
  3
REFLECTIONTILE
360
461
  3
REFRACTIONTILE
360
463
  3
SPECULARTILE
360
460
  0
DICTIONARY
  5
46D
330
46C
100
AcDbDictionary
280
     1
281
     1
  3
ACAD_XREC_ROUNDTRIP
360
54E
  3
BUMPTILE
360
46F
  3
DIFFUSETILE
360
46E
  3
OPACITYTILE
360
472
  3
REFLECTIONTILE
360
471
  3
REFRACTIONTILE
360
473
  3
SPECULARTILE
360
470
  0
DICTIONARY
  5
548
330
4AF
100
AcDbDictionary
280
     1
281
     1
  3
ACAD_ROUNDTRIP_2008_TABLESTYLE_CELLSTYLEMAP
360
549
  3
ACAD_XREC_ROUNDTRIP
360
57F
  0
DICTIONARY
  5
559
330
47A
100
AcDbDictionary
280
     1
281
     1
  3
ACAD_XREC_ROUNDTRIP
360
55A
  0
DICTIONARY
  5
557
330
479
100
AcDbDictionary
280
     1
281
     1
  3
ACAD_XREC_ROUNDTRIP
360
558
  0
DICTIONARY
  5
565
330
480
100
AcDbDictionary
280
     1
281
     1
  3
ACAD_XREC_ROUNDTRIP
360
566
  0
DICTIONARY
  5
56D
330
484
100
AcDbDictionary
280
     1
281
     1
  3
ACAD_XREC_ROUNDTRIP
360
56E
  0
DICTIONARY
  5
55F
330
47D
100
AcDbDictionary
280
     1
281
     1
  3
ACAD_XREC_ROUNDTRIP
360
560
  0
DICTIONARY
  5
563
330
47F
100
AcDbDictionary
280
     1
281
     1
  3
ACAD_XREC_ROUNDTRIP
360
564
  0
DICTIONARY
  5
57D
330
48C
100
AcDbDictionary
280
     1
281
     1
  3
ACAD_XREC_ROUNDTRIP
360
57E
  0
DICTIONARY
  5
56B
330
483
100
AcDbDictionary
280
     1
281
     1
  3
ACAD_XREC_ROUNDTRIP
360
56C
  0
DICTIONARY
  5
54F
330
475
100
AcDbDictionary
280
     1
281
     1
  3
ACAD_XREC_ROUNDTRIP
360
550
  0
DICTIONARY
  5
551
330
476
100
AcDbDictionary
280
     1
281
     1
  3
ACAD_XREC_ROUNDTRIP
360
552
  0
DICTIONARY
  5
553
330
477
100
AcDbDictionary
280
     1
281
     1
  3
ACAD_XREC_ROUNDTRIP
360
554
  0
DICTIONARY
  5
555
330
478
100
AcDbDictionary
280
     1
281
     1
  3
ACAD_XREC_ROUNDTRIP
360
556
  0
DICTIONARY
  5
55D
330
47C
100
AcDbDictionary
280
     1
281
     1
  3
ACAD_XREC_ROUNDTRIP
360
55E
  0
DICTIONARY
  5
579
330
48A
100
AcDbDictionary
280
     1
281
     1
  3
ACAD_XREC_ROUNDTRIP
360
57A
  0
DICTIONARY
  5
569
330
482
100
AcDbDictionary
280
     1
281
     1
  3
ACAD_XREC_ROUNDTRIP
360
56A
  0
DICTIONARY
  5
57B
330
48B
100
AcDbDictionary
280
     1
281
     1
  3
ACAD_XREC_ROUNDTRIP
360
57C
  0
DICTIONARY
  5
561
330
47E
100
AcDbDictionary
280
     1
281
     1
  3
ACAD_XREC_ROUNDTRIP
360
562
  0
DICTIONARY
  5
577
330
489
100
AcDbDictionary
280
     1
281
     1
  3
ACAD_XREC_ROUNDTRIP
360
578
  0
DICTIONARY
  5
575
330
488
100
AcDbDictionary
280
     1
281
     1
  3
ACAD_XREC_ROUNDTRIP
360
576
  0
DICTIONARY
  5
56F
330
485
100
AcDbDictionary
280
     1
281
     1
  3
ACAD_XREC_ROUNDTRIP
360
570
  0
DICTIONARY
  5
571
330
486
100
AcDbDictionary
280
     1
281
     1
  3
ACAD_XREC_ROUNDTRIP
360
572
  0
DICTIONARY
  5
567
330
481
100
AcDbDictionary
280
     1
281
     1
  3
ACAD_XREC_ROUNDTRIP
360
568
  0
DICTIONARY
  5
55B
330
47B
100
AcDbDictionary
280
     1
281
     1
  3
ACAD_XREC_ROUNDTRIP
360
55C
  0
DICTIONARY
  5
573
330
487
100
AcDbDictionary
280
     1
281
     1
  3
ACAD_XREC_ROUNDTRIP
360
574
  0
XRECORD
  5
582
102
{ACAD_REACTORS
330
581
102
}
330
581
100
AcDbXrecord
280
     1
102
SHADEPLOT
 70
     0
102
SHADEPLOTRESLEVEL
 70
     2
102
SHADEPLOTCUSTOMDPI
 70
   300
  0
XRECORD
  5
584
102
{ACAD_REACTORS
330
583
102
}
330
583
100
AcDbXrecord
280
     1
102
SHADEPLOT
 70
     0
102
SHADEPLOTRESLEVEL
 70
     2
102
SHADEPLOTCUSTOMDPI
 70
   300
  0
XRECORD
  5
54D
102
{ACAD_REACTORS
330
465
102
}
330
465
100
AcDbXrecord
280
     1
102
MATERIAL
148
0.0
149
0.0
149
0.0
 93
        0
 94
      127
282
     0
 72
     0
 77
     0
171
     0
175
     0
179
     0
273
     0
  0
XRECORD
  5
467
102
{ACAD_REACTORS
330
465
102
}
330
465
100
AcDbXrecord
280
     1
270
     1
271
     1
  0
XRECORD
  5
466
102
{ACAD_REACTORS
330
465
102
}
330
465
100
AcDbXrecord
280
     1
270
     1
271
     1
  0
XRECORD
  5
46A
102
{ACAD_REACTORS
330
465
102
}
330
465
100
AcDbXrecord
280
     1
270
     1
271
     1
  0
XRECORD
  5
469
102
{ACAD_REACTORS
330
465
102
}
330
465
100
AcDbXrecord
280
     1
270
     1
271
     1
  0
XRECORD
  5
46B
102
{ACAD_REACTORS
330
465
102
}
330
465
100
AcDbXrecord
280
     1
270
     1
271
     1
  0
XRECORD
  5
468
102
{ACAD_REACTORS
330
465
102
}
330
465
100
AcDbXrecord
280
     1
270
     1
271
     1
  0
XRECORD
  5
54C
102
{ACAD_REACTORS
330
45D
102
}
330
45D
100
AcDbXrecord
280
     1
102
MATERIAL
148
0.0
149
0.0
149
0.0
 93
        0
 94
      127
282
     0
 72
     0
 77
     0
171
     0
175
     0
179
     0
273
     0
  0
XRECORD
  5
45F
102
{ACAD_REACTORS
330
45D
102
}
330
45D
100
AcDbXrecord
280
     1
270
     1
271
     1
  0
XRECORD
  5
45E
102
{ACAD_REACTORS
330
45D
102
}
330
45D
100
AcDbXrecord
280
     1
270
     1
271
     1
  0
XRECORD
  5
462
102
{ACAD_REACTORS
330
45D
102
}
330
45D
100
AcDbXrecord
280
     1
270
     1
271
     1
  0
XRECORD
  5
461
102
{ACAD_REACTORS
330
45D
102
}
330
45D
100
AcDbXrecord
280
     1
270
     1
271
     1
  0
XRECORD
  5
463
102
{ACAD_REACTORS
330
45D
102
}
330
45D
100
AcDbXrecord
280
     1
270
     1
271
     1
  0
XRECORD
  5
460
102
{ACAD_REACTORS
330
45D
102
}
330
45D
100
AcDbXrecord
280
     1
270
     1
271
     1
  0
XRECORD
  5
54E
102
{ACAD_REACTORS
330
46D
102
}
330
46D
100
AcDbXrecord
280
     1
102
MATERIAL
148
0.0
149
0.0
149
0.0
 93
        0
 94
      127
282
     0
 72
     0
 77
     0
171
     0
175
     0
179
     0
273
     0
  0
XRECORD
  5
46F
102
{ACAD_REACTORS
330
46D
102
}
330
46D
100
AcDbXrecord
280
     1
270
     1
271
     1
  0
XRECORD
  5
46E
102
{ACAD_REACTORS
330
46D
102
}
330
46D
100
AcDbXrecord
280
     1
270
     1
271
     1
  0
XRECORD
  5
472
102
{ACAD_REACTORS
330
46D
102
}
330
46D
100
AcDbXrecord
280
     1
270
     1
271
     1
  0
XRECORD
  5
471
102
{ACAD_REACTORS
330
46D
102
}
330
46D
100
AcDbXrecord
280
     1
270
     1
271
     1
  0
XRECORD
  5
473
102
{ACAD_REACTORS
330
46D
102
}
330
46D
100
AcDbXrecord
280
     1
270
     1
271
     1
  0
XRECORD
  5
470
102
{ACAD_REACTORS
330
46D
102
}
330
46D
100
AcDbXrecord
280
     1
270
     1
271
     1
  0
CELLSTYLEMAP
  5
549
102
{ACAD_REACTORS
330
548
102
}
330
548
100
AcDbCellStyleMap
 90
        3
300
CELLSTYLE
  1
TABLEFORMAT_BEGIN
 90
        5
170
     1
 91
        0
 92
    32768
 62
   257
 93
        1
300
CONTENTFORMAT
  1
CONTENTFORMAT_BEGIN
 90
        0
 91
        0
 92
      512
 93
        0
300

 40
0.0
140
1.0
 94
        5
 62
     0
340
4A0
144
0.25
309
CONTENTFORMAT_END
171
     0
 94
        0
309
TABLEFORMAT_END
  1
CELLSTYLE_BEGIN
 90
        1
 91
        1
300
_TITLE
309
CELLSTYLE_END
300
CELLSTYLE
  1
TABLEFORMAT_BEGIN
 90
        5
170
     1
 91
        0
 92
        0
 62
   257
 93
        1
300
CONTENTFORMAT
  1
CONTENTFORMAT_BEGIN
 90
        0
 91
        0
 92
      512
 93
        0
300

 40
0.0
140
1.0
 94
        5
 62
     0
340
4A0
144
0.18
309
CONTENTFORMAT_END
171
     0
 94
        0
309
TABLEFORMAT_END
  1
CELLSTYLE_BEGIN
 90
        2
 91
        1
300
_HEADER
309
CELLSTYLE_END
300
CELLSTYLE
  1
TABLEFORMAT_BEGIN
 90
        5
170
     1
 91
        0
 92
        0
 62
   257
 93
        1
300
CONTENTFORMAT
  1
CONTENTFORMAT_BEGIN
 90
        0
 91
        0
 92
      512
 93
        0
300

 40
0.0
140
1.0
 94
        2
 62
     0
340
4A0
144
0.18
309
CONTENTFORMAT_END
171
     0
 94
        0
309
TABLEFORMAT_END
  1
CELLSTYLE_BEGIN
 90
        3
 91
        2
300
_DATA
309
CELLSTYLE_END
  0
XRECORD
  5
57F
102
{ACAD_REACTORS
330
548
102
}
330
548
100
AcDbXrecord
280
     1
102
ACAD_ROUNDTRIP_PRE2007_TABLESTYLE
 90
      512
 91
        0
  1

 92
      512
 93
        0
  2

 94
      512
 95
        0
  3

  0
XRECORD
  5
55A
102
{ACAD_REACTORS
330
559
102
}
330
559
100
AcDbXrecord
280
     1
102
RTVSPost2010Prop28
280
     1
102
RTVSPost2010PropOp28
 70
     1
102
RTVSPost2010Prop29
280
     1
102
RTVSPost2010PropOp29
 70
     1
102
RTVSPost2010Prop30
280
     0
102
RTVSPost2010PropOp30
 70
     1
102
RTVSPost2010Prop31
280
     0
102
RTVSPost2010PropOp31
 70
     1
102
RTVSPost2010Prop32
280
     0
102
RTVSPost2010PropOp32
 70
     1
102
RTVSPost2010Prop33
280
     0
102
RTVSPost2010PropOp33
 70
     1
102
RTVSPost2010Prop34
280
     0
102
RTVSPost2010PropOp34
 70
     1
102
RTVSPost2010Prop35
280
     0
102
RTVSPost2010PropOp35
 70
     1
102
RTVSPost2010Prop36
280
     0
102
RTVSPost2010PropOp36
 70
     1
102
RTVSPost2010Prop37
 90
       50
102
RTVSPost2010PropOp37
 70
     1
102
RTVSPost2010Prop38
140
0.0
102
RTVSPost2010PropOp38
 70
     1
102
RTVSPost2010Prop39
140
1.0
102
RTVSPost2010PropOp39
 70
     1
102
RTVSPost2010Prop40
 90
        0
102
RTVSPost2010PropOp40
 70
     1
102
RTVSPost2010Prop41ColorIndex
 90
       18
102
RTVSPost2010Prop41ColorRGB
 90
        0
102
RTVSPost2010PropOp41
 70
     1
102
RTVSPost2010Prop42
 90
       50
102
RTVSPost2010PropOp42
 70
     1
102
RTVSPost2010Prop43
 90
        3
102
RTVSPost2010PropOp43
 70
     1
102
RTVSPost2010Prop44ColorIndex
 90
        5
102
RTVSPost2010Prop44ColorRGB
 90
      255
102
RTVSPost2010PropOp44
 70
     1
102
RTVSPost2010Prop45
280
     0
102
RTVSPost2010PropOp45
 70
     1
102
RTVSPost2010Prop46
 90
       50
102
RTVSPost2010PropOp46
 70
     1
102
RTVSPost2010Prop47
 90
       50
102
RTVSPost2010PropOp47
 70
     1
102
RTVSPost2010Prop48
 90
       50
102
RTVSPost2010PropOp48
 70
     1
102
RTVSPost2010Prop49
280
     0
102
RTVSPost2010PropOp49
 70
     1
102
RTVSPost2010Prop50
 90
       50
102
RTVSPost2010PropOp50
 70
     1
102
RTVSPost2010Prop51ColorIndex
 90
      256
102
RTVSPost2010Prop51ColorRGB
 90
-16777216
102
RTVSPost2010PropOp51
 70
     0
102
RTVSPost2010Prop52
140
1.0
102
RTVSPost2010PropOp52
 70
     0
102
RTVSPost2010Prop53
 90
        2
102
RTVSPost2010PropOp53
 70
     1
102
RTVSPost2010Prop54
  1
strokes_ogs.tif
102
RTVSPost2010PropOp54
 70
     1
102
RTVSPost2010Prop55
280
     0
102
RTVSPost2010PropOp55
 70
     1
102
RTVSPost2010Prop56
140
1.0
102
RTVSPost2010PropOp56
 70
     1
102
RTVSPost2010Prop57
140
1.0
102
RTVSPost2010PropOp57
 70
     1
102
RTVSPropertyOp0
 70
     1
102
RTVSPropertyOp1
 70
     1
102
RTVSPropertyOp2
 70
     1
102
RTVSPropertyOp3
 70
     1
102
RTVSPropertyOp4
 70
     1
102
RTVSPropertyOp5
 70
     1
102
RTVSPropertyOp6
 70
     1
102
RTVSPropertyOp7
 70
     1
102
RTVSPropertyOp8
 70
     1
102
RTVSPropertyOp9
 70
     1
102
RTVSPropertyOp10
 70
     1
102
RTVSPropertyOp11
 70
     1
102
RTVSPropertyOp12
 70
     1
102
RTVSPropertyOp13
 70
     1
102
RTVSPropertyOp14
 70
     1
102
RTVSPropertyOp15
 70
     1
102
RTVSPropertyOp16
 70
     1
102
RTVSPropertyOp17
 70
     1
102
RTVSPropertyOp18
 70
     1
102
RTVSPropertyOp19
 70
     1
102
RTVSPropertyOp20
 70
     1
102
RTVSPropertyOp21
 70
     1
102
RTVSPropertyOp22
 70
     1
102
RTVSPropertyOp23
 70
     1
102
RTVSPropertyOp24
 70
     1
102
RTVSPropertyOp25
 70
     1
102
RTVSPropertyOp26
 70
     1
102
RTVSPropertyOp27
 70
     1
102
RTVSPropertyOp28
 70
     1
102
RTVSPropertyOp29
 70
     1
102
RTVSPropertyOp30
 70
     1
102
RTVSPropertyOp31
 70
     1
102
RTVSPropertyOp32
 70
     1
102
RTVSPropertyOp33
 70
     1
102
RTVSPropertyOp34
 70
     1
102
RTVSPropertyOp35
 70
     1
102
RTVSPropertyOp36
 70
     1
102
RTVSPropertyOp37
 70
     1
102
RTVSPropertyOp38
 70
     1
102
RTVSPropertyOp39
 70
     1
102
RTVSPropertyOp40
 70
     1
102
RTVSPropertyOp41
 70
     1
102
RTVSPropertyOp42
 70
     1
102
RTVSPropertyOp43
 70
     1
102
RTVSPropertyOp44
 70
     1
102
RTVSPropertyOp45
 70
     1
102
RTVSPropertyOp46
 70
     1
102
RTVSPropertyOp47
 70
     1
102
RTVSPropertyOp48
 70
     1
102
RTVSPropertyOp49
 70
     1
102
RTVSPropertyOp50
 70
     1
102
RTVSPropertyOp51
 70
     0
102
RTVSPropertyOp52
 70
     0
102
RTVSPropertyOp53
 70
     1
102
RTVSPropertyOp54
 70
     1
102
RTVSPropertyOp55
 70
     1
102
RTVSPropertyOp56
 70
     1
102
RTVSPropertyOp57
 70
     1
102
RTVSPropertyOp58
 70
     1
102
RTVSPropertyOp59
 70
     1
102
RTVSPropertyOp60
 70
     1
102
RTVSPropertyOp61
 70
     1
102
RTVSPropertyOp62
 70
     1
  0
XRECORD
  5
558
102
{ACAD_REACTORS
330
557
102
}
330
557
100
AcDbXrecord
280
     1
102
RTVSPost2010Prop28
280
     0
102
RTVSPost2010PropOp28
 70
     1
102
RTVSPost2010Prop29
280
     1
102
RTVSPost2010PropOp29
 70
     1
102
RTVSPost2010Prop30
280
     1
102
RTVSPost2010PropOp30
 70
     1
102
RTVSPost2010Prop31
280
     0
102
RTVSPost2010PropOp31
 70
     1
102
RTVSPost2010Prop32
280
     0
102
RTVSPost2010PropOp32
 70
     1
102
RTVSPost2010Prop33
280
     0
102
RTVSPost2010PropOp33
 70
     1
102
RTVSPost2010Prop34
280
     0
102
RTVSPost2010PropOp34
 70
     1
102
RTVSPost2010Prop35
280
     0
102
RTVSPost2010PropOp35
 70
     1
102
RTVSPost2010Prop36
280
     0
102
RTVSPost2010PropOp36
 70
     1
102
RTVSPost2010Prop37
 90
       50
102
RTVSPost2010PropOp37
 70
     1
102
RTVSPost2010Prop38
140
0.0
102
RTVSPost2010PropOp38
 70
     1
102
RTVSPost2010Prop39
140
1.0
102
RTVSPost2010PropOp39
 70
     1
102
RTVSPost2010Prop40
 90
        0
102
RTVSPost2010PropOp40
 70
     1
102
RTVSPost2010Prop41ColorIndex
 90
       18
102
RTVSPost2010Prop41ColorRGB
 90
        0
102
RTVSPost2010PropOp41
 70
     1
102
RTVSPost2010Prop42
 90
       50
102
RTVSPost2010PropOp42
 70
     1
102
RTVSPost2010Prop43
 90
        3
102
RTVSPost2010PropOp43
 70
     1
102
RTVSPost2010Prop44ColorIndex
 90
        5
102
RTVSPost2010Prop44ColorRGB
 90
      255
102
RTVSPost2010PropOp44
 70
     1
102
RTVSPost2010Prop45
280
     0
102
RTVSPost2010PropOp45
 70
     1
102
RTVSPost2010Prop46
 90
       50
102
RTVSPost2010PropOp46
 70
     1
102
RTVSPost2010Prop47
 90
       50
102
RTVSPost2010PropOp47
 70
     1
102
RTVSPost2010Prop48
 90
       50
102
RTVSPost2010PropOp48
 70
     1
102
RTVSPost2010Prop49
280
     0
102
RTVSPost2010PropOp49
 70
     1
102
RTVSPost2010Prop50
 90
       50
102
RTVSPost2010PropOp50
 70
     1
102
RTVSPost2010Prop51ColorIndex
 90
      256
102
RTVSPost2010Prop51ColorRGB
 90
-16777216
102
RTVSPost2010PropOp51
 70
     0
102
RTVSPost2010Prop52
140
1.0
102
RTVSPost2010PropOp52
 70
     0
102
RTVSPost2010Prop53
 90
        2
102
RTVSPost2010PropOp53
 70
     1
102
RTVSPost2010Prop54
  1
strokes_ogs.tif
102
RTVSPost2010PropOp54
 70
     1
102
RTVSPost2010Prop55
280
     0
102
RTVSPost2010PropOp55
 70
     1
102
RTVSPost2010Prop56
140
1.0
102
RTVSPost2010PropOp56
 70
     1
102
RTVSPost2010Prop57
140
1.0
102
RTVSPost2010PropOp57
 70
     1
102
RTVSPropertyOp0
 70
     1
102
RTVSPropertyOp1
 70
     1
102
RTVSPropertyOp2
 70
     1
102
RTVSPropertyOp3
 70
     1
102
RTVSPropertyOp4
 70
     1
102
RTVSPropertyOp5
 70
     1
102
RTVSPropertyOp6
 70
     1
102
RTVSPropertyOp7
 70
     1
102
RTVSPropertyOp8
 70
     1
102
RTVSPropertyOp9
 70
     1
102
RTVSPropertyOp10
 70
     1
102
RTVSPropertyOp11
 70
     1
102
RTVSPropertyOp12
 70
     1
102
RTVSPropertyOp13
 70
     1
102
RTVSPropertyOp14
 70
     1
102
RTVSPropertyOp15
 70
     1
102
RTVSPropertyOp16
 70
     1
102
RTVSPropertyOp17
 70
     1
102
RTVSPropertyOp18
 70
     1
102
RTVSPropertyOp19
 70
     1
102
RTVSPropertyOp20
 70
     1
102
RTVSPropertyOp21
 70
     1
102
RTVSPropertyOp22
 70
     1
102
RTVSPropertyOp23
 70
     1
102
RTVSPropertyOp24
 70
     1
102
RTVSPropertyOp25
 70
     1
102
RTVSPropertyOp26
 70
     1
102
RTVSPropertyOp27
 70
     1
102
RTVSPropertyOp28
 70
     1
102
RTVSPropertyOp29
 70
     1
102
RTVSPropertyOp30
 70
     1
102
RTVSPropertyOp31
 70
     1
102
RTVSPropertyOp32
 70
     1
102
RTVSPropertyOp33
 70
     1
102
RTVSPropertyOp34
 70
     1
102
RTVSPropertyOp35
 70
     1
102
RTVSPropertyOp36
 70
     1
102
RTVSPropertyOp37
 70
     1
102
RTVSPropertyOp38
 70
     1
102
RTVSPropertyOp39
 70
     1
102
RTVSPropertyOp40
 70
     1
102
RTVSPropertyOp41
 70
     1
102
RTVSPropertyOp42
 70
     1
102
RTVSPropertyOp43
 70
     1
102
RTVSPropertyOp44
 70
     1
102
RTVSPropertyOp45
 70
     1
102
RTVSPropertyOp46
 70
     1
102
RTVSPropertyOp47
 70
     1
102
RTVSPropertyOp48
 70
     1
102
RTVSPropertyOp49
 70
     1
102
RTVSPropertyOp50
 70
     1
102
RTVSPropertyOp51
 70
     0
102
RTVSPropertyOp52
 70
     0
102
RTVSPropertyOp53
 70
     1
102
RTVSPropertyOp54
 70
     1
102
RTVSPropertyOp55
 70
     1
102
RTVSPropertyOp56
 70
     1
102
RTVSPropertyOp57
 70
     1
102
RTVSPropertyOp58
 70
     1
102
RTVSPropertyOp59
 70
     1
102
RTVSPropertyOp60
 70
     1
102
RTVSPropertyOp61
 70
     1
102
RTVSPropertyOp62
 70
     1
  0
XRECORD
  5
566
102
{ACAD_REACTORS
330
565
102
}
330
565
100
AcDbXrecord
280
     1
102
RTVSPost2010Prop28
280
     0
102
RTVSPost2010PropOp28
 70
     1
102
RTVSPost2010Prop29
280
     1
102
RTVSPost2010PropOp29
 70
     1
102
RTVSPost2010Prop30
280
     1
102
RTVSPost2010PropOp30
 70
     1
102
RTVSPost2010Prop31
280
     0
102
RTVSPost2010PropOp31
 70
     1
102
RTVSPost2010Prop32
280
     0
102
RTVSPost2010PropOp32
 70
     1
102
RTVSPost2010Prop33
280
     0
102
RTVSPost2010PropOp33
 70
     1
102
RTVSPost2010Prop34
280
     0
102
RTVSPost2010PropOp34
 70
     1
102
RTVSPost2010Prop35
280
     0
102
RTVSPost2010PropOp35
 70
     1
102
RTVSPost2010Prop36
280
     0
102
RTVSPost2010PropOp36
 70
     1
102
RTVSPost2010Prop37
 90
       50
102
RTVSPost2010PropOp37
 70
     1
102
RTVSPost2010Prop38
140
0.0
102
RTVSPost2010PropOp38
 70
     1
102
RTVSPost2010Prop39
140
1.0
102
RTVSPost2010PropOp39
 70
     1
102
RTVSPost2010Prop40
 90
        0
102
RTVSPost2010PropOp40
 70
     1
102
RTVSPost2010Prop41ColorIndex
 90
       18
102
RTVSPost2010Prop41ColorRGB
 90
        0
102
RTVSPost2010PropOp41
 70
     1
102
RTVSPost2010Prop42
 90
       50
102
RTVSPost2010PropOp42
 70
     1
102
RTVSPost2010Prop43
 90
        3
102
RTVSPost2010PropOp43
 70
     1
102
RTVSPost2010Prop44ColorIndex
 90
        5
102
RTVSPost2010Prop44ColorRGB
 90
      255
102
RTVSPost2010PropOp44
 70
     1
102
RTVSPost2010Prop45
280
     0
102
RTVSPost2010PropOp45
 70
     1
102
RTVSPost2010Prop46
 90
       50
102
RTVSPost2010PropOp46
 70
     1
102
RTVSPost2010Prop47
 90
       50
102
RTVSPost2010PropOp47
 70
     1
102
RTVSPost2010Prop48
 90
       50
102
RTVSPost2010PropOp48
 70
     1
102
RTVSPost2010Prop49
280
     0
102
RTVSPost2010PropOp49
 70
     1
102
RTVSPost2010Prop50
 90
       50
102
RTVSPost2010PropOp50
 70
     1
102
RTVSPost2010Prop51ColorIndex
 90
      256
102
RTVSPost2010Prop51ColorRGB
 90
-16777216
102
RTVSPost2010PropOp51
 70
     0
102
RTVSPost2010Prop52
140
1.0
102
RTVSPost2010PropOp52
 70
     0
102
RTVSPost2010Prop53
 90
        2
102
RTVSPost2010PropOp53
 70
     1
102
RTVSPost2010Prop54
  1
strokes_ogs.tif
102
RTVSPost2010PropOp54
 70
     1
102
RTVSPost2010Prop55
280
     0
102
RTVSPost2010PropOp55
 70
     1
102
RTVSPost2010Prop56
140
1.0
102
RTVSPost2010PropOp56
 70
     1
102
RTVSPost2010Prop57
140
1.0
102
RTVSPost2010PropOp57
 70
     1
102
RTVSPropertyOp0
 70
     1
102
RTVSPropertyOp1
 70
     1
102
RTVSPropertyOp2
 70
     1
102
RTVSPropertyOp3
 70
     1
102
RTVSPropertyOp4
 70
     1
102
RTVSPropertyOp5
 70
     1
102
RTVSPropertyOp6
 70
     1
102
RTVSPropertyOp7
 70
     1
102
RTVSPropertyOp8
 70
     1
102
RTVSPropertyOp9
 70
     1
102
RTVSPropertyOp10
 70
     1
102
RTVSPropertyOp11
 70
     1
102
RTVSPropertyOp12
 70
     1
102
RTVSPropertyOp13
 70
     1
102
RTVSPropertyOp14
 70
     1
102
RTVSPropertyOp15
 70
     1
102
RTVSPropertyOp16
 70
     1
102
RTVSPropertyOp17
 70
     1
102
RTVSPropertyOp18
 70
     1
102
RTVSPropertyOp19
 70
     1
102
RTVSPropertyOp20
 70
     1
102
RTVSPropertyOp21
 70
     1
102
RTVSPropertyOp22
 70
     1
102
RTVSPropertyOp23
 70
     1
102
RTVSPropertyOp24
 70
     1
102
RTVSPropertyOp25
 70
     1
102
RTVSPropertyOp26
 70
     1
102
RTVSPropertyOp27
 70
     1
102
RTVSPropertyOp28
 70
     1
102
RTVSPropertyOp29
 70
     1
102
RTVSPropertyOp30
 70
     1
102
RTVSPropertyOp31
 70
     1
102
RTVSPropertyOp32
 70
     1
102
RTVSPropertyOp33
 70
     1
102
RTVSPropertyOp34
 70
     1
102
RTVSPropertyOp35
 70
     1
102
RTVSPropertyOp36
 70
     1
102
RTVSPropertyOp37
 70
     1
102
RTVSPropertyOp38
 70
     1
102
RTVSPropertyOp39
 70
     1
102
RTVSPropertyOp40
 70
     1
102
RTVSPropertyOp41
 70
     1
102
RTVSPropertyOp42
 70
     1
102
RTVSPropertyOp43
 70
     1
102
RTVSPropertyOp44
 70
     1
102
RTVSPropertyOp45
 70
     1
102
RTVSPropertyOp46
 70
     1
102
RTVSPropertyOp47
 70
     1
102
RTVSPropertyOp48
 70
     1
102
RTVSPropertyOp49
 70
     1
102
RTVSPropertyOp50
 70
     1
102
RTVSPropertyOp51
 70
     0
102
RTVSPropertyOp52
 70
     0
102
RTVSPropertyOp53
 70
     1
102
RTVSPropertyOp54
 70
     1
102
RTVSPropertyOp55
 70
     1
102
RTVSPropertyOp56
 70
     1
102
RTVSPropertyOp57
 70
     1
102
RTVSPropertyOp58
 70
     1
102
RTVSPropertyOp59
 70
     1
102
RTVSPropertyOp60
 70
     1
102
RTVSPropertyOp61
 70
     1
102
RTVSPropertyOp62
 70
     1
  0
XRECORD
  5
56E
102
{ACAD_REACTORS
330
56D
102
}
330
56D
100
AcDbXrecord
280
     1
102
RTVSPost2010Prop28
280
     0
102
RTVSPost2010PropOp28
 70
     1
102
RTVSPost2010Prop29
280
     1
102
RTVSPost2010PropOp29
 70
     1
102
RTVSPost2010Prop30
280
     1
102
RTVSPost2010PropOp30
 70
     1
102
RTVSPost2010Prop31
280
     0
102
RTVSPost2010PropOp31
 70
     1
102
RTVSPost2010Prop32
280
     0
102
RTVSPost2010PropOp32
 70
     1
102
RTVSPost2010Prop33
280
     0
102
RTVSPost2010PropOp33
 70
     1
102
RTVSPost2010Prop34
280
     0
102
RTVSPost2010PropOp34
 70
     1
102
RTVSPost2010Prop35
280
     0
102
RTVSPost2010PropOp35
 70
     1
102
RTVSPost2010Prop36
280
     0
102
RTVSPost2010PropOp36
 70
     1
102
RTVSPost2010Prop37
 90
       50
102
RTVSPost2010PropOp37
 70
     1
102
RTVSPost2010Prop38
140
0.0
102
RTVSPost2010PropOp38
 70
     1
102
RTVSPost2010Prop39
140
1.0
102
RTVSPost2010PropOp39
 70
     1
102
RTVSPost2010Prop40
 90
        0
102
RTVSPost2010PropOp40
 70
     1
102
RTVSPost2010Prop41ColorIndex
 90
       18
102
RTVSPost2010Prop41ColorRGB
 90
        0
102
RTVSPost2010PropOp41
 70
     1
102
RTVSPost2010Prop42
 90
       50
102
RTVSPost2010PropOp42
 70
     1
102
RTVSPost2010Prop43
 90
        3
102
RTVSPost2010PropOp43
 70
     1
102
RTVSPost2010Prop44ColorIndex
 90
        5
102
RTVSPost2010Prop44ColorRGB
 90
      255
102
RTVSPost2010PropOp44
 70
     1
102
RTVSPost2010Prop45
280
     0
102
RTVSPost2010PropOp45
 70
     1
102
RTVSPost2010Prop46
 90
       50
102
RTVSPost2010PropOp46
 70
     1
102
RTVSPost2010Prop47
 90
       50
102
RTVSPost2010PropOp47
 70
     1
102
RTVSPost2010Prop48
 90
       50
102
RTVSPost2010PropOp48
 70
     1
102
RTVSPost2010Prop49
280
     0
102
RTVSPost2010PropOp49
 70
     1
102
RTVSPost2010Prop50
 90
       50
102
RTVSPost2010PropOp50
 70
     1
102
RTVSPost2010Prop51ColorIndex
 90
      256
102
RTVSPost2010Prop51ColorRGB
 90
-16777216
102
RTVSPost2010PropOp51
 70
     0
102
RTVSPost2010Prop52
140
1.0
102
RTVSPost2010PropOp52
 70
     0
102
RTVSPost2010Prop53
 90
        2
102
RTVSPost2010PropOp53
 70
     1
102
RTVSPost2010Prop54
  1
strokes_ogs.tif
102
RTVSPost2010PropOp54
 70
     1
102
RTVSPost2010Prop55
280
     0
102
RTVSPost2010PropOp55
 70
     1
102
RTVSPost2010Prop56
140
1.0
102
RTVSPost2010PropOp56
 70
     1
102
RTVSPost2010Prop57
140
1.0
102
RTVSPost2010PropOp57
 70
     1
102
RTVSPropertyOp0
 70
     1
102
RTVSPropertyOp1
 70
     1
102
RTVSPropertyOp2
 70
     1
102
RTVSPropertyOp3
 70
     1
102
RTVSPropertyOp4
 70
     1
102
RTVSPropertyOp5
 70
     1
102
RTVSPropertyOp6
 70
     1
102
RTVSPropertyOp7
 70
     1
102
RTVSPropertyOp8
 70
     1
102
RTVSPropertyOp9
 70
     1
102
RTVSPropertyOp10
 70
     1
102
RTVSPropertyOp11
 70
     1
102
RTVSPropertyOp12
 70
     1
102
RTVSPropertyOp13
 70
     1
102
RTVSPropertyOp14
 70
     1
102
RTVSPropertyOp15
 70
     1
102
RTVSPropertyOp16
 70
     1
102
RTVSPropertyOp17
 70
     1
102
RTVSPropertyOp18
 70
     1
102
RTVSPropertyOp19
 70
     1
102
RTVSPropertyOp20
 70
     1
102
RTVSPropertyOp21
 70
     1
102
RTVSPropertyOp22
 70
     1
102
RTVSPropertyOp23
 70
     1
102
RTVSPropertyOp24
 70
     1
102
RTVSPropertyOp25
 70
     1
102
RTVSPropertyOp26
 70
     1
102
RTVSPropertyOp27
 70
     1
102
RTVSPropertyOp28
 70
     1
102
RTVSPropertyOp29
 70
     1
102
RTVSPropertyOp30
 70
     1
102
RTVSPropertyOp31
 70
     1
102
RTVSPropertyOp32
 70
     1
102
RTVSPropertyOp33
 70
     1
102
RTVSPropertyOp34
 70
     1
102
RTVSPropertyOp35
 70
     1
102
RTVSPropertyOp36
 70
     1
102
RTVSPropertyOp37
 70
     1
102
RTVSPropertyOp38
 70
     1
102
RTVSPropertyOp39
 70
     1
102
RTVSPropertyOp40
 70
     1
102
RTVSPropertyOp41
 70
     1
102
RTVSPropertyOp42
 70
     1
102
RTVSPropertyOp43
 70
     1
102
RTVSPropertyOp44
 70
     1
102
RTVSPropertyOp45
 70
     1
102
RTVSPropertyOp46
 70
     1
102
RTVSPropertyOp47
 70
     1
102
RTVSPropertyOp48
 70
     1
102
RTVSPropertyOp49
 70
     1
102
RTVSPropertyOp50
 70
     1
102
RTVSPropertyOp51
 70
     0
102
RTVSPropertyOp52
 70
     0
102
RTVSPropertyOp53
 70
     1
102
RTVSPropertyOp54
 70
     1
102
RTVSPropertyOp55
 70
     1
102
RTVSPropertyOp56
 70
     1
102
RTVSPropertyOp57
 70
     1
102
RTVSPropertyOp58
 70
     1
102
RTVSPropertyOp59
 70
     1
102
RTVSPropertyOp60
 70
     1
102
RTVSPropertyOp61
 70
     1
102
RTVSPropertyOp62
 70
     1
  0
XRECORD
  5
560
102
{ACAD_REACTORS
330
55F
102
}
330
55F
100
AcDbXrecord
280
     1
102
RTVSPost2010Prop28
280
     0
102
RTVSPost2010PropOp28
 70
     1
102
RTVSPost2010Prop29
280
     1
102
RTVSPost2010PropOp29
 70
     1
102
RTVSPost2010Prop30
280
     1
102
RTVSPost2010PropOp30
 70
     1
102
RTVSPost2010Prop31
280
     0
102
RTVSPost2010PropOp31
 70
     1
102
RTVSPost2010Prop32
280
     0
102
RTVSPost2010PropOp32
 70
     1
102
RTVSPost2010Prop33
280
     0
102
RTVSPost2010PropOp33
 70
     1
102
RTVSPost2010Prop34
280
     0
102
RTVSPost2010PropOp34
 70
     1
102
RTVSPost2010Prop35
280
     0
102
RTVSPost2010PropOp35
 70
     1
102
RTVSPost2010Prop36
280
     0
102
RTVSPost2010PropOp36
 70
     1
102
RTVSPost2010Prop37
 90
       50
102
RTVSPost2010PropOp37
 70
     1
102
RTVSPost2010Prop38
140
0.0
102
RTVSPost2010PropOp38
 70
     1
102
RTVSPost2010Prop39
140
1.0
102
RTVSPost2010PropOp39
 70
     1
102
RTVSPost2010Prop40
 90
        0
102
RTVSPost2010PropOp40
 70
     1
102
RTVSPost2010Prop41ColorIndex
 90
       18
102
RTVSPost2010Prop41ColorRGB
 90
        0
102
RTVSPost2010PropOp41
 70
     1
102
RTVSPost2010Prop42
 90
       50
102
RTVSPost2010PropOp42
 70
     1
102
RTVSPost2010Prop43
 90
        3
102
RTVSPost2010PropOp43
 70
     1
102
RTVSPost2010Prop44ColorIndex
 90
        5
102
RTVSPost2010Prop44ColorRGB
 90
      255
102
RTVSPost2010PropOp44
 70
     1
102
RTVSPost2010Prop45
280
     0
102
RTVSPost2010PropOp45
 70
     1
102
RTVSPost2010Prop46
 90
       50
102
RTVSPost2010PropOp46
 70
     1
102
RTVSPost2010Prop47
 90
       50
102
RTVSPost2010PropOp47
 70
     1
102
RTVSPost2010Prop48
 90
       50
102
RTVSPost2010PropOp48
 70
     1
102
RTVSPost2010Prop49
280
     0
102
RTVSPost2010PropOp49
 70
     1
102
RTVSPost2010Prop50
 90
       50
102
RTVSPost2010PropOp50
 70
     1
102
RTVSPost2010Prop51ColorIndex
 90
      256
102
RTVSPost2010Prop51ColorRGB
 90
-16777216
102
RTVSPost2010PropOp51
 70
     0
102
RTVSPost2010Prop52
140
1.0
102
RTVSPost2010PropOp52
 70
     0
102
RTVSPost2010Prop53
 90
        2
102
RTVSPost2010PropOp53
 70
     1
102
RTVSPost2010Prop54
  1
strokes_ogs.tif
102
RTVSPost2010PropOp54
 70
     1
102
RTVSPost2010Prop55
280
     0
102
RTVSPost2010PropOp55
 70
     1
102
RTVSPost2010Prop56
140
1.0
102
RTVSPost2010PropOp56
 70
     1
102
RTVSPost2010Prop57
140
1.0
102
RTVSPost2010PropOp57
 70
     1
102
RTVSPropertyOp0
 70
     1
102
RTVSPropertyOp1
 70
     1
102
RTVSPropertyOp2
 70
     1
102
RTVSPropertyOp3
 70
     1
102
RTVSPropertyOp4
 70
     1
102
RTVSPropertyOp5
 70
     1
102
RTVSPropertyOp6
 70
     1
102
RTVSPropertyOp7
 70
     1
102
RTVSPropertyOp8
 70
     1
102
RTVSPropertyOp9
 70
     1
102
RTVSPropertyOp10
 70
     1
102
RTVSPropertyOp11
 70
     1
102
RTVSPropertyOp12
 70
     1
102
RTVSPropertyOp13
 70
     1
102
RTVSPropertyOp14
 70
     1
102
RTVSPropertyOp15
 70
     1
102
RTVSPropertyOp16
 70
     1
102
RTVSPropertyOp17
 70
     1
102
RTVSPropertyOp18
 70
     1
102
RTVSPropertyOp19
 70
     1
102
RTVSPropertyOp20
 70
     1
102
RTVSPropertyOp21
 70
     1
102
RTVSPropertyOp22
 70
     1
102
RTVSPropertyOp23
 70
     1
102
RTVSPropertyOp24
 70
     1
102
RTVSPropertyOp25
 70
     1
102
RTVSPropertyOp26
 70
     1
102
RTVSPropertyOp27
 70
     1
102
RTVSPropertyOp28
 70
     1
102
RTVSPropertyOp29
 70
     1
102
RTVSPropertyOp30
 70
     1
102
RTVSPropertyOp31
 70
     1
102
RTVSPropertyOp32
 70
     1
102
RTVSPropertyOp33
 70
     1
102
RTVSPropertyOp34
 70
     1
102
RTVSPropertyOp35
 70
     1
102
RTVSPropertyOp36
 70
     1
102
RTVSPropertyOp37
 70
     1
102
RTVSPropertyOp38
 70
     1
102
RTVSPropertyOp39
 70
     1
102
RTVSPropertyOp40
 70
     1
102
RTVSPropertyOp41
 70
     1
102
RTVSPropertyOp42
 70
     1
102
RTVSPropertyOp43
 70
     1
102
RTVSPropertyOp44
 70
     1
102
RTVSPropertyOp45
 70
     1
102
RTVSPropertyOp46
 70
     1
102
RTVSPropertyOp47
 70
     1
102
RTVSPropertyOp48
 70
     1
102
RTVSPropertyOp49
 70
     1
102
RTVSPropertyOp50
 70
     1
102
RTVSPropertyOp51
 70
     0
102
RTVSPropertyOp52
 70
     0
102
RTVSPropertyOp53
 70
     1
102
RTVSPropertyOp54
 70
     1
102
RTVSPropertyOp55
 70
     1
102
RTVSPropertyOp56
 70
     1
102
RTVSPropertyOp57
 70
     1
102
RTVSPropertyOp58
 70
     1
102
RTVSPropertyOp59
 70
     1
102
RTVSPropertyOp60
 70
     1
102
RTVSPropertyOp61
 70
     1
102
RTVSPropertyOp62
 70
     1
  0
XRECORD
  5
564
102
{ACAD_REACTORS
330
563
102
}
330
563
100
AcDbXrecord
280
     1
102
RTVSPost2010Prop28
280
     0
102
RTVSPost2010PropOp28
 70
     1
102
RTVSPost2010Prop29
280
     1
102
RTVSPost2010PropOp29
 70
     1
102
RTVSPost2010Prop30
280
     1
102
RTVSPost2010PropOp30
 70
     1
102
RTVSPost2010Prop31
280
     0
102
RTVSPost2010PropOp31
 70
     1
102
RTVSPost2010Prop32
280
     0
102
RTVSPost2010PropOp32
 70
     1
102
RTVSPost2010Prop33
280
     0
102
RTVSPost2010PropOp33
 70
     1
102
RTVSPost2010Prop34
280
     0
102
RTVSPost2010PropOp34
 70
     1
102
RTVSPost2010Prop35
280
     0
102
RTVSPost2010PropOp35
 70
     1
102
RTVSPost2010Prop36
280
     0
102
RTVSPost2010PropOp36
 70
     1
102
RTVSPost2010Prop37
 90
       50
102
RTVSPost2010PropOp37
 70
     1
102
RTVSPost2010Prop38
140
0.0
102
RTVSPost2010PropOp38
 70
     1
102
RTVSPost2010Prop39
140
1.0
102
RTVSPost2010PropOp39
 70
     1
102
RTVSPost2010Prop40
 90
        0
102
RTVSPost2010PropOp40
 70
     1
102
RTVSPost2010Prop41ColorIndex
 90
       18
102
RTVSPost2010Prop41ColorRGB
 90
        0
102
RTVSPost2010PropOp41
 70
     1
102
RTVSPost2010Prop42
 90
       50
102
RTVSPost2010PropOp42
 70
     1
102
RTVSPost2010Prop43
 90
        3
102
RTVSPost2010PropOp43
 70
     1
102
RTVSPost2010Prop44ColorIndex
 90
        5
102
RTVSPost2010Prop44ColorRGB
 90
      255
102
RTVSPost2010PropOp44
 70
     1
102
RTVSPost2010Prop45
280
     0
102
RTVSPost2010PropOp45
 70
     1
102
RTVSPost2010Prop46
 90
       50
102
RTVSPost2010PropOp46
 70
     1
102
RTVSPost2010Prop47
 90
       50
102
RTVSPost2010PropOp47
 70
     1
102
RTVSPost2010Prop48
 90
       50
102
RTVSPost2010PropOp48
 70
     1
102
RTVSPost2010Prop49
280
     0
102
RTVSPost2010PropOp49
 70
     1
102
RTVSPost2010Prop50
 90
       50
102
RTVSPost2010PropOp50
 70
     1
102
RTVSPost2010Prop51ColorIndex
 90
      256
102
RTVSPost2010Prop51ColorRGB
 90
-16777216
102
RTVSPost2010PropOp51
 70
     0
102
RTVSPost2010Prop52
140
1.0
102
RTVSPost2010PropOp52
 70
     0
102
RTVSPost2010Prop53
 90
        2
102
RTVSPost2010PropOp53
 70
     1
102
RTVSPost2010Prop54
  1
strokes_ogs.tif
102
RTVSPost2010PropOp54
 70
     1
102
RTVSPost2010Prop55
280
     0
102
RTVSPost2010PropOp55
 70
     1
102
RTVSPost2010Prop56
140
1.0
102
RTVSPost2010PropOp56
 70
     1
102
RTVSPost2010Prop57
140
1.0
102
RTVSPost2010PropOp57
 70
     1
102
RTVSPropertyOp0
 70
     1
102
RTVSPropertyOp1
 70
     1
102
RTVSPropertyOp2
 70
     1
102
RTVSPropertyOp3
 70
     1
102
RTVSPropertyOp4
 70
     1
102
RTVSPropertyOp5
 70
     1
102
RTVSPropertyOp6
 70
     1
102
RTVSPropertyOp7
 70
     1
102
RTVSPropertyOp8
 70
     1
102
RTVSPropertyOp9
 70
     1
102
RTVSPropertyOp10
 70
     1
102
RTVSPropertyOp11
 70
     1
102
RTVSPropertyOp12
 70
     1
102
RTVSPropertyOp13
 70
     1
102
RTVSPropertyOp14
 70
     1
102
RTVSPropertyOp15
 70
     1
102
RTVSPropertyOp16
 70
     1
102
RTVSPropertyOp17
 70
     1
102
RTVSPropertyOp18
 70
     1
102
RTVSPropertyOp19
 70
     1
102
RTVSPropertyOp20
 70
     1
102
RTVSPropertyOp21
 70
     1
102
RTVSPropertyOp22
 70
     1
102
RTVSPropertyOp23
 70
     1
102
RTVSPropertyOp24
 70
     1
102
RTVSPropertyOp25
 70
     1
102
RTVSPropertyOp26
 70
     1
102
RTVSPropertyOp27
 70
     1
102
RTVSPropertyOp28
 70
     1
102
RTVSPropertyOp29
 70
     1
102
RTVSPropertyOp30
 70
     1
102
RTVSPropertyOp31
 70
     1
102
RTVSPropertyOp32
 70
     1
102
RTVSPropertyOp33
 70
     1
102
RTVSPropertyOp34
 70
     1
102
RTVSPropertyOp35
 70
     1
102
RTVSPropertyOp36
 70
     1
102
RTVSPropertyOp37
 70
     1
102
RTVSPropertyOp38
 70
     1
102
RTVSPropertyOp39
 70
     1
102
RTVSPropertyOp40
 70
     1
102
RTVSPropertyOp41
 70
     1
102
RTVSPropertyOp42
 70
     1
102
RTVSPropertyOp43
 70
     1
102
RTVSPropertyOp44
 70
     1
102
RTVSPropertyOp45
 70
     1
102
RTVSPropertyOp46
 70
     1
102
RTVSPropertyOp47
 70
     1
102
RTVSPropertyOp48
 70
     1
102
RTVSPropertyOp49
 70
     1
102
RTVSPropertyOp50
 70
     1
102
RTVSPropertyOp51
 70
     0
102
RTVSPropertyOp52
 70
     0
102
RTVSPropertyOp53
 70
     1
102
RTVSPropertyOp54
 70
     1
102
RTVSPropertyOp55
 70
     1
102
RTVSPropertyOp56
 70
     1
102
RTVSPropertyOp57
 70
     1
102
RTVSPropertyOp58
 70
     1
102
RTVSPropertyOp59
 70
     1
102
RTVSPropertyOp60
 70
     1
102
RTVSPropertyOp61
 70
     1
102
RTVSPropertyOp62
 70
     1
  0
XRECORD
  5
57E
102
{ACAD_REACTORS
330
57D
102
}
330
57D
100
AcDbXrecord
280
     1
102
RTVSPost2010Prop28
280
     0
102
RTVSPost2010PropOp28
 70
     1
102
RTVSPost2010Prop29
280
     1
102
RTVSPost2010PropOp29
 70
     1
102
RTVSPost2010Prop30
280
     1
102
RTVSPost2010PropOp30
 70
     1
102
RTVSPost2010Prop31
280
     0
102
RTVSPost2010PropOp31
 70
     1
102
RTVSPost2010Prop32
280
     0
102
RTVSPost2010PropOp32
 70
     1
102
RTVSPost2010Prop33
280
     0
102
RTVSPost2010PropOp33
 70
     1
102
RTVSPost2010Prop34
280
     0
102
RTVSPost2010PropOp34
 70
     1
102
RTVSPost2010Prop35
280
     0
102
RTVSPost2010PropOp35
 70
     1
102
RTVSPost2010Prop36
280
     0
102
RTVSPost2010PropOp36
 70
     1
102
RTVSPost2010Prop37
 90
       50
102
RTVSPost2010PropOp37
 70
     0
102
RTVSPost2010Prop38
140
0.0
102
RTVSPost2010PropOp38
 70
     0
102
RTVSPost2010Prop39
140
1.0
102
RTVSPost2010PropOp39
 70
     0
102
RTVSPost2010Prop40
 90
        0
102
RTVSPost2010PropOp40
 70
     0
102
RTVSPost2010Prop41ColorIndex
 90
       18
102
RTVSPost2010Prop41ColorRGB
 90
        0
102
RTVSPost2010PropOp41
 70
     0
102
RTVSPost2010Prop42
 90
       50
102
RTVSPost2010PropOp42
 70
     0
102
RTVSPost2010Prop43
 90
        3
102
RTVSPost2010PropOp43
 70
     0
102
RTVSPost2010Prop44ColorIndex
 90
        5
102
RTVSPost2010Prop44ColorRGB
 90
      255
102
RTVSPost2010PropOp44
 70
     0
102
RTVSPost2010Prop45
280
     0
102
RTVSPost2010PropOp45
 70
     1
102
RTVSPost2010Prop46
 90
       50
102
RTVSPost2010PropOp46
 70
     0
102
RTVSPost2010Prop47
 90
       50
102
RTVSPost2010PropOp47
 70
     0
102
RTVSPost2010Prop48
 90
       50
102
RTVSPost2010PropOp48
 70
     0
102
RTVSPost2010Prop49
280
     0
102
RTVSPost2010PropOp49
 70
     1
102
RTVSPost2010Prop50
 90
       50
102
RTVSPost2010PropOp50
 70
     0
102
RTVSPost2010Prop51ColorIndex
 90
      256
102
RTVSPost2010Prop51ColorRGB
 90
-16777216
102
RTVSPost2010PropOp51
 70
     0
102
RTVSPost2010Prop52
140
1.0
102
RTVSPost2010PropOp52
 70
     0
102
RTVSPost2010Prop53
 90
        2
102
RTVSPost2010PropOp53
 70
     0
102
RTVSPost2010Prop54
  1
strokes_ogs.tif
102
RTVSPost2010PropOp54
 70
     0
102
RTVSPost2010Prop55
280
     0
102
RTVSPost2010PropOp55
 70
     1
102
RTVSPost2010Prop56
140
1.0
102
RTVSPost2010PropOp56
 70
     0
102
RTVSPost2010Prop57
140
1.0
102
RTVSPost2010PropOp57
 70
     0
102
RTVSPropertyOp0
 70
     0
102
RTVSPropertyOp1
 70
     0
102
RTVSPropertyOp2
 70
     0
102
RTVSPropertyOp3
 70
     0
102
RTVSPropertyOp4
 70
     0
102
RTVSPropertyOp5
 70
     0
102
RTVSPropertyOp6
 70
     0
102
RTVSPropertyOp7
 70
     0
102
RTVSPropertyOp8
 70
     0
102
RTVSPropertyOp9
 70
     0
102
RTVSPropertyOp10
 70
     0
102
RTVSPropertyOp11
 70
     0
102
RTVSPropertyOp12
 70
     0
102
RTVSPropertyOp13
 70
     0
102
RTVSPropertyOp14
 70
     2
102
RTVSPropertyOp15
 70
     0
102
RTVSPropertyOp16
 70
     0
102
RTVSPropertyOp17
 70
     0
102
RTVSPropertyOp18
 70
     0
102
RTVSPropertyOp19
 70
     0
102
RTVSPropertyOp20
 70
     0
102
RTVSPropertyOp21
 70
     0
102
RTVSPropertyOp22
 70
     0
102
RTVSPropertyOp23
 70
     0
102
RTVSPropertyOp24
 70
     0
102
RTVSPropertyOp25
 70
     0
102
RTVSPropertyOp26
 70
     0
102
RTVSPropertyOp27
 70
     0
102
RTVSPropertyOp28
 70
     1
102
RTVSPropertyOp29
 70
     1
102
RTVSPropertyOp30
 70
     1
102
RTVSPropertyOp31
 70
     1
102
RTVSPropertyOp32
 70
     1
102
RTVSPropertyOp33
 70
     1
102
RTVSPropertyOp34
 70
     1
102
RTVSPropertyOp35
 70
     1
102
RTVSPropertyOp36
 70
     1
102
RTVSPropertyOp37
 70
     0
102
RTVSPropertyOp38
 70
     0
102
RTVSPropertyOp39
 70
     0
102
RTVSPropertyOp40
 70
     0
102
RTVSPropertyOp41
 70
     0
102
RTVSPropertyOp42
 70
     0
102
RTVSPropertyOp43
 70
     0
102
RTVSPropertyOp44
 70
     0
102
RTVSPropertyOp45
 70
     1
102
RTVSPropertyOp46
 70
     0
102
RTVSPropertyOp47
 70
     0
102
RTVSPropertyOp48
 70
     0
102
RTVSPropertyOp49
 70
     1
102
RTVSPropertyOp50
 70
     0
102
RTVSPropertyOp51
 70
     0
102
RTVSPropertyOp52
 70
     0
102
RTVSPropertyOp53
 70
     0
102
RTVSPropertyOp54
 70
     0
102
RTVSPropertyOp55
 70
     1
102
RTVSPropertyOp56
 70
     0
102
RTVSPropertyOp57
 70
     0
102
RTVSPropertyOp58
 70
     0
102
RTVSPropertyOp59
 70
     0
102
RTVSPropertyOp60
 70
     0
102
RTVSPropertyOp61
 70
     0
102
RTVSPropertyOp62
 70
     0
  0
XRECORD
  5
56C
102
{ACAD_REACTORS
330
56B
102
}
330
56B
100
AcDbXrecord
280
     1
102
RTVSPost2010Prop28
280
     0
102
RTVSPost2010PropOp28
 70
     1
102
RTVSPost2010Prop29
280
     1
102
RTVSPost2010PropOp29
 70
     1
102
RTVSPost2010Prop30
280
     1
102
RTVSPost2010PropOp30
 70
     1
102
RTVSPost2010Prop31
280
     0
102
RTVSPost2010PropOp31
 70
     1
102
RTVSPost2010Prop32
280
     0
102
RTVSPost2010PropOp32
 70
     1
102
RTVSPost2010Prop33
280
     0
102
RTVSPost2010PropOp33
 70
     1
102
RTVSPost2010Prop34
280
     0
102
RTVSPost2010PropOp34
 70
     1
102
RTVSPost2010Prop35
280
     0
102
RTVSPost2010PropOp35
 70
     1
102
RTVSPost2010Prop36
280
     0
102
RTVSPost2010PropOp36
 70
     1
102
RTVSPost2010Prop37
 90
       50
102
RTVSPost2010PropOp37
 70
     1
102
RTVSPost2010Prop38
140
0.0
102
RTVSPost2010PropOp38
 70
     1
102
RTVSPost2010Prop39
140
1.0
102
RTVSPost2010PropOp39
 70
     1
102
RTVSPost2010Prop40
 90
        0
102
RTVSPost2010PropOp40
 70
     1
102
RTVSPost2010Prop41ColorIndex
 90
       18
102
RTVSPost2010Prop41ColorRGB
 90
        0
102
RTVSPost2010PropOp41
 70
     1
102
RTVSPost2010Prop42
 90
       50
102
RTVSPost2010PropOp42
 70
     1
102
RTVSPost2010Prop43
 90
        3
102
RTVSPost2010PropOp43
 70
     1
102
RTVSPost2010Prop44ColorIndex
 90
        5
102
RTVSPost2010Prop44ColorRGB
 90
      255
102
RTVSPost2010PropOp44
 70
     1
102
RTVSPost2010Prop45
280
     0
102
RTVSPost2010PropOp45
 70
     1
102
RTVSPost2010Prop46
 90
       50
102
RTVSPost2010PropOp46
 70
     1
102
RTVSPost2010Prop47
 90
       50
102
RTVSPost2010PropOp47
 70
     1
102
RTVSPost2010Prop48
 90
       50
102
RTVSPost2010PropOp48
 70
     1
102
RTVSPost2010Prop49
280
     0
102
RTVSPost2010PropOp49
 70
     1
102
RTVSPost2010Prop50
 90
       50
102
RTVSPost2010PropOp50
 70
     1
102
RTVSPost2010Prop51ColorIndex
 90
      256
102
RTVSPost2010Prop51ColorRGB
 90
-16777216
102
RTVSPost2010PropOp51
 70
     0
102
RTVSPost2010Prop52
140
1.0
102
RTVSPost2010PropOp52
 70
     0
102
RTVSPost2010Prop53
 90
        2
102
RTVSPost2010PropOp53
 70
     1
102
RTVSPost2010Prop54
  1
strokes_ogs.tif
102
RTVSPost2010PropOp54
 70
     1
102
RTVSPost2010Prop55
280
     0
102
RTVSPost2010PropOp55
 70
     1
102
RTVSPost2010Prop56
140
1.0
102
RTVSPost2010PropOp56
 70
     1
102
RTVSPost2010Prop57
140
1.0
102
RTVSPost2010PropOp57
 70
     1
102
RTVSPropertyOp0
 70
     1
102
RTVSPropertyOp1
 70
     1
102
RTVSPropertyOp2
 70
     1
102
RTVSPropertyOp3
 70
     1
102
RTVSPropertyOp4
 70
     1
102
RTVSPropertyOp5
 70
     1
102
RTVSPropertyOp6
 70
     1
102
RTVSPropertyOp7
 70
     1
102
RTVSPropertyOp8
 70
     1
102
RTVSPropertyOp9
 70
     1
102
RTVSPropertyOp10
 70
     1
102
RTVSPropertyOp11
 70
     1
102
RTVSPropertyOp12
 70
     1
102
RTVSPropertyOp13
 70
     1
102
RTVSPropertyOp14
 70
     1
102
RTVSPropertyOp15
 70
     1
102
RTVSPropertyOp16
 70
     1
102
RTVSPropertyOp17
 70
     1
102
RTVSPropertyOp18
 70
     1
102
RTVSPropertyOp19
 70
     1
102
RTVSPropertyOp20
 70
     1
102
RTVSPropertyOp21
 70
     1
102
RTVSPropertyOp22
 70
     1
102
RTVSPropertyOp23
 70
     1
102
RTVSPropertyOp24
 70
     1
102
RTVSPropertyOp25
 70
     1
102
RTVSPropertyOp26
 70
     1
102
RTVSPropertyOp27
 70
     1
102
RTVSPropertyOp28
 70
     1
102
RTVSPropertyOp29
 70
     1
102
RTVSPropertyOp30
 70
     1
102
RTVSPropertyOp31
 70
     1
102
RTVSPropertyOp32
 70
     1
102
RTVSPropertyOp33
 70
     1
102
RTVSPropertyOp34
 70
     1
102
RTVSPropertyOp35
 70
     1
102
RTVSPropertyOp36
 70
     1
102
RTVSPropertyOp37
 70
     1
102
RTVSPropertyOp38
 70
     1
102
RTVSPropertyOp39
 70
     1
102
RTVSPropertyOp40
 70
     1
102
RTVSPropertyOp41
 70
     1
102
RTVSPropertyOp42
 70
     1
102
RTVSPropertyOp43
 70
     1
102
RTVSPropertyOp44
 70
     1
102
RTVSPropertyOp45
 70
     1
102
RTVSPropertyOp46
 70
     1
102
RTVSPropertyOp47
 70
     1
102
RTVSPropertyOp48
 70
     1
102
RTVSPropertyOp49
 70
     1
102
RTVSPropertyOp50
 70
     1
102
RTVSPropertyOp51
 70
     0
102
RTVSPropertyOp52
 70
     0
102
RTVSPropertyOp53
 70
     1
102
RTVSPropertyOp54
 70
     1
102
RTVSPropertyOp55
 70
     1
102
RTVSPropertyOp56
 70
     1
102
RTVSPropertyOp57
 70
     1
102
RTVSPropertyOp58
 70
     1
102
RTVSPropertyOp59
 70
     1
102
RTVSPropertyOp60
 70
     1
102
RTVSPropertyOp61
 70
     1
102
RTVSPropertyOp62
 70
     1
  0
XRECORD
  5
550
102
{ACAD_REACTORS
330
54F
102
}
330
54F
100
AcDbXrecord
280
     1
102
RTVSPost2010Prop28
280
     0
102
RTVSPost2010PropOp28
 70
     1
102
RTVSPost2010Prop29
280
     1
102
RTVSPost2010PropOp29
 70
     1
102
RTVSPost2010Prop30
280
     1
102
RTVSPost2010PropOp30
 70
     1
102
RTVSPost2010Prop31
280
     0
102
RTVSPost2010PropOp31
 70
     1
102
RTVSPost2010Prop32
280
     0
102
RTVSPost2010PropOp32
 70
     1
102
RTVSPost2010Prop33
280
     0
102
RTVSPost2010PropOp33
 70
     1
102
RTVSPost2010Prop34
280
     0
102
RTVSPost2010PropOp34
 70
     1
102
RTVSPost2010Prop35
280
     0
102
RTVSPost2010PropOp35
 70
     1
102
RTVSPost2010Prop36
280
     0
102
RTVSPost2010PropOp36
 70
     1
102
RTVSPost2010Prop37
 90
       50
102
RTVSPost2010PropOp37
 70
     1
102
RTVSPost2010Prop38
140
0.0
102
RTVSPost2010PropOp38
 70
     1
102
RTVSPost2010Prop39
140
1.0
102
RTVSPost2010PropOp39
 70
     1
102
RTVSPost2010Prop40
 90
        0
102
RTVSPost2010PropOp40
 70
     1
102
RTVSPost2010Prop41ColorIndex
 90
       18
102
RTVSPost2010Prop41ColorRGB
 90
        0
102
RTVSPost2010PropOp41
 70
     1
102
RTVSPost2010Prop42
 90
       50
102
RTVSPost2010PropOp42
 70
     1
102
RTVSPost2010Prop43
 90
        3
102
RTVSPost2010PropOp43
 70
     1
102
RTVSPost2010Prop44ColorIndex
 90
        5
102
RTVSPost2010Prop44ColorRGB
 90
      255
102
RTVSPost2010PropOp44
 70
     1
102
RTVSPost2010Prop45
280
     0
102
RTVSPost2010PropOp45
 70
     1
102
RTVSPost2010Prop46
 90
       50
102
RTVSPost2010PropOp46
 70
     1
102
RTVSPost2010Prop47
 90
       50
102
RTVSPost2010PropOp47
 70
     1
102
RTVSPost2010Prop48
 90
       50
102
RTVSPost2010PropOp48
 70
     1
102
RTVSPost2010Prop49
280
     0
102
RTVSPost2010PropOp49
 70
     1
102
RTVSPost2010Prop50
 90
       50
102
RTVSPost2010PropOp50
 70
     1
102
RTVSPost2010Prop51ColorIndex
 90
      256
102
RTVSPost2010Prop51ColorRGB
 90
-16777216
102
RTVSPost2010PropOp51
 70
     0
102
RTVSPost2010Prop52
140
1.0
102
RTVSPost2010PropOp52
 70
     0
102
RTVSPost2010Prop53
 90
        2
102
RTVSPost2010PropOp53
 70
     1
102
RTVSPost2010Prop54
  1
strokes_ogs.tif
102
RTVSPost2010PropOp54
 70
     1
102
RTVSPost2010Prop55
280
     0
102
RTVSPost2010PropOp55
 70
     1
102
RTVSPost2010Prop56
140
1.0
102
RTVSPost2010PropOp56
 70
     1
102
RTVSPost2010Prop57
140
1.0
102
RTVSPost2010PropOp57
 70
     1
102
RTVSPropertyOp0
 70
     1
102
RTVSPropertyOp1
 70
     1
102
RTVSPropertyOp2
 70
     1
102
RTVSPropertyOp3
 70
     1
102
RTVSPropertyOp4
 70
     1
102
RTVSPropertyOp5
 70
     1
102
RTVSPropertyOp6
 70
     1
102
RTVSPropertyOp7
 70
     1
102
RTVSPropertyOp8
 70
     1
102
RTVSPropertyOp9
 70
     1
102
RTVSPropertyOp10
 70
     1
102
RTVSPropertyOp11
 70
     1
102
RTVSPropertyOp12
 70
     1
102
RTVSPropertyOp13
 70
     1
102
RTVSPropertyOp14
 70
     1
102
RTVSPropertyOp15
 70
     1
102
RTVSPropertyOp16
 70
     1
102
RTVSPropertyOp17
 70
     1
102
RTVSPropertyOp18
 70
     1
102
RTVSPropertyOp19
 70
     1
102
RTVSPropertyOp20
 70
     1
102
RTVSPropertyOp21
 70
     1
102
RTVSPropertyOp22
 70
     1
102
RTVSPropertyOp23
 70
     1
102
RTVSPropertyOp24
 70
     1
102
RTVSPropertyOp25
 70
     1
102
RTVSPropertyOp26
 70
     1
102
RTVSPropertyOp27
 70
     1
102
RTVSPropertyOp28
 70
     1
102
RTVSPropertyOp29
 70
     1
102
RTVSPropertyOp30
 70
     1
102
RTVSPropertyOp31
 70
     1
102
RTVSPropertyOp32
 70
     1
102
RTVSPropertyOp33
 70
     1
102
RTVSPropertyOp34
 70
     1
102
RTVSPropertyOp35
 70
     1
102
RTVSPropertyOp36
 70
     1
102
RTVSPropertyOp37
 70
     1
102
RTVSPropertyOp38
 70
     1
102
RTVSPropertyOp39
 70
     1
102
RTVSPropertyOp40
 70
     1
102
RTVSPropertyOp41
 70
     1
102
RTVSPropertyOp42
 70
     1
102
RTVSPropertyOp43
 70
     1
102
RTVSPropertyOp44
 70
     1
102
RTVSPropertyOp45
 70
     1
102
RTVSPropertyOp46
 70
     1
102
RTVSPropertyOp47
 70
     1
102
RTVSPropertyOp48
 70
     1
102
RTVSPropertyOp49
 70
     1
102
RTVSPropertyOp50
 70
     1
102
RTVSPropertyOp51
 70
     0
102
RTVSPropertyOp52
 70
     0
102
RTVSPropertyOp53
 70
     1
102
RTVSPropertyOp54
 70
     1
102
RTVSPropertyOp55
 70
     1
102
RTVSPropertyOp56
 70
     1
102
RTVSPropertyOp57
 70
     1
102
RTVSPropertyOp58
 70
     1
102
RTVSPropertyOp59
 70
     1
102
RTVSPropertyOp60
 70
     1
102
RTVSPropertyOp61
 70
     1
102
RTVSPropertyOp62
 70
     1
  0
XRECORD
  5
552
102
{ACAD_REACTORS
330
551
102
}
330
551
100
AcDbXrecord
280
     1
102
RTVSPost2010Prop28
280
     0
102
RTVSPost2010PropOp28
 70
     1
102
RTVSPost2010Prop29
280
     1
102
RTVSPost2010PropOp29
 70
     1
102
RTVSPost2010Prop30
280
     1
102
RTVSPost2010PropOp30
 70
     1
102
RTVSPost2010Prop31
280
     0
102
RTVSPost2010PropOp31
 70
     1
102
RTVSPost2010Prop32
280
     0
102
RTVSPost2010PropOp32
 70
     1
102
RTVSPost2010Prop33
280
     0
102
RTVSPost2010PropOp33
 70
     1
102
RTVSPost2010Prop34
280
     0
102
RTVSPost2010PropOp34
 70
     1
102
RTVSPost2010Prop35
280
     0
102
RTVSPost2010PropOp35
 70
     1
102
RTVSPost2010Prop36
280
     0
102
RTVSPost2010PropOp36
 70
     1
102
RTVSPost2010Prop37
 90
       50
102
RTVSPost2010PropOp37
 70
     1
102
RTVSPost2010Prop38
140
0.0
102
RTVSPost2010PropOp38
 70
     1
102
RTVSPost2010Prop39
140
1.0
102
RTVSPost2010PropOp39
 70
     1
102
RTVSPost2010Prop40
 90
        0
102
RTVSPost2010PropOp40
 70
     1
102
RTVSPost2010Prop41ColorIndex
 90
       18
102
RTVSPost2010Prop41ColorRGB
 90
        0
102
RTVSPost2010PropOp41
 70
     1
102
RTVSPost2010Prop42
 90
       50
102
RTVSPost2010PropOp42
 70
     1
102
RTVSPost2010Prop43
 90
        3
102
RTVSPost2010PropOp43
 70
     1
102
RTVSPost2010Prop44ColorIndex
 90
        5
102
RTVSPost2010Prop44ColorRGB
 90
      255
102
RTVSPost2010PropOp44
 70
     1
102
RTVSPost2010Prop45
280
     0
102
RTVSPost2010PropOp45
 70
     1
102
RTVSPost2010Prop46
 90
       50
102
RTVSPost2010PropOp46
 70
     1
102
RTVSPost2010Prop47
 90
       50
102
RTVSPost2010PropOp47
 70
     1
102
RTVSPost2010Prop48
 90
       50
102
RTVSPost2010PropOp48
 70
     1
102
RTVSPost2010Prop49
280
     0
102
RTVSPost2010PropOp49
 70
     1
102
RTVSPost2010Prop50
 90
       50
102
RTVSPost2010PropOp50
 70
     1
102
RTVSPost2010Prop51ColorIndex
 90
      256
102
RTVSPost2010Prop51ColorRGB
 90
-16777216
102
RTVSPost2010PropOp51
 70
     0
102
RTVSPost2010Prop52
140
1.0
102
RTVSPost2010PropOp52
 70
     0
102
RTVSPost2010Prop53
 90
        2
102
RTVSPost2010PropOp53
 70
     1
102
RTVSPost2010Prop54
  1
strokes_ogs.tif
102
RTVSPost2010PropOp54
 70
     1
102
RTVSPost2010Prop55
280
     0
102
RTVSPost2010PropOp55
 70
     1
102
RTVSPost2010Prop56
140
1.0
102
RTVSPost2010PropOp56
 70
     1
102
RTVSPost2010Prop57
140
1.0
102
RTVSPost2010PropOp57
 70
     1
102
RTVSPropertyOp0
 70
     1
102
RTVSPropertyOp1
 70
     1
102
RTVSPropertyOp2
 70
     1
102
RTVSPropertyOp3
 70
     1
102
RTVSPropertyOp4
 70
     1
102
RTVSPropertyOp5
 70
     1
102
RTVSPropertyOp6
 70
     1
102
RTVSPropertyOp7
 70
     1
102
RTVSPropertyOp8
 70
     1
102
RTVSPropertyOp9
 70
     1
102
RTVSPropertyOp10
 70
     1
102
RTVSPropertyOp11
 70
     1
102
RTVSPropertyOp12
 70
     1
102
RTVSPropertyOp13
 70
     1
102
RTVSPropertyOp14
 70
     1
102
RTVSPropertyOp15
 70
     1
102
RTVSPropertyOp16
 70
     1
102
RTVSPropertyOp17
 70
     1
102
RTVSPropertyOp18
 70
     1
102
RTVSPropertyOp19
 70
     1
102
RTVSPropertyOp20
 70
     1
102
RTVSPropertyOp21
 70
     1
102
RTVSPropertyOp22
 70
     1
102
RTVSPropertyOp23
 70
     1
102
RTVSPropertyOp24
 70
     1
102
RTVSPropertyOp25
 70
     1
102
RTVSPropertyOp26
 70
     1
102
RTVSPropertyOp27
 70
     1
102
RTVSPropertyOp28
 70
     1
102
RTVSPropertyOp29
 70
     1
102
RTVSPropertyOp30
 70
     1
102
RTVSPropertyOp31
 70
     1
102
RTVSPropertyOp32
 70
     1
102
RTVSPropertyOp33
 70
     1
102
RTVSPropertyOp34
 70
     1
102
RTVSPropertyOp35
 70
     1
102
RTVSPropertyOp36
 70
     1
102
RTVSPropertyOp37
 70
     1
102
RTVSPropertyOp38
 70
     1
102
RTVSPropertyOp39
 70
     1
102
RTVSPropertyOp40
 70
     1
102
RTVSPropertyOp41
 70
     1
102
RTVSPropertyOp42
 70
     1
102
RTVSPropertyOp43
 70
     1
102
RTVSPropertyOp44
 70
     1
102
RTVSPropertyOp45
 70
     1
102
RTVSPropertyOp46
 70
     1
102
RTVSPropertyOp47
 70
     1
102
RTVSPropertyOp48
 70
     1
102
RTVSPropertyOp49
 70
     1
102
RTVSPropertyOp50
 70
     1
102
RTVSPropertyOp51
 70
     0
102
RTVSPropertyOp52
 70
     0
102
RTVSPropertyOp53
 70
     1
102
RTVSPropertyOp54
 70
     1
102
RTVSPropertyOp55
 70
     1
102
RTVSPropertyOp56
 70
     1
102
RTVSPropertyOp57
 70
     1
102
RTVSPropertyOp58
 70
     1
102
RTVSPropertyOp59
 70
     1
102
RTVSPropertyOp60
 70
     1
102
RTVSPropertyOp61
 70
     1
102
RTVSPropertyOp62
 70
     1
  0
XRECORD
  5
554
102
{ACAD_REACTORS
330
553
102
}
330
553
100
AcDbXrecord
280
     1
102
RTVSPost2010Prop28
280
     0
102
RTVSPost2010PropOp28
 70
     1
102
RTVSPost2010Prop29
280
     1
102
RTVSPost2010PropOp29
 70
     1
102
RTVSPost2010Prop30
280
     1
102
RTVSPost2010PropOp30
 70
     1
102
RTVSPost2010Prop31
280
     0
102
RTVSPost2010PropOp31
 70
     1
102
RTVSPost2010Prop32
280
     0
102
RTVSPost2010PropOp32
 70
     1
102
RTVSPost2010Prop33
280
     0
102
RTVSPost2010PropOp33
 70
     1
102
RTVSPost2010Prop34
280
     0
102
RTVSPost2010PropOp34
 70
     1
102
RTVSPost2010Prop35
280
     0
102
RTVSPost2010PropOp35
 70
     1
102
RTVSPost2010Prop36
280
     0
102
RTVSPost2010PropOp36
 70
     1
102
RTVSPost2010Prop37
 90
       50
102
RTVSPost2010PropOp37
 70
     1
102
RTVSPost2010Prop38
140
0.0
102
RTVSPost2010PropOp38
 70
     1
102
RTVSPost2010Prop39
140
1.0
102
RTVSPost2010PropOp39
 70
     1
102
RTVSPost2010Prop40
 90
        0
102
RTVSPost2010PropOp40
 70
     1
102
RTVSPost2010Prop41ColorIndex
 90
       18
102
RTVSPost2010Prop41ColorRGB
 90
        0
102
RTVSPost2010PropOp41
 70
     1
102
RTVSPost2010Prop42
 90
       50
102
RTVSPost2010PropOp42
 70
     1
102
RTVSPost2010Prop43
 90
        3
102
RTVSPost2010PropOp43
 70
     1
102
RTVSPost2010Prop44ColorIndex
 90
        5
102
RTVSPost2010Prop44ColorRGB
 90
      255
102
RTVSPost2010PropOp44
 70
     1
102
RTVSPost2010Prop45
280
     0
102
RTVSPost2010PropOp45
 70
     1
102
RTVSPost2010Prop46
 90
       50
102
RTVSPost2010PropOp46
 70
     1
102
RTVSPost2010Prop47
 90
       50
102
RTVSPost2010PropOp47
 70
     1
102
RTVSPost2010Prop48
 90
       50
102
RTVSPost2010PropOp48
 70
     1
102
RTVSPost2010Prop49
280
     0
102
RTVSPost2010PropOp49
 70
     1
102
RTVSPost2010Prop50
 90
       50
102
RTVSPost2010PropOp50
 70
     1
102
RTVSPost2010Prop51ColorIndex
 90
      256
102
RTVSPost2010Prop51ColorRGB
 90
-16777216
102
RTVSPost2010PropOp51
 70
     0
102
RTVSPost2010Prop52
140
1.0
102
RTVSPost2010PropOp52
 70
     0
102
RTVSPost2010Prop53
 90
        2
102
RTVSPost2010PropOp53
 70
     1
102
RTVSPost2010Prop54
  1
strokes_ogs.tif
102
RTVSPost2010PropOp54
 70
     1
102
RTVSPost2010Prop55
280
     0
102
RTVSPost2010PropOp55
 70
     1
102
RTVSPost2010Prop56
140
1.0
102
RTVSPost2010PropOp56
 70
     1
102
RTVSPost2010Prop57
140
1.0
102
RTVSPost2010PropOp57
 70
     1
102
RTVSPropertyOp0
 70
     1
102
RTVSPropertyOp1
 70
     1
102
RTVSPropertyOp2
 70
     1
102
RTVSPropertyOp3
 70
     1
102
RTVSPropertyOp4
 70
     1
102
RTVSPropertyOp5
 70
     1
102
RTVSPropertyOp6
 70
     1
102
RTVSPropertyOp7
 70
     1
102
RTVSPropertyOp8
 70
     1
102
RTVSPropertyOp9
 70
     1
102
RTVSPropertyOp10
 70
     1
102
RTVSPropertyOp11
 70
     1
102
RTVSPropertyOp12
 70
     1
102
RTVSPropertyOp13
 70
     1
102
RTVSPropertyOp14
 70
     1
102
RTVSPropertyOp15
 70
     1
102
RTVSPropertyOp16
 70
     1
102
RTVSPropertyOp17
 70
     1
102
RTVSPropertyOp18
 70
     1
102
RTVSPropertyOp19
 70
     1
102
RTVSPropertyOp20
 70
     1
102
RTVSPropertyOp21
 70
     1
102
RTVSPropertyOp22
 70
     1
102
RTVSPropertyOp23
 70
     1
102
RTVSPropertyOp24
 70
     1
102
RTVSPropertyOp25
 70
     1
102
RTVSPropertyOp26
 70
     1
102
RTVSPropertyOp27
 70
     1
102
RTVSPropertyOp28
 70
     1
102
RTVSPropertyOp29
 70
     1
102
RTVSPropertyOp30
 70
     1
102
RTVSPropertyOp31
 70
     1
102
RTVSPropertyOp32
 70
     1
102
RTVSPropertyOp33
 70
     1
102
RTVSPropertyOp34
 70
     1
102
RTVSPropertyOp35
 70
     1
102
RTVSPropertyOp36
 70
     1
102
RTVSPropertyOp37
 70
     1
102
RTVSPropertyOp38
 70
     1
102
RTVSPropertyOp39
 70
     1
102
RTVSPropertyOp40
 70
     1
102
RTVSPropertyOp41
 70
     1
102
RTVSPropertyOp42
 70
     1
102
RTVSPropertyOp43
 70
     1
102
RTVSPropertyOp44
 70
     1
102
RTVSPropertyOp45
 70
     1
102
RTVSPropertyOp46
 70
     1
102
RTVSPropertyOp47
 70
     1
102
RTVSPropertyOp48
 70
     1
102
RTVSPropertyOp49
 70
     1
102
RTVSPropertyOp50
 70
     1
102
RTVSPropertyOp51
 70
     0
102
RTVSPropertyOp52
 70
     0
102
RTVSPropertyOp53
 70
     1
102
RTVSPropertyOp54
 70
     1
102
RTVSPropertyOp55
 70
     1
102
RTVSPropertyOp56
 70
     1
102
RTVSPropertyOp57
 70
     1
102
RTVSPropertyOp58
 70
     1
102
RTVSPropertyOp59
 70
     1
102
RTVSPropertyOp60
 70
     1
102
RTVSPropertyOp61
 70
     1
102
RTVSPropertyOp62
 70
     1
  0
XRECORD
  5
556
102
{ACAD_REACTORS
330
555
102
}
330
555
100
AcDbXrecord
280
     1
102
RTVSPost2010Prop28
280
     0
102
RTVSPost2010PropOp28
 70
     1
102
RTVSPost2010Prop29
280
     1
102
RTVSPost2010PropOp29
 70
     1
102
RTVSPost2010Prop30
280
     1
102
RTVSPost2010PropOp30
 70
     1
102
RTVSPost2010Prop31
280
     0
102
RTVSPost2010PropOp31
 70
     1
102
RTVSPost2010Prop32
280
     0
102
RTVSPost2010PropOp32
 70
     1
102
RTVSPost2010Prop33
280
     0
102
RTVSPost2010PropOp33
 70
     1
102
RTVSPost2010Prop34
280
     0
102
RTVSPost2010PropOp34
 70
     1
102
RTVSPost2010Prop35
280
     0
102
RTVSPost2010PropOp35
 70
     1
102
RTVSPost2010Prop36
280
     0
102
RTVSPost2010PropOp36
 70
     1
102
RTVSPost2010Prop37
 90
       50
102
RTVSPost2010PropOp37
 70
     1
102
RTVSPost2010Prop38
140
0.0
102
RTVSPost2010PropOp38
 70
     1
102
RTVSPost2010Prop39
140
1.0
102
RTVSPost2010PropOp39
 70
     1
102
RTVSPost2010Prop40
 90
        0
102
RTVSPost2010PropOp40
 70
     1
102
RTVSPost2010Prop41ColorIndex
 90
       18
102
RTVSPost2010Prop41ColorRGB
 90
        0
102
RTVSPost2010PropOp41
 70
     1
102
RTVSPost2010Prop42
 90
       50
102
RTVSPost2010PropOp42
 70
     1
102
RTVSPost2010Prop43
 90
        3
102
RTVSPost2010PropOp43
 70
     1
102
RTVSPost2010Prop44ColorIndex
 90
        5
102
RTVSPost2010Prop44ColorRGB
 90
      255
102
RTVSPost2010PropOp44
 70
     1
102
RTVSPost2010Prop45
280
     0
102
RTVSPost2010PropOp45
 70
     1
102
RTVSPost2010Prop46
 90
       50
102
RTVSPost2010PropOp46
 70
     1
102
RTVSPost2010Prop47
 90
       50
102
RTVSPost2010PropOp47
 70
     1
102
RTVSPost2010Prop48
 90
       50
102
RTVSPost2010PropOp48
 70
     1
102
RTVSPost2010Prop49
280
     0
102
RTVSPost2010PropOp49
 70
     1
102
RTVSPost2010Prop50
 90
       50
102
RTVSPost2010PropOp50
 70
     1
102
RTVSPost2010Prop51ColorIndex
 90
      256
102
RTVSPost2010Prop51ColorRGB
 90
-16777216
102
RTVSPost2010PropOp51
 70
     0
102
RTVSPost2010Prop52
140
1.0
102
RTVSPost2010PropOp52
 70
     0
102
RTVSPost2010Prop53
 90
        2
102
RTVSPost2010PropOp53
 70
     1
102
RTVSPost2010Prop54
  1
strokes_ogs.tif
102
RTVSPost2010PropOp54
 70
     1
102
RTVSPost2010Prop55
280
     0
102
RTVSPost2010PropOp55
 70
     1
102
RTVSPost2010Prop56
140
1.0
102
RTVSPost2010PropOp56
 70
     1
102
RTVSPost2010Prop57
140
1.0
102
RTVSPost2010PropOp57
 70
     1
102
RTVSPropertyOp0
 70
     1
102
RTVSPropertyOp1
 70
     1
102
RTVSPropertyOp2
 70
     1
102
RTVSPropertyOp3
 70
     1
102
RTVSPropertyOp4
 70
     1
102
RTVSPropertyOp5
 70
     1
102
RTVSPropertyOp6
 70
     1
102
RTVSPropertyOp7
 70
     1
102
RTVSPropertyOp8
 70
     1
102
RTVSPropertyOp9
 70
     1
102
RTVSPropertyOp10
 70
     1
102
RTVSPropertyOp11
 70
     1
102
RTVSPropertyOp12
 70
     1
102
RTVSPropertyOp13
 70
     1
102
RTVSPropertyOp14
 70
     1
102
RTVSPropertyOp15
 70
     1
102
RTVSPropertyOp16
 70
     1
102
RTVSPropertyOp17
 70
     1
102
RTVSPropertyOp18
 70
     1
102
RTVSPropertyOp19
 70
     1
102
RTVSPropertyOp20
 70
     1
102
RTVSPropertyOp21
 70
     1
102
RTVSPropertyOp22
 70
     1
102
RTVSPropertyOp23
 70
     1
102
RTVSPropertyOp24
 70
     1
102
RTVSPropertyOp25
 70
     1
102
RTVSPropertyOp26
 70
     1
102
RTVSPropertyOp27
 70
     1
102
RTVSPropertyOp28
 70
     1
102
RTVSPropertyOp29
 70
     1
102
RTVSPropertyOp30
 70
     1
102
RTVSPropertyOp31
 70
     1
102
RTVSPropertyOp32
 70
     1
102
RTVSPropertyOp33
 70
     1
102
RTVSPropertyOp34
 70
     1
102
RTVSPropertyOp35
 70
     1
102
RTVSPropertyOp36
 70
     1
102
RTVSPropertyOp37
 70
     1
102
RTVSPropertyOp38
 70
     1
102
RTVSPropertyOp39
 70
     1
102
RTVSPropertyOp40
 70
     1
102
RTVSPropertyOp41
 70
     1
102
RTVSPropertyOp42
 70
     1
102
RTVSPropertyOp43
 70
     1
102
RTVSPropertyOp44
 70
     1
102
RTVSPropertyOp45
 70
     1
102
RTVSPropertyOp46
 70
     1
102
RTVSPropertyOp47
 70
     1
102
RTVSPropertyOp48
 70
     1
102
RTVSPropertyOp49
 70
     1
102
RTVSPropertyOp50
 70
     1
102
RTVSPropertyOp51
 70
     0
102
RTVSPropertyOp52
 70
     0
102
RTVSPropertyOp53
 70
     1
102
RTVSPropertyOp54
 70
     1
102
RTVSPropertyOp55
 70
     1
102
RTVSPropertyOp56
 70
     1
102
RTVSPropertyOp57
 70
     1
102
RTVSPropertyOp58
 70
     1
102
RTVSPropertyOp59
 70
     1
102
RTVSPropertyOp60
 70
     1
102
RTVSPropertyOp61
 70
     1
102
RTVSPropertyOp62
 70
     1
  0
XRECORD
  5
55E
102
{ACAD_REACTORS
330
55D
102
}
330
55D
100
AcDbXrecord
280
     1
102
RTVSPost2010Prop28
280
     0
102
RTVSPost2010PropOp28
 70
     1
102
RTVSPost2010Prop29
280
     1
102
RTVSPost2010PropOp29
 70
     1
102
RTVSPost2010Prop30
280
     1
102
RTVSPost2010PropOp30
 70
     1
102
RTVSPost2010Prop31
280
     0
102
RTVSPost2010PropOp31
 70
     1
102
RTVSPost2010Prop32
280
     0
102
RTVSPost2010PropOp32
 70
     1
102
RTVSPost2010Prop33
280
     0
102
RTVSPost2010PropOp33
 70
     1
102
RTVSPost2010Prop34
280
     0
102
RTVSPost2010PropOp34
 70
     1
102
RTVSPost2010Prop35
280
     0
102
RTVSPost2010PropOp35
 70
     1
102
RTVSPost2010Prop36
280
     0
102
RTVSPost2010PropOp36
 70
     1
102
RTVSPost2010Prop37
 90
       50
102
RTVSPost2010PropOp37
 70
     1
102
RTVSPost2010Prop38
140
0.0
102
RTVSPost2010PropOp38
 70
     1
102
RTVSPost2010Prop39
140
1.0
102
RTVSPost2010PropOp39
 70
     1
102
RTVSPost2010Prop40
 90
        0
102
RTVSPost2010PropOp40
 70
     1
102
RTVSPost2010Prop41ColorIndex
 90
       18
102
RTVSPost2010Prop41ColorRGB
 90
        0
102
RTVSPost2010PropOp41
 70
     1
102
RTVSPost2010Prop42
 90
       50
102
RTVSPost2010PropOp42
 70
     1
102
RTVSPost2010Prop43
 90
        3
102
RTVSPost2010PropOp43
 70
     1
102
RTVSPost2010Prop44ColorIndex
 90
        5
102
RTVSPost2010Prop44ColorRGB
 90
      255
102
RTVSPost2010PropOp44
 70
     1
102
RTVSPost2010Prop45
280
     0
102
RTVSPost2010PropOp45
 70
     1
102
RTVSPost2010Prop46
 90
       50
102
RTVSPost2010PropOp46
 70
     1
102
RTVSPost2010Prop47
 90
       50
102
RTVSPost2010PropOp47
 70
     1
102
RTVSPost2010Prop48
 90
       50
102
RTVSPost2010PropOp48
 70
     1
102
RTVSPost2010Prop49
280
     0
102
RTVSPost2010PropOp49
 70
     1
102
RTVSPost2010Prop50
 90
       50
102
RTVSPost2010PropOp50
 70
     1
102
RTVSPost2010Prop51ColorIndex
 90
      256
102
RTVSPost2010Prop51ColorRGB
 90
-16777216
102
RTVSPost2010PropOp51
 70
     0
102
RTVSPost2010Prop52
140
1.0
102
RTVSPost2010PropOp52
 70
     0
102
RTVSPost2010Prop53
 90
        2
102
RTVSPost2010PropOp53
 70
     1
102
RTVSPost2010Prop54
  1
strokes_ogs.tif
102
RTVSPost2010PropOp54
 70
     1
102
RTVSPost2010Prop55
280
     0
102
RTVSPost2010PropOp55
 70
     1
102
RTVSPost2010Prop56
140
1.0
102
RTVSPost2010PropOp56
 70
     1
102
RTVSPost2010Prop57
140
1.0
102
RTVSPost2010PropOp57
 70
     1
102
RTVSPropertyOp0
 70
     1
102
RTVSPropertyOp1
 70
     1
102
RTVSPropertyOp2
 70
     1
102
RTVSPropertyOp3
 70
     1
102
RTVSPropertyOp4
 70
     1
102
RTVSPropertyOp5
 70
     1
102
RTVSPropertyOp6
 70
     1
102
RTVSPropertyOp7
 70
     1
102
RTVSPropertyOp8
 70
     1
102
RTVSPropertyOp9
 70
     1
102
RTVSPropertyOp10
 70
     1
102
RTVSPropertyOp11
 70
     1
102
RTVSPropertyOp12
 70
     1
102
RTVSPropertyOp13
 70
     1
102
RTVSPropertyOp14
 70
     1
102
RTVSPropertyOp15
 70
     1
102
RTVSPropertyOp16
 70
     1
102
RTVSPropertyOp17
 70
     1
102
RTVSPropertyOp18
 70
     1
102
RTVSPropertyOp19
 70
     1
102
RTVSPropertyOp20
 70
     1
102
RTVSPropertyOp21
 70
     1
102
RTVSPropertyOp22
 70
     1
102
RTVSPropertyOp23
 70
     1
102
RTVSPropertyOp24
 70
     1
102
RTVSPropertyOp25
 70
     1
102
RTVSPropertyOp26
 70
     1
102
RTVSPropertyOp27
 70
     1
102
RTVSPropertyOp28
 70
     1
102
RTVSPropertyOp29
 70
     1
102
RTVSPropertyOp30
 70
     1
102
RTVSPropertyOp31
 70
     1
102
RTVSPropertyOp32
 70
     1
102
RTVSPropertyOp33
 70
     1
102
RTVSPropertyOp34
 70
     1
102
RTVSPropertyOp35
 70
     1
102
RTVSPropertyOp36
 70
     1
102
RTVSPropertyOp37
 70
     1
102
RTVSPropertyOp38
 70
     1
102
RTVSPropertyOp39
 70
     1
102
RTVSPropertyOp40
 70
     1
102
RTVSPropertyOp41
 70
     1
102
RTVSPropertyOp42
 70
     1
102
RTVSPropertyOp43
 70
     1
102
RTVSPropertyOp44
 70
     1
102
RTVSPropertyOp45
 70
     1
102
RTVSPropertyOp46
 70
     1
102
RTVSPropertyOp47
 70
     1
102
RTVSPropertyOp48
 70
     1
102
RTVSPropertyOp49
 70
     1
102
RTVSPropertyOp50
 70
     1
102
RTVSPropertyOp51
 70
     0
102
RTVSPropertyOp52
 70
     0
102
RTVSPropertyOp53
 70
     1
102
RTVSPropertyOp54
 70
     1
102
RTVSPropertyOp55
 70
     1
102
RTVSPropertyOp56
 70
     1
102
RTVSPropertyOp57
 70
     1
102
RTVSPropertyOp58
 70
     1
102
RTVSPropertyOp59
 70
     1
102
RTVSPropertyOp60
 70
     1
102
RTVSPropertyOp61
 70
     1
102
RTVSPropertyOp62
 70
     1
  0
XRECORD
  5
57A
102
{ACAD_REACTORS
330
579
102
}
330
579
100
AcDbXrecord
280
     1
102
RTVSPost2010Prop28
280
     0
102
RTVSPost2010PropOp28
 70
     1
102
RTVSPost2010Prop29
280
     1
102
RTVSPost2010PropOp29
 70
     1
102
RTVSPost2010Prop30
280
     1
102
RTVSPost2010PropOp30
 70
     1
102
RTVSPost2010Prop31
280
     0
102
RTVSPost2010PropOp31
 70
     1
102
RTVSPost2010Prop32
280
     0
102
RTVSPost2010PropOp32
 70
     1
102
RTVSPost2010Prop33
280
     0
102
RTVSPost2010PropOp33
 70
     1
102
RTVSPost2010Prop34
280
     0
102
RTVSPost2010PropOp34
 70
     1
102
RTVSPost2010Prop35
280
     0
102
RTVSPost2010PropOp35
 70
     1
102
RTVSPost2010Prop36
280
     0
102
RTVSPost2010PropOp36
 70
     1
102
RTVSPost2010Prop37
 90
       50
102
RTVSPost2010PropOp37
 70
     0
102
RTVSPost2010Prop38
140
0.0
102
RTVSPost2010PropOp38
 70
     0
102
RTVSPost2010Prop39
140
1.0
102
RTVSPost2010PropOp39
 70
     0
102
RTVSPost2010Prop40
 90
        0
102
RTVSPost2010PropOp40
 70
     0
102
RTVSPost2010Prop41ColorIndex
 90
       18
102
RTVSPost2010Prop41ColorRGB
 90
        0
102
RTVSPost2010PropOp41
 70
     0
102
RTVSPost2010Prop42
 90
       50
102
RTVSPost2010PropOp42
 70
     0
102
RTVSPost2010Prop43
 90
        3
102
RTVSPost2010PropOp43
 70
     0
102
RTVSPost2010Prop44ColorIndex
 90
        5
102
RTVSPost2010Prop44ColorRGB
 90
      255
102
RTVSPost2010PropOp44
 70
     0
102
RTVSPost2010Prop45
280
     0
102
RTVSPost2010PropOp45
 70
     1
102
RTVSPost2010Prop46
 90
       50
102
RTVSPost2010PropOp46
 70
     0
102
RTVSPost2010Prop47
 90
       50
102
RTVSPost2010PropOp47
 70
     0
102
RTVSPost2010Prop48
 90
       50
102
RTVSPost2010PropOp48
 70
     0
102
RTVSPost2010Prop49
280
     0
102
RTVSPost2010PropOp49
 70
     1
102
RTVSPost2010Prop50
 90
       50
102
RTVSPost2010PropOp50
 70
     0
102
RTVSPost2010Prop51ColorIndex
 90
      256
102
RTVSPost2010Prop51ColorRGB
 90
-16777216
102
RTVSPost2010PropOp51
 70
     0
102
RTVSPost2010Prop52
140
1.0
102
RTVSPost2010PropOp52
 70
     0
102
RTVSPost2010Prop53
 90
        2
102
RTVSPost2010PropOp53
 70
     0
102
RTVSPost2010Prop54
  1
strokes_ogs.tif
102
RTVSPost2010PropOp54
 70
     0
102
RTVSPost2010Prop55
280
     0
102
RTVSPost2010PropOp55
 70
     1
102
RTVSPost2010Prop56
140
1.0
102
RTVSPost2010PropOp56
 70
     0
102
RTVSPost2010Prop57
140
1.0
102
RTVSPost2010PropOp57
 70
     0
102
RTVSPropertyOp0
 70
     0
102
RTVSPropertyOp1
 70
     0
102
RTVSPropertyOp2
 70
     0
102
RTVSPropertyOp3
 70
     0
102
RTVSPropertyOp4
 70
     0
102
RTVSPropertyOp5
 70
     0
102
RTVSPropertyOp6
 70
     0
102
RTVSPropertyOp7
 70
     0
102
RTVSPropertyOp8
 70
     0
102
RTVSPropertyOp9
 70
     0
102
RTVSPropertyOp10
 70
     0
102
RTVSPropertyOp11
 70
     0
102
RTVSPropertyOp12
 70
     0
102
RTVSPropertyOp13
 70
     0
102
RTVSPropertyOp14
 70
     2
102
RTVSPropertyOp15
 70
     0
102
RTVSPropertyOp16
 70
     0
102
RTVSPropertyOp17
 70
     0
102
RTVSPropertyOp18
 70
     0
102
RTVSPropertyOp19
 70
     0
102
RTVSPropertyOp20
 70
     0
102
RTVSPropertyOp21
 70
     0
102
RTVSPropertyOp22
 70
     0
102
RTVSPropertyOp23
 70
     0
102
RTVSPropertyOp24
 70
     0
102
RTVSPropertyOp25
 70
     0
102
RTVSPropertyOp26
 70
     0
102
RTVSPropertyOp27
 70
     0
102
RTVSPropertyOp28
 70
     1
102
RTVSPropertyOp29
 70
     1
102
RTVSPropertyOp30
 70
     1
102
RTVSPropertyOp31
 70
     1
102
RTVSPropertyOp32
 70
     1
102
RTVSPropertyOp33
 70
     1
102
RTVSPropertyOp34
 70
     1
102
RTVSPropertyOp35
 70
     1
102
RTVSPropertyOp36
 70
     1
102
RTVSPropertyOp37
 70
     0
102
RTVSPropertyOp38
 70
     0
102
RTVSPropertyOp39
 70
     0
102
RTVSPropertyOp40
 70
     0
102
RTVSPropertyOp41
 70
     0
102
RTVSPropertyOp42
 70
     0
102
RTVSPropertyOp43
 70
     0
102
RTVSPropertyOp44
 70
     0
102
RTVSPropertyOp45
 70
     1
102
RTVSPropertyOp46
 70
     0
102
RTVSPropertyOp47
 70
     0
102
RTVSPropertyOp48
 70
     0
102
RTVSPropertyOp49
 70
     1
102
RTVSPropertyOp50
 70
     0
102
RTVSPropertyOp51
 70
     0
102
RTVSPropertyOp52
 70
     0
102
RTVSPropertyOp53
 70
     0
102
RTVSPropertyOp54
 70
     0
102
RTVSPropertyOp55
 70
     1
102
RTVSPropertyOp56
 70
     0
102
RTVSPropertyOp57
 70
     0
102
RTVSPropertyOp58
 70
     0
102
RTVSPropertyOp59
 70
     0
102
RTVSPropertyOp60
 70
     0
102
RTVSPropertyOp61
 70
     0
102
RTVSPropertyOp62
 70
     0
  0
XRECORD
  5
56A
102
{ACAD_REACTORS
330
569
102
}
330
569
100
AcDbXrecord
280
     1
102
RTVSPost2010Prop28
280
     0
102
RTVSPost2010PropOp28
 70
     1
102
RTVSPost2010Prop29
280
     1
102
RTVSPost2010PropOp29
 70
     1
102
RTVSPost2010Prop30
280
     1
102
RTVSPost2010PropOp30
 70
     1
102
RTVSPost2010Prop31
280
     0
102
RTVSPost2010PropOp31
 70
     1
102
RTVSPost2010Prop32
280
     0
102
RTVSPost2010PropOp32
 70
     1
102
RTVSPost2010Prop33
280
     0
102
RTVSPost2010PropOp33
 70
     1
102
RTVSPost2010Prop34
280
     0
102
RTVSPost2010PropOp34
 70
     1
102
RTVSPost2010Prop35
280
     0
102
RTVSPost2010PropOp35
 70
     1
102
RTVSPost2010Prop36
280
     0
102
RTVSPost2010PropOp36
 70
     1
102
RTVSPost2010Prop37
 90
       50
102
RTVSPost2010PropOp37
 70
     1
102
RTVSPost2010Prop38
140
0.0
102
RTVSPost2010PropOp38
 70
     1
102
RTVSPost2010Prop39
140
1.0
102
RTVSPost2010PropOp39
 70
     1
102
RTVSPost2010Prop40
 90
        0
102
RTVSPost2010PropOp40
 70
     1
102
RTVSPost2010Prop41ColorIndex
 90
       18
102
RTVSPost2010Prop41ColorRGB
 90
        0
102
RTVSPost2010PropOp41
 70
     1
102
RTVSPost2010Prop42
 90
       50
102
RTVSPost2010PropOp42
 70
     1
102
RTVSPost2010Prop43
 90
        3
102
RTVSPost2010PropOp43
 70
     1
102
RTVSPost2010Prop44ColorIndex
 90
        5
102
RTVSPost2010Prop44ColorRGB
 90
      255
102
RTVSPost2010PropOp44
 70
     1
102
RTVSPost2010Prop45
280
     0
102
RTVSPost2010PropOp45
 70
     1
102
RTVSPost2010Prop46
 90
       50
102
RTVSPost2010PropOp46
 70
     1
102
RTVSPost2010Prop47
 90
       50
102
RTVSPost2010PropOp47
 70
     1
102
RTVSPost2010Prop48
 90
       50
102
RTVSPost2010PropOp48
 70
     1
102
RTVSPost2010Prop49
280
     0
102
RTVSPost2010PropOp49
 70
     1
102
RTVSPost2010Prop50
 90
       50
102
RTVSPost2010PropOp50
 70
     1
102
RTVSPost2010Prop51ColorIndex
 90
      256
102
RTVSPost2010Prop51ColorRGB
 90
-16777216
102
RTVSPost2010PropOp51
 70
     0
102
RTVSPost2010Prop52
140
1.0
102
RTVSPost2010PropOp52
 70
     0
102
RTVSPost2010Prop53
 90
        2
102
RTVSPost2010PropOp53
 70
     1
102
RTVSPost2010Prop54
  1
strokes_ogs.tif
102
RTVSPost2010PropOp54
 70
     1
102
RTVSPost2010Prop55
280
     0
102
RTVSPost2010PropOp55
 70
     1
102
RTVSPost2010Prop56
140
1.0
102
RTVSPost2010PropOp56
 70
     1
102
RTVSPost2010Prop57
140
1.0
102
RTVSPost2010PropOp57
 70
     1
102
RTVSPropertyOp0
 70
     1
102
RTVSPropertyOp1
 70
     1
102
RTVSPropertyOp2
 70
     1
102
RTVSPropertyOp3
 70
     1
102
RTVSPropertyOp4
 70
     1
102
RTVSPropertyOp5
 70
     1
102
RTVSPropertyOp6
 70
     1
102
RTVSPropertyOp7
 70
     1
102
RTVSPropertyOp8
 70
     1
102
RTVSPropertyOp9
 70
     1
102
RTVSPropertyOp10
 70
     1
102
RTVSPropertyOp11
 70
     1
102
RTVSPropertyOp12
 70
     1
102
RTVSPropertyOp13
 70
     1
102
RTVSPropertyOp14
 70
     1
102
RTVSPropertyOp15
 70
     1
102
RTVSPropertyOp16
 70
     1
102
RTVSPropertyOp17
 70
     1
102
RTVSPropertyOp18
 70
     1
102
RTVSPropertyOp19
 70
     1
102
RTVSPropertyOp20
 70
     1
102
RTVSPropertyOp21
 70
     1
102
RTVSPropertyOp22
 70
     1
102
RTVSPropertyOp23
 70
     1
102
RTVSPropertyOp24
 70
     1
102
RTVSPropertyOp25
 70
     1
102
RTVSPropertyOp26
 70
     1
102
RTVSPropertyOp27
 70
     1
102
RTVSPropertyOp28
 70
     1
102
RTVSPropertyOp29
 70
     1
102
RTVSPropertyOp30
 70
     1
102
RTVSPropertyOp31
 70
     1
102
RTVSPropertyOp32
 70
     1
102
RTVSPropertyOp33
 70
     1
102
RTVSPropertyOp34
 70
     1
102
RTVSPropertyOp35
 70
     1
102
RTVSPropertyOp36
 70
     1
102
RTVSPropertyOp37
 70
     1
102
RTVSPropertyOp38
 70
     1
102
RTVSPropertyOp39
 70
     1
102
RTVSPropertyOp40
 70
     1
102
RTVSPropertyOp41
 70
     1
102
RTVSPropertyOp42
 70
     1
102
RTVSPropertyOp43
 70
     1
102
RTVSPropertyOp44
 70
     1
102
RTVSPropertyOp45
 70
     1
102
RTVSPropertyOp46
 70
     1
102
RTVSPropertyOp47
 70
     1
102
RTVSPropertyOp48
 70
     1
102
RTVSPropertyOp49
 70
     1
102
RTVSPropertyOp50
 70
     1
102
RTVSPropertyOp51
 70
     0
102
RTVSPropertyOp52
 70
     0
102
RTVSPropertyOp53
 70
     1
102
RTVSPropertyOp54
 70
     1
102
RTVSPropertyOp55
 70
     1
102
RTVSPropertyOp56
 70
     1
102
RTVSPropertyOp57
 70
     1
102
RTVSPropertyOp58
 70
     1
102
RTVSPropertyOp59
 70
     1
102
RTVSPropertyOp60
 70
     1
102
RTVSPropertyOp61
 70
     1
102
RTVSPropertyOp62
 70
     1
  0
XRECORD
  5
57C
102
{ACAD_REACTORS
330
57B
102
}
330
57B
100
AcDbXrecord
280
     1
102
RTVSPost2010Prop28
280
     0
102
RTVSPost2010PropOp28
 70
     1
102
RTVSPost2010Prop29
280
     1
102
RTVSPost2010PropOp29
 70
     1
102
RTVSPost2010Prop30
280
     1
102
RTVSPost2010PropOp30
 70
     1
102
RTVSPost2010Prop31
280
     0
102
RTVSPost2010PropOp31
 70
     1
102
RTVSPost2010Prop32
280
     0
102
RTVSPost2010PropOp32
 70
     1
102
RTVSPost2010Prop33
280
     0
102
RTVSPost2010PropOp33
 70
     1
102
RTVSPost2010Prop34
280
     0
102
RTVSPost2010PropOp34
 70
     1
102
RTVSPost2010Prop35
280
     0
102
RTVSPost2010PropOp35
 70
     1
102
RTVSPost2010Prop36
280
     0
102
RTVSPost2010PropOp36
 70
     1
102
RTVSPost2010Prop37
 90
       50
102
RTVSPost2010PropOp37
 70
     0
102
RTVSPost2010Prop38
140
0.0
102
RTVSPost2010PropOp38
 70
     0
102
RTVSPost2010Prop39
140
1.0
102
RTVSPost2010PropOp39
 70
     0
102
RTVSPost2010Prop40
 90
        0
102
RTVSPost2010PropOp40
 70
     0
102
RTVSPost2010Prop41ColorIndex
 90
       18
102
RTVSPost2010Prop41ColorRGB
 90
        0
102
RTVSPost2010PropOp41
 70
     0
102
RTVSPost2010Prop42
 90
       50
102
RTVSPost2010PropOp42
 70
     0
102
RTVSPost2010Prop43
 90
        3
102
RTVSPost2010PropOp43
 70
     0
102
RTVSPost2010Prop44ColorIndex
 90
        5
102
RTVSPost2010Prop44ColorRGB
 90
      255
102
RTVSPost2010PropOp44
 70
     0
102
RTVSPost2010Prop45
280
     0
102
RTVSPost2010PropOp45
 70
     1
102
RTVSPost2010Prop46
 90
       50
102
RTVSPost2010PropOp46
 70
     0
102
RTVSPost2010Prop47
 90
       50
102
RTVSPost2010PropOp47
 70
     0
102
RTVSPost2010Prop48
 90
       50
102
RTVSPost2010PropOp48
 70
     0
102
RTVSPost2010Prop49
280
     0
102
RTVSPost2010PropOp49
 70
     1
102
RTVSPost2010Prop50
 90
       50
102
RTVSPost2010PropOp50
 70
     0
102
RTVSPost2010Prop51ColorIndex
 90
      256
102
RTVSPost2010Prop51ColorRGB
 90
-16777216
102
RTVSPost2010PropOp51
 70
     0
102
RTVSPost2010Prop52
140
1.0
102
RTVSPost2010PropOp52
 70
     0
102
RTVSPost2010Prop53
 90
        2
102
RTVSPost2010PropOp53
 70
     0
102
RTVSPost2010Prop54
  1
strokes_ogs.tif
102
RTVSPost2010PropOp54
 70
     0
102
RTVSPost2010Prop55
280
     0
102
RTVSPost2010PropOp55
 70
     1
102
RTVSPost2010Prop56
140
1.0
102
RTVSPost2010PropOp56
 70
     0
102
RTVSPost2010Prop57
140
1.0
102
RTVSPost2010PropOp57
 70
     0
102
RTVSPropertyOp0
 70
     0
102
RTVSPropertyOp1
 70
     0
102
RTVSPropertyOp2
 70
     0
102
RTVSPropertyOp3
 70
     0
102
RTVSPropertyOp4
 70
     0
102
RTVSPropertyOp5
 70
     0
102
RTVSPropertyOp6
 70
     0
102
RTVSPropertyOp7
 70
     0
102
RTVSPropertyOp8
 70
     0
102
RTVSPropertyOp9
 70
     0
102
RTVSPropertyOp10
 70
     0
102
RTVSPropertyOp11
 70
     0
102
RTVSPropertyOp12
 70
     0
102
RTVSPropertyOp13
 70
     0
102
RTVSPropertyOp14
 70
     2
102
RTVSPropertyOp15
 70
     0
102
RTVSPropertyOp16
 70
     0
102
RTVSPropertyOp17
 70
     0
102
RTVSPropertyOp18
 70
     0
102
RTVSPropertyOp19
 70
     0
102
RTVSPropertyOp20
 70
     0
102
RTVSPropertyOp21
 70
     0
102
RTVSPropertyOp22
 70
     0
102
RTVSPropertyOp23
 70
     0
102
RTVSPropertyOp24
 70
     0
102
RTVSPropertyOp25
 70
     0
102
RTVSPropertyOp26
 70
     0
102
RTVSPropertyOp27
 70
     0
102
RTVSPropertyOp28
 70
     1
102
RTVSPropertyOp29
 70
     1
102
RTVSPropertyOp30
 70
     1
102
RTVSPropertyOp31
 70
     1
102
RTVSPropertyOp32
 70
     1
102
RTVSPropertyOp33
 70
     1
102
RTVSPropertyOp34
 70
     1
102
RTVSPropertyOp35
 70
     1
102
RTVSPropertyOp36
 70
     1
102
RTVSPropertyOp37
 70
     0
102
RTVSPropertyOp38
 70
     0
102
RTVSPropertyOp39
 70
     0
102
RTVSPropertyOp40
 70
     0
102
RTVSPropertyOp41
 70
     0
102
RTVSPropertyOp42
 70
     0
102
RTVSPropertyOp43
 70
     0
102
RTVSPropertyOp44
 70
     0
102
RTVSPropertyOp45
 70
     1
102
RTVSPropertyOp46
 70
     0
102
RTVSPropertyOp47
 70
     0
102
RTVSPropertyOp48
 70
     0
102
RTVSPropertyOp49
 70
     1
102
RTVSPropertyOp50
 70
     0
102
RTVSPropertyOp51
 70
     0
102
RTVSPropertyOp52
 70
     0
102
RTVSPropertyOp53
 70
     0
102
RTVSPropertyOp54
 70
     0
102
RTVSPropertyOp55
 70
     1
102
RTVSPropertyOp56
 70
     0
102
RTVSPropertyOp57
 70
     0
102
RTVSPropertyOp58
 70
     0
102
RTVSPropertyOp59
 70
     0
102
RTVSPropertyOp60
 70
     0
102
RTVSPropertyOp61
 70
     0
102
RTVSPropertyOp62
 70
     0
  0
XRECORD
  5
562
102
{ACAD_REACTORS
330
561
102
}
330
561
100
AcDbXrecord
280
     1
102
RTVSPost2010Prop28
280
     0
102
RTVSPost2010PropOp28
 70
     1
102
RTVSPost2010Prop29
280
     1
102
RTVSPost2010PropOp29
 70
     1
102
RTVSPost2010Prop30
280
     1
102
RTVSPost2010PropOp30
 70
     1
102
RTVSPost2010Prop31
280
     0
102
RTVSPost2010PropOp31
 70
     1
102
RTVSPost2010Prop32
280
     0
102
RTVSPost2010PropOp32
 70
     1
102
RTVSPost2010Prop33
280
     0
102
RTVSPost2010PropOp33
 70
     1
102
RTVSPost2010Prop34
280
     0
102
RTVSPost2010PropOp34
 70
     1
102
RTVSPost2010Prop35
280
     0
102
RTVSPost2010PropOp35
 70
     1
102
RTVSPost2010Prop36
280
     0
102
RTVSPost2010PropOp36
 70
     1
102
RTVSPost2010Prop37
 90
       50
102
RTVSPost2010PropOp37
 70
     1
102
RTVSPost2010Prop38
140
0.0
102
RTVSPost2010PropOp38
 70
     1
102
RTVSPost2010Prop39
140
1.0
102
RTVSPost2010PropOp39
 70
     1
102
RTVSPost2010Prop40
 90
        0
102
RTVSPost2010PropOp40
 70
     1
102
RTVSPost2010Prop41ColorIndex
 90
       18
102
RTVSPost2010Prop41ColorRGB
 90
        0
102
RTVSPost2010PropOp41
 70
     1
102
RTVSPost2010Prop42
 90
       50
102
RTVSPost2010PropOp42
 70
     1
102
RTVSPost2010Prop43
 90
        3
102
RTVSPost2010PropOp43
 70
     1
102
RTVSPost2010Prop44ColorIndex
 90
        5
102
RTVSPost2010Prop44ColorRGB
 90
      255
102
RTVSPost2010PropOp44
 70
     1
102
RTVSPost2010Prop45
280
     0
102
RTVSPost2010PropOp45
 70
     1
102
RTVSPost2010Prop46
 90
       50
102
RTVSPost2010PropOp46
 70
     1
102
RTVSPost2010Prop47
 90
       50
102
RTVSPost2010PropOp47
 70
     1
102
RTVSPost2010Prop48
 90
       50
102
RTVSPost2010PropOp48
 70
     1
102
RTVSPost2010Prop49
280
     0
102
RTVSPost2010PropOp49
 70
     1
102
RTVSPost2010Prop50
 90
       50
102
RTVSPost2010PropOp50
 70
     1
102
RTVSPost2010Prop51ColorIndex
 90
      256
102
RTVSPost2010Prop51ColorRGB
 90
-16777216
102
RTVSPost2010PropOp51
 70
     0
102
RTVSPost2010Prop52
140
1.0
102
RTVSPost2010PropOp52
 70
     0
102
RTVSPost2010Prop53
 90
        2
102
RTVSPost2010PropOp53
 70
     1
102
RTVSPost2010Prop54
  1
strokes_ogs.tif
102
RTVSPost2010PropOp54
 70
     1
102
RTVSPost2010Prop55
280
     0
102
RTVSPost2010PropOp55
 70
     1
102
RTVSPost2010Prop56
140
1.0
102
RTVSPost2010PropOp56
 70
     1
102
RTVSPost2010Prop57
140
1.0
102
RTVSPost2010PropOp57
 70
     1
102
RTVSPropertyOp0
 70
     1
102
RTVSPropertyOp1
 70
     1
102
RTVSPropertyOp2
 70
     1
102
RTVSPropertyOp3
 70
     1
102
RTVSPropertyOp4
 70
     1
102
RTVSPropertyOp5
 70
     1
102
RTVSPropertyOp6
 70
     1
102
RTVSPropertyOp7
 70
     1
102
RTVSPropertyOp8
 70
     1
102
RTVSPropertyOp9
 70
     1
102
RTVSPropertyOp10
 70
     1
102
RTVSPropertyOp11
 70
     1
102
RTVSPropertyOp12
 70
     1
102
RTVSPropertyOp13
 70
     1
102
RTVSPropertyOp14
 70
     1
102
RTVSPropertyOp15
 70
     1
102
RTVSPropertyOp16
 70
     1
102
RTVSPropertyOp17
 70
     1
102
RTVSPropertyOp18
 70
     1
102
RTVSPropertyOp19
 70
     1
102
RTVSPropertyOp20
 70
     1
102
RTVSPropertyOp21
 70
     1
102
RTVSPropertyOp22
 70
     1
102
RTVSPropertyOp23
 70
     1
102
RTVSPropertyOp24
 70
     1
102
RTVSPropertyOp25
 70
     1
102
RTVSPropertyOp26
 70
     1
102
RTVSPropertyOp27
 70
     1
102
RTVSPropertyOp28
 70
     1
102
RTVSPropertyOp29
 70
     1
102
RTVSPropertyOp30
 70
     1
102
RTVSPropertyOp31
 70
     1
102
RTVSPropertyOp32
 70
     1
102
RTVSPropertyOp33
 70
     1
102
RTVSPropertyOp34
 70
     1
102
RTVSPropertyOp35
 70
     1
102
RTVSPropertyOp36
 70
     1
102
RTVSPropertyOp37
 70
     1
102
RTVSPropertyOp38
 70
     1
102
RTVSPropertyOp39
 70
     1
102
RTVSPropertyOp40
 70
     1
102
RTVSPropertyOp41
 70
     1
102
RTVSPropertyOp42
 70
     1
102
RTVSPropertyOp43
 70
     1
102
RTVSPropertyOp44
 70
     1
102
RTVSPropertyOp45
 70
     1
102
RTVSPropertyOp46
 70
     1
102
RTVSPropertyOp47
 70
     1
102
RTVSPropertyOp48
 70
     1
102
RTVSPropertyOp49
 70
     1
102
RTVSPropertyOp50
 70
     1
102
RTVSPropertyOp51
 70
     0
102
RTVSPropertyOp52
 70
     0
102
RTVSPropertyOp53
 70
     1
102
RTVSPropertyOp54
 70
     1
102
RTVSPropertyOp55
 70
     1
102
RTVSPropertyOp56
 70
     1
102
RTVSPropertyOp57
 70
     1
102
RTVSPropertyOp58
 70
     1
102
RTVSPropertyOp59
 70
     1
102
RTVSPropertyOp60
 70
     1
102
RTVSPropertyOp61
 70
     1
102
RTVSPropertyOp62
 70
     1
  0
XRECORD
  5
578
102
{ACAD_REACTORS
330
577
102
}
330
577
100
AcDbXrecord
280
     1
102
RTVSPost2010Prop28
280
     0
102
RTVSPost2010PropOp28
 70
     1
102
RTVSPost2010Prop29
280
     1
102
RTVSPost2010PropOp29
 70
     1
102
RTVSPost2010Prop30
280
     1
102
RTVSPost2010PropOp30
 70
     1
102
RTVSPost2010Prop31
280
     0
102
RTVSPost2010PropOp31
 70
     1
102
RTVSPost2010Prop32
280
     0
102
RTVSPost2010PropOp32
 70
     1
102
RTVSPost2010Prop33
280
     0
102
RTVSPost2010PropOp33
 70
     1
102
RTVSPost2010Prop34
280
     0
102
RTVSPost2010PropOp34
 70
     1
102
RTVSPost2010Prop35
280
     0
102
RTVSPost2010PropOp35
 70
     1
102
RTVSPost2010Prop36
280
     0
102
RTVSPost2010PropOp36
 70
     1
102
RTVSPost2010Prop37
 90
       50
102
RTVSPost2010PropOp37
 70
     1
102
RTVSPost2010Prop38
140
0.0
102
RTVSPost2010PropOp38
 70
     1
102
RTVSPost2010Prop39
140
1.0
102
RTVSPost2010PropOp39
 70
     1
102
RTVSPost2010Prop40
 90
        0
102
RTVSPost2010PropOp40
 70
     1
102
RTVSPost2010Prop41ColorIndex
 90
       18
102
RTVSPost2010Prop41ColorRGB
 90
        0
102
RTVSPost2010PropOp41
 70
     1
102
RTVSPost2010Prop42
 90
       50
102
RTVSPost2010PropOp42
 70
     1
102
RTVSPost2010Prop43
 90
        3
102
RTVSPost2010PropOp43
 70
     1
102
RTVSPost2010Prop44ColorIndex
 90
        5
102
RTVSPost2010Prop44ColorRGB
 90
      255
102
RTVSPost2010PropOp44
 70
     1
102
RTVSPost2010Prop45
280
     0
102
RTVSPost2010PropOp45
 70
     1
102
RTVSPost2010Prop46
 90
       50
102
RTVSPost2010PropOp46
 70
     1
102
RTVSPost2010Prop47
 90
       50
102
RTVSPost2010PropOp47
 70
     1
102
RTVSPost2010Prop48
 90
       50
102
RTVSPost2010PropOp48
 70
     1
102
RTVSPost2010Prop49
280
     0
102
RTVSPost2010PropOp49
 70
     1
102
RTVSPost2010Prop50
 90
       50
102
RTVSPost2010PropOp50
 70
     1
102
RTVSPost2010Prop51ColorIndex
 90
      256
102
RTVSPost2010Prop51ColorRGB
 90
-16777216
102
RTVSPost2010PropOp51
 70
     0
102
RTVSPost2010Prop52
140
1.0
102
RTVSPost2010PropOp52
 70
     0
102
RTVSPost2010Prop53
 90
        2
102
RTVSPost2010PropOp53
 70
     1
102
RTVSPost2010Prop54
  1
strokes_ogs.tif
102
RTVSPost2010PropOp54
 70
     1
102
RTVSPost2010Prop55
280
     0
102
RTVSPost2010PropOp55
 70
     1
102
RTVSPost2010Prop56
140
1.0
102
RTVSPost2010PropOp56
 70
     1
102
RTVSPost2010Prop57
140
1.0
102
RTVSPost2010PropOp57
 70
     1
102
RTVSPropertyOp0
 70
     1
102
RTVSPropertyOp1
 70
     1
102
RTVSPropertyOp2
 70
     1
102
RTVSPropertyOp3
 70
     1
102
RTVSPropertyOp4
 70
     1
102
RTVSPropertyOp5
 70
     1
102
RTVSPropertyOp6
 70
     1
102
RTVSPropertyOp7
 70
     1
102
RTVSPropertyOp8
 70
     1
102
RTVSPropertyOp9
 70
     1
102
RTVSPropertyOp10
 70
     1
102
RTVSPropertyOp11
 70
     1
102
RTVSPropertyOp12
 70
     1
102
RTVSPropertyOp13
 70
     1
102
RTVSPropertyOp14
 70
     1
102
RTVSPropertyOp15
 70
     1
102
RTVSPropertyOp16
 70
     1
102
RTVSPropertyOp17
 70
     1
102
RTVSPropertyOp18
 70
     1
102
RTVSPropertyOp19
 70
     1
102
RTVSPropertyOp20
 70
     1
102
RTVSPropertyOp21
 70
     1
102
RTVSPropertyOp22
 70
     1
102
RTVSPropertyOp23
 70
     1
102
RTVSPropertyOp24
 70
     1
102
RTVSPropertyOp25
 70
     1
102
RTVSPropertyOp26
 70
     1
102
RTVSPropertyOp27
 70
     1
102
RTVSPropertyOp28
 70
     1
102
RTVSPropertyOp29
 70
     1
102
RTVSPropertyOp30
 70
     1
102
RTVSPropertyOp31
 70
     1
102
RTVSPropertyOp32
 70
     1
102
RTVSPropertyOp33
 70
     1
102
RTVSPropertyOp34
 70
     1
102
RTVSPropertyOp35
 70
     1
102
RTVSPropertyOp36
 70
     1
102
RTVSPropertyOp37
 70
     1
102
RTVSPropertyOp38
 70
     1
102
RTVSPropertyOp39
 70
     1
102
RTVSPropertyOp40
 70
     1
102
RTVSPropertyOp41
 70
     1
102
RTVSPropertyOp42
 70
     1
102
RTVSPropertyOp43
 70
     1
102
RTVSPropertyOp44
 70
     1
102
RTVSPropertyOp45
 70
     1
102
RTVSPropertyOp46
 70
     1
102
RTVSPropertyOp47
 70
     1
102
RTVSPropertyOp48
 70
     1
102
RTVSPropertyOp49
 70
     1
102
RTVSPropertyOp50
 70
     1
102
RTVSPropertyOp51
 70
     0
102
RTVSPropertyOp52
 70
     0
102
RTVSPropertyOp53
 70
     1
102
RTVSPropertyOp54
 70
     1
102
RTVSPropertyOp55
 70
     1
102
RTVSPropertyOp56
 70
     1
102
RTVSPropertyOp57
 70
     1
102
RTVSPropertyOp58
 70
     1
102
RTVSPropertyOp59
 70
     1
102
RTVSPropertyOp60
 70
     1
102
RTVSPropertyOp61
 70
     1
102
RTVSPropertyOp62
 70
     1
  0
XRECORD
  5
576
102
{ACAD_REACTORS
330
575
102
}
330
575
100
AcDbXrecord
280
     1
102
RTVSPost2010Prop28
280
     0
102
RTVSPost2010PropOp28
 70
     1
102
RTVSPost2010Prop29
280
     1
102
RTVSPost2010PropOp29
 70
     1
102
RTVSPost2010Prop30
280
     1
102
RTVSPost2010PropOp30
 70
     1
102
RTVSPost2010Prop31
280
     0
102
RTVSPost2010PropOp31
 70
     1
102
RTVSPost2010Prop32
280
     0
102
RTVSPost2010PropOp32
 70
     1
102
RTVSPost2010Prop33
280
     0
102
RTVSPost2010PropOp33
 70
     1
102
RTVSPost2010Prop34
280
     0
102
RTVSPost2010PropOp34
 70
     1
102
RTVSPost2010Prop35
280
     0
102
RTVSPost2010PropOp35
 70
     1
102
RTVSPost2010Prop36
280
     0
102
RTVSPost2010PropOp36
 70
     1
102
RTVSPost2010Prop37
 90
       50
102
RTVSPost2010PropOp37
 70
     1
102
RTVSPost2010Prop38
140
0.0
102
RTVSPost2010PropOp38
 70
     1
102
RTVSPost2010Prop39
140
1.0
102
RTVSPost2010PropOp39
 70
     1
102
RTVSPost2010Prop40
 90
        0
102
RTVSPost2010PropOp40
 70
     1
102
RTVSPost2010Prop41ColorIndex
 90
       18
102
RTVSPost2010Prop41ColorRGB
 90
        0
102
RTVSPost2010PropOp41
 70
     1
102
RTVSPost2010Prop42
 90
       50
102
RTVSPost2010PropOp42
 70
     1
102
RTVSPost2010Prop43
 90
        3
102
RTVSPost2010PropOp43
 70
     1
102
RTVSPost2010Prop44ColorIndex
 90
        5
102
RTVSPost2010Prop44ColorRGB
 90
      255
102
RTVSPost2010PropOp44
 70
     1
102
RTVSPost2010Prop45
280
     0
102
RTVSPost2010PropOp45
 70
     1
102
RTVSPost2010Prop46
 90
       50
102
RTVSPost2010PropOp46
 70
     1
102
RTVSPost2010Prop47
 90
       50
102
RTVSPost2010PropOp47
 70
     1
102
RTVSPost2010Prop48
 90
       50
102
RTVSPost2010PropOp48
 70
     1
102
RTVSPost2010Prop49
280
     0
102
RTVSPost2010PropOp49
 70
     1
102
RTVSPost2010Prop50
 90
       50
102
RTVSPost2010PropOp50
 70
     1
102
RTVSPost2010Prop51ColorIndex
 90
      256
102
RTVSPost2010Prop51ColorRGB
 90
-16777216
102
RTVSPost2010PropOp51
 70
     0
102
RTVSPost2010Prop52
140
1.0
102
RTVSPost2010PropOp52
 70
     0
102
RTVSPost2010Prop53
 90
        2
102
RTVSPost2010PropOp53
 70
     1
102
RTVSPost2010Prop54
  1
strokes_ogs.tif
102
RTVSPost2010PropOp54
 70
     1
102
RTVSPost2010Prop55
280
     0
102
RTVSPost2010PropOp55
 70
     1
102
RTVSPost2010Prop56
140
1.0
102
RTVSPost2010PropOp56
 70
     1
102
RTVSPost2010Prop57
140
1.0
102
RTVSPost2010PropOp57
 70
     1
102
RTVSPropertyOp0
 70
     1
102
RTVSPropertyOp1
 70
     1
102
RTVSPropertyOp2
 70
     1
102
RTVSPropertyOp3
 70
     1
102
RTVSPropertyOp4
 70
     1
102
RTVSPropertyOp5
 70
     1
102
RTVSPropertyOp6
 70
     1
102
RTVSPropertyOp7
 70
     1
102
RTVSPropertyOp8
 70
     1
102
RTVSPropertyOp9
 70
     1
102
RTVSPropertyOp10
 70
     1
102
RTVSPropertyOp11
 70
     1
102
RTVSPropertyOp12
 70
     1
102
RTVSPropertyOp13
 70
     1
102
RTVSPropertyOp14
 70
     1
102
RTVSPropertyOp15
 70
     1
102
RTVSPropertyOp16
 70
     1
102
RTVSPropertyOp17
 70
     1
102
RTVSPropertyOp18
 70
     1
102
RTVSPropertyOp19
 70
     1
102
RTVSPropertyOp20
 70
     1
102
RTVSPropertyOp21
 70
     1
102
RTVSPropertyOp22
 70
     1
102
RTVSPropertyOp23
 70
     1
102
RTVSPropertyOp24
 70
     1
102
RTVSPropertyOp25
 70
     1
102
RTVSPropertyOp26
 70
     1
102
RTVSPropertyOp27
 70
     1
102
RTVSPropertyOp28
 70
     1
102
RTVSPropertyOp29
 70
     1
102
RTVSPropertyOp30
 70
     1
102
RTVSPropertyOp31
 70
     1
102
RTVSPropertyOp32
 70
     1
102
RTVSPropertyOp33
 70
     1
102
RTVSPropertyOp34
 70
     1
102
RTVSPropertyOp35
 70
     1
102
RTVSPropertyOp36
 70
     1
102
RTVSPropertyOp37
 70
     1
102
RTVSPropertyOp38
 70
     1
102
RTVSPropertyOp39
 70
     1
102
RTVSPropertyOp40
 70
     1
102
RTVSPropertyOp41
 70
     1
102
RTVSPropertyOp42
 70
     1
102
RTVSPropertyOp43
 70
     1
102
RTVSPropertyOp44
 70
     1
102
RTVSPropertyOp45
 70
     1
102
RTVSPropertyOp46
 70
     1
102
RTVSPropertyOp47
 70
     1
102
RTVSPropertyOp48
 70
     1
102
RTVSPropertyOp49
 70
     1
102
RTVSPropertyOp50
 70
     1
102
RTVSPropertyOp51
 70
     0
102
RTVSPropertyOp52
 70
     0
102
RTVSPropertyOp53
 70
     1
102
RTVSPropertyOp54
 70
     1
102
RTVSPropertyOp55
 70
     1
102
RTVSPropertyOp56
 70
     1
102
RTVSPropertyOp57
 70
     1
102
RTVSPropertyOp58
 70
     1
102
RTVSPropertyOp59
 70
     1
102
RTVSPropertyOp60
 70
     1
102
RTVSPropertyOp61
 70
     1
102
RTVSPropertyOp62
 70
     1
  0
XRECORD
  5
570
102
{ACAD_REACTORS
330
56F
102
}
330
56F
100
AcDbXrecord
280
     1
102
RTVSPost2010Prop28
280
     0
102
RTVSPost2010PropOp28
 70
     1
102
RTVSPost2010Prop29
280
     1
102
RTVSPost2010PropOp29
 70
     1
102
RTVSPost2010Prop30
280
     1
102
RTVSPost2010PropOp30
 70
     1
102
RTVSPost2010Prop31
280
     0
102
RTVSPost2010PropOp31
 70
     1
102
RTVSPost2010Prop32
280
     0
102
RTVSPost2010PropOp32
 70
     1
102
RTVSPost2010Prop33
280
     0
102
RTVSPost2010PropOp33
 70
     1
102
RTVSPost2010Prop34
280
     0
102
RTVSPost2010PropOp34
 70
     1
102
RTVSPost2010Prop35
280
     0
102
RTVSPost2010PropOp35
 70
     1
102
RTVSPost2010Prop36
280
     0
102
RTVSPost2010PropOp36
 70
     1
102
RTVSPost2010Prop37
 90
       50
102
RTVSPost2010PropOp37
 70
     1
102
RTVSPost2010Prop38
140
0.0
102
RTVSPost2010PropOp38
 70
     1
102
RTVSPost2010Prop39
140
1.0
102
RTVSPost2010PropOp39
 70
     1
102
RTVSPost2010Prop40
 90
        0
102
RTVSPost2010PropOp40
 70
     1
102
RTVSPost2010Prop41ColorIndex
 90
       18
102
RTVSPost2010Prop41ColorRGB
 90
        0
102
RTVSPost2010PropOp41
 70
     1
102
RTVSPost2010Prop42
 90
       50
102
RTVSPost2010PropOp42
 70
     1
102
RTVSPost2010Prop43
 90
        3
102
RTVSPost2010PropOp43
 70
     1
102
RTVSPost2010Prop44ColorIndex
 90
        5
102
RTVSPost2010Prop44ColorRGB
 90
      255
102
RTVSPost2010PropOp44
 70
     1
102
RTVSPost2010Prop45
280
     0
102
RTVSPost2010PropOp45
 70
     1
102
RTVSPost2010Prop46
 90
       50
102
RTVSPost2010PropOp46
 70
     1
102
RTVSPost2010Prop47
 90
       50
102
RTVSPost2010PropOp47
 70
     1
102
RTVSPost2010Prop48
 90
       50
102
RTVSPost2010PropOp48
 70
     1
102
RTVSPost2010Prop49
280
     0
102
RTVSPost2010PropOp49
 70
     1
102
RTVSPost2010Prop50
 90
       50
102
RTVSPost2010PropOp50
 70
     1
102
RTVSPost2010Prop51ColorIndex
 90
      256
102
RTVSPost2010Prop51ColorRGB
 90
-16777216
102
RTVSPost2010PropOp51
 70
     0
102
RTVSPost2010Prop52
140
1.0
102
RTVSPost2010PropOp52
 70
     0
102
RTVSPost2010Prop53
 90
        2
102
RTVSPost2010PropOp53
 70
     1
102
RTVSPost2010Prop54
  1
strokes_ogs.tif
102
RTVSPost2010PropOp54
 70
     1
102
RTVSPost2010Prop55
280
     0
102
RTVSPost2010PropOp55
 70
     1
102
RTVSPost2010Prop56
140
1.0
102
RTVSPost2010PropOp56
 70
     1
102
RTVSPost2010Prop57
140
1.0
102
RTVSPost2010PropOp57
 70
     1
102
RTVSPropertyOp0
 70
     1
102
RTVSPropertyOp1
 70
     1
102
RTVSPropertyOp2
 70
     1
102
RTVSPropertyOp3
 70
     1
102
RTVSPropertyOp4
 70
     1
102
RTVSPropertyOp5
 70
     1
102
RTVSPropertyOp6
 70
     1
102
RTVSPropertyOp7
 70
     1
102
RTVSPropertyOp8
 70
     1
102
RTVSPropertyOp9
 70
     1
102
RTVSPropertyOp10
 70
     1
102
RTVSPropertyOp11
 70
     1
102
RTVSPropertyOp12
 70
     1
102
RTVSPropertyOp13
 70
     1
102
RTVSPropertyOp14
 70
     1
102
RTVSPropertyOp15
 70
     1
102
RTVSPropertyOp16
 70
     1
102
RTVSPropertyOp17
 70
     1
102
RTVSPropertyOp18
 70
     1
102
RTVSPropertyOp19
 70
     1
102
RTVSPropertyOp20
 70
     1
102
RTVSPropertyOp21
 70
     1
102
RTVSPropertyOp22
 70
     1
102
RTVSPropertyOp23
 70
     1
102
RTVSPropertyOp24
 70
     1
102
RTVSPropertyOp25
 70
     1
102
RTVSPropertyOp26
 70
     1
102
RTVSPropertyOp27
 70
     1
102
RTVSPropertyOp28
 70
     1
102
RTVSPropertyOp29
 70
     1
102
RTVSPropertyOp30
 70
     1
102
RTVSPropertyOp31
 70
     1
102
RTVSPropertyOp32
 70
     1
102
RTVSPropertyOp33
 70
     1
102
RTVSPropertyOp34
 70
     1
102
RTVSPropertyOp35
 70
     1
102
RTVSPropertyOp36
 70
     1
102
RTVSPropertyOp37
 70
     1
102
RTVSPropertyOp38
 70
     1
102
RTVSPropertyOp39
 70
     1
102
RTVSPropertyOp40
 70
     1
102
RTVSPropertyOp41
 70
     1
102
RTVSPropertyOp42
 70
     1
102
RTVSPropertyOp43
 70
     1
102
RTVSPropertyOp44
 70
     1
102
RTVSPropertyOp45
 70
     1
102
RTVSPropertyOp46
 70
     1
102
RTVSPropertyOp47
 70
     1
102
RTVSPropertyOp48
 70
     1
102
RTVSPropertyOp49
 70
     1
102
RTVSPropertyOp50
 70
     1
102
RTVSPropertyOp51
 70
     0
102
RTVSPropertyOp52
 70
     0
102
RTVSPropertyOp53
 70
     1
102
RTVSPropertyOp54
 70
     1
102
RTVSPropertyOp55
 70
     1
102
RTVSPropertyOp56
 70
     1
102
RTVSPropertyOp57
 70
     1
102
RTVSPropertyOp58
 70
     1
102
RTVSPropertyOp59
 70
     1
102
RTVSPropertyOp60
 70
     1
102
RTVSPropertyOp61
 70
     1
102
RTVSPropertyOp62
 70
     1
  0
XRECORD
  5
572
102
{ACAD_REACTORS
330
571
102
}
330
571
100
AcDbXrecord
280
     1
102
RTVSPost2010Prop28
280
     0
102
RTVSPost2010PropOp28
 70
     1
102
RTVSPost2010Prop29
280
     1
102
RTVSPost2010PropOp29
 70
     1
102
RTVSPost2010Prop30
280
     1
102
RTVSPost2010PropOp30
 70
     1
102
RTVSPost2010Prop31
280
     0
102
RTVSPost2010PropOp31
 70
     1
102
RTVSPost2010Prop32
280
     0
102
RTVSPost2010PropOp32
 70
     1
102
RTVSPost2010Prop33
280
     0
102
RTVSPost2010PropOp33
 70
     1
102
RTVSPost2010Prop34
280
     0
102
RTVSPost2010PropOp34
 70
     1
102
RTVSPost2010Prop35
280
     0
102
RTVSPost2010PropOp35
 70
     1
102
RTVSPost2010Prop36
280
     0
102
RTVSPost2010PropOp36
 70
     1
102
RTVSPost2010Prop37
 90
       50
102
RTVSPost2010PropOp37
 70
     1
102
RTVSPost2010Prop38
140
0.0
102
RTVSPost2010PropOp38
 70
     1
102
RTVSPost2010Prop39
140
1.0
102
RTVSPost2010PropOp39
 70
     1
102
RTVSPost2010Prop40
 90
        0
102
RTVSPost2010PropOp40
 70
     1
102
RTVSPost2010Prop41ColorIndex
 90
       18
102
RTVSPost2010Prop41ColorRGB
 90
        0
102
RTVSPost2010PropOp41
 70
     1
102
RTVSPost2010Prop42
 90
       50
102
RTVSPost2010PropOp42
 70
     1
102
RTVSPost2010Prop43
 90
        3
102
RTVSPost2010PropOp43
 70
     1
102
RTVSPost2010Prop44ColorIndex
 90
        5
102
RTVSPost2010Prop44ColorRGB
 90
      255
102
RTVSPost2010PropOp44
 70
     1
102
RTVSPost2010Prop45
280
     0
102
RTVSPost2010PropOp45
 70
     1
102
RTVSPost2010Prop46
 90
       50
102
RTVSPost2010PropOp46
 70
     1
102
RTVSPost2010Prop47
 90
       50
102
RTVSPost2010PropOp47
 70
     1
102
RTVSPost2010Prop48
 90
       50
102
RTVSPost2010PropOp48
 70
     1
102
RTVSPost2010Prop49
280
     0
102
RTVSPost2010PropOp49
 70
     1
102
RTVSPost2010Prop50
 90
       50
102
RTVSPost2010PropOp50
 70
     1
102
RTVSPost2010Prop51ColorIndex
 90
      256
102
RTVSPost2010Prop51ColorRGB
 90
-16777216
102
RTVSPost2010PropOp51
 70
     0
102
RTVSPost2010Prop52
140
1.0
102
RTVSPost2010PropOp52
 70
     0
102
RTVSPost2010Prop53
 90
        2
102
RTVSPost2010PropOp53
 70
     1
102
RTVSPost2010Prop54
  1
strokes_ogs.tif
102
RTVSPost2010PropOp54
 70
     1
102
RTVSPost2010Prop55
280
     0
102
RTVSPost2010PropOp55
 70
     1
102
RTVSPost2010Prop56
140
1.0
102
RTVSPost2010PropOp56
 70
     1
102
RTVSPost2010Prop57
140
1.0
102
RTVSPost2010PropOp57
 70
     1
102
RTVSPropertyOp0
 70
     1
102
RTVSPropertyOp1
 70
     1
102
RTVSPropertyOp2
 70
     1
102
RTVSPropertyOp3
 70
     1
102
RTVSPropertyOp4
 70
     1
102
RTVSPropertyOp5
 70
     1
102
RTVSPropertyOp6
 70
     1
102
RTVSPropertyOp7
 70
     1
102
RTVSPropertyOp8
 70
     1
102
RTVSPropertyOp9
 70
     1
102
RTVSPropertyOp10
 70
     1
102
RTVSPropertyOp11
 70
     1
102
RTVSPropertyOp12
 70
     1
102
RTVSPropertyOp13
 70
     1
102
RTVSPropertyOp14
 70
     1
102
RTVSPropertyOp15
 70
     1
102
RTVSPropertyOp16
 70
     1
102
RTVSPropertyOp17
 70
     1
102
RTVSPropertyOp18
 70
     1
102
RTVSPropertyOp19
 70
     1
102
RTVSPropertyOp20
 70
     1
102
RTVSPropertyOp21
 70
     1
102
RTVSPropertyOp22
 70
     1
102
RTVSPropertyOp23
 70
     1
102
RTVSPropertyOp24
 70
     1
102
RTVSPropertyOp25
 70
     1
102
RTVSPropertyOp26
 70
     1
102
RTVSPropertyOp27
 70
     1
102
RTVSPropertyOp28
 70
     1
102
RTVSPropertyOp29
 70
     1
102
RTVSPropertyOp30
 70
     1
102
RTVSPropertyOp31
 70
     1
102
RTVSPropertyOp32
 70
     1
102
RTVSPropertyOp33
 70
     1
102
RTVSPropertyOp34
 70
     1
102
RTVSPropertyOp35
 70
     1
102
RTVSPropertyOp36
 70
     1
102
RTVSPropertyOp37
 70
     1
102
RTVSPropertyOp38
 70
     1
102
RTVSPropertyOp39
 70
     1
102
RTVSPropertyOp40
 70
     1
102
RTVSPropertyOp41
 70
     1
102
RTVSPropertyOp42
 70
     1
102
RTVSPropertyOp43
 70
     1
102
RTVSPropertyOp44
 70
     1
102
RTVSPropertyOp45
 70
     1
102
RTVSPropertyOp46
 70
     1
102
RTVSPropertyOp47
 70
     1
102
RTVSPropertyOp48
 70
     1
102
RTVSPropertyOp49
 70
     1
102
RTVSPropertyOp50
 70
     1
102
RTVSPropertyOp51
 70
     0
102
RTVSPropertyOp52
 70
     0
102
RTVSPropertyOp53
 70
     1
102
RTVSPropertyOp54
 70
     1
102
RTVSPropertyOp55
 70
     1
102
RTVSPropertyOp56
 70
     1
102
RTVSPropertyOp57
 70
     1
102
RTVSPropertyOp58
 70
     1
102
RTVSPropertyOp59
 70
     1
102
RTVSPropertyOp60
 70
     1
102
RTVSPropertyOp61
 70
     1
102
RTVSPropertyOp62
 70
     1
  0
XRECORD
  5
568
102
{ACAD_REACTORS
330
567
102
}
330
567
100
AcDbXrecord
280
     1
102
RTVSPost2010Prop28
280
     0
102
RTVSPost2010PropOp28
 70
     1
102
RTVSPost2010Prop29
280
     1
102
RTVSPost2010PropOp29
 70
     1
102
RTVSPost2010Prop30
280
     1
102
RTVSPost2010PropOp30
 70
     1
102
RTVSPost2010Prop31
280
     0
102
RTVSPost2010PropOp31
 70
     1
102
RTVSPost2010Prop32
280
     0
102
RTVSPost2010PropOp32
 70
     1
102
RTVSPost2010Prop33
280
     0
102
RTVSPost2010PropOp33
 70
     1
102
RTVSPost2010Prop34
280
     0
102
RTVSPost2010PropOp34
 70
     1
102
RTVSPost2010Prop35
280
     0
102
RTVSPost2010PropOp35
 70
     1
102
RTVSPost2010Prop36
280
     0
102
RTVSPost2010PropOp36
 70
     1
102
RTVSPost2010Prop37
 90
       50
102
RTVSPost2010PropOp37
 70
     1
102
RTVSPost2010Prop38
140
0.0
102
RTVSPost2010PropOp38
 70
     1
102
RTVSPost2010Prop39
140
1.0
102
RTVSPost2010PropOp39
 70
     1
102
RTVSPost2010Prop40
 90
        0
102
RTVSPost2010PropOp40
 70
     1
102
RTVSPost2010Prop41ColorIndex
 90
       18
102
RTVSPost2010Prop41ColorRGB
 90
        0
102
RTVSPost2010PropOp41
 70
     1
102
RTVSPost2010Prop42
 90
       50
102
RTVSPost2010PropOp42
 70
     1
102
RTVSPost2010Prop43
 90
        3
102
RTVSPost2010PropOp43
 70
     1
102
RTVSPost2010Prop44ColorIndex
 90
        5
102
RTVSPost2010Prop44ColorRGB
 90
      255
102
RTVSPost2010PropOp44
 70
     1
102
RTVSPost2010Prop45
280
     0
102
RTVSPost2010PropOp45
 70
     1
102
RTVSPost2010Prop46
 90
       50
102
RTVSPost2010PropOp46
 70
     1
102
RTVSPost2010Prop47
 90
       50
102
RTVSPost2010PropOp47
 70
     1
102
RTVSPost2010Prop48
 90
       50
102
RTVSPost2010PropOp48
 70
     1
102
RTVSPost2010Prop49
280
     0
102
RTVSPost2010PropOp49
 70
     1
102
RTVSPost2010Prop50
 90
       50
102
RTVSPost2010PropOp50
 70
     1
102
RTVSPost2010Prop51ColorIndex
 90
      256
102
RTVSPost2010Prop51ColorRGB
 90
-16777216
102
RTVSPost2010PropOp51
 70
     0
102
RTVSPost2010Prop52
140
1.0
102
RTVSPost2010PropOp52
 70
     0
102
RTVSPost2010Prop53
 90
        2
102
RTVSPost2010PropOp53
 70
     1
102
RTVSPost2010Prop54
  1
strokes_ogs.tif
102
RTVSPost2010PropOp54
 70
     1
102
RTVSPost2010Prop55
280
     0
102
RTVSPost2010PropOp55
 70
     1
102
RTVSPost2010Prop56
140
1.0
102
RTVSPost2010PropOp56
 70
     1
102
RTVSPost2010Prop57
140
1.0
102
RTVSPost2010PropOp57
 70
     1
102
RTVSPropertyOp0
 70
     1
102
RTVSPropertyOp1
 70
     1
102
RTVSPropertyOp2
 70
     1
102
RTVSPropertyOp3
 70
     1
102
RTVSPropertyOp4
 70
     1
102
RTVSPropertyOp5
 70
     1
102
RTVSPropertyOp6
 70
     1
102
RTVSPropertyOp7
 70
     1
102
RTVSPropertyOp8
 70
     1
102
RTVSPropertyOp9
 70
     1
102
RTVSPropertyOp10
 70
     1
102
RTVSPropertyOp11
 70
     1
102
RTVSPropertyOp12
 70
     1
102
RTVSPropertyOp13
 70
     1
102
RTVSPropertyOp14
 70
     1
102
RTVSPropertyOp15
 70
     1
102
RTVSPropertyOp16
 70
     1
102
RTVSPropertyOp17
 70
     1
102
RTVSPropertyOp18
 70
     1
102
RTVSPropertyOp19
 70
     1
102
RTVSPropertyOp20
 70
     1
102
RTVSPropertyOp21
 70
     1
102
RTVSPropertyOp22
 70
     1
102
RTVSPropertyOp23
 70
     1
102
RTVSPropertyOp24
 70
     1
102
RTVSPropertyOp25
 70
     1
102
RTVSPropertyOp26
 70
     1
102
RTVSPropertyOp27
 70
     1
102
RTVSPropertyOp28
 70
     1
102
RTVSPropertyOp29
 70
     1
102
RTVSPropertyOp30
 70
     1
102
RTVSPropertyOp31
 70
     1
102
RTVSPropertyOp32
 70
     1
102
RTVSPropertyOp33
 70
     1
102
RTVSPropertyOp34
 70
     1
102
RTVSPropertyOp35
 70
     1
102
RTVSPropertyOp36
 70
     1
102
RTVSPropertyOp37
 70
     1
102
RTVSPropertyOp38
 70
     1
102
RTVSPropertyOp39
 70
     1
102
RTVSPropertyOp40
 70
     1
102
RTVSPropertyOp41
 70
     1
102
RTVSPropertyOp42
 70
     1
102
RTVSPropertyOp43
 70
     1
102
RTVSPropertyOp44
 70
     1
102
RTVSPropertyOp45
 70
     1
102
RTVSPropertyOp46
 70
     1
102
RTVSPropertyOp47
 70
     1
102
RTVSPropertyOp48
 70
     1
102
RTVSPropertyOp49
 70
     1
102
RTVSPropertyOp50
 70
     1
102
RTVSPropertyOp51
 70
     0
102
RTVSPropertyOp52
 70
     0
102
RTVSPropertyOp53
 70
     1
102
RTVSPropertyOp54
 70
     1
102
RTVSPropertyOp55
 70
     1
102
RTVSPropertyOp56
 70
     1
102
RTVSPropertyOp57
 70
     1
102
RTVSPropertyOp58
 70
     1
102
RTVSPropertyOp59
 70
     1
102
RTVSPropertyOp60
 70
     1
102
RTVSPropertyOp61
 70
     1
102
RTVSPropertyOp62
 70
     1
  0
XRECORD
  5
55C
102
{ACAD_REACTORS
330
55B
102
}
330
55B
100
AcDbXrecord
280
     1
102
RTVSPost2010Prop28
280
     0
102
RTVSPost2010PropOp28
 70
     1
102
RTVSPost2010Prop29
280
     1
102
RTVSPost2010PropOp29
 70
     1
102
RTVSPost2010Prop30
280
     1
102
RTVSPost2010PropOp30
 70
     1
102
RTVSPost2010Prop31
280
     0
102
RTVSPost2010PropOp31
 70
     1
102
RTVSPost2010Prop32
280
     0
102
RTVSPost2010PropOp32
 70
     1
102
RTVSPost2010Prop33
280
     0
102
RTVSPost2010PropOp33
 70
     1
102
RTVSPost2010Prop34
280
     0
102
RTVSPost2010PropOp34
 70
     1
102
RTVSPost2010Prop35
280
     0
102
RTVSPost2010PropOp35
 70
     1
102
RTVSPost2010Prop36
280
     0
102
RTVSPost2010PropOp36
 70
     1
102
RTVSPost2010Prop37
 90
       50
102
RTVSPost2010PropOp37
 70
     1
102
RTVSPost2010Prop38
140
0.0
102
RTVSPost2010PropOp38
 70
     1
102
RTVSPost2010Prop39
140
1.0
102
RTVSPost2010PropOp39
 70
     1
102
RTVSPost2010Prop40
 90
        0
102
RTVSPost2010PropOp40
 70
     1
102
RTVSPost2010Prop41ColorIndex
 90
       18
102
RTVSPost2010Prop41ColorRGB
 90
        0
102
RTVSPost2010PropOp41
 70
     1
102
RTVSPost2010Prop42
 90
       50
102
RTVSPost2010PropOp42
 70
     1
102
RTVSPost2010Prop43
 90
        3
102
RTVSPost2010PropOp43
 70
     1
102
RTVSPost2010Prop44ColorIndex
 90
        5
102
RTVSPost2010Prop44ColorRGB
 90
      255
102
RTVSPost2010PropOp44
 70
     1
102
RTVSPost2010Prop45
280
     0
102
RTVSPost2010PropOp45
 70
     1
102
RTVSPost2010Prop46
 90
       50
102
RTVSPost2010PropOp46
 70
     1
102
RTVSPost2010Prop47
 90
       50
102
RTVSPost2010PropOp47
 70
     1
102
RTVSPost2010Prop48
 90
       50
102
RTVSPost2010PropOp48
 70
     1
102
RTVSPost2010Prop49
280
     0
102
RTVSPost2010PropOp49
 70
     1
102
RTVSPost2010Prop50
 90
       50
102
RTVSPost2010PropOp50
 70
     1
102
RTVSPost2010Prop51ColorIndex
 90
      256
102
RTVSPost2010Prop51ColorRGB
 90
-16777216
102
RTVSPost2010PropOp51
 70
     0
102
RTVSPost2010Prop52
140
1.0
102
RTVSPost2010PropOp52
 70
     0
102
RTVSPost2010Prop53
 90
        2
102
RTVSPost2010PropOp53
 70
     1
102
RTVSPost2010Prop54
  1
strokes_ogs.tif
102
RTVSPost2010PropOp54
 70
     1
102
RTVSPost2010Prop55
280
     0
102
RTVSPost2010PropOp55
 70
     1
102
RTVSPost2010Prop56
140
1.0
102
RTVSPost2010PropOp56
 70
     1
102
RTVSPost2010Prop57
140
1.0
102
RTVSPost2010PropOp57
 70
     1
102
RTVSPropertyOp0
 70
     1
102
RTVSPropertyOp1
 70
     1
102
RTVSPropertyOp2
 70
     1
102
RTVSPropertyOp3
 70
     1
102
RTVSPropertyOp4
 70
     1
102
RTVSPropertyOp5
 70
     1
102
RTVSPropertyOp6
 70
     1
102
RTVSPropertyOp7
 70
     1
102
RTVSPropertyOp8
 70
     1
102
RTVSPropertyOp9
 70
     1
102
RTVSPropertyOp10
 70
     1
102
RTVSPropertyOp11
 70
     1
102
RTVSPropertyOp12
 70
     1
102
RTVSPropertyOp13
 70
     1
102
RTVSPropertyOp14
 70
     1
102
RTVSPropertyOp15
 70
     1
102
RTVSPropertyOp16
 70
     1
102
RTVSPropertyOp17
 70
     1
102
RTVSPropertyOp18
 70
     1
102
RTVSPropertyOp19
 70
     1
102
RTVSPropertyOp20
 70
     1
102
RTVSPropertyOp21
 70
     1
102
RTVSPropertyOp22
 70
     1
102
RTVSPropertyOp23
 70
     1
102
RTVSPropertyOp24
 70
     1
102
RTVSPropertyOp25
 70
     1
102
RTVSPropertyOp26
 70
     1
102
RTVSPropertyOp27
 70
     1
102
RTVSPropertyOp28
 70
     1
102
RTVSPropertyOp29
 70
     1
102
RTVSPropertyOp30
 70
     1
102
RTVSPropertyOp31
 70
     1
102
RTVSPropertyOp32
 70
     1
102
RTVSPropertyOp33
 70
     1
102
RTVSPropertyOp34
 70
     1
102
RTVSPropertyOp35
 70
     1
102
RTVSPropertyOp36
 70
     1
102
RTVSPropertyOp37
 70
     1
102
RTVSPropertyOp38
 70
     1
102
RTVSPropertyOp39
 70
     1
102
RTVSPropertyOp40
 70
     1
102
RTVSPropertyOp41
 70
     1
102
RTVSPropertyOp42
 70
     1
102
RTVSPropertyOp43
 70
     1
102
RTVSPropertyOp44
 70
     1
102
RTVSPropertyOp45
 70
     1
102
RTVSPropertyOp46
 70
     1
102
RTVSPropertyOp47
 70
     1
102
RTVSPropertyOp48
 70
     1
102
RTVSPropertyOp49
 70
     1
102
RTVSPropertyOp50
 70
     1
102
RTVSPropertyOp51
 70
     0
102
RTVSPropertyOp52
 70
     0
102
RTVSPropertyOp53
 70
     1
102
RTVSPropertyOp54
 70
     1
102
RTVSPropertyOp55
 70
     1
102
RTVSPropertyOp56
 70
     1
102
RTVSPropertyOp57
 70
     1
102
RTVSPropertyOp58
 70
     1
102
RTVSPropertyOp59
 70
     1
102
RTVSPropertyOp60
 70
     1
102
RTVSPropertyOp61
 70
     1
102
RTVSPropertyOp62
 70
     1
  0
XRECORD
  5
574
102
{ACAD_REACTORS
330
573
102
}
330
573
100
AcDbXrecord
280
     1
102
RTVSPost2010Prop28
280
     0
102
RTVSPost2010PropOp28
 70
     1
102
RTVSPost2010Prop29
280
     1
102
RTVSPost2010PropOp29
 70
     1
102
RTVSPost2010Prop30
280
     1
102
RTVSPost2010PropOp30
 70
     1
102
RTVSPost2010Prop31
280
     0
102
RTVSPost2010PropOp31
 70
     1
102
RTVSPost2010Prop32
280
     0
102
RTVSPost2010PropOp32
 70
     1
102
RTVSPost2010Prop33
280
     0
102
RTVSPost2010PropOp33
 70
     1
102
RTVSPost2010Prop34
280
     0
102
RTVSPost2010PropOp34
 70
     1
102
RTVSPost2010Prop35
280
     0
102
RTVSPost2010PropOp35
 70
     1
102
RTVSPost2010Prop36
280
     0
102
RTVSPost2010PropOp36
 70
     1
102
RTVSPost2010Prop37
 90
       50
102
RTVSPost2010PropOp37
 70
     1
102
RTVSPost2010Prop38
140
0.0
102
RTVSPost2010PropOp38
 70
     1
102
RTVSPost2010Prop39
140
1.0
102
RTVSPost2010PropOp39
 70
     1
102
RTVSPost2010Prop40
 90
        0
102
RTVSPost2010PropOp40
 70
     1
102
RTVSPost2010Prop41ColorIndex
 90
       18
102
RTVSPost2010Prop41ColorRGB
 90
        0
102
RTVSPost2010PropOp41
 70
     1
102
RTVSPost2010Prop42
 90
       50
102
RTVSPost2010PropOp42
 70
     1
102
RTVSPost2010Prop43
 90
        3
102
RTVSPost2010PropOp43
 70
     1
102
RTVSPost2010Prop44ColorIndex
 90
        5
102
RTVSPost2010Prop44ColorRGB
 90
      255
102
RTVSPost2010PropOp44
 70
     1
102
RTVSPost2010Prop45
280
     0
102
RTVSPost2010PropOp45
 70
     1
102
RTVSPost2010Prop46
 90
       50
102
RTVSPost2010PropOp46
 70
     1
102
RTVSPost2010Prop47
 90
       50
102
RTVSPost2010PropOp47
 70
     1
102
RTVSPost2010Prop48
 90
       50
102
RTVSPost2010PropOp48
 70
     1
102
RTVSPost2010Prop49
280
     0
102
RTVSPost2010PropOp49
 70
     1
102
RTVSPost2010Prop50
 90
       50
102
RTVSPost2010PropOp50
 70
     1
102
RTVSPost2010Prop51ColorIndex
 90
      256
102
RTVSPost2010Prop51ColorRGB
 90
-16777216
102
RTVSPost2010PropOp51
 70
     0
102
RTVSPost2010Prop52
140
1.0
102
RTVSPost2010PropOp52
 70
     0
102
RTVSPost2010Prop53
 90
        2
102
RTVSPost2010PropOp53
 70
     1
102
RTVSPost2010Prop54
  1
strokes_ogs.tif
102
RTVSPost2010PropOp54
 70
     1
102
RTVSPost2010Prop55
280
     0
102
RTVSPost2010PropOp55
 70
     1
102
RTVSPost2010Prop56
140
1.0
102
RTVSPost2010PropOp56
 70
     1
102
RTVSPost2010Prop57
140
1.0
102
RTVSPost2010PropOp57
 70
     1
102
RTVSPropertyOp0
 70
     1
102
RTVSPropertyOp1
 70
     1
102
RTVSPropertyOp2
 70
     1
102
RTVSPropertyOp3
 70
     1
102
RTVSPropertyOp4
 70
     1
102
RTVSPropertyOp5
 70
     1
102
RTVSPropertyOp6
 70
     1
102
RTVSPropertyOp7
 70
     1
102
RTVSPropertyOp8
 70
     1
102
RTVSPropertyOp9
 70
     1
102
RTVSPropertyOp10
 70
     1
102
RTVSPropertyOp11
 70
     1
102
RTVSPropertyOp12
 70
     1
102
RTVSPropertyOp13
 70
     1
102
RTVSPropertyOp14
 70
     1
102
RTVSPropertyOp15
 70
     1
102
RTVSPropertyOp16
 70
     1
102
RTVSPropertyOp17
 70
     1
102
RTVSPropertyOp18
 70
     1
102
RTVSPropertyOp19
 70
     1
102
RTVSPropertyOp20
 70
     1
102
RTVSPropertyOp21
 70
     1
102
RTVSPropertyOp22
 70
     1
102
RTVSPropertyOp23
 70
     1
102
RTVSPropertyOp24
 70
     1
102
RTVSPropertyOp25
 70
     1
102
RTVSPropertyOp26
 70
     1
102
RTVSPropertyOp27
 70
     1
102
RTVSPropertyOp28
 70
     1
102
RTVSPropertyOp29
 70
     1
102
RTVSPropertyOp30
 70
     1
102
RTVSPropertyOp31
 70
     1
102
RTVSPropertyOp32
 70
     1
102
RTVSPropertyOp33
 70
     1
102
RTVSPropertyOp34
 70
     1
102
RTVSPropertyOp35
 70
     1
102
RTVSPropertyOp36
 70
     1
102
RTVSPropertyOp37
 70
     1
102
RTVSPropertyOp38
 70
     1
102
RTVSPropertyOp39
 70
     1
102
RTVSPropertyOp40
 70
     1
102
RTVSPropertyOp41
 70
     1
102
RTVSPropertyOp42
 70
     1
102
RTVSPropertyOp43
 70
     1
102
RTVSPropertyOp44
 70
     1
102
RTVSPropertyOp45
 70
     1
102
RTVSPropertyOp46
 70
     1
102
RTVSPropertyOp47
 70
     1
102
RTVSPropertyOp48
 70
     1
102
RTVSPropertyOp49
 70
     1
102
RTVSPropertyOp50
 70
     1
102
RTVSPropertyOp51
 70
     0
102
RTVSPropertyOp52
 70
     0
102
RTVSPropertyOp53
 70
     1
102
RTVSPropertyOp54
 70
     1
102
RTVSPropertyOp55
 70
     1
102
RTVSPropertyOp56
 70
     1
102
RTVSPropertyOp57
 70
     1
102
RTVSPropertyOp58
 70
     1
102
RTVSPropertyOp59
 70
     1
102
RTVSPropertyOp60
 70
     1
102
RTVSPropertyOp61
 70
     1
102
RTVSPropertyOp62
 70
     1
  0
ENDSEC
  0
EOF
