  0
SECTION
  2
HEADER
  9
$ACADVER
  1
AC1015
  9
$ACADMAINTVER
 70
    20
  9
$DWGCODEPAGE
  3
ANSI_1252
  9
$INSBASE
 10
0.0
 20
0.0
 30
0.0
  9
$EXTMIN
 10
-17.800514
 20
-35.53612200000002
 30
0.0
  9
$EXTMAX
 10
35.000695
 20
32.082752
 30
0.0
  9
$LIMMIN
 10
0.0
 20
0.0
  9
$LIMMAX
 10
12.0
 20
9.0
  9
$ORTHOMODE
 70
     0
  9
$REGENMODE
 70
     1
  9
$FILLMODE
 70
     1
  9
$QTEXTMODE
 70
     0
  9
$MIRRTEXT
 70
     1
  9
$LTSCALE
 40
1.0
  9
$ATTMODE
 70
     1
  9
$TEXTSIZE
 40
3.0
  9
$TRACEWID
 40
10.0
  9
$TEXTSTYLE
  7
SANDVIK_STYLE
  9
$CLAYER
  8
1
  9
$CELTYPE
  6
ByLayer
  9
$CECOLOR
 62
   256
  9
$CELTSCALE
 40
1.0
  9
$DISPSILH
 70
     0
  9
$DIMSCALE
 40
1.0
  9
$DIMASZ
 40
0.18
  9
$DIMEXO
 40
0.0625
  9
$DIMDLI
 40
0.38
  9
$DIMRND
 40
0.0
  9
$DIMDLE
 40
0.0
  9
$DIMEXE
 40
0.18
  9
$DIMTP
 40
0.0
  9
$DIMTM
 40
0.0
  9
$DIMTXT
 40
0.18
  9
$DIMCEN
 40
0.09
  9
$DIMTSZ
 40
0.0
  9
$DIMTOL
 70
     0
  9
$DIMLIM
 70
     0
  9
$DIMTIH
 70
     1
  9
$DIMTOH
 70
     1
  9
$DIMSE1
 70
     0
  9
$DIMSE2
 70
     0
  9
$DIMTAD
 70
     0
  9
$DIMZIN
 70
     0
  9
$DIMBLK
  1

  9
$DIMASO
 70
     1
  9
$DIMSHO
 70
     1
  9
$DIMPOST
  1

  9
$DIMAPOST
  1

  9
$DIMALT
 70
     0
  9
$DIMALTD
 70
     2
  9
$DIMALTF
 40
25.4
  9
$DIMLFAC
 40
1.0
  9
$DIMTOFL
 70
     0
  9
$DIMTVP
 40
0.0
  9
$DIMTIX
 70
     0
  9
$DIMSOXD
 70
     0
  9
$DIMSAH
 70
     0
  9
$DIMBLK1
  1

  9
$DIMBLK2
  1

  9
$DIMSTYLE
  2
STANDARD
  9
$DIMCLRD
 70
     0
  9
$DIMCLRE
 70
     0
  9
$DIMCLRT
 70
     0
  9
$DIMTFAC
 40
1.0
  9
$DIMGAP
 40
0.09
  9
$DIMJUST
 70
     0
  9
$DIMSD1
 70
     0
  9
$DIMSD2
 70
     0
  9
$DIMTOLJ
 70
     1
  9
$DIMTZIN
 70
     0
  9
$DIMALTZ
 70
     0
  9
$DIMALTTZ
 70
     0
  9
$DIMUPT
 70
     0
  9
$DIMDEC
 70
     4
  9
$DIMTDEC
 70
     4
  9
$DIMALTU
 70
     2
  9
$DIMALTTD
 70
     2
  9
$DIMTXSTY
  7
STANDARD
  9
$DIMAUNIT
 70
     0
  9
$DIMADEC
 70
     0
  9
$DIMALTRND
 40
0.0
  9
$DIMAZIN
 70
     0
  9
$DIMDSEP
 70
    46
  9
$DIMATFIT
 70
     3
  9
$DIMFRAC
 70
     0
  9
$DIMLDRBLK
  1

  9
$DIMLUNIT
 70
     2
  9
$DIMLWD
 70
    -2
  9
$DIMLWE
 70
    -2
  9
$DIMTMOVE
 70
     0
  9
$LUNITS
 70
     2
  9
$LUPREC
 70
     2
  9
$SKETCHINC
 40
0.0
  9
$FILLETRAD
 40
0.0
  9
$AUNITS
 70
     0
  9
$AUPREC
 70
     2
  9
$MENU
  1
acad
  9
$ELEVATION
 40
0.0
  9
$PELEVATION
 40
0.0
  9
$THICKNESS
 40
0.0
  9
$LIMCHECK
 70
     0
  9
$CHAMFERA
 40
0.0
  9
$CHAMFERB
 40
0.0
  9
$CHAMFERC
 40
0.0
  9
$CHAMFERD
 40
0.0
  9
$SKPOLY
 70
     0
  9
$TDCREATE
 40
2456818.319578195
  9
$TDUCREATE
 40
2456818.236244861
  9
$TDUPDATE
 40
2456818.319582477
  9
$TDUUPDATE
 40
2456818.236249144
  9
$TDINDWG
 40
0.0000050463
  9
$TDUSRTIMER
 40
0.0000050463
  9
$USRTIMER
 70
     1
  9
$ANGBASE
 50
0.0
  9
$ANGDIR
 70
     0
  9
$PDMODE
 70
     0
  9
$PDSIZE
 40
0.0
  9
$PLINEWID
 40
0.0
  9
$SPLFRAME
 70
     0
  9
$SPLINETYPE
 70
     6
  9
$SPLINESEGS
 70
     8
  9
$HANDSEED
  5
584
  9
$SURFTAB1
 70
     6
  9
$SURFTAB2
 70
     6
  9
$SURFTYPE
 70
     6
  9
$SURFU
 70
     6
  9
$SURFV
 70
     6
  9
$UCSBASE
  2

  9
$UCSNAME
  2

  9
$UCSORG
 10
0.0
 20
0.0
 30
0.0
  9
$UCSXDIR
 10
1.0
 20
0.0
 30
0.0
  9
$UCSYDIR
 10
0.0
 20
1.0
 30
0.0
  9
$UCSORTHOREF
  2

  9
$UCSORTHOVIEW
 70
     0
  9
$UCSORGTOP
 10
0.0
 20
0.0
 30
0.0
  9
$UCSORGBOTTOM
 10
0.0
 20
0.0
 30
0.0
  9
$UCSORGLEFT
 10
0.0
 20
0.0
 30
0.0
  9
$UCSORGRIGHT
 10
0.0
 20
0.0
 30
0.0
  9
$UCSORGFRONT
 10
0.0
 20
0.0
 30
0.0
  9
$UCSORGBACK
 10
0.0
 20
0.0
 30
0.0
  9
$PUCSBASE
  2

  9
$PUCSNAME
  2

  9
$PUCSORG
 10
0.0
 20
0.0
 30
0.0
  9
$PUCSXDIR
 10
1.0
 20
0.0
 30
0.0
  9
$PUCSYDIR
 10
0.0
 20
1.0
 30
0.0
  9
$PUCSORTHOREF
  2

  9
$PUCSORTHOVIEW
 70
     0
  9
$PUCSORGTOP
 10
0.0
 20
0.0
 30
0.0
  9
$PUCSORGBOTTOM
 10
0.0
 20
0.0
 30
0.0
  9
$PUCSORGLEFT
 10
0.0
 20
0.0
 30
0.0
  9
$PUCSORGRIGHT
 10
0.0
 20
0.0
 30
0.0
  9
$PUCSORGFRONT
 10
0.0
 20
0.0
 30
0.0
  9
$PUCSORGBACK
 10
0.0
 20
0.0
 30
0.0
  9
$USERI1
 70
     0
  9
$USERI2
 70
     0
  9
$USERI3
 70
     0
  9
$USERI4
 70
     0
  9
$USERI5
 70
     0
  9
$USERR1
 40
0.0
  9
$USERR2
 40
0.0
  9
$USERR3
 40
0.0
  9
$USERR4
 40
0.0
  9
$USERR5
 40
0.0
  9
$WORLDVIEW
 70
     1
  9
$SHADEDGE
 70
     3
  9
$SHADEDIF
 70
    70
  9
$TILEMODE
 70
     1
  9
$MAXACTVP
 70
    16
  9
$PINSBASE
 10
0.0
 20
0.0
 30
0.0
  9
$PLIMCHECK
 70
     0
  9
$PEXTMIN
 10
1.000000000000000E+20
 20
1.000000000000000E+20
 30
1.000000000000000E+20
  9
$PEXTMAX
 10
-1.000000000000000E+20
 20
-1.000000000000000E+20
 30
-1.000000000000000E+20
  9
$PLIMMIN
 10
0.0
 20
0.0
  9
$PLIMMAX
 10
12.0
 20
9.0
  9
$UNITMODE
 70
     0
  9
$VISRETAIN
 70
     0
  9
$PLINEGEN
 70
     0
  9
$PSLTSCALE
 70
     1
  9
$TREEDEPTH
 70
  3020
  9
$CMLSTYLE
  2
Standard
  9
$CMLJUST
 70
     0
  9
$CMLSCALE
 40
1.0
  9
$PROXYGRAPHICS
 70
     1
  9
$MEASUREMENT
 70
     0
  9
$CELWEIGHT
370
    -1
  9
$ENDCAPS
280
     0
  9
$JOINSTYLE
280
     0
  9
$LWDISPLAY
290
     0
  9
$INSUNITS
 70
     0
  9
$HYPERLINKBASE
  1

  9
$STYLESHEET
  1

  9
$XEDIT
290
     1
  9
$CEPSNTYPE
380
     0
  9
$PSTYLEMODE
290
     1
  9
$FINGERPRINTGUID
  2
{A3569A6C-5156-428E-9FD2-23B59ACCAAA4}
  9
$VERSIONGUID
  2
{7E981361-1D53-4680-BDA4-AA5799B59644}
  9
$EXTNAMES
290
     1
  9
$PSVPSCALE
 40
0.0
  9
$OLESTARTUP
290
     0
  0
ENDSEC
  0
SECTION
  2
CLASSES
  0
CLASS
  1
ACDBDICTIONARYWDFLT
  2
AcDbDictionaryWithDefault
  3
ObjectDBX Classes
 90
        0
280
     0
281
     0
  0
CLASS
  1
MATERIAL
  2
AcDbMaterial
  3
ObjectDBX Classes
 90
     1153
280
     0
281
     0
  0
CLASS
  1
VISUALSTYLE
  2
AcDbVisualStyle
  3
ObjectDBX Classes
 90
     4095
280
     0
281
     0
  0
CLASS
  1
SCALE
  2
AcDbScale
  3
ObjectDBX Classes
 90
     1153
280
     0
281
     0
  0
CLASS
  1
TABLESTYLE
  2
AcDbTableStyle
  3
ObjectDBX Classes
 90
     4095
280
     0
281
     0
  0
CLASS
  1
MLEADERSTYLE
  2
AcDbMLeaderStyle
  3
ACDB_MLEADERSTYLE_CLASS
 90
     4095
280
     0
281
     0
  0
CLASS
  1
ACDBSECTIONVIEWSTYLE
  2
AcDbSectionViewStyle
  3
ObjectDBX Classes
 90
     1025
280
     0
281
     0
  0
CLASS
  1
ACDBDETAILVIEWSTYLE
  2
AcDbDetailViewStyle
  3
ObjectDBX Classes
 90
     1025
280
     0
281
     0
  0
CLASS
  1
EXACXREFPANELOBJECT
  2
ExAcXREFPanelObject
  3
EXAC_ESW
 90
     1025
280
     0
281
     0
  0
CLASS
  1
NPOCOLLECTION
  2
AcDbImpNonPersistentObjectsCollection
  3
ObjectDBX Classes
 90
     1153
280
     0
281
     0
  0
CLASS
  1
DICTIONARYVAR
  2
AcDbDictionaryVar
  3
ObjectDBX Classes
 90
        0
280
     0
281
     0
  0
CLASS
  1
CELLSTYLEMAP
  2
AcDbCellStyleMap
  3
ObjectDBX Classes
 90
     1152
280
     0
281
     0
  0
CLASS
  1
ACDBPLACEHOLDER
  2
AcDbPlaceHolder
  3
ObjectDBX Classes
 90
        0
280
     0
281
     0
  0
CLASS
  1
LAYOUT
  2
AcDbLayout
  3
ObjectDBX Classes
 90
        0
280
     0
281
     0
  0
ENDSEC
  0
SECTION
  2
TABLES
  0
TABLE
  2
VPORT
  5
452
330
0
100
AcDbSymbolTable
 70
     1
  0
VPORT
  5
4E9
330
452
100
AcDbSymbolTableRecord
100
AcDbViewportTableRecord
  2
*Active
 70
     0
 10
0.0
 20
0.0
 11
1.0
 21
1.0
 12
8.600090499999993
 22
-1.72668500000001
 13
0.0
 23
0.0
 14
1.0
 24
1.0
 15
0.0
 25
0.0
 16
0.0
 26
0.0
 36
1.0
 17
0.0
 27
0.0
 37
0.0
 40
75.67130769271663
 41
2.2
 42
50.0
 43
0.0
 44
0.0
 50
0.0
 51
0.0
 71
     0
 72
   100
 73
     1
 74
     1
 75
     0
 76
     0
 77
     0
 78
     0
281
     0
 65
     1
110
0.0
120
0.0
130
0.0
111
1.0
121
0.0
131
0.0
112
0.0
122
1.0
132
0.0
 79
     0
146
0.0
1001
ACAD_NAV_VCDISPLAY
1070
     3
  0
ENDTAB
  0
TABLE
  2
LTYPE
  5
44F
330
0
100
AcDbSymbolTable
 70
     4
  0
LTYPE
  5
4A4
330
44F
100
AcDbSymbolTableRecord
100
AcDbLinetypeTableRecord
  2
ByBlock
 70
     0
  3

 72
    65
 73
     0
 40
0.0
  0
LTYPE
  5
4A5
330
44F
100
AcDbSymbolTableRecord
100
AcDbLinetypeTableRecord
  2
ByLayer
 70
     0
  3

 72
    65
 73
     0
 40
0.0
  0
LTYPE
  5
4A6
330
44F
100
AcDbSymbolTableRecord
100
AcDbLinetypeTableRecord
  2
CONTINUOUS
 70
     0
  3
Solid line
 72
    65
 73
     0
 40
0.0
  0
LTYPE
  5
4B2
330
44F
100
AcDbSymbolTableRecord
100
AcDbLinetypeTableRecord
  2
PHANTOM2
 70
     0
  3
Phantom (.5x) ___ _ _ ___ _ _ ___ _ _ ___ _ _
 72
    65
 73
     6
 40
1.25
 49
0.625
 74
     0
 49
-0.125
 74
     0
 49
0.125
 74
     0
 49
-0.125
 74
     0
 49
0.125
 74
     0
 49
-0.125
 74
     0
  0
LTYPE
  5
4C0
330
44F
100
AcDbSymbolTableRecord
100
AcDbLinetypeTableRecord
  2
CENTER
 70
     0
  3
____ _ ____ _ ____ _ ____ _ ____ _ ____ _ ____
 72
    65
 73
     4
 40
5.059897
 49
3.162434999999999
 74
     0
 49
-0.6324870000000001
 74
     0
 49
0.6324870000000001
 74
     0
 49
-0.6324870000000001
 74
     0
  0
LTYPE
  5
4C1
330
44F
100
AcDbSymbolTableRecord
100
AcDbLinetypeTableRecord
  2
DASHED
 70
     0
  3
__ __ __ __ __ __ __ __ __ __ __ __ __ __ __ __
 72
    65
 73
     2
 40
7.589844999999999
 49
5.059897
 74
     0
 49
-2.529948
 74
     0
  0
ENDTAB
  0
TABLE
  2
LAYER
  5
44C
330
0
100
AcDbSymbolTable
 70
    38
  0
LAYER
  5
49E
102
{ACAD_XDICTIONARY
360
4F0
102
}
330
44C
100
AcDbSymbolTableRecord
100
AcDbLayerTableRecord
  2
0
 70
     0
 62
     7
  6
CONTINUOUS
370
    -3
390
459
  0
LAYER
  5
4BE
102
{ACAD_XDICTIONARY
360
4F2
102
}
330
44C
100
AcDbSymbolTableRecord
100
AcDbLayerTableRecord
  2
1
 70
     0
 62
     4
  6
CONTINUOUS
370
    -3
390
459
  0
LAYER
  5
4C2
102
{ACAD_XDICTIONARY
360
4F4
102
}
330
44C
100
AcDbSymbolTableRecord
100
AcDbLayerTableRecord
  2
61
 70
     0
 62
     5
  6
CONTINUOUS
370
    -3
390
459
  0
LAYER
  5
4C3
102
{ACAD_XDICTIONARY
360
4F6
102
}
330
44C
100
AcDbSymbolTableRecord
100
AcDbLayerTableRecord
  2
62
 70
     0
 62
    -5
  6
CONTINUOUS
370
    -3
390
459
  0
LAYER
  5
4C4
102
{ACAD_XDICTIONARY
360
4F8
102
}
330
44C
100
AcDbSymbolTableRecord
100
AcDbLayerTableRecord
  2
63
 70
     0
 62
    -5
  6
CONTINUOUS
370
    -3
390
459
  0
LAYER
  5
4C5
102
{ACAD_XDICTIONARY
360
4FA
102
}
330
44C
100
AcDbSymbolTableRecord
100
AcDbLayerTableRecord
  2
64
 70
     0
 62
    -5
  6
CONTINUOUS
370
    -3
390
459
  0
LAYER
  5
4C6
102
{ACAD_XDICTIONARY
360
4FC
102
}
330
44C
100
AcDbSymbolTableRecord
100
AcDbLayerTableRecord
  2
65
 70
     0
 62
    -5
  6
CONTINUOUS
370
    -3
390
459
  0
LAYER
  5
4C7
102
{ACAD_XDICTIONARY
360
4FE
102
}
330
44C
100
AcDbSymbolTableRecord
100
AcDbLayerTableRecord
  2
66
 70
     0
 62
    -5
  6
CONTINUOUS
370
    -3
390
459
  0
LAYER
  5
4C8
102
{ACAD_XDICTIONARY
360
500
102
}
330
44C
100
AcDbSymbolTableRecord
100
AcDbLayerTableRecord
  2
67
 70
     0
 62
    -5
  6
CONTINUOUS
370
    -3
390
459
  0
LAYER
  5
4C9
102
{ACAD_XDICTIONARY
360
502
102
}
330
44C
100
AcDbSymbolTableRecord
100
AcDbLayerTableRecord
  2
68
 70
     0
 62
    -5
  6
CONTINUOUS
370
    -3
390
459
  0
LAYER
  5
4CA
102
{ACAD_XDICTIONARY
360
504
102
}
330
44C
100
AcDbSymbolTableRecord
100
AcDbLayerTableRecord
  2
69
 70
     0
 62
    -5
  6
CONTINUOUS
370
    -3
390
459
  0
LAYER
  5
4CB
102
{ACAD_XDICTIONARY
360
506
102
}
330
44C
100
AcDbSymbolTableRecord
100
AcDbLayerTableRecord
  2
70
 70
     0
 62
     5
  6
CONTINUOUS
370
    -3
390
459
  0
LAYER
  5
4CC
102
{ACAD_XDICTIONARY
360
508
102
}
330
44C
100
AcDbSymbolTableRecord
100
AcDbLayerTableRecord
  2
2
 70
     0
 62
     7
  6
CONTINUOUS
370
    -3
390
459
  0
LAYER
  5
4CD
102
{ACAD_XDICTIONARY
360
50A
102
}
330
44C
100
AcDbSymbolTableRecord
100
AcDbLayerTableRecord
  2
3
 70
     0
 62
     1
  6
DASHED
370
    -3
390
459
  0
LAYER
  5
4CE
102
{ACAD_XDICTIONARY
360
50C
102
}
330
44C
100
AcDbSymbolTableRecord
100
AcDbLayerTableRecord
  2
4
 70
     0
 62
    -2
  6
CENTER
370
    -3
390
459
  0
LAYER
  5
4CF
102
{ACAD_XDICTIONARY
360
50E
102
}
330
44C
100
AcDbSymbolTableRecord
100
AcDbLayerTableRecord
  2
5
 70
     0
 62
    -7
  6
CONTINUOUS
370
    -3
390
459
  0
LAYER
  5
4D0
102
{ACAD_XDICTIONARY
360
510
102
}
330
44C
100
AcDbSymbolTableRecord
100
AcDbLayerTableRecord
  2
SK1
 70
     0
 62
     4
  6
CONTINUOUS
370
    -3
390
459
  0
LAYER
  5
4D1
102
{ACAD_XDICTIONARY
360
512
102
}
330
44C
100
AcDbSymbolTableRecord
100
AcDbLayerTableRecord
  2
6
 70
     0
 62
     5
  6
CONTINUOUS
370
    -3
390
459
  0
LAYER
  5
4D2
102
{ACAD_XDICTIONARY
360
514
102
}
330
44C
100
AcDbSymbolTableRecord
100
AcDbLayerTableRecord
  2
SK2
 70
     0
 62
     7
  6
CONTINUOUS
370
    -3
390
459
  0
LAYER
  5
4D3
102
{ACAD_XDICTIONARY
360
516
102
}
330
44C
100
AcDbSymbolTableRecord
100
AcDbLayerTableRecord
  2
SK3
 70
     0
 62
     1
  6
DASHED
370
    -3
390
459
  0
LAYER
  5
4D4
102
{ACAD_XDICTIONARY
360
518
102
}
330
44C
100
AcDbSymbolTableRecord
100
AcDbLayerTableRecord
  2
SK4
 70
     0
 62
     2
  6
CENTER
370
    -3
390
459
  0
LAYER
  5
4D5
102
{ACAD_XDICTIONARY
360
51A
102
}
330
44C
100
AcDbSymbolTableRecord
100
AcDbLayerTableRecord
  2
CUT
 70
     0
 62
    -1
  6
CONTINUOUS
370
    -3
390
459
  0
LAYER
  5
4D6
102
{ACAD_XDICTIONARY
360
51C
102
}
330
44C
100
AcDbSymbolTableRecord
100
AcDbLayerTableRecord
  2
SK6
 70
     0
 62
     5
  6
CONTINUOUS
370
    -3
390
459
  0
LAYER
  5
4D7
102
{ACAD_XDICTIONARY
360
51E
102
}
330
44C
100
AcDbSymbolTableRecord
100
AcDbLayerTableRecord
  2
80
 70
     0
 62
    -2
  6
CENTER
370
    -3
390
459
  0
LAYER
  5
4D8
102
{ACAD_XDICTIONARY
360
520
102
}
330
44C
100
AcDbSymbolTableRecord
100
AcDbLayerTableRecord
  2
81
 70
     0
 62
    -2
  6
CENTER
370
    -3
390
459
  0
LAYER
  5
4D9
102
{ACAD_XDICTIONARY
360
522
102
}
330
44C
100
AcDbSymbolTableRecord
100
AcDbLayerTableRecord
  2
82
 70
     0
 62
    -2
  6
CENTER
370
    -3
390
459
  0
LAYER
  5
4DA
102
{ACAD_XDICTIONARY
360
524
102
}
330
44C
100
AcDbSymbolTableRecord
100
AcDbLayerTableRecord
  2
NOCUT
 70
     0
 62
     7
  6
CONTINUOUS
370
    -3
390
459
  0
LAYER
  5
4DB
102
{ACAD_XDICTIONARY
360
526
102
}
330
44C
100
AcDbSymbolTableRecord
100
AcDbLayerTableRecord
  2
50
 70
     0
 62
    -7
  6
CONTINUOUS
370
    -3
390
459
  0
LAYER
  5
4DC
102
{ACAD_XDICTIONARY
360
528
102
}
330
44C
100
AcDbSymbolTableRecord
100
AcDbLayerTableRecord
  2
51
 70
     0
 62
     7
  6
CONTINUOUS
370
    -3
390
459
  0
LAYER
  5
4DD
102
{ACAD_XDICTIONARY
360
52A
102
}
330
44C
100
AcDbSymbolTableRecord
100
AcDbLayerTableRecord
  2
52
 70
     0
 62
    -7
  6
CONTINUOUS
370
    -3
390
459
  0
LAYER
  5
4DE
102
{ACAD_XDICTIONARY
360
52C
102
}
330
44C
100
AcDbSymbolTableRecord
100
AcDbLayerTableRecord
  2
53
 70
     0
 62
    -7
  6
CONTINUOUS
370
    -3
390
459
  0
LAYER
  5
4DF
102
{ACAD_XDICTIONARY
360
52E
102
}
330
44C
100
AcDbSymbolTableRecord
100
AcDbLayerTableRecord
  2
54
 70
     0
 62
    -7
  6
CONTINUOUS
370
    -3
390
459
  0
LAYER
  5
4E0
102
{ACAD_XDICTIONARY
360
530
102
}
330
44C
100
AcDbSymbolTableRecord
100
AcDbLayerTableRecord
  2
55
 70
     0
 62
    -7
  6
CONTINUOUS
370
    -3
390
459
  0
LAYER
  5
4E1
102
{ACAD_XDICTIONARY
360
532
102
}
330
44C
100
AcDbSymbolTableRecord
100
AcDbLayerTableRecord
  2
56
 70
     0
 62
    -7
  6
CONTINUOUS
370
    -3
390
459
  0
LAYER
  5
4E2
102
{ACAD_XDICTIONARY
360
534
102
}
330
44C
100
AcDbSymbolTableRecord
100
AcDbLayerTableRecord
  2
57
 70
     0
 62
    -7
  6
CONTINUOUS
370
    -3
390
459
  0
LAYER
  5
4E3
102
{ACAD_XDICTIONARY
360
536
102
}
330
44C
100
AcDbSymbolTableRecord
100
AcDbLayerTableRecord
  2
58
 70
     0
 62
    -7
  6
CONTINUOUS
370
    -3
390
459
  0
LAYER
  5
4E4
102
{ACAD_XDICTIONARY
360
538
102
}
330
44C
100
AcDbSymbolTableRecord
100
AcDbLayerTableRecord
  2
2L
 70
     0
 62
     7
  6
CONTINUOUS
370
    -3
390
459
  0
LAYER
  5
4E5
102
{ACAD_XDICTIONARY
360
53A
102
}
330
44C
100
AcDbSymbolTableRecord
100
AcDbLayerTableRecord
  2
59
 70
     0
 62
    -7
  6
CONTINUOUS
370
    -3
390
459
  0
ENDTAB
  0
TABLE
  2
STYLE
  5
44D
330
0
100
AcDbSymbolTable
 70
     3
  0
STYLE
  5
49F
330
44D
100
AcDbSymbolTableRecord
100
AcDbTextStyleTableRecord
  2
STANDARD
 70
     0
 40
0.0
 41
1.0
 50
0.0
 71
     0
 42
4.5
  3
simplex.shx
  4

  0
STYLE
  5
4A3
330
44D
100
AcDbSymbolTableRecord
100
AcDbTextStyleTableRecord
  2
Annotative
 70
     0
 40
0.0
 41
1.0
 50
0.0
 71
     0
 42
0.2
  3
txt
  4

1001
AcadAnnotative
1000
AnnotativeData
1002
{
1070
     1
1070
     1
1002
}
  0
STYLE
  5
4BF
330
44D
100
AcDbSymbolTableRecord
100
AcDbTextStyleTableRecord
  2
SANDVIK_STYLE
 70
     0
 40
3.0
 41
1.0
 50
0.0
 71
     0
 42
3.0
  3
simplex.shx
  4

  0
ENDTAB
  0
TABLE
  2
VIEW
  5
450
330
0
100
AcDbSymbolTable
 70
     0
  0
ENDTAB
  0
TABLE
  2
UCS
  5
451
330
0
100
AcDbSymbolTable
 70
     0
  0
ENDTAB
  0
TABLE
  2
APPID
  5
453
330
0
100
AcDbSymbolTable
 70
     4
  0
APPID
  5
4A0
330
453
100
AcDbSymbolTableRecord
100
AcDbRegAppTableRecord
  2
ACAD
 70
     0
  0
APPID
  5
4A7
330
453
100
AcDbSymbolTableRecord
100
AcDbRegAppTableRecord
  2
AcadAnnotative
 70
     0
  0
APPID
  5
546
330
453
100
AcDbSymbolTableRecord
100
AcDbRegAppTableRecord
  2
ACAD_NAV_VCDISPLAY
 70
     0
  0
APPID
  5
57F
330
453
100
AcDbSymbolTableRecord
100
AcDbRegAppTableRecord
  2
ACAD_MLEADERVER
 70
     0
  0
ENDTAB
  0
TABLE
  2
DIMSTYLE
  5
454
330
0
100
AcDbSymbolTable
 70
     3
100
AcDbDimStyleTable
 71
     0
  0
DIMSTYLE
105
4A1
330
454
100
AcDbSymbolTableRecord
100
AcDbDimStyleTableRecord
  2
STANDARD
 70
     0
  4
 
 41
3.0
 42
2.5
 43
10.0
 44
2.5
 46
1.25
 73
     0
 74
     0
140
3.0
141
-3.0
143
0.039
145
1.5
146
0.75
147
1.5
271
     2
272
     2
279
     2
340
4BF
  0
DIMSTYLE
105
4A2
330
454
100
AcDbSymbolTableRecord
100
AcDbDimStyleTableRecord
  2
Annotative
 70
     0
340
49F
1001
AcadAnnotative
1000
AnnotativeData
1002
{
1070
     1
1070
     1
1002
}
  0
DIMSTYLE
105
4E6
330
454
100
AcDbSymbolTableRecord
100
AcDbDimStyleTableRecord
  2
SANDVIK_DIM
 70
     0
  4
 
 40
0.0
 41
4.57
 42
0.0
 44
5.0
 73
     0
 74
     0
 77
     1
 78
     8
140
4.5
147
2.299999999999999
176
   256
177
   256
178
   256
271
     2
272
     2
279
     2
340
4BF
  0
ENDTAB
  0
TABLE
  2
BLOCK_RECORD
  5
44B
330
0
100
AcDbSymbolTable
 70
     2
  0
BLOCK_RECORD
  5
4BA
330
44B
100
AcDbSymbolTableRecord
100
AcDbBlockTableRecord
  2
*Model_Space
340
4BD
  0
BLOCK_RECORD
  5
4B6
330
44B
100
AcDbSymbolTableRecord
100
AcDbBlockTableRecord
  2
*Paper_Space
340
4B9
  0
BLOCK_RECORD
  5
4EA
330
44B
100
AcDbSymbolTableRecord
100
AcDbBlockTableRecord
  2
*D0
340
0
102
{BLKREFS
331
3E8
102
}
  0
BLOCK_RECORD
  5
4EB
330
44B
100
AcDbSymbolTableRecord
100
AcDbBlockTableRecord
  2
*D1
340
0
102
{BLKREFS
331
3EA
102
}
  0
ENDTAB
  0
ENDSEC
  0
SECTION
  2
BLOCKS
  0
BLOCK
  5
4BB
330
4BA
100
AcDbEntity
  8
0
100
AcDbBlockBegin
  2
*Model_Space
 70
     0
 10
0.0
 20
0.0
 30
0.0
  3
*Model_Space
  1

  0
ENDBLK
  5
4BC
330
4BA
100
AcDbEntity
  8
0
100
AcDbBlockEnd
  0
BLOCK
  5
4B7
330
4B6
100
AcDbEntity
 67
     1
  8
0
100
AcDbBlockBegin
  2
*Paper_Space
 70
     0
 10
0.0
 20
0.0
 30
0.0
  3
*Paper_Space
  1

  0
ENDBLK
  5
4B8
330
4B6
100
AcDbEntity
 67
     1
  8
0
100
AcDbBlockEnd
  0
BLOCK
  5
2
330
4EA
100
AcDbEntity
  8
0
100
AcDbBlockBegin
  2
*D0
 70
     1
 10
0.0
 20
0.0
 30
0.0
  3
*D0
  1

  0
LINE
  5
3
330
4EA
100
AcDbEntity
  8
0
100
AcDbLine
 10
0.0
 20
14.0
 30
0.0
 11
0.0
 21
29.000002
 31
0.0
  0
LINE
  5
4
330
4EA
100
AcDbEntity
  8
0
100
AcDbLine
 10
16.0
 20
14.0
 30
0.0
 11
16.0
 21
29.000002
 31
0.0
  0
LINE
  5
5
330
4EA
100
AcDbEntity
  8
0
100
AcDbLine
 10
2.5
 20
28.000002
 30
0.0
 11
13.5
 21
28.000002
 31
0.0
  0
LINE
  5
6
330
4EA
100
AcDbEntity
  8
0
100
AcDbLine
 10
2.5
 20
28.416669
 30
0.0
 11
2.5
 21
27.583335
 31
0.0
  0
LINE
  5
7
330
4EA
100
AcDbEntity
  8
0
100
AcDbLine
 10
2.5
 20
27.583335
 30
0.0
 11
0.0
 21
28.000002
 31
0.0
  0
LINE
  5
8
330
4EA
100
AcDbEntity
  8
0
100
AcDbLine
 10
0.0
 20
28.000002
 30
0.0
 11
0.0
 21
28.000002
 31
0.0
  0
LINE
  5
9
330
4EA
100
AcDbEntity
  8
0
100
AcDbLine
 10
0.0
 20
28.000002
 30
0.0
 11
2.5
 21
28.416669
 31
0.0
  0
LINE
  5
A
330
4EA
100
AcDbEntity
  8
0
100
AcDbLine
 10
13.5
 20
28.416669
 30
0.0
 11
13.5
 21
27.583335
 31
0.0
  0
LINE
  5
B
330
4EA
100
AcDbEntity
  8
0
100
AcDbLine
 10
13.5
 20
27.583335
 30
0.0
 11
16.0
 21
28.000002
 31
0.0
  0
LINE
  5
C
330
4EA
100
AcDbEntity
  8
0
100
AcDbLine
 10
16.0
 20
28.000002
 30
0.0
 11
16.0
 21
28.000002
 31
0.0
  0
LINE
  5
D
330
4EA
100
AcDbEntity
  8
0
100
AcDbLine
 10
16.0
 20
28.000002
 30
0.0
 11
13.5
 21
28.416669
 31
0.0
  0
ENDBLK
  5
E
330
4EA
100
AcDbEntity
  8
0
100
AcDbBlockEnd
  0
BLOCK
  5
F
330
4EB
100
AcDbEntity
  8
0
100
AcDbBlockBegin
  2
*D1
 70
     1
 10
0.0
 20
0.0
 30
0.0
  3
*D1
  1

  0
LINE
  5
10
330
4EB
100
AcDbEntity
  8
0
100
AcDbLine
 10
17.0
 20
13.0
 30
0.0
 11
35.000695
 21
13.0
 31
0.0
  0
LINE
  5
11
330
4EB
100
AcDbEntity
  8
0
100
AcDbLine
 10
17.0
 20
-13.0
 30
0.0
 11
35.000695
 21
-13.0
 31
0.0
  0
LINE
  5
12
330
4EB
100
AcDbEntity
  8
0
100
AcDbLine
 10
34.000695
 20
10.5
 30
0.0
 11
34.000695
 21
-10.5
 31
0.0
  0
LINE
  5
13
330
4EB
100
AcDbEntity
  8
0
100
AcDbLine
 10
33.584028
 20
10.5
 30
0.0
 11
34.417361
 21
10.5
 31
0.0
  0
LINE
  5
14
330
4EB
100
AcDbEntity
  8
0
100
AcDbLine
 10
34.417361
 20
10.5
 30
0.0
 11
34.000695
 21
13.0
 31
0.0
  0
LINE
  5
15
330
4EB
100
AcDbEntity
  8
0
100
AcDbLine
 10
34.000695
 20
13.0
 30
0.0
 11
34.000695
 21
13.0
 31
0.0
  0
LINE
  5
16
330
4EB
100
AcDbEntity
  8
0
100
AcDbLine
 10
34.000695
 20
13.0
 30
0.0
 11
33.584028
 21
10.5
 31
0.0
  0
LINE
  5
17
330
4EB
100
AcDbEntity
  8
0
100
AcDbLine
 10
33.584028
 20
-10.5
 30
0.0
 11
34.417361
 21
-10.5
 31
0.0
  0
LINE
  5
18
330
4EB
100
AcDbEntity
  8
0
100
AcDbLine
 10
34.417361
 20
-10.5
 30
0.0
 11
34.000695
 21
-13.0
 31
0.0
  0
LINE
  5
19
330
4EB
100
AcDbEntity
  8
0
100
AcDbLine
 10
34.000695
 20
-13.0
 30
0.0
 11
34.000695
 21
-13.0
 31
0.0
  0
LINE
  5
1A
330
4EB
100
AcDbEntity
  8
0
100
AcDbLine
 10
34.000695
 20
-13.0
 30
0.0
 11
33.584028
 21
-10.5
 31
0.0
  0
ENDBLK
  5
1B
330
4EB
100
AcDbEntity
  8
0
100
AcDbBlockEnd
  0
ENDSEC
  0
SECTION
  2
ENTITIES
  0
LINE
  5
1C
330
4BA
100
AcDbEntity
  8
1
100
AcDbLine
 10
16.0
 20
6.313125
 30
0.0
 11
16.0
 21
11.972838
 31
0.0
  0
LINE
  5
1D
330
4BA
100
AcDbEntity
  8
1
100
AcDbLine
 10
16.0
 20
11.972838
 30
0.0
 11
16.0
 21
12.191712
 31
0.0
  0
LINE
  5
1E
330
4BA
100
AcDbEntity
  8
1
100
AcDbLine
 10
9.164089999999999
 20
12.835011
 30
0.0
 11
9.164089999999999
 21
10.989134
 31
0.0
  0
LINE
  5
1F
330
4BA
100
AcDbEntity
  8
1
100
AcDbLine
 10
5.043319999999999
 20
11.64387
 30
0.0
 11
4.910915
 21
11.728823
 31
0.0
  0
LINE
  5
20
330
4BA
100
AcDbEntity
  8
1
100
AcDbLine
 10
4.910915
 20
11.728823
 30
0.0
 11
4.780808999999999
 21
11.811485
 31
0.0
  0
LINE
  5
21
330
4BA
100
AcDbEntity
  8
1
100
AcDbLine
 10
4.780808999999999
 20
11.811485
 30
0.0
 11
4.652842999999999
 21
11.891587
 31
0.0
  0
LINE
  5
22
330
4BA
100
AcDbEntity
  8
1
100
AcDbLine
 10
4.652842999999999
 20
11.891587
 30
0.0
 11
4.527605999999999
 21
11.968347
 31
0.0
  0
LINE
  5
23
330
4BA
100
AcDbEntity
  8
1
100
AcDbLine
 10
4.527605999999999
 20
11.968347
 30
0.0
 11
4.405253
 21
12.04149
 31
0.0
  0
LINE
  5
24
330
4BA
100
AcDbEntity
  8
1
100
AcDbLine
 10
4.405253
 20
12.04149
 30
0.0
 11
4.285629
 21
12.110864
 31
0.0
  0
LINE
  5
25
330
4BA
100
AcDbEntity
  8
1
100
AcDbLine
 10
4.285629
 20
12.110864
 30
0.0
 11
4.168860999999999
 21
12.176001
 31
0.0
  0
LINE
  5
26
330
4BA
100
AcDbEntity
  8
1
100
AcDbLine
 10
4.168860999999999
 20
12.176001
 30
0.0
 11
4.054953
 21
12.236738
 31
0.0
  0
LINE
  5
27
330
4BA
100
AcDbEntity
  8
1
100
AcDbLine
 10
4.054953
 20
12.236738
 30
0.0
 11
3.943901
 21
12.292906
 31
0.0
  0
LINE
  5
28
330
4BA
100
AcDbEntity
  8
1
100
AcDbLine
 10
3.943901
 20
12.292906
 30
0.0
 11
3.835820999999999
 21
12.344146
 31
0.0
  0
LINE
  5
29
330
4BA
100
AcDbEntity
  8
1
100
AcDbLine
 10
3.835820999999999
 20
12.344146
 30
0.0
 11
3.730748
 21
12.390334
 31
0.0
  0
LINE
  5
2A
330
4BA
100
AcDbEntity
  8
1
100
AcDbLine
 10
3.730748
 20
12.390334
 30
0.0
 11
3.628646999999999
 21
12.431391
 31
0.0
  0
LINE
  5
2B
330
4BA
100
AcDbEntity
  8
1
100
AcDbLine
 10
3.628646999999999
 20
12.431391
 30
0.0
 11
3.529530999999999
 21
12.467131
 31
0.0
  0
LINE
  5
2C
330
4BA
100
AcDbEntity
  8
1
100
AcDbLine
 10
3.529530999999999
 20
12.467131
 30
0.0
 11
3.433344
 21
12.497501
 31
0.0
  0
LINE
  5
2D
330
4BA
100
AcDbEntity
  8
1
100
AcDbLine
 10
3.433344
 20
12.497501
 30
0.0
 11
3.340141999999999
 21
12.522433
 31
0.0
  0
LINE
  5
2E
330
4BA
100
AcDbEntity
  8
1
100
AcDbLine
 10
3.340141999999999
 20
12.522433
 30
0.0
 11
3.250103999999999
 21
12.54181
 31
0.0
  0
LINE
  5
2F
330
4BA
100
AcDbEntity
  8
1
100
AcDbLine
 10
3.250103999999999
 20
12.54181
 30
0.0
 11
3.163289999999999
 21
12.555626
 31
0.0
  0
LINE
  5
30
330
4BA
100
AcDbEntity
  8
1
100
AcDbLine
 10
3.163289999999999
 20
12.555626
 30
0.0
 11
3.079639999999999
 21
12.563909
 31
0.0
  0
LINE
  5
31
330
4BA
100
AcDbEntity
  8
1
100
AcDbLine
 10
3.079639999999999
 20
12.563909
 30
0.0
 11
2.999155
 21
12.566669
 31
0.0
  0
LINE
  5
32
330
4BA
100
AcDbEntity
  8
1
100
AcDbLine
 10
8.391548
 20
12.52541
 30
0.0
 11
8.391548
 21
10.98402
 31
0.0
  0
LINE
  5
33
330
4BA
100
AcDbEntity
  8
1
100
AcDbLine
 10
0.0
 20
-12.566669
 30
0.0
 11
0.0
 21
12.566669
 31
0.0
  0
LINE
  5
34
330
4BA
100
AcDbEntity
  8
1
100
AcDbLine
 10
14.608258
 20
-5.230532
 30
0.0
 11
14.0945
 21
-5.396302999999999
 31
0.0
  0
LINE
  5
35
330
4BA
100
AcDbEntity
  8
1
100
AcDbLine
 10
14.0945
 20
-5.396302999999999
 30
0.0
 11
13.580068
 21
-5.561012999999999
 31
0.0
  0
LINE
  5
36
330
4BA
100
AcDbEntity
  8
1
100
AcDbLine
 10
13.580068
 20
-5.561012999999999
 30
0.0
 11
13.064961
 21
-5.724661
 31
0.0
  0
LINE
  5
37
330
4BA
100
AcDbEntity
  8
1
100
AcDbLine
 10
13.064961
 20
-5.724661
 30
0.0
 11
12.549034
 21
-5.887293999999999
 31
0.0
  0
LINE
  5
38
330
4BA
100
AcDbEntity
  8
1
100
AcDbLine
 10
12.549034
 20
-5.887293999999999
 30
0.0
 11
12.032433
 21
-6.048865
 31
0.0
  0
LINE
  5
39
330
4BA
100
AcDbEntity
  8
1
100
AcDbLine
 10
12.032433
 20
-6.048865
 30
0.0
 11
11.515594
 21
-6.209233999999999
 31
0.0
  0
LINE
  5
3A
330
4BA
100
AcDbEntity
  8
1
100
AcDbLine
 10
11.515594
 20
-6.209233999999999
 30
0.0
 11
10.998664
 21
-6.368355999999999
 31
0.0
  0
LINE
  5
3B
330
4BA
100
AcDbEntity
  8
1
100
AcDbLine
 10
10.998664
 20
-6.368355999999999
 30
0.0
 11
10.481496
 21
-6.526276999999999
 31
0.0
  0
LINE
  5
3C
330
4BA
100
AcDbEntity
  8
1
100
AcDbLine
 10
10.481496
 20
-6.526276999999999
 30
0.0
 11
9.964089999999998
 21
-6.682996000000001
 31
0.0
  0
LINE
  5
3D
330
4BA
100
AcDbEntity
  8
1
100
AcDbLine
 10
14.493228
 20
-4.923887
 30
0.0
 11
13.992493
 21
-5.086978
 31
0.0
  0
LINE
  5
3E
330
4BA
100
AcDbEntity
  8
1
100
AcDbLine
 10
13.992493
 20
-5.086978
 30
0.0
 11
13.491041
 21
-5.249257
 31
0.0
  0
LINE
  5
3F
330
4BA
100
AcDbEntity
  8
1
100
AcDbLine
 10
13.491041
 20
-5.249257
 30
0.0
 11
12.988872
 21
-5.410689999999999
 31
0.0
  0
LINE
  5
40
330
4BA
100
AcDbEntity
  8
1
100
AcDbLine
 10
12.988872
 20
-5.410689999999999
 30
0.0
 11
12.485863
 21
-5.571248999999999
 31
0.0
  0
LINE
  5
41
330
4BA
100
AcDbEntity
  8
1
100
AcDbLine
 10
12.485863
 20
-5.571248999999999
 30
0.0
 11
11.982136
 21
-5.7309
 31
0.0
  0
LINE
  5
42
330
4BA
100
AcDbEntity
  8
1
100
AcDbLine
 10
11.982136
 20
-5.7309
 30
0.0
 11
11.478059
 21
-5.889592999999999
 31
0.0
  0
LINE
  5
43
330
4BA
100
AcDbEntity
  8
1
100
AcDbLine
 10
11.478059
 20
-5.889592999999999
 30
0.0
 11
10.973754
 21
-6.047291
 31
0.0
  0
LINE
  5
44
330
4BA
100
AcDbEntity
  8
1
100
AcDbLine
 10
10.973754
 20
-6.047291
 30
0.0
 11
10.469097
 21
-6.203967999999999
 31
0.0
  0
LINE
  5
45
330
4BA
100
AcDbEntity
  8
1
100
AcDbLine
 10
10.469097
 20
-6.203967999999999
 30
0.0
 11
9.964089999999998
 21
-6.359590999999999
 31
0.0
  0
LINE
  5
46
330
4BA
100
AcDbEntity
  8
1
100
AcDbLine
 10
14.1
 20
11.507872
 30
0.0
 11
13.68022
 21
11.463154
 31
0.0
  0
LINE
  5
47
330
4BA
100
AcDbEntity
  8
1
100
AcDbLine
 10
13.68022
 20
11.463154
 30
0.0
 11
13.258299
 21
11.417479
 31
0.0
  0
LINE
  5
48
330
4BA
100
AcDbEntity
  8
1
100
AcDbLine
 10
13.258299
 20
11.417479
 30
0.0
 11
12.834235
 21
11.370846
 31
0.0
  0
LINE
  5
49
330
4BA
100
AcDbEntity
  8
1
100
AcDbLine
 10
12.834235
 20
11.370846
 30
0.0
 11
12.407985
 21
11.323254
 31
0.0
  0
LINE
  5
4A
330
4BA
100
AcDbEntity
  8
1
100
AcDbLine
 10
12.407985
 20
11.323254
 30
0.0
 11
11.979592
 21
11.274705
 31
0.0
  0
LINE
  5
4B
330
4BA
100
AcDbEntity
  8
1
100
AcDbLine
 10
11.979592
 20
11.274705
 30
0.0
 11
11.549191
 21
11.225202
 31
0.0
  0
LINE
  5
4C
330
4BA
100
AcDbEntity
  8
1
100
AcDbLine
 10
11.549191
 20
11.225202
 30
0.0
 11
11.116824
 21
11.174748
 31
0.0
  0
LINE
  5
4D
330
4BA
100
AcDbEntity
  8
1
100
AcDbLine
 10
11.116824
 20
11.174748
 30
0.0
 11
10.682447
 21
11.123341
 31
0.0
  0
LINE
  5
4E
330
4BA
100
AcDbEntity
  8
1
100
AcDbLine
 10
10.682447
 20
11.123341
 30
0.0
 11
10.246061
 21
11.070982
 31
0.0
  0
LINE
  5
4F
330
4BA
100
AcDbEntity
  8
1
100
AcDbLine
 10
8.611062999999999
 20
-4.408887
 30
0.0
 11
9.234792999999999
 21
-4.199000999999999
 31
0.0
  0
LINE
  5
50
330
4BA
100
AcDbEntity
  8
1
100
AcDbLine
 10
9.234792999999999
 20
-4.199000999999999
 30
0.0
 11
9.85468
 21
-3.988442
 31
0.0
  0
LINE
  5
51
330
4BA
100
AcDbEntity
  8
1
100
AcDbLine
 10
9.85468
 20
-3.988442
 30
0.0
 11
10.470721
 21
-3.777208
 31
0.0
  0
LINE
  5
52
330
4BA
100
AcDbEntity
  8
1
100
AcDbLine
 10
10.470721
 20
-3.777208
 30
0.0
 11
11.08294
 21
-3.56528
 31
0.0
  0
LINE
  5
53
330
4BA
100
AcDbEntity
  8
1
100
AcDbLine
 10
11.08294
 20
-3.56528
 30
0.0
 11
11.691314
 21
-3.352678
 31
0.0
  0
LINE
  5
54
330
4BA
100
AcDbEntity
  8
1
100
AcDbLine
 10
11.691314
 20
-3.352678
 30
0.0
 11
12.295781
 21
-3.139459999999999
 31
0.0
  0
LINE
  5
55
330
4BA
100
AcDbEntity
  8
1
100
AcDbLine
 10
12.295781
 20
-3.139459999999999
 30
0.0
 11
12.896319
 21
-2.925647999999999
 31
0.0
  0
LINE
  5
56
330
4BA
100
AcDbEntity
  8
1
100
AcDbLine
 10
12.896319
 20
-2.925647999999999
 30
0.0
 11
13.492951
 21
-2.711219999999999
 31
0.0
  0
LINE
  5
57
330
4BA
100
AcDbEntity
  8
1
100
AcDbLine
 10
13.492951
 20
-2.711219999999999
 30
0.0
 11
14.085676
 21
-2.496175999999999
 31
0.0
  0
LINE
  5
58
330
4BA
100
AcDbEntity
  8
1
100
AcDbLine
 10
14.1
 20
-2.399496
 30
0.0
 11
13.390715
 21
-2.657256
 31
0.0
  0
LINE
  5
59
330
4BA
100
AcDbEntity
  8
1
100
AcDbLine
 10
13.390715
 20
-2.657256
 30
0.0
 11
12.675378
 21
-2.914263999999999
 31
0.0
  0
LINE
  5
5A
330
4BA
100
AcDbEntity
  8
1
100
AcDbLine
 10
12.675378
 20
-2.914263999999999
 30
0.0
 11
11.953989
 21
-3.170520999999999
 31
0.0
  0
LINE
  5
5B
330
4BA
100
AcDbEntity
  8
1
100
AcDbLine
 10
11.953989
 20
-3.170520999999999
 30
0.0
 11
11.226105
 21
-3.4262
 31
0.0
  0
LINE
  5
5C
330
4BA
100
AcDbEntity
  8
1
100
AcDbLine
 10
11.226105
 20
-3.4262
 30
0.0
 11
10.492168
 21
-3.681128999999999
 31
0.0
  0
LINE
  5
5D
330
4BA
100
AcDbEntity
  8
1
100
AcDbLine
 10
10.492168
 20
-3.681128999999999
 30
0.0
 11
9.753516000000001
 21
-3.934784999999999
 31
0.0
  0
LINE
  5
5E
330
4BA
100
AcDbEntity
  8
1
100
AcDbLine
 10
9.753516000000001
 20
-3.934784999999999
 30
0.0
 11
9.01012
 21
-4.187165
 31
0.0
  0
LINE
  5
5F
330
4BA
100
AcDbEntity
  8
1
100
AcDbLine
 10
8.611062999999999
 20
8.145992999999998
 30
0.0
 11
9.234792999999999
 21
8.316380999999999
 31
0.0
  0
LINE
  5
60
330
4BA
100
AcDbEntity
  8
1
100
AcDbLine
 10
9.234792999999999
 20
8.316380999999999
 30
0.0
 11
9.85468
 21
8.483750999999999
 31
0.0
  0
LINE
  5
61
330
4BA
100
AcDbEntity
  8
1
100
AcDbLine
 10
9.85468
 20
8.483750999999999
 30
0.0
 11
10.470721
 21
8.648103
 31
0.0
  0
LINE
  5
62
330
4BA
100
AcDbEntity
  8
1
100
AcDbLine
 10
10.470721
 20
8.648103
 30
0.0
 11
11.08294
 21
8.80943
 31
0.0
  0
LINE
  5
63
330
4BA
100
AcDbEntity
  8
1
100
AcDbLine
 10
11.08294
 20
8.80943
 30
0.0
 11
11.691314
 21
8.967738999999999
 31
0.0
  0
LINE
  5
64
330
4BA
100
AcDbEntity
  8
1
100
AcDbLine
 10
11.691314
 20
8.967738999999999
 30
0.0
 11
12.295781
 21
9.123049999999999
 31
0.0
  0
LINE
  5
65
330
4BA
100
AcDbEntity
  8
1
100
AcDbLine
 10
12.295781
 20
9.123049999999999
 30
0.0
 11
12.896319
 21
9.275370999999999
 31
0.0
  0
LINE
  5
66
330
4BA
100
AcDbEntity
  8
1
100
AcDbLine
 10
12.896319
 20
9.275370999999999
 30
0.0
 11
13.492951
 21
9.424694999999999
 31
0.0
  0
LINE
  5
67
330
4BA
100
AcDbEntity
  8
1
100
AcDbLine
 10
13.492951
 20
9.424694999999999
 30
0.0
 11
14.085676
 21
9.571021
 31
0.0
  0
LINE
  5
68
330
4BA
100
AcDbEntity
  8
1
100
AcDbLine
 10
14.493228
 20
7.957539999999999
 30
0.0
 11
13.992493
 21
7.816799
 31
0.0
  0
LINE
  5
69
330
4BA
100
AcDbEntity
  8
1
100
AcDbLine
 10
13.992493
 20
7.816799
 30
0.0
 11
13.491041
 21
7.674499
 31
0.0
  0
LINE
  5
6A
330
4BA
100
AcDbEntity
  8
1
100
AcDbLine
 10
13.491041
 20
7.674499
 30
0.0
 11
12.988872
 21
7.530661999999999
 31
0.0
  0
LINE
  5
6B
330
4BA
100
AcDbEntity
  8
1
100
AcDbLine
 10
12.988872
 20
7.530661999999999
 30
0.0
 11
12.485863
 21
7.385303999999999
 31
0.0
  0
LINE
  5
6C
330
4BA
100
AcDbEntity
  8
1
100
AcDbLine
 10
12.485863
 20
7.385303999999999
 30
0.0
 11
11.982136
 21
7.238457
 31
0.0
  0
LINE
  5
6D
330
4BA
100
AcDbEntity
  8
1
100
AcDbLine
 10
11.982136
 20
7.238457
 30
0.0
 11
11.478059
 21
7.090157999999999
 31
0.0
  0
LINE
  5
6E
330
4BA
100
AcDbEntity
  8
1
100
AcDbLine
 10
11.478059
 20
7.090157999999999
 30
0.0
 11
10.973754
 21
6.940436
 31
0.0
  0
LINE
  5
6F
330
4BA
100
AcDbEntity
  8
1
100
AcDbLine
 10
10.973754
 20
6.940436
 30
0.0
 11
10.469097
 21
6.789310999999999
 31
0.0
  0
LINE
  5
70
330
4BA
100
AcDbEntity
  8
1
100
AcDbLine
 10
10.469097
 20
6.789310999999999
 30
0.0
 11
9.964089999999998
 21
6.636808999999999
 31
0.0
  0
LINE
  5
71
330
4BA
100
AcDbEntity
  8
1
100
AcDbLine
 10
14.608258
 20
7.691602999999999
 30
0.0
 11
14.0945
 21
7.544149
 31
0.0
  0
LINE
  5
72
330
4BA
100
AcDbEntity
  8
1
100
AcDbLine
 10
14.0945
 20
7.544149
 30
0.0
 11
13.580068
 21
7.395222
 31
0.0
  0
LINE
  5
73
330
4BA
100
AcDbEntity
  8
1
100
AcDbLine
 10
13.580068
 20
7.395222
 30
0.0
 11
13.064961
 21
7.244822
 31
0.0
  0
LINE
  5
74
330
4BA
100
AcDbEntity
  8
1
100
AcDbLine
 10
13.064961
 20
7.244822
 30
0.0
 11
12.549034
 21
7.092906
 31
0.0
  0
LINE
  5
75
330
4BA
100
AcDbEntity
  8
1
100
AcDbLine
 10
12.549034
 20
7.092906
 30
0.0
 11
12.032433
 21
6.939517999999999
 31
0.0
  0
LINE
  5
76
330
4BA
100
AcDbEntity
  8
1
100
AcDbLine
 10
12.032433
 20
6.939517999999999
 30
0.0
 11
11.515594
 21
6.784783999999999
 31
0.0
  0
LINE
  5
77
330
4BA
100
AcDbEntity
  8
1
100
AcDbLine
 10
11.515594
 20
6.784783999999999
 30
0.0
 11
10.998664
 21
6.628744999999999
 31
0.0
  0
LINE
  5
78
330
4BA
100
AcDbEntity
  8
1
100
AcDbLine
 10
10.998664
 20
6.628744999999999
 30
0.0
 11
10.481496
 21
6.471362
 31
0.0
  0
LINE
  5
79
330
4BA
100
AcDbEntity
  8
1
100
AcDbLine
 10
10.481496
 20
6.471362
 30
0.0
 11
9.964089999999998
 21
6.312630999999999
 31
0.0
  0
LINE
  5
7A
330
4BA
100
AcDbEntity
  8
1
100
AcDbLine
 10
9.164089999999999
 20
4.229281999999999
 30
0.0
 11
16.0
 21
6.313125
 31
0.0
  0
LINE
  5
7B
330
4BA
100
AcDbEntity
  8
1
100
AcDbLine
 10
11.549191
 20
0.7200540000000001
 30
0.0
 11
10.682447
 21
0.497661
 31
0.0
  0
LINE
  5
7C
330
4BA
100
AcDbEntity
  8
1
100
AcDbLine
 10
10.682447
 20
0.497661
 30
0.0
 11
10.246061
 21
0.386133
 31
0.0
  0
LINE
  5
7D
330
4BA
100
AcDbEntity
  8
1
100
AcDbLine
 10
15.5
 20
2.70804
 30
0.0
 11
9.745649999999999
 21
0.9538969999999999
 31
0.0
  0
LINE
  5
7E
330
4BA
100
AcDbEntity
  8
1
100
AcDbLine
 10
8.611062999999999
 20
-12.55488
 30
0.0
 11
9.234792999999999
 21
-12.515383
 31
0.0
  0
LINE
  5
7F
330
4BA
100
AcDbEntity
  8
1
100
AcDbLine
 10
9.234792999999999
 20
-12.515383
 30
0.0
 11
9.85468
 21
-12.472192
 31
0.0
  0
LINE
  5
80
330
4BA
100
AcDbEntity
  8
1
100
AcDbLine
 10
9.85468
 20
-12.472192
 30
0.0
 11
10.470721
 21
-12.425311
 31
0.0
  0
LINE
  5
81
330
4BA
100
AcDbEntity
  8
1
100
AcDbLine
 10
10.470721
 20
-12.425311
 30
0.0
 11
11.08294
 21
-12.374709
 31
0.0
  0
LINE
  5
82
330
4BA
100
AcDbEntity
  8
1
100
AcDbLine
 10
11.08294
 20
-12.374709
 30
0.0
 11
11.691314
 21
-12.320417
 31
0.0
  0
LINE
  5
83
330
4BA
100
AcDbEntity
  8
1
100
AcDbLine
 10
11.691314
 20
-12.320417
 30
0.0
 11
12.295781
 21
-12.262511
 31
0.0
  0
LINE
  5
84
330
4BA
100
AcDbEntity
  8
1
100
AcDbLine
 10
12.295781
 20
-12.262511
 30
0.0
 11
12.896319
 21
-12.201019
 31
0.0
  0
LINE
  5
85
330
4BA
100
AcDbEntity
  8
1
100
AcDbLine
 10
12.896319
 20
-12.201019
 30
0.0
 11
13.492951
 21
-12.135914
 31
0.0
  0
LINE
  5
86
330
4BA
100
AcDbEntity
  8
1
100
AcDbLine
 10
13.492951
 20
-12.135914
 30
0.0
 11
14.085676
 21
-12.067196
 31
0.0
  0
LINE
  5
87
330
4BA
100
AcDbEntity
  8
1
100
AcDbLine
 10
14.1
 20
-10.126296
 30
0.0
 11
13.68022
 21
-10.191184
 31
0.0
  0
LINE
  5
88
330
4BA
100
AcDbEntity
  8
1
100
AcDbLine
 10
13.68022
 20
-10.191184
 30
0.0
 11
13.258299
 21
-10.255372
 31
0.0
  0
LINE
  5
89
330
4BA
100
AcDbEntity
  8
1
100
AcDbLine
 10
13.258299
 20
-10.255372
 30
0.0
 11
12.834235
 21
-10.318863
 31
0.0
  0
LINE
  5
8A
330
4BA
100
AcDbEntity
  8
1
100
AcDbLine
 10
12.834235
 20
-10.318863
 30
0.0
 11
12.407985
 21
-10.381666
 31
0.0
  0
LINE
  5
8B
330
4BA
100
AcDbEntity
  8
1
100
AcDbLine
 10
12.407985
 20
-10.381666
 30
0.0
 11
11.979592
 21
-10.443773
 31
0.0
  0
LINE
  5
8C
330
4BA
100
AcDbEntity
  8
1
100
AcDbLine
 10
11.979592
 20
-10.443773
 30
0.0
 11
11.549191
 21
-10.505147
 31
0.0
  0
LINE
  5
8D
330
4BA
100
AcDbEntity
  8
1
100
AcDbLine
 10
11.549191
 20
-10.505147
 30
0.0
 11
11.116824
 21
-10.565779
 31
0.0
  0
LINE
  5
8E
330
4BA
100
AcDbEntity
  8
1
100
AcDbLine
 10
11.116824
 20
-10.565779
 30
0.0
 11
10.682447
 21
-10.625679
 31
0.0
  0
LINE
  5
8F
330
4BA
100
AcDbEntity
  8
1
100
AcDbLine
 10
10.682447
 20
-10.625679
 30
0.0
 11
10.246061
 21
-10.684849
 31
0.0
  0
LINE
  5
90
330
4BA
100
AcDbEntity
  8
1
100
AcDbLine
 10
15.5
 20
-6.608627999999999
 30
0.0
 11
9.745649999999999
 21
-8.362771
 31
0.0
  0
LINE
  5
91
330
4BA
100
AcDbEntity
  8
1
100
AcDbLine
 10
14.1
 20
-11.882569
 30
0.0
 11
13.390781
 21
-11.965647
 31
0.0
  0
LINE
  5
92
330
4BA
100
AcDbEntity
  8
1
100
AcDbLine
 10
13.390781
 20
-11.965647
 30
0.0
 11
12.6755
 21
-12.043536
 31
0.0
  0
LINE
  5
93
330
4BA
100
AcDbEntity
  8
1
100
AcDbLine
 10
12.6755
 20
-12.043536
 30
0.0
 11
11.954157
 21
-12.116233
 31
0.0
  0
LINE
  5
94
330
4BA
100
AcDbEntity
  8
1
100
AcDbLine
 10
11.954157
 20
-12.116233
 30
0.0
 11
11.226304
 21
-12.183817
 31
0.0
  0
LINE
  5
95
330
4BA
100
AcDbEntity
  8
1
100
AcDbLine
 10
11.226304
 20
-12.183817
 30
0.0
 11
10.492389
 21
-12.246212
 31
0.0
  0
LINE
  5
96
330
4BA
100
AcDbEntity
  8
1
100
AcDbLine
 10
10.492389
 20
-12.246212
 30
0.0
 11
9.753755999999999
 21
-12.303185
 31
0.0
  0
LINE
  5
97
330
4BA
100
AcDbEntity
  8
1
100
AcDbLine
 10
9.753755999999999
 20
-12.303185
 30
0.0
 11
9.010379999999999
 21
-12.354717
 31
0.0
  0
LINE
  5
98
330
4BA
100
AcDbEntity
  8
1
100
AcDbLine
 10
0.0
 20
-12.566669
 30
0.0
 11
2.950262999999999
 21
-12.566669
 31
0.0
  0
LINE
  5
99
330
4BA
100
AcDbEntity
  8
1
100
AcDbLine
 10
7.126276999999999
 20
-8.136966000000001
 30
0.0
 11
7.150382
 21
-8.092283
 31
0.0
  0
LINE
  5
9A
330
4BA
100
AcDbEntity
  8
1
100
AcDbLine
 10
7.150382
 20
-8.092283
 30
0.0
 11
7.176543999999999
 21
-8.047333
 31
0.0
  0
LINE
  5
9B
330
4BA
100
AcDbEntity
  8
1
100
AcDbLine
 10
7.176543999999999
 20
-8.047333
 30
0.0
 11
7.204774999999999
 21
-8.002130000000001
 31
0.0
  0
LINE
  5
9C
330
4BA
100
AcDbEntity
  8
1
100
AcDbLine
 10
7.204774999999999
 20
-8.002130000000001
 30
0.0
 11
7.235097
 21
-7.956571
 31
0.0
  0
LINE
  5
9D
330
4BA
100
AcDbEntity
  8
1
100
AcDbLine
 10
7.235097
 20
-7.956571
 30
0.0
 11
7.267514999999999
 21
-7.910797
 31
0.0
  0
LINE
  5
9E
330
4BA
100
AcDbEntity
  8
1
100
AcDbLine
 10
7.267514999999999
 20
-7.910797
 30
0.0
 11
7.302016
 21
-7.865183999999999
 31
0.0
  0
LINE
  5
9F
330
4BA
100
AcDbEntity
  8
1
100
AcDbLine
 10
7.302016
 20
-7.865183999999999
 30
0.0
 11
7.338642999999999
 21
-7.819753999999999
 31
0.0
  0
LINE
  5
A0
330
4BA
100
AcDbEntity
  8
1
100
AcDbLine
 10
7.338642999999999
 20
-7.819753999999999
 30
0.0
 11
7.377378
 21
-7.774526999999999
 31
0.0
  0
LINE
  5
A1
330
4BA
100
AcDbEntity
  8
1
100
AcDbLine
 10
7.377378
 20
-7.774526999999999
 30
0.0
 11
7.418110999999999
 21
-7.729878999999999
 31
0.0
  0
LINE
  5
A2
330
4BA
100
AcDbEntity
  8
1
100
AcDbLine
 10
7.418110999999999
 20
-7.729878999999999
 30
0.0
 11
7.460846
 21
-7.685867999999999
 31
0.0
  0
LINE
  5
A3
330
4BA
100
AcDbEntity
  8
1
100
AcDbLine
 10
7.460846
 20
-7.685867999999999
 30
0.0
 11
7.505599
 21
-7.642477999999999
 31
0.0
  0
LINE
  5
A4
330
4BA
100
AcDbEntity
  8
1
100
AcDbLine
 10
7.505599
 20
-7.642477999999999
 30
0.0
 11
7.552275999999999
 21
-7.599984
 31
0.0
  0
LINE
  5
A5
330
4BA
100
AcDbEntity
  8
1
100
AcDbLine
 10
7.552275999999999
 20
-7.599984
 30
0.0
 11
7.600877999999999
 21
-7.558424999999999
 31
0.0
  0
LINE
  5
A6
330
4BA
100
AcDbEntity
  8
1
100
AcDbLine
 10
7.600877999999999
 20
-7.558424999999999
 30
0.0
 11
7.651417999999999
 21
-7.517803999999999
 31
0.0
  0
LINE
  5
A7
330
4BA
100
AcDbEntity
  8
1
100
AcDbLine
 10
7.651417999999999
 20
-7.517803999999999
 30
0.0
 11
7.703828999999998
 21
-7.478345
 31
0.0
  0
LINE
  5
A8
330
4BA
100
AcDbEntity
  8
1
100
AcDbLine
 10
7.703828999999998
 20
-7.478345
 30
0.0
 11
7.758278999999999
 21
-7.439986
 31
0.0
  0
LINE
  5
A9
330
4BA
100
AcDbEntity
  8
1
100
AcDbLine
 10
7.758278999999999
 20
-7.439986
 30
0.0
 11
7.814608999999999
 21
-7.402833
 31
0.0
  0
LINE
  5
AA
330
4BA
100
AcDbEntity
  8
1
100
AcDbLine
 10
7.814608999999999
 20
-7.402833
 30
0.0
 11
7.872250999999999
 21
-7.367366999999999
 31
0.0
  0
LINE
  5
AB
330
4BA
100
AcDbEntity
  8
1
100
AcDbLine
 10
7.872250999999999
 20
-7.367366999999999
 30
0.0
 11
7.931372
 21
-7.333582999999999
 31
0.0
  0
LINE
  5
AC
330
4BA
100
AcDbEntity
  8
1
100
AcDbLine
 10
7.931372
 20
-7.333582999999999
 30
0.0
 11
7.991799999999999
 21
-7.301510999999999
 31
0.0
  0
LINE
  5
AD
330
4BA
100
AcDbEntity
  8
1
100
AcDbLine
 10
7.991799999999999
 20
-7.301510999999999
 30
0.0
 11
8.052449000000001
 21
-7.271656
 31
0.0
  0
LINE
  5
AE
330
4BA
100
AcDbEntity
  8
1
100
AcDbLine
 10
8.052449000000001
 20
-7.271656
 30
0.0
 11
8.113260999999999
 21
-7.244115999999999
 31
0.0
  0
LINE
  5
AF
330
4BA
100
AcDbEntity
  8
1
100
AcDbLine
 10
8.113260999999999
 20
-7.244115999999999
 30
0.0
 11
8.174272
 21
-7.218780999999999
 31
0.0
  0
LINE
  5
B0
330
4BA
100
AcDbEntity
  8
1
100
AcDbLine
 10
8.174272
 20
-7.218780999999999
 30
0.0
 11
8.234519
 21
-7.195807
 31
0.0
  0
LINE
  5
B1
330
4BA
100
AcDbEntity
  8
1
100
AcDbLine
 10
8.234519
 20
-7.195807
 30
0.0
 11
8.272396
 21
-7.182444
 31
0.0
  0
LINE
  5
B2
330
4BA
100
AcDbEntity
  8
1
100
AcDbLine
 10
8.272396
 20
-7.182444
 30
0.0
 11
8.293917999999999
 21
-7.17525
 31
0.0
  0
LINE
  5
B3
330
4BA
100
AcDbEntity
  8
1
100
AcDbLine
 10
8.293917999999999
 20
-7.17525
 30
0.0
 11
8.352524
 21
-7.157014
 31
0.0
  0
LINE
  5
B4
330
4BA
100
AcDbEntity
  8
1
100
AcDbLine
 10
8.352524
 20
-7.157014
 30
0.0
 11
8.409574
 21
-7.141000999999999
 31
0.0
  0
LINE
  5
B5
330
4BA
100
AcDbEntity
  8
1
100
AcDbLine
 10
8.409574
 20
-7.141000999999999
 30
0.0
 11
8.464930999999999
 21
-7.127238
 31
0.0
  0
LINE
  5
B6
330
4BA
100
AcDbEntity
  8
1
100
AcDbLine
 10
8.464930999999999
 20
-7.127238
 30
0.0
 11
8.518703999999999
 21
-7.115639999999999
 31
0.0
  0
LINE
  5
B7
330
4BA
100
AcDbEntity
  8
1
100
AcDbLine
 10
8.518703999999999
 20
-7.115639999999999
 30
0.0
 11
8.570491999999999
 21
-7.105927999999999
 31
0.0
  0
LINE
  5
B8
330
4BA
100
AcDbEntity
  8
1
100
AcDbLine
 10
8.570491999999999
 20
-7.105927999999999
 30
0.0
 11
8.620096
 21
-7.098091999999999
 31
0.0
  0
LINE
  5
B9
330
4BA
100
AcDbEntity
  8
1
100
AcDbLine
 10
8.620096
 20
-7.098091999999999
 30
0.0
 11
8.667695
 21
-7.092082
 31
0.0
  0
LINE
  5
BA
330
4BA
100
AcDbEntity
  8
1
100
AcDbLine
 10
8.667695
 20
-7.092082
 30
0.0
 11
8.713454999999999
 21
-7.087558
 31
0.0
  0
LINE
  5
BB
330
4BA
100
AcDbEntity
  8
1
100
AcDbLine
 10
8.713454999999999
 20
-7.087558
 30
0.0
 11
8.757329999999999
 21
-7.084463999999999
 31
0.0
  0
LINE
  5
BC
330
4BA
100
AcDbEntity
  8
1
100
AcDbLine
 10
8.757329999999999
 20
-7.084463999999999
 30
0.0
 11
8.799353999999999
 21
-7.082807999999999
 31
0.0
  0
LINE
  5
BD
330
4BA
100
AcDbEntity
  8
1
100
AcDbLine
 10
8.799353999999999
 20
-7.082807999999999
 30
0.0
 11
8.839819999999999
 21
-7.082358
 31
0.0
  0
LINE
  5
BE
330
4BA
100
AcDbEntity
  8
1
100
AcDbLine
 10
8.839819999999999
 20
-7.082358
 30
0.0
 11
8.878762
 21
-7.083061999999999
 31
0.0
  0
LINE
  5
BF
330
4BA
100
AcDbEntity
  8
1
100
AcDbLine
 10
8.878762
 20
-7.083061999999999
 30
0.0
 11
8.916136999999999
 21
-7.084935
 31
0.0
  0
LINE
  5
C0
330
4BA
100
AcDbEntity
  8
1
100
AcDbLine
 10
8.916136999999999
 20
-7.084935
 30
0.0
 11
8.952121999999999
 21
-7.087836999999999
 31
0.0
  0
LINE
  5
C1
330
4BA
100
AcDbEntity
  8
1
100
AcDbLine
 10
8.952121999999999
 20
-7.087836999999999
 30
0.0
 11
8.986800999999999
 21
-7.091758999999999
 31
0.0
  0
LINE
  5
C2
330
4BA
100
AcDbEntity
  8
1
100
AcDbLine
 10
8.986800999999999
 20
-7.091758999999999
 30
0.0
 11
9.020083999999998
 21
-7.096683999999999
 31
0.0
  0
LINE
  5
C3
330
4BA
100
AcDbEntity
  8
1
100
AcDbLine
 10
9.020083999999998
 20
-7.096683999999999
 30
0.0
 11
9.05189
 21
-7.102466999999999
 31
0.0
  0
LINE
  5
C4
330
4BA
100
AcDbEntity
  8
1
100
AcDbLine
 10
9.05189
 20
-7.102466999999999
 30
0.0
 11
9.082166
 21
-7.109091
 31
0.0
  0
LINE
  5
C5
330
4BA
100
AcDbEntity
  8
1
100
AcDbLine
 10
9.082166
 20
-7.109091
 30
0.0
 11
9.110961999999998
 21
-7.11655
 31
0.0
  0
LINE
  5
C6
330
4BA
100
AcDbEntity
  8
1
100
AcDbLine
 10
9.110961999999998
 20
-7.11655
 30
0.0
 11
9.138341999999999
 21
-7.124711999999999
 31
0.0
  0
LINE
  5
C7
330
4BA
100
AcDbEntity
  8
1
100
AcDbLine
 10
9.138341999999999
 20
-7.124711999999999
 30
0.0
 11
9.164286
 21
-7.133553999999999
 31
0.0
  0
LINE
  5
C8
330
4BA
100
AcDbEntity
  8
1
100
AcDbLine
 10
9.164286
 20
-7.133553999999999
 30
0.0
 11
9.188812999999999
 21
-7.143080999999999
 31
0.0
  0
LINE
  5
C9
330
4BA
100
AcDbEntity
  8
1
100
AcDbLine
 10
9.188812999999999
 20
-7.143080999999999
 30
0.0
 11
9.212057000000001
 21
-7.153197999999999
 31
0.0
  0
LINE
  5
CA
330
4BA
100
AcDbEntity
  8
1
100
AcDbLine
 10
9.212057000000001
 20
-7.153197999999999
 30
0.0
 11
9.234059
 21
-7.163924
 31
0.0
  0
LINE
  5
CB
330
4BA
100
AcDbEntity
  8
1
100
AcDbLine
 10
9.234059
 20
-7.163924
 30
0.0
 11
9.254777999999999
 21
-7.175228999999998
 31
0.0
  0
LINE
  5
CC
330
4BA
100
AcDbEntity
  8
1
100
AcDbLine
 10
9.254777999999999
 20
-7.175228999999998
 30
0.0
 11
9.274221999999999
 21
-7.186947999999999
 31
0.0
  0
LINE
  5
CD
330
4BA
100
AcDbEntity
  8
1
100
AcDbLine
 10
9.274221999999999
 20
-7.186947999999999
 30
0.0
 11
9.29235
 21
-7.199063999999999
 31
0.0
  0
LINE
  5
CE
330
4BA
100
AcDbEntity
  8
1
100
AcDbLine
 10
9.29235
 20
-7.199063999999999
 30
0.0
 11
9.309203
 21
-7.211585
 31
0.0
  0
LINE
  5
CF
330
4BA
100
AcDbEntity
  8
1
100
AcDbLine
 10
9.309203
 20
-7.211585
 30
0.0
 11
9.324907000000001
 21
-7.224389999999999
 31
0.0
  0
LINE
  5
D0
330
4BA
100
AcDbEntity
  8
1
100
AcDbLine
 10
9.324907000000001
 20
-7.224389999999999
 30
0.0
 11
9.339501999999999
 21
-7.237438
 31
0.0
  0
LINE
  5
D1
330
4BA
100
AcDbEntity
  8
1
100
AcDbLine
 10
9.339501999999999
 20
-7.237438
 30
0.0
 11
9.352947999999999
 21
-7.250763
 31
0.0
  0
LINE
  5
D2
330
4BA
100
AcDbEntity
  8
1
100
AcDbLine
 10
9.352947999999999
 20
-7.250763
 30
0.0
 11
9.365244
 21
-7.264363999999999
 31
0.0
  0
LINE
  5
D3
330
4BA
100
AcDbEntity
  8
1
100
AcDbLine
 10
5.725698
 20
-10.531574
 30
0.0
 11
5.580208999999999
 21
-10.415945
 31
0.0
  0
LINE
  5
D4
330
4BA
100
AcDbEntity
  8
1
100
AcDbLine
 10
5.580208999999999
 20
-10.415945
 30
0.0
 11
5.436805
 21
-10.294163
 31
0.0
  0
LINE
  5
D5
330
4BA
100
AcDbEntity
  8
1
100
AcDbLine
 10
5.436805
 20
-10.294163
 30
0.0
 11
5.295485
 21
-10.166023
 31
0.0
  0
LINE
  5
D6
330
4BA
100
AcDbEntity
  8
1
100
AcDbLine
 10
5.295485
 20
-10.166023
 30
0.0
 11
5.1561
 21
-10.031108
 31
0.0
  0
LINE
  5
D7
330
4BA
100
AcDbEntity
  8
1
100
AcDbLine
 10
5.1561
 20
-10.031108
 30
0.0
 11
5.018798999999999
 21
-9.889416
 31
0.0
  0
LINE
  5
D8
330
4BA
100
AcDbEntity
  8
1
100
AcDbLine
 10
5.018798999999999
 20
-9.889416
 30
0.0
 11
4.884028999999999
 21
-9.741421
 31
0.0
  0
LINE
  5
D9
330
4BA
100
AcDbEntity
  8
1
100
AcDbLine
 10
4.884028999999999
 20
-9.741421
 30
0.0
 11
4.751853999999999
 21
-9.586975
 31
0.0
  0
LINE
  5
DA
330
4BA
100
AcDbEntity
  8
1
100
AcDbLine
 10
4.751853999999999
 20
-9.586975
 30
0.0
 11
4.622209999999999
 21
-9.425925999999998
 31
0.0
  0
LINE
  5
DB
330
4BA
100
AcDbEntity
  8
1
100
AcDbLine
 10
4.622209999999999
 20
-9.425925999999998
 30
0.0
 11
4.495341999999999
 21
-9.258839
 31
0.0
  0
LINE
  5
DC
330
4BA
100
AcDbEntity
  8
1
100
AcDbLine
 10
4.495341999999999
 20
-9.258839
 30
0.0
 11
4.371300999999999
 21
-9.085657000000001
 31
0.0
  0
LINE
  5
DD
330
4BA
100
AcDbEntity
  8
1
100
AcDbLine
 10
4.371300999999999
 20
-9.085657000000001
 30
0.0
 11
4.250036999999999
 21
-8.906259
 31
0.0
  0
LINE
  5
DE
330
4BA
100
AcDbEntity
  8
1
100
AcDbLine
 10
4.250036999999999
 20
-8.906259
 30
0.0
 11
4.131642
 21
-8.721213
 31
0.0
  0
LINE
  5
DF
330
4BA
100
AcDbEntity
  8
1
100
AcDbLine
 10
4.131642
 20
-8.721213
 30
0.0
 11
4.016083999999999
 21
-8.530413000000001
 31
0.0
  0
LINE
  5
E0
330
4BA
100
AcDbEntity
  8
1
100
AcDbLine
 10
4.016083999999999
 20
-8.530413000000001
 30
0.0
 11
3.903394999999999
 21
-8.333892999999999
 31
0.0
  0
LINE
  5
E1
330
4BA
100
AcDbEntity
  8
1
100
AcDbLine
 10
3.903394999999999
 20
-8.333892999999999
 30
0.0
 11
3.793769999999999
 21
-8.132524
 31
0.0
  0
LINE
  5
E2
330
4BA
100
AcDbEntity
  8
1
100
AcDbLine
 10
3.793769999999999
 20
-8.132524
 30
0.0
 11
3.687230999999999
 21
-7.926389
 31
0.0
  0
LINE
  5
E3
330
4BA
100
AcDbEntity
  8
1
100
AcDbLine
 10
3.687230999999999
 20
-7.926389
 30
0.0
 11
3.583755999999999
 21
-7.715469
 31
0.0
  0
LINE
  5
E4
330
4BA
100
AcDbEntity
  8
1
100
AcDbLine
 10
3.583755999999999
 20
-7.715469
 30
0.0
 11
3.483471999999999
 21
-7.500567
 31
0.0
  0
LINE
  5
E5
330
4BA
100
AcDbEntity
  8
1
100
AcDbLine
 10
3.483471999999999
 20
-7.500567
 30
0.0
 11
3.386376
 21
-7.281811
 31
0.0
  0
LINE
  5
E6
330
4BA
100
AcDbEntity
  8
1
100
AcDbLine
 10
3.386376
 20
-7.281811
 30
0.0
 11
3.292470999999999
 21
-7.059235
 31
0.0
  0
LINE
  5
E7
330
4BA
100
AcDbEntity
  8
1
100
AcDbLine
 10
3.292470999999999
 20
-7.059235
 30
0.0
 11
3.201893
 21
-6.833571
 31
0.0
  0
LINE
  5
E8
330
4BA
100
AcDbEntity
  8
1
100
AcDbLine
 10
3.201893
 20
-6.833571
 30
0.0
 11
3.114688999999999
 21
-6.605152999999999
 31
0.0
  0
LINE
  5
E9
330
4BA
100
AcDbEntity
  8
1
100
AcDbLine
 10
3.114688999999999
 20
-6.605152999999999
 30
0.0
 11
3.030812
 21
-6.373877999999999
 31
0.0
  0
LINE
  5
EA
330
4BA
100
AcDbEntity
  8
1
100
AcDbLine
 10
3.030812
 20
-6.373877999999999
 30
0.0
 11
2.950262999999999
 21
-6.139865
 31
0.0
  0
LINE
  5
EB
330
4BA
100
AcDbEntity
  8
1
100
AcDbLine
 10
7.328591
 20
-9.405533
 30
0.0
 11
7.181299
 21
-9.491136
 31
0.0
  0
LINE
  5
EC
330
4BA
100
AcDbEntity
  8
1
100
AcDbLine
 10
7.181299
 20
-9.491136
 30
0.0
 11
7.036116999999999
 21
-9.578485
 31
0.0
  0
LINE
  5
ED
330
4BA
100
AcDbEntity
  8
1
100
AcDbLine
 10
7.036116999999999
 20
-9.578485
 30
0.0
 11
6.893166
 21
-9.667507999999999
 31
0.0
  0
LINE
  5
EE
330
4BA
100
AcDbEntity
  8
1
100
AcDbLine
 10
6.893166
 20
-9.667507999999999
 30
0.0
 11
6.752561999999999
 21
-9.758133
 31
0.0
  0
LINE
  5
EF
330
4BA
100
AcDbEntity
  8
1
100
AcDbLine
 10
6.752561999999999
 20
-9.758133
 30
0.0
 11
6.614422
 21
-9.850285000000001
 31
0.0
  0
LINE
  5
F0
330
4BA
100
AcDbEntity
  8
1
100
AcDbLine
 10
6.614422
 20
-9.850285000000001
 30
0.0
 11
6.47886
 21
-9.943887
 31
0.0
  0
LINE
  5
F1
330
4BA
100
AcDbEntity
  8
1
100
AcDbLine
 10
6.47886
 20
-9.943887
 30
0.0
 11
6.345985999999999
 21
-10.038863
 31
0.0
  0
LINE
  5
F2
330
4BA
100
AcDbEntity
  8
1
100
AcDbLine
 10
6.345985999999999
 20
-10.038863
 30
0.0
 11
6.215911
 21
-10.135133
 31
0.0
  0
LINE
  5
F3
330
4BA
100
AcDbEntity
  8
1
100
AcDbLine
 10
6.215911
 20
-10.135133
 30
0.0
 11
6.088741
 21
-10.232621
 31
0.0
  0
LINE
  5
F4
330
4BA
100
AcDbEntity
  8
1
100
AcDbLine
 10
6.088741
 20
-10.232621
 30
0.0
 11
5.964580999999999
 21
-10.331245
 31
0.0
  0
LINE
  5
F5
330
4BA
100
AcDbEntity
  8
1
100
AcDbLine
 10
5.964580999999999
 20
-10.331245
 30
0.0
 11
5.843534
 21
-10.430923
 31
0.0
  0
LINE
  5
F6
330
4BA
100
AcDbEntity
  8
1
100
AcDbLine
 10
5.843534
 20
-10.430923
 30
0.0
 11
5.725698
 21
-10.531574
 31
0.0
  0
LINE
  5
F7
330
4BA
100
AcDbEntity
  8
1
100
AcDbLine
 10
9.010379999999999
 20
-12.354717
 30
0.0
 11
8.262285
 21
-12.400826
 31
0.0
  0
LINE
  5
F8
330
4BA
100
AcDbEntity
  8
1
100
AcDbLine
 10
8.262285
 20
-12.400826
 30
0.0
 11
7.510889999999999
 21
-12.441341
 31
0.0
  0
LINE
  5
F9
330
4BA
100
AcDbEntity
  8
1
100
AcDbLine
 10
7.510889999999999
 20
-12.441341
 30
0.0
 11
6.756139999999999
 21
-12.476241
 31
0.0
  0
LINE
  5
FA
330
4BA
100
AcDbEntity
  8
1
100
AcDbLine
 10
6.756139999999999
 20
-12.476241
 30
0.0
 11
5.998089
 21
-12.505546
 31
0.0
  0
LINE
  5
FB
330
4BA
100
AcDbEntity
  8
1
100
AcDbLine
 10
5.998089
 20
-12.505546
 30
0.0
 11
5.238317999999999
 21
-12.529143
 31
0.0
  0
LINE
  5
FC
330
4BA
100
AcDbEntity
  8
1
100
AcDbLine
 10
5.238317999999999
 20
-12.529143
 30
0.0
 11
4.477352999999999
 21
-12.546997
 31
0.0
  0
LINE
  5
FD
330
4BA
100
AcDbEntity
  8
1
100
AcDbLine
 10
4.477352999999999
 20
-12.546997
 30
0.0
 11
3.714668
 21
-12.559145
 31
0.0
  0
LINE
  5
FE
330
4BA
100
AcDbEntity
  8
1
100
AcDbLine
 10
3.714668
 20
-12.559145
 30
0.0
 11
2.950262999999999
 21
-12.565585
 31
0.0
  0
LINE
  5
FF
330
4BA
100
AcDbEntity
  8
1
100
AcDbLine
 10
10.246061
 20
-10.684849
 30
0.0
 11
10.095546
 21
-10.703815
 31
0.0
  0
LINE
  5
100
330
4BA
100
AcDbEntity
  8
1
100
AcDbLine
 10
10.095546
 20
-10.703815
 30
0.0
 11
9.944072999999999
 21
-10.720635
 31
0.0
  0
LINE
  5
101
330
4BA
100
AcDbEntity
  8
1
100
AcDbLine
 10
9.944072999999999
 20
-10.720635
 30
0.0
 11
9.791641999999999
 21
-10.735334
 31
0.0
  0
LINE
  5
102
330
4BA
100
AcDbEntity
  8
1
100
AcDbLine
 10
9.791641999999999
 20
-10.735334
 30
0.0
 11
9.638260999999999
 21
-10.747899
 31
0.0
  0
LINE
  5
103
330
4BA
100
AcDbEntity
  8
1
100
AcDbLine
 10
9.638260999999999
 20
-10.747899
 30
0.0
 11
9.483921
 21
-10.758386
 31
0.0
  0
LINE
  5
104
330
4BA
100
AcDbEntity
  8
1
100
AcDbLine
 10
9.483921
 20
-10.758386
 30
0.0
 11
9.328602
 21
-10.766926
 31
0.0
  0
LINE
  5
105
330
4BA
100
AcDbEntity
  8
1
100
AcDbLine
 10
9.328602
 20
-10.766926
 30
0.0
 11
9.172323999999999
 21
-10.773533
 31
0.0
  0
LINE
  5
106
330
4BA
100
AcDbEntity
  8
1
100
AcDbLine
 10
9.172323999999999
 20
-10.773533
 30
0.0
 11
9.015064999999999
 21
-10.778215
 31
0.0
  0
LINE
  5
107
330
4BA
100
AcDbEntity
  8
1
100
AcDbLine
 10
9.015064999999999
 20
-10.778215
 30
0.0
 11
8.856742
 21
-10.781085
 31
0.0
  0
LINE
  5
108
330
4BA
100
AcDbEntity
  8
1
100
AcDbLine
 10
8.856742
 20
-10.781085
 30
0.0
 11
8.697461
 21
-10.782156
 31
0.0
  0
LINE
  5
109
330
4BA
100
AcDbEntity
  8
1
100
AcDbLine
 10
8.697461
 20
-10.782156
 30
0.0
 11
8.537116000000001
 21
-10.781419
 31
0.0
  0
LINE
  5
10A
330
4BA
100
AcDbEntity
  8
1
100
AcDbLine
 10
8.537116000000001
 20
-10.781419
 30
0.0
 11
8.375291999999999
 21
-10.778948
 31
0.0
  0
LINE
  5
10B
330
4BA
100
AcDbEntity
  8
1
100
AcDbLine
 10
8.375291999999999
 20
-10.778948
 30
0.0
 11
8.211937999999999
 21
-10.774752
 31
0.0
  0
LINE
  5
10C
330
4BA
100
AcDbEntity
  8
1
100
AcDbLine
 10
8.211937999999999
 20
-10.774752
 30
0.0
 11
8.047107
 21
-10.768811
 31
0.0
  0
LINE
  5
10D
330
4BA
100
AcDbEntity
  8
1
100
AcDbLine
 10
8.047107
 20
-10.768811
 30
0.0
 11
7.880546
 21
-10.761159
 31
0.0
  0
LINE
  5
10E
330
4BA
100
AcDbEntity
  8
1
100
AcDbLine
 10
7.880546
 20
-10.761159
 30
0.0
 11
7.712222999999999
 21
-10.751789
 31
0.0
  0
LINE
  5
10F
330
4BA
100
AcDbEntity
  8
1
100
AcDbLine
 10
7.712222999999999
 20
-10.751789
 30
0.0
 11
7.542171
 21
-10.740685
 31
0.0
  0
LINE
  5
110
330
4BA
100
AcDbEntity
  8
1
100
AcDbLine
 10
7.542171
 20
-10.740685
 30
0.0
 11
7.370233999999999
 21
-10.727862
 31
0.0
  0
LINE
  5
111
330
4BA
100
AcDbEntity
  8
1
100
AcDbLine
 10
7.370233999999999
 20
-10.727862
 30
0.0
 11
7.196463999999999
 21
-10.71331
 31
0.0
  0
LINE
  5
112
330
4BA
100
AcDbEntity
  8
1
100
AcDbLine
 10
7.196463999999999
 20
-10.71331
 30
0.0
 11
7.020808999999999
 21
-10.697005
 31
0.0
  0
LINE
  5
113
330
4BA
100
AcDbEntity
  8
1
100
AcDbLine
 10
7.020808999999999
 20
-10.697005
 30
0.0
 11
6.84296
 21
-10.678926
 31
0.0
  0
LINE
  5
114
330
4BA
100
AcDbEntity
  8
1
100
AcDbLine
 10
6.84296
 20
-10.678926
 30
0.0
 11
6.662942
 21
-10.659062
 31
0.0
  0
LINE
  5
115
330
4BA
100
AcDbEntity
  8
1
100
AcDbLine
 10
6.662942
 20
-10.659062
 30
0.0
 11
6.480729
 21
-10.637378
 31
0.0
  0
LINE
  5
116
330
4BA
100
AcDbEntity
  8
1
100
AcDbLine
 10
6.480729
 20
-10.637378
 30
0.0
 11
6.295937999999999
 21
-10.61382
 31
0.0
  0
LINE
  5
117
330
4BA
100
AcDbEntity
  8
1
100
AcDbLine
 10
6.295937999999999
 20
-10.61382
 30
0.0
 11
6.108437
 21
-10.58835
 31
0.0
  0
LINE
  5
118
330
4BA
100
AcDbEntity
  8
1
100
AcDbLine
 10
6.108437
 20
-10.58835
 30
0.0
 11
5.918357
 21
-10.560946
 31
0.0
  0
LINE
  5
119
330
4BA
100
AcDbEntity
  8
1
100
AcDbLine
 10
5.918357
 20
-10.560946
 30
0.0
 11
5.725698
 21
-10.531574
 31
0.0
  0
LINE
  5
11A
330
4BA
100
AcDbEntity
  8
1
100
AcDbLine
 10
2.999155
 20
-12.566669
 30
0.0
 11
2.993654
 21
-12.566656
 31
0.0
  0
LINE
  5
11B
330
4BA
100
AcDbEntity
  8
1
100
AcDbLine
 10
2.993654
 20
-12.566656
 30
0.0
 11
2.988170999999999
 21
-12.566614
 31
0.0
  0
LINE
  5
11C
330
4BA
100
AcDbEntity
  8
1
100
AcDbLine
 10
2.988170999999999
 20
-12.566614
 30
0.0
 11
2.982704999999999
 21
-12.566548
 31
0.0
  0
LINE
  5
11D
330
4BA
100
AcDbEntity
  8
1
100
AcDbLine
 10
2.982704999999999
 20
-12.566548
 30
0.0
 11
2.977254999999999
 21
-12.566454
 31
0.0
  0
LINE
  5
11E
330
4BA
100
AcDbEntity
  8
1
100
AcDbLine
 10
2.977254999999999
 20
-12.566454
 30
0.0
 11
2.971823
 21
-12.566334
 31
0.0
  0
LINE
  5
11F
330
4BA
100
AcDbEntity
  8
1
100
AcDbLine
 10
2.971823
 20
-12.566334
 30
0.0
 11
2.966406999999999
 21
-12.566187
 31
0.0
  0
LINE
  5
120
330
4BA
100
AcDbEntity
  8
1
100
AcDbLine
 10
2.966406999999999
 20
-12.566187
 30
0.0
 11
2.961009
 21
-12.566012
 31
0.0
  0
LINE
  5
121
330
4BA
100
AcDbEntity
  8
1
100
AcDbLine
 10
2.961009
 20
-12.566012
 30
0.0
 11
2.955627
 21
-12.565812
 31
0.0
  0
LINE
  5
122
330
4BA
100
AcDbEntity
  8
1
100
AcDbLine
 10
2.955627
 20
-12.565812
 30
0.0
 11
2.950262999999999
 21
-12.565585
 31
0.0
  0
LINE
  5
123
330
4BA
100
AcDbEntity
  8
1
100
AcDbLine
 10
3.057008
 20
-12.564685
 30
0.0
 11
2.999155
 21
-12.566669
 31
0.0
  0
LINE
  5
124
330
4BA
100
AcDbEntity
  8
1
100
AcDbLine
 10
9.055747999999999
 20
-8.396601999999999
 30
0.0
 11
9.02846
 21
-8.431385
 31
0.0
  0
LINE
  5
125
330
4BA
100
AcDbEntity
  8
1
100
AcDbLine
 10
9.02846
 20
-8.431385
 30
0.0
 11
9.000752
 21
-8.465841000000001
 31
0.0
  0
LINE
  5
126
330
4BA
100
AcDbEntity
  8
1
100
AcDbLine
 10
9.000752
 20
-8.465841000000001
 30
0.0
 11
8.972627000000001
 21
-8.499967999999999
 31
0.0
  0
LINE
  5
127
330
4BA
100
AcDbEntity
  8
1
100
AcDbLine
 10
8.972627000000001
 20
-8.499967999999999
 30
0.0
 11
8.944074999999999
 21
-8.533777999999999
 31
0.0
  0
LINE
  5
128
330
4BA
100
AcDbEntity
  8
1
100
AcDbLine
 10
8.944074999999999
 20
-8.533777999999999
 30
0.0
 11
8.915108999999999
 21
-8.567263
 31
0.0
  0
LINE
  5
129
330
4BA
100
AcDbEntity
  8
1
100
AcDbLine
 10
8.915108999999999
 20
-8.567263
 30
0.0
 11
8.885761
 21
-8.600407999999999
 31
0.0
  0
LINE
  5
12A
330
4BA
100
AcDbEntity
  8
1
100
AcDbLine
 10
8.885761
 20
-8.600407999999999
 30
0.0
 11
8.856042
 21
-8.633207
 31
0.0
  0
LINE
  5
12B
330
4BA
100
AcDbEntity
  8
1
100
AcDbLine
 10
8.856042
 20
-8.633207
 30
0.0
 11
8.825944999999999
 21
-8.665668
 31
0.0
  0
LINE
  5
12C
330
4BA
100
AcDbEntity
  8
1
100
AcDbLine
 10
8.825944999999999
 20
-8.665668
 30
0.0
 11
8.795471
 21
-8.697792999999998
 31
0.0
  0
LINE
  5
12D
330
4BA
100
AcDbEntity
  8
1
100
AcDbLine
 10
8.795471
 20
-8.697792999999998
 30
0.0
 11
8.781985999999999
 21
-8.723249
 31
0.0
  0
LINE
  5
12E
330
4BA
100
AcDbEntity
  8
1
100
AcDbLine
 10
8.781985999999999
 20
-8.723249
 30
0.0
 11
8.767036
 21
-8.749221
 31
0.0
  0
LINE
  5
12F
330
4BA
100
AcDbEntity
  8
1
100
AcDbLine
 10
8.767036
 20
-8.749221
 30
0.0
 11
8.750591
 21
-8.775658999999999
 31
0.0
  0
LINE
  5
130
330
4BA
100
AcDbEntity
  8
1
100
AcDbLine
 10
8.750591
 20
-8.775658999999999
 30
0.0
 11
8.732603999999998
 21
-8.802550999999999
 31
0.0
  0
LINE
  5
131
330
4BA
100
AcDbEntity
  8
1
100
AcDbLine
 10
8.732603999999998
 20
-8.802550999999999
 30
0.0
 11
8.713057
 21
-8.8298
 31
0.0
  0
LINE
  5
132
330
4BA
100
AcDbEntity
  8
1
100
AcDbLine
 10
8.713057
 20
-8.8298
 30
0.0
 11
8.691971
 21
-8.857229999999999
 31
0.0
  0
LINE
  5
133
330
4BA
100
AcDbEntity
  8
1
100
AcDbLine
 10
8.691971
 20
-8.857229999999999
 30
0.0
 11
8.669325999999999
 21
-8.884772999999999
 31
0.0
  0
LINE
  5
134
330
4BA
100
AcDbEntity
  8
1
100
AcDbLine
 10
8.669325999999999
 20
-8.884772999999999
 30
0.0
 11
8.645097999999999
 21
-8.91239
 31
0.0
  0
LINE
  5
135
330
4BA
100
AcDbEntity
  8
1
100
AcDbLine
 10
8.645097999999999
 20
-8.91239
 30
0.0
 11
8.619324
 21
-8.939958999999999
 31
0.0
  0
LINE
  5
136
330
4BA
100
AcDbEntity
  8
1
100
AcDbLine
 10
8.619324
 20
-8.939958999999999
 30
0.0
 11
8.592002
 21
-8.967404999999999
 31
0.0
  0
LINE
  5
137
330
4BA
100
AcDbEntity
  8
1
100
AcDbLine
 10
8.592002
 20
-8.967404999999999
 30
0.0
 11
8.563102999999999
 21
-8.994690999999999
 31
0.0
  0
LINE
  5
138
330
4BA
100
AcDbEntity
  8
1
100
AcDbLine
 10
8.563102999999999
 20
-8.994690999999999
 30
0.0
 11
8.532619999999999
 21
-9.021767
 31
0.0
  0
LINE
  5
139
330
4BA
100
AcDbEntity
  8
1
100
AcDbLine
 10
8.532619999999999
 20
-9.021767
 30
0.0
 11
8.500507999999999
 21
-9.048592999999998
 31
0.0
  0
LINE
  5
13A
330
4BA
100
AcDbEntity
  8
1
100
AcDbLine
 10
8.500507999999999
 20
-9.048592999999998
 30
0.0
 11
8.466787
 21
-9.075078999999998
 31
0.0
  0
LINE
  5
13B
330
4BA
100
AcDbEntity
  8
1
100
AcDbLine
 10
8.466787
 20
-9.075078999999998
 30
0.0
 11
8.431546
 21
-9.101108999999999
 31
0.0
  0
LINE
  5
13C
330
4BA
100
AcDbEntity
  8
1
100
AcDbLine
 10
8.431546
 20
-9.101108999999999
 30
0.0
 11
8.394769999999999
 21
-9.126618999999999
 31
0.0
  0
LINE
  5
13D
330
4BA
100
AcDbEntity
  8
1
100
AcDbLine
 10
8.394769999999999
 20
-9.126618999999999
 30
0.0
 11
8.356466000000001
 21
-9.151542999999998
 31
0.0
  0
LINE
  5
13E
330
4BA
100
AcDbEntity
  8
1
100
AcDbLine
 10
8.356466000000001
 20
-9.151542999999998
 30
0.0
 11
8.316762999999999
 21
-9.175757
 31
0.0
  0
LINE
  5
13F
330
4BA
100
AcDbEntity
  8
1
100
AcDbLine
 10
8.316762999999999
 20
-9.175757
 30
0.0
 11
8.275600999999999
 21
-9.19923
 31
0.0
  0
LINE
  5
140
330
4BA
100
AcDbEntity
  8
1
100
AcDbLine
 10
8.275600999999999
 20
-9.19923
 30
0.0
 11
8.233048
 21
-9.221866
 31
0.0
  0
LINE
  5
141
330
4BA
100
AcDbEntity
  8
1
100
AcDbLine
 10
8.233048
 20
-9.221866
 30
0.0
 11
8.189442999999998
 21
-9.243455
 31
0.0
  0
LINE
  5
142
330
4BA
100
AcDbEntity
  8
1
100
AcDbLine
 10
8.189442999999998
 20
-9.243455
 30
0.0
 11
8.144828
 21
-9.263946999999999
 31
0.0
  0
LINE
  5
143
330
4BA
100
AcDbEntity
  8
1
100
AcDbLine
 10
8.144828
 20
-9.263946999999999
 30
0.0
 11
8.099199999999999
 21
-9.283311999999998
 31
0.0
  0
LINE
  5
144
330
4BA
100
AcDbEntity
  8
1
100
AcDbLine
 10
8.099199999999999
 20
-9.283311999999998
 30
0.0
 11
8.052846999999999
 21
-9.301417
 31
0.0
  0
LINE
  5
145
330
4BA
100
AcDbEntity
  8
1
100
AcDbLine
 10
8.052846999999999
 20
-9.301417
 30
0.0
 11
8.00651
 21
-9.317992999999999
 31
0.0
  0
LINE
  5
146
330
4BA
100
AcDbEntity
  8
1
100
AcDbLine
 10
9.457487
 20
-7.530708999999999
 30
0.0
 11
9.457067
 21
-7.552477999999999
 31
0.0
  0
LINE
  5
147
330
4BA
100
AcDbEntity
  8
1
100
AcDbLine
 10
9.457067
 20
-7.552477999999999
 30
0.0
 11
9.455735999999999
 21
-7.574932
 31
0.0
  0
LINE
  5
148
330
4BA
100
AcDbEntity
  8
1
100
AcDbLine
 10
9.455735999999999
 20
-7.574932
 30
0.0
 11
9.453492999999999
 21
-7.598074999999999
 31
0.0
  0
LINE
  5
149
330
4BA
100
AcDbEntity
  8
1
100
AcDbLine
 10
9.453492999999999
 20
-7.598074999999999
 30
0.0
 11
9.450361
 21
-7.621911999999999
 31
0.0
  0
LINE
  5
14A
330
4BA
100
AcDbEntity
  8
1
100
AcDbLine
 10
9.450361
 20
-7.621911999999999
 30
0.0
 11
9.446317
 21
-7.646443999999999
 31
0.0
  0
LINE
  5
14B
330
4BA
100
AcDbEntity
  8
1
100
AcDbLine
 10
9.446317
 20
-7.646443999999999
 30
0.0
 11
9.441296000000001
 21
-7.671674999999999
 31
0.0
  0
LINE
  5
14C
330
4BA
100
AcDbEntity
  8
1
100
AcDbLine
 10
9.441296000000001
 20
-7.671674999999999
 30
0.0
 11
9.435296000000001
 21
-7.69761
 31
0.0
  0
LINE
  5
14D
330
4BA
100
AcDbEntity
  8
1
100
AcDbLine
 10
9.435296000000001
 20
-7.69761
 30
0.0
 11
9.428319
 21
-7.724252
 31
0.0
  0
LINE
  5
14E
330
4BA
100
AcDbEntity
  8
1
100
AcDbLine
 10
9.428319
 20
-7.724252
 30
0.0
 11
9.420302000000001
 21
-7.751603
 31
0.0
  0
LINE
  5
14F
330
4BA
100
AcDbEntity
  8
1
100
AcDbLine
 10
9.420302000000001
 20
-7.751603
 30
0.0
 11
9.411267
 21
-7.779625
 31
0.0
  0
LINE
  5
150
330
4BA
100
AcDbEntity
  8
1
100
AcDbLine
 10
9.411267
 20
-7.779625
 30
0.0
 11
9.401191999999999
 21
-7.808364999999999
 31
0.0
  0
LINE
  5
151
330
4BA
100
AcDbEntity
  8
1
100
AcDbLine
 10
9.401191999999999
 20
-7.808364999999999
 30
0.0
 11
9.38995
 21
-7.83796
 31
0.0
  0
LINE
  5
152
330
4BA
100
AcDbEntity
  8
1
100
AcDbLine
 10
9.38995
 20
-7.83796
 30
0.0
 11
9.377542999999999
 21
-7.868444999999999
 31
0.0
  0
LINE
  5
153
330
4BA
100
AcDbEntity
  8
1
100
AcDbLine
 10
9.377542999999999
 20
-7.868444999999999
 30
0.0
 11
9.36397
 21
-7.899800999999999
 31
0.0
  0
LINE
  5
154
330
4BA
100
AcDbEntity
  8
1
100
AcDbLine
 10
9.36397
 20
-7.899800999999999
 30
0.0
 11
9.349100999999999
 21
-7.932081
 31
0.0
  0
LINE
  5
155
330
4BA
100
AcDbEntity
  8
1
100
AcDbLine
 10
9.349100999999999
 20
-7.932081
 30
0.0
 11
9.332933999999999
 21
-7.965314
 31
0.0
  0
LINE
  5
156
330
4BA
100
AcDbEntity
  8
1
100
AcDbLine
 10
9.332933999999999
 20
-7.965314
 30
0.0
 11
9.315472999999999
 21
-7.999488999999999
 31
0.0
  0
LINE
  5
157
330
4BA
100
AcDbEntity
  8
1
100
AcDbLine
 10
9.315472999999999
 20
-7.999488999999999
 30
0.0
 11
9.296588999999999
 21
-8.034614999999998
 31
0.0
  0
LINE
  5
158
330
4BA
100
AcDbEntity
  8
1
100
AcDbLine
 10
9.296588999999999
 20
-8.034614999999998
 30
0.0
 11
9.276303999999999
 21
-8.070688
 31
0.0
  0
LINE
  5
159
330
4BA
100
AcDbEntity
  8
1
100
AcDbLine
 10
9.276303999999999
 20
-8.070688
 30
0.0
 11
9.254599999999999
 21
-8.107734999999999
 31
0.0
  0
LINE
  5
15A
330
4BA
100
AcDbEntity
  8
1
100
AcDbLine
 10
9.254599999999999
 20
-8.107734999999999
 30
0.0
 11
9.231292999999999
 21
-8.145806
 31
0.0
  0
LINE
  5
15B
330
4BA
100
AcDbEntity
  8
1
100
AcDbLine
 10
9.231292999999999
 20
-8.145806
 30
0.0
 11
9.206392999999998
 21
-8.184933
 31
0.0
  0
LINE
  5
15C
330
4BA
100
AcDbEntity
  8
1
100
AcDbLine
 10
9.206392999999998
 20
-8.184933
 30
0.0
 11
9.179896000000001
 21
-8.225118
 31
0.0
  0
LINE
  5
15D
330
4BA
100
AcDbEntity
  8
1
100
AcDbLine
 10
9.179896000000001
 20
-8.225118
 30
0.0
 11
9.151597999999999
 21
-8.266358
 31
0.0
  0
LINE
  5
15E
330
4BA
100
AcDbEntity
  8
1
100
AcDbLine
 10
9.151597999999999
 20
-8.266358
 30
0.0
 11
9.121435999999999
 21
-8.308666999999999
 31
0.0
  0
LINE
  5
15F
330
4BA
100
AcDbEntity
  8
1
100
AcDbLine
 10
9.121435999999999
 20
-8.308666999999999
 30
0.0
 11
9.089483999999998
 21
-8.352076
 31
0.0
  0
LINE
  5
160
330
4BA
100
AcDbEntity
  8
1
100
AcDbLine
 10
9.089483999999998
 20
-8.352076
 30
0.0
 11
9.055747999999999
 21
-8.396601999999999
 31
0.0
  0
LINE
  5
161
330
4BA
100
AcDbEntity
  8
1
100
AcDbLine
 10
8.391548
 20
-12.52541
 30
0.0
 11
8.391548
 21
-12.39286
 31
0.0
  0
LINE
  5
162
330
4BA
100
AcDbEntity
  8
1
100
AcDbLine
 10
9.745649999999999
 20
-8.362771
 30
0.0
 11
9.586565999999999
 21
-8.412528999999999
 31
0.0
  0
LINE
  5
163
330
4BA
100
AcDbEntity
  8
1
100
AcDbLine
 10
9.586565999999999
 20
-8.412528999999999
 30
0.0
 11
9.427605999999999
 21
-8.464774999999999
 31
0.0
  0
LINE
  5
164
330
4BA
100
AcDbEntity
  8
1
100
AcDbLine
 10
9.427605999999999
 20
-8.464774999999999
 30
0.0
 11
9.268893999999999
 21
-8.519467
 31
0.0
  0
LINE
  5
165
330
4BA
100
AcDbEntity
  8
1
100
AcDbLine
 10
9.268893999999999
 20
-8.519467
 30
0.0
 11
9.110552
 21
-8.576564999999998
 31
0.0
  0
LINE
  5
166
330
4BA
100
AcDbEntity
  8
1
100
AcDbLine
 10
9.110552
 20
-8.576564999999998
 30
0.0
 11
8.952702999999999
 21
-8.636022
 31
0.0
  0
LINE
  5
167
330
4BA
100
AcDbEntity
  8
1
100
AcDbLine
 10
8.952702999999999
 20
-8.636022
 30
0.0
 11
8.795471
 21
-8.697792999999998
 31
0.0
  0
LINE
  5
168
330
4BA
100
AcDbEntity
  8
1
100
AcDbLine
 10
8.00651
 20
-9.317992999999999
 30
0.0
 11
7.958097
 21
-9.333743999999999
 31
0.0
  0
LINE
  5
169
330
4BA
100
AcDbEntity
  8
1
100
AcDbLine
 10
7.958097
 20
-9.333743999999999
 30
0.0
 11
7.909988
 21
-9.347855
 31
0.0
  0
LINE
  5
16A
330
4BA
100
AcDbEntity
  8
1
100
AcDbLine
 10
7.909988
 20
-9.347855
 30
0.0
 11
7.861527
 21
-9.360557
 31
0.0
  0
LINE
  5
16B
330
4BA
100
AcDbEntity
  8
1
100
AcDbLine
 10
7.861527
 20
-9.360557
 30
0.0
 11
7.812732
 21
-9.371850999999999
 31
0.0
  0
LINE
  5
16C
330
4BA
100
AcDbEntity
  8
1
100
AcDbLine
 10
7.812732
 20
-9.371850999999999
 30
0.0
 11
7.76383
 21
-9.381683999999999
 31
0.0
  0
LINE
  5
16D
330
4BA
100
AcDbEntity
  8
1
100
AcDbLine
 10
7.76383
 20
-9.381683999999999
 30
0.0
 11
7.714889
 21
-9.390057
 31
0.0
  0
LINE
  5
16E
330
4BA
100
AcDbEntity
  8
1
100
AcDbLine
 10
7.714889
 20
-9.390057
 30
0.0
 11
7.665911
 21
-9.396991999999999
 31
0.0
  0
LINE
  5
16F
330
4BA
100
AcDbEntity
  8
1
100
AcDbLine
 10
7.665911
 20
-9.396991999999999
 30
0.0
 11
7.617021
 21
-9.402469999999999
 31
0.0
  0
LINE
  5
170
330
4BA
100
AcDbEntity
  8
1
100
AcDbLine
 10
7.617021
 20
-9.402469999999999
 30
0.0
 11
7.568250999999999
 21
-9.406507000000001
 31
0.0
  0
LINE
  5
171
330
4BA
100
AcDbEntity
  8
1
100
AcDbLine
 10
7.568250999999999
 20
-9.406507000000001
 30
0.0
 11
7.519638999999999
 21
-9.409121
 31
0.0
  0
LINE
  5
172
330
4BA
100
AcDbEntity
  8
1
100
AcDbLine
 10
7.519638999999999
 20
-9.409121
 30
0.0
 11
7.471324
 21
-9.410307000000001
 31
0.0
  0
LINE
  5
173
330
4BA
100
AcDbEntity
  8
1
100
AcDbLine
 10
7.471324
 20
-9.410307000000001
 30
0.0
 11
7.423372
 21
-9.410083
 31
0.0
  0
LINE
  5
174
330
4BA
100
AcDbEntity
  8
1
100
AcDbLine
 10
7.423372
 20
-9.410083
 30
0.0
 11
7.375783999999999
 21
-9.408482000000001
 31
0.0
  0
LINE
  5
175
330
4BA
100
AcDbEntity
  8
1
100
AcDbLine
 10
7.375783999999999
 20
-9.408482000000001
 30
0.0
 11
7.328591
 21
-9.405533
 31
0.0
  0
LINE
  5
176
330
4BA
100
AcDbEntity
  8
1
100
AcDbLine
 10
9.365244
 20
-7.264363999999999
 30
0.0
 11
9.376412
 21
-7.277819
 31
0.0
  0
LINE
  5
177
330
4BA
100
AcDbEntity
  8
1
100
AcDbLine
 10
9.376412
 20
-7.277819
 30
0.0
 11
9.386886999999999
 21
-7.291777999999999
 31
0.0
  0
LINE
  5
178
330
4BA
100
AcDbEntity
  8
1
100
AcDbLine
 10
9.386886999999999
 20
-7.291777999999999
 30
0.0
 11
9.396668
 21
-7.306238999999999
 31
0.0
  0
LINE
  5
179
330
4BA
100
AcDbEntity
  8
1
100
AcDbLine
 10
9.396668
 20
-7.306238999999999
 30
0.0
 11
9.405756
 21
-7.321167999999999
 31
0.0
  0
LINE
  5
17A
330
4BA
100
AcDbEntity
  8
1
100
AcDbLine
 10
9.405756
 20
-7.321167999999999
 30
0.0
 11
9.414150999999998
 21
-7.336599999999999
 31
0.0
  0
LINE
  5
17B
330
4BA
100
AcDbEntity
  8
1
100
AcDbLine
 10
9.414150999999998
 20
-7.336599999999999
 30
0.0
 11
9.421856
 21
-7.352646
 31
0.0
  0
LINE
  5
17C
330
4BA
100
AcDbEntity
  8
1
100
AcDbLine
 10
9.421856
 20
-7.352646
 30
0.0
 11
9.428891999999999
 21
-7.369294
 31
0.0
  0
LINE
  5
17D
330
4BA
100
AcDbEntity
  8
1
100
AcDbLine
 10
9.428891999999999
 20
-7.369294
 30
0.0
 11
9.435238999999999
 21
-7.386555
 31
0.0
  0
LINE
  5
17E
330
4BA
100
AcDbEntity
  8
1
100
AcDbLine
 10
9.435238999999999
 20
-7.386555
 30
0.0
 11
9.440839
 21
-7.404580999999999
 31
0.0
  0
LINE
  5
17F
330
4BA
100
AcDbEntity
  8
1
100
AcDbLine
 10
9.440839
 20
-7.404580999999999
 30
0.0
 11
9.445717
 21
-7.423366
 31
0.0
  0
LINE
  5
180
330
4BA
100
AcDbEntity
  8
1
100
AcDbLine
 10
9.445717
 20
-7.423366
 30
0.0
 11
9.449849
 21
-7.442914999999999
 31
0.0
  0
LINE
  5
181
330
4BA
100
AcDbEntity
  8
1
100
AcDbLine
 10
9.449849
 20
-7.442914999999999
 30
0.0
 11
9.453103999999999
 21
-7.463407000000001
 31
0.0
  0
LINE
  5
182
330
4BA
100
AcDbEntity
  8
1
100
AcDbLine
 10
9.453103999999999
 20
-7.463407000000001
 30
0.0
 11
9.455441
 21
-7.484899999999999
 31
0.0
  0
LINE
  5
183
330
4BA
100
AcDbEntity
  8
1
100
AcDbLine
 10
9.455441
 20
-7.484899999999999
 30
0.0
 11
9.456902000000001
 21
-7.507333
 31
0.0
  0
LINE
  5
184
330
4BA
100
AcDbEntity
  8
1
100
AcDbLine
 10
9.456902000000001
 20
-7.507333
 30
0.0
 11
9.457487
 21
-7.530708999999999
 31
0.0
  0
LINE
  5
185
330
4BA
100
AcDbEntity
  8
1
100
AcDbLine
 10
7.328591
 20
-9.405533
 30
0.0
 11
7.305813
 21
-9.397196
 31
0.0
  0
LINE
  5
186
330
4BA
100
AcDbEntity
  8
1
100
AcDbLine
 10
7.305813
 20
-9.397196
 30
0.0
 11
7.283682
 21
-9.387902999999999
 31
0.0
  0
LINE
  5
187
330
4BA
100
AcDbEntity
  8
1
100
AcDbLine
 10
7.283682
 20
-9.387902999999999
 30
0.0
 11
7.262196
 21
-9.377648999999999
 31
0.0
  0
LINE
  5
188
330
4BA
100
AcDbEntity
  8
1
100
AcDbLine
 10
7.262196
 20
-9.377648999999999
 30
0.0
 11
7.241336999999999
 21
-9.366416
 31
0.0
  0
LINE
  5
189
330
4BA
100
AcDbEntity
  8
1
100
AcDbLine
 10
7.241336999999999
 20
-9.366416
 30
0.0
 11
7.221116999999999
 21
-9.354216
 31
0.0
  0
LINE
  5
18A
330
4BA
100
AcDbEntity
  8
1
100
AcDbLine
 10
7.221116999999999
 20
-9.354216
 30
0.0
 11
7.201574
 21
-9.341097999999998
 31
0.0
  0
LINE
  5
18B
330
4BA
100
AcDbEntity
  8
1
100
AcDbLine
 10
7.201574
 20
-9.341097999999998
 30
0.0
 11
7.182727
 21
-9.327080999999999
 31
0.0
  0
LINE
  5
18C
330
4BA
100
AcDbEntity
  8
1
100
AcDbLine
 10
7.182727
 20
-9.327080999999999
 30
0.0
 11
7.164552
 21
-9.312139
 31
0.0
  0
LINE
  5
18D
330
4BA
100
AcDbEntity
  8
1
100
AcDbLine
 10
7.164552
 20
-9.312139
 30
0.0
 11
7.147028999999998
 21
-9.296253
 31
0.0
  0
LINE
  5
18E
330
4BA
100
AcDbEntity
  8
1
100
AcDbLine
 10
7.147028999999998
 20
-9.296253
 30
0.0
 11
7.130130999999999
 21
-9.279407
 31
0.0
  0
LINE
  5
18F
330
4BA
100
AcDbEntity
  8
1
100
AcDbLine
 10
7.130130999999999
 20
-9.279407
 30
0.0
 11
7.113878999999998
 21
-9.261613
 31
0.0
  0
LINE
  5
190
330
4BA
100
AcDbEntity
  8
1
100
AcDbLine
 10
7.113878999999998
 20
-9.261613
 30
0.0
 11
7.09833
 21
-9.242892999999998
 31
0.0
  0
LINE
  5
191
330
4BA
100
AcDbEntity
  8
1
100
AcDbLine
 10
7.09833
 20
-9.242892999999998
 30
0.0
 11
7.083483
 21
-9.22325
 31
0.0
  0
LINE
  5
192
330
4BA
100
AcDbEntity
  8
1
100
AcDbLine
 10
7.083483
 20
-9.22325
 30
0.0
 11
7.069335
 21
-9.202678999999999
 31
0.0
  0
LINE
  5
193
330
4BA
100
AcDbEntity
  8
1
100
AcDbLine
 10
7.069335
 20
-9.202678999999999
 30
0.0
 11
7.055933
 21
-9.181185000000001
 31
0.0
  0
LINE
  5
194
330
4BA
100
AcDbEntity
  8
1
100
AcDbLine
 10
7.055933
 20
-9.181185000000001
 30
0.0
 11
7.043277999999999
 21
-9.158785999999999
 31
0.0
  0
LINE
  5
195
330
4BA
100
AcDbEntity
  8
1
100
AcDbLine
 10
7.043277999999999
 20
-9.158785999999999
 30
0.0
 11
7.031367999999999
 21
-9.135462999999999
 31
0.0
  0
LINE
  5
196
330
4BA
100
AcDbEntity
  8
1
100
AcDbLine
 10
7.031367999999999
 20
-9.135462999999999
 30
0.0
 11
7.020243999999999
 21
-9.111167
 31
0.0
  0
LINE
  5
197
330
4BA
100
AcDbEntity
  8
1
100
AcDbLine
 10
7.020243999999999
 20
-9.111167
 30
0.0
 11
7.009888
 21
-9.08586
 31
0.0
  0
LINE
  5
198
330
4BA
100
AcDbEntity
  8
1
100
AcDbLine
 10
7.009888
 20
-9.08586
 30
0.0
 11
7.000319
 21
-9.059577
 31
0.0
  0
LINE
  5
199
330
4BA
100
AcDbEntity
  8
1
100
AcDbLine
 10
7.000319
 20
-9.059577
 30
0.0
 11
6.991635999999999
 21
-9.032384
 31
0.0
  0
LINE
  5
19A
330
4BA
100
AcDbEntity
  8
1
100
AcDbLine
 10
6.991635999999999
 20
-9.032384
 30
0.0
 11
6.983846999999999
 21
-9.004300999999999
 31
0.0
  0
LINE
  5
19B
330
4BA
100
AcDbEntity
  8
1
100
AcDbLine
 10
6.983846999999999
 20
-9.004300999999999
 30
0.0
 11
6.976946
 21
-8.975308
 31
0.0
  0
LINE
  5
19C
330
4BA
100
AcDbEntity
  8
1
100
AcDbLine
 10
6.976946
 20
-8.975308
 30
0.0
 11
6.971013
 21
-8.94541
 31
0.0
  0
LINE
  5
19D
330
4BA
100
AcDbEntity
  8
1
100
AcDbLine
 10
6.971013
 20
-8.94541
 30
0.0
 11
6.966042999999999
 21
-8.914611999999999
 31
0.0
  0
LINE
  5
19E
330
4BA
100
AcDbEntity
  8
1
100
AcDbLine
 10
6.966042999999999
 20
-8.914611999999999
 30
0.0
 11
6.962044
 21
-8.882911999999999
 31
0.0
  0
LINE
  5
19F
330
4BA
100
AcDbEntity
  8
1
100
AcDbLine
 10
6.962044
 20
-8.882911999999999
 30
0.0
 11
6.959111999999999
 21
-8.85031
 31
0.0
  0
LINE
  5
1A0
330
4BA
100
AcDbEntity
  8
1
100
AcDbLine
 10
6.959111999999999
 20
-8.85031
 30
0.0
 11
6.957244999999999
 21
-8.816774
 31
0.0
  0
LINE
  5
1A1
330
4BA
100
AcDbEntity
  8
1
100
AcDbLine
 10
6.957244999999999
 20
-8.816774
 30
0.0
 11
6.95645
 21
-8.782339
 31
0.0
  0
LINE
  5
1A2
330
4BA
100
AcDbEntity
  8
1
100
AcDbLine
 10
6.95645
 20
-8.782339
 30
0.0
 11
6.95683
 21
-8.747106
 31
0.0
  0
LINE
  5
1A3
330
4BA
100
AcDbEntity
  8
1
100
AcDbLine
 10
6.95683
 20
-8.747106
 30
0.0
 11
6.958388
 21
-8.711111999999999
 31
0.0
  0
LINE
  5
1A4
330
4BA
100
AcDbEntity
  8
1
100
AcDbLine
 10
6.958388
 20
-8.711111999999999
 30
0.0
 11
6.961128999999999
 21
-8.674326999999999
 31
0.0
  0
LINE
  5
1A5
330
4BA
100
AcDbEntity
  8
1
100
AcDbLine
 10
6.961128999999999
 20
-8.674326999999999
 30
0.0
 11
6.965167
 21
-8.636753
 31
0.0
  0
LINE
  5
1A6
330
4BA
100
AcDbEntity
  8
1
100
AcDbLine
 10
6.965167
 20
-8.636753
 30
0.0
 11
6.970511
 21
-8.598350999999999
 31
0.0
  0
LINE
  5
1A7
330
4BA
100
AcDbEntity
  8
1
100
AcDbLine
 10
6.970511
 20
-8.598350999999999
 30
0.0
 11
6.977161999999999
 21
-8.559169999999999
 31
0.0
  0
LINE
  5
1A8
330
4BA
100
AcDbEntity
  8
1
100
AcDbLine
 10
6.977161999999999
 20
-8.559169999999999
 30
0.0
 11
6.985224
 21
-8.519344999999999
 31
0.0
  0
LINE
  5
1A9
330
4BA
100
AcDbEntity
  8
1
100
AcDbLine
 10
6.985224
 20
-8.519344999999999
 30
0.0
 11
6.994700999999999
 21
-8.478900999999998
 31
0.0
  0
LINE
  5
1AA
330
4BA
100
AcDbEntity
  8
1
100
AcDbLine
 10
6.994700999999999
 20
-8.478900999999998
 30
0.0
 11
7.005600999999999
 21
-8.437825999999999
 31
0.0
  0
LINE
  5
1AB
330
4BA
100
AcDbEntity
  8
1
100
AcDbLine
 10
7.005600999999999
 20
-8.437825999999999
 30
0.0
 11
7.018032999999999
 21
-8.396214
 31
0.0
  0
LINE
  5
1AC
330
4BA
100
AcDbEntity
  8
1
100
AcDbLine
 10
7.018032999999999
 20
-8.396214
 30
0.0
 11
7.032007000000001
 21
-8.35406
 31
0.0
  0
LINE
  5
1AD
330
4BA
100
AcDbEntity
  8
1
100
AcDbLine
 10
7.032007000000001
 20
-8.35406
 30
0.0
 11
7.047528999999999
 21
-8.311386
 31
0.0
  0
LINE
  5
1AE
330
4BA
100
AcDbEntity
  8
1
100
AcDbLine
 10
7.047528999999999
 20
-8.311386
 30
0.0
 11
7.064697999999999
 21
-8.268316999999999
 31
0.0
  0
LINE
  5
1AF
330
4BA
100
AcDbEntity
  8
1
100
AcDbLine
 10
7.064697999999999
 20
-8.268316999999999
 30
0.0
 11
7.083553999999999
 21
-8.224902
 31
0.0
  0
LINE
  5
1B0
330
4BA
100
AcDbEntity
  8
1
100
AcDbLine
 10
7.083553999999999
 20
-8.224902
 30
0.0
 11
7.104077
 21
-8.181115
 31
0.0
  0
LINE
  5
1B1
330
4BA
100
AcDbEntity
  8
1
100
AcDbLine
 10
7.104077
 20
-8.181115
 30
0.0
 11
7.126276999999999
 21
-8.136966000000001
 31
0.0
  0
LINE
  5
1B2
330
4BA
100
AcDbEntity
  8
1
100
AcDbLine
 10
9.015544999999999
 20
-12.816186
 30
0.0
 11
8.990914999999999
 21
-12.811221
 31
0.0
  0
LINE
  5
1B3
330
4BA
100
AcDbEntity
  8
1
100
AcDbLine
 10
8.990914999999999
 20
-12.811221
 30
0.0
 11
8.904589999999998
 21
-12.789655
 31
0.0
  0
LINE
  5
1B4
330
4BA
100
AcDbEntity
  8
1
100
AcDbLine
 10
8.904589999999998
 20
-12.789655
 30
0.0
 11
8.818394999999998
 21
-12.76162
 31
0.0
  0
LINE
  5
1B5
330
4BA
100
AcDbEntity
  8
1
100
AcDbLine
 10
8.818394999999998
 20
-12.76162
 30
0.0
 11
8.732374999999999
 21
-12.727136
 31
0.0
  0
LINE
  5
1B6
330
4BA
100
AcDbEntity
  8
1
100
AcDbLine
 10
8.732374999999999
 20
-12.727136
 30
0.0
 11
8.646666999999998
 21
-12.686268
 31
0.0
  0
LINE
  5
1B7
330
4BA
100
AcDbEntity
  8
1
100
AcDbLine
 10
8.646666999999998
 20
-12.686268
 30
0.0
 11
8.561315999999999
 21
-12.639034
 31
0.0
  0
LINE
  5
1B8
330
4BA
100
AcDbEntity
  8
1
100
AcDbLine
 10
8.561315999999999
 20
-12.639034
 30
0.0
 11
8.476275999999998
 21
-12.585415
 31
0.0
  0
LINE
  5
1B9
330
4BA
100
AcDbEntity
  8
1
100
AcDbLine
 10
8.476275999999998
 20
-12.585415
 30
0.0
 11
8.391548
 21
-12.52541
 31
0.0
  0
LINE
  5
1BA
330
4BA
100
AcDbEntity
  8
1
100
AcDbLine
 10
9.977783
 20
-13.000002
 30
0.0
 11
9.015738
 21
-12.816231
 31
0.0
  0
LINE
  5
1BB
330
4BA
100
AcDbEntity
  8
1
100
AcDbLine
 10
8.391548
 20
-12.52541
 30
0.0
 11
8.611062999999999
 21
-12.55488
 31
0.0
  0
LINE
  5
1BC
330
4BA
100
AcDbEntity
  8
1
100
AcDbLine
 10
9.01012
 20
-4.187165
 30
0.0
 11
8.262007999999999
 21
-4.438273
 31
0.0
  0
LINE
  5
1BD
330
4BA
100
AcDbEntity
  8
1
100
AcDbLine
 10
8.262007999999999
 20
-4.438273
 30
0.0
 11
7.510599
 21
-4.687587
 31
0.0
  0
LINE
  5
1BE
330
4BA
100
AcDbEntity
  8
1
100
AcDbLine
 10
7.510599
 20
-4.687587
 30
0.0
 11
6.75583
 21
-4.935118
 31
0.0
  0
LINE
  5
1BF
330
4BA
100
AcDbEntity
  8
1
100
AcDbLine
 10
6.75583
 20
-4.935118
 30
0.0
 11
5.997762999999999
 21
-5.180856999999999
 31
0.0
  0
LINE
  5
1C0
330
4BA
100
AcDbEntity
  8
1
100
AcDbLine
 10
5.997762999999999
 20
-5.180856999999999
 30
0.0
 11
5.238012
 21
-5.424255999999999
 31
0.0
  0
LINE
  5
1C1
330
4BA
100
AcDbEntity
  8
1
100
AcDbLine
 10
5.238012
 20
-5.424255999999999
 30
0.0
 11
4.477113
 21
-5.665131999999999
 31
0.0
  0
LINE
  5
1C2
330
4BA
100
AcDbEntity
  8
1
100
AcDbLine
 10
4.477113
 20
-5.665131999999999
 30
0.0
 11
3.71453
 21
-5.903667999999999
 31
0.0
  0
LINE
  5
1C3
330
4BA
100
AcDbEntity
  8
1
100
AcDbLine
 10
3.71453
 20
-5.903667999999999
 30
0.0
 11
2.950262999999999
 21
-6.139865
 31
0.0
  0
LINE
  5
1C4
330
4BA
100
AcDbEntity
  8
1
100
AcDbLine
 10
9.964089999999998
 20
-6.359590999999999
 30
0.0
 11
9.964089999999998
 21
-6.682996000000001
 31
0.0
  0
LINE
  5
1C5
330
4BA
100
AcDbEntity
  8
1
100
AcDbLine
 10
8.611062999999999
 20
-4.408887
 30
0.0
 11
8.625922
 21
-4.509176999999999
 31
0.0
  0
LINE
  5
1C6
330
4BA
100
AcDbEntity
  8
1
100
AcDbLine
 10
8.625922
 20
-4.509176999999999
 30
0.0
 11
8.645412
 21
-4.608927999999999
 31
0.0
  0
LINE
  5
1C7
330
4BA
100
AcDbEntity
  8
1
100
AcDbLine
 10
8.645412
 20
-4.608927999999999
 30
0.0
 11
8.669534999999999
 21
-4.708155
 31
0.0
  0
LINE
  5
1C8
330
4BA
100
AcDbEntity
  8
1
100
AcDbLine
 10
8.669534999999999
 20
-4.708155
 30
0.0
 11
8.698199
 21
-4.806968
 31
0.0
  0
LINE
  5
1C9
330
4BA
100
AcDbEntity
  8
1
100
AcDbLine
 10
8.698199
 20
-4.806968
 30
0.0
 11
8.731494999999998
 21
-4.905294999999999
 31
0.0
  0
LINE
  5
1CA
330
4BA
100
AcDbEntity
  8
1
100
AcDbLine
 10
8.731494999999998
 20
-4.905294999999999
 30
0.0
 11
8.769693
 21
-5.002894
 31
0.0
  0
LINE
  5
1CB
330
4BA
100
AcDbEntity
  8
1
100
AcDbLine
 10
8.769693
 20
-5.002894
 30
0.0
 11
8.812863999999999
 21
-5.099835999999999
 31
0.0
  0
LINE
  5
1CC
330
4BA
100
AcDbEntity
  8
1
100
AcDbLine
 10
8.812863999999999
 20
-5.099835999999999
 30
0.0
 11
8.860936999999999
 21
-5.196091
 31
0.0
  0
LINE
  5
1CD
330
4BA
100
AcDbEntity
  8
1
100
AcDbLine
 10
8.860936999999999
 20
-5.196091
 30
0.0
 11
8.913975999999999
 21
-5.291277
 31
0.0
  0
LINE
  5
1CE
330
4BA
100
AcDbEntity
  8
1
100
AcDbLine
 10
8.913975999999999
 20
-5.291277
 30
0.0
 11
8.971944
 21
-5.385296
 31
0.0
  0
LINE
  5
1CF
330
4BA
100
AcDbEntity
  8
1
100
AcDbLine
 10
8.971944
 20
-5.385296
 30
0.0
 11
9.034877999999999
 21
-5.478295
 31
0.0
  0
LINE
  5
1D0
330
4BA
100
AcDbEntity
  8
1
100
AcDbLine
 10
9.034877999999999
 20
-5.478295
 30
0.0
 11
9.102950999999999
 21
-5.570249999999999
 31
0.0
  0
LINE
  5
1D1
330
4BA
100
AcDbEntity
  8
1
100
AcDbLine
 10
9.102950999999999
 20
-5.570249999999999
 30
0.0
 11
9.176031
 21
-5.661077999999999
 31
0.0
  0
LINE
  5
1D2
330
4BA
100
AcDbEntity
  8
1
100
AcDbLine
 10
9.176031
 20
-5.661077999999999
 30
0.0
 11
9.254251
 21
-5.750912999999999
 31
0.0
  0
LINE
  5
1D3
330
4BA
100
AcDbEntity
  8
1
100
AcDbLine
 10
9.254251
 20
-5.750912999999999
 30
0.0
 11
9.338179
 21
-5.840041999999999
 31
0.0
  0
LINE
  5
1D4
330
4BA
100
AcDbEntity
  8
1
100
AcDbLine
 10
9.338179
 20
-5.840041999999999
 30
0.0
 11
9.427953999999999
 21
-5.928665
 31
0.0
  0
LINE
  5
1D5
330
4BA
100
AcDbEntity
  8
1
100
AcDbLine
 10
9.427953999999999
 20
-5.928665
 30
0.0
 11
9.523436999999999
 21
-6.016627999999999
 31
0.0
  0
LINE
  5
1D6
330
4BA
100
AcDbEntity
  8
1
100
AcDbLine
 10
9.523436999999999
 20
-6.016627999999999
 30
0.0
 11
9.624776999999999
 21
-6.103705
 31
0.0
  0
LINE
  5
1D7
330
4BA
100
AcDbEntity
  8
1
100
AcDbLine
 10
9.624776999999999
 20
-6.103705
 30
0.0
 11
9.732025
 21
-6.189833
 31
0.0
  0
LINE
  5
1D8
330
4BA
100
AcDbEntity
  8
1
100
AcDbLine
 10
9.732025
 20
-6.189833
 30
0.0
 11
9.845129
 21
-6.275122
 31
0.0
  0
LINE
  5
1D9
330
4BA
100
AcDbEntity
  8
1
100
AcDbLine
 10
9.845129
 20
-6.275122
 30
0.0
 11
9.964089999999998
 21
-6.359590999999999
 31
0.0
  0
LINE
  5
1DA
330
4BA
100
AcDbEntity
  8
1
100
AcDbLine
 10
8.391548
 20
-4.461068
 30
0.0
 11
8.391548
 21
-4.394792999999999
 31
0.0
  0
LINE
  5
1DB
330
4BA
100
AcDbEntity
  8
1
100
AcDbLine
 10
9.164089999999999
 20
-6.846557999999999
 30
0.0
 11
9.077436999999999
 21
-6.592017
 31
0.0
  0
LINE
  5
1DC
330
4BA
100
AcDbEntity
  8
1
100
AcDbLine
 10
9.077436999999999
 20
-6.592017
 30
0.0
 11
8.990949999999999
 21
-6.334730999999999
 31
0.0
  0
LINE
  5
1DD
330
4BA
100
AcDbEntity
  8
1
100
AcDbLine
 10
8.990949999999999
 20
-6.334730999999999
 30
0.0
 11
8.904628999999999
 21
-6.074701
 31
0.0
  0
LINE
  5
1DE
330
4BA
100
AcDbEntity
  8
1
100
AcDbLine
 10
8.904628999999999
 20
-6.074701
 30
0.0
 11
8.818424999999999
 21
-5.81177
 31
0.0
  0
LINE
  5
1DF
330
4BA
100
AcDbEntity
  8
1
100
AcDbLine
 10
8.818424999999999
 20
-5.81177
 30
0.0
 11
8.732388
 21
-5.546095999999999
 31
0.0
  0
LINE
  5
1E0
330
4BA
100
AcDbEntity
  8
1
100
AcDbLine
 10
8.732388
 20
-5.546095999999999
 30
0.0
 11
8.646665999999999
 21
-5.278141999999999
 31
0.0
  0
LINE
  5
1E1
330
4BA
100
AcDbEntity
  8
1
100
AcDbLine
 10
8.646665999999999
 20
-5.278141999999999
 30
0.0
 11
8.561310999999999
 21
-5.008062999999999
 31
0.0
  0
LINE
  5
1E2
330
4BA
100
AcDbEntity
  8
1
100
AcDbLine
 10
8.561310999999999
 20
-5.008062999999999
 30
0.0
 11
8.476271
 21
-4.735705999999999
 31
0.0
  0
LINE
  5
1E3
330
4BA
100
AcDbEntity
  8
1
100
AcDbLine
 10
8.476271
 20
-4.735705999999999
 30
0.0
 11
8.391548
 21
-4.461068
 31
0.0
  0
LINE
  5
1E4
330
4BA
100
AcDbEntity
  8
1
100
AcDbLine
 10
8.391548
 20
-4.461068
 30
0.0
 11
8.611062999999999
 21
-4.408887
 31
0.0
  0
LINE
  5
1E5
330
4BA
100
AcDbEntity
  8
1
100
AcDbLine
 10
9.164089999999999
 20
-6.846557999999999
 30
0.0
 11
9.295919999999998
 21
-6.819824999999999
 31
0.0
  0
LINE
  5
1E6
330
4BA
100
AcDbEntity
  8
1
100
AcDbLine
 10
9.295919999999998
 20
-6.819824999999999
 30
0.0
 11
9.964089999999998
 21
-6.682996000000001
 31
0.0
  0
LINE
  5
1E7
330
4BA
100
AcDbEntity
  8
1
100
AcDbLine
 10
9.164089999999999
 20
4.229281999999999
 30
0.0
 11
8.468802
 21
6.236901999999999
 31
0.0
  0
LINE
  5
1E8
330
4BA
100
AcDbEntity
  8
1
100
AcDbLine
 10
9.164089999999999
 20
5.988452999999999
 30
0.0
 11
9.164089999999999
 21
4.229281999999999
 31
0.0
  0
LINE
  5
1E9
330
4BA
100
AcDbEntity
  8
1
100
AcDbLine
 10
5.725698
 20
0.6718340000000001
 30
0.0
 11
5.582533999999999
 21
0.87712
 31
0.0
  0
LINE
  5
1EA
330
4BA
100
AcDbEntity
  8
1
100
AcDbLine
 10
5.582533999999999
 20
0.87712
 30
0.0
 11
5.440860999999999
 21
1.088671999999999
 31
0.0
  0
LINE
  5
1EB
330
4BA
100
AcDbEntity
  8
1
100
AcDbLine
 10
5.440860999999999
 20
1.088671999999999
 30
0.0
 11
5.30068
 21
1.306404
 31
0.0
  0
LINE
  5
1EC
330
4BA
100
AcDbEntity
  8
1
100
AcDbLine
 10
5.30068
 20
1.306404
 30
0.0
 11
5.161725999999999
 21
1.530679999999999
 31
0.0
  0
LINE
  5
1ED
330
4BA
100
AcDbEntity
  8
1
100
AcDbLine
 10
5.161725999999999
 20
1.530679999999999
 30
0.0
 11
5.024262999999999
 21
1.760924
 31
0.0
  0
LINE
  5
1EE
330
4BA
100
AcDbEntity
  8
1
100
AcDbLine
 10
5.024262999999999
 20
1.760924
 30
0.0
 11
4.889078999999999
 21
1.995626999999999
 31
0.0
  0
LINE
  5
1EF
330
4BA
100
AcDbEntity
  8
1
100
AcDbLine
 10
4.889078999999999
 20
1.995626999999999
 30
0.0
 11
4.756287
 21
2.234644999999999
 31
0.0
  0
LINE
  5
1F0
330
4BA
100
AcDbEntity
  8
1
100
AcDbLine
 10
4.756287
 20
2.234644999999999
 30
0.0
 11
4.625773999999999
 21
2.477856999999999
 31
0.0
  0
LINE
  5
1F1
330
4BA
100
AcDbEntity
  8
1
100
AcDbLine
 10
4.625773999999999
 20
2.477856999999999
 30
0.0
 11
4.497994999999999
 21
2.723802999999999
 31
0.0
  0
LINE
  5
1F2
330
4BA
100
AcDbEntity
  8
1
100
AcDbLine
 10
4.497994999999999
 20
2.723802999999999
 30
0.0
 11
4.373024
 21
2.972288
 31
0.0
  0
LINE
  5
1F3
330
4BA
100
AcDbEntity
  8
1
100
AcDbLine
 10
4.373024
 20
2.972288
 30
0.0
 11
4.250785999999999
 21
3.223209
 31
0.0
  0
LINE
  5
1F4
330
4BA
100
AcDbEntity
  8
1
100
AcDbLine
 10
4.250785999999999
 20
3.223209
 30
0.0
 11
4.131507
 21
3.475255999999999
 31
0.0
  0
LINE
  5
1F5
330
4BA
100
AcDbEntity
  8
1
100
AcDbLine
 10
4.131507
 20
3.475255999999999
 30
0.0
 11
4.015213
 21
3.728258
 31
0.0
  0
LINE
  5
1F6
330
4BA
100
AcDbEntity
  8
1
100
AcDbLine
 10
4.015213
 20
3.728258
 30
0.0
 11
3.901877999999999
 21
3.982076
 31
0.0
  0
LINE
  5
1F7
330
4BA
100
AcDbEntity
  8
1
100
AcDbLine
 10
3.901877999999999
 20
3.982076
 30
0.0
 11
3.791655999999999
 21
4.235494999999999
 31
0.0
  0
LINE
  5
1F8
330
4BA
100
AcDbEntity
  8
1
100
AcDbLine
 10
3.791655999999999
 20
4.235494999999999
 30
0.0
 11
3.684505999999999
 21
4.488466
 31
0.0
  0
LINE
  5
1F9
330
4BA
100
AcDbEntity
  8
1
100
AcDbLine
 10
3.684505999999999
 20
4.488466
 30
0.0
 11
3.580469999999999
 21
4.740741
 31
0.0
  0
LINE
  5
1FA
330
4BA
100
AcDbEntity
  8
1
100
AcDbLine
 10
3.580469999999999
 20
4.740741
 30
0.0
 11
3.479820999999999
 21
4.990855999999999
 31
0.0
  0
LINE
  5
1FB
330
4BA
100
AcDbEntity
  8
1
100
AcDbLine
 10
3.479820999999999
 20
4.990855999999999
 30
0.0
 11
3.382555
 21
5.238712
 31
0.0
  0
LINE
  5
1FC
330
4BA
100
AcDbEntity
  8
1
100
AcDbLine
 10
3.382555
 20
5.238712
 30
0.0
 11
3.288676
 21
5.484173
 31
0.0
  0
LINE
  5
1FD
330
4BA
100
AcDbEntity
  8
1
100
AcDbLine
 10
3.288676
 20
5.484173
 30
0.0
 11
3.198479
 21
5.725799999999999
 31
0.0
  0
LINE
  5
1FE
330
4BA
100
AcDbEntity
  8
1
100
AcDbLine
 10
3.198479
 20
5.725799999999999
 30
0.0
 11
3.112058999999999
 21
5.963087
 31
0.0
  0
LINE
  5
1FF
330
4BA
100
AcDbEntity
  8
1
100
AcDbLine
 10
3.112058999999999
 20
5.963087
 30
0.0
 11
3.029320999999999
 21
6.196413999999999
 31
0.0
  0
LINE
  5
200
330
4BA
100
AcDbEntity
  8
1
100
AcDbLine
 10
3.029320999999999
 20
6.196413999999999
 30
0.0
 11
2.950262999999999
 21
6.42572
 31
0.0
  0
LINE
  5
201
330
4BA
100
AcDbEntity
  8
1
100
AcDbLine
 10
7.328591
 20
0.523037
 30
0.0
 11
7.181299
 21
0.518839
 31
0.0
  0
LINE
  5
202
330
4BA
100
AcDbEntity
  8
1
100
AcDbLine
 10
7.181299
 20
0.518839
 30
0.0
 11
7.036116999999999
 21
0.517674
 31
0.0
  0
LINE
  5
203
330
4BA
100
AcDbEntity
  8
1
100
AcDbLine
 10
7.036116999999999
 20
0.517674
 30
0.0
 11
6.893166
 21
0.519544
 31
0.0
  0
LINE
  5
204
330
4BA
100
AcDbEntity
  8
1
100
AcDbLine
 10
6.893166
 20
0.519544
 30
0.0
 11
6.752561999999999
 21
0.5244460000000001
 31
0.0
  0
LINE
  5
205
330
4BA
100
AcDbEntity
  8
1
100
AcDbLine
 10
6.752561999999999
 20
0.5244460000000001
 30
0.0
 11
6.614422
 21
0.532377
 31
0.0
  0
LINE
  5
206
330
4BA
100
AcDbEntity
  8
1
100
AcDbLine
 10
6.614422
 20
0.532377
 30
0.0
 11
6.47886
 21
0.5433310000000001
 31
0.0
  0
LINE
  5
207
330
4BA
100
AcDbEntity
  8
1
100
AcDbLine
 10
6.47886
 20
0.5433310000000001
 30
0.0
 11
6.345985999999999
 21
0.5572960000000001
 31
0.0
  0
LINE
  5
208
330
4BA
100
AcDbEntity
  8
1
100
AcDbLine
 10
6.345985999999999
 20
0.5572960000000001
 30
0.0
 11
6.215911
 21
0.574264
 31
0.0
  0
LINE
  5
209
330
4BA
100
AcDbEntity
  8
1
100
AcDbLine
 10
6.215911
 20
0.574264
 30
0.0
 11
6.088741
 21
0.594219
 31
0.0
  0
LINE
  5
20A
330
4BA
100
AcDbEntity
  8
1
100
AcDbLine
 10
6.088741
 20
0.594219
 30
0.0
 11
5.964580999999999
 21
0.617145
 31
0.0
  0
LINE
  5
20B
330
4BA
100
AcDbEntity
  8
1
100
AcDbLine
 10
5.964580999999999
 20
0.617145
 30
0.0
 11
5.843534
 21
0.643023
 31
0.0
  0
LINE
  5
20C
330
4BA
100
AcDbEntity
  8
1
100
AcDbLine
 10
5.843534
 20
0.643023
 30
0.0
 11
5.725698
 21
0.6718340000000001
 31
0.0
  0
LINE
  5
20D
330
4BA
100
AcDbEntity
  8
1
100
AcDbLine
 10
10.246061
 20
0.386133
 30
0.0
 11
10.095546
 21
0.350034
 31
0.0
  0
LINE
  5
20E
330
4BA
100
AcDbEntity
  8
1
100
AcDbLine
 10
10.095546
 20
0.350034
 30
0.0
 11
9.944072999999999
 21
0.317875
 31
0.0
  0
LINE
  5
20F
330
4BA
100
AcDbEntity
  8
1
100
AcDbLine
 10
9.944072999999999
 20
0.317875
 30
0.0
 11
9.791641999999999
 21
0.289657
 31
0.0
  0
LINE
  5
210
330
4BA
100
AcDbEntity
  8
1
100
AcDbLine
 10
9.791641999999999
 20
0.289657
 30
0.0
 11
9.638260999999999
 21
0.265455
 31
0.0
  0
LINE
  5
211
330
4BA
100
AcDbEntity
  8
1
100
AcDbLine
 10
9.638260999999999
 20
0.265455
 30
0.0
 11
9.483921
 21
0.245193
 31
0.0
  0
LINE
  5
212
330
4BA
100
AcDbEntity
  8
1
100
AcDbLine
 10
9.483921
 20
0.245193
 30
0.0
 11
9.328602
 21
0.228655
 31
0.0
  0
LINE
  5
213
330
4BA
100
AcDbEntity
  8
1
100
AcDbLine
 10
9.328602
 20
0.228655
 30
0.0
 11
9.172323999999999
 21
0.215833
 31
0.0
  0
LINE
  5
214
330
4BA
100
AcDbEntity
  8
1
100
AcDbLine
 10
9.172323999999999
 20
0.215833
 30
0.0
 11
9.015064999999999
 21
0.206733
 31
0.0
  0
LINE
  5
215
330
4BA
100
AcDbEntity
  8
1
100
AcDbLine
 10
9.015064999999999
 20
0.206733
 30
0.0
 11
8.856742
 21
0.20115
 31
0.0
  0
LINE
  5
216
330
4BA
100
AcDbEntity
  8
1
100
AcDbLine
 10
8.856742
 20
0.20115
 30
0.0
 11
8.697461
 21
0.199066
 31
0.0
  0
LINE
  5
217
330
4BA
100
AcDbEntity
  8
1
100
AcDbLine
 10
8.697461
 20
0.199066
 30
0.0
 11
8.537116000000001
 21
0.2005
 31
0.0
  0
LINE
  5
218
330
4BA
100
AcDbEntity
  8
1
100
AcDbLine
 10
8.537116000000001
 20
0.2005
 30
0.0
 11
8.375291999999999
 21
0.205307
 31
0.0
  0
LINE
  5
219
330
4BA
100
AcDbEntity
  8
1
100
AcDbLine
 10
8.375291999999999
 20
0.205307
 30
0.0
 11
8.211937999999999
 21
0.213465
 31
0.0
  0
LINE
  5
21A
330
4BA
100
AcDbEntity
  8
1
100
AcDbLine
 10
8.211937999999999
 20
0.213465
 30
0.0
 11
8.047107
 21
0.224998
 31
0.0
  0
LINE
  5
21B
330
4BA
100
AcDbEntity
  8
1
100
AcDbLine
 10
8.047107
 20
0.224998
 30
0.0
 11
7.880546
 21
0.239826
 31
0.0
  0
LINE
  5
21C
330
4BA
100
AcDbEntity
  8
1
100
AcDbLine
 10
7.880546
 20
0.239826
 30
0.0
 11
7.712222999999999
 21
0.257944
 31
0.0
  0
LINE
  5
21D
330
4BA
100
AcDbEntity
  8
1
100
AcDbLine
 10
7.712222999999999
 20
0.257944
 30
0.0
 11
7.542171
 21
0.279359
 31
0.0
  0
LINE
  5
21E
330
4BA
100
AcDbEntity
  8
1
100
AcDbLine
 10
7.542171
 20
0.279359
 30
0.0
 11
7.370233999999999
 21
0.3040150000000001
 31
0.0
  0
LINE
  5
21F
330
4BA
100
AcDbEntity
  8
1
100
AcDbLine
 10
7.370233999999999
 20
0.3040150000000001
 30
0.0
 11
7.196463999999999
 21
0.331894
 31
0.0
  0
LINE
  5
220
330
4BA
100
AcDbEntity
  8
1
100
AcDbLine
 10
7.196463999999999
 20
0.331894
 30
0.0
 11
7.020808999999999
 21
0.363014
 31
0.0
  0
LINE
  5
221
330
4BA
100
AcDbEntity
  8
1
100
AcDbLine
 10
7.020808999999999
 20
0.363014
 30
0.0
 11
6.84296
 21
0.39737
 31
0.0
  0
LINE
  5
222
330
4BA
100
AcDbEntity
  8
1
100
AcDbLine
 10
6.84296
 20
0.39737
 30
0.0
 11
6.662942
 21
0.4349420000000001
 31
0.0
  0
LINE
  5
223
330
4BA
100
AcDbEntity
  8
1
100
AcDbLine
 10
6.662942
 20
0.4349420000000001
 30
0.0
 11
6.480729
 21
0.475748
 31
0.0
  0
LINE
  5
224
330
4BA
100
AcDbEntity
  8
1
100
AcDbLine
 10
6.480729
 20
0.475748
 30
0.0
 11
6.295937999999999
 21
0.5198380000000001
 31
0.0
  0
LINE
  5
225
330
4BA
100
AcDbEntity
  8
1
100
AcDbLine
 10
6.295937999999999
 20
0.5198380000000001
 30
0.0
 11
6.108437
 21
0.567225
 31
0.0
  0
LINE
  5
226
330
4BA
100
AcDbEntity
  8
1
100
AcDbLine
 10
6.108437
 20
0.567225
 30
0.0
 11
5.918357
 21
0.6178910000000001
 31
0.0
  0
LINE
  5
227
330
4BA
100
AcDbEntity
  8
1
100
AcDbLine
 10
5.918357
 20
0.6178910000000001
 30
0.0
 11
5.725698
 21
0.6718340000000001
 31
0.0
  0
LINE
  5
228
330
4BA
100
AcDbEntity
  8
1
100
AcDbLine
 10
9.457487
 20
1.785959
 30
0.0
 11
9.457065
 21
1.764148
 31
0.0
  0
LINE
  5
229
330
4BA
100
AcDbEntity
  8
1
100
AcDbLine
 10
9.457065
 20
1.764148
 30
0.0
 11
9.455728
 21
1.741663999999999
 31
0.0
  0
LINE
  5
22A
330
4BA
100
AcDbEntity
  8
1
100
AcDbLine
 10
9.455728
 20
1.741663999999999
 30
0.0
 11
9.453477000000001
 21
1.718511
 31
0.0
  0
LINE
  5
22B
330
4BA
100
AcDbEntity
  8
1
100
AcDbLine
 10
9.453477000000001
 20
1.718511
 30
0.0
 11
9.450333
 21
1.694690999999999
 31
0.0
  0
LINE
  5
22C
330
4BA
100
AcDbEntity
  8
1
100
AcDbLine
 10
9.450333
 20
1.694690999999999
 30
0.0
 11
9.446274
 21
1.670206
 31
0.0
  0
LINE
  5
22D
330
4BA
100
AcDbEntity
  8
1
100
AcDbLine
 10
9.446274
 20
1.670206
 30
0.0
 11
9.441236999999999
 21
1.645063999999999
 31
0.0
  0
LINE
  5
22E
330
4BA
100
AcDbEntity
  8
1
100
AcDbLine
 10
9.441236999999999
 20
1.645063999999999
 30
0.0
 11
9.435219
 21
1.619266999999999
 31
0.0
  0
LINE
  5
22F
330
4BA
100
AcDbEntity
  8
1
100
AcDbLine
 10
9.435219
 20
1.619266999999999
 30
0.0
 11
9.428221
 21
1.592820999999999
 31
0.0
  0
LINE
  5
230
330
4BA
100
AcDbEntity
  8
1
100
AcDbLine
 10
9.428221
 20
1.592820999999999
 30
0.0
 11
9.420183999999999
 21
1.565737999999999
 31
0.0
  0
LINE
  5
231
330
4BA
100
AcDbEntity
  8
1
100
AcDbLine
 10
9.420183999999999
 20
1.565737999999999
 30
0.0
 11
9.411127
 21
1.538063999999999
 31
0.0
  0
LINE
  5
232
330
4BA
100
AcDbEntity
  8
1
100
AcDbLine
 10
9.411127
 20
1.538063999999999
 30
0.0
 11
9.401030999999999
 21
1.509762999999999
 31
0.0
  0
LINE
  5
233
330
4BA
100
AcDbEntity
  8
1
100
AcDbLine
 10
9.401030999999999
 20
1.509762999999999
 30
0.0
 11
9.38977
 21
1.480717999999999
 31
0.0
  0
LINE
  5
234
330
4BA
100
AcDbEntity
  8
1
100
AcDbLine
 10
9.38977
 20
1.480717999999999
 30
0.0
 11
9.377342999999999
 21
1.450909
 31
0.0
  0
LINE
  5
235
330
4BA
100
AcDbEntity
  8
1
100
AcDbLine
 10
9.377342999999999
 20
1.450909
 30
0.0
 11
9.363752999999999
 21
1.420371999999999
 31
0.0
  0
LINE
  5
236
330
4BA
100
AcDbEntity
  8
1
100
AcDbLine
 10
9.363752999999999
 20
1.420371999999999
 30
0.0
 11
9.348867999999999
 21
1.389075999999999
 31
0.0
  0
LINE
  5
237
330
4BA
100
AcDbEntity
  8
1
100
AcDbLine
 10
9.348867999999999
 20
1.389075999999999
 30
0.0
 11
9.332689999999999
 21
1.357016999999999
 31
0.0
  0
LINE
  5
238
330
4BA
100
AcDbEntity
  8
1
100
AcDbLine
 10
9.332689999999999
 20
1.357016999999999
 30
0.0
 11
9.31522
 21
1.324220999999999
 31
0.0
  0
LINE
  5
239
330
4BA
100
AcDbEntity
  8
1
100
AcDbLine
 10
9.31522
 20
1.324220999999999
 30
0.0
 11
9.296332000000001
 21
1.290715
 31
0.0
  0
LINE
  5
23A
330
4BA
100
AcDbEntity
  8
1
100
AcDbLine
 10
9.296332000000001
 20
1.290715
 30
0.0
 11
9.276047999999999
 21
1.256523
 31
0.0
  0
LINE
  5
23B
330
4BA
100
AcDbEntity
  8
1
100
AcDbLine
 10
9.276047999999999
 20
1.256523
 30
0.0
 11
9.254349000000001
 21
1.221648
 31
0.0
  0
LINE
  5
23C
330
4BA
100
AcDbEntity
  8
1
100
AcDbLine
 10
9.254349000000001
 20
1.221648
 30
0.0
 11
9.231053999999998
 21
1.186083999999999
 31
0.0
  0
LINE
  5
23D
330
4BA
100
AcDbEntity
  8
1
100
AcDbLine
 10
9.231053999999998
 20
1.186083999999999
 30
0.0
 11
9.206172999999999
 21
1.149831
 31
0.0
  0
LINE
  5
23E
330
4BA
100
AcDbEntity
  8
1
100
AcDbLine
 10
9.206172999999999
 20
1.149831
 30
0.0
 11
9.179702
 21
1.112924999999999
 31
0.0
  0
LINE
  5
23F
330
4BA
100
AcDbEntity
  8
1
100
AcDbLine
 10
9.179702
 20
1.112924999999999
 30
0.0
 11
9.151438999999999
 21
1.075420999999999
 31
0.0
  0
LINE
  5
240
330
4BA
100
AcDbEntity
  8
1
100
AcDbLine
 10
9.151438999999999
 20
1.075420999999999
 30
0.0
 11
9.121321
 21
1.037355999999999
 31
0.0
  0
LINE
  5
241
330
4BA
100
AcDbEntity
  8
1
100
AcDbLine
 10
9.121321
 20
1.037355999999999
 30
0.0
 11
9.089422
 21
0.998741
 31
0.0
  0
LINE
  5
242
330
4BA
100
AcDbEntity
  8
1
100
AcDbLine
 10
9.089422
 20
0.998741
 30
0.0
 11
9.055747999999999
 21
0.9596040000000002
 31
0.0
  0
LINE
  5
243
330
4BA
100
AcDbEntity
  8
1
100
AcDbLine
 10
9.365244
 20
2.052305
 30
0.0
 11
9.376412
 21
2.038849
 31
0.0
  0
LINE
  5
244
330
4BA
100
AcDbEntity
  8
1
100
AcDbLine
 10
9.376412
 20
2.038849
 30
0.0
 11
9.386886999999999
 21
2.02489
 31
0.0
  0
LINE
  5
245
330
4BA
100
AcDbEntity
  8
1
100
AcDbLine
 10
9.386886999999999
 20
2.02489
 30
0.0
 11
9.396668
 21
2.010429
 31
0.0
  0
LINE
  5
246
330
4BA
100
AcDbEntity
  8
1
100
AcDbLine
 10
9.396668
 20
2.010429
 30
0.0
 11
9.405756
 21
1.995499
 31
0.0
  0
LINE
  5
247
330
4BA
100
AcDbEntity
  8
1
100
AcDbLine
 10
9.405756
 20
1.995499
 30
0.0
 11
9.414150999999998
 21
1.980066999999999
 31
0.0
  0
LINE
  5
248
330
4BA
100
AcDbEntity
  8
1
100
AcDbLine
 10
9.414150999999998
 20
1.980066999999999
 30
0.0
 11
9.421857000000001
 21
1.964020999999999
 31
0.0
  0
LINE
  5
249
330
4BA
100
AcDbEntity
  8
1
100
AcDbLine
 10
9.421857000000001
 20
1.964020999999999
 30
0.0
 11
9.428892999999998
 21
1.947374
 31
0.0
  0
LINE
  5
24A
330
4BA
100
AcDbEntity
  8
1
100
AcDbLine
 10
9.428892999999998
 20
1.947374
 30
0.0
 11
9.435238999999999
 21
1.930111999999999
 31
0.0
  0
LINE
  5
24B
330
4BA
100
AcDbEntity
  8
1
100
AcDbLine
 10
9.435238999999999
 20
1.930111999999999
 30
0.0
 11
9.440839
 21
1.912084999999999
 31
0.0
  0
LINE
  5
24C
330
4BA
100
AcDbEntity
  8
1
100
AcDbLine
 10
9.440839
 20
1.912084999999999
 30
0.0
 11
9.445717
 21
1.893300999999999
 31
0.0
  0
LINE
  5
24D
330
4BA
100
AcDbEntity
  8
1
100
AcDbLine
 10
9.445717
 20
1.893300999999999
 30
0.0
 11
9.449849
 21
1.873751
 31
0.0
  0
LINE
  5
24E
330
4BA
100
AcDbEntity
  8
1
100
AcDbLine
 10
9.449849
 20
1.873751
 30
0.0
 11
9.453105
 21
1.853258999999999
 31
0.0
  0
LINE
  5
24F
330
4BA
100
AcDbEntity
  8
1
100
AcDbLine
 10
9.453105
 20
1.853258999999999
 30
0.0
 11
9.455441
 21
1.831766
 31
0.0
  0
LINE
  5
250
330
4BA
100
AcDbEntity
  8
1
100
AcDbLine
 10
9.455441
 20
1.831766
 30
0.0
 11
9.456902000000001
 21
1.809333999999999
 31
0.0
  0
LINE
  5
251
330
4BA
100
AcDbEntity
  8
1
100
AcDbLine
 10
9.456902000000001
 20
1.809333999999999
 30
0.0
 11
9.457487
 21
1.785959
 31
0.0
  0
LINE
  5
252
330
4BA
100
AcDbEntity
  8
1
100
AcDbLine
 10
8.931602999999999
 20
0.8301350000000001
 30
0.0
 11
8.915108999999999
 21
0.8144249999999999
 31
0.0
  0
LINE
  5
253
330
4BA
100
AcDbEntity
  8
1
100
AcDbLine
 10
8.915108999999999
 20
0.8144249999999999
 30
0.0
 11
8.885761
 21
0.7872560000000001
 31
0.0
  0
LINE
  5
254
330
4BA
100
AcDbEntity
  8
1
100
AcDbLine
 10
8.885761
 20
0.7872560000000001
 30
0.0
 11
8.856042
 21
0.7607330000000001
 31
0.0
  0
LINE
  5
255
330
4BA
100
AcDbEntity
  8
1
100
AcDbLine
 10
8.856042
 20
0.7607330000000001
 30
0.0
 11
8.825944999999999
 21
0.7348530000000001
 31
0.0
  0
LINE
  5
256
330
4BA
100
AcDbEntity
  8
1
100
AcDbLine
 10
8.825944999999999
 20
0.7348530000000001
 30
0.0
 11
8.795471
 21
0.709619
 31
0.0
  0
LINE
  5
257
330
4BA
100
AcDbEntity
  8
1
100
AcDbLine
 10
9.055747999999999
 20
0.9596040000000002
 30
0.0
 11
9.02846
 21
0.929344
 31
0.0
  0
LINE
  5
258
330
4BA
100
AcDbEntity
  8
1
100
AcDbLine
 10
9.02846
 20
0.929344
 30
0.0
 11
9.000752
 21
0.899694
 31
0.0
  0
LINE
  5
259
330
4BA
100
AcDbEntity
  8
1
100
AcDbLine
 10
9.000752
 20
0.899694
 30
0.0
 11
8.972627000000001
 21
0.8706569999999999
 31
0.0
  0
LINE
  5
25A
330
4BA
100
AcDbEntity
  8
1
100
AcDbLine
 10
8.972627000000001
 20
0.8706569999999999
 30
0.0
 11
8.944074999999999
 21
0.8422309999999999
 31
0.0
  0
LINE
  5
25B
330
4BA
100
AcDbEntity
  8
1
100
AcDbLine
 10
8.944074999999999
 20
0.8422309999999999
 30
0.0
 11
8.931602999999999
 21
0.8301350000000001
 31
0.0
  0
LINE
  5
25C
330
4BA
100
AcDbEntity
  8
1
100
AcDbLine
 10
7.126276999999999
 20
1.691013
 30
0.0
 11
7.150413999999999
 21
1.719858
 31
0.0
  0
LINE
  5
25D
330
4BA
100
AcDbEntity
  8
1
100
AcDbLine
 10
7.150413999999999
 20
1.719858
 30
0.0
 11
7.176605999999999
 21
1.748388999999999
 31
0.0
  0
LINE
  5
25E
330
4BA
100
AcDbEntity
  8
1
100
AcDbLine
 10
7.176605999999999
 20
1.748388999999999
 30
0.0
 11
7.205772
 21
1.777498
 31
0.0
  0
LINE
  5
25F
330
4BA
100
AcDbEntity
  8
1
100
AcDbLine
 10
7.328591
 20
0.523037
 30
0.0
 11
7.305813
 21
0.540253
 31
0.0
  0
LINE
  5
260
330
4BA
100
AcDbEntity
  8
1
100
AcDbLine
 10
7.305813
 20
0.540253
 30
0.0
 11
7.283682
 21
0.558052
 31
0.0
  0
LINE
  5
261
330
4BA
100
AcDbEntity
  8
1
100
AcDbLine
 10
7.283682
 20
0.558052
 30
0.0
 11
7.262196
 21
0.576429
 31
0.0
  0
LINE
  5
262
330
4BA
100
AcDbEntity
  8
1
100
AcDbLine
 10
7.262196
 20
0.576429
 30
0.0
 11
7.241336999999999
 21
0.5954000000000001
 31
0.0
  0
LINE
  5
263
330
4BA
100
AcDbEntity
  8
1
100
AcDbLine
 10
7.241336999999999
 20
0.5954000000000001
 30
0.0
 11
7.221116999999999
 21
0.614938
 31
0.0
  0
LINE
  5
264
330
4BA
100
AcDbEntity
  8
1
100
AcDbLine
 10
7.221116999999999
 20
0.614938
 30
0.0
 11
7.201574
 21
0.63498
 31
0.0
  0
LINE
  5
265
330
4BA
100
AcDbEntity
  8
1
100
AcDbLine
 10
7.201574
 20
0.63498
 30
0.0
 11
7.182727
 21
0.655492
 31
0.0
  0
LINE
  5
266
330
4BA
100
AcDbEntity
  8
1
100
AcDbLine
 10
7.182727
 20
0.655492
 30
0.0
 11
7.164552
 21
0.676498
 31
0.0
  0
LINE
  5
267
330
4BA
100
AcDbEntity
  8
1
100
AcDbLine
 10
7.164552
 20
0.676498
 30
0.0
 11
7.147028999999998
 21
0.6980180000000001
 31
0.0
  0
LINE
  5
268
330
4BA
100
AcDbEntity
  8
1
100
AcDbLine
 10
7.147028999999998
 20
0.6980180000000001
 30
0.0
 11
7.130130999999999
 21
0.7200720000000001
 31
0.0
  0
LINE
  5
269
330
4BA
100
AcDbEntity
  8
1
100
AcDbLine
 10
7.130130999999999
 20
0.7200720000000001
 30
0.0
 11
7.113878999999998
 21
0.742634
 31
0.0
  0
LINE
  5
26A
330
4BA
100
AcDbEntity
  8
1
100
AcDbLine
 10
7.113878999999998
 20
0.742634
 30
0.0
 11
7.09833
 21
0.765654
 31
0.0
  0
LINE
  5
26B
330
4BA
100
AcDbEntity
  8
1
100
AcDbLine
 10
7.09833
 20
0.765654
 30
0.0
 11
7.083483
 21
0.789124
 31
0.0
  0
LINE
  5
26C
330
4BA
100
AcDbEntity
  8
1
100
AcDbLine
 10
7.083483
 20
0.789124
 30
0.0
 11
7.069335
 21
0.8130460000000001
 31
0.0
  0
LINE
  5
26D
330
4BA
100
AcDbEntity
  8
1
100
AcDbLine
 10
7.069335
 20
0.8130460000000001
 30
0.0
 11
7.055933
 21
0.8373899999999999
 31
0.0
  0
LINE
  5
26E
330
4BA
100
AcDbEntity
  8
1
100
AcDbLine
 10
7.055933
 20
0.8373899999999999
 30
0.0
 11
7.043277999999999
 21
0.8621349999999999
 31
0.0
  0
LINE
  5
26F
330
4BA
100
AcDbEntity
  8
1
100
AcDbLine
 10
7.043277999999999
 20
0.8621349999999999
 30
0.0
 11
7.031367999999999
 21
0.8872989999999999
 31
0.0
  0
LINE
  5
270
330
4BA
100
AcDbEntity
  8
1
100
AcDbLine
 10
7.031367999999999
 20
0.8872989999999999
 30
0.0
 11
7.020243999999999
 21
0.9128969999999998
 31
0.0
  0
LINE
  5
271
330
4BA
100
AcDbEntity
  8
1
100
AcDbLine
 10
7.020243999999999
 20
0.9128969999999998
 30
0.0
 11
7.009888
 21
0.9389700000000001
 31
0.0
  0
LINE
  5
272
330
4BA
100
AcDbEntity
  8
1
100
AcDbLine
 10
7.009888
 20
0.9389700000000001
 30
0.0
 11
7.000319
 21
0.965477
 31
0.0
  0
LINE
  5
273
330
4BA
100
AcDbEntity
  8
1
100
AcDbLine
 10
7.000319
 20
0.965477
 30
0.0
 11
6.991635999999999
 21
0.9923159999999999
 31
0.0
  0
LINE
  5
274
330
4BA
100
AcDbEntity
  8
1
100
AcDbLine
 10
6.991635999999999
 20
0.9923159999999999
 30
0.0
 11
6.983846999999999
 21
1.019468
 31
0.0
  0
LINE
  5
275
330
4BA
100
AcDbEntity
  8
1
100
AcDbLine
 10
6.983846999999999
 20
1.019468
 30
0.0
 11
6.976946
 21
1.046953
 31
0.0
  0
LINE
  5
276
330
4BA
100
AcDbEntity
  8
1
100
AcDbLine
 10
6.976946
 20
1.046953
 30
0.0
 11
6.971013
 21
1.074729999999999
 31
0.0
  0
LINE
  5
277
330
4BA
100
AcDbEntity
  8
1
100
AcDbLine
 10
6.971013
 20
1.074729999999999
 30
0.0
 11
6.966042999999999
 21
1.102799
 31
0.0
  0
LINE
  5
278
330
4BA
100
AcDbEntity
  8
1
100
AcDbLine
 10
6.966042999999999
 20
1.102799
 30
0.0
 11
6.962044
 21
1.131164999999999
 31
0.0
  0
LINE
  5
279
330
4BA
100
AcDbEntity
  8
1
100
AcDbLine
 10
6.962044
 20
1.131164999999999
 30
0.0
 11
6.959111999999999
 21
1.159785
 31
0.0
  0
LINE
  5
27A
330
4BA
100
AcDbEntity
  8
1
100
AcDbLine
 10
6.959111999999999
 20
1.159785
 30
0.0
 11
6.957244999999999
 21
1.188692999999999
 31
0.0
  0
LINE
  5
27B
330
4BA
100
AcDbEntity
  8
1
100
AcDbLine
 10
6.957244999999999
 20
1.188692999999999
 30
0.0
 11
6.95645
 21
1.217863999999999
 31
0.0
  0
LINE
  5
27C
330
4BA
100
AcDbEntity
  8
1
100
AcDbLine
 10
6.95645
 20
1.217863999999999
 30
0.0
 11
6.95683
 21
1.247172999999999
 31
0.0
  0
LINE
  5
27D
330
4BA
100
AcDbEntity
  8
1
100
AcDbLine
 10
6.95683
 20
1.247172999999999
 30
0.0
 11
6.958388
 21
1.276596999999999
 31
0.0
  0
LINE
  5
27E
330
4BA
100
AcDbEntity
  8
1
100
AcDbLine
 10
6.958388
 20
1.276596999999999
 30
0.0
 11
6.961128999999999
 21
1.306169
 31
0.0
  0
LINE
  5
27F
330
4BA
100
AcDbEntity
  8
1
100
AcDbLine
 10
6.961128999999999
 20
1.306169
 30
0.0
 11
6.965167
 21
1.335847
 31
0.0
  0
LINE
  5
280
330
4BA
100
AcDbEntity
  8
1
100
AcDbLine
 10
6.965167
 20
1.335847
 30
0.0
 11
6.970511
 21
1.365674
 31
0.0
  0
LINE
  5
281
330
4BA
100
AcDbEntity
  8
1
100
AcDbLine
 10
6.970511
 20
1.365674
 30
0.0
 11
6.977161999999999
 21
1.395623999999999
 31
0.0
  0
LINE
  5
282
330
4BA
100
AcDbEntity
  8
1
100
AcDbLine
 10
6.977161999999999
 20
1.395623999999999
 30
0.0
 11
6.985224
 21
1.425551
 31
0.0
  0
LINE
  5
283
330
4BA
100
AcDbEntity
  8
1
100
AcDbLine
 10
6.985224
 20
1.425551
 30
0.0
 11
6.994700999999999
 21
1.455453
 31
0.0
  0
LINE
  5
284
330
4BA
100
AcDbEntity
  8
1
100
AcDbLine
 10
6.994700999999999
 20
1.455453
 30
0.0
 11
7.005600999999999
 21
1.485353
 31
0.0
  0
LINE
  5
285
330
4BA
100
AcDbEntity
  8
1
100
AcDbLine
 10
7.005600999999999
 20
1.485353
 30
0.0
 11
7.018032999999999
 21
1.515147999999999
 31
0.0
  0
LINE
  5
286
330
4BA
100
AcDbEntity
  8
1
100
AcDbLine
 10
7.018032999999999
 20
1.515147999999999
 30
0.0
 11
7.032007000000001
 21
1.544856999999999
 31
0.0
  0
LINE
  5
287
330
4BA
100
AcDbEntity
  8
1
100
AcDbLine
 10
7.032007000000001
 20
1.544856999999999
 30
0.0
 11
7.047528999999999
 21
1.574489999999999
 31
0.0
  0
LINE
  5
288
330
4BA
100
AcDbEntity
  8
1
100
AcDbLine
 10
7.047528999999999
 20
1.574489999999999
 30
0.0
 11
7.064697999999999
 21
1.603919
 31
0.0
  0
LINE
  5
289
330
4BA
100
AcDbEntity
  8
1
100
AcDbLine
 10
7.064697999999999
 20
1.603919
 30
0.0
 11
7.083553999999999
 21
1.633112999999999
 31
0.0
  0
LINE
  5
28A
330
4BA
100
AcDbEntity
  8
1
100
AcDbLine
 10
7.083553999999999
 20
1.633112999999999
 30
0.0
 11
7.104077
 21
1.662138999999999
 31
0.0
  0
LINE
  5
28B
330
4BA
100
AcDbEntity
  8
1
100
AcDbLine
 10
7.104077
 20
1.662138999999999
 30
0.0
 11
7.126276999999999
 21
1.691013
 31
0.0
  0
LINE
  5
28C
330
4BA
100
AcDbEntity
  8
1
100
AcDbLine
 10
8.795471
 20
0.709619
 30
0.0
 11
8.781985999999999
 21
0.701647
 31
0.0
  0
LINE
  5
28D
330
4BA
100
AcDbEntity
  8
1
100
AcDbLine
 10
8.781985999999999
 20
0.701647
 30
0.0
 11
8.767036
 21
0.6934040000000001
 31
0.0
  0
LINE
  5
28E
330
4BA
100
AcDbEntity
  8
1
100
AcDbLine
 10
8.767036
 20
0.6934040000000001
 30
0.0
 11
8.750591
 21
0.6849340000000001
 31
0.0
  0
LINE
  5
28F
330
4BA
100
AcDbEntity
  8
1
100
AcDbLine
 10
8.750591
 20
0.6849340000000001
 30
0.0
 11
8.732603999999998
 21
0.676283
 31
0.0
  0
LINE
  5
290
330
4BA
100
AcDbEntity
  8
1
100
AcDbLine
 10
8.732603999999998
 20
0.676283
 30
0.0
 11
8.713057
 21
0.667496
 31
0.0
  0
LINE
  5
291
330
4BA
100
AcDbEntity
  8
1
100
AcDbLine
 10
8.713057
 20
0.667496
 30
0.0
 11
8.691971
 21
0.65861
 31
0.0
  0
LINE
  5
292
330
4BA
100
AcDbEntity
  8
1
100
AcDbLine
 10
8.691971
 20
0.65861
 30
0.0
 11
8.669325999999999
 21
0.6496490000000001
 31
0.0
  0
LINE
  5
293
330
4BA
100
AcDbEntity
  8
1
100
AcDbLine
 10
8.669325999999999
 20
0.6496490000000001
 30
0.0
 11
8.645097999999999
 21
0.640656
 31
0.0
  0
LINE
  5
294
330
4BA
100
AcDbEntity
  8
1
100
AcDbLine
 10
8.645097999999999
 20
0.640656
 30
0.0
 11
8.619324
 21
0.6316790000000001
 31
0.0
  0
LINE
  5
295
330
4BA
100
AcDbEntity
  8
1
100
AcDbLine
 10
8.619324
 20
0.6316790000000001
 30
0.0
 11
8.592002
 21
0.622743
 31
0.0
  0
LINE
  5
296
330
4BA
100
AcDbEntity
  8
1
100
AcDbLine
 10
8.592002
 20
0.622743
 30
0.0
 11
8.563102999999999
 21
0.613876
 31
0.0
  0
LINE
  5
297
330
4BA
100
AcDbEntity
  8
1
100
AcDbLine
 10
8.563102999999999
 20
0.613876
 30
0.0
 11
8.532619999999999
 21
0.6051220000000001
 31
0.0
  0
LINE
  5
298
330
4BA
100
AcDbEntity
  8
1
100
AcDbLine
 10
8.532619999999999
 20
0.6051220000000001
 30
0.0
 11
8.500507999999999
 21
0.5964920000000001
 31
0.0
  0
LINE
  5
299
330
4BA
100
AcDbEntity
  8
1
100
AcDbLine
 10
8.500507999999999
 20
0.5964920000000001
 30
0.0
 11
8.466787
 21
0.5880270000000002
 31
0.0
  0
LINE
  5
29A
330
4BA
100
AcDbEntity
  8
1
100
AcDbLine
 10
8.466787
 20
0.5880270000000002
 30
0.0
 11
8.431546
 21
0.579807
 31
0.0
  0
LINE
  5
29B
330
4BA
100
AcDbEntity
  8
1
100
AcDbLine
 10
8.431546
 20
0.579807
 30
0.0
 11
8.394769999999999
 21
0.57184
 31
0.0
  0
LINE
  5
29C
330
4BA
100
AcDbEntity
  8
1
100
AcDbLine
 10
8.394769999999999
 20
0.57184
 30
0.0
 11
8.356466000000001
 21
0.5641510000000001
 31
0.0
  0
LINE
  5
29D
330
4BA
100
AcDbEntity
  8
1
100
AcDbLine
 10
8.356466000000001
 20
0.5641510000000001
 30
0.0
 11
8.316762999999999
 21
0.5568380000000001
 31
0.0
  0
LINE
  5
29E
330
4BA
100
AcDbEntity
  8
1
100
AcDbLine
 10
8.316762999999999
 20
0.5568380000000001
 30
0.0
 11
8.275600999999999
 21
0.54989
 31
0.0
  0
LINE
  5
29F
330
4BA
100
AcDbEntity
  8
1
100
AcDbLine
 10
8.275600999999999
 20
0.54989
 30
0.0
 11
8.233048
 21
0.543333
 31
0.0
  0
LINE
  5
2A0
330
4BA
100
AcDbEntity
  8
1
100
AcDbLine
 10
8.233048
 20
0.543333
 30
0.0
 11
8.189442999999998
 21
0.537294
 31
0.0
  0
LINE
  5
2A1
330
4BA
100
AcDbEntity
  8
1
100
AcDbLine
 10
8.189442999999998
 20
0.537294
 30
0.0
 11
8.144828
 21
0.5317600000000001
 31
0.0
  0
LINE
  5
2A2
330
4BA
100
AcDbEntity
  8
1
100
AcDbLine
 10
8.144828
 20
0.5317600000000001
 30
0.0
 11
8.099199999999999
 21
0.526718
 31
0.0
  0
LINE
  5
2A3
330
4BA
100
AcDbEntity
  8
1
100
AcDbLine
 10
8.099199999999999
 20
0.526718
 30
0.0
 11
8.052846999999999
 21
0.5222720000000001
 31
0.0
  0
LINE
  5
2A4
330
4BA
100
AcDbEntity
  8
1
100
AcDbLine
 10
8.052846999999999
 20
0.5222720000000001
 30
0.0
 11
8.005807
 21
0.518399
 31
0.0
  0
LINE
  5
2A5
330
4BA
100
AcDbEntity
  8
1
100
AcDbLine
 10
8.005807
 20
0.518399
 30
0.0
 11
7.958097
 21
0.5150700000000001
 31
0.0
  0
LINE
  5
2A6
330
4BA
100
AcDbEntity
  8
1
100
AcDbLine
 10
7.958097
 20
0.5150700000000001
 30
0.0
 11
7.909988
 21
0.5123670000000001
 31
0.0
  0
LINE
  5
2A7
330
4BA
100
AcDbEntity
  8
1
100
AcDbLine
 10
7.909988
 20
0.5123670000000001
 30
0.0
 11
7.861527
 21
0.5102600000000001
 31
0.0
  0
LINE
  5
2A8
330
4BA
100
AcDbEntity
  8
1
100
AcDbLine
 10
7.861527
 20
0.5102600000000001
 30
0.0
 11
7.812732
 21
0.5087070000000001
 31
0.0
  0
LINE
  5
2A9
330
4BA
100
AcDbEntity
  8
1
100
AcDbLine
 10
7.812732
 20
0.5087070000000001
 30
0.0
 11
7.76383
 21
0.507767
 31
0.0
  0
LINE
  5
2AA
330
4BA
100
AcDbEntity
  8
1
100
AcDbLine
 10
7.76383
 20
0.507767
 30
0.0
 11
7.714889
 21
0.507403
 31
0.0
  0
LINE
  5
2AB
330
4BA
100
AcDbEntity
  8
1
100
AcDbLine
 10
7.714889
 20
0.507403
 30
0.0
 11
7.665911
 21
0.50757
 31
0.0
  0
LINE
  5
2AC
330
4BA
100
AcDbEntity
  8
1
100
AcDbLine
 10
7.665911
 20
0.50757
 30
0.0
 11
7.617021
 21
0.508304
 31
0.0
  0
LINE
  5
2AD
330
4BA
100
AcDbEntity
  8
1
100
AcDbLine
 10
7.617021
 20
0.508304
 30
0.0
 11
7.568250999999999
 21
0.509569
 31
0.0
  0
LINE
  5
2AE
330
4BA
100
AcDbEntity
  8
1
100
AcDbLine
 10
7.568250999999999
 20
0.509569
 30
0.0
 11
7.519638999999999
 21
0.511319
 31
0.0
  0
LINE
  5
2AF
330
4BA
100
AcDbEntity
  8
1
100
AcDbLine
 10
7.519638999999999
 20
0.511319
 30
0.0
 11
7.471324
 21
0.5135760000000001
 31
0.0
  0
LINE
  5
2B0
330
4BA
100
AcDbEntity
  8
1
100
AcDbLine
 10
7.471324
 20
0.5135760000000001
 30
0.0
 11
7.423372
 21
0.5163190000000001
 31
0.0
  0
LINE
  5
2B1
330
4BA
100
AcDbEntity
  8
1
100
AcDbLine
 10
7.423372
 20
0.5163190000000001
 30
0.0
 11
7.375783999999999
 21
0.519487
 31
0.0
  0
LINE
  5
2B2
330
4BA
100
AcDbEntity
  8
1
100
AcDbLine
 10
7.375783999999999
 20
0.519487
 30
0.0
 11
7.328591
 21
0.523037
 31
0.0
  0
LINE
  5
2B3
330
4BA
100
AcDbEntity
  8
1
100
AcDbLine
 10
7.205772
 20
1.777498
 30
0.0
 11
7.235217999999999
 21
1.804709
 31
0.0
  0
LINE
  5
2B4
330
4BA
100
AcDbEntity
  8
1
100
AcDbLine
 10
7.235217999999999
 20
1.804709
 30
0.0
 11
7.267663999999999
 21
1.832549999999999
 31
0.0
  0
LINE
  5
2B5
330
4BA
100
AcDbEntity
  8
1
100
AcDbLine
 10
7.267663999999999
 20
1.832549999999999
 30
0.0
 11
7.302192999999999
 21
1.85988
 31
0.0
  0
LINE
  5
2B6
330
4BA
100
AcDbEntity
  8
1
100
AcDbLine
 10
7.302192999999999
 20
1.85988
 30
0.0
 11
7.338847999999999
 21
1.886715
 31
0.0
  0
LINE
  5
2B7
330
4BA
100
AcDbEntity
  8
1
100
AcDbLine
 10
7.338847999999999
 20
1.886715
 30
0.0
 11
7.37761
 21
1.913093999999999
 31
0.0
  0
LINE
  5
2B8
330
4BA
100
AcDbEntity
  8
1
100
AcDbLine
 10
7.37761
 20
1.913093999999999
 30
0.0
 11
7.418371999999999
 21
1.938772999999999
 31
0.0
  0
LINE
  5
2B9
330
4BA
100
AcDbEntity
  8
1
100
AcDbLine
 10
7.418371999999999
 20
1.938772999999999
 30
0.0
 11
7.461138
 21
1.963748
 31
0.0
  0
LINE
  5
2BA
330
4BA
100
AcDbEntity
  8
1
100
AcDbLine
 10
7.461138
 20
1.963748
 30
0.0
 11
7.505921999999999
 21
1.988075
 31
0.0
  0
LINE
  5
2BB
330
4BA
100
AcDbEntity
  8
1
100
AcDbLine
 10
7.505921999999999
 20
1.988075
 30
0.0
 11
7.552636999999999
 21
2.011585999999999
 31
0.0
  0
LINE
  5
2BC
330
4BA
100
AcDbEntity
  8
1
100
AcDbLine
 10
7.552636999999999
 20
2.011585999999999
 30
0.0
 11
7.60128
 21
2.034294
 31
0.0
  0
LINE
  5
2BD
330
4BA
100
AcDbEntity
  8
1
100
AcDbLine
 10
7.60128
 20
2.034294
 30
0.0
 11
7.651867999999999
 21
2.056238
 31
0.0
  0
LINE
  5
2BE
330
4BA
100
AcDbEntity
  8
1
100
AcDbLine
 10
7.651867999999999
 20
2.056238
 30
0.0
 11
7.704332
 21
2.077277999999999
 31
0.0
  0
LINE
  5
2BF
330
4BA
100
AcDbEntity
  8
1
100
AcDbLine
 10
7.704332
 20
2.077277999999999
 30
0.0
 11
7.758846000000001
 21
2.097472
 31
0.0
  0
LINE
  5
2C0
330
4BA
100
AcDbEntity
  8
1
100
AcDbLine
 10
7.758846000000001
 20
2.097472
 30
0.0
 11
7.815244999999999
 21
2.116813999999999
 31
0.0
  0
LINE
  5
2C1
330
4BA
100
AcDbEntity
  8
1
100
AcDbLine
 10
7.815244999999999
 20
2.116813999999999
 30
0.0
 11
7.872955
 21
2.135043
 31
0.0
  0
LINE
  5
2C2
330
4BA
100
AcDbEntity
  8
1
100
AcDbLine
 10
7.872955
 20
2.135043
 30
0.0
 11
7.932141999999999
 21
2.152147
 31
0.0
  0
LINE
  5
2C3
330
4BA
100
AcDbEntity
  8
1
100
AcDbLine
 10
7.932141999999999
 20
2.152147
 30
0.0
 11
7.992633999999999
 21
2.168163
 31
0.0
  0
LINE
  5
2C4
330
4BA
100
AcDbEntity
  8
1
100
AcDbLine
 10
7.992633999999999
 20
2.168163
 30
0.0
 11
8.053328
 21
2.182869999999999
 31
0.0
  0
LINE
  5
2C5
330
4BA
100
AcDbEntity
  8
1
100
AcDbLine
 10
8.053328
 20
2.182869999999999
 30
0.0
 11
8.114163000000001
 21
2.196168
 31
0.0
  0
LINE
  5
2C6
330
4BA
100
AcDbEntity
  8
1
100
AcDbLine
 10
8.114163000000001
 20
2.196168
 30
0.0
 11
8.175175999999998
 21
2.208131999999999
 31
0.0
  0
LINE
  5
2C7
330
4BA
100
AcDbEntity
  8
1
100
AcDbLine
 10
8.175175999999998
 20
2.208131999999999
 30
0.0
 11
8.235400999999999
 21
2.218768999999999
 31
0.0
  0
LINE
  5
2C8
330
4BA
100
AcDbEntity
  8
1
100
AcDbLine
 10
8.235400999999999
 20
2.218768999999999
 30
0.0
 11
8.294745999999999
 21
2.227988
 31
0.0
  0
LINE
  5
2C9
330
4BA
100
AcDbEntity
  8
1
100
AcDbLine
 10
8.294745999999999
 20
2.227988
 30
0.0
 11
8.353274
 21
2.235821
 31
0.0
  0
LINE
  5
2CA
330
4BA
100
AcDbEntity
  8
1
100
AcDbLine
 10
8.353274
 20
2.235821
 30
0.0
 11
8.410232
 21
2.242427
 31
0.0
  0
LINE
  5
2CB
330
4BA
100
AcDbEntity
  8
1
100
AcDbLine
 10
8.410232
 20
2.242427
 30
0.0
 11
8.465486999999999
 21
2.247733
 31
0.0
  0
LINE
  5
2CC
330
4BA
100
AcDbEntity
  8
1
100
AcDbLine
 10
8.465486999999999
 20
2.247733
 30
0.0
 11
8.519146
 21
2.251736999999999
 31
0.0
  0
LINE
  5
2CD
330
4BA
100
AcDbEntity
  8
1
100
AcDbLine
 10
8.519146
 20
2.251736999999999
 30
0.0
 11
8.570821999999999
 21
2.254690999999999
 31
0.0
  0
LINE
  5
2CE
330
4BA
100
AcDbEntity
  8
1
100
AcDbLine
 10
8.570821999999999
 20
2.254690999999999
 30
0.0
 11
8.620321
 21
2.256561
 31
0.0
  0
LINE
  5
2CF
330
4BA
100
AcDbEntity
  8
1
100
AcDbLine
 10
8.620321
 20
2.256561
 30
0.0
 11
8.667817999999998
 21
2.257308
 31
0.0
  0
LINE
  5
2D0
330
4BA
100
AcDbEntity
  8
1
100
AcDbLine
 10
8.667817999999998
 20
2.257308
 30
0.0
 11
8.713485
 21
2.257183
 31
0.0
  0
LINE
  5
2D1
330
4BA
100
AcDbEntity
  8
1
100
AcDbLine
 10
8.713485
 20
2.257183
 30
0.0
 11
8.757277999999999
 21
2.25619
 31
0.0
  0
LINE
  5
2D2
330
4BA
100
AcDbEntity
  8
1
100
AcDbLine
 10
8.757277999999999
 20
2.25619
 30
0.0
 11
8.799228999999998
 21
2.254270999999999
 31
0.0
  0
LINE
  5
2D3
330
4BA
100
AcDbEntity
  8
1
100
AcDbLine
 10
8.799228999999998
 20
2.254270999999999
 30
0.0
 11
8.839634
 21
2.251581999999999
 31
0.0
  0
LINE
  5
2D4
330
4BA
100
AcDbEntity
  8
1
100
AcDbLine
 10
8.839634
 20
2.251581999999999
 30
0.0
 11
8.878529999999999
 21
2.248132
 31
0.0
  0
LINE
  5
2D5
330
4BA
100
AcDbEntity
  8
1
100
AcDbLine
 10
8.878529999999999
 20
2.248132
 30
0.0
 11
8.915872
 21
2.243872999999999
 31
0.0
  0
LINE
  5
2D6
330
4BA
100
AcDbEntity
  8
1
100
AcDbLine
 10
8.915872
 20
2.243872999999999
 30
0.0
 11
8.951836
 21
2.238897999999999
 31
0.0
  0
LINE
  5
2D7
330
4BA
100
AcDbEntity
  8
1
100
AcDbLine
 10
8.951836
 20
2.238897999999999
 30
0.0
 11
8.986508
 21
2.233184
 31
0.0
  0
LINE
  5
2D8
330
4BA
100
AcDbEntity
  8
1
100
AcDbLine
 10
8.986508
 20
2.233184
 30
0.0
 11
9.019797
 21
2.226724
 31
0.0
  0
LINE
  5
2D9
330
4BA
100
AcDbEntity
  8
1
100
AcDbLine
 10
9.019797
 20
2.226724
 30
0.0
 11
9.051614999999999
 21
2.219637
 31
0.0
  0
LINE
  5
2DA
330
4BA
100
AcDbEntity
  8
1
100
AcDbLine
 10
9.051614999999999
 20
2.219637
 30
0.0
 11
9.081908999999999
 21
2.211914
 31
0.0
  0
LINE
  5
2DB
330
4BA
100
AcDbEntity
  8
1
100
AcDbLine
 10
9.081908999999999
 20
2.211914
 30
0.0
 11
9.11073
 21
2.203537999999999
 31
0.0
  0
LINE
  5
2DC
330
4BA
100
AcDbEntity
  8
1
100
AcDbLine
 10
9.11073
 20
2.203537999999999
 30
0.0
 11
9.138135
 21
2.194618
 31
0.0
  0
LINE
  5
2DD
330
4BA
100
AcDbEntity
  8
1
100
AcDbLine
 10
9.138135
 20
2.194618
 30
0.0
 11
9.164101999999999
 21
2.185154999999999
 31
0.0
  0
LINE
  5
2DE
330
4BA
100
AcDbEntity
  8
1
100
AcDbLine
 10
9.164101999999999
 20
2.185154999999999
 30
0.0
 11
9.188653
 21
2.175127
 31
0.0
  0
LINE
  5
2DF
330
4BA
100
AcDbEntity
  8
1
100
AcDbLine
 10
9.188653
 20
2.175127
 30
0.0
 11
9.211918999999999
 21
2.164606
 31
0.0
  0
LINE
  5
2E0
330
4BA
100
AcDbEntity
  8
1
100
AcDbLine
 10
9.211918999999999
 20
2.164606
 30
0.0
 11
9.233943
 21
2.153561999999999
 31
0.0
  0
LINE
  5
2E1
330
4BA
100
AcDbEntity
  8
1
100
AcDbLine
 10
9.233943
 20
2.153561999999999
 30
0.0
 11
9.254682
 21
2.142011
 31
0.0
  0
LINE
  5
2E2
330
4BA
100
AcDbEntity
  8
1
100
AcDbLine
 10
9.254682
 20
2.142011
 30
0.0
 11
9.274143999999999
 21
2.130106999999999
 31
0.0
  0
LINE
  5
2E3
330
4BA
100
AcDbEntity
  8
1
100
AcDbLine
 10
9.274143999999999
 20
2.130106999999999
 30
0.0
 11
9.292289999999999
 21
2.117852999999999
 31
0.0
  0
LINE
  5
2E4
330
4BA
100
AcDbEntity
  8
1
100
AcDbLine
 10
9.292289999999999
 20
2.117852999999999
 30
0.0
 11
9.309158
 21
2.105233999999999
 31
0.0
  0
LINE
  5
2E5
330
4BA
100
AcDbEntity
  8
1
100
AcDbLine
 10
9.309158
 20
2.105233999999999
 30
0.0
 11
9.324875
 21
2.092362
 31
0.0
  0
LINE
  5
2E6
330
4BA
100
AcDbEntity
  8
1
100
AcDbLine
 10
9.324875
 20
2.092362
 30
0.0
 11
9.339482999999999
 21
2.079270999999999
 31
0.0
  0
LINE
  5
2E7
330
4BA
100
AcDbEntity
  8
1
100
AcDbLine
 10
9.339482999999999
 20
2.079270999999999
 30
0.0
 11
9.352938999999999
 21
2.065919
 31
0.0
  0
LINE
  5
2E8
330
4BA
100
AcDbEntity
  8
1
100
AcDbLine
 10
9.352938999999999
 20
2.065919
 30
0.0
 11
9.365244
 21
2.052305
 31
0.0
  0
LINE
  5
2E9
330
4BA
100
AcDbEntity
  8
1
100
AcDbLine
 10
9.745649999999999
 20
0.9538969999999999
 30
0.0
 11
9.586565999999999
 21
0.9066659999999998
 31
0.0
  0
LINE
  5
2EA
330
4BA
100
AcDbEntity
  8
1
100
AcDbLine
 10
9.586565999999999
 20
0.9066659999999998
 30
0.0
 11
9.427605999999999
 21
0.8619979999999999
 31
0.0
  0
LINE
  5
2EB
330
4BA
100
AcDbEntity
  8
1
100
AcDbLine
 10
9.427605999999999
 20
0.8619979999999999
 30
0.0
 11
9.268893999999999
 21
0.819926
 31
0.0
  0
LINE
  5
2EC
330
4BA
100
AcDbEntity
  8
1
100
AcDbLine
 10
9.268893999999999
 20
0.819926
 30
0.0
 11
9.110552
 21
0.7804870000000001
 31
0.0
  0
LINE
  5
2ED
330
4BA
100
AcDbEntity
  8
1
100
AcDbLine
 10
9.110552
 20
0.7804870000000001
 30
0.0
 11
8.952702999999999
 21
0.743708
 31
0.0
  0
LINE
  5
2EE
330
4BA
100
AcDbEntity
  8
1
100
AcDbLine
 10
8.952702999999999
 20
0.743708
 30
0.0
 11
8.795471
 21
0.709619
 31
0.0
  0
LINE
  5
2EF
330
4BA
100
AcDbEntity
  8
1
100
AcDbLine
 10
10.246061
 20
11.070982
 30
0.0
 11
10.095546
 21
11.053849
 31
0.0
  0
LINE
  5
2F0
330
4BA
100
AcDbEntity
  8
1
100
AcDbLine
 10
10.095546
 20
11.053849
 30
0.0
 11
9.944072999999999
 21
11.03851
 31
0.0
  0
LINE
  5
2F1
330
4BA
100
AcDbEntity
  8
1
100
AcDbLine
 10
9.944072999999999
 20
11.03851
 30
0.0
 11
9.791641999999999
 21
11.024992
 31
0.0
  0
LINE
  5
2F2
330
4BA
100
AcDbEntity
  8
1
100
AcDbLine
 10
9.791641999999999
 20
11.024992
 30
0.0
 11
9.638260999999999
 21
11.013353
 31
0.0
  0
LINE
  5
2F3
330
4BA
100
AcDbEntity
  8
1
100
AcDbLine
 10
9.638260999999999
 20
11.013353
 30
0.0
 11
9.483921
 21
11.00358
 31
0.0
  0
LINE
  5
2F4
330
4BA
100
AcDbEntity
  8
1
100
AcDbLine
 10
9.483921
 20
11.00358
 30
0.0
 11
9.328602
 21
10.99558
 31
0.0
  0
LINE
  5
2F5
330
4BA
100
AcDbEntity
  8
1
100
AcDbLine
 10
9.328602
 20
10.99558
 30
0.0
 11
9.172323999999999
 21
10.989365
 31
0.0
  0
LINE
  5
2F6
330
4BA
100
AcDbEntity
  8
1
100
AcDbLine
 10
9.172323999999999
 20
10.989365
 30
0.0
 11
9.015064999999999
 21
10.984948
 31
0.0
  0
LINE
  5
2F7
330
4BA
100
AcDbEntity
  8
1
100
AcDbLine
 10
9.015064999999999
 20
10.984948
 30
0.0
 11
8.856742
 21
10.982235
 31
0.0
  0
LINE
  5
2F8
330
4BA
100
AcDbEntity
  8
1
100
AcDbLine
 10
8.856742
 20
10.982235
 30
0.0
 11
8.697461
 21
10.981222
 31
0.0
  0
LINE
  5
2F9
330
4BA
100
AcDbEntity
  8
1
100
AcDbLine
 10
8.697461
 20
10.981222
 30
0.0
 11
8.537116000000001
 21
10.981919
 31
0.0
  0
LINE
  5
2FA
330
4BA
100
AcDbEntity
  8
1
100
AcDbLine
 10
8.537116000000001
 20
10.981919
 30
0.0
 11
8.375291999999999
 21
10.984255
 31
0.0
  0
LINE
  5
2FB
330
4BA
100
AcDbEntity
  8
1
100
AcDbLine
 10
8.375291999999999
 20
10.984255
 30
0.0
 11
8.211937999999999
 21
10.988217
 31
0.0
  0
LINE
  5
2FC
330
4BA
100
AcDbEntity
  8
1
100
AcDbLine
 10
8.211937999999999
 20
10.988217
 30
0.0
 11
8.047107
 21
10.993808
 31
0.0
  0
LINE
  5
2FD
330
4BA
100
AcDbEntity
  8
1
100
AcDbLine
 10
8.047107
 20
10.993808
 30
0.0
 11
7.880546
 21
11.000985
 31
0.0
  0
LINE
  5
2FE
330
4BA
100
AcDbEntity
  8
1
100
AcDbLine
 10
7.880546
 20
11.000985
 30
0.0
 11
7.712222999999999
 21
11.009733
 31
0.0
  0
LINE
  5
2FF
330
4BA
100
AcDbEntity
  8
1
100
AcDbLine
 10
7.712222999999999
 20
11.009733
 30
0.0
 11
7.542171
 21
11.020044
 31
0.0
  0
LINE
  5
300
330
4BA
100
AcDbEntity
  8
1
100
AcDbLine
 10
7.542171
 20
11.020044
 30
0.0
 11
7.370233999999999
 21
11.031876
 31
0.0
  0
LINE
  5
301
330
4BA
100
AcDbEntity
  8
1
100
AcDbLine
 10
7.370233999999999
 20
11.031876
 30
0.0
 11
7.196463999999999
 21
11.045206
 31
0.0
  0
LINE
  5
302
330
4BA
100
AcDbEntity
  8
1
100
AcDbLine
 10
7.196463999999999
 20
11.045206
 30
0.0
 11
7.020808999999999
 21
11.060019
 31
0.0
  0
LINE
  5
303
330
4BA
100
AcDbEntity
  8
1
100
AcDbLine
 10
7.020808999999999
 20
11.060019
 30
0.0
 11
6.84296
 21
11.076297
 31
0.0
  0
LINE
  5
304
330
4BA
100
AcDbEntity
  8
1
100
AcDbLine
 10
6.84296
 20
11.076297
 30
0.0
 11
6.662942
 21
11.094005
 31
0.0
  0
LINE
  5
305
330
4BA
100
AcDbEntity
  8
1
100
AcDbLine
 10
6.662942
 20
11.094005
 30
0.0
 11
6.480729
 21
11.113126
 31
0.0
  0
LINE
  5
306
330
4BA
100
AcDbEntity
  8
1
100
AcDbLine
 10
6.480729
 20
11.113126
 30
0.0
 11
6.295937999999999
 21
11.133658
 31
0.0
  0
LINE
  5
307
330
4BA
100
AcDbEntity
  8
1
100
AcDbLine
 10
6.295937999999999
 20
11.133658
 30
0.0
 11
6.108437
 21
11.155575
 31
0.0
  0
LINE
  5
308
330
4BA
100
AcDbEntity
  8
1
100
AcDbLine
 10
6.108437
 20
11.155575
 30
0.0
 11
5.918357
 21
11.178836
 31
0.0
  0
LINE
  5
309
330
4BA
100
AcDbEntity
  8
1
100
AcDbLine
 10
5.918357
 20
11.178836
 30
0.0
 11
5.725698
 21
11.203407
 31
0.0
  0
LINE
  5
30A
330
4BA
100
AcDbEntity
  8
1
100
AcDbLine
 10
8.391548
 20
7.998066
 30
0.0
 11
8.262007999999999
 21
7.962569
 31
0.0
  0
LINE
  5
30B
330
4BA
100
AcDbEntity
  8
1
100
AcDbLine
 10
8.262007999999999
 20
7.962569
 30
0.0
 11
7.510599
 21
7.753769
 31
0.0
  0
LINE
  5
30C
330
4BA
100
AcDbEntity
  8
1
100
AcDbLine
 10
7.510599
 20
7.753769
 30
0.0
 11
6.75583
 21
7.541135
 31
0.0
  0
LINE
  5
30D
330
4BA
100
AcDbEntity
  8
1
100
AcDbLine
 10
6.75583
 20
7.541135
 30
0.0
 11
5.997762999999999
 21
7.324699
 31
0.0
  0
LINE
  5
30E
330
4BA
100
AcDbEntity
  8
1
100
AcDbLine
 10
5.997762999999999
 20
7.324699
 30
0.0
 11
5.238012
 21
7.104894999999999
 31
0.0
  0
LINE
  5
30F
330
4BA
100
AcDbEntity
  8
1
100
AcDbLine
 10
5.238012
 20
7.104894999999999
 30
0.0
 11
4.477113
 21
6.881871
 31
0.0
  0
LINE
  5
310
330
4BA
100
AcDbEntity
  8
1
100
AcDbLine
 10
4.477113
 20
6.881871
 30
0.0
 11
3.71453
 21
6.655478999999999
 31
0.0
  0
LINE
  5
311
330
4BA
100
AcDbEntity
  8
1
100
AcDbLine
 10
3.71453
 20
6.655478999999999
 30
0.0
 11
2.950262999999999
 21
6.42572
 31
0.0
  0
LINE
  5
312
330
4BA
100
AcDbEntity
  8
1
100
AcDbLine
 10
7.891547999999999
 20
6.307551999999999
 30
0.0
 11
7.725378
 21
6.258281
 31
0.0
  0
LINE
  5
313
330
4BA
100
AcDbEntity
  8
1
100
AcDbLine
 10
7.725378
 20
6.258281
 30
0.0
 11
7.559628
 21
6.211875
 31
0.0
  0
LINE
  5
314
330
4BA
100
AcDbEntity
  8
1
100
AcDbLine
 10
7.559628
 20
6.211875
 30
0.0
 11
7.394299
 21
6.168333999999999
 31
0.0
  0
LINE
  5
315
330
4BA
100
AcDbEntity
  8
1
100
AcDbLine
 10
7.394299
 20
6.168333999999999
 30
0.0
 11
7.229250999999999
 21
6.127626999999999
 31
0.0
  0
LINE
  5
316
330
4BA
100
AcDbEntity
  8
1
100
AcDbLine
 10
7.229250999999999
 20
6.127626999999999
 30
0.0
 11
7.064622999999999
 21
6.089783999999999
 31
0.0
  0
LINE
  5
317
330
4BA
100
AcDbEntity
  8
1
100
AcDbLine
 10
7.064622999999999
 20
6.089783999999999
 30
0.0
 11
6.900833
 21
6.054901999999999
 31
0.0
  0
LINE
  5
318
330
4BA
100
AcDbEntity
  8
1
100
AcDbLine
 10
6.900833
 20
6.054901999999999
 30
0.0
 11
6.737882
 21
6.022987999999999
 31
0.0
  0
LINE
  5
319
330
4BA
100
AcDbEntity
  8
1
100
AcDbLine
 10
6.737882
 20
6.022987999999999
 30
0.0
 11
6.575769
 21
5.994034
 31
0.0
  0
LINE
  5
31A
330
4BA
100
AcDbEntity
  8
1
100
AcDbLine
 10
6.575769
 20
5.994034
 30
0.0
 11
6.414903999999999
 21
5.968116
 31
0.0
  0
LINE
  5
31B
330
4BA
100
AcDbEntity
  8
1
100
AcDbLine
 10
6.414903999999999
 20
5.968116
 30
0.0
 11
6.25529
 21
5.945238999999999
 31
0.0
  0
LINE
  5
31C
330
4BA
100
AcDbEntity
  8
1
100
AcDbLine
 10
6.25529
 20
5.945238999999999
 30
0.0
 11
6.096924999999999
 21
5.925397
 31
0.0
  0
LINE
  5
31D
330
4BA
100
AcDbEntity
  8
1
100
AcDbLine
 10
6.096924999999999
 20
5.925397
 30
0.0
 11
5.940208999999999
 21
5.908637999999999
 31
0.0
  0
LINE
  5
31E
330
4BA
100
AcDbEntity
  8
1
100
AcDbLine
 10
5.940208999999999
 20
5.908637999999999
 30
0.0
 11
5.785147
 21
5.894972
 31
0.0
  0
LINE
  5
31F
330
4BA
100
AcDbEntity
  8
1
100
AcDbLine
 10
5.785147
 20
5.894972
 30
0.0
 11
5.631733999999999
 21
5.884389999999999
 31
0.0
  0
LINE
  5
320
330
4BA
100
AcDbEntity
  8
1
100
AcDbLine
 10
5.631733999999999
 20
5.884389999999999
 30
0.0
 11
5.48036
 21
5.876921
 31
0.0
  0
LINE
  5
321
330
4BA
100
AcDbEntity
  8
1
100
AcDbLine
 10
5.48036
 20
5.876921
 30
0.0
 11
5.331029
 21
5.872569
 31
0.0
  0
LINE
  5
322
330
4BA
100
AcDbEntity
  8
1
100
AcDbLine
 10
5.331029
 20
5.872569
 30
0.0
 11
5.183735999999999
 21
5.87133
 31
0.0
  0
LINE
  5
323
330
4BA
100
AcDbEntity
  8
1
100
AcDbLine
 10
5.183735999999999
 20
5.87133
 30
0.0
 11
5.038853999999999
 21
5.873204
 31
0.0
  0
LINE
  5
324
330
4BA
100
AcDbEntity
  8
1
100
AcDbLine
 10
5.038853999999999
 20
5.873204
 30
0.0
 11
4.89639
 21
5.878200999999999
 31
0.0
  0
LINE
  5
325
330
4BA
100
AcDbEntity
  8
1
100
AcDbLine
 10
4.89639
 20
5.878200999999999
 30
0.0
 11
4.756337999999999
 21
5.886312999999999
 31
0.0
  0
LINE
  5
326
330
4BA
100
AcDbEntity
  8
1
100
AcDbLine
 10
4.756337999999999
 20
5.886312999999999
 30
0.0
 11
4.619050999999999
 21
5.897517999999999
 31
0.0
  0
LINE
  5
327
330
4BA
100
AcDbEntity
  8
1
100
AcDbLine
 10
4.619050999999999
 20
5.897517999999999
 30
0.0
 11
4.484537999999999
 21
5.911825
 31
0.0
  0
LINE
  5
328
330
4BA
100
AcDbEntity
  8
1
100
AcDbLine
 10
4.484537999999999
 20
5.911825
 30
0.0
 11
4.352791999999999
 21
5.929225999999999
 31
0.0
  0
LINE
  5
329
330
4BA
100
AcDbEntity
  8
1
100
AcDbLine
 10
4.352791999999999
 20
5.929225999999999
 30
0.0
 11
4.224145
 21
5.949676
 31
0.0
  0
LINE
  5
32A
330
4BA
100
AcDbEntity
  8
1
100
AcDbLine
 10
4.224145
 20
5.949676
 30
0.0
 11
4.098606
 21
5.973184999999999
 31
0.0
  0
LINE
  5
32B
330
4BA
100
AcDbEntity
  8
1
100
AcDbLine
 10
4.098606
 20
5.973184999999999
 30
0.0
 11
3.976167999999999
 21
5.999742999999999
 31
0.0
  0
LINE
  5
32C
330
4BA
100
AcDbEntity
  8
1
100
AcDbLine
 10
3.976167999999999
 20
5.999742999999999
 30
0.0
 11
3.85714
 21
6.029283
 31
0.0
  0
LINE
  5
32D
330
4BA
100
AcDbEntity
  8
1
100
AcDbLine
 10
3.85714
 20
6.029283
 30
0.0
 11
3.74153
 21
6.061812999999999
 31
0.0
  0
LINE
  5
32E
330
4BA
100
AcDbEntity
  8
1
100
AcDbLine
 10
3.74153
 20
6.061812999999999
 30
0.0
 11
3.629330999999999
 21
6.097326999999999
 31
0.0
  0
LINE
  5
32F
330
4BA
100
AcDbEntity
  8
1
100
AcDbLine
 10
3.629330999999999
 20
6.097326999999999
 30
0.0
 11
3.520826999999999
 21
6.135731999999999
 31
0.0
  0
LINE
  5
330
330
4BA
100
AcDbEntity
  8
1
100
AcDbLine
 10
3.520826999999999
 20
6.135731999999999
 30
0.0
 11
3.416026999999999
 21
6.177037999999999
 31
0.0
  0
LINE
  5
331
330
4BA
100
AcDbEntity
  8
1
100
AcDbLine
 10
3.416026999999999
 20
6.177037999999999
 30
0.0
 11
3.314921
 21
6.221235
 31
0.0
  0
LINE
  5
332
330
4BA
100
AcDbEntity
  8
1
100
AcDbLine
 10
3.314921
 20
6.221235
 30
0.0
 11
3.217766
 21
6.268213999999999
 31
0.0
  0
LINE
  5
333
330
4BA
100
AcDbEntity
  8
1
100
AcDbLine
 10
3.217766
 20
6.268213999999999
 30
0.0
 11
3.124648
 21
6.317934999999999
 31
0.0
  0
LINE
  5
334
330
4BA
100
AcDbEntity
  8
1
100
AcDbLine
 10
3.124648
 20
6.317934999999999
 30
0.0
 11
3.035479999999999
 21
6.370438
 31
0.0
  0
LINE
  5
335
330
4BA
100
AcDbEntity
  8
1
100
AcDbLine
 10
3.035479999999999
 20
6.370438
 30
0.0
 11
2.950262999999999
 21
6.42572
 31
0.0
  0
LINE
  5
336
330
4BA
100
AcDbEntity
  8
1
100
AcDbLine
 10
5.587220999999999
 20
11.292017
 30
0.0
 11
5.043319999999999
 21
11.64387
 31
0.0
  0
LINE
  5
337
330
4BA
100
AcDbEntity
  8
1
100
AcDbLine
 10
5.725698
 20
11.203407
 30
0.0
 11
5.587220999999999
 21
11.292017
 31
0.0
  0
LINE
  5
338
330
4BA
100
AcDbEntity
  8
1
100
AcDbLine
 10
8.611062999999999
 20
8.145992999999998
 30
0.0
 11
8.625918999999999
 21
8.066033
 31
0.0
  0
LINE
  5
339
330
4BA
100
AcDbEntity
  8
1
100
AcDbLine
 10
8.625918999999999
 20
8.066033
 30
0.0
 11
8.645405999999999
 21
7.986527999999999
 31
0.0
  0
LINE
  5
33A
330
4BA
100
AcDbEntity
  8
1
100
AcDbLine
 10
8.645405999999999
 20
7.986527999999999
 30
0.0
 11
8.669522
 21
7.907477
 31
0.0
  0
LINE
  5
33B
330
4BA
100
AcDbEntity
  8
1
100
AcDbLine
 10
8.669522
 20
7.907477
 30
0.0
 11
8.698178
 21
7.828785
 31
0.0
  0
LINE
  5
33C
330
4BA
100
AcDbEntity
  8
1
100
AcDbLine
 10
8.698178
 20
7.828785
 30
0.0
 11
8.731465
 21
7.750544
 31
0.0
  0
LINE
  5
33D
330
4BA
100
AcDbEntity
  8
1
100
AcDbLine
 10
8.731465
 20
7.750544
 30
0.0
 11
8.769652999999999
 21
7.673022
 31
0.0
  0
LINE
  5
33E
330
4BA
100
AcDbEntity
  8
1
100
AcDbLine
 10
8.769652999999999
 20
7.673022
 30
0.0
 11
8.812811999999999
 21
7.596188999999999
 31
0.0
  0
LINE
  5
33F
330
4BA
100
AcDbEntity
  8
1
100
AcDbLine
 10
8.812811999999999
 20
7.596188999999999
 30
0.0
 11
8.860872
 21
7.52008
 31
0.0
  0
LINE
  5
340
330
4BA
100
AcDbEntity
  8
1
100
AcDbLine
 10
8.860872
 20
7.52008
 30
0.0
 11
8.913899
 21
7.445064999999999
 31
0.0
  0
LINE
  5
341
330
4BA
100
AcDbEntity
  8
1
100
AcDbLine
 10
8.913899
 20
7.445064999999999
 30
0.0
 11
8.971855999999998
 21
7.371255999999999
 31
0.0
  0
LINE
  5
342
330
4BA
100
AcDbEntity
  8
1
100
AcDbLine
 10
8.971855999999998
 20
7.371255999999999
 30
0.0
 11
9.034777999999999
 21
7.298559
 31
0.0
  0
LINE
  5
343
330
4BA
100
AcDbEntity
  8
1
100
AcDbLine
 10
9.034777999999999
 20
7.298559
 30
0.0
 11
9.102843
 21
7.227053999999998
 31
0.0
  0
LINE
  5
344
330
4BA
100
AcDbEntity
  8
1
100
AcDbLine
 10
9.102843
 20
7.227053999999998
 30
0.0
 11
9.175917
 21
7.156824
 31
0.0
  0
LINE
  5
345
330
4BA
100
AcDbEntity
  8
1
100
AcDbLine
 10
9.175917
 20
7.156824
 30
0.0
 11
9.254132
 21
7.087803
 31
0.0
  0
LINE
  5
346
330
4BA
100
AcDbEntity
  8
1
100
AcDbLine
 10
9.254132
 20
7.087803
 30
0.0
 11
9.33806
 21
7.019849
 31
0.0
  0
LINE
  5
347
330
4BA
100
AcDbEntity
  8
1
100
AcDbLine
 10
9.33806
 20
7.019849
 30
0.0
 11
9.427839999999999
 21
6.952828
 31
0.0
  0
LINE
  5
348
330
4BA
100
AcDbEntity
  8
1
100
AcDbLine
 10
9.427839999999999
 20
6.952828
 30
0.0
 11
9.523333
 21
6.886875999999999
 31
0.0
  0
LINE
  5
349
330
4BA
100
AcDbEntity
  8
1
100
AcDbLine
 10
9.523333
 20
6.886875999999999
 30
0.0
 11
9.624689
 21
6.822265999999999
 31
0.0
  0
LINE
  5
34A
330
4BA
100
AcDbEntity
  8
1
100
AcDbLine
 10
9.624689
 20
6.822265999999999
 30
0.0
 11
9.731958999999999
 21
6.759091999999999
 31
0.0
  0
LINE
  5
34B
330
4BA
100
AcDbEntity
  8
1
100
AcDbLine
 10
9.731958999999999
 20
6.759091999999999
 30
0.0
 11
9.845092999999998
 21
6.697271999999999
 31
0.0
  0
LINE
  5
34C
330
4BA
100
AcDbEntity
  8
1
100
AcDbLine
 10
9.845092999999998
 20
6.697271999999999
 30
0.0
 11
9.964089999999998
 21
6.636808999999999
 31
0.0
  0
LINE
  5
34D
330
4BA
100
AcDbEntity
  8
1
100
AcDbLine
 10
8.391548
 20
6.554791
 30
0.0
 11
8.468802
 21
6.236901999999999
 31
0.0
  0
LINE
  5
34E
330
4BA
100
AcDbEntity
  8
1
100
AcDbLine
 10
9.164089999999999
 20
5.988452999999999
 30
0.0
 11
9.077436999999999
 21
6.234329999999999
 31
0.0
  0
LINE
  5
34F
330
4BA
100
AcDbEntity
  8
1
100
AcDbLine
 10
9.077436999999999
 20
6.234329999999999
 30
0.0
 11
8.990949999999999
 21
6.476499999999999
 31
0.0
  0
LINE
  5
350
330
4BA
100
AcDbEntity
  8
1
100
AcDbLine
 10
8.990949999999999
 20
6.476499999999999
 30
0.0
 11
8.904628999999999
 21
6.714966
 31
0.0
  0
LINE
  5
351
330
4BA
100
AcDbEntity
  8
1
100
AcDbLine
 10
8.904628999999999
 20
6.714966
 30
0.0
 11
8.818424999999999
 21
6.949857
 31
0.0
  0
LINE
  5
352
330
4BA
100
AcDbEntity
  8
1
100
AcDbLine
 10
8.818424999999999
 20
6.949857
 30
0.0
 11
8.732388
 21
7.181043999999999
 31
0.0
  0
LINE
  5
353
330
4BA
100
AcDbEntity
  8
1
100
AcDbLine
 10
8.732388
 20
7.181043999999999
 30
0.0
 11
8.646665999999999
 21
7.408125999999999
 31
0.0
  0
LINE
  5
354
330
4BA
100
AcDbEntity
  8
1
100
AcDbLine
 10
8.646665999999999
 20
7.408125999999999
 30
0.0
 11
8.561310999999999
 21
7.630969999999999
 31
0.0
  0
LINE
  5
355
330
4BA
100
AcDbEntity
  8
1
100
AcDbLine
 10
8.561310999999999
 20
7.630969999999999
 30
0.0
 11
8.476271
 21
7.849708
 31
0.0
  0
LINE
  5
356
330
4BA
100
AcDbEntity
  8
1
100
AcDbLine
 10
8.476271
 20
7.849708
 30
0.0
 11
8.391548
 21
8.064341999999999
 31
0.0
  0
LINE
  5
357
330
4BA
100
AcDbEntity
  8
1
100
AcDbLine
 10
9.964089999999998
 20
6.636808999999999
 30
0.0
 11
9.964089999999998
 21
6.312630999999999
 31
0.0
  0
LINE
  5
358
330
4BA
100
AcDbEntity
  8
1
100
AcDbLine
 10
8.391548
 20
8.064341999999999
 30
0.0
 11
8.391548
 21
6.554791
 31
0.0
  0
LINE
  5
359
330
4BA
100
AcDbEntity
  8
1
100
AcDbLine
 10
8.414369999999999
 20
6.466928
 30
0.0
 11
7.891547999999999
 21
6.307551999999999
 31
0.0
  0
LINE
  5
35A
330
4BA
100
AcDbEntity
  8
1
100
AcDbLine
 10
9.561382999999999
 20
6.149841
 30
0.0
 11
9.964089999999998
 21
6.312630999999999
 31
0.0
  0
LINE
  5
35B
330
4BA
100
AcDbEntity
  8
1
100
AcDbLine
 10
9.164089999999999
 20
5.988452999999999
 30
0.0
 11
9.561382999999999
 21
6.149841
 31
0.0
  0
LINE
  5
35C
330
4BA
100
AcDbEntity
  8
1
100
AcDbLine
 10
8.391548
 20
8.064341999999999
 30
0.0
 11
8.611062999999999
 21
8.145992999999998
 31
0.0
  0
LINE
  5
35D
330
4BA
100
AcDbEntity
  8
1
100
AcDbLine
 10
16.0
 20
-4.331628
 30
0.0
 11
16.0
 21
-0.632173
 31
0.0
  0
LINE
  5
35E
330
4BA
100
AcDbEntity
  8
1
100
AcDbLine
 10
15.5
 20
-1.409185
 30
0.0
 11
15.5
 21
6.160705999999999
 31
0.0
  0
LINE
  5
35F
330
4BA
100
AcDbEntity
  8
1
100
AcDbLine
 10
14.1
 20
1.381574999999999
 30
0.0
 11
14.1
 21
-2.399496
 31
0.0
  0
LINE
  5
360
330
4BA
100
AcDbEntity
  8
1
100
AcDbLine
 10
16.0
 20
-9.125448999999999
 30
0.0
 11
16.0
 21
-5.932202999999999
 31
0.0
  0
LINE
  5
361
330
4BA
100
AcDbEntity
  8
1
100
AcDbLine
 10
15.5
 20
-10.755494
 30
0.0
 11
15.5
 21
-4.654569
 31
0.0
  0
LINE
  5
362
330
4BA
100
AcDbEntity
  8
1
100
AcDbLine
 10
16.0
 20
-11.972838
 30
0.0
 11
14.4941
 21
-13.000002
 31
0.0
  0
LINE
  5
363
330
4BA
100
AcDbEntity
  8
1
100
AcDbLine
 10
16.0
 20
-10.761449
 30
0.0
 11
14.085676
 21
-12.067196
 31
0.0
  0
LINE
  5
364
330
4BA
100
AcDbEntity
  8
1
100
AcDbLine
 10
15.5
 20
-10.755494
 30
0.0
 11
15.353302
 21
-10.876827
 31
0.0
  0
LINE
  5
365
330
4BA
100
AcDbEntity
  8
1
100
AcDbLine
 10
15.353302
 20
-10.876827
 30
0.0
 11
15.204418
 21
-10.999116
 31
0.0
  0
LINE
  5
366
330
4BA
100
AcDbEntity
  8
1
100
AcDbLine
 10
15.204418
 20
-10.999116
 30
0.0
 11
15.053348
 21
-11.122365
 31
0.0
  0
LINE
  5
367
330
4BA
100
AcDbEntity
  8
1
100
AcDbLine
 10
15.053348
 20
-11.122365
 30
0.0
 11
14.900128
 21
-11.246551
 31
0.0
  0
LINE
  5
368
330
4BA
100
AcDbEntity
  8
1
100
AcDbLine
 10
14.900128
 20
-11.246551
 30
0.0
 11
14.744721
 21
-11.371694
 31
0.0
  0
LINE
  5
369
330
4BA
100
AcDbEntity
  8
1
100
AcDbLine
 10
14.744721
 20
-11.371694
 30
0.0
 11
14.587016
 21
-11.497862
 31
0.0
  0
LINE
  5
36A
330
4BA
100
AcDbEntity
  8
1
100
AcDbLine
 10
14.587016
 20
-11.497862
 30
0.0
 11
14.426976
 21
-11.625074
 31
0.0
  0
LINE
  5
36B
330
4BA
100
AcDbEntity
  8
1
100
AcDbLine
 10
14.426976
 20
-11.625074
 30
0.0
 11
14.264637
 21
-11.75331
 31
0.0
  0
LINE
  5
36C
330
4BA
100
AcDbEntity
  8
1
100
AcDbLine
 10
14.264637
 20
-11.75331
 30
0.0
 11
14.1
 21
-11.882569
 31
0.0
  0
LINE
  5
36D
330
4BA
100
AcDbEntity
  8
1
100
AcDbLine
 10
15.5
 20
-8.960116000000001
 30
0.0
 11
15.353392
 21
-9.084822
 31
0.0
  0
LINE
  5
36E
330
4BA
100
AcDbEntity
  8
1
100
AcDbLine
 10
15.353392
 20
-9.084822
 30
0.0
 11
15.204576
 21
-9.210725999999999
 31
0.0
  0
LINE
  5
36F
330
4BA
100
AcDbEntity
  8
1
100
AcDbLine
 10
15.204576
 20
-9.210725999999999
 30
0.0
 11
15.053552
 21
-9.337828
 31
0.0
  0
LINE
  5
370
330
4BA
100
AcDbEntity
  8
1
100
AcDbLine
 10
15.053552
 20
-9.337828
 30
0.0
 11
14.90036
 21
-9.466102000000001
 31
0.0
  0
LINE
  5
371
330
4BA
100
AcDbEntity
  8
1
100
AcDbLine
 10
14.90036
 20
-9.466102000000001
 30
0.0
 11
14.74496
 21
-9.595574
 31
0.0
  0
LINE
  5
372
330
4BA
100
AcDbEntity
  8
1
100
AcDbLine
 10
14.74496
 20
-9.595574
 30
0.0
 11
14.587235
 21
-9.726321999999999
 31
0.0
  0
LINE
  5
373
330
4BA
100
AcDbEntity
  8
1
100
AcDbLine
 10
14.587235
 20
-9.726321999999999
 30
0.0
 11
14.427147
 21
-9.858370999999999
 31
0.0
  0
LINE
  5
374
330
4BA
100
AcDbEntity
  8
1
100
AcDbLine
 10
14.427147
 20
-9.858370999999999
 30
0.0
 11
14.264736
 21
-9.991696000000001
 31
0.0
  0
LINE
  5
375
330
4BA
100
AcDbEntity
  8
1
100
AcDbLine
 10
14.264736
 20
-9.991696000000001
 30
0.0
 11
14.1
 21
-10.126296
 31
0.0
  0
LINE
  5
376
330
4BA
100
AcDbEntity
  8
1
100
AcDbLine
 10
14.1
 20
-10.126296
 30
0.0
 11
14.1
 21
-11.882569
 31
0.0
  0
LINE
  5
377
330
4BA
100
AcDbEntity
  8
1
100
AcDbLine
 10
16.0
 20
-11.972838
 30
0.0
 11
16.0
 21
-9.316667999999999
 31
0.0
  0
LINE
  5
378
330
4BA
100
AcDbEntity
  8
1
100
AcDbLine
 10
15.5
 20
-8.058983999999998
 30
0.0
 11
16.0
 21
-8.215799999999999
 31
0.0
  0
LINE
  5
379
330
4BA
100
AcDbEntity
  8
1
100
AcDbLine
 10
15.5
 20
-8.398811999999999
 30
0.0
 11
16.0
 21
-8.555627000000001
 31
0.0
  0
LINE
  5
37A
330
4BA
100
AcDbEntity
  8
1
100
AcDbLine
 10
16.0
 20
-9.125448999999999
 30
0.0
 11
15.5
 21
-9.123464999999999
 31
0.0
  0
LINE
  5
37B
330
4BA
100
AcDbEntity
  8
1
100
AcDbLine
 10
15.5
 20
-9.316667999999999
 30
0.0
 11
16.0
 21
-9.316667999999999
 31
0.0
  0
LINE
  5
37C
330
4BA
100
AcDbEntity
  8
1
100
AcDbLine
 10
15.5
 20
-9.506308
 30
0.0
 11
16.0
 21
-9.506308
 31
0.0
  0
LINE
  5
37D
330
4BA
100
AcDbEntity
  8
1
100
AcDbLine
 10
16.0
 20
-4.331628
 30
0.0
 11
14.608258
 21
-5.230532
 31
0.0
  0
LINE
  5
37E
330
4BA
100
AcDbEntity
  8
1
100
AcDbLine
 10
14.493217
 20
-4.924783999999999
 30
0.0
 11
16.0
 21
-3.951576999999999
 31
0.0
  0
LINE
  5
37F
330
4BA
100
AcDbEntity
  8
1
100
AcDbLine
 10
16.0
 20
-1.259743999999999
 30
0.0
 11
14.085676
 21
-2.496175999999999
 31
0.0
  0
LINE
  5
380
330
4BA
100
AcDbEntity
  8
1
100
AcDbLine
 10
14.900128
 20
-1.837576999999999
 30
0.0
 11
14.587016
 21
-2.058679999999999
 31
0.0
  0
LINE
  5
381
330
4BA
100
AcDbEntity
  8
1
100
AcDbLine
 10
14.493217
 20
-4.924783999999999
 30
0.0
 11
14.441429
 21
-4.638376999999999
 31
0.0
  0
LINE
  5
382
330
4BA
100
AcDbEntity
  8
1
100
AcDbLine
 10
14.441429
 20
-4.638376999999999
 30
0.0
 11
14.391275
 21
-4.356118
 31
0.0
  0
LINE
  5
383
330
4BA
100
AcDbEntity
  8
1
100
AcDbLine
 10
14.391275
 20
-4.356118
 30
0.0
 11
14.342753
 21
-4.078005
 31
0.0
  0
LINE
  5
384
330
4BA
100
AcDbEntity
  8
1
100
AcDbLine
 10
14.342753
 20
-4.078005
 30
0.0
 11
14.295875
 21
-3.804051
 31
0.0
  0
LINE
  5
385
330
4BA
100
AcDbEntity
  8
1
100
AcDbLine
 10
14.295875
 20
-3.804051
 30
0.0
 11
14.25063
 21
-3.534244
 31
0.0
  0
LINE
  5
386
330
4BA
100
AcDbEntity
  8
1
100
AcDbLine
 10
14.25063
 20
-3.534244
 30
0.0
 11
14.20699
 21
-3.268556
 31
0.0
  0
LINE
  5
387
330
4BA
100
AcDbEntity
  8
1
100
AcDbLine
 10
14.20699
 20
-3.268556
 30
0.0
 11
14.164947
 21
-3.006977
 31
0.0
  0
LINE
  5
388
330
4BA
100
AcDbEntity
  8
1
100
AcDbLine
 10
14.164947
 20
-3.006977
 30
0.0
 11
14.124509
 21
-2.749516999999999
 31
0.0
  0
LINE
  5
389
330
4BA
100
AcDbEntity
  8
1
100
AcDbLine
 10
14.124509
 20
-2.749516999999999
 30
0.0
 11
14.085676
 21
-2.496175999999999
 31
0.0
  0
LINE
  5
38A
330
4BA
100
AcDbEntity
  8
1
100
AcDbLine
 10
14.493481
 20
-4.924614
 30
0.0
 11
14.511439
 21
-4.975556
 31
0.0
  0
LINE
  5
38B
330
4BA
100
AcDbEntity
  8
1
100
AcDbLine
 10
14.511439
 20
-4.975556
 30
0.0
 11
14.529865
 21
-5.026514999999999
 31
0.0
  0
LINE
  5
38C
330
4BA
100
AcDbEntity
  8
1
100
AcDbLine
 10
14.529865
 20
-5.026514999999999
 30
0.0
 11
14.54876
 21
-5.077491999999999
 31
0.0
  0
LINE
  5
38D
330
4BA
100
AcDbEntity
  8
1
100
AcDbLine
 10
14.54876
 20
-5.077491999999999
 30
0.0
 11
14.568124
 21
-5.128487
 31
0.0
  0
LINE
  5
38E
330
4BA
100
AcDbEntity
  8
1
100
AcDbLine
 10
14.568124
 20
-5.128487
 30
0.0
 11
14.587957
 21
-5.179501
 31
0.0
  0
LINE
  5
38F
330
4BA
100
AcDbEntity
  8
1
100
AcDbLine
 10
14.587957
 20
-5.179501
 30
0.0
 11
14.608258
 21
-5.230532
 31
0.0
  0
LINE
  5
390
330
4BA
100
AcDbEntity
  8
1
100
AcDbLine
 10
14.587016
 20
-2.058679999999999
 30
0.0
 11
14.264637
 21
-2.284679
 31
0.0
  0
LINE
  5
391
330
4BA
100
AcDbEntity
  8
1
100
AcDbLine
 10
14.264637
 20
-2.284679
 30
0.0
 11
14.1
 21
-2.399496
 31
0.0
  0
LINE
  5
392
330
4BA
100
AcDbEntity
  8
1
100
AcDbLine
 10
15.204418
 20
-1.6211
 30
0.0
 11
14.900128
 21
-1.837576999999999
 31
0.0
  0
LINE
  5
393
330
4BA
100
AcDbEntity
  8
1
100
AcDbLine
 10
15.5
 20
-1.409185
 30
0.0
 11
15.204418
 21
-1.6211
 31
0.0
  0
LINE
  5
394
330
4BA
100
AcDbEntity
  8
1
100
AcDbLine
 10
15.5
 20
-5.775387999999999
 30
0.0
 11
16.0
 21
-5.932202999999999
 31
0.0
  0
LINE
  5
395
330
4BA
100
AcDbEntity
  8
1
100
AcDbLine
 10
14.90036
 20
1.746706
 30
0.0
 11
14.587235
 21
1.603293
 31
0.0
  0
LINE
  5
396
330
4BA
100
AcDbEntity
  8
1
100
AcDbLine
 10
14.587235
 20
1.603293
 30
0.0
 11
14.264736
 21
1.456354
 31
0.0
  0
LINE
  5
397
330
4BA
100
AcDbEntity
  8
1
100
AcDbLine
 10
14.264736
 20
1.456354
 30
0.0
 11
14.1
 21
1.381574999999999
 31
0.0
  0
LINE
  5
398
330
4BA
100
AcDbEntity
  8
1
100
AcDbLine
 10
12.407985
 20
0.9415869999999999
 30
0.0
 11
11.549191
 21
0.7200540000000001
 31
0.0
  0
LINE
  5
399
330
4BA
100
AcDbEntity
  8
1
100
AcDbLine
 10
13.258299
 20
1.162107
 30
0.0
 11
12.407985
 21
0.9415869999999999
 31
0.0
  0
LINE
  5
39A
330
4BA
100
AcDbEntity
  8
1
100
AcDbLine
 10
14.1
 20
1.381574999999999
 30
0.0
 11
13.258299
 21
1.162107
 31
0.0
  0
LINE
  5
39B
330
4BA
100
AcDbEntity
  8
1
100
AcDbLine
 10
16.0
 20
1.186692999999999
 30
0.0
 11
16.0
 21
4.918352999999999
 31
0.0
  0
LINE
  5
39C
330
4BA
100
AcDbEntity
  8
1
100
AcDbLine
 10
16.0
 20
4.918352999999999
 30
0.0
 11
15.5
 21
5.251705
 31
0.0
  0
LINE
  5
39D
330
4BA
100
AcDbEntity
  8
1
100
AcDbLine
 10
15.5
 20
3.619302999999999
 30
0.0
 11
16.0
 21
3.471698999999999
 31
0.0
  0
LINE
  5
39E
330
4BA
100
AcDbEntity
  8
1
100
AcDbLine
 10
15.5
 20
1.469842
 30
0.0
 11
16.0
 21
1.322238
 31
0.0
  0
LINE
  5
39F
330
4BA
100
AcDbEntity
  8
1
100
AcDbLine
 10
15.204576
 20
1.886783
 30
0.0
 11
14.90036
 21
1.746706
 31
0.0
  0
LINE
  5
3A0
330
4BA
100
AcDbEntity
  8
1
100
AcDbLine
 10
15.5
 20
2.023573999999999
 30
0.0
 11
15.204576
 21
1.886783
 31
0.0
  0
LINE
  5
3A1
330
4BA
100
AcDbEntity
  8
1
100
AcDbLine
 10
15.5
 20
1.334296999999999
 30
0.0
 11
16.0
 21
1.186692999999999
 31
0.0
  0
LINE
  5
3A2
330
4BA
100
AcDbEntity
  8
1
100
AcDbLine
 10
15.5
 20
-0.784591
 30
0.0
 11
16.0
 21
-0.632173
 31
0.0
  0
LINE
  5
3A3
330
4BA
100
AcDbEntity
  8
1
100
AcDbLine
 10
15.5
 20
10.983689
 30
0.0
 11
15.353392
 21
11.040413
 31
0.0
  0
LINE
  5
3A4
330
4BA
100
AcDbEntity
  8
1
100
AcDbLine
 10
15.353392
 20
11.040413
 30
0.0
 11
15.204576
 21
11.097509
 31
0.0
  0
LINE
  5
3A5
330
4BA
100
AcDbEntity
  8
1
100
AcDbLine
 10
15.204576
 20
11.097509
 30
0.0
 11
15.053553
 21
11.154977
 31
0.0
  0
LINE
  5
3A6
330
4BA
100
AcDbEntity
  8
1
100
AcDbLine
 10
15.053553
 20
11.154977
 30
0.0
 11
14.90036
 21
11.212807
 31
0.0
  0
LINE
  5
3A7
330
4BA
100
AcDbEntity
  8
1
100
AcDbLine
 10
14.90036
 20
11.212807
 30
0.0
 11
14.74496
 21
11.27101
 31
0.0
  0
LINE
  5
3A8
330
4BA
100
AcDbEntity
  8
1
100
AcDbLine
 10
14.74496
 20
11.27101
 30
0.0
 11
14.587235
 21
11.329615
 31
0.0
  0
LINE
  5
3A9
330
4BA
100
AcDbEntity
  8
1
100
AcDbLine
 10
14.587235
 20
11.329615
 30
0.0
 11
14.427148
 21
11.388632
 31
0.0
  0
LINE
  5
3AA
330
4BA
100
AcDbEntity
  8
1
100
AcDbLine
 10
14.427148
 20
11.388632
 30
0.0
 11
14.264736
 21
11.448051
 31
0.0
  0
LINE
  5
3AB
330
4BA
100
AcDbEntity
  8
1
100
AcDbLine
 10
14.264736
 20
11.448051
 30
0.0
 11
14.1
 21
11.507872
 31
0.0
  0
LINE
  5
3AC
330
4BA
100
AcDbEntity
  8
1
100
AcDbLine
 10
16.0
 20
9.501706
 30
0.0
 11
14.085676
 21
9.571021
 31
0.0
  0
LINE
  5
3AD
330
4BA
100
AcDbEntity
  8
1
100
AcDbLine
 10
14.493217
 20
7.956927
 30
0.0
 11
16.0
 21
7.902369
 31
0.0
  0
LINE
  5
3AE
330
4BA
100
AcDbEntity
  8
1
100
AcDbLine
 10
16.0
 20
7.641211
 30
0.0
 11
14.608258
 21
7.691602999999999
 31
0.0
  0
LINE
  5
3AF
330
4BA
100
AcDbEntity
  8
1
100
AcDbLine
 10
14.493217
 20
7.956927
 30
0.0
 11
14.441429
 21
8.148844
 31
0.0
  0
LINE
  5
3B0
330
4BA
100
AcDbEntity
  8
1
100
AcDbLine
 10
14.441429
 20
8.148844
 30
0.0
 11
14.391275
 21
8.337609999999999
 31
0.0
  0
LINE
  5
3B1
330
4BA
100
AcDbEntity
  8
1
100
AcDbLine
 10
14.391275
 20
8.337609999999999
 30
0.0
 11
14.342753
 21
8.523225
 31
0.0
  0
LINE
  5
3B2
330
4BA
100
AcDbEntity
  8
1
100
AcDbLine
 10
14.342753
 20
8.523225
 30
0.0
 11
14.295875
 21
8.70568
 31
0.0
  0
LINE
  5
3B3
330
4BA
100
AcDbEntity
  8
1
100
AcDbLine
 10
14.295875
 20
8.70568
 30
0.0
 11
14.25063
 21
8.884985
 31
0.0
  0
LINE
  5
3B4
330
4BA
100
AcDbEntity
  8
1
100
AcDbLine
 10
14.25063
 20
8.884985
 30
0.0
 11
14.20699
 21
9.061167999999998
 31
0.0
  0
LINE
  5
3B5
330
4BA
100
AcDbEntity
  8
1
100
AcDbLine
 10
14.20699
 20
9.061167999999998
 30
0.0
 11
14.164947
 21
9.234241
 31
0.0
  0
LINE
  5
3B6
330
4BA
100
AcDbEntity
  8
1
100
AcDbLine
 10
14.164947
 20
9.234241
 30
0.0
 11
14.124509
 21
9.404192
 31
0.0
  0
LINE
  5
3B7
330
4BA
100
AcDbEntity
  8
1
100
AcDbLine
 10
14.124509
 20
9.404192
 30
0.0
 11
14.085676
 21
9.571021
 31
0.0
  0
LINE
  5
3B8
330
4BA
100
AcDbEntity
  8
1
100
AcDbLine
 10
14.493481
 20
7.956919
 30
0.0
 11
14.511439
 21
7.913292999999999
 31
0.0
  0
LINE
  5
3B9
330
4BA
100
AcDbEntity
  8
1
100
AcDbLine
 10
14.511439
 20
7.913292999999999
 30
0.0
 11
14.529865
 21
7.86943
 31
0.0
  0
LINE
  5
3BA
330
4BA
100
AcDbEntity
  8
1
100
AcDbLine
 10
14.529865
 20
7.86943
 30
0.0
 11
14.54876
 21
7.82533
 31
0.0
  0
LINE
  5
3BB
330
4BA
100
AcDbEntity
  8
1
100
AcDbLine
 10
14.54876
 20
7.82533
 30
0.0
 11
14.568124
 21
7.780991999999999
 31
0.0
  0
LINE
  5
3BC
330
4BA
100
AcDbEntity
  8
1
100
AcDbLine
 10
14.568124
 20
7.780991999999999
 30
0.0
 11
14.587957
 21
7.736416
 31
0.0
  0
LINE
  5
3BD
330
4BA
100
AcDbEntity
  8
1
100
AcDbLine
 10
14.587957
 20
7.736416
 30
0.0
 11
14.608258
 21
7.691602999999999
 31
0.0
  0
LINE
  5
3BE
330
4BA
100
AcDbEntity
  8
1
100
AcDbLine
 10
14.1
 20
11.507872
 30
0.0
 11
14.1
 21
9.570502000000001
 31
0.0
  0
LINE
  5
3BF
330
4BA
100
AcDbEntity
  8
1
100
AcDbLine
 10
15.5
 20
10.983689
 30
0.0
 11
15.5
 21
9.519809
 31
0.0
  0
LINE
  5
3C0
330
4BA
100
AcDbEntity
  8
1
100
AcDbLine
 10
0.0
 20
12.566669
 30
0.0
 11
2.999155
 21
12.566669
 31
0.0
  0
LINE
  5
3C1
330
4BA
100
AcDbEntity
  8
1
100
AcDbLine
 10
8.391548
 20
12.39286
 30
0.0
 11
8.262285
 21
12.400826
 31
0.0
  0
LINE
  5
3C2
330
4BA
100
AcDbEntity
  8
1
100
AcDbLine
 10
8.262285
 20
12.400826
 30
0.0
 11
7.510889999999999
 21
12.441341
 31
0.0
  0
LINE
  5
3C3
330
4BA
100
AcDbEntity
  8
1
100
AcDbLine
 10
7.510889999999999
 20
12.441341
 30
0.0
 11
6.756139999999999
 21
12.476241
 31
0.0
  0
LINE
  5
3C4
330
4BA
100
AcDbEntity
  8
1
100
AcDbLine
 10
6.756139999999999
 20
12.476241
 30
0.0
 11
5.998089
 21
12.505546
 31
0.0
  0
LINE
  5
3C5
330
4BA
100
AcDbEntity
  8
1
100
AcDbLine
 10
5.998089
 20
12.505546
 30
0.0
 11
5.238317999999999
 21
12.529143
 31
0.0
  0
LINE
  5
3C6
330
4BA
100
AcDbEntity
  8
1
100
AcDbLine
 10
5.238317999999999
 20
12.529143
 30
0.0
 11
4.477352999999999
 21
12.546997
 31
0.0
  0
LINE
  5
3C7
330
4BA
100
AcDbEntity
  8
1
100
AcDbLine
 10
4.477352999999999
 20
12.546997
 30
0.0
 11
3.714668
 21
12.559145
 31
0.0
  0
LINE
  5
3C8
330
4BA
100
AcDbEntity
  8
1
100
AcDbLine
 10
3.714668
 20
12.559145
 30
0.0
 11
3.057008
 21
12.564685
 31
0.0
  0
LINE
  5
3C9
330
4BA
100
AcDbEntity
  8
1
100
AcDbLine
 10
9.164089999999999
 20
12.835011
 30
0.0
 11
9.077415
 21
12.82634
 31
0.0
  0
LINE
  5
3CA
330
4BA
100
AcDbEntity
  8
1
100
AcDbLine
 10
9.077415
 20
12.82634
 30
0.0
 11
9.015544999999999
 21
12.816186
 31
0.0
  0
LINE
  5
3CB
330
4BA
100
AcDbEntity
  8
1
100
AcDbLine
 10
9.015544999999999
 20
12.816186
 30
0.0
 11
8.990914999999999
 21
12.811221
 31
0.0
  0
LINE
  5
3CC
330
4BA
100
AcDbEntity
  8
1
100
AcDbLine
 10
8.990914999999999
 20
12.811221
 30
0.0
 11
8.904589999999998
 21
12.789655
 31
0.0
  0
LINE
  5
3CD
330
4BA
100
AcDbEntity
  8
1
100
AcDbLine
 10
8.904589999999998
 20
12.789655
 30
0.0
 11
8.818394999999998
 21
12.76162
 31
0.0
  0
LINE
  5
3CE
330
4BA
100
AcDbEntity
  8
1
100
AcDbLine
 10
8.818394999999998
 20
12.76162
 30
0.0
 11
8.732374999999999
 21
12.727136
 31
0.0
  0
LINE
  5
3CF
330
4BA
100
AcDbEntity
  8
1
100
AcDbLine
 10
8.732374999999999
 20
12.727136
 30
0.0
 11
8.646666999999998
 21
12.686268
 31
0.0
  0
LINE
  5
3D0
330
4BA
100
AcDbEntity
  8
1
100
AcDbLine
 10
8.646666999999998
 20
12.686268
 30
0.0
 11
8.561315999999999
 21
12.639034
 31
0.0
  0
LINE
  5
3D1
330
4BA
100
AcDbEntity
  8
1
100
AcDbLine
 10
8.561315999999999
 20
12.639034
 30
0.0
 11
8.476275999999998
 21
12.585415
 31
0.0
  0
LINE
  5
3D2
330
4BA
100
AcDbEntity
  8
1
100
AcDbLine
 10
8.476275999999998
 20
12.585415
 30
0.0
 11
8.391548
 21
12.52541
 31
0.0
  0
LINE
  5
3D3
330
4BA
100
AcDbEntity
  8
1
100
AcDbLine
 10
16.0
 20
12.191712
 30
0.0
 11
14.6
 21
13.000002
 31
0.0
  0
LINE
  5
3D4
330
4BA
100
AcDbEntity
  8
1
100
AcDbLine
 10
9.976976999999999
 20
13.000002
 30
0.0
 11
14.4941
 21
13.000002
 31
0.0
  0
LINE
  5
3D5
330
4BA
100
AcDbEntity
  8
1
100
AcDbLine
 10
14.4941
 20
13.000002
 30
0.0
 11
14.6
 21
13.000002
 31
0.0
  0
LINE
  5
3D6
330
4BA
100
AcDbEntity
  8
1
100
AcDbLine
 10
9.977783
 20
-13.000002
 30
0.0
 11
14.4941
 21
-13.000002
 31
0.0
  0
LINE
  5
3D7
330
4BA
100
AcDbEntity
  8
1
100
AcDbLine
 10
9.164089999999999
 20
12.835011
 30
0.0
 11
9.976976999999999
 21
13.000002
 31
0.0
  0
LINE
  5
3D8
330
4BA
100
AcDbEntity
  8
1
100
AcDbLine
 10
14.085676
 20
-12.067196
 30
0.0
 11
14.4941
 21
-13.000002
 31
0.0
  0
LINE
  5
3D9
330
4BA
100
AcDbEntity
  8
SK4
100
AcDbLine
 10
15.962322
 20
0.0
 30
0.0
 11
-13.85
 21
0.0
 31
0.0
  0
LINE
  5
3DA
330
4BA
100
AcDbEntity
  8
SK1
100
AcDbLine
 10
-10.85
 20
7.225611999999999
 30
0.0
 11
0.0
 21
8.174174
 31
0.0
  0
LINE
  5
3DB
330
4BA
100
AcDbEntity
  8
SK1
100
AcDbLine
 10
-10.85
 20
-7.225610999999999
 30
0.0
 11
0.0
 21
-8.174174
 31
0.0
  0
LINE
  5
3DC
330
4BA
100
AcDbEntity
  8
SK1
100
AcDbLine
 10
-13.85
 20
6.725611999999999
 30
0.0
 11
-10.85
 21
6.725611999999999
 31
0.0
  0
LINE
  5
3DD
330
4BA
100
AcDbEntity
  8
SK1
100
AcDbLine
 10
-13.85
 20
-6.725611999999999
 30
0.0
 11
-10.85
 21
-6.725610999999999
 31
0.0
  0
LINE
  5
3DE
330
4BA
100
AcDbEntity
  8
SK1
100
AcDbLine
 10
-13.85
 20
6.725611999999999
 30
0.0
 11
-13.85
 21
-6.725611999999999
 31
0.0
  0
LINE
  5
3DF
330
4BA
100
AcDbEntity
  8
SK1
100
AcDbLine
 10
-10.85
 20
7.225611999999999
 30
0.0
 11
-10.85
 21
-7.225610999999999
 31
0.0
  0
LINE
  5
3E0
330
4BA
100
AcDbEntity
  8
80
100
AcDbLine
 10
0.0
 20
0.0
 30
0.0
 11
-13.85
 21
0.0
 31
0.0
  0
LINE
  5
3E1
330
4BA
100
AcDbEntity
  8
81
100
AcDbLine
 10
16.0
 20
0.0
 30
0.0
 11
28.169788
 21
0.0
 31
0.0
  0
LINE
  5
3E2
330
4BA
100
AcDbEntity
  8
4
100
AcDbLine
 10
0.0
 20
0.0
 30
0.0
 11
20.015747
 21
0.0
 31
0.0
  0
POINT
  5
3E3
330
4BA
100
AcDbEntity
  8
80
100
AcDbPoint
 10
0.0
 20
0.0
 30
0.0
  0
POINT
  5
3E4
330
4BA
100
AcDbEntity
  8
81
100
AcDbPoint
 10
16.0
 20
13.0
 30
0.0
  0
TEXT
  5
3E5
330
4BA
100
AcDbEntity
  8
SK6
100
AcDbText
 10
-14.242549
 20
15.870303
 30
0.0
 40
3.5
  1
HFS16
 41
0.7919990561797752
  7
SANDVIK_STYLE
 72
     5
 11
-2.494563
 21
15.870303
 31
0.0
100
AcDbText
  0
TEXT
  5
3E6
330
4BA
100
AcDbEntity
  8
SK6
100
AcDbText
 10
-17.800514
 20
-35.536122
 30
0.0
 40
3.5
  1
830A-E06D2600H7S16
 41
0.7987657938718663
  7
SANDVIK_STYLE
 72
     5
 11
29.992306
 21
-35.536122
 31
0.0
100
AcDbText
  0
TEXT
  5
3E7
330
4BA
100
AcDbEntity
  8
2
100
AcDbText
 10
10.243403
 20
28.582752
 30
0.0
 40
3.5
  1
L=16 
100
AcDbText
  0
INSERT
  5
3E8
330
4BA
100
AcDbEntity
  8
2
100
AcDbBlockReference
  2
*D0
 10
0.0
 20
0.0
 30
0.0
  0
TEXT
  5
3E9
330
4BA
100
AcDbEntity
  8
2
100
AcDbText
 10
33.4176
 20
1.652777999999999
 30
0.0
 40
3.5
  1
%%c26 H7
 50
90.0
100
AcDbText
  0
INSERT
  5
3EA
330
4BA
100
AcDbEntity
  8
2
100
AcDbBlockReference
  2
*D1
 10
0.0
 20
0.0
 30
0.0
  0
ENDSEC
  0
SECTION
  2
OBJECTS
  0
DICTIONARY
  5
456
330
0
100
AcDbDictionary
281
     1
  3
ACAD_CIP_PREVIOUS_PRODUCT_INFO
350
4ED
  3
ACAD_COLOR
350
4AC
  3
ACAD_DETAILVIEWSTYLE
350
4B4
  3
ACAD_GROUP
350
457
  3
ACAD_LAYOUT
350
4AB
  3
ACAD_MATERIAL
350
45A
  3
ACAD_MLEADERSTYLE
350
4AF
  3
ACAD_MLINESTYLE
350
4A8
  3
ACAD_PLOTSETTINGS
350
4AA
  3
ACAD_PLOTSTYLENAME
350
458
  3
ACAD_SCALELIST
350
48C
  3
ACAD_SECTIONVIEWSTYLE
350
4B1
  3
ACAD_TABLESTYLE
350
4AD
  3
ACAD_VISUALSTYLE
350
473
  3
ACDB_RECOMPOSE_DATA
350
549
  3
AcDbVariableDictionary
350
53C
  3
DWGPROPS
350
54A
  0
DICTIONARY
  5
4F0
330
49E
100
AcDbDictionary
280
     1
281
     1
  3
ADSK_XREC_LAYER_RECONCILED
360
4F1
  0
DICTIONARY
  5
4F2
330
4BE
100
AcDbDictionary
280
     1
281
     1
  3
ADSK_XREC_LAYER_RECONCILED
360
4F3
  0
DICTIONARY
  5
4F4
330
4C2
100
AcDbDictionary
280
     1
281
     1
  3
ADSK_XREC_LAYER_RECONCILED
360
4F5
  0
DICTIONARY
  5
4F6
330
4C3
100
AcDbDictionary
280
     1
281
     1
  3
ADSK_XREC_LAYER_RECONCILED
360
4F7
  0
DICTIONARY
  5
4F8
330
4C4
100
AcDbDictionary
280
     1
281
     1
  3
ADSK_XREC_LAYER_RECONCILED
360
4F9
  0
DICTIONARY
  5
4FA
330
4C5
100
AcDbDictionary
280
     1
281
     1
  3
ADSK_XREC_LAYER_RECONCILED
360
4FB
  0
DICTIONARY
  5
4FC
330
4C6
100
AcDbDictionary
280
     1
281
     1
  3
ADSK_XREC_LAYER_RECONCILED
360
4FD
  0
DICTIONARY
  5
4FE
330
4C7
100
AcDbDictionary
280
     1
281
     1
  3
ADSK_XREC_LAYER_RECONCILED
360
4FF
  0
DICTIONARY
  5
500
330
4C8
100
AcDbDictionary
280
     1
281
     1
  3
ADSK_XREC_LAYER_RECONCILED
360
501
  0
DICTIONARY
  5
502
330
4C9
100
AcDbDictionary
280
     1
281
     1
  3
ADSK_XREC_LAYER_RECONCILED
360
503
  0
DICTIONARY
  5
504
330
4CA
100
AcDbDictionary
280
     1
281
     1
  3
ADSK_XREC_LAYER_RECONCILED
360
505
  0
DICTIONARY
  5
506
330
4CB
100
AcDbDictionary
280
     1
281
     1
  3
ADSK_XREC_LAYER_RECONCILED
360
507
  0
DICTIONARY
  5
508
330
4CC
100
AcDbDictionary
280
     1
281
     1
  3
ADSK_XREC_LAYER_RECONCILED
360
509
  0
DICTIONARY
  5
50A
330
4CD
100
AcDbDictionary
280
     1
281
     1
  3
ADSK_XREC_LAYER_RECONCILED
360
50B
  0
DICTIONARY
  5
50C
330
4CE
100
AcDbDictionary
280
     1
281
     1
  3
ADSK_XREC_LAYER_RECONCILED
360
50D
  0
DICTIONARY
  5
50E
330
4CF
100
AcDbDictionary
280
     1
281
     1
  3
ADSK_XREC_LAYER_RECONCILED
360
50F
  0
DICTIONARY
  5
510
330
4D0
100
AcDbDictionary
280
     1
281
     1
  3
ADSK_XREC_LAYER_RECONCILED
360
511
  0
DICTIONARY
  5
512
330
4D1
100
AcDbDictionary
280
     1
281
     1
  3
ADSK_XREC_LAYER_RECONCILED
360
513
  0
DICTIONARY
  5
514
330
4D2
100
AcDbDictionary
280
     1
281
     1
  3
ADSK_XREC_LAYER_RECONCILED
360
515
  0
DICTIONARY
  5
516
330
4D3
100
AcDbDictionary
280
     1
281
     1
  3
ADSK_XREC_LAYER_RECONCILED
360
517
  0
DICTIONARY
  5
518
330
4D4
100
AcDbDictionary
280
     1
281
     1
  3
ADSK_XREC_LAYER_RECONCILED
360
519
  0
DICTIONARY
  5
51A
330
4D5
100
AcDbDictionary
280
     1
281
     1
  3
ADSK_XREC_LAYER_RECONCILED
360
51B
  0
DICTIONARY
  5
51C
330
4D6
100
AcDbDictionary
280
     1
281
     1
  3
ADSK_XREC_LAYER_RECONCILED
360
51D
  0
DICTIONARY
  5
51E
330
4D7
100
AcDbDictionary
280
     1
281
     1
  3
ADSK_XREC_LAYER_RECONCILED
360
51F
  0
DICTIONARY
  5
520
330
4D8
100
AcDbDictionary
280
     1
281
     1
  3
ADSK_XREC_LAYER_RECONCILED
360
521
  0
DICTIONARY
  5
522
330
4D9
100
AcDbDictionary
280
     1
281
     1
  3
ADSK_XREC_LAYER_RECONCILED
360
523
  0
DICTIONARY
  5
524
330
4DA
100
AcDbDictionary
280
     1
281
     1
  3
ADSK_XREC_LAYER_RECONCILED
360
525
  0
DICTIONARY
  5
526
330
4DB
100
AcDbDictionary
280
     1
281
     1
  3
ADSK_XREC_LAYER_RECONCILED
360
527
  0
DICTIONARY
  5
528
330
4DC
100
AcDbDictionary
280
     1
281
     1
  3
ADSK_XREC_LAYER_RECONCILED
360
529
  0
DICTIONARY
  5
52A
330
4DD
100
AcDbDictionary
280
     1
281
     1
  3
ADSK_XREC_LAYER_RECONCILED
360
52B
  0
DICTIONARY
  5
52C
330
4DE
100
AcDbDictionary
280
     1
281
     1
  3
ADSK_XREC_LAYER_RECONCILED
360
52D
  0
DICTIONARY
  5
52E
330
4DF
100
AcDbDictionary
280
     1
281
     1
  3
ADSK_XREC_LAYER_RECONCILED
360
52F
  0
DICTIONARY
  5
530
330
4E0
100
AcDbDictionary
280
     1
281
     1
  3
ADSK_XREC_LAYER_RECONCILED
360
531
  0
DICTIONARY
  5
532
330
4E1
100
AcDbDictionary
280
     1
281
     1
  3
ADSK_XREC_LAYER_RECONCILED
360
533
  0
DICTIONARY
  5
534
330
4E2
100
AcDbDictionary
280
     1
281
     1
  3
ADSK_XREC_LAYER_RECONCILED
360
535
  0
DICTIONARY
  5
536
330
4E3
100
AcDbDictionary
280
     1
281
     1
  3
ADSK_XREC_LAYER_RECONCILED
360
537
  0
DICTIONARY
  5
538
330
4E4
100
AcDbDictionary
280
     1
281
     1
  3
ADSK_XREC_LAYER_RECONCILED
360
539
  0
DICTIONARY
  5
53A
330
4E5
100
AcDbDictionary
280
     1
281
     1
  3
ADSK_XREC_LAYER_RECONCILED
360
53B
  0
XRECORD
  5
4ED
102
{ACAD_REACTORS
330
456
102
}
330
456
100
AcDbXrecord
280
     1
300
AMECH_PP
300
2013
300
PDSU_F_S
  0
DICTIONARY
  5
4AC
102
{ACAD_REACTORS
330
456
102
}
330
456
100
AcDbDictionary
281
     1
  0
DICTIONARY
  5
4B4
102
{ACAD_REACTORS
330
456
102
}
330
456
100
AcDbDictionary
281
     1
  3
Imperial24
350
4B5
  0
DICTIONARY
  5
457
102
{ACAD_REACTORS
330
456
102
}
330
456
100
AcDbDictionary
281
     1
  0
DICTIONARY
  5
4AB
102
{ACAD_REACTORS
330
456
102
}
330
456
100
AcDbDictionary
281
     1
  3
Layout1
350
4B9
  3
Model
350
4BD
  0
DICTIONARY
  5
45A
102
{ACAD_REACTORS
330
456
102
}
330
456
100
AcDbDictionary
281
     1
  3
ByBlock
350
463
  3
ByLayer
350
45B
  3
Global
350
46B
  0
DICTIONARY
  5
4AF
102
{ACAD_REACTORS
330
456
102
}
330
456
100
AcDbDictionary
281
     1
  3
Standard
350
4B0
  0
DICTIONARY
  5
4A8
102
{ACAD_REACTORS
330
456
102
}
330
456
100
AcDbDictionary
281
     1
  3
Standard
350
4A9
  0
DICTIONARY
  5
4AA
102
{ACAD_REACTORS
330
456
102
}
330
456
100
AcDbDictionary
281
     1
  0
ACDBDICTIONARYWDFLT
  5
458
102
{ACAD_REACTORS
330
456
102
}
330
456
100
AcDbDictionary
281
     1
  3
Normal
350
459
100
AcDbDictionaryWithDefault
340
459
  0
DICTIONARY
  5
48C
102
{ACAD_REACTORS
330
456
102
}
330
456
100
AcDbDictionary
281
     1
  3
A0
350
48D
  3
A1
350
48E
  3
A2
350
48F
  3
A3
350
490
  3
A4
350
491
  3
A5
350
492
  3
A6
350
493
  3
A7
350
494
  3
A8
350
495
  3
A9
350
496
  3
B0
350
497
  3
B1
350
498
  3
B2
350
499
  3
B3
350
49A
  3
B4
350
49B
  3
B5
350
49C
  3
B6
350
49D
  0
DICTIONARY
  5
4B1
102
{ACAD_REACTORS
330
456
102
}
330
456
100
AcDbDictionary
281
     1
  3
Imperial24
350
4B3
  0
DICTIONARY
  5
4AD
102
{ACAD_REACTORS
330
456
102
}
330
456
100
AcDbDictionary
281
     1
  3
Standard
350
4AE
  0
DICTIONARY
  5
473
102
{ACAD_REACTORS
330
456
102
}
330
456
100
AcDbDictionary
281
     1
  3
2dWireframe
350
479
  3
Basic
350
478
  3
Brighten
350
47F
  3
ColorChange
350
483
  3
Conceptual
350
47C
  3
Dim
350
47E
  3
EdgeColorOff
350
48B
  3
Facepattern
350
482
  3
Flat
350
474
  3
FlatWithEdges
350
475
  3
Gouraud
350
476
  3
GouraudWithEdges
350
477
  3
Hidden
350
47B
  3
JitterOff
350
489
  3
Linepattern
350
481
  3
OverhangOff
350
48A
  3
Realistic
350
47D
  3
Shaded
350
488
  3
Shaded with edges
350
487
  3
Shades of Gray
350
484
  3
Sketchy
350
485
  3
Thicken
350
480
  3
Wireframe
350
47A
  3
X-Ray
350
486
  0
XRECORD
  5
549
102
{ACAD_REACTORS
330
456
102
}
330
456
100
AcDbXrecord
280
     1
 90
        1
330
4AE
  0
DICTIONARY
  5
53C
102
{ACAD_REACTORS
330
456
102
}
330
456
100
AcDbDictionary
281
     1
  3
CANNOSCALE
350
541
  3
CMLEADERSTYLE
350
53E
  3
CTABLESTYLE
350
53D
  3
CVIEWDETAILSTYLE
350
53F
  3
CVIEWSECTIONSTYLE
350
540
  3
DIMASSOC
350
544
  3
INDEXCTL
350
543
  3
SORTENTS
350
542
  3
XCLIPFRAME
350
545
  0
XRECORD
  5
54A
102
{ACAD_REACTORS
330
456
102
}
330
456
100
AcDbXrecord
280
     1
  1
DWGPROPS COOKIE
  2

  3

  4

  6

  7

  8
Micke
  9

300
=
301
=
302
=
303
=
304
=
305
=
306
=
307
=
308
=
309
=
 40
0.0000043402777778
 41
2456818.319578195
 42
2456818.319582477
  1

 90
        0
  0
XRECORD
  5
4F1
102
{ACAD_REACTORS
330
4F0
102
}
330
4F0
100
AcDbXrecord
280
     1
290
     1
  0
XRECORD
  5
4F3
102
{ACAD_REACTORS
330
4F2
102
}
330
4F2
100
AcDbXrecord
280
     1
290
     1
  0
XRECORD
  5
4F5
102
{ACAD_REACTORS
330
4F4
102
}
330
4F4
100
AcDbXrecord
280
     1
290
     1
  0
XRECORD
  5
4F7
102
{ACAD_REACTORS
330
4F6
102
}
330
4F6
100
AcDbXrecord
280
     1
290
     1
  0
XRECORD
  5
4F9
102
{ACAD_REACTORS
330
4F8
102
}
330
4F8
100
AcDbXrecord
280
     1
290
     1
  0
XRECORD
  5
4FB
102
{ACAD_REACTORS
330
4FA
102
}
330
4FA
100
AcDbXrecord
280
     1
290
     1
  0
XRECORD
  5
4FD
102
{ACAD_REACTORS
330
4FC
102
}
330
4FC
100
AcDbXrecord
280
     1
290
     1
  0
XRECORD
  5
4FF
102
{ACAD_REACTORS
330
4FE
102
}
330
4FE
100
AcDbXrecord
280
     1
290
     1
  0
XRECORD
  5
501
102
{ACAD_REACTORS
330
500
102
}
330
500
100
AcDbXrecord
280
     1
290
     1
  0
XRECORD
  5
503
102
{ACAD_REACTORS
330
502
102
}
330
502
100
AcDbXrecord
280
     1
290
     1
  0
XRECORD
  5
505
102
{ACAD_REACTORS
330
504
102
}
330
504
100
AcDbXrecord
280
     1
290
     1
  0
XRECORD
  5
507
102
{ACAD_REACTORS
330
506
102
}
330
506
100
AcDbXrecord
280
     1
290
     1
  0
XRECORD
  5
509
102
{ACAD_REACTORS
330
508
102
}
330
508
100
AcDbXrecord
280
     1
290
     1
  0
XRECORD
  5
50B
102
{ACAD_REACTORS
330
50A
102
}
330
50A
100
AcDbXrecord
280
     1
290
     1
  0
XRECORD
  5
50D
102
{ACAD_REACTORS
330
50C
102
}
330
50C
100
AcDbXrecord
280
     1
290
     1
  0
XRECORD
  5
50F
102
{ACAD_REACTORS
330
50E
102
}
330
50E
100
AcDbXrecord
280
     1
290
     1
  0
XRECORD
  5
511
102
{ACAD_REACTORS
330
510
102
}
330
510
100
AcDbXrecord
280
     1
290
     1
  0
XRECORD
  5
513
102
{ACAD_REACTORS
330
512
102
}
330
512
100
AcDbXrecord
280
     1
290
     1
  0
XRECORD
  5
515
102
{ACAD_REACTORS
330
514
102
}
330
514
100
AcDbXrecord
280
     1
290
     1
  0
XRECORD
  5
517
102
{ACAD_REACTORS
330
516
102
}
330
516
100
AcDbXrecord
280
     1
290
     1
  0
XRECORD
  5
519
102
{ACAD_REACTORS
330
518
102
}
330
518
100
AcDbXrecord
280
     1
290
     1
  0
XRECORD
  5
51B
102
{ACAD_REACTORS
330
51A
102
}
330
51A
100
AcDbXrecord
280
     1
290
     1
  0
XRECORD
  5
51D
102
{ACAD_REACTORS
330
51C
102
}
330
51C
100
AcDbXrecord
280
     1
290
     1
  0
XRECORD
  5
51F
102
{ACAD_REACTORS
330
51E
102
}
330
51E
100
AcDbXrecord
280
     1
290
     1
  0
XRECORD
  5
521
102
{ACAD_REACTORS
330
520
102
}
330
520
100
AcDbXrecord
280
     1
290
     1
  0
XRECORD
  5
523
102
{ACAD_REACTORS
330
522
102
}
330
522
100
AcDbXrecord
280
     1
290
     1
  0
XRECORD
  5
525
102
{ACAD_REACTORS
330
524
102
}
330
524
100
AcDbXrecord
280
     1
290
     1
  0
XRECORD
  5
527
102
{ACAD_REACTORS
330
526
102
}
330
526
100
AcDbXrecord
280
     1
290
     1
  0
XRECORD
  5
529
102
{ACAD_REACTORS
330
528
102
}
330
528
100
AcDbXrecord
280
     1
290
     1
  0
XRECORD
  5
52B
102
{ACAD_REACTORS
330
52A
102
}
330
52A
100
AcDbXrecord
280
     1
290
     1
  0
XRECORD
  5
52D
102
{ACAD_REACTORS
330
52C
102
}
330
52C
100
AcDbXrecord
280
     1
290
     1
  0
XRECORD
  5
52F
102
{ACAD_REACTORS
330
52E
102
}
330
52E
100
AcDbXrecord
280
     1
290
     1
  0
XRECORD
  5
531
102
{ACAD_REACTORS
330
530
102
}
330
530
100
AcDbXrecord
280
     1
290
     1
  0
XRECORD
  5
533
102
{ACAD_REACTORS
330
532
102
}
330
532
100
AcDbXrecord
280
     1
290
     1
  0
XRECORD
  5
535
102
{ACAD_REACTORS
330
534
102
}
330
534
100
AcDbXrecord
280
     1
290
     1
  0
XRECORD
  5
537
102
{ACAD_REACTORS
330
536
102
}
330
536
100
AcDbXrecord
280
     1
290
     1
  0
XRECORD
  5
539
102
{ACAD_REACTORS
330
538
102
}
330
538
100
AcDbXrecord
280
     1
290
     1
  0
XRECORD
  5
53B
102
{ACAD_REACTORS
330
53A
102
}
330
53A
100
AcDbXrecord
280
     1
290
     1
  0
ACDBDETAILVIEWSTYLE
  5
4B5
102
{ACAD_REACTORS
330
4B4
102
}
330
4B4
100
AcDbModelDocViewStyle
 70
     0
  3
Imperial24
290
     0
100
AcDbDetailViewStyle
 70
     0
 71
     0
 90
        3
 71
     1
340
49F
 40
0.24
340
0
 40
0.24
300

 40
0.36
280
     3
 71
     2
340
4A6
 90
       25
 71
     3
340
49F
 40
0.24
 90
        1
 40
0.75
 90
        1
300
%<\AcVar ViewType \f "%tc1">% %<\AcVar ViewDetailId>%\PSCALE %<\AcVar ViewScale \f "%sn">%
 71
     4
340
4A6
 90
       25
340
4A6
 90
       25
280
     0
  0
LAYOUT
  5
4B9
102
{ACAD_XDICTIONARY
360
580
102
}
102
{ACAD_REACTORS
330
4AB
102
}
330
4AB
100
AcDbPlotSettings
  1

  2
Brother DCP-9020CDW Printer
  4

  6

 40
0.0
 41
0.0
 42
0.0
 43
0.0
 44
0.0
 45
0.0
 46
0.0
 47
0.0
 48
0.0
 49
0.0
140
0.0
141
0.0
142
1.0
143
1.0
 70
   688
 72
     0
 73
     0
 74
     5
  7

 75
    16
147
1.0
148
0.0
149
0.0
100
AcDbLayout
  1
Layout1
 70
     1
 71
     1
 10
0.0
 20
0.0
 11
12.0
 21
9.0
 12
0.0
 22
0.0
 32
0.0
 14
1.000000000000000E+20
 24
1.000000000000000E+20
 34
1.000000000000000E+20
 15
-1.000000000000000E+20
 25
-1.000000000000000E+20
 35
-1.000000000000000E+20
146
0.0
 13
0.0
 23
0.0
 33
0.0
 16
1.0
 26
0.0
 36
0.0
 17
0.0
 27
1.0
 37
0.0
 76
     0
330
4B6
  0
LAYOUT
  5
4BD
102
{ACAD_XDICTIONARY
360
582
102
}
102
{ACAD_REACTORS
330
4AB
102
}
330
4AB
100
AcDbPlotSettings
  1

  2
Brother DCP-9020CDW Printer
  4

  6

 40
0.0
 41
0.0
 42
0.0
 43
0.0
 44
0.0
 45
0.0
 46
0.0
 47
0.0
 48
0.0
 49
0.0
140
0.0
141
0.0
142
1.0
143
1.0
 70
  1712
 72
     0
 73
     0
 74
     0
  7

 75
     0
147
1.0
148
0.0
149
0.0
100
AcDbLayout
  1
Model
 70
     1
 71
     0
 10
0.0
 20
0.0
 11
12.0
 21
9.0
 12
0.0
 22
0.0
 32
0.0
 14
0.0
 24
0.0
 34
0.0
 15
0.0
 25
0.0
 35
0.0
146
0.0
 13
0.0
 23
0.0
 33
0.0
 16
1.0
 26
0.0
 36
0.0
 17
0.0
 27
1.0
 37
0.0
 76
     0
330
4BA
331
4E9
  0
MATERIAL
  5
463
102
{ACAD_XDICTIONARY
360
464
102
}
102
{ACAD_REACTORS
330
45A
102
}
330
45A
100
AcDbMaterial
  1
ByBlock
 72
     0
 43
0.0208333333333333
 43
0.0
 43
0.0
 43
0.0
 43
0.0
 43
0.0208333333333333
 43
0.0
 43
0.0
 43
0.0
 43
0.0
 43
1.0
 43
0.0
 43
0.0
 43
0.0
 43
0.0
 43
1.0
 77
     0
 47
0.0208333333333333
 47
0.0
 47
0.0
 47
0.0
 47
0.0
 47
0.0208333333333333
 47
0.0
 47
0.0
 47
0.0
 47
0.0
 47
1.0
 47
0.0
 47
0.0
 47
0.0
 47
0.0
 47
1.0
171
     0
 49
0.0208333333333333
 49
0.0
 49
0.0
 49
0.0
 49
0.0
 49
0.0208333333333333
 49
0.0
 49
0.0
 49
0.0
 49
0.0
 49
1.0
 49
0.0
 49
0.0
 49
0.0
 49
0.0
 49
1.0
175
     0
142
0.0208333333333333
142
0.0
142
0.0
142
0.0
142
0.0
142
0.0208333333333333
142
0.0
142
0.0
142
0.0
142
0.0
142
1.0
142
0.0
142
0.0
142
0.0
142
0.0
142
1.0
179
     0
144
0.0208333333333333
144
0.0
144
0.0
144
0.0
144
0.0
144
0.0208333333333333
144
0.0
144
0.0
144
0.0
144
0.0
144
1.0
144
0.0
144
0.0
144
0.0
144
0.0
144
1.0
147
0.0208333333333333
147
0.0
147
0.0
147
0.0
147
0.0
147
0.0208333333333333
147
0.0
147
0.0
147
0.0
147
0.0
147
1.0
147
0.0
147
0.0
147
0.0
147
0.0
147
1.0
  0
MATERIAL
  5
45B
102
{ACAD_XDICTIONARY
360
45C
102
}
102
{ACAD_REACTORS
330
45A
102
}
330
45A
100
AcDbMaterial
  1
ByLayer
 72
     0
 43
0.0208333333333333
 43
0.0
 43
0.0
 43
0.0
 43
0.0
 43
0.0208333333333333
 43
0.0
 43
0.0
 43
0.0
 43
0.0
 43
1.0
 43
0.0
 43
0.0
 43
0.0
 43
0.0
 43
1.0
 77
     0
 47
0.0208333333333333
 47
0.0
 47
0.0
 47
0.0
 47
0.0
 47
0.0208333333333333
 47
0.0
 47
0.0
 47
0.0
 47
0.0
 47
1.0
 47
0.0
 47
0.0
 47
0.0
 47
0.0
 47
1.0
171
     0
 49
0.0208333333333333
 49
0.0
 49
0.0
 49
0.0
 49
0.0
 49
0.0208333333333333
 49
0.0
 49
0.0
 49
0.0
 49
0.0
 49
1.0
 49
0.0
 49
0.0
 49
0.0
 49
0.0
 49
1.0
175
     0
142
0.0208333333333333
142
0.0
142
0.0
142
0.0
142
0.0
142
0.0208333333333333
142
0.0
142
0.0
142
0.0
142
0.0
142
1.0
142
0.0
142
0.0
142
0.0
142
0.0
142
1.0
179
     0
144
0.0208333333333333
144
0.0
144
0.0
144
0.0
144
0.0
144
0.0208333333333333
144
0.0
144
0.0
144
0.0
144
0.0
144
1.0
144
0.0
144
0.0
144
0.0
144
0.0
144
1.0
147
0.0208333333333333
147
0.0
147
0.0
147
0.0
147
0.0
147
0.0208333333333333
147
0.0
147
0.0
147
0.0
147
0.0
147
1.0
147
0.0
147
0.0
147
0.0
147
0.0
147
1.0
  0
MATERIAL
  5
46B
102
{ACAD_XDICTIONARY
360
46C
102
}
102
{ACAD_REACTORS
330
45A
102
}
330
45A
100
AcDbMaterial
  1
Global
 72
     0
 43
0.0208333333333333
 43
0.0
 43
0.0
 43
0.0
 43
0.0
 43
0.0208333333333333
 43
0.0
 43
0.0
 43
0.0
 43
0.0
 43
1.0
 43
0.0
 43
0.0
 43
0.0
 43
0.0
 43
1.0
 77
     0
 47
0.0208333333333333
 47
0.0
 47
0.0
 47
0.0
 47
0.0
 47
0.0208333333333333
 47
0.0
 47
0.0
 47
0.0
 47
0.0
 47
1.0
 47
0.0
 47
0.0
 47
0.0
 47
0.0
 47
1.0
171
     0
 49
0.0208333333333333
 49
0.0
 49
0.0
 49
0.0
 49
0.0
 49
0.0208333333333333
 49
0.0
 49
0.0
 49
0.0
 49
0.0
 49
1.0
 49
0.0
 49
0.0
 49
0.0
 49
0.0
 49
1.0
175
     0
142
0.0208333333333333
142
0.0
142
0.0
142
0.0
142
0.0
142
0.0208333333333333
142
0.0
142
0.0
142
0.0
142
0.0
142
1.0
142
0.0
142
0.0
142
0.0
142
0.0
142
1.0
179
     0
144
0.0208333333333333
144
0.0
144
0.0
144
0.0
144
0.0
144
0.0208333333333333
144
0.0
144
0.0
144
0.0
144
0.0
144
1.0
144
0.0
144
0.0
144
0.0
144
0.0
144
1.0
147
0.0208333333333333
147
0.0
147
0.0
147
0.0
147
0.0
147
0.0208333333333333
147
0.0
147
0.0
147
0.0
147
0.0
147
1.0
147
0.0
147
0.0
147
0.0
147
0.0
147
1.0
  0
MLEADERSTYLE
  5
4B0
102
{ACAD_REACTORS
330
4AF
102
}
330
4AF
100
AcDbMLeaderStyle
170
     2
171
     1
172
     0
 90
        2
 40
0.0
 41
0.0
173
     1
 91
-1056964608
340
4A4
 92
       -2
290
     1
 42
0.09
291
     1
 43
0.36
  3
Standard
 44
0.18
300

342
49F
174
     1
178
     6
175
     1
176
     0
 93
-1056964608
 45
0.18
292
     0
297
     0
 46
0.18
 94
-1056964608
 47
1.0
 49
1.0
140
1.0
293
     1
141
0.0
294
     1
177
     0
142
1.0
295
     0
296
     0
143
0.125
1001
ACAD_MLEADERVER
1070
     2
  0
MLINESTYLE
  5
4A9
102
{ACAD_REACTORS
330
4A8
102
}
330
4A8
100
AcDbMlineStyle
  2
STANDARD
 70
     0
  3

 62
   256
 51
90.0
 52
90.0
 71
     2
 49
0.5
 62
   256
  6
BYLAYER
 49
-0.5
 62
   256
  6
BYLAYER
  0
ACDBPLACEHOLDER
  5
459
102
{ACAD_REACTORS
330
458
102
}
330
458
  0
SCALE
  5
48D
102
{ACAD_REACTORS
330
48C
102
}
330
48C
100
AcDbScale
 70
     0
300
1:1
140
1.0
141
1.0
290
     1
  0
SCALE
  5
48E
102
{ACAD_REACTORS
330
48C
102
}
330
48C
100
AcDbScale
 70
     0
300
1/128" = 1'-0"
140
0.0078125
141
12.0
290
     0
  0
SCALE
  5
48F
102
{ACAD_REACTORS
330
48C
102
}
330
48C
100
AcDbScale
 70
     0
300
1/64" = 1'-0"
140
0.015625
141
12.0
290
     0
  0
SCALE
  5
490
102
{ACAD_REACTORS
330
48C
102
}
330
48C
100
AcDbScale
 70
     0
300
1/32" = 1'-0"
140
0.03125
141
12.0
290
     0
  0
SCALE
  5
491
102
{ACAD_REACTORS
330
48C
102
}
330
48C
100
AcDbScale
 70
     0
300
1/16" = 1'-0"
140
0.0625
141
12.0
290
     0
  0
SCALE
  5
492
102
{ACAD_REACTORS
330
48C
102
}
330
48C
100
AcDbScale
 70
     0
300
3/32" = 1'-0"
140
0.09375
141
12.0
290
     0
  0
SCALE
  5
493
102
{ACAD_REACTORS
330
48C
102
}
330
48C
100
AcDbScale
 70
     0
300
1/8" = 1'-0"
140
0.125
141
12.0
290
     0
  0
SCALE
  5
494
102
{ACAD_REACTORS
330
48C
102
}
330
48C
100
AcDbScale
 70
     0
300
3/16" = 1'-0"
140
0.1875
141
12.0
290
     0
  0
SCALE
  5
495
102
{ACAD_REACTORS
330
48C
102
}
330
48C
100
AcDbScale
 70
     0
300
1/4" = 1'-0"
140
0.25
141
12.0
290
     0
  0
SCALE
  5
496
102
{ACAD_REACTORS
330
48C
102
}
330
48C
100
AcDbScale
 70
     0
300
3/8" = 1'-0"
140
0.375
141
12.0
290
     0
  0
SCALE
  5
497
102
{ACAD_REACTORS
330
48C
102
}
330
48C
100
AcDbScale
 70
     0
300
1/2" = 1'-0"
140
0.5
141
12.0
290
     0
  0
SCALE
  5
498
102
{ACAD_REACTORS
330
48C
102
}
330
48C
100
AcDbScale
 70
     0
300
3/4" = 1'-0"
140
0.75
141
12.0
290
     0
  0
SCALE
  5
499
102
{ACAD_REACTORS
330
48C
102
}
330
48C
100
AcDbScale
 70
     0
300
1" = 1'-0"
140
1.0
141
12.0
290
     0
  0
SCALE
  5
49A
102
{ACAD_REACTORS
330
48C
102
}
330
48C
100
AcDbScale
 70
     0
300
1-1/2" = 1'-0"
140
1.5
141
12.0
290
     0
  0
SCALE
  5
49B
102
{ACAD_REACTORS
330
48C
102
}
330
48C
100
AcDbScale
 70
     0
300
3" = 1'-0"
140
3.0
141
12.0
290
     0
  0
SCALE
  5
49C
102
{ACAD_REACTORS
330
48C
102
}
330
48C
100
AcDbScale
 70
     0
300
6" = 1'-0"
140
6.0
141
12.0
290
     0
  0
SCALE
  5
49D
102
{ACAD_REACTORS
330
48C
102
}
330
48C
100
AcDbScale
 70
     0
300
1'-0" = 1'-0"
140
12.0
141
12.0
290
     0
  0
ACDBSECTIONVIEWSTYLE
  5
4B3
102
{ACAD_REACTORS
330
4B1
102
}
330
4B1
100
AcDbModelDocViewStyle
 70
     0
  3
Imperial24
290
     0
100
AcDbSectionViewStyle
 70
     0
 71
     0
 90
       78
 71
     1
340
49F
 40
0.24
340
0
340
0
 40
0.24
300
I, O, Q, S, X, Z
 40
0.48
 90
        3
 40
0.18
 90
        1
 71
     2
340
4B2
 90
       25
340
4A6
 90
       50
 40
0.24
 40
0.0
 40
0.24
 71
     3
340
49F
 40
0.24
 90
        1
 40
0.75
 90
        1
300
%<\AcVar ViewType \f "%tc1">% %<\AcVar ViewSectionStartId>%-%<\AcVar ViewSectionEndId>%\PSCALE %<\AcVar ViewScale \f "%sn">%
 71
     4
300
ANSI31
 40
1.0
 90
        0
290
     0
290
     0
 90
        6
 40
0.0
 40
1.570796326794896
 40
0.2617993877991494
 40
1.308996938995747
 40
-0.2617993877991494
 40
1.832595714594046
  0
TABLESTYLE
  5
4AE
102
{ACAD_XDICTIONARY
360
547
102
}
102
{ACAD_REACTORS
330
4AD
102
}
330
4AD
100
AcDbTableStyle
  3
Standard
 70
     0
 71
     0
 40
0.06
 41
0.06
280
     0
281
     0
  7
STANDARD
140
0.18
170
     2
 62
     0
 63
     7
283
     0
274
    -2
284
     1
 64
     0
275
    -2
285
     1
 65
     0
276
    -2
286
     1
 66
     0
277
    -2
287
     1
 67
     0
278
    -2
288
     1
 68
     0
279
    -2
289
     1
 69
     0
  7
STANDARD
140
0.25
170
     5
 62
     0
 63
     7
283
     0
274
    -2
284
     1
 64
     0
275
    -2
285
     1
 65
     0
276
    -2
286
     1
 66
     0
277
    -2
287
     1
 67
     0
278
    -2
288
     1
 68
     0
279
    -2
289
     1
 69
     0
  7
STANDARD
140
0.18
170
     5
 62
     0
 63
     7
283
     0
274
    -2
284
     1
 64
     0
275
    -2
285
     1
 65
     0
276
    -2
286
     1
 66
     0
277
    -2
287
     1
 67
     0
278
    -2
288
     1
 68
     0
279
    -2
289
     1
 69
     0
  0
VISUALSTYLE
  5
479
102
{ACAD_XDICTIONARY
360
558
102
}
102
{ACAD_REACTORS
330
473
102
}
330
473
100
AcDbVisualStyle
  2
2dWireframe
 70
     4
 71
     0
 72
     2
 73
     0
 90
        0
 40
-0.6
 41
-30.0
 62
     5
 63
     7
 74
     1
 91
        4
 64
     7
 65
   257
 75
     1
175
     1
 42
1.0
 92
        0
 66
   257
 43
1.0
 76
     1
 77
     6
 78
     2
 67
     7
 79
     5
170
     0
171
     0
290
     0
174
     0
 93
        1
 44
0.0
173
     0
291
     0
 45
0.0
1001
ACAD
1000
AcDbSavedByObjectVersion
1070
     0
  0
VISUALSTYLE
  5
478
102
{ACAD_XDICTIONARY
360
556
102
}
102
{ACAD_REACTORS
330
473
102
}
330
473
100
AcDbVisualStyle
  2
Basic
 70
     7
 71
     1
 72
     0
 73
     1
 90
        0
 40
-0.6
 41
-30.0
 62
     5
 63
     7
 74
     0
 91
        4
 64
     7
 65
   257
 75
     1
175
     1
 42
1.0
 92
        8
 66
     7
 43
1.0
 76
     1
 77
     6
 78
     2
 67
     7
 79
     5
170
     0
171
     0
290
     0
174
     0
 93
        1
 44
0.0
173
     0
291
     1
 45
0.0
1001
ACAD
1000
AcDbSavedByObjectVersion
1070
     0
  0
VISUALSTYLE
  5
47F
102
{ACAD_XDICTIONARY
360
564
102
}
102
{ACAD_REACTORS
330
473
102
}
330
473
100
AcDbVisualStyle
  2
Brighten
 70
    12
 71
     2
 72
     2
 73
     0
 90
        0
 40
-0.6
 41
-30.0
 62
     5
 63
     7
 74
     1
 91
        4
 64
     7
 65
   257
 75
     1
175
     1
 42
1.0
 92
        8
 66
     7
 43
1.0
 76
     1
 77
     6
 78
     2
 67
     7
 79
     5
170
     0
171
     0
290
     0
174
     0
 93
        1
 44
50.0
173
     0
291
     1
 45
0.0
1001
ACAD
1000
AcDbSavedByObjectVersion
1070
     0
  0
VISUALSTYLE
  5
483
102
{ACAD_XDICTIONARY
360
56C
102
}
102
{ACAD_REACTORS
330
473
102
}
330
473
100
AcDbVisualStyle
  2
ColorChange
 70
    16
 71
     2
 72
     2
 73
     3
 90
        0
 40
-0.6
 41
-30.0
 62
     5
 63
     8
 74
     1
 91
        4
 64
     7
 65
   257
 75
     1
175
     1
 42
1.0
 92
        8
 66
     8
 43
1.0
 76
     1
 77
     6
 78
     2
 67
     7
 79
     5
170
     0
171
     0
290
     0
174
     0
 93
        1
 44
0.0
173
     0
291
     1
 45
0.0
1001
ACAD
1000
AcDbSavedByObjectVersion
1070
     0
  0
VISUALSTYLE
  5
47C
102
{ACAD_XDICTIONARY
360
55E
102
}
102
{ACAD_REACTORS
330
473
102
}
330
473
100
AcDbVisualStyle
  2
Conceptual
 70
     9
 71
     3
 72
     2
 73
     0
 90
        0
 40
-0.6
 41
-30.0
 62
     5
 63
     7
 74
     2
 91
        2
 64
     7
 65
   257
 75
     1
175
     1
 42
179.0
 92
        8
 66
     7
 43
1.0
 76
     1
 77
     6
 78
     2
 67
     7
 79
     3
170
     0
171
     0
290
     0
174
     0
 93
        1
 44
0.0
173
     0
291
     0
 45
0.0
1001
ACAD
1000
AcDbSavedByObjectVersion
1070
     0
  0
VISUALSTYLE
  5
47E
102
{ACAD_XDICTIONARY
360
562
102
}
102
{ACAD_REACTORS
330
473
102
}
330
473
100
AcDbVisualStyle
  2
Dim
 70
    11
 71
     2
 72
     2
 73
     0
 90
        0
 40
-0.6
 41
-30.0
 62
     5
 63
     7
 74
     1
 91
        4
 64
     7
 65
   257
 75
     1
175
     1
 42
1.0
 92
        8
 66
     7
 43
1.0
 76
     1
 77
     6
 78
     2
 67
     7
 79
     5
170
     0
171
     0
290
     0
174
     0
 93
        1
 44
-50.0
173
     0
291
     1
 45
0.0
1001
ACAD
1000
AcDbSavedByObjectVersion
1070
     0
  0
VISUALSTYLE
  5
48B
102
{ACAD_XDICTIONARY
360
57C
102
}
102
{ACAD_REACTORS
330
473
102
}
330
473
100
AcDbVisualStyle
  2
EdgeColorOff
 70
    22
 71
     2
 72
     2
 73
     0
 90
        0
 40
-0.6
 41
-30.0
 62
     5
 63
     7
 74
     1
 91
        4
 64
     7
 65
   257
 75
     1
175
     1
 42
1.0
 92
        8
 66
     7
 43
1.0
 76
     1
 77
     6
 78
     2
 67
     7
 79
     5
170
     0
171
     0
290
     0
174
     0
 93
        1
 44
0.0
173
     0
291
     1
 45
0.0
1001
ACAD
1000
AcDbSavedByObjectVersion
1070
     0
  0
VISUALSTYLE
  5
482
102
{ACAD_XDICTIONARY
360
56A
102
}
102
{ACAD_REACTORS
330
473
102
}
330
473
100
AcDbVisualStyle
  2
Facepattern
 70
    15
 71
     2
 72
     2
 73
     0
 90
        0
 40
-0.6
 41
-30.0
 62
     5
 63
     7
 74
     1
 91
        4
 64
     7
 65
   257
 75
     1
175
     1
 42
1.0
 92
        8
 66
     7
 43
1.0
 76
     1
 77
     6
 78
     2
 67
     7
 79
     5
170
     0
171
     0
290
     0
174
     0
 93
        1
 44
0.0
173
     0
291
     1
 45
0.0
1001
ACAD
1000
AcDbSavedByObjectVersion
1070
     0
  0
VISUALSTYLE
  5
474
102
{ACAD_XDICTIONARY
360
54E
102
}
102
{ACAD_REACTORS
330
473
102
}
330
473
100
AcDbVisualStyle
  2
Flat
 70
     0
 71
     2
 72
     1
 73
     1
 90
        2
 40
-0.6
 41
30.0
 62
     5
 63
     7
 74
     0
 91
        0
 64
     7
 65
   257
 75
     1
175
     1
 42
1.0
 92
        8
 66
     7
 43
1.0
 76
     1
 77
     6
 78
     2
 67
     7
 79
     5
170
     0
171
     0
290
     0
174
     0
 93
       13
 44
0.0
173
     0
291
     1
 45
0.0
1001
ACAD
1000
AcDbSavedByObjectVersion
1070
     0
  0
VISUALSTYLE
  5
475
102
{ACAD_XDICTIONARY
360
550
102
}
102
{ACAD_REACTORS
330
473
102
}
330
473
100
AcDbVisualStyle
  2
FlatWithEdges
 70
     1
 71
     2
 72
     1
 73
     1
 90
        2
 40
-0.6
 41
30.0
 62
     5
 63
     7
 74
     1
 91
        0
 64
     7
 65
   257
 75
     1
175
     1
 42
1.0
 92
        0
 66
   257
 43
1.0
 76
     1
 77
     6
 78
     2
 67
     7
 79
     5
170
     0
171
     0
290
     0
174
     0
 93
       13
 44
0.0
173
     0
291
     1
 45
0.0
1001
ACAD
1000
AcDbSavedByObjectVersion
1070
     0
  0
VISUALSTYLE
  5
476
102
{ACAD_XDICTIONARY
360
552
102
}
102
{ACAD_REACTORS
330
473
102
}
330
473
100
AcDbVisualStyle
  2
Gouraud
 70
     2
 71
     2
 72
     2
 73
     1
 90
        2
 40
-0.6
 41
30.0
 62
     5
 63
     7
 74
     0
 91
        0
 64
     7
 65
   257
 75
     1
175
     1
 42
1.0
 92
        0
 66
     7
 43
1.0
 76
     1
 77
     6
 78
     2
 67
     7
 79
     5
170
     0
171
     0
290
     0
174
     0
 93
       13
 44
0.0
173
     0
291
     1
 45
0.0
1001
ACAD
1000
AcDbSavedByObjectVersion
1070
     0
  0
VISUALSTYLE
  5
477
102
{ACAD_XDICTIONARY
360
554
102
}
102
{ACAD_REACTORS
330
473
102
}
330
473
100
AcDbVisualStyle
  2
GouraudWithEdges
 70
     3
 71
     2
 72
     2
 73
     1
 90
        2
 40
-0.6
 41
30.0
 62
     5
 63
     7
 74
     1
 91
        0
 64
     7
 65
   257
 75
     1
175
     1
 42
1.0
 92
        0
 66
   257
 43
1.0
 76
     1
 77
     6
 78
     2
 67
     7
 79
     5
170
     0
171
     0
290
     0
174
     0
 93
       13
 44
0.0
173
     0
291
     1
 45
0.0
1001
ACAD
1000
AcDbSavedByObjectVersion
1070
     0
  0
VISUALSTYLE
  5
47B
102
{ACAD_XDICTIONARY
360
55C
102
}
102
{ACAD_REACTORS
330
473
102
}
330
473
100
AcDbVisualStyle
  2
Hidden
 70
     6
 71
     1
 72
     2
 73
     2
 90
        0
 40
-0.6
 41
-30.0
 62
     5
 63
     7
 74
     2
 91
        2
 64
     7
 65
   257
 75
     2
175
     1
 42
40.0
 92
        0
 66
   257
 43
1.0
 76
     1
 77
     6
 78
     2
 67
     7
 79
     3
170
     0
171
     0
290
     0
174
     0
 93
        1
 44
0.0
173
     0
291
     0
 45
0.0
1001
ACAD
1000
AcDbSavedByObjectVersion
1070
     0
  0
VISUALSTYLE
  5
489
102
{ACAD_XDICTIONARY
360
578
102
}
102
{ACAD_REACTORS
330
473
102
}
330
473
100
AcDbVisualStyle
  2
JitterOff
 70
    20
 71
     2
 72
     2
 73
     0
 90
        0
 40
-0.6
 41
-30.0
 62
     5
 63
     7
 74
     1
 91
        4
 64
     7
 65
   257
 75
     1
175
     1
 42
1.0
 92
       10
 66
     7
 43
1.0
 76
     1
 77
     6
 78
     2
 67
     7
 79
     5
170
     0
171
     0
290
     0
174
     0
 93
        1
 44
0.0
173
     0
291
     1
 45
0.0
1001
ACAD
1000
AcDbSavedByObjectVersion
1070
     0
  0
VISUALSTYLE
  5
481
102
{ACAD_XDICTIONARY
360
568
102
}
102
{ACAD_REACTORS
330
473
102
}
330
473
100
AcDbVisualStyle
  2
Linepattern
 70
    14
 71
     2
 72
     2
 73
     0
 90
        0
 40
-0.6
 41
-30.0
 62
     5
 63
     7
 74
     1
 91
        4
 64
     7
 65
   257
 75
     7
175
     7
 42
1.0
 92
        8
 66
     7
 43
1.0
 76
     1
 77
     6
 78
     2
 67
     7
 79
     5
170
     0
171
     0
290
     0
174
     0
 93
        1
 44
0.0
173
     0
291
     1
 45
0.0
1001
ACAD
1000
AcDbSavedByObjectVersion
1070
     0
  0
VISUALSTYLE
  5
48A
102
{ACAD_XDICTIONARY
360
57A
102
}
102
{ACAD_REACTORS
330
473
102
}
330
473
100
AcDbVisualStyle
  2
OverhangOff
 70
    21
 71
     2
 72
     2
 73
     0
 90
        0
 40
-0.6
 41
-30.0
 62
     5
 63
     7
 74
     1
 91
        4
 64
     7
 65
   257
 75
     1
175
     1
 42
1.0
 92
        9
 66
     7
 43
1.0
 76
     1
 77
     6
 78
     2
 67
     7
 79
     5
170
     0
171
     0
290
     0
174
     0
 93
        1
 44
0.0
173
     0
291
     1
 45
0.0
1001
ACAD
1000
AcDbSavedByObjectVersion
1070
     0
  0
VISUALSTYLE
  5
47D
102
{ACAD_XDICTIONARY
360
560
102
}
102
{ACAD_REACTORS
330
473
102
}
330
473
100
AcDbVisualStyle
  2
Realistic
 70
     8
 71
     2
 72
     3
 73
     0
 90
        2
 40
-0.6
 41
30.0
 62
     5
 63
     7
 74
     0
 91
        0
 64
     7
 65
   257
 75
     1
175
     1
 42
1.0
 92
        8
 66
   257
 43
1.0
 76
     1
 77
     6
 78
     2
 67
     7
 79
     3
170
     0
171
     0
290
     0
174
     0
 93
       13
 44
0.0
173
     0
291
     0
 45
0.0
1001
ACAD
1000
AcDbSavedByObjectVersion
1070
     0
  0
VISUALSTYLE
  5
488
102
{ACAD_XDICTIONARY
360
576
102
}
102
{ACAD_REACTORS
330
473
102
}
330
473
100
AcDbVisualStyle
  2
Shaded
 70
    27
 71
     2
 72
     2
 73
     1
 90
        2
 40
-0.6
 41
30.0
 62
     5
 63
     7
 74
     0
 91
        4
 64
     7
 65
   257
 75
     1
175
     1
 42
1.0
 92
        8
 66
   257
 43
1.0
 76
     1
 77
     6
 78
     2
 67
     8
 79
     3
170
     0
171
     0
290
     0
174
     0
 93
        5
 44
0.0
173
     0
291
     0
 45
0.0
1001
ACAD
1000
AcDbSavedByObjectVersion
1070
     0
  0
VISUALSTYLE
  5
487
102
{ACAD_XDICTIONARY
360
574
102
}
102
{ACAD_REACTORS
330
473
102
}
330
473
100
AcDbVisualStyle
  2
Shaded with edges
 70
    26
 71
     2
 72
     2
 73
     1
 90
        2
 40
-0.6
 41
30.0
 62
     5
 63
     7
 74
     1
 91
       10
 64
     7
 65
   257
 75
     2
175
     1
 42
1.0
 92
        8
 66
   257
 43
1.0
 76
     1
 77
     6
 78
     2
 67
     7
 79
     3
170
     0
171
     0
290
     0
174
     0
 93
        5
 44
0.0
173
     0
291
     0
 45
0.0
1001
ACAD
1000
AcDbSavedByObjectVersion
1070
     0
  0
VISUALSTYLE
  5
484
102
{ACAD_XDICTIONARY
360
56E
102
}
102
{ACAD_REACTORS
330
473
102
}
330
473
100
AcDbVisualStyle
  2
Shades of Gray
 70
    23
 71
     2
 72
     2
 73
     3
 90
        0
 40
-0.6
 41
-30.0
 62
     5
 63
     7
 74
     2
 91
        2
 64
     7
 65
     7
 75
     1
175
     1
 42
40.0
 92
        8
 66
     7
 43
1.0
 76
     1
 77
     6
 78
     2
 67
     7
 79
     3
170
     0
171
     0
290
     0
174
     0
 93
        1
 44
0.0
173
     0
291
     0
 45
0.0
1001
ACAD
1000
AcDbSavedByObjectVersion
1070
     0
  0
VISUALSTYLE
  5
485
102
{ACAD_XDICTIONARY
360
570
102
}
102
{ACAD_REACTORS
330
473
102
}
330
473
100
AcDbVisualStyle
  2
Sketchy
 70
    24
 71
     1
 72
     2
 73
     2
 90
        0
 40
-0.6
 41
-30.0
 62
     5
 63
     7
 74
     2
 91
        2
 64
     7
 65
     7
 75
     1
175
     1
 42
40.0
 92
       11
 66
     7
 43
1.0
 76
     1
 77
     6
 78
     2
 67
     7
 79
     6
170
     0
171
     0
290
     0
174
     0
 93
        1
 44
0.0
173
     0
291
     0
 45
0.0
1001
ACAD
1000
AcDbSavedByObjectVersion
1070
     0
  0
VISUALSTYLE
  5
480
102
{ACAD_XDICTIONARY
360
566
102
}
102
{ACAD_REACTORS
330
473
102
}
330
473
100
AcDbVisualStyle
  2
Thicken
 70
    13
 71
     2
 72
     2
 73
     0
 90
        0
 40
-0.6
 41
-30.0
 62
     5
 63
     7
 74
     1
 91
        4
 64
     7
 65
   257
 75
     1
175
     1
 42
1.0
 92
       12
 66
     7
 43
1.0
 76
     1
 77
     6
 78
     2
 67
     7
 79
     5
170
     0
171
     0
290
     0
174
     0
 93
        1
 44
0.0
173
     0
291
     1
 45
0.0
1001
ACAD
1000
AcDbSavedByObjectVersion
1070
     0
  0
VISUALSTYLE
  5
47A
102
{ACAD_XDICTIONARY
360
55A
102
}
102
{ACAD_REACTORS
330
473
102
}
330
473
100
AcDbVisualStyle
  2
Wireframe
 70
     5
 71
     0
 72
     2
 73
     0
 90
        0
 40
-0.6
 41
-30.0
 62
     5
 63
     7
 74
     1
 91
        4
 64
     7
 65
   257
 75
     1
175
     1
 42
1.0
 92
        0
 66
   257
 43
1.0
 76
     1
 77
     6
 78
     2
 67
     7
 79
     3
170
     0
171
     0
290
     0
174
     0
 93
        1
 44
0.0
173
     0
291
     0
 45
0.0
1001
ACAD
1000
AcDbSavedByObjectVersion
1070
     0
  0
VISUALSTYLE
  5
486
102
{ACAD_XDICTIONARY
360
572
102
}
102
{ACAD_REACTORS
330
473
102
}
330
473
100
AcDbVisualStyle
  2
X-Ray
 70
    25
 71
     2
 72
     2
 73
     1
 90
        1
 40
0.5
 41
-30.0
 62
     5
 63
     7
 74
     1
 91
        0
 64
     7
 65
   257
 75
     1
175
     1
 42
1.0
 92
        8
 66
     7
 43
1.0
 76
     1
 77
     6
 78
     2
 67
     7
 79
     3
170
     0
171
     0
290
     0
174
     0
 93
       13
 44
0.0
173
     0
291
     0
 45
0.0
1001
ACAD
1000
AcDbSavedByObjectVersion
1070
     0
  0
DICTIONARYVAR
  5
541
102
{ACAD_REACTORS
330
53C
102
}
330
53C
100
DictionaryVariables
280
     0
  1
1:1
  0
DICTIONARYVAR
  5
53E
102
{ACAD_REACTORS
330
53C
102
}
330
53C
100
DictionaryVariables
280
     0
  1
STANDARD
  0
DICTIONARYVAR
  5
53D
102
{ACAD_REACTORS
330
53C
102
}
330
53C
100
DictionaryVariables
280
     0
  1
STANDARD
  0
DICTIONARYVAR
  5
53F
102
{ACAD_REACTORS
330
53C
102
}
330
53C
100
DictionaryVariables
280
     0
  1
Imperial24
  0
DICTIONARYVAR
  5
540
102
{ACAD_REACTORS
330
53C
102
}
330
53C
100
DictionaryVariables
280
     0
  1
Imperial24
  0
DICTIONARYVAR
  5
544
102
{ACAD_REACTORS
330
53C
102
}
330
53C
100
DictionaryVariables
280
     0
  1
1
  0
DICTIONARYVAR
  5
543
102
{ACAD_REACTORS
330
53C
102
}
330
53C
100
DictionaryVariables
280
     0
  1
0
  0
DICTIONARYVAR
  5
542
102
{ACAD_REACTORS
330
53C
102
}
330
53C
100
DictionaryVariables
280
     0
  1
127
  0
DICTIONARYVAR
  5
545
102
{ACAD_REACTORS
330
53C
102
}
330
53C
100
DictionaryVariables
280
     0
  1
2
  0
DICTIONARY
  5
580
330
4B9
100
AcDbDictionary
280
     1
281
     1
  3
ACAD_XREC_ROUNDTRIP
360
581
  0
DICTIONARY
  5
582
330
4BD
100
AcDbDictionary
280
     1
281
     1
  3
ACAD_XREC_ROUNDTRIP
360
583
  0
DICTIONARY
  5
464
330
463
100
AcDbDictionary
280
     1
281
     1
  3
ACAD_XREC_ROUNDTRIP
360
54C
  3
BUMPTILE
360
466
  3
DIFFUSETILE
360
465
  3
OPACITYTILE
360
469
  3
REFLECTIONTILE
360
468
  3
REFRACTIONTILE
360
46A
  3
SPECULARTILE
360
467
  0
DICTIONARY
  5
45C
330
45B
100
AcDbDictionary
280
     1
281
     1
  3
ACAD_XREC_ROUNDTRIP
360
54B
  3
BUMPTILE
360
45E
  3
DIFFUSETILE
360
45D
  3
OPACITYTILE
360
461
  3
REFLECTIONTILE
360
460
  3
REFRACTIONTILE
360
462
  3
SPECULARTILE
360
45F
  0
DICTIONARY
  5
46C
330
46B
100
AcDbDictionary
280
     1
281
     1
  3
ACAD_XREC_ROUNDTRIP
360
54D
  3
BUMPTILE
360
46E
  3
DIFFUSETILE
360
46D
  3
OPACITYTILE
360
471
  3
REFLECTIONTILE
360
470
  3
REFRACTIONTILE
360
472
  3
SPECULARTILE
360
46F
  0
DICTIONARY
  5
547
330
4AE
100
AcDbDictionary
280
     1
281
     1
  3
ACAD_ROUNDTRIP_2008_TABLESTYLE_CELLSTYLEMAP
360
548
  3
ACAD_XREC_ROUNDTRIP
360
57E
  0
DICTIONARY
  5
558
330
479
100
AcDbDictionary
280
     1
281
     1
  3
ACAD_XREC_ROUNDTRIP
360
559
  0
DICTIONARY
  5
556
330
478
100
AcDbDictionary
280
     1
281
     1
  3
ACAD_XREC_ROUNDTRIP
360
557
  0
DICTIONARY
  5
564
330
47F
100
AcDbDictionary
280
     1
281
     1
  3
ACAD_XREC_ROUNDTRIP
360
565
  0
DICTIONARY
  5
56C
330
483
100
AcDbDictionary
280
     1
281
     1
  3
ACAD_XREC_ROUNDTRIP
360
56D
  0
DICTIONARY
  5
55E
330
47C
100
AcDbDictionary
280
     1
281
     1
  3
ACAD_XREC_ROUNDTRIP
360
55F
  0
DICTIONARY
  5
562
330
47E
100
AcDbDictionary
280
     1
281
     1
  3
ACAD_XREC_ROUNDTRIP
360
563
  0
DICTIONARY
  5
57C
330
48B
100
AcDbDictionary
280
     1
281
     1
  3
ACAD_XREC_ROUNDTRIP
360
57D
  0
DICTIONARY
  5
56A
330
482
100
AcDbDictionary
280
     1
281
     1
  3
ACAD_XREC_ROUNDTRIP
360
56B
  0
DICTIONARY
  5
54E
330
474
100
AcDbDictionary
280
     1
281
     1
  3
ACAD_XREC_ROUNDTRIP
360
54F
  0
DICTIONARY
  5
550
330
475
100
AcDbDictionary
280
     1
281
     1
  3
ACAD_XREC_ROUNDTRIP
360
551
  0
DICTIONARY
  5
552
330
476
100
AcDbDictionary
280
     1
281
     1
  3
ACAD_XREC_ROUNDTRIP
360
553
  0
DICTIONARY
  5
554
330
477
100
AcDbDictionary
280
     1
281
     1
  3
ACAD_XREC_ROUNDTRIP
360
555
  0
DICTIONARY
  5
55C
330
47B
100
AcDbDictionary
280
     1
281
     1
  3
ACAD_XREC_ROUNDTRIP
360
55D
  0
DICTIONARY
  5
578
330
489
100
AcDbDictionary
280
     1
281
     1
  3
ACAD_XREC_ROUNDTRIP
360
579
  0
DICTIONARY
  5
568
330
481
100
AcDbDictionary
280
     1
281
     1
  3
ACAD_XREC_ROUNDTRIP
360
569
  0
DICTIONARY
  5
57A
330
48A
100
AcDbDictionary
280
     1
281
     1
  3
ACAD_XREC_ROUNDTRIP
360
57B
  0
DICTIONARY
  5
560
330
47D
100
AcDbDictionary
280
     1
281
     1
  3
ACAD_XREC_ROUNDTRIP
360
561
  0
DICTIONARY
  5
576
330
488
100
AcDbDictionary
280
     1
281
     1
  3
ACAD_XREC_ROUNDTRIP
360
577
  0
DICTIONARY
  5
574
330
487
100
AcDbDictionary
280
     1
281
     1
  3
ACAD_XREC_ROUNDTRIP
360
575
  0
DICTIONARY
  5
56E
330
484
100
AcDbDictionary
280
     1
281
     1
  3
ACAD_XREC_ROUNDTRIP
360
56F
  0
DICTIONARY
  5
570
330
485
100
AcDbDictionary
280
     1
281
     1
  3
ACAD_XREC_ROUNDTRIP
360
571
  0
DICTIONARY
  5
566
330
480
100
AcDbDictionary
280
     1
281
     1
  3
ACAD_XREC_ROUNDTRIP
360
567
  0
DICTIONARY
  5
55A
330
47A
100
AcDbDictionary
280
     1
281
     1
  3
ACAD_XREC_ROUNDTRIP
360
55B
  0
DICTIONARY
  5
572
330
486
100
AcDbDictionary
280
     1
281
     1
  3
ACAD_XREC_ROUNDTRIP
360
573
  0
XRECORD
  5
581
102
{ACAD_REACTORS
330
580
102
}
330
580
100
AcDbXrecord
280
     1
102
SHADEPLOT
 70
     0
102
SHADEPLOTRESLEVEL
 70
     2
102
SHADEPLOTCUSTOMDPI
 70
   300
  0
XRECORD
  5
583
102
{ACAD_REACTORS
330
582
102
}
330
582
100
AcDbXrecord
280
     1
102
SHADEPLOT
 70
     0
102
SHADEPLOTRESLEVEL
 70
     2
102
SHADEPLOTCUSTOMDPI
 70
   300
  0
XRECORD
  5
54C
102
{ACAD_REACTORS
330
464
102
}
330
464
100
AcDbXrecord
280
     1
102
MATERIAL
148
0.0
149
0.0
149
0.0
 93
        0
 94
      127
282
     0
 72
     0
 77
     0
171
     0
175
     0
179
     0
273
     0
  0
XRECORD
  5
466
102
{ACAD_REACTORS
330
464
102
}
330
464
100
AcDbXrecord
280
     1
270
     1
271
     1
  0
XRECORD
  5
465
102
{ACAD_REACTORS
330
464
102
}
330
464
100
AcDbXrecord
280
     1
270
     1
271
     1
  0
XRECORD
  5
469
102
{ACAD_REACTORS
330
464
102
}
330
464
100
AcDbXrecord
280
     1
270
     1
271
     1
  0
XRECORD
  5
468
102
{ACAD_REACTORS
330
464
102
}
330
464
100
AcDbXrecord
280
     1
270
     1
271
     1
  0
XRECORD
  5
46A
102
{ACAD_REACTORS
330
464
102
}
330
464
100
AcDbXrecord
280
     1
270
     1
271
     1
  0
XRECORD
  5
467
102
{ACAD_REACTORS
330
464
102
}
330
464
100
AcDbXrecord
280
     1
270
     1
271
     1
  0
XRECORD
  5
54B
102
{ACAD_REACTORS
330
45C
102
}
330
45C
100
AcDbXrecord
280
     1
102
MATERIAL
148
0.0
149
0.0
149
0.0
 93
        0
 94
      127
282
     0
 72
     0
 77
     0
171
     0
175
     0
179
     0
273
     0
  0
XRECORD
  5
45E
102
{ACAD_REACTORS
330
45C
102
}
330
45C
100
AcDbXrecord
280
     1
270
     1
271
     1
  0
XRECORD
  5
45D
102
{ACAD_REACTORS
330
45C
102
}
330
45C
100
AcDbXrecord
280
     1
270
     1
271
     1
  0
XRECORD
  5
461
102
{ACAD_REACTORS
330
45C
102
}
330
45C
100
AcDbXrecord
280
     1
270
     1
271
     1
  0
XRECORD
  5
460
102
{ACAD_REACTORS
330
45C
102
}
330
45C
100
AcDbXrecord
280
     1
270
     1
271
     1
  0
XRECORD
  5
462
102
{ACAD_REACTORS
330
45C
102
}
330
45C
100
AcDbXrecord
280
     1
270
     1
271
     1
  0
XRECORD
  5
45F
102
{ACAD_REACTORS
330
45C
102
}
330
45C
100
AcDbXrecord
280
     1
270
     1
271
     1
  0
XRECORD
  5
54D
102
{ACAD_REACTORS
330
46C
102
}
330
46C
100
AcDbXrecord
280
     1
102
MATERIAL
148
0.0
149
0.0
149
0.0
 93
        0
 94
      127
282
     0
 72
     0
 77
     0
171
     0
175
     0
179
     0
273
     0
  0
XRECORD
  5
46E
102
{ACAD_REACTORS
330
46C
102
}
330
46C
100
AcDbXrecord
280
     1
270
     1
271
     1
  0
XRECORD
  5
46D
102
{ACAD_REACTORS
330
46C
102
}
330
46C
100
AcDbXrecord
280
     1
270
     1
271
     1
  0
XRECORD
  5
471
102
{ACAD_REACTORS
330
46C
102
}
330
46C
100
AcDbXrecord
280
     1
270
     1
271
     1
  0
XRECORD
  5
470
102
{ACAD_REACTORS
330
46C
102
}
330
46C
100
AcDbXrecord
280
     1
270
     1
271
     1
  0
XRECORD
  5
472
102
{ACAD_REACTORS
330
46C
102
}
330
46C
100
AcDbXrecord
280
     1
270
     1
271
     1
  0
XRECORD
  5
46F
102
{ACAD_REACTORS
330
46C
102
}
330
46C
100
AcDbXrecord
280
     1
270
     1
271
     1
  0
CELLSTYLEMAP
  5
548
102
{ACAD_REACTORS
330
547
102
}
330
547
100
AcDbCellStyleMap
 90
        3
300
CELLSTYLE
  1
TABLEFORMAT_BEGIN
 90
        5
170
     1
 91
        0
 92
    32768
 62
   257
 93
        1
300
CONTENTFORMAT
  1
CONTENTFORMAT_BEGIN
 90
        0
 91
        0
 92
      512
 93
        0
300

 40
0.0
140
1.0
 94
        5
 62
     0
340
49F
144
0.25
309
CONTENTFORMAT_END
171
     0
 94
        0
309
TABLEFORMAT_END
  1
CELLSTYLE_BEGIN
 90
        1
 91
        1
300
_TITLE
309
CELLSTYLE_END
300
CELLSTYLE
  1
TABLEFORMAT_BEGIN
 90
        5
170
     1
 91
        0
 92
        0
 62
   257
 93
        1
300
CONTENTFORMAT
  1
CONTENTFORMAT_BEGIN
 90
        0
 91
        0
 92
      512
 93
        0
300

 40
0.0
140
1.0
 94
        5
 62
     0
340
49F
144
0.18
309
CONTENTFORMAT_END
171
     0
 94
        0
309
TABLEFORMAT_END
  1
CELLSTYLE_BEGIN
 90
        2
 91
        1
300
_HEADER
309
CELLSTYLE_END
300
CELLSTYLE
  1
TABLEFORMAT_BEGIN
 90
        5
170
     1
 91
        0
 92
        0
 62
   257
 93
        1
300
CONTENTFORMAT
  1
CONTENTFORMAT_BEGIN
 90
        0
 91
        0
 92
      512
 93
        0
300

 40
0.0
140
1.0
 94
        2
 62
     0
340
49F
144
0.18
309
CONTENTFORMAT_END
171
     0
 94
        0
309
TABLEFORMAT_END
  1
CELLSTYLE_BEGIN
 90
        3
 91
        2
300
_DATA
309
CELLSTYLE_END
  0
XRECORD
  5
57E
102
{ACAD_REACTORS
330
547
102
}
330
547
100
AcDbXrecord
280
     1
102
ACAD_ROUNDTRIP_PRE2007_TABLESTYLE
 90
      512
 91
        0
  1

 92
      512
 93
        0
  2

 94
      512
 95
        0
  3

  0
XRECORD
  5
559
102
{ACAD_REACTORS
330
558
102
}
330
558
100
AcDbXrecord
280
     1
102
RTVSPost2010Prop28
280
     1
102
RTVSPost2010PropOp28
 70
     1
102
RTVSPost2010Prop29
280
     1
102
RTVSPost2010PropOp29
 70
     1
102
RTVSPost2010Prop30
280
     0
102
RTVSPost2010PropOp30
 70
     1
102
RTVSPost2010Prop31
280
     0
102
RTVSPost2010PropOp31
 70
     1
102
RTVSPost2010Prop32
280
     0
102
RTVSPost2010PropOp32
 70
     1
102
RTVSPost2010Prop33
280
     0
102
RTVSPost2010PropOp33
 70
     1
102
RTVSPost2010Prop34
280
     0
102
RTVSPost2010PropOp34
 70
     1
102
RTVSPost2010Prop35
280
     0
102
RTVSPost2010PropOp35
 70
     1
102
RTVSPost2010Prop36
280
     0
102
RTVSPost2010PropOp36
 70
     1
102
RTVSPost2010Prop37
 90
       50
102
RTVSPost2010PropOp37
 70
     1
102
RTVSPost2010Prop38
140
0.0
102
RTVSPost2010PropOp38
 70
     1
102
RTVSPost2010Prop39
140
1.0
102
RTVSPost2010PropOp39
 70
     1
102
RTVSPost2010Prop40
 90
        0
102
RTVSPost2010PropOp40
 70
     1
102
RTVSPost2010Prop41ColorIndex
 90
       18
102
RTVSPost2010Prop41ColorRGB
 90
        0
102
RTVSPost2010PropOp41
 70
     1
102
RTVSPost2010Prop42
 90
       50
102
RTVSPost2010PropOp42
 70
     1
102
RTVSPost2010Prop43
 90
        3
102
RTVSPost2010PropOp43
 70
     1
102
RTVSPost2010Prop44ColorIndex
 90
        5
102
RTVSPost2010Prop44ColorRGB
 90
      255
102
RTVSPost2010PropOp44
 70
     1
102
RTVSPost2010Prop45
280
     0
102
RTVSPost2010PropOp45
 70
     1
102
RTVSPost2010Prop46
 90
       50
102
RTVSPost2010PropOp46
 70
     1
102
RTVSPost2010Prop47
 90
       50
102
RTVSPost2010PropOp47
 70
     1
102
RTVSPost2010Prop48
 90
       50
102
RTVSPost2010PropOp48
 70
     1
102
RTVSPost2010Prop49
280
     0
102
RTVSPost2010PropOp49
 70
     1
102
RTVSPost2010Prop50
 90
       50
102
RTVSPost2010PropOp50
 70
     1
102
RTVSPost2010Prop51ColorIndex
 90
      256
102
RTVSPost2010Prop51ColorRGB
 90
-16777216
102
RTVSPost2010PropOp51
 70
     0
102
RTVSPost2010Prop52
140
1.0
102
RTVSPost2010PropOp52
 70
     0
102
RTVSPost2010Prop53
 90
        2
102
RTVSPost2010PropOp53
 70
     1
102
RTVSPost2010Prop54
  1
strokes_ogs.tif
102
RTVSPost2010PropOp54
 70
     1
102
RTVSPost2010Prop55
280
     0
102
RTVSPost2010PropOp55
 70
     1
102
RTVSPost2010Prop56
140
1.0
102
RTVSPost2010PropOp56
 70
     1
102
RTVSPost2010Prop57
140
1.0
102
RTVSPost2010PropOp57
 70
     1
102
RTVSPropertyOp0
 70
     1
102
RTVSPropertyOp1
 70
     1
102
RTVSPropertyOp2
 70
     1
102
RTVSPropertyOp3
 70
     1
102
RTVSPropertyOp4
 70
     1
102
RTVSPropertyOp5
 70
     1
102
RTVSPropertyOp6
 70
     1
102
RTVSPropertyOp7
 70
     1
102
RTVSPropertyOp8
 70
     1
102
RTVSPropertyOp9
 70
     1
102
RTVSPropertyOp10
 70
     1
102
RTVSPropertyOp11
 70
     1
102
RTVSPropertyOp12
 70
     1
102
RTVSPropertyOp13
 70
     1
102
RTVSPropertyOp14
 70
     1
102
RTVSPropertyOp15
 70
     1
102
RTVSPropertyOp16
 70
     1
102
RTVSPropertyOp17
 70
     1
102
RTVSPropertyOp18
 70
     1
102
RTVSPropertyOp19
 70
     1
102
RTVSPropertyOp20
 70
     1
102
RTVSPropertyOp21
 70
     1
102
RTVSPropertyOp22
 70
     1
102
RTVSPropertyOp23
 70
     1
102
RTVSPropertyOp24
 70
     1
102
RTVSPropertyOp25
 70
     1
102
RTVSPropertyOp26
 70
     1
102
RTVSPropertyOp27
 70
     1
102
RTVSPropertyOp28
 70
     1
102
RTVSPropertyOp29
 70
     1
102
RTVSPropertyOp30
 70
     1
102
RTVSPropertyOp31
 70
     1
102
RTVSPropertyOp32
 70
     1
102
RTVSPropertyOp33
 70
     1
102
RTVSPropertyOp34
 70
     1
102
RTVSPropertyOp35
 70
     1
102
RTVSPropertyOp36
 70
     1
102
RTVSPropertyOp37
 70
     1
102
RTVSPropertyOp38
 70
     1
102
RTVSPropertyOp39
 70
     1
102
RTVSPropertyOp40
 70
     1
102
RTVSPropertyOp41
 70
     1
102
RTVSPropertyOp42
 70
     1
102
RTVSPropertyOp43
 70
     1
102
RTVSPropertyOp44
 70
     1
102
RTVSPropertyOp45
 70
     1
102
RTVSPropertyOp46
 70
     1
102
RTVSPropertyOp47
 70
     1
102
RTVSPropertyOp48
 70
     1
102
RTVSPropertyOp49
 70
     1
102
RTVSPropertyOp50
 70
     1
102
RTVSPropertyOp51
 70
     0
102
RTVSPropertyOp52
 70
     0
102
RTVSPropertyOp53
 70
     1
102
RTVSPropertyOp54
 70
     1
102
RTVSPropertyOp55
 70
     1
102
RTVSPropertyOp56
 70
     1
102
RTVSPropertyOp57
 70
     1
102
RTVSPropertyOp58
 70
     1
102
RTVSPropertyOp59
 70
     1
102
RTVSPropertyOp60
 70
     1
102
RTVSPropertyOp61
 70
     1
102
RTVSPropertyOp62
 70
     1
  0
XRECORD
  5
557
102
{ACAD_REACTORS
330
556
102
}
330
556
100
AcDbXrecord
280
     1
102
RTVSPost2010Prop28
280
     0
102
RTVSPost2010PropOp28
 70
     1
102
RTVSPost2010Prop29
280
     1
102
RTVSPost2010PropOp29
 70
     1
102
RTVSPost2010Prop30
280
     1
102
RTVSPost2010PropOp30
 70
     1
102
RTVSPost2010Prop31
280
     0
102
RTVSPost2010PropOp31
 70
     1
102
RTVSPost2010Prop32
280
     0
102
RTVSPost2010PropOp32
 70
     1
102
RTVSPost2010Prop33
280
     0
102
RTVSPost2010PropOp33
 70
     1
102
RTVSPost2010Prop34
280
     0
102
RTVSPost2010PropOp34
 70
     1
102
RTVSPost2010Prop35
280
     0
102
RTVSPost2010PropOp35
 70
     1
102
RTVSPost2010Prop36
280
     0
102
RTVSPost2010PropOp36
 70
     1
102
RTVSPost2010Prop37
 90
       50
102
RTVSPost2010PropOp37
 70
     1
102
RTVSPost2010Prop38
140
0.0
102
RTVSPost2010PropOp38
 70
     1
102
RTVSPost2010Prop39
140
1.0
102
RTVSPost2010PropOp39
 70
     1
102
RTVSPost2010Prop40
 90
        0
102
RTVSPost2010PropOp40
 70
     1
102
RTVSPost2010Prop41ColorIndex
 90
       18
102
RTVSPost2010Prop41ColorRGB
 90
        0
102
RTVSPost2010PropOp41
 70
     1
102
RTVSPost2010Prop42
 90
       50
102
RTVSPost2010PropOp42
 70
     1
102
RTVSPost2010Prop43
 90
        3
102
RTVSPost2010PropOp43
 70
     1
102
RTVSPost2010Prop44ColorIndex
 90
        5
102
RTVSPost2010Prop44ColorRGB
 90
      255
102
RTVSPost2010PropOp44
 70
     1
102
RTVSPost2010Prop45
280
     0
102
RTVSPost2010PropOp45
 70
     1
102
RTVSPost2010Prop46
 90
       50
102
RTVSPost2010PropOp46
 70
     1
102
RTVSPost2010Prop47
 90
       50
102
RTVSPost2010PropOp47
 70
     1
102
RTVSPost2010Prop48
 90
       50
102
RTVSPost2010PropOp48
 70
     1
102
RTVSPost2010Prop49
280
     0
102
RTVSPost2010PropOp49
 70
     1
102
RTVSPost2010Prop50
 90
       50
102
RTVSPost2010PropOp50
 70
     1
102
RTVSPost2010Prop51ColorIndex
 90
      256
102
RTVSPost2010Prop51ColorRGB
 90
-16777216
102
RTVSPost2010PropOp51
 70
     0
102
RTVSPost2010Prop52
140
1.0
102
RTVSPost2010PropOp52
 70
     0
102
RTVSPost2010Prop53
 90
        2
102
RTVSPost2010PropOp53
 70
     1
102
RTVSPost2010Prop54
  1
strokes_ogs.tif
102
RTVSPost2010PropOp54
 70
     1
102
RTVSPost2010Prop55
280
     0
102
RTVSPost2010PropOp55
 70
     1
102
RTVSPost2010Prop56
140
1.0
102
RTVSPost2010PropOp56
 70
     1
102
RTVSPost2010Prop57
140
1.0
102
RTVSPost2010PropOp57
 70
     1
102
RTVSPropertyOp0
 70
     1
102
RTVSPropertyOp1
 70
     1
102
RTVSPropertyOp2
 70
     1
102
RTVSPropertyOp3
 70
     1
102
RTVSPropertyOp4
 70
     1
102
RTVSPropertyOp5
 70
     1
102
RTVSPropertyOp6
 70
     1
102
RTVSPropertyOp7
 70
     1
102
RTVSPropertyOp8
 70
     1
102
RTVSPropertyOp9
 70
     1
102
RTVSPropertyOp10
 70
     1
102
RTVSPropertyOp11
 70
     1
102
RTVSPropertyOp12
 70
     1
102
RTVSPropertyOp13
 70
     1
102
RTVSPropertyOp14
 70
     1
102
RTVSPropertyOp15
 70
     1
102
RTVSPropertyOp16
 70
     1
102
RTVSPropertyOp17
 70
     1
102
RTVSPropertyOp18
 70
     1
102
RTVSPropertyOp19
 70
     1
102
RTVSPropertyOp20
 70
     1
102
RTVSPropertyOp21
 70
     1
102
RTVSPropertyOp22
 70
     1
102
RTVSPropertyOp23
 70
     1
102
RTVSPropertyOp24
 70
     1
102
RTVSPropertyOp25
 70
     1
102
RTVSPropertyOp26
 70
     1
102
RTVSPropertyOp27
 70
     1
102
RTVSPropertyOp28
 70
     1
102
RTVSPropertyOp29
 70
     1
102
RTVSPropertyOp30
 70
     1
102
RTVSPropertyOp31
 70
     1
102
RTVSPropertyOp32
 70
     1
102
RTVSPropertyOp33
 70
     1
102
RTVSPropertyOp34
 70
     1
102
RTVSPropertyOp35
 70
     1
102
RTVSPropertyOp36
 70
     1
102
RTVSPropertyOp37
 70
     1
102
RTVSPropertyOp38
 70
     1
102
RTVSPropertyOp39
 70
     1
102
RTVSPropertyOp40
 70
     1
102
RTVSPropertyOp41
 70
     1
102
RTVSPropertyOp42
 70
     1
102
RTVSPropertyOp43
 70
     1
102
RTVSPropertyOp44
 70
     1
102
RTVSPropertyOp45
 70
     1
102
RTVSPropertyOp46
 70
     1
102
RTVSPropertyOp47
 70
     1
102
RTVSPropertyOp48
 70
     1
102
RTVSPropertyOp49
 70
     1
102
RTVSPropertyOp50
 70
     1
102
RTVSPropertyOp51
 70
     0
102
RTVSPropertyOp52
 70
     0
102
RTVSPropertyOp53
 70
     1
102
RTVSPropertyOp54
 70
     1
102
RTVSPropertyOp55
 70
     1
102
RTVSPropertyOp56
 70
     1
102
RTVSPropertyOp57
 70
     1
102
RTVSPropertyOp58
 70
     1
102
RTVSPropertyOp59
 70
     1
102
RTVSPropertyOp60
 70
     1
102
RTVSPropertyOp61
 70
     1
102
RTVSPropertyOp62
 70
     1
  0
XRECORD
  5
565
102
{ACAD_REACTORS
330
564
102
}
330
564
100
AcDbXrecord
280
     1
102
RTVSPost2010Prop28
280
     0
102
RTVSPost2010PropOp28
 70
     1
102
RTVSPost2010Prop29
280
     1
102
RTVSPost2010PropOp29
 70
     1
102
RTVSPost2010Prop30
280
     1
102
RTVSPost2010PropOp30
 70
     1
102
RTVSPost2010Prop31
280
     0
102
RTVSPost2010PropOp31
 70
     1
102
RTVSPost2010Prop32
280
     0
102
RTVSPost2010PropOp32
 70
     1
102
RTVSPost2010Prop33
280
     0
102
RTVSPost2010PropOp33
 70
     1
102
RTVSPost2010Prop34
280
     0
102
RTVSPost2010PropOp34
 70
     1
102
RTVSPost2010Prop35
280
     0
102
RTVSPost2010PropOp35
 70
     1
102
RTVSPost2010Prop36
280
     0
102
RTVSPost2010PropOp36
 70
     1
102
RTVSPost2010Prop37
 90
       50
102
RTVSPost2010PropOp37
 70
     1
102
RTVSPost2010Prop38
140
0.0
102
RTVSPost2010PropOp38
 70
     1
102
RTVSPost2010Prop39
140
1.0
102
RTVSPost2010PropOp39
 70
     1
102
RTVSPost2010Prop40
 90
        0
102
RTVSPost2010PropOp40
 70
     1
102
RTVSPost2010Prop41ColorIndex
 90
       18
102
RTVSPost2010Prop41ColorRGB
 90
        0
102
RTVSPost2010PropOp41
 70
     1
102
RTVSPost2010Prop42
 90
       50
102
RTVSPost2010PropOp42
 70
     1
102
RTVSPost2010Prop43
 90
        3
102
RTVSPost2010PropOp43
 70
     1
102
RTVSPost2010Prop44ColorIndex
 90
        5
102
RTVSPost2010Prop44ColorRGB
 90
      255
102
RTVSPost2010PropOp44
 70
     1
102
RTVSPost2010Prop45
280
     0
102
RTVSPost2010PropOp45
 70
     1
102
RTVSPost2010Prop46
 90
       50
102
RTVSPost2010PropOp46
 70
     1
102
RTVSPost2010Prop47
 90
       50
102
RTVSPost2010PropOp47
 70
     1
102
RTVSPost2010Prop48
 90
       50
102
RTVSPost2010PropOp48
 70
     1
102
RTVSPost2010Prop49
280
     0
102
RTVSPost2010PropOp49
 70
     1
102
RTVSPost2010Prop50
 90
       50
102
RTVSPost2010PropOp50
 70
     1
102
RTVSPost2010Prop51ColorIndex
 90
      256
102
RTVSPost2010Prop51ColorRGB
 90
-16777216
102
RTVSPost2010PropOp51
 70
     0
102
RTVSPost2010Prop52
140
1.0
102
RTVSPost2010PropOp52
 70
     0
102
RTVSPost2010Prop53
 90
        2
102
RTVSPost2010PropOp53
 70
     1
102
RTVSPost2010Prop54
  1
strokes_ogs.tif
102
RTVSPost2010PropOp54
 70
     1
102
RTVSPost2010Prop55
280
     0
102
RTVSPost2010PropOp55
 70
     1
102
RTVSPost2010Prop56
140
1.0
102
RTVSPost2010PropOp56
 70
     1
102
RTVSPost2010Prop57
140
1.0
102
RTVSPost2010PropOp57
 70
     1
102
RTVSPropertyOp0
 70
     1
102
RTVSPropertyOp1
 70
     1
102
RTVSPropertyOp2
 70
     1
102
RTVSPropertyOp3
 70
     1
102
RTVSPropertyOp4
 70
     1
102
RTVSPropertyOp5
 70
     1
102
RTVSPropertyOp6
 70
     1
102
RTVSPropertyOp7
 70
     1
102
RTVSPropertyOp8
 70
     1
102
RTVSPropertyOp9
 70
     1
102
RTVSPropertyOp10
 70
     1
102
RTVSPropertyOp11
 70
     1
102
RTVSPropertyOp12
 70
     1
102
RTVSPropertyOp13
 70
     1
102
RTVSPropertyOp14
 70
     1
102
RTVSPropertyOp15
 70
     1
102
RTVSPropertyOp16
 70
     1
102
RTVSPropertyOp17
 70
     1
102
RTVSPropertyOp18
 70
     1
102
RTVSPropertyOp19
 70
     1
102
RTVSPropertyOp20
 70
     1
102
RTVSPropertyOp21
 70
     1
102
RTVSPropertyOp22
 70
     1
102
RTVSPropertyOp23
 70
     1
102
RTVSPropertyOp24
 70
     1
102
RTVSPropertyOp25
 70
     1
102
RTVSPropertyOp26
 70
     1
102
RTVSPropertyOp27
 70
     1
102
RTVSPropertyOp28
 70
     1
102
RTVSPropertyOp29
 70
     1
102
RTVSPropertyOp30
 70
     1
102
RTVSPropertyOp31
 70
     1
102
RTVSPropertyOp32
 70
     1
102
RTVSPropertyOp33
 70
     1
102
RTVSPropertyOp34
 70
     1
102
RTVSPropertyOp35
 70
     1
102
RTVSPropertyOp36
 70
     1
102
RTVSPropertyOp37
 70
     1
102
RTVSPropertyOp38
 70
     1
102
RTVSPropertyOp39
 70
     1
102
RTVSPropertyOp40
 70
     1
102
RTVSPropertyOp41
 70
     1
102
RTVSPropertyOp42
 70
     1
102
RTVSPropertyOp43
 70
     1
102
RTVSPropertyOp44
 70
     1
102
RTVSPropertyOp45
 70
     1
102
RTVSPropertyOp46
 70
     1
102
RTVSPropertyOp47
 70
     1
102
RTVSPropertyOp48
 70
     1
102
RTVSPropertyOp49
 70
     1
102
RTVSPropertyOp50
 70
     1
102
RTVSPropertyOp51
 70
     0
102
RTVSPropertyOp52
 70
     0
102
RTVSPropertyOp53
 70
     1
102
RTVSPropertyOp54
 70
     1
102
RTVSPropertyOp55
 70
     1
102
RTVSPropertyOp56
 70
     1
102
RTVSPropertyOp57
 70
     1
102
RTVSPropertyOp58
 70
     1
102
RTVSPropertyOp59
 70
     1
102
RTVSPropertyOp60
 70
     1
102
RTVSPropertyOp61
 70
     1
102
RTVSPropertyOp62
 70
     1
  0
XRECORD
  5
56D
102
{ACAD_REACTORS
330
56C
102
}
330
56C
100
AcDbXrecord
280
     1
102
RTVSPost2010Prop28
280
     0
102
RTVSPost2010PropOp28
 70
     1
102
RTVSPost2010Prop29
280
     1
102
RTVSPost2010PropOp29
 70
     1
102
RTVSPost2010Prop30
280
     1
102
RTVSPost2010PropOp30
 70
     1
102
RTVSPost2010Prop31
280
     0
102
RTVSPost2010PropOp31
 70
     1
102
RTVSPost2010Prop32
280
     0
102
RTVSPost2010PropOp32
 70
     1
102
RTVSPost2010Prop33
280
     0
102
RTVSPost2010PropOp33
 70
     1
102
RTVSPost2010Prop34
280
     0
102
RTVSPost2010PropOp34
 70
     1
102
RTVSPost2010Prop35
280
     0
102
RTVSPost2010PropOp35
 70
     1
102
RTVSPost2010Prop36
280
     0
102
RTVSPost2010PropOp36
 70
     1
102
RTVSPost2010Prop37
 90
       50
102
RTVSPost2010PropOp37
 70
     1
102
RTVSPost2010Prop38
140
0.0
102
RTVSPost2010PropOp38
 70
     1
102
RTVSPost2010Prop39
140
1.0
102
RTVSPost2010PropOp39
 70
     1
102
RTVSPost2010Prop40
 90
        0
102
RTVSPost2010PropOp40
 70
     1
102
RTVSPost2010Prop41ColorIndex
 90
       18
102
RTVSPost2010Prop41ColorRGB
 90
        0
102
RTVSPost2010PropOp41
 70
     1
102
RTVSPost2010Prop42
 90
       50
102
RTVSPost2010PropOp42
 70
     1
102
RTVSPost2010Prop43
 90
        3
102
RTVSPost2010PropOp43
 70
     1
102
RTVSPost2010Prop44ColorIndex
 90
        5
102
RTVSPost2010Prop44ColorRGB
 90
      255
102
RTVSPost2010PropOp44
 70
     1
102
RTVSPost2010Prop45
280
     0
102
RTVSPost2010PropOp45
 70
     1
102
RTVSPost2010Prop46
 90
       50
102
RTVSPost2010PropOp46
 70
     1
102
RTVSPost2010Prop47
 90
       50
102
RTVSPost2010PropOp47
 70
     1
102
RTVSPost2010Prop48
 90
       50
102
RTVSPost2010PropOp48
 70
     1
102
RTVSPost2010Prop49
280
     0
102
RTVSPost2010PropOp49
 70
     1
102
RTVSPost2010Prop50
 90
       50
102
RTVSPost2010PropOp50
 70
     1
102
RTVSPost2010Prop51ColorIndex
 90
      256
102
RTVSPost2010Prop51ColorRGB
 90
-16777216
102
RTVSPost2010PropOp51
 70
     0
102
RTVSPost2010Prop52
140
1.0
102
RTVSPost2010PropOp52
 70
     0
102
RTVSPost2010Prop53
 90
        2
102
RTVSPost2010PropOp53
 70
     1
102
RTVSPost2010Prop54
  1
strokes_ogs.tif
102
RTVSPost2010PropOp54
 70
     1
102
RTVSPost2010Prop55
280
     0
102
RTVSPost2010PropOp55
 70
     1
102
RTVSPost2010Prop56
140
1.0
102
RTVSPost2010PropOp56
 70
     1
102
RTVSPost2010Prop57
140
1.0
102
RTVSPost2010PropOp57
 70
     1
102
RTVSPropertyOp0
 70
     1
102
RTVSPropertyOp1
 70
     1
102
RTVSPropertyOp2
 70
     1
102
RTVSPropertyOp3
 70
     1
102
RTVSPropertyOp4
 70
     1
102
RTVSPropertyOp5
 70
     1
102
RTVSPropertyOp6
 70
     1
102
RTVSPropertyOp7
 70
     1
102
RTVSPropertyOp8
 70
     1
102
RTVSPropertyOp9
 70
     1
102
RTVSPropertyOp10
 70
     1
102
RTVSPropertyOp11
 70
     1
102
RTVSPropertyOp12
 70
     1
102
RTVSPropertyOp13
 70
     1
102
RTVSPropertyOp14
 70
     1
102
RTVSPropertyOp15
 70
     1
102
RTVSPropertyOp16
 70
     1
102
RTVSPropertyOp17
 70
     1
102
RTVSPropertyOp18
 70
     1
102
RTVSPropertyOp19
 70
     1
102
RTVSPropertyOp20
 70
     1
102
RTVSPropertyOp21
 70
     1
102
RTVSPropertyOp22
 70
     1
102
RTVSPropertyOp23
 70
     1
102
RTVSPropertyOp24
 70
     1
102
RTVSPropertyOp25
 70
     1
102
RTVSPropertyOp26
 70
     1
102
RTVSPropertyOp27
 70
     1
102
RTVSPropertyOp28
 70
     1
102
RTVSPropertyOp29
 70
     1
102
RTVSPropertyOp30
 70
     1
102
RTVSPropertyOp31
 70
     1
102
RTVSPropertyOp32
 70
     1
102
RTVSPropertyOp33
 70
     1
102
RTVSPropertyOp34
 70
     1
102
RTVSPropertyOp35
 70
     1
102
RTVSPropertyOp36
 70
     1
102
RTVSPropertyOp37
 70
     1
102
RTVSPropertyOp38
 70
     1
102
RTVSPropertyOp39
 70
     1
102
RTVSPropertyOp40
 70
     1
102
RTVSPropertyOp41
 70
     1
102
RTVSPropertyOp42
 70
     1
102
RTVSPropertyOp43
 70
     1
102
RTVSPropertyOp44
 70
     1
102
RTVSPropertyOp45
 70
     1
102
RTVSPropertyOp46
 70
     1
102
RTVSPropertyOp47
 70
     1
102
RTVSPropertyOp48
 70
     1
102
RTVSPropertyOp49
 70
     1
102
RTVSPropertyOp50
 70
     1
102
RTVSPropertyOp51
 70
     0
102
RTVSPropertyOp52
 70
     0
102
RTVSPropertyOp53
 70
     1
102
RTVSPropertyOp54
 70
     1
102
RTVSPropertyOp55
 70
     1
102
RTVSPropertyOp56
 70
     1
102
RTVSPropertyOp57
 70
     1
102
RTVSPropertyOp58
 70
     1
102
RTVSPropertyOp59
 70
     1
102
RTVSPropertyOp60
 70
     1
102
RTVSPropertyOp61
 70
     1
102
RTVSPropertyOp62
 70
     1
  0
XRECORD
  5
55F
102
{ACAD_REACTORS
330
55E
102
}
330
55E
100
AcDbXrecord
280
     1
102
RTVSPost2010Prop28
280
     0
102
RTVSPost2010PropOp28
 70
     1
102
RTVSPost2010Prop29
280
     1
102
RTVSPost2010PropOp29
 70
     1
102
RTVSPost2010Prop30
280
     1
102
RTVSPost2010PropOp30
 70
     1
102
RTVSPost2010Prop31
280
     0
102
RTVSPost2010PropOp31
 70
     1
102
RTVSPost2010Prop32
280
     0
102
RTVSPost2010PropOp32
 70
     1
102
RTVSPost2010Prop33
280
     0
102
RTVSPost2010PropOp33
 70
     1
102
RTVSPost2010Prop34
280
     0
102
RTVSPost2010PropOp34
 70
     1
102
RTVSPost2010Prop35
280
     0
102
RTVSPost2010PropOp35
 70
     1
102
RTVSPost2010Prop36
280
     0
102
RTVSPost2010PropOp36
 70
     1
102
RTVSPost2010Prop37
 90
       50
102
RTVSPost2010PropOp37
 70
     1
102
RTVSPost2010Prop38
140
0.0
102
RTVSPost2010PropOp38
 70
     1
102
RTVSPost2010Prop39
140
1.0
102
RTVSPost2010PropOp39
 70
     1
102
RTVSPost2010Prop40
 90
        0
102
RTVSPost2010PropOp40
 70
     1
102
RTVSPost2010Prop41ColorIndex
 90
       18
102
RTVSPost2010Prop41ColorRGB
 90
        0
102
RTVSPost2010PropOp41
 70
     1
102
RTVSPost2010Prop42
 90
       50
102
RTVSPost2010PropOp42
 70
     1
102
RTVSPost2010Prop43
 90
        3
102
RTVSPost2010PropOp43
 70
     1
102
RTVSPost2010Prop44ColorIndex
 90
        5
102
RTVSPost2010Prop44ColorRGB
 90
      255
102
RTVSPost2010PropOp44
 70
     1
102
RTVSPost2010Prop45
280
     0
102
RTVSPost2010PropOp45
 70
     1
102
RTVSPost2010Prop46
 90
       50
102
RTVSPost2010PropOp46
 70
     1
102
RTVSPost2010Prop47
 90
       50
102
RTVSPost2010PropOp47
 70
     1
102
RTVSPost2010Prop48
 90
       50
102
RTVSPost2010PropOp48
 70
     1
102
RTVSPost2010Prop49
280
     0
102
RTVSPost2010PropOp49
 70
     1
102
RTVSPost2010Prop50
 90
       50
102
RTVSPost2010PropOp50
 70
     1
102
RTVSPost2010Prop51ColorIndex
 90
      256
102
RTVSPost2010Prop51ColorRGB
 90
-16777216
102
RTVSPost2010PropOp51
 70
     0
102
RTVSPost2010Prop52
140
1.0
102
RTVSPost2010PropOp52
 70
     0
102
RTVSPost2010Prop53
 90
        2
102
RTVSPost2010PropOp53
 70
     1
102
RTVSPost2010Prop54
  1
strokes_ogs.tif
102
RTVSPost2010PropOp54
 70
     1
102
RTVSPost2010Prop55
280
     0
102
RTVSPost2010PropOp55
 70
     1
102
RTVSPost2010Prop56
140
1.0
102
RTVSPost2010PropOp56
 70
     1
102
RTVSPost2010Prop57
140
1.0
102
RTVSPost2010PropOp57
 70
     1
102
RTVSPropertyOp0
 70
     1
102
RTVSPropertyOp1
 70
     1
102
RTVSPropertyOp2
 70
     1
102
RTVSPropertyOp3
 70
     1
102
RTVSPropertyOp4
 70
     1
102
RTVSPropertyOp5
 70
     1
102
RTVSPropertyOp6
 70
     1
102
RTVSPropertyOp7
 70
     1
102
RTVSPropertyOp8
 70
     1
102
RTVSPropertyOp9
 70
     1
102
RTVSPropertyOp10
 70
     1
102
RTVSPropertyOp11
 70
     1
102
RTVSPropertyOp12
 70
     1
102
RTVSPropertyOp13
 70
     1
102
RTVSPropertyOp14
 70
     1
102
RTVSPropertyOp15
 70
     1
102
RTVSPropertyOp16
 70
     1
102
RTVSPropertyOp17
 70
     1
102
RTVSPropertyOp18
 70
     1
102
RTVSPropertyOp19
 70
     1
102
RTVSPropertyOp20
 70
     1
102
RTVSPropertyOp21
 70
     1
102
RTVSPropertyOp22
 70
     1
102
RTVSPropertyOp23
 70
     1
102
RTVSPropertyOp24
 70
     1
102
RTVSPropertyOp25
 70
     1
102
RTVSPropertyOp26
 70
     1
102
RTVSPropertyOp27
 70
     1
102
RTVSPropertyOp28
 70
     1
102
RTVSPropertyOp29
 70
     1
102
RTVSPropertyOp30
 70
     1
102
RTVSPropertyOp31
 70
     1
102
RTVSPropertyOp32
 70
     1
102
RTVSPropertyOp33
 70
     1
102
RTVSPropertyOp34
 70
     1
102
RTVSPropertyOp35
 70
     1
102
RTVSPropertyOp36
 70
     1
102
RTVSPropertyOp37
 70
     1
102
RTVSPropertyOp38
 70
     1
102
RTVSPropertyOp39
 70
     1
102
RTVSPropertyOp40
 70
     1
102
RTVSPropertyOp41
 70
     1
102
RTVSPropertyOp42
 70
     1
102
RTVSPropertyOp43
 70
     1
102
RTVSPropertyOp44
 70
     1
102
RTVSPropertyOp45
 70
     1
102
RTVSPropertyOp46
 70
     1
102
RTVSPropertyOp47
 70
     1
102
RTVSPropertyOp48
 70
     1
102
RTVSPropertyOp49
 70
     1
102
RTVSPropertyOp50
 70
     1
102
RTVSPropertyOp51
 70
     0
102
RTVSPropertyOp52
 70
     0
102
RTVSPropertyOp53
 70
     1
102
RTVSPropertyOp54
 70
     1
102
RTVSPropertyOp55
 70
     1
102
RTVSPropertyOp56
 70
     1
102
RTVSPropertyOp57
 70
     1
102
RTVSPropertyOp58
 70
     1
102
RTVSPropertyOp59
 70
     1
102
RTVSPropertyOp60
 70
     1
102
RTVSPropertyOp61
 70
     1
102
RTVSPropertyOp62
 70
     1
  0
XRECORD
  5
563
102
{ACAD_REACTORS
330
562
102
}
330
562
100
AcDbXrecord
280
     1
102
RTVSPost2010Prop28
280
     0
102
RTVSPost2010PropOp28
 70
     1
102
RTVSPost2010Prop29
280
     1
102
RTVSPost2010PropOp29
 70
     1
102
RTVSPost2010Prop30
280
     1
102
RTVSPost2010PropOp30
 70
     1
102
RTVSPost2010Prop31
280
     0
102
RTVSPost2010PropOp31
 70
     1
102
RTVSPost2010Prop32
280
     0
102
RTVSPost2010PropOp32
 70
     1
102
RTVSPost2010Prop33
280
     0
102
RTVSPost2010PropOp33
 70
     1
102
RTVSPost2010Prop34
280
     0
102
RTVSPost2010PropOp34
 70
     1
102
RTVSPost2010Prop35
280
     0
102
RTVSPost2010PropOp35
 70
     1
102
RTVSPost2010Prop36
280
     0
102
RTVSPost2010PropOp36
 70
     1
102
RTVSPost2010Prop37
 90
       50
102
RTVSPost2010PropOp37
 70
     1
102
RTVSPost2010Prop38
140
0.0
102
RTVSPost2010PropOp38
 70
     1
102
RTVSPost2010Prop39
140
1.0
102
RTVSPost2010PropOp39
 70
     1
102
RTVSPost2010Prop40
 90
        0
102
RTVSPost2010PropOp40
 70
     1
102
RTVSPost2010Prop41ColorIndex
 90
       18
102
RTVSPost2010Prop41ColorRGB
 90
        0
102
RTVSPost2010PropOp41
 70
     1
102
RTVSPost2010Prop42
 90
       50
102
RTVSPost2010PropOp42
 70
     1
102
RTVSPost2010Prop43
 90
        3
102
RTVSPost2010PropOp43
 70
     1
102
RTVSPost2010Prop44ColorIndex
 90
        5
102
RTVSPost2010Prop44ColorRGB
 90
      255
102
RTVSPost2010PropOp44
 70
     1
102
RTVSPost2010Prop45
280
     0
102
RTVSPost2010PropOp45
 70
     1
102
RTVSPost2010Prop46
 90
       50
102
RTVSPost2010PropOp46
 70
     1
102
RTVSPost2010Prop47
 90
       50
102
RTVSPost2010PropOp47
 70
     1
102
RTVSPost2010Prop48
 90
       50
102
RTVSPost2010PropOp48
 70
     1
102
RTVSPost2010Prop49
280
     0
102
RTVSPost2010PropOp49
 70
     1
102
RTVSPost2010Prop50
 90
       50
102
RTVSPost2010PropOp50
 70
     1
102
RTVSPost2010Prop51ColorIndex
 90
      256
102
RTVSPost2010Prop51ColorRGB
 90
-16777216
102
RTVSPost2010PropOp51
 70
     0
102
RTVSPost2010Prop52
140
1.0
102
RTVSPost2010PropOp52
 70
     0
102
RTVSPost2010Prop53
 90
        2
102
RTVSPost2010PropOp53
 70
     1
102
RTVSPost2010Prop54
  1
strokes_ogs.tif
102
RTVSPost2010PropOp54
 70
     1
102
RTVSPost2010Prop55
280
     0
102
RTVSPost2010PropOp55
 70
     1
102
RTVSPost2010Prop56
140
1.0
102
RTVSPost2010PropOp56
 70
     1
102
RTVSPost2010Prop57
140
1.0
102
RTVSPost2010PropOp57
 70
     1
102
RTVSPropertyOp0
 70
     1
102
RTVSPropertyOp1
 70
     1
102
RTVSPropertyOp2
 70
     1
102
RTVSPropertyOp3
 70
     1
102
RTVSPropertyOp4
 70
     1
102
RTVSPropertyOp5
 70
     1
102
RTVSPropertyOp6
 70
     1
102
RTVSPropertyOp7
 70
     1
102
RTVSPropertyOp8
 70
     1
102
RTVSPropertyOp9
 70
     1
102
RTVSPropertyOp10
 70
     1
102
RTVSPropertyOp11
 70
     1
102
RTVSPropertyOp12
 70
     1
102
RTVSPropertyOp13
 70
     1
102
RTVSPropertyOp14
 70
     1
102
RTVSPropertyOp15
 70
     1
102
RTVSPropertyOp16
 70
     1
102
RTVSPropertyOp17
 70
     1
102
RTVSPropertyOp18
 70
     1
102
RTVSPropertyOp19
 70
     1
102
RTVSPropertyOp20
 70
     1
102
RTVSPropertyOp21
 70
     1
102
RTVSPropertyOp22
 70
     1
102
RTVSPropertyOp23
 70
     1
102
RTVSPropertyOp24
 70
     1
102
RTVSPropertyOp25
 70
     1
102
RTVSPropertyOp26
 70
     1
102
RTVSPropertyOp27
 70
     1
102
RTVSPropertyOp28
 70
     1
102
RTVSPropertyOp29
 70
     1
102
RTVSPropertyOp30
 70
     1
102
RTVSPropertyOp31
 70
     1
102
RTVSPropertyOp32
 70
     1
102
RTVSPropertyOp33
 70
     1
102
RTVSPropertyOp34
 70
     1
102
RTVSPropertyOp35
 70
     1
102
RTVSPropertyOp36
 70
     1
102
RTVSPropertyOp37
 70
     1
102
RTVSPropertyOp38
 70
     1
102
RTVSPropertyOp39
 70
     1
102
RTVSPropertyOp40
 70
     1
102
RTVSPropertyOp41
 70
     1
102
RTVSPropertyOp42
 70
     1
102
RTVSPropertyOp43
 70
     1
102
RTVSPropertyOp44
 70
     1
102
RTVSPropertyOp45
 70
     1
102
RTVSPropertyOp46
 70
     1
102
RTVSPropertyOp47
 70
     1
102
RTVSPropertyOp48
 70
     1
102
RTVSPropertyOp49
 70
     1
102
RTVSPropertyOp50
 70
     1
102
RTVSPropertyOp51
 70
     0
102
RTVSPropertyOp52
 70
     0
102
RTVSPropertyOp53
 70
     1
102
RTVSPropertyOp54
 70
     1
102
RTVSPropertyOp55
 70
     1
102
RTVSPropertyOp56
 70
     1
102
RTVSPropertyOp57
 70
     1
102
RTVSPropertyOp58
 70
     1
102
RTVSPropertyOp59
 70
     1
102
RTVSPropertyOp60
 70
     1
102
RTVSPropertyOp61
 70
     1
102
RTVSPropertyOp62
 70
     1
  0
XRECORD
  5
57D
102
{ACAD_REACTORS
330
57C
102
}
330
57C
100
AcDbXrecord
280
     1
102
RTVSPost2010Prop28
280
     0
102
RTVSPost2010PropOp28
 70
     1
102
RTVSPost2010Prop29
280
     1
102
RTVSPost2010PropOp29
 70
     1
102
RTVSPost2010Prop30
280
     1
102
RTVSPost2010PropOp30
 70
     1
102
RTVSPost2010Prop31
280
     0
102
RTVSPost2010PropOp31
 70
     1
102
RTVSPost2010Prop32
280
     0
102
RTVSPost2010PropOp32
 70
     1
102
RTVSPost2010Prop33
280
     0
102
RTVSPost2010PropOp33
 70
     1
102
RTVSPost2010Prop34
280
     0
102
RTVSPost2010PropOp34
 70
     1
102
RTVSPost2010Prop35
280
     0
102
RTVSPost2010PropOp35
 70
     1
102
RTVSPost2010Prop36
280
     0
102
RTVSPost2010PropOp36
 70
     1
102
RTVSPost2010Prop37
 90
       50
102
RTVSPost2010PropOp37
 70
     0
102
RTVSPost2010Prop38
140
0.0
102
RTVSPost2010PropOp38
 70
     0
102
RTVSPost2010Prop39
140
1.0
102
RTVSPost2010PropOp39
 70
     0
102
RTVSPost2010Prop40
 90
        0
102
RTVSPost2010PropOp40
 70
     0
102
RTVSPost2010Prop41ColorIndex
 90
       18
102
RTVSPost2010Prop41ColorRGB
 90
        0
102
RTVSPost2010PropOp41
 70
     0
102
RTVSPost2010Prop42
 90
       50
102
RTVSPost2010PropOp42
 70
     0
102
RTVSPost2010Prop43
 90
        3
102
RTVSPost2010PropOp43
 70
     0
102
RTVSPost2010Prop44ColorIndex
 90
        5
102
RTVSPost2010Prop44ColorRGB
 90
      255
102
RTVSPost2010PropOp44
 70
     0
102
RTVSPost2010Prop45
280
     0
102
RTVSPost2010PropOp45
 70
     1
102
RTVSPost2010Prop46
 90
       50
102
RTVSPost2010PropOp46
 70
     0
102
RTVSPost2010Prop47
 90
       50
102
RTVSPost2010PropOp47
 70
     0
102
RTVSPost2010Prop48
 90
       50
102
RTVSPost2010PropOp48
 70
     0
102
RTVSPost2010Prop49
280
     0
102
RTVSPost2010PropOp49
 70
     1
102
RTVSPost2010Prop50
 90
       50
102
RTVSPost2010PropOp50
 70
     0
102
RTVSPost2010Prop51ColorIndex
 90
      256
102
RTVSPost2010Prop51ColorRGB
 90
-16777216
102
RTVSPost2010PropOp51
 70
     0
102
RTVSPost2010Prop52
140
1.0
102
RTVSPost2010PropOp52
 70
     0
102
RTVSPost2010Prop53
 90
        2
102
RTVSPost2010PropOp53
 70
     0
102
RTVSPost2010Prop54
  1
strokes_ogs.tif
102
RTVSPost2010PropOp54
 70
     0
102
RTVSPost2010Prop55
280
     0
102
RTVSPost2010PropOp55
 70
     1
102
RTVSPost2010Prop56
140
1.0
102
RTVSPost2010PropOp56
 70
     0
102
RTVSPost2010Prop57
140
1.0
102
RTVSPost2010PropOp57
 70
     0
102
RTVSPropertyOp0
 70
     0
102
RTVSPropertyOp1
 70
     0
102
RTVSPropertyOp2
 70
     0
102
RTVSPropertyOp3
 70
     0
102
RTVSPropertyOp4
 70
     0
102
RTVSPropertyOp5
 70
     0
102
RTVSPropertyOp6
 70
     0
102
RTVSPropertyOp7
 70
     0
102
RTVSPropertyOp8
 70
     0
102
RTVSPropertyOp9
 70
     0
102
RTVSPropertyOp10
 70
     0
102
RTVSPropertyOp11
 70
     0
102
RTVSPropertyOp12
 70
     0
102
RTVSPropertyOp13
 70
     0
102
RTVSPropertyOp14
 70
     2
102
RTVSPropertyOp15
 70
     0
102
RTVSPropertyOp16
 70
     0
102
RTVSPropertyOp17
 70
     0
102
RTVSPropertyOp18
 70
     0
102
RTVSPropertyOp19
 70
     0
102
RTVSPropertyOp20
 70
     0
102
RTVSPropertyOp21
 70
     0
102
RTVSPropertyOp22
 70
     0
102
RTVSPropertyOp23
 70
     0
102
RTVSPropertyOp24
 70
     0
102
RTVSPropertyOp25
 70
     0
102
RTVSPropertyOp26
 70
     0
102
RTVSPropertyOp27
 70
     0
102
RTVSPropertyOp28
 70
     1
102
RTVSPropertyOp29
 70
     1
102
RTVSPropertyOp30
 70
     1
102
RTVSPropertyOp31
 70
     1
102
RTVSPropertyOp32
 70
     1
102
RTVSPropertyOp33
 70
     1
102
RTVSPropertyOp34
 70
     1
102
RTVSPropertyOp35
 70
     1
102
RTVSPropertyOp36
 70
     1
102
RTVSPropertyOp37
 70
     0
102
RTVSPropertyOp38
 70
     0
102
RTVSPropertyOp39
 70
     0
102
RTVSPropertyOp40
 70
     0
102
RTVSPropertyOp41
 70
     0
102
RTVSPropertyOp42
 70
     0
102
RTVSPropertyOp43
 70
     0
102
RTVSPropertyOp44
 70
     0
102
RTVSPropertyOp45
 70
     1
102
RTVSPropertyOp46
 70
     0
102
RTVSPropertyOp47
 70
     0
102
RTVSPropertyOp48
 70
     0
102
RTVSPropertyOp49
 70
     1
102
RTVSPropertyOp50
 70
     0
102
RTVSPropertyOp51
 70
     0
102
RTVSPropertyOp52
 70
     0
102
RTVSPropertyOp53
 70
     0
102
RTVSPropertyOp54
 70
     0
102
RTVSPropertyOp55
 70
     1
102
RTVSPropertyOp56
 70
     0
102
RTVSPropertyOp57
 70
     0
102
RTVSPropertyOp58
 70
     0
102
RTVSPropertyOp59
 70
     0
102
RTVSPropertyOp60
 70
     0
102
RTVSPropertyOp61
 70
     0
102
RTVSPropertyOp62
 70
     0
  0
XRECORD
  5
56B
102
{ACAD_REACTORS
330
56A
102
}
330
56A
100
AcDbXrecord
280
     1
102
RTVSPost2010Prop28
280
     0
102
RTVSPost2010PropOp28
 70
     1
102
RTVSPost2010Prop29
280
     1
102
RTVSPost2010PropOp29
 70
     1
102
RTVSPost2010Prop30
280
     1
102
RTVSPost2010PropOp30
 70
     1
102
RTVSPost2010Prop31
280
     0
102
RTVSPost2010PropOp31
 70
     1
102
RTVSPost2010Prop32
280
     0
102
RTVSPost2010PropOp32
 70
     1
102
RTVSPost2010Prop33
280
     0
102
RTVSPost2010PropOp33
 70
     1
102
RTVSPost2010Prop34
280
     0
102
RTVSPost2010PropOp34
 70
     1
102
RTVSPost2010Prop35
280
     0
102
RTVSPost2010PropOp35
 70
     1
102
RTVSPost2010Prop36
280
     0
102
RTVSPost2010PropOp36
 70
     1
102
RTVSPost2010Prop37
 90
       50
102
RTVSPost2010PropOp37
 70
     1
102
RTVSPost2010Prop38
140
0.0
102
RTVSPost2010PropOp38
 70
     1
102
RTVSPost2010Prop39
140
1.0
102
RTVSPost2010PropOp39
 70
     1
102
RTVSPost2010Prop40
 90
        0
102
RTVSPost2010PropOp40
 70
     1
102
RTVSPost2010Prop41ColorIndex
 90
       18
102
RTVSPost2010Prop41ColorRGB
 90
        0
102
RTVSPost2010PropOp41
 70
     1
102
RTVSPost2010Prop42
 90
       50
102
RTVSPost2010PropOp42
 70
     1
102
RTVSPost2010Prop43
 90
        3
102
RTVSPost2010PropOp43
 70
     1
102
RTVSPost2010Prop44ColorIndex
 90
        5
102
RTVSPost2010Prop44ColorRGB
 90
      255
102
RTVSPost2010PropOp44
 70
     1
102
RTVSPost2010Prop45
280
     0
102
RTVSPost2010PropOp45
 70
     1
102
RTVSPost2010Prop46
 90
       50
102
RTVSPost2010PropOp46
 70
     1
102
RTVSPost2010Prop47
 90
       50
102
RTVSPost2010PropOp47
 70
     1
102
RTVSPost2010Prop48
 90
       50
102
RTVSPost2010PropOp48
 70
     1
102
RTVSPost2010Prop49
280
     0
102
RTVSPost2010PropOp49
 70
     1
102
RTVSPost2010Prop50
 90
       50
102
RTVSPost2010PropOp50
 70
     1
102
RTVSPost2010Prop51ColorIndex
 90
      256
102
RTVSPost2010Prop51ColorRGB
 90
-16777216
102
RTVSPost2010PropOp51
 70
     0
102
RTVSPost2010Prop52
140
1.0
102
RTVSPost2010PropOp52
 70
     0
102
RTVSPost2010Prop53
 90
        2
102
RTVSPost2010PropOp53
 70
     1
102
RTVSPost2010Prop54
  1
strokes_ogs.tif
102
RTVSPost2010PropOp54
 70
     1
102
RTVSPost2010Prop55
280
     0
102
RTVSPost2010PropOp55
 70
     1
102
RTVSPost2010Prop56
140
1.0
102
RTVSPost2010PropOp56
 70
     1
102
RTVSPost2010Prop57
140
1.0
102
RTVSPost2010PropOp57
 70
     1
102
RTVSPropertyOp0
 70
     1
102
RTVSPropertyOp1
 70
     1
102
RTVSPropertyOp2
 70
     1
102
RTVSPropertyOp3
 70
     1
102
RTVSPropertyOp4
 70
     1
102
RTVSPropertyOp5
 70
     1
102
RTVSPropertyOp6
 70
     1
102
RTVSPropertyOp7
 70
     1
102
RTVSPropertyOp8
 70
     1
102
RTVSPropertyOp9
 70
     1
102
RTVSPropertyOp10
 70
     1
102
RTVSPropertyOp11
 70
     1
102
RTVSPropertyOp12
 70
     1
102
RTVSPropertyOp13
 70
     1
102
RTVSPropertyOp14
 70
     1
102
RTVSPropertyOp15
 70
     1
102
RTVSPropertyOp16
 70
     1
102
RTVSPropertyOp17
 70
     1
102
RTVSPropertyOp18
 70
     1
102
RTVSPropertyOp19
 70
     1
102
RTVSPropertyOp20
 70
     1
102
RTVSPropertyOp21
 70
     1
102
RTVSPropertyOp22
 70
     1
102
RTVSPropertyOp23
 70
     1
102
RTVSPropertyOp24
 70
     1
102
RTVSPropertyOp25
 70
     1
102
RTVSPropertyOp26
 70
     1
102
RTVSPropertyOp27
 70
     1
102
RTVSPropertyOp28
 70
     1
102
RTVSPropertyOp29
 70
     1
102
RTVSPropertyOp30
 70
     1
102
RTVSPropertyOp31
 70
     1
102
RTVSPropertyOp32
 70
     1
102
RTVSPropertyOp33
 70
     1
102
RTVSPropertyOp34
 70
     1
102
RTVSPropertyOp35
 70
     1
102
RTVSPropertyOp36
 70
     1
102
RTVSPropertyOp37
 70
     1
102
RTVSPropertyOp38
 70
     1
102
RTVSPropertyOp39
 70
     1
102
RTVSPropertyOp40
 70
     1
102
RTVSPropertyOp41
 70
     1
102
RTVSPropertyOp42
 70
     1
102
RTVSPropertyOp43
 70
     1
102
RTVSPropertyOp44
 70
     1
102
RTVSPropertyOp45
 70
     1
102
RTVSPropertyOp46
 70
     1
102
RTVSPropertyOp47
 70
     1
102
RTVSPropertyOp48
 70
     1
102
RTVSPropertyOp49
 70
     1
102
RTVSPropertyOp50
 70
     1
102
RTVSPropertyOp51
 70
     0
102
RTVSPropertyOp52
 70
     0
102
RTVSPropertyOp53
 70
     1
102
RTVSPropertyOp54
 70
     1
102
RTVSPropertyOp55
 70
     1
102
RTVSPropertyOp56
 70
     1
102
RTVSPropertyOp57
 70
     1
102
RTVSPropertyOp58
 70
     1
102
RTVSPropertyOp59
 70
     1
102
RTVSPropertyOp60
 70
     1
102
RTVSPropertyOp61
 70
     1
102
RTVSPropertyOp62
 70
     1
  0
XRECORD
  5
54F
102
{ACAD_REACTORS
330
54E
102
}
330
54E
100
AcDbXrecord
280
     1
102
RTVSPost2010Prop28
280
     0
102
RTVSPost2010PropOp28
 70
     1
102
RTVSPost2010Prop29
280
     1
102
RTVSPost2010PropOp29
 70
     1
102
RTVSPost2010Prop30
280
     1
102
RTVSPost2010PropOp30
 70
     1
102
RTVSPost2010Prop31
280
     0
102
RTVSPost2010PropOp31
 70
     1
102
RTVSPost2010Prop32
280
     0
102
RTVSPost2010PropOp32
 70
     1
102
RTVSPost2010Prop33
280
     0
102
RTVSPost2010PropOp33
 70
     1
102
RTVSPost2010Prop34
280
     0
102
RTVSPost2010PropOp34
 70
     1
102
RTVSPost2010Prop35
280
     0
102
RTVSPost2010PropOp35
 70
     1
102
RTVSPost2010Prop36
280
     0
102
RTVSPost2010PropOp36
 70
     1
102
RTVSPost2010Prop37
 90
       50
102
RTVSPost2010PropOp37
 70
     1
102
RTVSPost2010Prop38
140
0.0
102
RTVSPost2010PropOp38
 70
     1
102
RTVSPost2010Prop39
140
1.0
102
RTVSPost2010PropOp39
 70
     1
102
RTVSPost2010Prop40
 90
        0
102
RTVSPost2010PropOp40
 70
     1
102
RTVSPost2010Prop41ColorIndex
 90
       18
102
RTVSPost2010Prop41ColorRGB
 90
        0
102
RTVSPost2010PropOp41
 70
     1
102
RTVSPost2010Prop42
 90
       50
102
RTVSPost2010PropOp42
 70
     1
102
RTVSPost2010Prop43
 90
        3
102
RTVSPost2010PropOp43
 70
     1
102
RTVSPost2010Prop44ColorIndex
 90
        5
102
RTVSPost2010Prop44ColorRGB
 90
      255
102
RTVSPost2010PropOp44
 70
     1
102
RTVSPost2010Prop45
280
     0
102
RTVSPost2010PropOp45
 70
     1
102
RTVSPost2010Prop46
 90
       50
102
RTVSPost2010PropOp46
 70
     1
102
RTVSPost2010Prop47
 90
       50
102
RTVSPost2010PropOp47
 70
     1
102
RTVSPost2010Prop48
 90
       50
102
RTVSPost2010PropOp48
 70
     1
102
RTVSPost2010Prop49
280
     0
102
RTVSPost2010PropOp49
 70
     1
102
RTVSPost2010Prop50
 90
       50
102
RTVSPost2010PropOp50
 70
     1
102
RTVSPost2010Prop51ColorIndex
 90
      256
102
RTVSPost2010Prop51ColorRGB
 90
-16777216
102
RTVSPost2010PropOp51
 70
     0
102
RTVSPost2010Prop52
140
1.0
102
RTVSPost2010PropOp52
 70
     0
102
RTVSPost2010Prop53
 90
        2
102
RTVSPost2010PropOp53
 70
     1
102
RTVSPost2010Prop54
  1
strokes_ogs.tif
102
RTVSPost2010PropOp54
 70
     1
102
RTVSPost2010Prop55
280
     0
102
RTVSPost2010PropOp55
 70
     1
102
RTVSPost2010Prop56
140
1.0
102
RTVSPost2010PropOp56
 70
     1
102
RTVSPost2010Prop57
140
1.0
102
RTVSPost2010PropOp57
 70
     1
102
RTVSPropertyOp0
 70
     1
102
RTVSPropertyOp1
 70
     1
102
RTVSPropertyOp2
 70
     1
102
RTVSPropertyOp3
 70
     1
102
RTVSPropertyOp4
 70
     1
102
RTVSPropertyOp5
 70
     1
102
RTVSPropertyOp6
 70
     1
102
RTVSPropertyOp7
 70
     1
102
RTVSPropertyOp8
 70
     1
102
RTVSPropertyOp9
 70
     1
102
RTVSPropertyOp10
 70
     1
102
RTVSPropertyOp11
 70
     1
102
RTVSPropertyOp12
 70
     1
102
RTVSPropertyOp13
 70
     1
102
RTVSPropertyOp14
 70
     1
102
RTVSPropertyOp15
 70
     1
102
RTVSPropertyOp16
 70
     1
102
RTVSPropertyOp17
 70
     1
102
RTVSPropertyOp18
 70
     1
102
RTVSPropertyOp19
 70
     1
102
RTVSPropertyOp20
 70
     1
102
RTVSPropertyOp21
 70
     1
102
RTVSPropertyOp22
 70
     1
102
RTVSPropertyOp23
 70
     1
102
RTVSPropertyOp24
 70
     1
102
RTVSPropertyOp25
 70
     1
102
RTVSPropertyOp26
 70
     1
102
RTVSPropertyOp27
 70
     1
102
RTVSPropertyOp28
 70
     1
102
RTVSPropertyOp29
 70
     1
102
RTVSPropertyOp30
 70
     1
102
RTVSPropertyOp31
 70
     1
102
RTVSPropertyOp32
 70
     1
102
RTVSPropertyOp33
 70
     1
102
RTVSPropertyOp34
 70
     1
102
RTVSPropertyOp35
 70
     1
102
RTVSPropertyOp36
 70
     1
102
RTVSPropertyOp37
 70
     1
102
RTVSPropertyOp38
 70
     1
102
RTVSPropertyOp39
 70
     1
102
RTVSPropertyOp40
 70
     1
102
RTVSPropertyOp41
 70
     1
102
RTVSPropertyOp42
 70
     1
102
RTVSPropertyOp43
 70
     1
102
RTVSPropertyOp44
 70
     1
102
RTVSPropertyOp45
 70
     1
102
RTVSPropertyOp46
 70
     1
102
RTVSPropertyOp47
 70
     1
102
RTVSPropertyOp48
 70
     1
102
RTVSPropertyOp49
 70
     1
102
RTVSPropertyOp50
 70
     1
102
RTVSPropertyOp51
 70
     0
102
RTVSPropertyOp52
 70
     0
102
RTVSPropertyOp53
 70
     1
102
RTVSPropertyOp54
 70
     1
102
RTVSPropertyOp55
 70
     1
102
RTVSPropertyOp56
 70
     1
102
RTVSPropertyOp57
 70
     1
102
RTVSPropertyOp58
 70
     1
102
RTVSPropertyOp59
 70
     1
102
RTVSPropertyOp60
 70
     1
102
RTVSPropertyOp61
 70
     1
102
RTVSPropertyOp62
 70
     1
  0
XRECORD
  5
551
102
{ACAD_REACTORS
330
550
102
}
330
550
100
AcDbXrecord
280
     1
102
RTVSPost2010Prop28
280
     0
102
RTVSPost2010PropOp28
 70
     1
102
RTVSPost2010Prop29
280
     1
102
RTVSPost2010PropOp29
 70
     1
102
RTVSPost2010Prop30
280
     1
102
RTVSPost2010PropOp30
 70
     1
102
RTVSPost2010Prop31
280
     0
102
RTVSPost2010PropOp31
 70
     1
102
RTVSPost2010Prop32
280
     0
102
RTVSPost2010PropOp32
 70
     1
102
RTVSPost2010Prop33
280
     0
102
RTVSPost2010PropOp33
 70
     1
102
RTVSPost2010Prop34
280
     0
102
RTVSPost2010PropOp34
 70
     1
102
RTVSPost2010Prop35
280
     0
102
RTVSPost2010PropOp35
 70
     1
102
RTVSPost2010Prop36
280
     0
102
RTVSPost2010PropOp36
 70
     1
102
RTVSPost2010Prop37
 90
       50
102
RTVSPost2010PropOp37
 70
     1
102
RTVSPost2010Prop38
140
0.0
102
RTVSPost2010PropOp38
 70
     1
102
RTVSPost2010Prop39
140
1.0
102
RTVSPost2010PropOp39
 70
     1
102
RTVSPost2010Prop40
 90
        0
102
RTVSPost2010PropOp40
 70
     1
102
RTVSPost2010Prop41ColorIndex
 90
       18
102
RTVSPost2010Prop41ColorRGB
 90
        0
102
RTVSPost2010PropOp41
 70
     1
102
RTVSPost2010Prop42
 90
       50
102
RTVSPost2010PropOp42
 70
     1
102
RTVSPost2010Prop43
 90
        3
102
RTVSPost2010PropOp43
 70
     1
102
RTVSPost2010Prop44ColorIndex
 90
        5
102
RTVSPost2010Prop44ColorRGB
 90
      255
102
RTVSPost2010PropOp44
 70
     1
102
RTVSPost2010Prop45
280
     0
102
RTVSPost2010PropOp45
 70
     1
102
RTVSPost2010Prop46
 90
       50
102
RTVSPost2010PropOp46
 70
     1
102
RTVSPost2010Prop47
 90
       50
102
RTVSPost2010PropOp47
 70
     1
102
RTVSPost2010Prop48
 90
       50
102
RTVSPost2010PropOp48
 70
     1
102
RTVSPost2010Prop49
280
     0
102
RTVSPost2010PropOp49
 70
     1
102
RTVSPost2010Prop50
 90
       50
102
RTVSPost2010PropOp50
 70
     1
102
RTVSPost2010Prop51ColorIndex
 90
      256
102
RTVSPost2010Prop51ColorRGB
 90
-16777216
102
RTVSPost2010PropOp51
 70
     0
102
RTVSPost2010Prop52
140
1.0
102
RTVSPost2010PropOp52
 70
     0
102
RTVSPost2010Prop53
 90
        2
102
RTVSPost2010PropOp53
 70
     1
102
RTVSPost2010Prop54
  1
strokes_ogs.tif
102
RTVSPost2010PropOp54
 70
     1
102
RTVSPost2010Prop55
280
     0
102
RTVSPost2010PropOp55
 70
     1
102
RTVSPost2010Prop56
140
1.0
102
RTVSPost2010PropOp56
 70
     1
102
RTVSPost2010Prop57
140
1.0
102
RTVSPost2010PropOp57
 70
     1
102
RTVSPropertyOp0
 70
     1
102
RTVSPropertyOp1
 70
     1
102
RTVSPropertyOp2
 70
     1
102
RTVSPropertyOp3
 70
     1
102
RTVSPropertyOp4
 70
     1
102
RTVSPropertyOp5
 70
     1
102
RTVSPropertyOp6
 70
     1
102
RTVSPropertyOp7
 70
     1
102
RTVSPropertyOp8
 70
     1
102
RTVSPropertyOp9
 70
     1
102
RTVSPropertyOp10
 70
     1
102
RTVSPropertyOp11
 70
     1
102
RTVSPropertyOp12
 70
     1
102
RTVSPropertyOp13
 70
     1
102
RTVSPropertyOp14
 70
     1
102
RTVSPropertyOp15
 70
     1
102
RTVSPropertyOp16
 70
     1
102
RTVSPropertyOp17
 70
     1
102
RTVSPropertyOp18
 70
     1
102
RTVSPropertyOp19
 70
     1
102
RTVSPropertyOp20
 70
     1
102
RTVSPropertyOp21
 70
     1
102
RTVSPropertyOp22
 70
     1
102
RTVSPropertyOp23
 70
     1
102
RTVSPropertyOp24
 70
     1
102
RTVSPropertyOp25
 70
     1
102
RTVSPropertyOp26
 70
     1
102
RTVSPropertyOp27
 70
     1
102
RTVSPropertyOp28
 70
     1
102
RTVSPropertyOp29
 70
     1
102
RTVSPropertyOp30
 70
     1
102
RTVSPropertyOp31
 70
     1
102
RTVSPropertyOp32
 70
     1
102
RTVSPropertyOp33
 70
     1
102
RTVSPropertyOp34
 70
     1
102
RTVSPropertyOp35
 70
     1
102
RTVSPropertyOp36
 70
     1
102
RTVSPropertyOp37
 70
     1
102
RTVSPropertyOp38
 70
     1
102
RTVSPropertyOp39
 70
     1
102
RTVSPropertyOp40
 70
     1
102
RTVSPropertyOp41
 70
     1
102
RTVSPropertyOp42
 70
     1
102
RTVSPropertyOp43
 70
     1
102
RTVSPropertyOp44
 70
     1
102
RTVSPropertyOp45
 70
     1
102
RTVSPropertyOp46
 70
     1
102
RTVSPropertyOp47
 70
     1
102
RTVSPropertyOp48
 70
     1
102
RTVSPropertyOp49
 70
     1
102
RTVSPropertyOp50
 70
     1
102
RTVSPropertyOp51
 70
     0
102
RTVSPropertyOp52
 70
     0
102
RTVSPropertyOp53
 70
     1
102
RTVSPropertyOp54
 70
     1
102
RTVSPropertyOp55
 70
     1
102
RTVSPropertyOp56
 70
     1
102
RTVSPropertyOp57
 70
     1
102
RTVSPropertyOp58
 70
     1
102
RTVSPropertyOp59
 70
     1
102
RTVSPropertyOp60
 70
     1
102
RTVSPropertyOp61
 70
     1
102
RTVSPropertyOp62
 70
     1
  0
XRECORD
  5
553
102
{ACAD_REACTORS
330
552
102
}
330
552
100
AcDbXrecord
280
     1
102
RTVSPost2010Prop28
280
     0
102
RTVSPost2010PropOp28
 70
     1
102
RTVSPost2010Prop29
280
     1
102
RTVSPost2010PropOp29
 70
     1
102
RTVSPost2010Prop30
280
     1
102
RTVSPost2010PropOp30
 70
     1
102
RTVSPost2010Prop31
280
     0
102
RTVSPost2010PropOp31
 70
     1
102
RTVSPost2010Prop32
280
     0
102
RTVSPost2010PropOp32
 70
     1
102
RTVSPost2010Prop33
280
     0
102
RTVSPost2010PropOp33
 70
     1
102
RTVSPost2010Prop34
280
     0
102
RTVSPost2010PropOp34
 70
     1
102
RTVSPost2010Prop35
280
     0
102
RTVSPost2010PropOp35
 70
     1
102
RTVSPost2010Prop36
280
     0
102
RTVSPost2010PropOp36
 70
     1
102
RTVSPost2010Prop37
 90
       50
102
RTVSPost2010PropOp37
 70
     1
102
RTVSPost2010Prop38
140
0.0
102
RTVSPost2010PropOp38
 70
     1
102
RTVSPost2010Prop39
140
1.0
102
RTVSPost2010PropOp39
 70
     1
102
RTVSPost2010Prop40
 90
        0
102
RTVSPost2010PropOp40
 70
     1
102
RTVSPost2010Prop41ColorIndex
 90
       18
102
RTVSPost2010Prop41ColorRGB
 90
        0
102
RTVSPost2010PropOp41
 70
     1
102
RTVSPost2010Prop42
 90
       50
102
RTVSPost2010PropOp42
 70
     1
102
RTVSPost2010Prop43
 90
        3
102
RTVSPost2010PropOp43
 70
     1
102
RTVSPost2010Prop44ColorIndex
 90
        5
102
RTVSPost2010Prop44ColorRGB
 90
      255
102
RTVSPost2010PropOp44
 70
     1
102
RTVSPost2010Prop45
280
     0
102
RTVSPost2010PropOp45
 70
     1
102
RTVSPost2010Prop46
 90
       50
102
RTVSPost2010PropOp46
 70
     1
102
RTVSPost2010Prop47
 90
       50
102
RTVSPost2010PropOp47
 70
     1
102
RTVSPost2010Prop48
 90
       50
102
RTVSPost2010PropOp48
 70
     1
102
RTVSPost2010Prop49
280
     0
102
RTVSPost2010PropOp49
 70
     1
102
RTVSPost2010Prop50
 90
       50
102
RTVSPost2010PropOp50
 70
     1
102
RTVSPost2010Prop51ColorIndex
 90
      256
102
RTVSPost2010Prop51ColorRGB
 90
-16777216
102
RTVSPost2010PropOp51
 70
     0
102
RTVSPost2010Prop52
140
1.0
102
RTVSPost2010PropOp52
 70
     0
102
RTVSPost2010Prop53
 90
        2
102
RTVSPost2010PropOp53
 70
     1
102
RTVSPost2010Prop54
  1
strokes_ogs.tif
102
RTVSPost2010PropOp54
 70
     1
102
RTVSPost2010Prop55
280
     0
102
RTVSPost2010PropOp55
 70
     1
102
RTVSPost2010Prop56
140
1.0
102
RTVSPost2010PropOp56
 70
     1
102
RTVSPost2010Prop57
140
1.0
102
RTVSPost2010PropOp57
 70
     1
102
RTVSPropertyOp0
 70
     1
102
RTVSPropertyOp1
 70
     1
102
RTVSPropertyOp2
 70
     1
102
RTVSPropertyOp3
 70
     1
102
RTVSPropertyOp4
 70
     1
102
RTVSPropertyOp5
 70
     1
102
RTVSPropertyOp6
 70
     1
102
RTVSPropertyOp7
 70
     1
102
RTVSPropertyOp8
 70
     1
102
RTVSPropertyOp9
 70
     1
102
RTVSPropertyOp10
 70
     1
102
RTVSPropertyOp11
 70
     1
102
RTVSPropertyOp12
 70
     1
102
RTVSPropertyOp13
 70
     1
102
RTVSPropertyOp14
 70
     1
102
RTVSPropertyOp15
 70
     1
102
RTVSPropertyOp16
 70
     1
102
RTVSPropertyOp17
 70
     1
102
RTVSPropertyOp18
 70
     1
102
RTVSPropertyOp19
 70
     1
102
RTVSPropertyOp20
 70
     1
102
RTVSPropertyOp21
 70
     1
102
RTVSPropertyOp22
 70
     1
102
RTVSPropertyOp23
 70
     1
102
RTVSPropertyOp24
 70
     1
102
RTVSPropertyOp25
 70
     1
102
RTVSPropertyOp26
 70
     1
102
RTVSPropertyOp27
 70
     1
102
RTVSPropertyOp28
 70
     1
102
RTVSPropertyOp29
 70
     1
102
RTVSPropertyOp30
 70
     1
102
RTVSPropertyOp31
 70
     1
102
RTVSPropertyOp32
 70
     1
102
RTVSPropertyOp33
 70
     1
102
RTVSPropertyOp34
 70
     1
102
RTVSPropertyOp35
 70
     1
102
RTVSPropertyOp36
 70
     1
102
RTVSPropertyOp37
 70
     1
102
RTVSPropertyOp38
 70
     1
102
RTVSPropertyOp39
 70
     1
102
RTVSPropertyOp40
 70
     1
102
RTVSPropertyOp41
 70
     1
102
RTVSPropertyOp42
 70
     1
102
RTVSPropertyOp43
 70
     1
102
RTVSPropertyOp44
 70
     1
102
RTVSPropertyOp45
 70
     1
102
RTVSPropertyOp46
 70
     1
102
RTVSPropertyOp47
 70
     1
102
RTVSPropertyOp48
 70
     1
102
RTVSPropertyOp49
 70
     1
102
RTVSPropertyOp50
 70
     1
102
RTVSPropertyOp51
 70
     0
102
RTVSPropertyOp52
 70
     0
102
RTVSPropertyOp53
 70
     1
102
RTVSPropertyOp54
 70
     1
102
RTVSPropertyOp55
 70
     1
102
RTVSPropertyOp56
 70
     1
102
RTVSPropertyOp57
 70
     1
102
RTVSPropertyOp58
 70
     1
102
RTVSPropertyOp59
 70
     1
102
RTVSPropertyOp60
 70
     1
102
RTVSPropertyOp61
 70
     1
102
RTVSPropertyOp62
 70
     1
  0
XRECORD
  5
555
102
{ACAD_REACTORS
330
554
102
}
330
554
100
AcDbXrecord
280
     1
102
RTVSPost2010Prop28
280
     0
102
RTVSPost2010PropOp28
 70
     1
102
RTVSPost2010Prop29
280
     1
102
RTVSPost2010PropOp29
 70
     1
102
RTVSPost2010Prop30
280
     1
102
RTVSPost2010PropOp30
 70
     1
102
RTVSPost2010Prop31
280
     0
102
RTVSPost2010PropOp31
 70
     1
102
RTVSPost2010Prop32
280
     0
102
RTVSPost2010PropOp32
 70
     1
102
RTVSPost2010Prop33
280
     0
102
RTVSPost2010PropOp33
 70
     1
102
RTVSPost2010Prop34
280
     0
102
RTVSPost2010PropOp34
 70
     1
102
RTVSPost2010Prop35
280
     0
102
RTVSPost2010PropOp35
 70
     1
102
RTVSPost2010Prop36
280
     0
102
RTVSPost2010PropOp36
 70
     1
102
RTVSPost2010Prop37
 90
       50
102
RTVSPost2010PropOp37
 70
     1
102
RTVSPost2010Prop38
140
0.0
102
RTVSPost2010PropOp38
 70
     1
102
RTVSPost2010Prop39
140
1.0
102
RTVSPost2010PropOp39
 70
     1
102
RTVSPost2010Prop40
 90
        0
102
RTVSPost2010PropOp40
 70
     1
102
RTVSPost2010Prop41ColorIndex
 90
       18
102
RTVSPost2010Prop41ColorRGB
 90
        0
102
RTVSPost2010PropOp41
 70
     1
102
RTVSPost2010Prop42
 90
       50
102
RTVSPost2010PropOp42
 70
     1
102
RTVSPost2010Prop43
 90
        3
102
RTVSPost2010PropOp43
 70
     1
102
RTVSPost2010Prop44ColorIndex
 90
        5
102
RTVSPost2010Prop44ColorRGB
 90
      255
102
RTVSPost2010PropOp44
 70
     1
102
RTVSPost2010Prop45
280
     0
102
RTVSPost2010PropOp45
 70
     1
102
RTVSPost2010Prop46
 90
       50
102
RTVSPost2010PropOp46
 70
     1
102
RTVSPost2010Prop47
 90
       50
102
RTVSPost2010PropOp47
 70
     1
102
RTVSPost2010Prop48
 90
       50
102
RTVSPost2010PropOp48
 70
     1
102
RTVSPost2010Prop49
280
     0
102
RTVSPost2010PropOp49
 70
     1
102
RTVSPost2010Prop50
 90
       50
102
RTVSPost2010PropOp50
 70
     1
102
RTVSPost2010Prop51ColorIndex
 90
      256
102
RTVSPost2010Prop51ColorRGB
 90
-16777216
102
RTVSPost2010PropOp51
 70
     0
102
RTVSPost2010Prop52
140
1.0
102
RTVSPost2010PropOp52
 70
     0
102
RTVSPost2010Prop53
 90
        2
102
RTVSPost2010PropOp53
 70
     1
102
RTVSPost2010Prop54
  1
strokes_ogs.tif
102
RTVSPost2010PropOp54
 70
     1
102
RTVSPost2010Prop55
280
     0
102
RTVSPost2010PropOp55
 70
     1
102
RTVSPost2010Prop56
140
1.0
102
RTVSPost2010PropOp56
 70
     1
102
RTVSPost2010Prop57
140
1.0
102
RTVSPost2010PropOp57
 70
     1
102
RTVSPropertyOp0
 70
     1
102
RTVSPropertyOp1
 70
     1
102
RTVSPropertyOp2
 70
     1
102
RTVSPropertyOp3
 70
     1
102
RTVSPropertyOp4
 70
     1
102
RTVSPropertyOp5
 70
     1
102
RTVSPropertyOp6
 70
     1
102
RTVSPropertyOp7
 70
     1
102
RTVSPropertyOp8
 70
     1
102
RTVSPropertyOp9
 70
     1
102
RTVSPropertyOp10
 70
     1
102
RTVSPropertyOp11
 70
     1
102
RTVSPropertyOp12
 70
     1
102
RTVSPropertyOp13
 70
     1
102
RTVSPropertyOp14
 70
     1
102
RTVSPropertyOp15
 70
     1
102
RTVSPropertyOp16
 70
     1
102
RTVSPropertyOp17
 70
     1
102
RTVSPropertyOp18
 70
     1
102
RTVSPropertyOp19
 70
     1
102
RTVSPropertyOp20
 70
     1
102
RTVSPropertyOp21
 70
     1
102
RTVSPropertyOp22
 70
     1
102
RTVSPropertyOp23
 70
     1
102
RTVSPropertyOp24
 70
     1
102
RTVSPropertyOp25
 70
     1
102
RTVSPropertyOp26
 70
     1
102
RTVSPropertyOp27
 70
     1
102
RTVSPropertyOp28
 70
     1
102
RTVSPropertyOp29
 70
     1
102
RTVSPropertyOp30
 70
     1
102
RTVSPropertyOp31
 70
     1
102
RTVSPropertyOp32
 70
     1
102
RTVSPropertyOp33
 70
     1
102
RTVSPropertyOp34
 70
     1
102
RTVSPropertyOp35
 70
     1
102
RTVSPropertyOp36
 70
     1
102
RTVSPropertyOp37
 70
     1
102
RTVSPropertyOp38
 70
     1
102
RTVSPropertyOp39
 70
     1
102
RTVSPropertyOp40
 70
     1
102
RTVSPropertyOp41
 70
     1
102
RTVSPropertyOp42
 70
     1
102
RTVSPropertyOp43
 70
     1
102
RTVSPropertyOp44
 70
     1
102
RTVSPropertyOp45
 70
     1
102
RTVSPropertyOp46
 70
     1
102
RTVSPropertyOp47
 70
     1
102
RTVSPropertyOp48
 70
     1
102
RTVSPropertyOp49
 70
     1
102
RTVSPropertyOp50
 70
     1
102
RTVSPropertyOp51
 70
     0
102
RTVSPropertyOp52
 70
     0
102
RTVSPropertyOp53
 70
     1
102
RTVSPropertyOp54
 70
     1
102
RTVSPropertyOp55
 70
     1
102
RTVSPropertyOp56
 70
     1
102
RTVSPropertyOp57
 70
     1
102
RTVSPropertyOp58
 70
     1
102
RTVSPropertyOp59
 70
     1
102
RTVSPropertyOp60
 70
     1
102
RTVSPropertyOp61
 70
     1
102
RTVSPropertyOp62
 70
     1
  0
XRECORD
  5
55D
102
{ACAD_REACTORS
330
55C
102
}
330
55C
100
AcDbXrecord
280
     1
102
RTVSPost2010Prop28
280
     0
102
RTVSPost2010PropOp28
 70
     1
102
RTVSPost2010Prop29
280
     1
102
RTVSPost2010PropOp29
 70
     1
102
RTVSPost2010Prop30
280
     1
102
RTVSPost2010PropOp30
 70
     1
102
RTVSPost2010Prop31
280
     0
102
RTVSPost2010PropOp31
 70
     1
102
RTVSPost2010Prop32
280
     0
102
RTVSPost2010PropOp32
 70
     1
102
RTVSPost2010Prop33
280
     0
102
RTVSPost2010PropOp33
 70
     1
102
RTVSPost2010Prop34
280
     0
102
RTVSPost2010PropOp34
 70
     1
102
RTVSPost2010Prop35
280
     0
102
RTVSPost2010PropOp35
 70
     1
102
RTVSPost2010Prop36
280
     0
102
RTVSPost2010PropOp36
 70
     1
102
RTVSPost2010Prop37
 90
       50
102
RTVSPost2010PropOp37
 70
     1
102
RTVSPost2010Prop38
140
0.0
102
RTVSPost2010PropOp38
 70
     1
102
RTVSPost2010Prop39
140
1.0
102
RTVSPost2010PropOp39
 70
     1
102
RTVSPost2010Prop40
 90
        0
102
RTVSPost2010PropOp40
 70
     1
102
RTVSPost2010Prop41ColorIndex
 90
       18
102
RTVSPost2010Prop41ColorRGB
 90
        0
102
RTVSPost2010PropOp41
 70
     1
102
RTVSPost2010Prop42
 90
       50
102
RTVSPost2010PropOp42
 70
     1
102
RTVSPost2010Prop43
 90
        3
102
RTVSPost2010PropOp43
 70
     1
102
RTVSPost2010Prop44ColorIndex
 90
        5
102
RTVSPost2010Prop44ColorRGB
 90
      255
102
RTVSPost2010PropOp44
 70
     1
102
RTVSPost2010Prop45
280
     0
102
RTVSPost2010PropOp45
 70
     1
102
RTVSPost2010Prop46
 90
       50
102
RTVSPost2010PropOp46
 70
     1
102
RTVSPost2010Prop47
 90
       50
102
RTVSPost2010PropOp47
 70
     1
102
RTVSPost2010Prop48
 90
       50
102
RTVSPost2010PropOp48
 70
     1
102
RTVSPost2010Prop49
280
     0
102
RTVSPost2010PropOp49
 70
     1
102
RTVSPost2010Prop50
 90
       50
102
RTVSPost2010PropOp50
 70
     1
102
RTVSPost2010Prop51ColorIndex
 90
      256
102
RTVSPost2010Prop51ColorRGB
 90
-16777216
102
RTVSPost2010PropOp51
 70
     0
102
RTVSPost2010Prop52
140
1.0
102
RTVSPost2010PropOp52
 70
     0
102
RTVSPost2010Prop53
 90
        2
102
RTVSPost2010PropOp53
 70
     1
102
RTVSPost2010Prop54
  1
strokes_ogs.tif
102
RTVSPost2010PropOp54
 70
     1
102
RTVSPost2010Prop55
280
     0
102
RTVSPost2010PropOp55
 70
     1
102
RTVSPost2010Prop56
140
1.0
102
RTVSPost2010PropOp56
 70
     1
102
RTVSPost2010Prop57
140
1.0
102
RTVSPost2010PropOp57
 70
     1
102
RTVSPropertyOp0
 70
     1
102
RTVSPropertyOp1
 70
     1
102
RTVSPropertyOp2
 70
     1
102
RTVSPropertyOp3
 70
     1
102
RTVSPropertyOp4
 70
     1
102
RTVSPropertyOp5
 70
     1
102
RTVSPropertyOp6
 70
     1
102
RTVSPropertyOp7
 70
     1
102
RTVSPropertyOp8
 70
     1
102
RTVSPropertyOp9
 70
     1
102
RTVSPropertyOp10
 70
     1
102
RTVSPropertyOp11
 70
     1
102
RTVSPropertyOp12
 70
     1
102
RTVSPropertyOp13
 70
     1
102
RTVSPropertyOp14
 70
     1
102
RTVSPropertyOp15
 70
     1
102
RTVSPropertyOp16
 70
     1
102
RTVSPropertyOp17
 70
     1
102
RTVSPropertyOp18
 70
     1
102
RTVSPropertyOp19
 70
     1
102
RTVSPropertyOp20
 70
     1
102
RTVSPropertyOp21
 70
     1
102
RTVSPropertyOp22
 70
     1
102
RTVSPropertyOp23
 70
     1
102
RTVSPropertyOp24
 70
     1
102
RTVSPropertyOp25
 70
     1
102
RTVSPropertyOp26
 70
     1
102
RTVSPropertyOp27
 70
     1
102
RTVSPropertyOp28
 70
     1
102
RTVSPropertyOp29
 70
     1
102
RTVSPropertyOp30
 70
     1
102
RTVSPropertyOp31
 70
     1
102
RTVSPropertyOp32
 70
     1
102
RTVSPropertyOp33
 70
     1
102
RTVSPropertyOp34
 70
     1
102
RTVSPropertyOp35
 70
     1
102
RTVSPropertyOp36
 70
     1
102
RTVSPropertyOp37
 70
     1
102
RTVSPropertyOp38
 70
     1
102
RTVSPropertyOp39
 70
     1
102
RTVSPropertyOp40
 70
     1
102
RTVSPropertyOp41
 70
     1
102
RTVSPropertyOp42
 70
     1
102
RTVSPropertyOp43
 70
     1
102
RTVSPropertyOp44
 70
     1
102
RTVSPropertyOp45
 70
     1
102
RTVSPropertyOp46
 70
     1
102
RTVSPropertyOp47
 70
     1
102
RTVSPropertyOp48
 70
     1
102
RTVSPropertyOp49
 70
     1
102
RTVSPropertyOp50
 70
     1
102
RTVSPropertyOp51
 70
     0
102
RTVSPropertyOp52
 70
     0
102
RTVSPropertyOp53
 70
     1
102
RTVSPropertyOp54
 70
     1
102
RTVSPropertyOp55
 70
     1
102
RTVSPropertyOp56
 70
     1
102
RTVSPropertyOp57
 70
     1
102
RTVSPropertyOp58
 70
     1
102
RTVSPropertyOp59
 70
     1
102
RTVSPropertyOp60
 70
     1
102
RTVSPropertyOp61
 70
     1
102
RTVSPropertyOp62
 70
     1
  0
XRECORD
  5
579
102
{ACAD_REACTORS
330
578
102
}
330
578
100
AcDbXrecord
280
     1
102
RTVSPost2010Prop28
280
     0
102
RTVSPost2010PropOp28
 70
     1
102
RTVSPost2010Prop29
280
     1
102
RTVSPost2010PropOp29
 70
     1
102
RTVSPost2010Prop30
280
     1
102
RTVSPost2010PropOp30
 70
     1
102
RTVSPost2010Prop31
280
     0
102
RTVSPost2010PropOp31
 70
     1
102
RTVSPost2010Prop32
280
     0
102
RTVSPost2010PropOp32
 70
     1
102
RTVSPost2010Prop33
280
     0
102
RTVSPost2010PropOp33
 70
     1
102
RTVSPost2010Prop34
280
     0
102
RTVSPost2010PropOp34
 70
     1
102
RTVSPost2010Prop35
280
     0
102
RTVSPost2010PropOp35
 70
     1
102
RTVSPost2010Prop36
280
     0
102
RTVSPost2010PropOp36
 70
     1
102
RTVSPost2010Prop37
 90
       50
102
RTVSPost2010PropOp37
 70
     0
102
RTVSPost2010Prop38
140
0.0
102
RTVSPost2010PropOp38
 70
     0
102
RTVSPost2010Prop39
140
1.0
102
RTVSPost2010PropOp39
 70
     0
102
RTVSPost2010Prop40
 90
        0
102
RTVSPost2010PropOp40
 70
     0
102
RTVSPost2010Prop41ColorIndex
 90
       18
102
RTVSPost2010Prop41ColorRGB
 90
        0
102
RTVSPost2010PropOp41
 70
     0
102
RTVSPost2010Prop42
 90
       50
102
RTVSPost2010PropOp42
 70
     0
102
RTVSPost2010Prop43
 90
        3
102
RTVSPost2010PropOp43
 70
     0
102
RTVSPost2010Prop44ColorIndex
 90
        5
102
RTVSPost2010Prop44ColorRGB
 90
      255
102
RTVSPost2010PropOp44
 70
     0
102
RTVSPost2010Prop45
280
     0
102
RTVSPost2010PropOp45
 70
     1
102
RTVSPost2010Prop46
 90
       50
102
RTVSPost2010PropOp46
 70
     0
102
RTVSPost2010Prop47
 90
       50
102
RTVSPost2010PropOp47
 70
     0
102
RTVSPost2010Prop48
 90
       50
102
RTVSPost2010PropOp48
 70
     0
102
RTVSPost2010Prop49
280
     0
102
RTVSPost2010PropOp49
 70
     1
102
RTVSPost2010Prop50
 90
       50
102
RTVSPost2010PropOp50
 70
     0
102
RTVSPost2010Prop51ColorIndex
 90
      256
102
RTVSPost2010Prop51ColorRGB
 90
-16777216
102
RTVSPost2010PropOp51
 70
     0
102
RTVSPost2010Prop52
140
1.0
102
RTVSPost2010PropOp52
 70
     0
102
RTVSPost2010Prop53
 90
        2
102
RTVSPost2010PropOp53
 70
     0
102
RTVSPost2010Prop54
  1
strokes_ogs.tif
102
RTVSPost2010PropOp54
 70
     0
102
RTVSPost2010Prop55
280
     0
102
RTVSPost2010PropOp55
 70
     1
102
RTVSPost2010Prop56
140
1.0
102
RTVSPost2010PropOp56
 70
     0
102
RTVSPost2010Prop57
140
1.0
102
RTVSPost2010PropOp57
 70
     0
102
RTVSPropertyOp0
 70
     0
102
RTVSPropertyOp1
 70
     0
102
RTVSPropertyOp2
 70
     0
102
RTVSPropertyOp3
 70
     0
102
RTVSPropertyOp4
 70
     0
102
RTVSPropertyOp5
 70
     0
102
RTVSPropertyOp6
 70
     0
102
RTVSPropertyOp7
 70
     0
102
RTVSPropertyOp8
 70
     0
102
RTVSPropertyOp9
 70
     0
102
RTVSPropertyOp10
 70
     0
102
RTVSPropertyOp11
 70
     0
102
RTVSPropertyOp12
 70
     0
102
RTVSPropertyOp13
 70
     0
102
RTVSPropertyOp14
 70
     2
102
RTVSPropertyOp15
 70
     0
102
RTVSPropertyOp16
 70
     0
102
RTVSPropertyOp17
 70
     0
102
RTVSPropertyOp18
 70
     0
102
RTVSPropertyOp19
 70
     0
102
RTVSPropertyOp20
 70
     0
102
RTVSPropertyOp21
 70
     0
102
RTVSPropertyOp22
 70
     0
102
RTVSPropertyOp23
 70
     0
102
RTVSPropertyOp24
 70
     0
102
RTVSPropertyOp25
 70
     0
102
RTVSPropertyOp26
 70
     0
102
RTVSPropertyOp27
 70
     0
102
RTVSPropertyOp28
 70
     1
102
RTVSPropertyOp29
 70
     1
102
RTVSPropertyOp30
 70
     1
102
RTVSPropertyOp31
 70
     1
102
RTVSPropertyOp32
 70
     1
102
RTVSPropertyOp33
 70
     1
102
RTVSPropertyOp34
 70
     1
102
RTVSPropertyOp35
 70
     1
102
RTVSPropertyOp36
 70
     1
102
RTVSPropertyOp37
 70
     0
102
RTVSPropertyOp38
 70
     0
102
RTVSPropertyOp39
 70
     0
102
RTVSPropertyOp40
 70
     0
102
RTVSPropertyOp41
 70
     0
102
RTVSPropertyOp42
 70
     0
102
RTVSPropertyOp43
 70
     0
102
RTVSPropertyOp44
 70
     0
102
RTVSPropertyOp45
 70
     1
102
RTVSPropertyOp46
 70
     0
102
RTVSPropertyOp47
 70
     0
102
RTVSPropertyOp48
 70
     0
102
RTVSPropertyOp49
 70
     1
102
RTVSPropertyOp50
 70
     0
102
RTVSPropertyOp51
 70
     0
102
RTVSPropertyOp52
 70
     0
102
RTVSPropertyOp53
 70
     0
102
RTVSPropertyOp54
 70
     0
102
RTVSPropertyOp55
 70
     1
102
RTVSPropertyOp56
 70
     0
102
RTVSPropertyOp57
 70
     0
102
RTVSPropertyOp58
 70
     0
102
RTVSPropertyOp59
 70
     0
102
RTVSPropertyOp60
 70
     0
102
RTVSPropertyOp61
 70
     0
102
RTVSPropertyOp62
 70
     0
  0
XRECORD
  5
569
102
{ACAD_REACTORS
330
568
102
}
330
568
100
AcDbXrecord
280
     1
102
RTVSPost2010Prop28
280
     0
102
RTVSPost2010PropOp28
 70
     1
102
RTVSPost2010Prop29
280
     1
102
RTVSPost2010PropOp29
 70
     1
102
RTVSPost2010Prop30
280
     1
102
RTVSPost2010PropOp30
 70
     1
102
RTVSPost2010Prop31
280
     0
102
RTVSPost2010PropOp31
 70
     1
102
RTVSPost2010Prop32
280
     0
102
RTVSPost2010PropOp32
 70
     1
102
RTVSPost2010Prop33
280
     0
102
RTVSPost2010PropOp33
 70
     1
102
RTVSPost2010Prop34
280
     0
102
RTVSPost2010PropOp34
 70
     1
102
RTVSPost2010Prop35
280
     0
102
RTVSPost2010PropOp35
 70
     1
102
RTVSPost2010Prop36
280
     0
102
RTVSPost2010PropOp36
 70
     1
102
RTVSPost2010Prop37
 90
       50
102
RTVSPost2010PropOp37
 70
     1
102
RTVSPost2010Prop38
140
0.0
102
RTVSPost2010PropOp38
 70
     1
102
RTVSPost2010Prop39
140
1.0
102
RTVSPost2010PropOp39
 70
     1
102
RTVSPost2010Prop40
 90
        0
102
RTVSPost2010PropOp40
 70
     1
102
RTVSPost2010Prop41ColorIndex
 90
       18
102
RTVSPost2010Prop41ColorRGB
 90
        0
102
RTVSPost2010PropOp41
 70
     1
102
RTVSPost2010Prop42
 90
       50
102
RTVSPost2010PropOp42
 70
     1
102
RTVSPost2010Prop43
 90
        3
102
RTVSPost2010PropOp43
 70
     1
102
RTVSPost2010Prop44ColorIndex
 90
        5
102
RTVSPost2010Prop44ColorRGB
 90
      255
102
RTVSPost2010PropOp44
 70
     1
102
RTVSPost2010Prop45
280
     0
102
RTVSPost2010PropOp45
 70
     1
102
RTVSPost2010Prop46
 90
       50
102
RTVSPost2010PropOp46
 70
     1
102
RTVSPost2010Prop47
 90
       50
102
RTVSPost2010PropOp47
 70
     1
102
RTVSPost2010Prop48
 90
       50
102
RTVSPost2010PropOp48
 70
     1
102
RTVSPost2010Prop49
280
     0
102
RTVSPost2010PropOp49
 70
     1
102
RTVSPost2010Prop50
 90
       50
102
RTVSPost2010PropOp50
 70
     1
102
RTVSPost2010Prop51ColorIndex
 90
      256
102
RTVSPost2010Prop51ColorRGB
 90
-16777216
102
RTVSPost2010PropOp51
 70
     0
102
RTVSPost2010Prop52
140
1.0
102
RTVSPost2010PropOp52
 70
     0
102
RTVSPost2010Prop53
 90
        2
102
RTVSPost2010PropOp53
 70
     1
102
RTVSPost2010Prop54
  1
strokes_ogs.tif
102
RTVSPost2010PropOp54
 70
     1
102
RTVSPost2010Prop55
280
     0
102
RTVSPost2010PropOp55
 70
     1
102
RTVSPost2010Prop56
140
1.0
102
RTVSPost2010PropOp56
 70
     1
102
RTVSPost2010Prop57
140
1.0
102
RTVSPost2010PropOp57
 70
     1
102
RTVSPropertyOp0
 70
     1
102
RTVSPropertyOp1
 70
     1
102
RTVSPropertyOp2
 70
     1
102
RTVSPropertyOp3
 70
     1
102
RTVSPropertyOp4
 70
     1
102
RTVSPropertyOp5
 70
     1
102
RTVSPropertyOp6
 70
     1
102
RTVSPropertyOp7
 70
     1
102
RTVSPropertyOp8
 70
     1
102
RTVSPropertyOp9
 70
     1
102
RTVSPropertyOp10
 70
     1
102
RTVSPropertyOp11
 70
     1
102
RTVSPropertyOp12
 70
     1
102
RTVSPropertyOp13
 70
     1
102
RTVSPropertyOp14
 70
     1
102
RTVSPropertyOp15
 70
     1
102
RTVSPropertyOp16
 70
     1
102
RTVSPropertyOp17
 70
     1
102
RTVSPropertyOp18
 70
     1
102
RTVSPropertyOp19
 70
     1
102
RTVSPropertyOp20
 70
     1
102
RTVSPropertyOp21
 70
     1
102
RTVSPropertyOp22
 70
     1
102
RTVSPropertyOp23
 70
     1
102
RTVSPropertyOp24
 70
     1
102
RTVSPropertyOp25
 70
     1
102
RTVSPropertyOp26
 70
     1
102
RTVSPropertyOp27
 70
     1
102
RTVSPropertyOp28
 70
     1
102
RTVSPropertyOp29
 70
     1
102
RTVSPropertyOp30
 70
     1
102
RTVSPropertyOp31
 70
     1
102
RTVSPropertyOp32
 70
     1
102
RTVSPropertyOp33
 70
     1
102
RTVSPropertyOp34
 70
     1
102
RTVSPropertyOp35
 70
     1
102
RTVSPropertyOp36
 70
     1
102
RTVSPropertyOp37
 70
     1
102
RTVSPropertyOp38
 70
     1
102
RTVSPropertyOp39
 70
     1
102
RTVSPropertyOp40
 70
     1
102
RTVSPropertyOp41
 70
     1
102
RTVSPropertyOp42
 70
     1
102
RTVSPropertyOp43
 70
     1
102
RTVSPropertyOp44
 70
     1
102
RTVSPropertyOp45
 70
     1
102
RTVSPropertyOp46
 70
     1
102
RTVSPropertyOp47
 70
     1
102
RTVSPropertyOp48
 70
     1
102
RTVSPropertyOp49
 70
     1
102
RTVSPropertyOp50
 70
     1
102
RTVSPropertyOp51
 70
     0
102
RTVSPropertyOp52
 70
     0
102
RTVSPropertyOp53
 70
     1
102
RTVSPropertyOp54
 70
     1
102
RTVSPropertyOp55
 70
     1
102
RTVSPropertyOp56
 70
     1
102
RTVSPropertyOp57
 70
     1
102
RTVSPropertyOp58
 70
     1
102
RTVSPropertyOp59
 70
     1
102
RTVSPropertyOp60
 70
     1
102
RTVSPropertyOp61
 70
     1
102
RTVSPropertyOp62
 70
     1
  0
XRECORD
  5
57B
102
{ACAD_REACTORS
330
57A
102
}
330
57A
100
AcDbXrecord
280
     1
102
RTVSPost2010Prop28
280
     0
102
RTVSPost2010PropOp28
 70
     1
102
RTVSPost2010Prop29
280
     1
102
RTVSPost2010PropOp29
 70
     1
102
RTVSPost2010Prop30
280
     1
102
RTVSPost2010PropOp30
 70
     1
102
RTVSPost2010Prop31
280
     0
102
RTVSPost2010PropOp31
 70
     1
102
RTVSPost2010Prop32
280
     0
102
RTVSPost2010PropOp32
 70
     1
102
RTVSPost2010Prop33
280
     0
102
RTVSPost2010PropOp33
 70
     1
102
RTVSPost2010Prop34
280
     0
102
RTVSPost2010PropOp34
 70
     1
102
RTVSPost2010Prop35
280
     0
102
RTVSPost2010PropOp35
 70
     1
102
RTVSPost2010Prop36
280
     0
102
RTVSPost2010PropOp36
 70
     1
102
RTVSPost2010Prop37
 90
       50
102
RTVSPost2010PropOp37
 70
     0
102
RTVSPost2010Prop38
140
0.0
102
RTVSPost2010PropOp38
 70
     0
102
RTVSPost2010Prop39
140
1.0
102
RTVSPost2010PropOp39
 70
     0
102
RTVSPost2010Prop40
 90
        0
102
RTVSPost2010PropOp40
 70
     0
102
RTVSPost2010Prop41ColorIndex
 90
       18
102
RTVSPost2010Prop41ColorRGB
 90
        0
102
RTVSPost2010PropOp41
 70
     0
102
RTVSPost2010Prop42
 90
       50
102
RTVSPost2010PropOp42
 70
     0
102
RTVSPost2010Prop43
 90
        3
102
RTVSPost2010PropOp43
 70
     0
102
RTVSPost2010Prop44ColorIndex
 90
        5
102
RTVSPost2010Prop44ColorRGB
 90
      255
102
RTVSPost2010PropOp44
 70
     0
102
RTVSPost2010Prop45
280
     0
102
RTVSPost2010PropOp45
 70
     1
102
RTVSPost2010Prop46
 90
       50
102
RTVSPost2010PropOp46
 70
     0
102
RTVSPost2010Prop47
 90
       50
102
RTVSPost2010PropOp47
 70
     0
102
RTVSPost2010Prop48
 90
       50
102
RTVSPost2010PropOp48
 70
     0
102
RTVSPost2010Prop49
280
     0
102
RTVSPost2010PropOp49
 70
     1
102
RTVSPost2010Prop50
 90
       50
102
RTVSPost2010PropOp50
 70
     0
102
RTVSPost2010Prop51ColorIndex
 90
      256
102
RTVSPost2010Prop51ColorRGB
 90
-16777216
102
RTVSPost2010PropOp51
 70
     0
102
RTVSPost2010Prop52
140
1.0
102
RTVSPost2010PropOp52
 70
     0
102
RTVSPost2010Prop53
 90
        2
102
RTVSPost2010PropOp53
 70
     0
102
RTVSPost2010Prop54
  1
strokes_ogs.tif
102
RTVSPost2010PropOp54
 70
     0
102
RTVSPost2010Prop55
280
     0
102
RTVSPost2010PropOp55
 70
     1
102
RTVSPost2010Prop56
140
1.0
102
RTVSPost2010PropOp56
 70
     0
102
RTVSPost2010Prop57
140
1.0
102
RTVSPost2010PropOp57
 70
     0
102
RTVSPropertyOp0
 70
     0
102
RTVSPropertyOp1
 70
     0
102
RTVSPropertyOp2
 70
     0
102
RTVSPropertyOp3
 70
     0
102
RTVSPropertyOp4
 70
     0
102
RTVSPropertyOp5
 70
     0
102
RTVSPropertyOp6
 70
     0
102
RTVSPropertyOp7
 70
     0
102
RTVSPropertyOp8
 70
     0
102
RTVSPropertyOp9
 70
     0
102
RTVSPropertyOp10
 70
     0
102
RTVSPropertyOp11
 70
     0
102
RTVSPropertyOp12
 70
     0
102
RTVSPropertyOp13
 70
     0
102
RTVSPropertyOp14
 70
     2
102
RTVSPropertyOp15
 70
     0
102
RTVSPropertyOp16
 70
     0
102
RTVSPropertyOp17
 70
     0
102
RTVSPropertyOp18
 70
     0
102
RTVSPropertyOp19
 70
     0
102
RTVSPropertyOp20
 70
     0
102
RTVSPropertyOp21
 70
     0
102
RTVSPropertyOp22
 70
     0
102
RTVSPropertyOp23
 70
     0
102
RTVSPropertyOp24
 70
     0
102
RTVSPropertyOp25
 70
     0
102
RTVSPropertyOp26
 70
     0
102
RTVSPropertyOp27
 70
     0
102
RTVSPropertyOp28
 70
     1
102
RTVSPropertyOp29
 70
     1
102
RTVSPropertyOp30
 70
     1
102
RTVSPropertyOp31
 70
     1
102
RTVSPropertyOp32
 70
     1
102
RTVSPropertyOp33
 70
     1
102
RTVSPropertyOp34
 70
     1
102
RTVSPropertyOp35
 70
     1
102
RTVSPropertyOp36
 70
     1
102
RTVSPropertyOp37
 70
     0
102
RTVSPropertyOp38
 70
     0
102
RTVSPropertyOp39
 70
     0
102
RTVSPropertyOp40
 70
     0
102
RTVSPropertyOp41
 70
     0
102
RTVSPropertyOp42
 70
     0
102
RTVSPropertyOp43
 70
     0
102
RTVSPropertyOp44
 70
     0
102
RTVSPropertyOp45
 70
     1
102
RTVSPropertyOp46
 70
     0
102
RTVSPropertyOp47
 70
     0
102
RTVSPropertyOp48
 70
     0
102
RTVSPropertyOp49
 70
     1
102
RTVSPropertyOp50
 70
     0
102
RTVSPropertyOp51
 70
     0
102
RTVSPropertyOp52
 70
     0
102
RTVSPropertyOp53
 70
     0
102
RTVSPropertyOp54
 70
     0
102
RTVSPropertyOp55
 70
     1
102
RTVSPropertyOp56
 70
     0
102
RTVSPropertyOp57
 70
     0
102
RTVSPropertyOp58
 70
     0
102
RTVSPropertyOp59
 70
     0
102
RTVSPropertyOp60
 70
     0
102
RTVSPropertyOp61
 70
     0
102
RTVSPropertyOp62
 70
     0
  0
XRECORD
  5
561
102
{ACAD_REACTORS
330
560
102
}
330
560
100
AcDbXrecord
280
     1
102
RTVSPost2010Prop28
280
     0
102
RTVSPost2010PropOp28
 70
     1
102
RTVSPost2010Prop29
280
     1
102
RTVSPost2010PropOp29
 70
     1
102
RTVSPost2010Prop30
280
     1
102
RTVSPost2010PropOp30
 70
     1
102
RTVSPost2010Prop31
280
     0
102
RTVSPost2010PropOp31
 70
     1
102
RTVSPost2010Prop32
280
     0
102
RTVSPost2010PropOp32
 70
     1
102
RTVSPost2010Prop33
280
     0
102
RTVSPost2010PropOp33
 70
     1
102
RTVSPost2010Prop34
280
     0
102
RTVSPost2010PropOp34
 70
     1
102
RTVSPost2010Prop35
280
     0
102
RTVSPost2010PropOp35
 70
     1
102
RTVSPost2010Prop36
280
     0
102
RTVSPost2010PropOp36
 70
     1
102
RTVSPost2010Prop37
 90
       50
102
RTVSPost2010PropOp37
 70
     1
102
RTVSPost2010Prop38
140
0.0
102
RTVSPost2010PropOp38
 70
     1
102
RTVSPost2010Prop39
140
1.0
102
RTVSPost2010PropOp39
 70
     1
102
RTVSPost2010Prop40
 90
        0
102
RTVSPost2010PropOp40
 70
     1
102
RTVSPost2010Prop41ColorIndex
 90
       18
102
RTVSPost2010Prop41ColorRGB
 90
        0
102
RTVSPost2010PropOp41
 70
     1
102
RTVSPost2010Prop42
 90
       50
102
RTVSPost2010PropOp42
 70
     1
102
RTVSPost2010Prop43
 90
        3
102
RTVSPost2010PropOp43
 70
     1
102
RTVSPost2010Prop44ColorIndex
 90
        5
102
RTVSPost2010Prop44ColorRGB
 90
      255
102
RTVSPost2010PropOp44
 70
     1
102
RTVSPost2010Prop45
280
     0
102
RTVSPost2010PropOp45
 70
     1
102
RTVSPost2010Prop46
 90
       50
102
RTVSPost2010PropOp46
 70
     1
102
RTVSPost2010Prop47
 90
       50
102
RTVSPost2010PropOp47
 70
     1
102
RTVSPost2010Prop48
 90
       50
102
RTVSPost2010PropOp48
 70
     1
102
RTVSPost2010Prop49
280
     0
102
RTVSPost2010PropOp49
 70
     1
102
RTVSPost2010Prop50
 90
       50
102
RTVSPost2010PropOp50
 70
     1
102
RTVSPost2010Prop51ColorIndex
 90
      256
102
RTVSPost2010Prop51ColorRGB
 90
-16777216
102
RTVSPost2010PropOp51
 70
     0
102
RTVSPost2010Prop52
140
1.0
102
RTVSPost2010PropOp52
 70
     0
102
RTVSPost2010Prop53
 90
        2
102
RTVSPost2010PropOp53
 70
     1
102
RTVSPost2010Prop54
  1
strokes_ogs.tif
102
RTVSPost2010PropOp54
 70
     1
102
RTVSPost2010Prop55
280
     0
102
RTVSPost2010PropOp55
 70
     1
102
RTVSPost2010Prop56
140
1.0
102
RTVSPost2010PropOp56
 70
     1
102
RTVSPost2010Prop57
140
1.0
102
RTVSPost2010PropOp57
 70
     1
102
RTVSPropertyOp0
 70
     1
102
RTVSPropertyOp1
 70
     1
102
RTVSPropertyOp2
 70
     1
102
RTVSPropertyOp3
 70
     1
102
RTVSPropertyOp4
 70
     1
102
RTVSPropertyOp5
 70
     1
102
RTVSPropertyOp6
 70
     1
102
RTVSPropertyOp7
 70
     1
102
RTVSPropertyOp8
 70
     1
102
RTVSPropertyOp9
 70
     1
102
RTVSPropertyOp10
 70
     1
102
RTVSPropertyOp11
 70
     1
102
RTVSPropertyOp12
 70
     1
102
RTVSPropertyOp13
 70
     1
102
RTVSPropertyOp14
 70
     1
102
RTVSPropertyOp15
 70
     1
102
RTVSPropertyOp16
 70
     1
102
RTVSPropertyOp17
 70
     1
102
RTVSPropertyOp18
 70
     1
102
RTVSPropertyOp19
 70
     1
102
RTVSPropertyOp20
 70
     1
102
RTVSPropertyOp21
 70
     1
102
RTVSPropertyOp22
 70
     1
102
RTVSPropertyOp23
 70
     1
102
RTVSPropertyOp24
 70
     1
102
RTVSPropertyOp25
 70
     1
102
RTVSPropertyOp26
 70
     1
102
RTVSPropertyOp27
 70
     1
102
RTVSPropertyOp28
 70
     1
102
RTVSPropertyOp29
 70
     1
102
RTVSPropertyOp30
 70
     1
102
RTVSPropertyOp31
 70
     1
102
RTVSPropertyOp32
 70
     1
102
RTVSPropertyOp33
 70
     1
102
RTVSPropertyOp34
 70
     1
102
RTVSPropertyOp35
 70
     1
102
RTVSPropertyOp36
 70
     1
102
RTVSPropertyOp37
 70
     1
102
RTVSPropertyOp38
 70
     1
102
RTVSPropertyOp39
 70
     1
102
RTVSPropertyOp40
 70
     1
102
RTVSPropertyOp41
 70
     1
102
RTVSPropertyOp42
 70
     1
102
RTVSPropertyOp43
 70
     1
102
RTVSPropertyOp44
 70
     1
102
RTVSPropertyOp45
 70
     1
102
RTVSPropertyOp46
 70
     1
102
RTVSPropertyOp47
 70
     1
102
RTVSPropertyOp48
 70
     1
102
RTVSPropertyOp49
 70
     1
102
RTVSPropertyOp50
 70
     1
102
RTVSPropertyOp51
 70
     0
102
RTVSPropertyOp52
 70
     0
102
RTVSPropertyOp53
 70
     1
102
RTVSPropertyOp54
 70
     1
102
RTVSPropertyOp55
 70
     1
102
RTVSPropertyOp56
 70
     1
102
RTVSPropertyOp57
 70
     1
102
RTVSPropertyOp58
 70
     1
102
RTVSPropertyOp59
 70
     1
102
RTVSPropertyOp60
 70
     1
102
RTVSPropertyOp61
 70
     1
102
RTVSPropertyOp62
 70
     1
  0
XRECORD
  5
577
102
{ACAD_REACTORS
330
576
102
}
330
576
100
AcDbXrecord
280
     1
102
RTVSPost2010Prop28
280
     0
102
RTVSPost2010PropOp28
 70
     1
102
RTVSPost2010Prop29
280
     1
102
RTVSPost2010PropOp29
 70
     1
102
RTVSPost2010Prop30
280
     1
102
RTVSPost2010PropOp30
 70
     1
102
RTVSPost2010Prop31
280
     0
102
RTVSPost2010PropOp31
 70
     1
102
RTVSPost2010Prop32
280
     0
102
RTVSPost2010PropOp32
 70
     1
102
RTVSPost2010Prop33
280
     0
102
RTVSPost2010PropOp33
 70
     1
102
RTVSPost2010Prop34
280
     0
102
RTVSPost2010PropOp34
 70
     1
102
RTVSPost2010Prop35
280
     0
102
RTVSPost2010PropOp35
 70
     1
102
RTVSPost2010Prop36
280
     0
102
RTVSPost2010PropOp36
 70
     1
102
RTVSPost2010Prop37
 90
       50
102
RTVSPost2010PropOp37
 70
     1
102
RTVSPost2010Prop38
140
0.0
102
RTVSPost2010PropOp38
 70
     1
102
RTVSPost2010Prop39
140
1.0
102
RTVSPost2010PropOp39
 70
     1
102
RTVSPost2010Prop40
 90
        0
102
RTVSPost2010PropOp40
 70
     1
102
RTVSPost2010Prop41ColorIndex
 90
       18
102
RTVSPost2010Prop41ColorRGB
 90
        0
102
RTVSPost2010PropOp41
 70
     1
102
RTVSPost2010Prop42
 90
       50
102
RTVSPost2010PropOp42
 70
     1
102
RTVSPost2010Prop43
 90
        3
102
RTVSPost2010PropOp43
 70
     1
102
RTVSPost2010Prop44ColorIndex
 90
        5
102
RTVSPost2010Prop44ColorRGB
 90
      255
102
RTVSPost2010PropOp44
 70
     1
102
RTVSPost2010Prop45
280
     0
102
RTVSPost2010PropOp45
 70
     1
102
RTVSPost2010Prop46
 90
       50
102
RTVSPost2010PropOp46
 70
     1
102
RTVSPost2010Prop47
 90
       50
102
RTVSPost2010PropOp47
 70
     1
102
RTVSPost2010Prop48
 90
       50
102
RTVSPost2010PropOp48
 70
     1
102
RTVSPost2010Prop49
280
     0
102
RTVSPost2010PropOp49
 70
     1
102
RTVSPost2010Prop50
 90
       50
102
RTVSPost2010PropOp50
 70
     1
102
RTVSPost2010Prop51ColorIndex
 90
      256
102
RTVSPost2010Prop51ColorRGB
 90
-16777216
102
RTVSPost2010PropOp51
 70
     0
102
RTVSPost2010Prop52
140
1.0
102
RTVSPost2010PropOp52
 70
     0
102
RTVSPost2010Prop53
 90
        2
102
RTVSPost2010PropOp53
 70
     1
102
RTVSPost2010Prop54
  1
strokes_ogs.tif
102
RTVSPost2010PropOp54
 70
     1
102
RTVSPost2010Prop55
280
     0
102
RTVSPost2010PropOp55
 70
     1
102
RTVSPost2010Prop56
140
1.0
102
RTVSPost2010PropOp56
 70
     1
102
RTVSPost2010Prop57
140
1.0
102
RTVSPost2010PropOp57
 70
     1
102
RTVSPropertyOp0
 70
     1
102
RTVSPropertyOp1
 70
     1
102
RTVSPropertyOp2
 70
     1
102
RTVSPropertyOp3
 70
     1
102
RTVSPropertyOp4
 70
     1
102
RTVSPropertyOp5
 70
     1
102
RTVSPropertyOp6
 70
     1
102
RTVSPropertyOp7
 70
     1
102
RTVSPropertyOp8
 70
     1
102
RTVSPropertyOp9
 70
     1
102
RTVSPropertyOp10
 70
     1
102
RTVSPropertyOp11
 70
     1
102
RTVSPropertyOp12
 70
     1
102
RTVSPropertyOp13
 70
     1
102
RTVSPropertyOp14
 70
     1
102
RTVSPropertyOp15
 70
     1
102
RTVSPropertyOp16
 70
     1
102
RTVSPropertyOp17
 70
     1
102
RTVSPropertyOp18
 70
     1
102
RTVSPropertyOp19
 70
     1
102
RTVSPropertyOp20
 70
     1
102
RTVSPropertyOp21
 70
     1
102
RTVSPropertyOp22
 70
     1
102
RTVSPropertyOp23
 70
     1
102
RTVSPropertyOp24
 70
     1
102
RTVSPropertyOp25
 70
     1
102
RTVSPropertyOp26
 70
     1
102
RTVSPropertyOp27
 70
     1
102
RTVSPropertyOp28
 70
     1
102
RTVSPropertyOp29
 70
     1
102
RTVSPropertyOp30
 70
     1
102
RTVSPropertyOp31
 70
     1
102
RTVSPropertyOp32
 70
     1
102
RTVSPropertyOp33
 70
     1
102
RTVSPropertyOp34
 70
     1
102
RTVSPropertyOp35
 70
     1
102
RTVSPropertyOp36
 70
     1
102
RTVSPropertyOp37
 70
     1
102
RTVSPropertyOp38
 70
     1
102
RTVSPropertyOp39
 70
     1
102
RTVSPropertyOp40
 70
     1
102
RTVSPropertyOp41
 70
     1
102
RTVSPropertyOp42
 70
     1
102
RTVSPropertyOp43
 70
     1
102
RTVSPropertyOp44
 70
     1
102
RTVSPropertyOp45
 70
     1
102
RTVSPropertyOp46
 70
     1
102
RTVSPropertyOp47
 70
     1
102
RTVSPropertyOp48
 70
     1
102
RTVSPropertyOp49
 70
     1
102
RTVSPropertyOp50
 70
     1
102
RTVSPropertyOp51
 70
     0
102
RTVSPropertyOp52
 70
     0
102
RTVSPropertyOp53
 70
     1
102
RTVSPropertyOp54
 70
     1
102
RTVSPropertyOp55
 70
     1
102
RTVSPropertyOp56
 70
     1
102
RTVSPropertyOp57
 70
     1
102
RTVSPropertyOp58
 70
     1
102
RTVSPropertyOp59
 70
     1
102
RTVSPropertyOp60
 70
     1
102
RTVSPropertyOp61
 70
     1
102
RTVSPropertyOp62
 70
     1
  0
XRECORD
  5
575
102
{ACAD_REACTORS
330
574
102
}
330
574
100
AcDbXrecord
280
     1
102
RTVSPost2010Prop28
280
     0
102
RTVSPost2010PropOp28
 70
     1
102
RTVSPost2010Prop29
280
     1
102
RTVSPost2010PropOp29
 70
     1
102
RTVSPost2010Prop30
280
     1
102
RTVSPost2010PropOp30
 70
     1
102
RTVSPost2010Prop31
280
     0
102
RTVSPost2010PropOp31
 70
     1
102
RTVSPost2010Prop32
280
     0
102
RTVSPost2010PropOp32
 70
     1
102
RTVSPost2010Prop33
280
     0
102
RTVSPost2010PropOp33
 70
     1
102
RTVSPost2010Prop34
280
     0
102
RTVSPost2010PropOp34
 70
     1
102
RTVSPost2010Prop35
280
     0
102
RTVSPost2010PropOp35
 70
     1
102
RTVSPost2010Prop36
280
     0
102
RTVSPost2010PropOp36
 70
     1
102
RTVSPost2010Prop37
 90
       50
102
RTVSPost2010PropOp37
 70
     1
102
RTVSPost2010Prop38
140
0.0
102
RTVSPost2010PropOp38
 70
     1
102
RTVSPost2010Prop39
140
1.0
102
RTVSPost2010PropOp39
 70
     1
102
RTVSPost2010Prop40
 90
        0
102
RTVSPost2010PropOp40
 70
     1
102
RTVSPost2010Prop41ColorIndex
 90
       18
102
RTVSPost2010Prop41ColorRGB
 90
        0
102
RTVSPost2010PropOp41
 70
     1
102
RTVSPost2010Prop42
 90
       50
102
RTVSPost2010PropOp42
 70
     1
102
RTVSPost2010Prop43
 90
        3
102
RTVSPost2010PropOp43
 70
     1
102
RTVSPost2010Prop44ColorIndex
 90
        5
102
RTVSPost2010Prop44ColorRGB
 90
      255
102
RTVSPost2010PropOp44
 70
     1
102
RTVSPost2010Prop45
280
     0
102
RTVSPost2010PropOp45
 70
     1
102
RTVSPost2010Prop46
 90
       50
102
RTVSPost2010PropOp46
 70
     1
102
RTVSPost2010Prop47
 90
       50
102
RTVSPost2010PropOp47
 70
     1
102
RTVSPost2010Prop48
 90
       50
102
RTVSPost2010PropOp48
 70
     1
102
RTVSPost2010Prop49
280
     0
102
RTVSPost2010PropOp49
 70
     1
102
RTVSPost2010Prop50
 90
       50
102
RTVSPost2010PropOp50
 70
     1
102
RTVSPost2010Prop51ColorIndex
 90
      256
102
RTVSPost2010Prop51ColorRGB
 90
-16777216
102
RTVSPost2010PropOp51
 70
     0
102
RTVSPost2010Prop52
140
1.0
102
RTVSPost2010PropOp52
 70
     0
102
RTVSPost2010Prop53
 90
        2
102
RTVSPost2010PropOp53
 70
     1
102
RTVSPost2010Prop54
  1
strokes_ogs.tif
102
RTVSPost2010PropOp54
 70
     1
102
RTVSPost2010Prop55
280
     0
102
RTVSPost2010PropOp55
 70
     1
102
RTVSPost2010Prop56
140
1.0
102
RTVSPost2010PropOp56
 70
     1
102
RTVSPost2010Prop57
140
1.0
102
RTVSPost2010PropOp57
 70
     1
102
RTVSPropertyOp0
 70
     1
102
RTVSPropertyOp1
 70
     1
102
RTVSPropertyOp2
 70
     1
102
RTVSPropertyOp3
 70
     1
102
RTVSPropertyOp4
 70
     1
102
RTVSPropertyOp5
 70
     1
102
RTVSPropertyOp6
 70
     1
102
RTVSPropertyOp7
 70
     1
102
RTVSPropertyOp8
 70
     1
102
RTVSPropertyOp9
 70
     1
102
RTVSPropertyOp10
 70
     1
102
RTVSPropertyOp11
 70
     1
102
RTVSPropertyOp12
 70
     1
102
RTVSPropertyOp13
 70
     1
102
RTVSPropertyOp14
 70
     1
102
RTVSPropertyOp15
 70
     1
102
RTVSPropertyOp16
 70
     1
102
RTVSPropertyOp17
 70
     1
102
RTVSPropertyOp18
 70
     1
102
RTVSPropertyOp19
 70
     1
102
RTVSPropertyOp20
 70
     1
102
RTVSPropertyOp21
 70
     1
102
RTVSPropertyOp22
 70
     1
102
RTVSPropertyOp23
 70
     1
102
RTVSPropertyOp24
 70
     1
102
RTVSPropertyOp25
 70
     1
102
RTVSPropertyOp26
 70
     1
102
RTVSPropertyOp27
 70
     1
102
RTVSPropertyOp28
 70
     1
102
RTVSPropertyOp29
 70
     1
102
RTVSPropertyOp30
 70
     1
102
RTVSPropertyOp31
 70
     1
102
RTVSPropertyOp32
 70
     1
102
RTVSPropertyOp33
 70
     1
102
RTVSPropertyOp34
 70
     1
102
RTVSPropertyOp35
 70
     1
102
RTVSPropertyOp36
 70
     1
102
RTVSPropertyOp37
 70
     1
102
RTVSPropertyOp38
 70
     1
102
RTVSPropertyOp39
 70
     1
102
RTVSPropertyOp40
 70
     1
102
RTVSPropertyOp41
 70
     1
102
RTVSPropertyOp42
 70
     1
102
RTVSPropertyOp43
 70
     1
102
RTVSPropertyOp44
 70
     1
102
RTVSPropertyOp45
 70
     1
102
RTVSPropertyOp46
 70
     1
102
RTVSPropertyOp47
 70
     1
102
RTVSPropertyOp48
 70
     1
102
RTVSPropertyOp49
 70
     1
102
RTVSPropertyOp50
 70
     1
102
RTVSPropertyOp51
 70
     0
102
RTVSPropertyOp52
 70
     0
102
RTVSPropertyOp53
 70
     1
102
RTVSPropertyOp54
 70
     1
102
RTVSPropertyOp55
 70
     1
102
RTVSPropertyOp56
 70
     1
102
RTVSPropertyOp57
 70
     1
102
RTVSPropertyOp58
 70
     1
102
RTVSPropertyOp59
 70
     1
102
RTVSPropertyOp60
 70
     1
102
RTVSPropertyOp61
 70
     1
102
RTVSPropertyOp62
 70
     1
  0
XRECORD
  5
56F
102
{ACAD_REACTORS
330
56E
102
}
330
56E
100
AcDbXrecord
280
     1
102
RTVSPost2010Prop28
280
     0
102
RTVSPost2010PropOp28
 70
     1
102
RTVSPost2010Prop29
280
     1
102
RTVSPost2010PropOp29
 70
     1
102
RTVSPost2010Prop30
280
     1
102
RTVSPost2010PropOp30
 70
     1
102
RTVSPost2010Prop31
280
     0
102
RTVSPost2010PropOp31
 70
     1
102
RTVSPost2010Prop32
280
     0
102
RTVSPost2010PropOp32
 70
     1
102
RTVSPost2010Prop33
280
     0
102
RTVSPost2010PropOp33
 70
     1
102
RTVSPost2010Prop34
280
     0
102
RTVSPost2010PropOp34
 70
     1
102
RTVSPost2010Prop35
280
     0
102
RTVSPost2010PropOp35
 70
     1
102
RTVSPost2010Prop36
280
     0
102
RTVSPost2010PropOp36
 70
     1
102
RTVSPost2010Prop37
 90
       50
102
RTVSPost2010PropOp37
 70
     1
102
RTVSPost2010Prop38
140
0.0
102
RTVSPost2010PropOp38
 70
     1
102
RTVSPost2010Prop39
140
1.0
102
RTVSPost2010PropOp39
 70
     1
102
RTVSPost2010Prop40
 90
        0
102
RTVSPost2010PropOp40
 70
     1
102
RTVSPost2010Prop41ColorIndex
 90
       18
102
RTVSPost2010Prop41ColorRGB
 90
        0
102
RTVSPost2010PropOp41
 70
     1
102
RTVSPost2010Prop42
 90
       50
102
RTVSPost2010PropOp42
 70
     1
102
RTVSPost2010Prop43
 90
        3
102
RTVSPost2010PropOp43
 70
     1
102
RTVSPost2010Prop44ColorIndex
 90
        5
102
RTVSPost2010Prop44ColorRGB
 90
      255
102
RTVSPost2010PropOp44
 70
     1
102
RTVSPost2010Prop45
280
     0
102
RTVSPost2010PropOp45
 70
     1
102
RTVSPost2010Prop46
 90
       50
102
RTVSPost2010PropOp46
 70
     1
102
RTVSPost2010Prop47
 90
       50
102
RTVSPost2010PropOp47
 70
     1
102
RTVSPost2010Prop48
 90
       50
102
RTVSPost2010PropOp48
 70
     1
102
RTVSPost2010Prop49
280
     0
102
RTVSPost2010PropOp49
 70
     1
102
RTVSPost2010Prop50
 90
       50
102
RTVSPost2010PropOp50
 70
     1
102
RTVSPost2010Prop51ColorIndex
 90
      256
102
RTVSPost2010Prop51ColorRGB
 90
-16777216
102
RTVSPost2010PropOp51
 70
     0
102
RTVSPost2010Prop52
140
1.0
102
RTVSPost2010PropOp52
 70
     0
102
RTVSPost2010Prop53
 90
        2
102
RTVSPost2010PropOp53
 70
     1
102
RTVSPost2010Prop54
  1
strokes_ogs.tif
102
RTVSPost2010PropOp54
 70
     1
102
RTVSPost2010Prop55
280
     0
102
RTVSPost2010PropOp55
 70
     1
102
RTVSPost2010Prop56
140
1.0
102
RTVSPost2010PropOp56
 70
     1
102
RTVSPost2010Prop57
140
1.0
102
RTVSPost2010PropOp57
 70
     1
102
RTVSPropertyOp0
 70
     1
102
RTVSPropertyOp1
 70
     1
102
RTVSPropertyOp2
 70
     1
102
RTVSPropertyOp3
 70
     1
102
RTVSPropertyOp4
 70
     1
102
RTVSPropertyOp5
 70
     1
102
RTVSPropertyOp6
 70
     1
102
RTVSPropertyOp7
 70
     1
102
RTVSPropertyOp8
 70
     1
102
RTVSPropertyOp9
 70
     1
102
RTVSPropertyOp10
 70
     1
102
RTVSPropertyOp11
 70
     1
102
RTVSPropertyOp12
 70
     1
102
RTVSPropertyOp13
 70
     1
102
RTVSPropertyOp14
 70
     1
102
RTVSPropertyOp15
 70
     1
102
RTVSPropertyOp16
 70
     1
102
RTVSPropertyOp17
 70
     1
102
RTVSPropertyOp18
 70
     1
102
RTVSPropertyOp19
 70
     1
102
RTVSPropertyOp20
 70
     1
102
RTVSPropertyOp21
 70
     1
102
RTVSPropertyOp22
 70
     1
102
RTVSPropertyOp23
 70
     1
102
RTVSPropertyOp24
 70
     1
102
RTVSPropertyOp25
 70
     1
102
RTVSPropertyOp26
 70
     1
102
RTVSPropertyOp27
 70
     1
102
RTVSPropertyOp28
 70
     1
102
RTVSPropertyOp29
 70
     1
102
RTVSPropertyOp30
 70
     1
102
RTVSPropertyOp31
 70
     1
102
RTVSPropertyOp32
 70
     1
102
RTVSPropertyOp33
 70
     1
102
RTVSPropertyOp34
 70
     1
102
RTVSPropertyOp35
 70
     1
102
RTVSPropertyOp36
 70
     1
102
RTVSPropertyOp37
 70
     1
102
RTVSPropertyOp38
 70
     1
102
RTVSPropertyOp39
 70
     1
102
RTVSPropertyOp40
 70
     1
102
RTVSPropertyOp41
 70
     1
102
RTVSPropertyOp42
 70
     1
102
RTVSPropertyOp43
 70
     1
102
RTVSPropertyOp44
 70
     1
102
RTVSPropertyOp45
 70
     1
102
RTVSPropertyOp46
 70
     1
102
RTVSPropertyOp47
 70
     1
102
RTVSPropertyOp48
 70
     1
102
RTVSPropertyOp49
 70
     1
102
RTVSPropertyOp50
 70
     1
102
RTVSPropertyOp51
 70
     0
102
RTVSPropertyOp52
 70
     0
102
RTVSPropertyOp53
 70
     1
102
RTVSPropertyOp54
 70
     1
102
RTVSPropertyOp55
 70
     1
102
RTVSPropertyOp56
 70
     1
102
RTVSPropertyOp57
 70
     1
102
RTVSPropertyOp58
 70
     1
102
RTVSPropertyOp59
 70
     1
102
RTVSPropertyOp60
 70
     1
102
RTVSPropertyOp61
 70
     1
102
RTVSPropertyOp62
 70
     1
  0
XRECORD
  5
571
102
{ACAD_REACTORS
330
570
102
}
330
570
100
AcDbXrecord
280
     1
102
RTVSPost2010Prop28
280
     0
102
RTVSPost2010PropOp28
 70
     1
102
RTVSPost2010Prop29
280
     1
102
RTVSPost2010PropOp29
 70
     1
102
RTVSPost2010Prop30
280
     1
102
RTVSPost2010PropOp30
 70
     1
102
RTVSPost2010Prop31
280
     0
102
RTVSPost2010PropOp31
 70
     1
102
RTVSPost2010Prop32
280
     0
102
RTVSPost2010PropOp32
 70
     1
102
RTVSPost2010Prop33
280
     0
102
RTVSPost2010PropOp33
 70
     1
102
RTVSPost2010Prop34
280
     0
102
RTVSPost2010PropOp34
 70
     1
102
RTVSPost2010Prop35
280
     0
102
RTVSPost2010PropOp35
 70
     1
102
RTVSPost2010Prop36
280
     0
102
RTVSPost2010PropOp36
 70
     1
102
RTVSPost2010Prop37
 90
       50
102
RTVSPost2010PropOp37
 70
     1
102
RTVSPost2010Prop38
140
0.0
102
RTVSPost2010PropOp38
 70
     1
102
RTVSPost2010Prop39
140
1.0
102
RTVSPost2010PropOp39
 70
     1
102
RTVSPost2010Prop40
 90
        0
102
RTVSPost2010PropOp40
 70
     1
102
RTVSPost2010Prop41ColorIndex
 90
       18
102
RTVSPost2010Prop41ColorRGB
 90
        0
102
RTVSPost2010PropOp41
 70
     1
102
RTVSPost2010Prop42
 90
       50
102
RTVSPost2010PropOp42
 70
     1
102
RTVSPost2010Prop43
 90
        3
102
RTVSPost2010PropOp43
 70
     1
102
RTVSPost2010Prop44ColorIndex
 90
        5
102
RTVSPost2010Prop44ColorRGB
 90
      255
102
RTVSPost2010PropOp44
 70
     1
102
RTVSPost2010Prop45
280
     0
102
RTVSPost2010PropOp45
 70
     1
102
RTVSPost2010Prop46
 90
       50
102
RTVSPost2010PropOp46
 70
     1
102
RTVSPost2010Prop47
 90
       50
102
RTVSPost2010PropOp47
 70
     1
102
RTVSPost2010Prop48
 90
       50
102
RTVSPost2010PropOp48
 70
     1
102
RTVSPost2010Prop49
280
     0
102
RTVSPost2010PropOp49
 70
     1
102
RTVSPost2010Prop50
 90
       50
102
RTVSPost2010PropOp50
 70
     1
102
RTVSPost2010Prop51ColorIndex
 90
      256
102
RTVSPost2010Prop51ColorRGB
 90
-16777216
102
RTVSPost2010PropOp51
 70
     0
102
RTVSPost2010Prop52
140
1.0
102
RTVSPost2010PropOp52
 70
     0
102
RTVSPost2010Prop53
 90
        2
102
RTVSPost2010PropOp53
 70
     1
102
RTVSPost2010Prop54
  1
strokes_ogs.tif
102
RTVSPost2010PropOp54
 70
     1
102
RTVSPost2010Prop55
280
     0
102
RTVSPost2010PropOp55
 70
     1
102
RTVSPost2010Prop56
140
1.0
102
RTVSPost2010PropOp56
 70
     1
102
RTVSPost2010Prop57
140
1.0
102
RTVSPost2010PropOp57
 70
     1
102
RTVSPropertyOp0
 70
     1
102
RTVSPropertyOp1
 70
     1
102
RTVSPropertyOp2
 70
     1
102
RTVSPropertyOp3
 70
     1
102
RTVSPropertyOp4
 70
     1
102
RTVSPropertyOp5
 70
     1
102
RTVSPropertyOp6
 70
     1
102
RTVSPropertyOp7
 70
     1
102
RTVSPropertyOp8
 70
     1
102
RTVSPropertyOp9
 70
     1
102
RTVSPropertyOp10
 70
     1
102
RTVSPropertyOp11
 70
     1
102
RTVSPropertyOp12
 70
     1
102
RTVSPropertyOp13
 70
     1
102
RTVSPropertyOp14
 70
     1
102
RTVSPropertyOp15
 70
     1
102
RTVSPropertyOp16
 70
     1
102
RTVSPropertyOp17
 70
     1
102
RTVSPropertyOp18
 70
     1
102
RTVSPropertyOp19
 70
     1
102
RTVSPropertyOp20
 70
     1
102
RTVSPropertyOp21
 70
     1
102
RTVSPropertyOp22
 70
     1
102
RTVSPropertyOp23
 70
     1
102
RTVSPropertyOp24
 70
     1
102
RTVSPropertyOp25
 70
     1
102
RTVSPropertyOp26
 70
     1
102
RTVSPropertyOp27
 70
     1
102
RTVSPropertyOp28
 70
     1
102
RTVSPropertyOp29
 70
     1
102
RTVSPropertyOp30
 70
     1
102
RTVSPropertyOp31
 70
     1
102
RTVSPropertyOp32
 70
     1
102
RTVSPropertyOp33
 70
     1
102
RTVSPropertyOp34
 70
     1
102
RTVSPropertyOp35
 70
     1
102
RTVSPropertyOp36
 70
     1
102
RTVSPropertyOp37
 70
     1
102
RTVSPropertyOp38
 70
     1
102
RTVSPropertyOp39
 70
     1
102
RTVSPropertyOp40
 70
     1
102
RTVSPropertyOp41
 70
     1
102
RTVSPropertyOp42
 70
     1
102
RTVSPropertyOp43
 70
     1
102
RTVSPropertyOp44
 70
     1
102
RTVSPropertyOp45
 70
     1
102
RTVSPropertyOp46
 70
     1
102
RTVSPropertyOp47
 70
     1
102
RTVSPropertyOp48
 70
     1
102
RTVSPropertyOp49
 70
     1
102
RTVSPropertyOp50
 70
     1
102
RTVSPropertyOp51
 70
     0
102
RTVSPropertyOp52
 70
     0
102
RTVSPropertyOp53
 70
     1
102
RTVSPropertyOp54
 70
     1
102
RTVSPropertyOp55
 70
     1
102
RTVSPropertyOp56
 70
     1
102
RTVSPropertyOp57
 70
     1
102
RTVSPropertyOp58
 70
     1
102
RTVSPropertyOp59
 70
     1
102
RTVSPropertyOp60
 70
     1
102
RTVSPropertyOp61
 70
     1
102
RTVSPropertyOp62
 70
     1
  0
XRECORD
  5
567
102
{ACAD_REACTORS
330
566
102
}
330
566
100
AcDbXrecord
280
     1
102
RTVSPost2010Prop28
280
     0
102
RTVSPost2010PropOp28
 70
     1
102
RTVSPost2010Prop29
280
     1
102
RTVSPost2010PropOp29
 70
     1
102
RTVSPost2010Prop30
280
     1
102
RTVSPost2010PropOp30
 70
     1
102
RTVSPost2010Prop31
280
     0
102
RTVSPost2010PropOp31
 70
     1
102
RTVSPost2010Prop32
280
     0
102
RTVSPost2010PropOp32
 70
     1
102
RTVSPost2010Prop33
280
     0
102
RTVSPost2010PropOp33
 70
     1
102
RTVSPost2010Prop34
280
     0
102
RTVSPost2010PropOp34
 70
     1
102
RTVSPost2010Prop35
280
     0
102
RTVSPost2010PropOp35
 70
     1
102
RTVSPost2010Prop36
280
     0
102
RTVSPost2010PropOp36
 70
     1
102
RTVSPost2010Prop37
 90
       50
102
RTVSPost2010PropOp37
 70
     1
102
RTVSPost2010Prop38
140
0.0
102
RTVSPost2010PropOp38
 70
     1
102
RTVSPost2010Prop39
140
1.0
102
RTVSPost2010PropOp39
 70
     1
102
RTVSPost2010Prop40
 90
        0
102
RTVSPost2010PropOp40
 70
     1
102
RTVSPost2010Prop41ColorIndex
 90
       18
102
RTVSPost2010Prop41ColorRGB
 90
        0
102
RTVSPost2010PropOp41
 70
     1
102
RTVSPost2010Prop42
 90
       50
102
RTVSPost2010PropOp42
 70
     1
102
RTVSPost2010Prop43
 90
        3
102
RTVSPost2010PropOp43
 70
     1
102
RTVSPost2010Prop44ColorIndex
 90
        5
102
RTVSPost2010Prop44ColorRGB
 90
      255
102
RTVSPost2010PropOp44
 70
     1
102
RTVSPost2010Prop45
280
     0
102
RTVSPost2010PropOp45
 70
     1
102
RTVSPost2010Prop46
 90
       50
102
RTVSPost2010PropOp46
 70
     1
102
RTVSPost2010Prop47
 90
       50
102
RTVSPost2010PropOp47
 70
     1
102
RTVSPost2010Prop48
 90
       50
102
RTVSPost2010PropOp48
 70
     1
102
RTVSPost2010Prop49
280
     0
102
RTVSPost2010PropOp49
 70
     1
102
RTVSPost2010Prop50
 90
       50
102
RTVSPost2010PropOp50
 70
     1
102
RTVSPost2010Prop51ColorIndex
 90
      256
102
RTVSPost2010Prop51ColorRGB
 90
-16777216
102
RTVSPost2010PropOp51
 70
     0
102
RTVSPost2010Prop52
140
1.0
102
RTVSPost2010PropOp52
 70
     0
102
RTVSPost2010Prop53
 90
        2
102
RTVSPost2010PropOp53
 70
     1
102
RTVSPost2010Prop54
  1
strokes_ogs.tif
102
RTVSPost2010PropOp54
 70
     1
102
RTVSPost2010Prop55
280
     0
102
RTVSPost2010PropOp55
 70
     1
102
RTVSPost2010Prop56
140
1.0
102
RTVSPost2010PropOp56
 70
     1
102
RTVSPost2010Prop57
140
1.0
102
RTVSPost2010PropOp57
 70
     1
102
RTVSPropertyOp0
 70
     1
102
RTVSPropertyOp1
 70
     1
102
RTVSPropertyOp2
 70
     1
102
RTVSPropertyOp3
 70
     1
102
RTVSPropertyOp4
 70
     1
102
RTVSPropertyOp5
 70
     1
102
RTVSPropertyOp6
 70
     1
102
RTVSPropertyOp7
 70
     1
102
RTVSPropertyOp8
 70
     1
102
RTVSPropertyOp9
 70
     1
102
RTVSPropertyOp10
 70
     1
102
RTVSPropertyOp11
 70
     1
102
RTVSPropertyOp12
 70
     1
102
RTVSPropertyOp13
 70
     1
102
RTVSPropertyOp14
 70
     1
102
RTVSPropertyOp15
 70
     1
102
RTVSPropertyOp16
 70
     1
102
RTVSPropertyOp17
 70
     1
102
RTVSPropertyOp18
 70
     1
102
RTVSPropertyOp19
 70
     1
102
RTVSPropertyOp20
 70
     1
102
RTVSPropertyOp21
 70
     1
102
RTVSPropertyOp22
 70
     1
102
RTVSPropertyOp23
 70
     1
102
RTVSPropertyOp24
 70
     1
102
RTVSPropertyOp25
 70
     1
102
RTVSPropertyOp26
 70
     1
102
RTVSPropertyOp27
 70
     1
102
RTVSPropertyOp28
 70
     1
102
RTVSPropertyOp29
 70
     1
102
RTVSPropertyOp30
 70
     1
102
RTVSPropertyOp31
 70
     1
102
RTVSPropertyOp32
 70
     1
102
RTVSPropertyOp33
 70
     1
102
RTVSPropertyOp34
 70
     1
102
RTVSPropertyOp35
 70
     1
102
RTVSPropertyOp36
 70
     1
102
RTVSPropertyOp37
 70
     1
102
RTVSPropertyOp38
 70
     1
102
RTVSPropertyOp39
 70
     1
102
RTVSPropertyOp40
 70
     1
102
RTVSPropertyOp41
 70
     1
102
RTVSPropertyOp42
 70
     1
102
RTVSPropertyOp43
 70
     1
102
RTVSPropertyOp44
 70
     1
102
RTVSPropertyOp45
 70
     1
102
RTVSPropertyOp46
 70
     1
102
RTVSPropertyOp47
 70
     1
102
RTVSPropertyOp48
 70
     1
102
RTVSPropertyOp49
 70
     1
102
RTVSPropertyOp50
 70
     1
102
RTVSPropertyOp51
 70
     0
102
RTVSPropertyOp52
 70
     0
102
RTVSPropertyOp53
 70
     1
102
RTVSPropertyOp54
 70
     1
102
RTVSPropertyOp55
 70
     1
102
RTVSPropertyOp56
 70
     1
102
RTVSPropertyOp57
 70
     1
102
RTVSPropertyOp58
 70
     1
102
RTVSPropertyOp59
 70
     1
102
RTVSPropertyOp60
 70
     1
102
RTVSPropertyOp61
 70
     1
102
RTVSPropertyOp62
 70
     1
  0
XRECORD
  5
55B
102
{ACAD_REACTORS
330
55A
102
}
330
55A
100
AcDbXrecord
280
     1
102
RTVSPost2010Prop28
280
     0
102
RTVSPost2010PropOp28
 70
     1
102
RTVSPost2010Prop29
280
     1
102
RTVSPost2010PropOp29
 70
     1
102
RTVSPost2010Prop30
280
     1
102
RTVSPost2010PropOp30
 70
     1
102
RTVSPost2010Prop31
280
     0
102
RTVSPost2010PropOp31
 70
     1
102
RTVSPost2010Prop32
280
     0
102
RTVSPost2010PropOp32
 70
     1
102
RTVSPost2010Prop33
280
     0
102
RTVSPost2010PropOp33
 70
     1
102
RTVSPost2010Prop34
280
     0
102
RTVSPost2010PropOp34
 70
     1
102
RTVSPost2010Prop35
280
     0
102
RTVSPost2010PropOp35
 70
     1
102
RTVSPost2010Prop36
280
     0
102
RTVSPost2010PropOp36
 70
     1
102
RTVSPost2010Prop37
 90
       50
102
RTVSPost2010PropOp37
 70
     1
102
RTVSPost2010Prop38
140
0.0
102
RTVSPost2010PropOp38
 70
     1
102
RTVSPost2010Prop39
140
1.0
102
RTVSPost2010PropOp39
 70
     1
102
RTVSPost2010Prop40
 90
        0
102
RTVSPost2010PropOp40
 70
     1
102
RTVSPost2010Prop41ColorIndex
 90
       18
102
RTVSPost2010Prop41ColorRGB
 90
        0
102
RTVSPost2010PropOp41
 70
     1
102
RTVSPost2010Prop42
 90
       50
102
RTVSPost2010PropOp42
 70
     1
102
RTVSPost2010Prop43
 90
        3
102
RTVSPost2010PropOp43
 70
     1
102
RTVSPost2010Prop44ColorIndex
 90
        5
102
RTVSPost2010Prop44ColorRGB
 90
      255
102
RTVSPost2010PropOp44
 70
     1
102
RTVSPost2010Prop45
280
     0
102
RTVSPost2010PropOp45
 70
     1
102
RTVSPost2010Prop46
 90
       50
102
RTVSPost2010PropOp46
 70
     1
102
RTVSPost2010Prop47
 90
       50
102
RTVSPost2010PropOp47
 70
     1
102
RTVSPost2010Prop48
 90
       50
102
RTVSPost2010PropOp48
 70
     1
102
RTVSPost2010Prop49
280
     0
102
RTVSPost2010PropOp49
 70
     1
102
RTVSPost2010Prop50
 90
       50
102
RTVSPost2010PropOp50
 70
     1
102
RTVSPost2010Prop51ColorIndex
 90
      256
102
RTVSPost2010Prop51ColorRGB
 90
-16777216
102
RTVSPost2010PropOp51
 70
     0
102
RTVSPost2010Prop52
140
1.0
102
RTVSPost2010PropOp52
 70
     0
102
RTVSPost2010Prop53
 90
        2
102
RTVSPost2010PropOp53
 70
     1
102
RTVSPost2010Prop54
  1
strokes_ogs.tif
102
RTVSPost2010PropOp54
 70
     1
102
RTVSPost2010Prop55
280
     0
102
RTVSPost2010PropOp55
 70
     1
102
RTVSPost2010Prop56
140
1.0
102
RTVSPost2010PropOp56
 70
     1
102
RTVSPost2010Prop57
140
1.0
102
RTVSPost2010PropOp57
 70
     1
102
RTVSPropertyOp0
 70
     1
102
RTVSPropertyOp1
 70
     1
102
RTVSPropertyOp2
 70
     1
102
RTVSPropertyOp3
 70
     1
102
RTVSPropertyOp4
 70
     1
102
RTVSPropertyOp5
 70
     1
102
RTVSPropertyOp6
 70
     1
102
RTVSPropertyOp7
 70
     1
102
RTVSPropertyOp8
 70
     1
102
RTVSPropertyOp9
 70
     1
102
RTVSPropertyOp10
 70
     1
102
RTVSPropertyOp11
 70
     1
102
RTVSPropertyOp12
 70
     1
102
RTVSPropertyOp13
 70
     1
102
RTVSPropertyOp14
 70
     1
102
RTVSPropertyOp15
 70
     1
102
RTVSPropertyOp16
 70
     1
102
RTVSPropertyOp17
 70
     1
102
RTVSPropertyOp18
 70
     1
102
RTVSPropertyOp19
 70
     1
102
RTVSPropertyOp20
 70
     1
102
RTVSPropertyOp21
 70
     1
102
RTVSPropertyOp22
 70
     1
102
RTVSPropertyOp23
 70
     1
102
RTVSPropertyOp24
 70
     1
102
RTVSPropertyOp25
 70
     1
102
RTVSPropertyOp26
 70
     1
102
RTVSPropertyOp27
 70
     1
102
RTVSPropertyOp28
 70
     1
102
RTVSPropertyOp29
 70
     1
102
RTVSPropertyOp30
 70
     1
102
RTVSPropertyOp31
 70
     1
102
RTVSPropertyOp32
 70
     1
102
RTVSPropertyOp33
 70
     1
102
RTVSPropertyOp34
 70
     1
102
RTVSPropertyOp35
 70
     1
102
RTVSPropertyOp36
 70
     1
102
RTVSPropertyOp37
 70
     1
102
RTVSPropertyOp38
 70
     1
102
RTVSPropertyOp39
 70
     1
102
RTVSPropertyOp40
 70
     1
102
RTVSPropertyOp41
 70
     1
102
RTVSPropertyOp42
 70
     1
102
RTVSPropertyOp43
 70
     1
102
RTVSPropertyOp44
 70
     1
102
RTVSPropertyOp45
 70
     1
102
RTVSPropertyOp46
 70
     1
102
RTVSPropertyOp47
 70
     1
102
RTVSPropertyOp48
 70
     1
102
RTVSPropertyOp49
 70
     1
102
RTVSPropertyOp50
 70
     1
102
RTVSPropertyOp51
 70
     0
102
RTVSPropertyOp52
 70
     0
102
RTVSPropertyOp53
 70
     1
102
RTVSPropertyOp54
 70
     1
102
RTVSPropertyOp55
 70
     1
102
RTVSPropertyOp56
 70
     1
102
RTVSPropertyOp57
 70
     1
102
RTVSPropertyOp58
 70
     1
102
RTVSPropertyOp59
 70
     1
102
RTVSPropertyOp60
 70
     1
102
RTVSPropertyOp61
 70
     1
102
RTVSPropertyOp62
 70
     1
  0
XRECORD
  5
573
102
{ACAD_REACTORS
330
572
102
}
330
572
100
AcDbXrecord
280
     1
102
RTVSPost2010Prop28
280
     0
102
RTVSPost2010PropOp28
 70
     1
102
RTVSPost2010Prop29
280
     1
102
RTVSPost2010PropOp29
 70
     1
102
RTVSPost2010Prop30
280
     1
102
RTVSPost2010PropOp30
 70
     1
102
RTVSPost2010Prop31
280
     0
102
RTVSPost2010PropOp31
 70
     1
102
RTVSPost2010Prop32
280
     0
102
RTVSPost2010PropOp32
 70
     1
102
RTVSPost2010Prop33
280
     0
102
RTVSPost2010PropOp33
 70
     1
102
RTVSPost2010Prop34
280
     0
102
RTVSPost2010PropOp34
 70
     1
102
RTVSPost2010Prop35
280
     0
102
RTVSPost2010PropOp35
 70
     1
102
RTVSPost2010Prop36
280
     0
102
RTVSPost2010PropOp36
 70
     1
102
RTVSPost2010Prop37
 90
       50
102
RTVSPost2010PropOp37
 70
     1
102
RTVSPost2010Prop38
140
0.0
102
RTVSPost2010PropOp38
 70
     1
102
RTVSPost2010Prop39
140
1.0
102
RTVSPost2010PropOp39
 70
     1
102
RTVSPost2010Prop40
 90
        0
102
RTVSPost2010PropOp40
 70
     1
102
RTVSPost2010Prop41ColorIndex
 90
       18
102
RTVSPost2010Prop41ColorRGB
 90
        0
102
RTVSPost2010PropOp41
 70
     1
102
RTVSPost2010Prop42
 90
       50
102
RTVSPost2010PropOp42
 70
     1
102
RTVSPost2010Prop43
 90
        3
102
RTVSPost2010PropOp43
 70
     1
102
RTVSPost2010Prop44ColorIndex
 90
        5
102
RTVSPost2010Prop44ColorRGB
 90
      255
102
RTVSPost2010PropOp44
 70
     1
102
RTVSPost2010Prop45
280
     0
102
RTVSPost2010PropOp45
 70
     1
102
RTVSPost2010Prop46
 90
       50
102
RTVSPost2010PropOp46
 70
     1
102
RTVSPost2010Prop47
 90
       50
102
RTVSPost2010PropOp47
 70
     1
102
RTVSPost2010Prop48
 90
       50
102
RTVSPost2010PropOp48
 70
     1
102
RTVSPost2010Prop49
280
     0
102
RTVSPost2010PropOp49
 70
     1
102
RTVSPost2010Prop50
 90
       50
102
RTVSPost2010PropOp50
 70
     1
102
RTVSPost2010Prop51ColorIndex
 90
      256
102
RTVSPost2010Prop51ColorRGB
 90
-16777216
102
RTVSPost2010PropOp51
 70
     0
102
RTVSPost2010Prop52
140
1.0
102
RTVSPost2010PropOp52
 70
     0
102
RTVSPost2010Prop53
 90
        2
102
RTVSPost2010PropOp53
 70
     1
102
RTVSPost2010Prop54
  1
strokes_ogs.tif
102
RTVSPost2010PropOp54
 70
     1
102
RTVSPost2010Prop55
280
     0
102
RTVSPost2010PropOp55
 70
     1
102
RTVSPost2010Prop56
140
1.0
102
RTVSPost2010PropOp56
 70
     1
102
RTVSPost2010Prop57
140
1.0
102
RTVSPost2010PropOp57
 70
     1
102
RTVSPropertyOp0
 70
     1
102
RTVSPropertyOp1
 70
     1
102
RTVSPropertyOp2
 70
     1
102
RTVSPropertyOp3
 70
     1
102
RTVSPropertyOp4
 70
     1
102
RTVSPropertyOp5
 70
     1
102
RTVSPropertyOp6
 70
     1
102
RTVSPropertyOp7
 70
     1
102
RTVSPropertyOp8
 70
     1
102
RTVSPropertyOp9
 70
     1
102
RTVSPropertyOp10
 70
     1
102
RTVSPropertyOp11
 70
     1
102
RTVSPropertyOp12
 70
     1
102
RTVSPropertyOp13
 70
     1
102
RTVSPropertyOp14
 70
     1
102
RTVSPropertyOp15
 70
     1
102
RTVSPropertyOp16
 70
     1
102
RTVSPropertyOp17
 70
     1
102
RTVSPropertyOp18
 70
     1
102
RTVSPropertyOp19
 70
     1
102
RTVSPropertyOp20
 70
     1
102
RTVSPropertyOp21
 70
     1
102
RTVSPropertyOp22
 70
     1
102
RTVSPropertyOp23
 70
     1
102
RTVSPropertyOp24
 70
     1
102
RTVSPropertyOp25
 70
     1
102
RTVSPropertyOp26
 70
     1
102
RTVSPropertyOp27
 70
     1
102
RTVSPropertyOp28
 70
     1
102
RTVSPropertyOp29
 70
     1
102
RTVSPropertyOp30
 70
     1
102
RTVSPropertyOp31
 70
     1
102
RTVSPropertyOp32
 70
     1
102
RTVSPropertyOp33
 70
     1
102
RTVSPropertyOp34
 70
     1
102
RTVSPropertyOp35
 70
     1
102
RTVSPropertyOp36
 70
     1
102
RTVSPropertyOp37
 70
     1
102
RTVSPropertyOp38
 70
     1
102
RTVSPropertyOp39
 70
     1
102
RTVSPropertyOp40
 70
     1
102
RTVSPropertyOp41
 70
     1
102
RTVSPropertyOp42
 70
     1
102
RTVSPropertyOp43
 70
     1
102
RTVSPropertyOp44
 70
     1
102
RTVSPropertyOp45
 70
     1
102
RTVSPropertyOp46
 70
     1
102
RTVSPropertyOp47
 70
     1
102
RTVSPropertyOp48
 70
     1
102
RTVSPropertyOp49
 70
     1
102
RTVSPropertyOp50
 70
     1
102
RTVSPropertyOp51
 70
     0
102
RTVSPropertyOp52
 70
     0
102
RTVSPropertyOp53
 70
     1
102
RTVSPropertyOp54
 70
     1
102
RTVSPropertyOp55
 70
     1
102
RTVSPropertyOp56
 70
     1
102
RTVSPropertyOp57
 70
     1
102
RTVSPropertyOp58
 70
     1
102
RTVSPropertyOp59
 70
     1
102
RTVSPropertyOp60
 70
     1
102
RTVSPropertyOp61
 70
     1
102
RTVSPropertyOp62
 70
     1
  0
ENDSEC
  0
EOF
