  0
SECTION
  2
HEADER
  9
$ACADVER
  1
AC1015
  9
$ACADMAINTVER
 70
    20
  9
$DWGCODEPAGE
  3
ANSI_1252
  9
$INSBASE
 10
0.0
 20
0.0
 30
0.0
  9
$EXTMIN
 10
-27.358894
 20
-33.62285600000001
 30
0.0
  9
$EXTMAX
 10
35.86443900000001
 20
31.782752
 30
0.0
  9
$LIMMIN
 10
0.0
 20
0.0
  9
$LIMMAX
 10
12.0
 20
9.0
  9
$ORTHOMODE
 70
     0
  9
$REGENMODE
 70
     1
  9
$FILLMODE
 70
     1
  9
$QTEXTMODE
 70
     0
  9
$MIRRTEXT
 70
     1
  9
$LTSCALE
 40
1.0
  9
$ATTMODE
 70
     1
  9
$TEXTSIZE
 40
3.0
  9
$TRACEWID
 40
10.0
  9
$TEXTSTYLE
  7
SANDVIK_STYLE
  9
$CLAYER
  8
1
  9
$CELTYPE
  6
ByLayer
  9
$CECOLOR
 62
   256
  9
$CELTSCALE
 40
1.0
  9
$DISPSILH
 70
     0
  9
$DIMSCALE
 40
1.0
  9
$DIMASZ
 40
0.18
  9
$DIMEXO
 40
0.0625
  9
$DIMDLI
 40
0.38
  9
$DIMRND
 40
0.0
  9
$DIMDLE
 40
0.0
  9
$DIMEXE
 40
0.18
  9
$DIMTP
 40
0.0
  9
$DIMTM
 40
0.0
  9
$DIMTXT
 40
0.18
  9
$DIMCEN
 40
0.09
  9
$DIMTSZ
 40
0.0
  9
$DIMTOL
 70
     0
  9
$DIMLIM
 70
     0
  9
$DIMTIH
 70
     1
  9
$DIMTOH
 70
     1
  9
$DIMSE1
 70
     0
  9
$DIMSE2
 70
     0
  9
$DIMTAD
 70
     0
  9
$DIMZIN
 70
     0
  9
$DIMBLK
  1

  9
$DIMASO
 70
     1
  9
$DIMSHO
 70
     1
  9
$DIMPOST
  1

  9
$DIMAPOST
  1

  9
$DIMALT
 70
     0
  9
$DIMALTD
 70
     2
  9
$DIMALTF
 40
25.4
  9
$DIMLFAC
 40
1.0
  9
$DIMTOFL
 70
     0
  9
$DIMTVP
 40
0.0
  9
$DIMTIX
 70
     0
  9
$DIMSOXD
 70
     0
  9
$DIMSAH
 70
     0
  9
$DIMBLK1
  1

  9
$DIMBLK2
  1

  9
$DIMSTYLE
  2
STANDARD
  9
$DIMCLRD
 70
     0
  9
$DIMCLRE
 70
     0
  9
$DIMCLRT
 70
     0
  9
$DIMTFAC
 40
1.0
  9
$DIMGAP
 40
0.09
  9
$DIMJUST
 70
     0
  9
$DIMSD1
 70
     0
  9
$DIMSD2
 70
     0
  9
$DIMTOLJ
 70
     1
  9
$DIMTZIN
 70
     0
  9
$DIMALTZ
 70
     0
  9
$DIMALTTZ
 70
     0
  9
$DIMUPT
 70
     0
  9
$DIMDEC
 70
     4
  9
$DIMTDEC
 70
     4
  9
$DIMALTU
 70
     2
  9
$DIMALTTD
 70
     2
  9
$DIMTXSTY
  7
STANDARD
  9
$DIMAUNIT
 70
     0
  9
$DIMADEC
 70
     0
  9
$DIMALTRND
 40
0.0
  9
$DIMAZIN
 70
     0
  9
$DIMDSEP
 70
    46
  9
$DIMATFIT
 70
     3
  9
$DIMFRAC
 70
     0
  9
$DIMLDRBLK
  1

  9
$DIMLUNIT
 70
     2
  9
$DIMLWD
 70
    -2
  9
$DIMLWE
 70
    -2
  9
$DIMTMOVE
 70
     0
  9
$LUNITS
 70
     2
  9
$LUPREC
 70
     2
  9
$SKETCHINC
 40
0.0
  9
$FILLETRAD
 40
0.0
  9
$AUNITS
 70
     0
  9
$AUPREC
 70
     2
  9
$MENU
  1
acad
  9
$ELEVATION
 40
0.0
  9
$PELEVATION
 40
0.0
  9
$THICKNESS
 40
0.0
  9
$LIMCHECK
 70
     0
  9
$CHAMFERA
 40
0.0
  9
$CHAMFERB
 40
0.0
  9
$CHAMFERC
 40
0.0
  9
$CHAMFERD
 40
0.0
  9
$SKPOLY
 70
     0
  9
$TDCREATE
 40
2456818.319593495
  9
$TDUCREATE
 40
2456818.236260162
  9
$TDUPDATE
 40
2456818.319598056
  9
$TDUUPDATE
 40
2456818.236264723
  9
$TDINDWG
 40
0.0000053356
  9
$TDUSRTIMER
 40
0.0000053356
  9
$USRTIMER
 70
     1
  9
$ANGBASE
 50
0.0
  9
$ANGDIR
 70
     0
  9
$PDMODE
 70
     0
  9
$PDSIZE
 40
0.0
  9
$PLINEWID
 40
0.0
  9
$SPLFRAME
 70
     0
  9
$SPLINETYPE
 70
     6
  9
$SPLINESEGS
 70
     8
  9
$HANDSEED
  5
582
  9
$SURFTAB1
 70
     6
  9
$SURFTAB2
 70
     6
  9
$SURFTYPE
 70
     6
  9
$SURFU
 70
     6
  9
$SURFV
 70
     6
  9
$UCSBASE
  2

  9
$UCSNAME
  2

  9
$UCSORG
 10
0.0
 20
0.0
 30
0.0
  9
$UCSXDIR
 10
1.0
 20
0.0
 30
0.0
  9
$UCSYDIR
 10
0.0
 20
1.0
 30
0.0
  9
$UCSORTHOREF
  2

  9
$UCSORTHOVIEW
 70
     0
  9
$UCSORGTOP
 10
0.0
 20
0.0
 30
0.0
  9
$UCSORGBOTTOM
 10
0.0
 20
0.0
 30
0.0
  9
$UCSORGLEFT
 10
0.0
 20
0.0
 30
0.0
  9
$UCSORGRIGHT
 10
0.0
 20
0.0
 30
0.0
  9
$UCSORGFRONT
 10
0.0
 20
0.0
 30
0.0
  9
$UCSORGBACK
 10
0.0
 20
0.0
 30
0.0
  9
$PUCSBASE
  2

  9
$PUCSNAME
  2

  9
$PUCSORG
 10
0.0
 20
0.0
 30
0.0
  9
$PUCSXDIR
 10
1.0
 20
0.0
 30
0.0
  9
$PUCSYDIR
 10
0.0
 20
1.0
 30
0.0
  9
$PUCSORTHOREF
  2

  9
$PUCSORTHOVIEW
 70
     0
  9
$PUCSORGTOP
 10
0.0
 20
0.0
 30
0.0
  9
$PUCSORGBOTTOM
 10
0.0
 20
0.0
 30
0.0
  9
$PUCSORGLEFT
 10
0.0
 20
0.0
 30
0.0
  9
$PUCSORGRIGHT
 10
0.0
 20
0.0
 30
0.0
  9
$PUCSORGFRONT
 10
0.0
 20
0.0
 30
0.0
  9
$PUCSORGBACK
 10
0.0
 20
0.0
 30
0.0
  9
$USERI1
 70
     0
  9
$USERI2
 70
     0
  9
$USERI3
 70
     0
  9
$USERI4
 70
     0
  9
$USERI5
 70
     0
  9
$USERR1
 40
0.0
  9
$USERR2
 40
0.0
  9
$USERR3
 40
0.0
  9
$USERR4
 40
0.0
  9
$USERR5
 40
0.0
  9
$WORLDVIEW
 70
     1
  9
$SHADEDGE
 70
     3
  9
$SHADEDIF
 70
    70
  9
$TILEMODE
 70
     1
  9
$MAXACTVP
 70
    16
  9
$PINSBASE
 10
0.0
 20
0.0
 30
0.0
  9
$PLIMCHECK
 70
     0
  9
$PEXTMIN
 10
1.000000000000000E+20
 20
1.000000000000000E+20
 30
1.000000000000000E+20
  9
$PEXTMAX
 10
-1.000000000000000E+20
 20
-1.000000000000000E+20
 30
-1.000000000000000E+20
  9
$PLIMMIN
 10
0.0
 20
0.0
  9
$PLIMMAX
 10
12.0
 20
9.0
  9
$UNITMODE
 70
     0
  9
$VISRETAIN
 70
     0
  9
$PLINEGEN
 70
     0
  9
$PSLTSCALE
 70
     1
  9
$TREEDEPTH
 70
  3020
  9
$CMLSTYLE
  2
Standard
  9
$CMLJUST
 70
     0
  9
$CMLSCALE
 40
1.0
  9
$PROXYGRAPHICS
 70
     1
  9
$MEASUREMENT
 70
     0
  9
$CELWEIGHT
370
    -1
  9
$ENDCAPS
280
     0
  9
$JOINSTYLE
280
     0
  9
$LWDISPLAY
290
     0
  9
$INSUNITS
 70
     0
  9
$HYPERLINKBASE
  1

  9
$STYLESHEET
  1

  9
$XEDIT
290
     1
  9
$CEPSNTYPE
380
     0
  9
$PSTYLEMODE
290
     1
  9
$FINGERPRINTGUID
  2
{9EF6F36C-358C-4840-84FB-FAB0FCAF1642}
  9
$VERSIONGUID
  2
{AA42A4E7-8069-4472-972B-F72802AFF704}
  9
$EXTNAMES
290
     1
  9
$PSVPSCALE
 40
0.0
  9
$OLESTARTUP
290
     0
  0
ENDSEC
  0
SECTION
  2
CLASSES
  0
CLASS
  1
ACDBDICTIONARYWDFLT
  2
AcDbDictionaryWithDefault
  3
ObjectDBX Classes
 90
        0
280
     0
281
     0
  0
CLASS
  1
MATERIAL
  2
AcDbMaterial
  3
ObjectDBX Classes
 90
     1153
280
     0
281
     0
  0
CLASS
  1
VISUALSTYLE
  2
AcDbVisualStyle
  3
ObjectDBX Classes
 90
     4095
280
     0
281
     0
  0
CLASS
  1
SCALE
  2
AcDbScale
  3
ObjectDBX Classes
 90
     1153
280
     0
281
     0
  0
CLASS
  1
TABLESTYLE
  2
AcDbTableStyle
  3
ObjectDBX Classes
 90
     4095
280
     0
281
     0
  0
CLASS
  1
MLEADERSTYLE
  2
AcDbMLeaderStyle
  3
ACDB_MLEADERSTYLE_CLASS
 90
     4095
280
     0
281
     0
  0
CLASS
  1
ACDBSECTIONVIEWSTYLE
  2
AcDbSectionViewStyle
  3
ObjectDBX Classes
 90
     1025
280
     0
281
     0
  0
CLASS
  1
ACDBDETAILVIEWSTYLE
  2
AcDbDetailViewStyle
  3
ObjectDBX Classes
 90
     1025
280
     0
281
     0
  0
CLASS
  1
EXACXREFPANELOBJECT
  2
ExAcXREFPanelObject
  3
EXAC_ESW
 90
     1025
280
     0
281
     0
  0
CLASS
  1
NPOCOLLECTION
  2
AcDbImpNonPersistentObjectsCollection
  3
ObjectDBX Classes
 90
     1153
280
     0
281
     0
  0
CLASS
  1
DICTIONARYVAR
  2
AcDbDictionaryVar
  3
ObjectDBX Classes
 90
        0
280
     0
281
     0
  0
CLASS
  1
CELLSTYLEMAP
  2
AcDbCellStyleMap
  3
ObjectDBX Classes
 90
     1152
280
     0
281
     0
  0
CLASS
  1
ACDBPLACEHOLDER
  2
AcDbPlaceHolder
  3
ObjectDBX Classes
 90
        0
280
     0
281
     0
  0
CLASS
  1
LAYOUT
  2
AcDbLayout
  3
ObjectDBX Classes
 90
        0
280
     0
281
     0
  0
ENDSEC
  0
SECTION
  2
TABLES
  0
TABLE
  2
VPORT
  5
450
330
0
100
AcDbSymbolTable
 70
     1
  0
VPORT
  5
4E7
330
450
100
AcDbSymbolTableRecord
100
AcDbViewportTableRecord
  2
*Active
 70
     0
 10
0.0
 20
0.0
 11
1.0
 21
1.0
 12
4.252772499999998
 22
-0.9200520000000054
 13
0.0
 23
0.0
 14
1.0
 24
1.0
 15
0.0
 25
0.0
 16
0.0
 26
0.0
 36
1.0
 17
0.0
 27
0.0
 37
0.0
 40
73.19447359914938
 41
2.2
 42
50.0
 43
0.0
 44
0.0
 50
0.0
 51
0.0
 71
     0
 72
   100
 73
     1
 74
     1
 75
     0
 76
     0
 77
     0
 78
     0
281
     0
 65
     1
110
0.0
120
0.0
130
0.0
111
1.0
121
0.0
131
0.0
112
0.0
122
1.0
132
0.0
 79
     0
146
0.0
1001
ACAD_NAV_VCDISPLAY
1070
     3
  0
ENDTAB
  0
TABLE
  2
LTYPE
  5
44D
330
0
100
AcDbSymbolTable
 70
     4
  0
LTYPE
  5
4A2
330
44D
100
AcDbSymbolTableRecord
100
AcDbLinetypeTableRecord
  2
ByBlock
 70
     0
  3

 72
    65
 73
     0
 40
0.0
  0
LTYPE
  5
4A3
330
44D
100
AcDbSymbolTableRecord
100
AcDbLinetypeTableRecord
  2
ByLayer
 70
     0
  3

 72
    65
 73
     0
 40
0.0
  0
LTYPE
  5
4A4
330
44D
100
AcDbSymbolTableRecord
100
AcDbLinetypeTableRecord
  2
CONTINUOUS
 70
     0
  3
Solid line
 72
    65
 73
     0
 40
0.0
  0
LTYPE
  5
4B0
330
44D
100
AcDbSymbolTableRecord
100
AcDbLinetypeTableRecord
  2
PHANTOM2
 70
     0
  3
Phantom (.5x) ___ _ _ ___ _ _ ___ _ _ ___ _ _
 72
    65
 73
     6
 40
1.25
 49
0.625
 74
     0
 49
-0.125
 74
     0
 49
0.125
 74
     0
 49
-0.125
 74
     0
 49
0.125
 74
     0
 49
-0.125
 74
     0
  0
LTYPE
  5
4BE
330
44D
100
AcDbSymbolTableRecord
100
AcDbLinetypeTableRecord
  2
CENTER
 70
     0
  3
____ _ ____ _ ____ _ ____ _ ____ _ ____ _ ____
 72
    65
 73
     4
 40
5.059897
 49
3.162434999999999
 74
     0
 49
-0.6324870000000001
 74
     0
 49
0.6324870000000001
 74
     0
 49
-0.6324870000000001
 74
     0
  0
LTYPE
  5
4BF
330
44D
100
AcDbSymbolTableRecord
100
AcDbLinetypeTableRecord
  2
DASHED
 70
     0
  3
__ __ __ __ __ __ __ __ __ __ __ __ __ __ __ __
 72
    65
 73
     2
 40
7.589844999999999
 49
5.059897
 74
     0
 49
-2.529948
 74
     0
  0
ENDTAB
  0
TABLE
  2
LAYER
  5
44A
330
0
100
AcDbSymbolTable
 70
    38
  0
LAYER
  5
49C
102
{ACAD_XDICTIONARY
360
4EE
102
}
330
44A
100
AcDbSymbolTableRecord
100
AcDbLayerTableRecord
  2
0
 70
     0
 62
     7
  6
CONTINUOUS
370
    -3
390
457
  0
LAYER
  5
4BC
102
{ACAD_XDICTIONARY
360
4F0
102
}
330
44A
100
AcDbSymbolTableRecord
100
AcDbLayerTableRecord
  2
1
 70
     0
 62
     4
  6
CONTINUOUS
370
    -3
390
457
  0
LAYER
  5
4C0
102
{ACAD_XDICTIONARY
360
4F2
102
}
330
44A
100
AcDbSymbolTableRecord
100
AcDbLayerTableRecord
  2
61
 70
     0
 62
     5
  6
CONTINUOUS
370
    -3
390
457
  0
LAYER
  5
4C1
102
{ACAD_XDICTIONARY
360
4F4
102
}
330
44A
100
AcDbSymbolTableRecord
100
AcDbLayerTableRecord
  2
62
 70
     0
 62
    -5
  6
CONTINUOUS
370
    -3
390
457
  0
LAYER
  5
4C2
102
{ACAD_XDICTIONARY
360
4F6
102
}
330
44A
100
AcDbSymbolTableRecord
100
AcDbLayerTableRecord
  2
63
 70
     0
 62
    -5
  6
CONTINUOUS
370
    -3
390
457
  0
LAYER
  5
4C3
102
{ACAD_XDICTIONARY
360
4F8
102
}
330
44A
100
AcDbSymbolTableRecord
100
AcDbLayerTableRecord
  2
64
 70
     0
 62
    -5
  6
CONTINUOUS
370
    -3
390
457
  0
LAYER
  5
4C4
102
{ACAD_XDICTIONARY
360
4FA
102
}
330
44A
100
AcDbSymbolTableRecord
100
AcDbLayerTableRecord
  2
65
 70
     0
 62
    -5
  6
CONTINUOUS
370
    -3
390
457
  0
LAYER
  5
4C5
102
{ACAD_XDICTIONARY
360
4FC
102
}
330
44A
100
AcDbSymbolTableRecord
100
AcDbLayerTableRecord
  2
66
 70
     0
 62
    -5
  6
CONTINUOUS
370
    -3
390
457
  0
LAYER
  5
4C6
102
{ACAD_XDICTIONARY
360
4FE
102
}
330
44A
100
AcDbSymbolTableRecord
100
AcDbLayerTableRecord
  2
67
 70
     0
 62
    -5
  6
CONTINUOUS
370
    -3
390
457
  0
LAYER
  5
4C7
102
{ACAD_XDICTIONARY
360
500
102
}
330
44A
100
AcDbSymbolTableRecord
100
AcDbLayerTableRecord
  2
68
 70
     0
 62
    -5
  6
CONTINUOUS
370
    -3
390
457
  0
LAYER
  5
4C8
102
{ACAD_XDICTIONARY
360
502
102
}
330
44A
100
AcDbSymbolTableRecord
100
AcDbLayerTableRecord
  2
69
 70
     0
 62
    -5
  6
CONTINUOUS
370
    -3
390
457
  0
LAYER
  5
4C9
102
{ACAD_XDICTIONARY
360
504
102
}
330
44A
100
AcDbSymbolTableRecord
100
AcDbLayerTableRecord
  2
70
 70
     0
 62
     5
  6
CONTINUOUS
370
    -3
390
457
  0
LAYER
  5
4CA
102
{ACAD_XDICTIONARY
360
506
102
}
330
44A
100
AcDbSymbolTableRecord
100
AcDbLayerTableRecord
  2
2
 70
     0
 62
     7
  6
CONTINUOUS
370
    -3
390
457
  0
LAYER
  5
4CB
102
{ACAD_XDICTIONARY
360
508
102
}
330
44A
100
AcDbSymbolTableRecord
100
AcDbLayerTableRecord
  2
3
 70
     0
 62
     1
  6
DASHED
370
    -3
390
457
  0
LAYER
  5
4CC
102
{ACAD_XDICTIONARY
360
50A
102
}
330
44A
100
AcDbSymbolTableRecord
100
AcDbLayerTableRecord
  2
4
 70
     0
 62
    -2
  6
CENTER
370
    -3
390
457
  0
LAYER
  5
4CD
102
{ACAD_XDICTIONARY
360
50C
102
}
330
44A
100
AcDbSymbolTableRecord
100
AcDbLayerTableRecord
  2
5
 70
     0
 62
    -7
  6
CONTINUOUS
370
    -3
390
457
  0
LAYER
  5
4CE
102
{ACAD_XDICTIONARY
360
50E
102
}
330
44A
100
AcDbSymbolTableRecord
100
AcDbLayerTableRecord
  2
SK1
 70
     0
 62
     4
  6
CONTINUOUS
370
    -3
390
457
  0
LAYER
  5
4CF
102
{ACAD_XDICTIONARY
360
510
102
}
330
44A
100
AcDbSymbolTableRecord
100
AcDbLayerTableRecord
  2
6
 70
     0
 62
     5
  6
CONTINUOUS
370
    -3
390
457
  0
LAYER
  5
4D0
102
{ACAD_XDICTIONARY
360
512
102
}
330
44A
100
AcDbSymbolTableRecord
100
AcDbLayerTableRecord
  2
SK2
 70
     0
 62
     7
  6
CONTINUOUS
370
    -3
390
457
  0
LAYER
  5
4D1
102
{ACAD_XDICTIONARY
360
514
102
}
330
44A
100
AcDbSymbolTableRecord
100
AcDbLayerTableRecord
  2
SK3
 70
     0
 62
     1
  6
DASHED
370
    -3
390
457
  0
LAYER
  5
4D2
102
{ACAD_XDICTIONARY
360
516
102
}
330
44A
100
AcDbSymbolTableRecord
100
AcDbLayerTableRecord
  2
SK4
 70
     0
 62
     2
  6
CENTER
370
    -3
390
457
  0
LAYER
  5
4D3
102
{ACAD_XDICTIONARY
360
518
102
}
330
44A
100
AcDbSymbolTableRecord
100
AcDbLayerTableRecord
  2
CUT
 70
     0
 62
    -1
  6
CONTINUOUS
370
    -3
390
457
  0
LAYER
  5
4D4
102
{ACAD_XDICTIONARY
360
51A
102
}
330
44A
100
AcDbSymbolTableRecord
100
AcDbLayerTableRecord
  2
SK6
 70
     0
 62
     5
  6
CONTINUOUS
370
    -3
390
457
  0
LAYER
  5
4D5
102
{ACAD_XDICTIONARY
360
51C
102
}
330
44A
100
AcDbSymbolTableRecord
100
AcDbLayerTableRecord
  2
80
 70
     0
 62
    -2
  6
CENTER
370
    -3
390
457
  0
LAYER
  5
4D6
102
{ACAD_XDICTIONARY
360
51E
102
}
330
44A
100
AcDbSymbolTableRecord
100
AcDbLayerTableRecord
  2
81
 70
     0
 62
    -2
  6
CENTER
370
    -3
390
457
  0
LAYER
  5
4D7
102
{ACAD_XDICTIONARY
360
520
102
}
330
44A
100
AcDbSymbolTableRecord
100
AcDbLayerTableRecord
  2
82
 70
     0
 62
    -2
  6
CENTER
370
    -3
390
457
  0
LAYER
  5
4D8
102
{ACAD_XDICTIONARY
360
522
102
}
330
44A
100
AcDbSymbolTableRecord
100
AcDbLayerTableRecord
  2
NOCUT
 70
     0
 62
     7
  6
CONTINUOUS
370
    -3
390
457
  0
LAYER
  5
4D9
102
{ACAD_XDICTIONARY
360
524
102
}
330
44A
100
AcDbSymbolTableRecord
100
AcDbLayerTableRecord
  2
50
 70
     0
 62
    -7
  6
CONTINUOUS
370
    -3
390
457
  0
LAYER
  5
4DA
102
{ACAD_XDICTIONARY
360
526
102
}
330
44A
100
AcDbSymbolTableRecord
100
AcDbLayerTableRecord
  2
51
 70
     0
 62
     7
  6
CONTINUOUS
370
    -3
390
457
  0
LAYER
  5
4DB
102
{ACAD_XDICTIONARY
360
528
102
}
330
44A
100
AcDbSymbolTableRecord
100
AcDbLayerTableRecord
  2
52
 70
     0
 62
    -7
  6
CONTINUOUS
370
    -3
390
457
  0
LAYER
  5
4DC
102
{ACAD_XDICTIONARY
360
52A
102
}
330
44A
100
AcDbSymbolTableRecord
100
AcDbLayerTableRecord
  2
53
 70
     0
 62
    -7
  6
CONTINUOUS
370
    -3
390
457
  0
LAYER
  5
4DD
102
{ACAD_XDICTIONARY
360
52C
102
}
330
44A
100
AcDbSymbolTableRecord
100
AcDbLayerTableRecord
  2
54
 70
     0
 62
    -7
  6
CONTINUOUS
370
    -3
390
457
  0
LAYER
  5
4DE
102
{ACAD_XDICTIONARY
360
52E
102
}
330
44A
100
AcDbSymbolTableRecord
100
AcDbLayerTableRecord
  2
55
 70
     0
 62
    -7
  6
CONTINUOUS
370
    -3
390
457
  0
LAYER
  5
4DF
102
{ACAD_XDICTIONARY
360
530
102
}
330
44A
100
AcDbSymbolTableRecord
100
AcDbLayerTableRecord
  2
56
 70
     0
 62
    -7
  6
CONTINUOUS
370
    -3
390
457
  0
LAYER
  5
4E0
102
{ACAD_XDICTIONARY
360
532
102
}
330
44A
100
AcDbSymbolTableRecord
100
AcDbLayerTableRecord
  2
57
 70
     0
 62
    -7
  6
CONTINUOUS
370
    -3
390
457
  0
LAYER
  5
4E1
102
{ACAD_XDICTIONARY
360
534
102
}
330
44A
100
AcDbSymbolTableRecord
100
AcDbLayerTableRecord
  2
58
 70
     0
 62
    -7
  6
CONTINUOUS
370
    -3
390
457
  0
LAYER
  5
4E2
102
{ACAD_XDICTIONARY
360
536
102
}
330
44A
100
AcDbSymbolTableRecord
100
AcDbLayerTableRecord
  2
2L
 70
     0
 62
     7
  6
CONTINUOUS
370
    -3
390
457
  0
LAYER
  5
4E3
102
{ACAD_XDICTIONARY
360
538
102
}
330
44A
100
AcDbSymbolTableRecord
100
AcDbLayerTableRecord
  2
59
 70
     0
 62
    -7
  6
CONTINUOUS
370
    -3
390
457
  0
ENDTAB
  0
TABLE
  2
STYLE
  5
44B
330
0
100
AcDbSymbolTable
 70
     3
  0
STYLE
  5
49D
330
44B
100
AcDbSymbolTableRecord
100
AcDbTextStyleTableRecord
  2
STANDARD
 70
     0
 40
0.0
 41
1.0
 50
0.0
 71
     0
 42
4.5
  3
simplex.shx
  4

  0
STYLE
  5
4A1
330
44B
100
AcDbSymbolTableRecord
100
AcDbTextStyleTableRecord
  2
Annotative
 70
     0
 40
0.0
 41
1.0
 50
0.0
 71
     0
 42
0.2
  3
txt
  4

1001
AcadAnnotative
1000
AnnotativeData
1002
{
1070
     1
1070
     1
1002
}
  0
STYLE
  5
4BD
330
44B
100
AcDbSymbolTableRecord
100
AcDbTextStyleTableRecord
  2
SANDVIK_STYLE
 70
     0
 40
3.0
 41
1.0
 50
0.0
 71
     0
 42
3.0
  3
simplex.shx
  4

  0
ENDTAB
  0
TABLE
  2
VIEW
  5
44E
330
0
100
AcDbSymbolTable
 70
     0
  0
ENDTAB
  0
TABLE
  2
UCS
  5
44F
330
0
100
AcDbSymbolTable
 70
     0
  0
ENDTAB
  0
TABLE
  2
APPID
  5
451
330
0
100
AcDbSymbolTable
 70
     4
  0
APPID
  5
49E
330
451
100
AcDbSymbolTableRecord
100
AcDbRegAppTableRecord
  2
ACAD
 70
     0
  0
APPID
  5
4A5
330
451
100
AcDbSymbolTableRecord
100
AcDbRegAppTableRecord
  2
AcadAnnotative
 70
     0
  0
APPID
  5
544
330
451
100
AcDbSymbolTableRecord
100
AcDbRegAppTableRecord
  2
ACAD_NAV_VCDISPLAY
 70
     0
  0
APPID
  5
57D
330
451
100
AcDbSymbolTableRecord
100
AcDbRegAppTableRecord
  2
ACAD_MLEADERVER
 70
     0
  0
ENDTAB
  0
TABLE
  2
DIMSTYLE
  5
452
330
0
100
AcDbSymbolTable
 70
     3
100
AcDbDimStyleTable
 71
     0
  0
DIMSTYLE
105
49F
330
452
100
AcDbSymbolTableRecord
100
AcDbDimStyleTableRecord
  2
STANDARD
 70
     0
  4
 
 41
3.0
 42
2.5
 43
10.0
 44
2.5
 46
1.25
 73
     0
 74
     0
140
3.0
141
-3.0
143
0.039
145
1.5
146
0.75
147
1.5
271
     2
272
     2
279
     2
340
4BD
  0
DIMSTYLE
105
4A0
330
452
100
AcDbSymbolTableRecord
100
AcDbDimStyleTableRecord
  2
Annotative
 70
     0
340
49D
1001
AcadAnnotative
1000
AnnotativeData
1002
{
1070
     1
1070
     1
1002
}
  0
DIMSTYLE
105
4E4
330
452
100
AcDbSymbolTableRecord
100
AcDbDimStyleTableRecord
  2
SANDVIK_DIM
 70
     0
  4
 
 40
0.0
 41
4.57
 42
0.0
 44
5.0
 73
     0
 74
     0
 77
     1
 78
     8
140
4.5
147
2.299999999999999
176
   256
177
   256
178
   256
271
     2
272
     2
279
     2
340
4BD
  0
ENDTAB
  0
TABLE
  2
BLOCK_RECORD
  5
449
330
0
100
AcDbSymbolTable
 70
     2
  0
BLOCK_RECORD
  5
4B8
330
449
100
AcDbSymbolTableRecord
100
AcDbBlockTableRecord
  2
*Model_Space
340
4BB
  0
BLOCK_RECORD
  5
4B4
330
449
100
AcDbSymbolTableRecord
100
AcDbBlockTableRecord
  2
*Paper_Space
340
4B7
  0
BLOCK_RECORD
  5
4E8
330
449
100
AcDbSymbolTableRecord
100
AcDbBlockTableRecord
  2
*D0
340
0
102
{BLKREFS
331
3E6
102
}
  0
BLOCK_RECORD
  5
4E9
330
449
100
AcDbSymbolTableRecord
100
AcDbBlockTableRecord
  2
*D1
340
0
102
{BLKREFS
331
3E8
102
}
  0
ENDTAB
  0
ENDSEC
  0
SECTION
  2
BLOCKS
  0
BLOCK
  5
4B9
330
4B8
100
AcDbEntity
  8
0
100
AcDbBlockBegin
  2
*Model_Space
 70
     0
 10
0.0
 20
0.0
 30
0.0
  3
*Model_Space
  1

  0
ENDBLK
  5
4BA
330
4B8
100
AcDbEntity
  8
0
100
AcDbBlockEnd
  0
BLOCK
  5
4B5
330
4B4
100
AcDbEntity
 67
     1
  8
0
100
AcDbBlockBegin
  2
*Paper_Space
 70
     0
 10
0.0
 20
0.0
 30
0.0
  3
*Paper_Space
  1

  0
ENDBLK
  5
4B6
330
4B4
100
AcDbEntity
 67
     1
  8
0
100
AcDbBlockEnd
  0
BLOCK
  5
2
330
4E8
100
AcDbEntity
  8
0
100
AcDbBlockBegin
  2
*D0
 70
     1
 10
0.0
 20
0.0
 30
0.0
  3
*D0
  1

  0
LINE
  5
3
330
4E8
100
AcDbEntity
  8
0
100
AcDbLine
 10
0.0
 20
13.7
 30
0.0
 11
0.0
 21
28.700002
 31
0.0
  0
LINE
  5
4
330
4E8
100
AcDbEntity
  8
0
100
AcDbLine
 10
16.0
 20
13.7
 30
0.0
 11
16.0
 21
28.700002
 31
0.0
  0
LINE
  5
5
330
4E8
100
AcDbEntity
  8
0
100
AcDbLine
 10
2.5
 20
27.700002
 30
0.0
 11
13.5
 21
27.700002
 31
0.0
  0
LINE
  5
6
330
4E8
100
AcDbEntity
  8
0
100
AcDbLine
 10
2.5
 20
28.116669
 30
0.0
 11
2.5
 21
27.283335
 31
0.0
  0
LINE
  5
7
330
4E8
100
AcDbEntity
  8
0
100
AcDbLine
 10
2.5
 20
27.283335
 30
0.0
 11
0.0
 21
27.700002
 31
0.0
  0
LINE
  5
8
330
4E8
100
AcDbEntity
  8
0
100
AcDbLine
 10
0.0
 20
27.700002
 30
0.0
 11
0.0
 21
27.700002
 31
0.0
  0
LINE
  5
9
330
4E8
100
AcDbEntity
  8
0
100
AcDbLine
 10
0.0
 20
27.700002
 30
0.0
 11
2.5
 21
28.116669
 31
0.0
  0
LINE
  5
A
330
4E8
100
AcDbEntity
  8
0
100
AcDbLine
 10
13.5
 20
28.116669
 30
0.0
 11
13.5
 21
27.283335
 31
0.0
  0
LINE
  5
B
330
4E8
100
AcDbEntity
  8
0
100
AcDbLine
 10
13.5
 20
27.283335
 30
0.0
 11
16.0
 21
27.700002
 31
0.0
  0
LINE
  5
C
330
4E8
100
AcDbEntity
  8
0
100
AcDbLine
 10
16.0
 20
27.700002
 30
0.0
 11
16.0
 21
27.700002
 31
0.0
  0
LINE
  5
D
330
4E8
100
AcDbEntity
  8
0
100
AcDbLine
 10
16.0
 20
27.700002
 30
0.0
 11
13.5
 21
28.116669
 31
0.0
  0
ENDBLK
  5
E
330
4E8
100
AcDbEntity
  8
0
100
AcDbBlockEnd
  0
BLOCK
  5
F
330
4E9
100
AcDbEntity
  8
0
100
AcDbBlockBegin
  2
*D1
 70
     1
 10
0.0
 20
0.0
 30
0.0
  3
*D1
  1

  0
LINE
  5
10
330
4E9
100
AcDbEntity
  8
0
100
AcDbLine
 10
17.0
 20
12.7
 30
0.0
 11
35.86443900000001
 21
12.7
 31
0.0
  0
LINE
  5
11
330
4E9
100
AcDbEntity
  8
0
100
AcDbLine
 10
17.0
 20
-12.7
 30
0.0
 11
35.86443900000001
 21
-12.7
 31
0.0
  0
LINE
  5
12
330
4E9
100
AcDbEntity
  8
0
100
AcDbLine
 10
34.86443900000001
 20
10.2
 30
0.0
 11
34.86443900000001
 21
-10.2
 31
0.0
  0
LINE
  5
13
330
4E9
100
AcDbEntity
  8
0
100
AcDbLine
 10
34.447773
 20
10.2
 30
0.0
 11
35.281106
 21
10.2
 31
0.0
  0
LINE
  5
14
330
4E9
100
AcDbEntity
  8
0
100
AcDbLine
 10
35.281106
 20
10.2
 30
0.0
 11
34.86443900000001
 21
12.7
 31
0.0
  0
LINE
  5
15
330
4E9
100
AcDbEntity
  8
0
100
AcDbLine
 10
34.86443900000001
 20
12.7
 30
0.0
 11
34.86443900000001
 21
12.7
 31
0.0
  0
LINE
  5
16
330
4E9
100
AcDbEntity
  8
0
100
AcDbLine
 10
34.86443900000001
 20
12.7
 30
0.0
 11
34.447773
 21
10.2
 31
0.0
  0
LINE
  5
17
330
4E9
100
AcDbEntity
  8
0
100
AcDbLine
 10
34.447773
 20
-10.2
 30
0.0
 11
35.281106
 21
-10.2
 31
0.0
  0
LINE
  5
18
330
4E9
100
AcDbEntity
  8
0
100
AcDbLine
 10
35.281106
 20
-10.2
 30
0.0
 11
34.86443900000001
 21
-12.7
 31
0.0
  0
LINE
  5
19
330
4E9
100
AcDbEntity
  8
0
100
AcDbLine
 10
34.86443900000001
 20
-12.7
 30
0.0
 11
34.86443900000001
 21
-12.7
 31
0.0
  0
LINE
  5
1A
330
4E9
100
AcDbEntity
  8
0
100
AcDbLine
 10
34.86443900000001
 20
-12.7
 30
0.0
 11
34.447773
 21
-10.2
 31
0.0
  0
ENDBLK
  5
1B
330
4E9
100
AcDbEntity
  8
0
100
AcDbBlockEnd
  0
ENDSEC
  0
SECTION
  2
ENTITIES
  0
LINE
  5
1C
330
4B8
100
AcDbEntity
  8
1
100
AcDbLine
 10
16.0
 20
6.167437
 30
0.0
 11
16.0
 21
11.891712
 31
0.0
  0
LINE
  5
1D
330
4B8
100
AcDbEntity
  8
1
100
AcDbLine
 10
9.164089999999999
 20
12.538819
 30
0.0
 11
9.164089999999999
 21
10.735538
 31
0.0
  0
LINE
  5
1E
330
4B8
100
AcDbEntity
  8
1
100
AcDbLine
 10
5.043319999999999
 20
11.375165
 30
0.0
 11
4.910915
 21
11.458158
 31
0.0
  0
LINE
  5
1F
330
4B8
100
AcDbEntity
  8
1
100
AcDbLine
 10
4.910915
 20
11.458158
 30
0.0
 11
4.780808999999999
 21
11.538913
 31
0.0
  0
LINE
  5
20
330
4B8
100
AcDbEntity
  8
1
100
AcDbLine
 10
4.780808999999999
 20
11.538913
 30
0.0
 11
4.652842999999999
 21
11.617166
 31
0.0
  0
LINE
  5
21
330
4B8
100
AcDbEntity
  8
1
100
AcDbLine
 10
4.652842999999999
 20
11.617166
 30
0.0
 11
4.527605999999999
 21
11.692154
 31
0.0
  0
LINE
  5
22
330
4B8
100
AcDbEntity
  8
1
100
AcDbLine
 10
4.527605999999999
 20
11.692154
 30
0.0
 11
4.405253
 21
11.76361
 31
0.0
  0
LINE
  5
23
330
4B8
100
AcDbEntity
  8
1
100
AcDbLine
 10
4.405253
 20
11.76361
 30
0.0
 11
4.285629
 21
11.831382
 31
0.0
  0
LINE
  5
24
330
4B8
100
AcDbEntity
  8
1
100
AcDbLine
 10
4.285629
 20
11.831382
 30
0.0
 11
4.168860999999999
 21
11.895017
 31
0.0
  0
LINE
  5
25
330
4B8
100
AcDbEntity
  8
1
100
AcDbLine
 10
4.168860999999999
 20
11.895017
 30
0.0
 11
4.054953
 21
11.954352
 31
0.0
  0
LINE
  5
26
330
4B8
100
AcDbEntity
  8
1
100
AcDbLine
 10
4.054953
 20
11.954352
 30
0.0
 11
3.943901
 21
12.009223
 31
0.0
  0
LINE
  5
27
330
4B8
100
AcDbEntity
  8
1
100
AcDbLine
 10
3.943901
 20
12.009223
 30
0.0
 11
3.835820999999999
 21
12.059282
 31
0.0
  0
LINE
  5
28
330
4B8
100
AcDbEntity
  8
1
100
AcDbLine
 10
3.835820999999999
 20
12.059282
 30
0.0
 11
3.730748
 21
12.104404
 31
0.0
  0
LINE
  5
29
330
4B8
100
AcDbEntity
  8
1
100
AcDbLine
 10
3.730748
 20
12.104404
 30
0.0
 11
3.628646999999999
 21
12.144512
 31
0.0
  0
LINE
  5
2A
330
4B8
100
AcDbEntity
  8
1
100
AcDbLine
 10
3.628646999999999
 20
12.144512
 30
0.0
 11
3.529530999999999
 21
12.179428
 31
0.0
  0
LINE
  5
2B
330
4B8
100
AcDbEntity
  8
1
100
AcDbLine
 10
3.529530999999999
 20
12.179428
 30
0.0
 11
3.433344
 21
12.209097
 31
0.0
  0
LINE
  5
2C
330
4B8
100
AcDbEntity
  8
1
100
AcDbLine
 10
3.433344
 20
12.209097
 30
0.0
 11
3.340141999999999
 21
12.233454
 31
0.0
  0
LINE
  5
2D
330
4B8
100
AcDbEntity
  8
1
100
AcDbLine
 10
3.340141999999999
 20
12.233454
 30
0.0
 11
3.250103999999999
 21
12.252384
 31
0.0
  0
LINE
  5
2E
330
4B8
100
AcDbEntity
  8
1
100
AcDbLine
 10
3.250103999999999
 20
12.252384
 30
0.0
 11
3.163289999999999
 21
12.265881
 31
0.0
  0
LINE
  5
2F
330
4B8
100
AcDbEntity
  8
1
100
AcDbLine
 10
3.163289999999999
 20
12.265881
 30
0.0
 11
3.079639999999999
 21
12.273973
 31
0.0
  0
LINE
  5
30
330
4B8
100
AcDbEntity
  8
1
100
AcDbLine
 10
3.079639999999999
 20
12.273973
 30
0.0
 11
2.999155
 21
12.276669
 31
0.0
  0
LINE
  5
31
330
4B8
100
AcDbEntity
  8
1
100
AcDbLine
 10
8.391548
 20
12.236362
 30
0.0
 11
8.391548
 21
10.730543
 31
0.0
  0
LINE
  5
32
330
4B8
100
AcDbEntity
  8
1
100
AcDbLine
 10
0.0
 20
-12.276669
 30
0.0
 11
0.0
 21
12.276669
 31
0.0
  0
LINE
  5
33
330
4B8
100
AcDbEntity
  8
1
100
AcDbLine
 10
14.608258
 20
-5.109828
 30
0.0
 11
14.0945
 21
-5.271773
 31
0.0
  0
LINE
  5
34
330
4B8
100
AcDbEntity
  8
1
100
AcDbLine
 10
14.0945
 20
-5.271773
 30
0.0
 11
13.580068
 21
-5.432681999999999
 31
0.0
  0
LINE
  5
35
330
4B8
100
AcDbEntity
  8
1
100
AcDbLine
 10
13.580068
 20
-5.432681999999999
 30
0.0
 11
13.064961
 21
-5.592553999999999
 31
0.0
  0
LINE
  5
36
330
4B8
100
AcDbEntity
  8
1
100
AcDbLine
 10
13.064961
 20
-5.592553999999999
 30
0.0
 11
12.549034
 21
-5.751433
 31
0.0
  0
LINE
  5
37
330
4B8
100
AcDbEntity
  8
1
100
AcDbLine
 10
12.549034
 20
-5.751433
 30
0.0
 11
12.032433
 21
-5.909276
 31
0.0
  0
LINE
  5
38
330
4B8
100
AcDbEntity
  8
1
100
AcDbLine
 10
12.032433
 20
-5.909276
 30
0.0
 11
11.515594
 21
-6.065944
 31
0.0
  0
LINE
  5
39
330
4B8
100
AcDbEntity
  8
1
100
AcDbLine
 10
11.515594
 20
-6.065944
 30
0.0
 11
10.998664
 21
-6.221394
 31
0.0
  0
LINE
  5
3A
330
4B8
100
AcDbEntity
  8
1
100
AcDbLine
 10
10.998664
 20
-6.221394
 30
0.0
 11
10.481496
 21
-6.375670999999999
 31
0.0
  0
LINE
  5
3B
330
4B8
100
AcDbEntity
  8
1
100
AcDbLine
 10
10.481496
 20
-6.375670999999999
 30
0.0
 11
9.964089999999998
 21
-6.528773
 31
0.0
  0
LINE
  5
3C
330
4B8
100
AcDbEntity
  8
1
100
AcDbLine
 10
14.493228
 20
-4.810258999999999
 30
0.0
 11
13.992493
 21
-4.969585999999999
 31
0.0
  0
LINE
  5
3D
330
4B8
100
AcDbEntity
  8
1
100
AcDbLine
 10
13.992493
 20
-4.969585999999999
 30
0.0
 11
13.491041
 21
-5.12812
 31
0.0
  0
LINE
  5
3E
330
4B8
100
AcDbEntity
  8
1
100
AcDbLine
 10
13.491041
 20
-5.12812
 30
0.0
 11
12.988872
 21
-5.285827999999999
 31
0.0
  0
LINE
  5
3F
330
4B8
100
AcDbEntity
  8
1
100
AcDbLine
 10
12.988872
 20
-5.285827999999999
 30
0.0
 11
12.485863
 21
-5.442681999999999
 31
0.0
  0
LINE
  5
40
330
4B8
100
AcDbEntity
  8
1
100
AcDbLine
 10
12.485863
 20
-5.442681999999999
 30
0.0
 11
11.982136
 21
-5.598648999999999
 31
0.0
  0
LINE
  5
41
330
4B8
100
AcDbEntity
  8
1
100
AcDbLine
 10
11.982136
 20
-5.598648999999999
 30
0.0
 11
11.478059
 21
-5.75368
 31
0.0
  0
LINE
  5
42
330
4B8
100
AcDbEntity
  8
1
100
AcDbLine
 10
11.478059
 20
-5.75368
 30
0.0
 11
10.973754
 21
-5.907738
 31
0.0
  0
LINE
  5
43
330
4B8
100
AcDbEntity
  8
1
100
AcDbLine
 10
10.973754
 20
-5.907738
 30
0.0
 11
10.469097
 21
-6.0608
 31
0.0
  0
LINE
  5
44
330
4B8
100
AcDbEntity
  8
1
100
AcDbLine
 10
10.469097
 20
-6.0608
 30
0.0
 11
9.964089999999998
 21
-6.212830999999999
 31
0.0
  0
LINE
  5
45
330
4B8
100
AcDbEntity
  8
1
100
AcDbLine
 10
14.1
 20
11.242305
 30
0.0
 11
13.68022
 21
11.198619
 31
0.0
  0
LINE
  5
46
330
4B8
100
AcDbEntity
  8
1
100
AcDbLine
 10
13.68022
 20
11.198619
 30
0.0
 11
13.258299
 21
11.153999
 31
0.0
  0
LINE
  5
47
330
4B8
100
AcDbEntity
  8
1
100
AcDbLine
 10
13.258299
 20
11.153999
 30
0.0
 11
12.834235
 21
11.108442
 31
0.0
  0
LINE
  5
48
330
4B8
100
AcDbEntity
  8
1
100
AcDbLine
 10
12.834235
 20
11.108442
 30
0.0
 11
12.407985
 21
11.061948
 31
0.0
  0
LINE
  5
49
330
4B8
100
AcDbEntity
  8
1
100
AcDbLine
 10
12.407985
 20
11.061948
 30
0.0
 11
11.979592
 21
11.014519
 31
0.0
  0
LINE
  5
4A
330
4B8
100
AcDbEntity
  8
1
100
AcDbLine
 10
11.979592
 20
11.014519
 30
0.0
 11
11.549191
 21
10.966159
 31
0.0
  0
LINE
  5
4B
330
4B8
100
AcDbEntity
  8
1
100
AcDbLine
 10
11.549191
 20
10.966159
 30
0.0
 11
11.116824
 21
10.916869
 31
0.0
  0
LINE
  5
4C
330
4B8
100
AcDbEntity
  8
1
100
AcDbLine
 10
11.116824
 20
10.916869
 30
0.0
 11
10.682447
 21
10.866649
 31
0.0
  0
LINE
  5
4D
330
4B8
100
AcDbEntity
  8
1
100
AcDbLine
 10
10.682447
 20
10.866649
 30
0.0
 11
10.246061
 21
10.815497
 31
0.0
  0
LINE
  5
4E
330
4B8
100
AcDbEntity
  8
1
100
AcDbLine
 10
8.611062999999999
 20
-4.307142999999999
 30
0.0
 11
9.234792999999999
 21
-4.102101
 31
0.0
  0
LINE
  5
4F
330
4B8
100
AcDbEntity
  8
1
100
AcDbLine
 10
9.234792999999999
 20
-4.102101
 30
0.0
 11
9.85468
 21
-3.896401
 31
0.0
  0
LINE
  5
50
330
4B8
100
AcDbEntity
  8
1
100
AcDbLine
 10
9.85468
 20
-3.896401
 30
0.0
 11
10.470721
 21
-3.690042
 31
0.0
  0
LINE
  5
51
330
4B8
100
AcDbEntity
  8
1
100
AcDbLine
 10
10.470721
 20
-3.690042
 30
0.0
 11
11.08294
 21
-3.483004
 31
0.0
  0
LINE
  5
52
330
4B8
100
AcDbEntity
  8
1
100
AcDbLine
 10
11.08294
 20
-3.483004
 30
0.0
 11
11.691314
 21
-3.275308
 31
0.0
  0
LINE
  5
53
330
4B8
100
AcDbEntity
  8
1
100
AcDbLine
 10
11.691314
 20
-3.275308
 30
0.0
 11
12.295781
 21
-3.067010999999999
 31
0.0
  0
LINE
  5
54
330
4B8
100
AcDbEntity
  8
1
100
AcDbLine
 10
12.295781
 20
-3.067010999999999
 30
0.0
 11
12.896319
 21
-2.858133
 31
0.0
  0
LINE
  5
55
330
4B8
100
AcDbEntity
  8
1
100
AcDbLine
 10
12.896319
 20
-2.858133
 30
0.0
 11
13.492951
 21
-2.648652999999999
 31
0.0
  0
LINE
  5
56
330
4B8
100
AcDbEntity
  8
1
100
AcDbLine
 10
13.492951
 20
-2.648652999999999
 30
0.0
 11
14.085676
 21
-2.438572
 31
0.0
  0
LINE
  5
57
330
4B8
100
AcDbEntity
  8
1
100
AcDbLine
 10
14.1
 20
-2.344122999999999
 30
0.0
 11
13.390715
 21
-2.595934
 31
0.0
  0
LINE
  5
58
330
4B8
100
AcDbEntity
  8
1
100
AcDbLine
 10
13.390715
 20
-2.595934
 30
0.0
 11
12.675378
 21
-2.847011
 31
0.0
  0
LINE
  5
59
330
4B8
100
AcDbEntity
  8
1
100
AcDbLine
 10
12.675378
 20
-2.847011
 30
0.0
 11
11.953989
 21
-3.097354999999999
 31
0.0
  0
LINE
  5
5A
330
4B8
100
AcDbEntity
  8
1
100
AcDbLine
 10
11.953989
 20
-3.097354999999999
 30
0.0
 11
11.226105
 21
-3.347133999999999
 31
0.0
  0
LINE
  5
5B
330
4B8
100
AcDbEntity
  8
1
100
AcDbLine
 10
11.226105
 20
-3.347133999999999
 30
0.0
 11
10.492168
 21
-3.59618
 31
0.0
  0
LINE
  5
5C
330
4B8
100
AcDbEntity
  8
1
100
AcDbLine
 10
10.492168
 20
-3.59618
 30
0.0
 11
9.753516000000001
 21
-3.843983
 31
0.0
  0
LINE
  5
5D
330
4B8
100
AcDbEntity
  8
1
100
AcDbLine
 10
9.753516000000001
 20
-3.843983
 30
0.0
 11
9.01012
 21
-4.090537999999999
 31
0.0
  0
LINE
  5
5E
330
4B8
100
AcDbEntity
  8
1
100
AcDbLine
 10
8.611062999999999
 20
7.958008999999999
 30
0.0
 11
9.234792999999999
 21
8.124463999999999
 31
0.0
  0
LINE
  5
5F
330
4B8
100
AcDbEntity
  8
1
100
AcDbLine
 10
9.234792999999999
 20
8.124463999999999
 30
0.0
 11
9.85468
 21
8.287972999999999
 31
0.0
  0
LINE
  5
60
330
4B8
100
AcDbEntity
  8
1
100
AcDbLine
 10
9.85468
 20
8.287972999999999
 30
0.0
 11
10.470721
 21
8.448530999999999
 31
0.0
  0
LINE
  5
61
330
4B8
100
AcDbEntity
  8
1
100
AcDbLine
 10
10.470721
 20
8.448530999999999
 30
0.0
 11
11.08294
 21
8.606135
 31
0.0
  0
LINE
  5
62
330
4B8
100
AcDbEntity
  8
1
100
AcDbLine
 10
11.08294
 20
8.606135
 30
0.0
 11
11.691314
 21
8.760792
 31
0.0
  0
LINE
  5
63
330
4B8
100
AcDbEntity
  8
1
100
AcDbLine
 10
11.691314
 20
8.760792
 30
0.0
 11
12.295781
 21
8.912518999999999
 31
0.0
  0
LINE
  5
64
330
4B8
100
AcDbEntity
  8
1
100
AcDbLine
 10
12.295781
 20
8.912518999999999
 30
0.0
 11
12.896319
 21
9.061324
 31
0.0
  0
LINE
  5
65
330
4B8
100
AcDbEntity
  8
1
100
AcDbLine
 10
12.896319
 20
9.061324
 30
0.0
 11
13.492951
 21
9.207202
 31
0.0
  0
LINE
  5
66
330
4B8
100
AcDbEntity
  8
1
100
AcDbLine
 10
13.492951
 20
9.207202
 30
0.0
 11
14.085676
 21
9.350151
 31
0.0
  0
LINE
  5
67
330
4B8
100
AcDbEntity
  8
1
100
AcDbLine
 10
14.493228
 20
7.773903999999999
 30
0.0
 11
13.992493
 21
7.636411999999999
 31
0.0
  0
LINE
  5
68
330
4B8
100
AcDbEntity
  8
1
100
AcDbLine
 10
13.992493
 20
7.636411999999999
 30
0.0
 11
13.491041
 21
7.497395
 31
0.0
  0
LINE
  5
69
330
4B8
100
AcDbEntity
  8
1
100
AcDbLine
 10
13.491041
 20
7.497395
 30
0.0
 11
12.988872
 21
7.356877
 31
0.0
  0
LINE
  5
6A
330
4B8
100
AcDbEntity
  8
1
100
AcDbLine
 10
12.988872
 20
7.356877
 30
0.0
 11
12.485863
 21
7.214874
 31
0.0
  0
LINE
  5
6B
330
4B8
100
AcDbEntity
  8
1
100
AcDbLine
 10
12.485863
 20
7.214874
 30
0.0
 11
11.982136
 21
7.071416
 31
0.0
  0
LINE
  5
6C
330
4B8
100
AcDbEntity
  8
1
100
AcDbLine
 10
11.982136
 20
7.071416
 30
0.0
 11
11.478059
 21
6.926539
 31
0.0
  0
LINE
  5
6D
330
4B8
100
AcDbEntity
  8
1
100
AcDbLine
 10
11.478059
 20
6.926539
 30
0.0
 11
10.973754
 21
6.780272
 31
0.0
  0
LINE
  5
6E
330
4B8
100
AcDbEntity
  8
1
100
AcDbLine
 10
10.973754
 20
6.780272
 30
0.0
 11
10.469097
 21
6.632633999999999
 31
0.0
  0
LINE
  5
6F
330
4B8
100
AcDbEntity
  8
1
100
AcDbLine
 10
10.469097
 20
6.632633999999999
 30
0.0
 11
9.964089999999998
 21
6.483651999999999
 31
0.0
  0
LINE
  5
70
330
4B8
100
AcDbEntity
  8
1
100
AcDbLine
 10
14.608258
 20
7.514103999999999
 30
0.0
 11
14.0945
 21
7.370053999999999
 31
0.0
  0
LINE
  5
71
330
4B8
100
AcDbEntity
  8
1
100
AcDbLine
 10
14.0945
 20
7.370053999999999
 30
0.0
 11
13.580068
 21
7.224563
 31
0.0
  0
LINE
  5
72
330
4B8
100
AcDbEntity
  8
1
100
AcDbLine
 10
13.580068
 20
7.224563
 30
0.0
 11
13.064961
 21
7.077633999999999
 31
0.0
  0
LINE
  5
73
330
4B8
100
AcDbEntity
  8
1
100
AcDbLine
 10
13.064961
 20
7.077633999999999
 30
0.0
 11
12.549034
 21
6.929224
 31
0.0
  0
LINE
  5
74
330
4B8
100
AcDbEntity
  8
1
100
AcDbLine
 10
12.549034
 20
6.929224
 30
0.0
 11
12.032433
 21
6.779374999999999
 31
0.0
  0
LINE
  5
75
330
4B8
100
AcDbEntity
  8
1
100
AcDbLine
 10
12.032433
 20
6.779374999999999
 30
0.0
 11
11.515594
 21
6.628213
 31
0.0
  0
LINE
  5
76
330
4B8
100
AcDbEntity
  8
1
100
AcDbLine
 10
11.515594
 20
6.628213
 30
0.0
 11
10.998664
 21
6.475773999999999
 31
0.0
  0
LINE
  5
77
330
4B8
100
AcDbEntity
  8
1
100
AcDbLine
 10
10.998664
 20
6.475773999999999
 30
0.0
 11
10.481496
 21
6.322023
 31
0.0
  0
LINE
  5
78
330
4B8
100
AcDbEntity
  8
1
100
AcDbLine
 10
10.481496
 20
6.322023
 30
0.0
 11
9.964089999999998
 21
6.166955
 31
0.0
  0
LINE
  5
79
330
4B8
100
AcDbEntity
  8
1
100
AcDbLine
 10
9.164089999999999
 20
4.131682999999999
 30
0.0
 11
16.0
 21
6.167437
 31
0.0
  0
LINE
  5
7A
330
4B8
100
AcDbEntity
  8
1
100
AcDbLine
 10
11.549191
 20
0.703437
 30
0.0
 11
10.682447
 21
0.4861760000000001
 31
0.0
  0
LINE
  5
7B
330
4B8
100
AcDbEntity
  8
1
100
AcDbLine
 10
10.682447
 20
0.4861760000000001
 30
0.0
 11
10.246061
 21
0.377222
 31
0.0
  0
LINE
  5
7C
330
4B8
100
AcDbEntity
  8
1
100
AcDbLine
 10
15.5
 20
2.645547
 30
0.0
 11
9.745649999999999
 21
0.9318839999999999
 31
0.0
  0
LINE
  5
7D
330
4B8
100
AcDbEntity
  8
1
100
AcDbLine
 10
8.611062999999999
 20
-12.265152
 30
0.0
 11
9.234792999999999
 21
-12.226566
 31
0.0
  0
LINE
  5
7E
330
4B8
100
AcDbEntity
  8
1
100
AcDbLine
 10
9.234792999999999
 20
-12.226566
 30
0.0
 11
9.85468
 21
-12.184372
 31
0.0
  0
LINE
  5
7F
330
4B8
100
AcDbEntity
  8
1
100
AcDbLine
 10
9.85468
 20
-12.184372
 30
0.0
 11
10.470721
 21
-12.138573
 31
0.0
  0
LINE
  5
80
330
4B8
100
AcDbEntity
  8
1
100
AcDbLine
 10
10.470721
 20
-12.138573
 30
0.0
 11
11.08294
 21
-12.089139
 31
0.0
  0
LINE
  5
81
330
4B8
100
AcDbEntity
  8
1
100
AcDbLine
 10
11.08294
 20
-12.089139
 30
0.0
 11
11.691314
 21
-12.0361
 31
0.0
  0
LINE
  5
82
330
4B8
100
AcDbEntity
  8
1
100
AcDbLine
 10
11.691314
 20
-12.0361
 30
0.0
 11
12.295781
 21
-11.97953
 31
0.0
  0
LINE
  5
83
330
4B8
100
AcDbEntity
  8
1
100
AcDbLine
 10
12.295781
 20
-11.97953
 30
0.0
 11
12.896319
 21
-11.919457
 31
0.0
  0
LINE
  5
84
330
4B8
100
AcDbEntity
  8
1
100
AcDbLine
 10
12.896319
 20
-11.919457
 30
0.0
 11
13.492951
 21
-11.855854
 31
0.0
  0
LINE
  5
85
330
4B8
100
AcDbEntity
  8
1
100
AcDbLine
 10
13.492951
 20
-11.855854
 30
0.0
 11
14.085676
 21
-11.788722
 31
0.0
  0
LINE
  5
86
330
4B8
100
AcDbEntity
  8
1
100
AcDbLine
 10
14.1
 20
-9.892613
 30
0.0
 11
13.68022
 21
-9.956002999999999
 31
0.0
  0
LINE
  5
87
330
4B8
100
AcDbEntity
  8
1
100
AcDbLine
 10
13.68022
 20
-9.956002999999999
 30
0.0
 11
13.258299
 21
-10.01871
 31
0.0
  0
LINE
  5
88
330
4B8
100
AcDbEntity
  8
1
100
AcDbLine
 10
13.258299
 20
-10.01871
 30
0.0
 11
12.834235
 21
-10.080736
 31
0.0
  0
LINE
  5
89
330
4B8
100
AcDbEntity
  8
1
100
AcDbLine
 10
12.834235
 20
-10.080736
 30
0.0
 11
12.407985
 21
-10.142089
 31
0.0
  0
LINE
  5
8A
330
4B8
100
AcDbEntity
  8
1
100
AcDbLine
 10
12.407985
 20
-10.142089
 30
0.0
 11
11.979592
 21
-10.202763
 31
0.0
  0
LINE
  5
8B
330
4B8
100
AcDbEntity
  8
1
100
AcDbLine
 10
11.979592
 20
-10.202763
 30
0.0
 11
11.549191
 21
-10.26272
 31
0.0
  0
LINE
  5
8C
330
4B8
100
AcDbEntity
  8
1
100
AcDbLine
 10
11.549191
 20
-10.26272
 30
0.0
 11
11.116824
 21
-10.321953
 31
0.0
  0
LINE
  5
8D
330
4B8
100
AcDbEntity
  8
1
100
AcDbLine
 10
11.116824
 20
-10.321953
 30
0.0
 11
10.682447
 21
-10.380472
 31
0.0
  0
LINE
  5
8E
330
4B8
100
AcDbEntity
  8
1
100
AcDbLine
 10
10.682447
 20
-10.380472
 30
0.0
 11
10.246061
 21
-10.438276
 31
0.0
  0
LINE
  5
8F
330
4B8
100
AcDbEntity
  8
1
100
AcDbLine
 10
15.5
 20
-6.456120999999999
 30
0.0
 11
9.745649999999999
 21
-8.169783999999999
 31
0.0
  0
LINE
  5
90
330
4B8
100
AcDbEntity
  8
1
100
AcDbLine
 10
14.1
 20
-11.608356
 30
0.0
 11
13.390781
 21
-11.689517
 31
0.0
  0
LINE
  5
91
330
4B8
100
AcDbEntity
  8
1
100
AcDbLine
 10
13.390781
 20
-11.689517
 30
0.0
 11
12.6755
 21
-11.765608
 31
0.0
  0
LINE
  5
92
330
4B8
100
AcDbEntity
  8
1
100
AcDbLine
 10
12.6755
 20
-11.765608
 30
0.0
 11
11.954157
 21
-11.836627
 31
0.0
  0
LINE
  5
93
330
4B8
100
AcDbEntity
  8
1
100
AcDbLine
 10
11.954157
 20
-11.836627
 30
0.0
 11
11.226304
 21
-11.902652
 31
0.0
  0
LINE
  5
94
330
4B8
100
AcDbEntity
  8
1
100
AcDbLine
 10
11.226304
 20
-11.902652
 30
0.0
 11
10.492389
 21
-11.963607
 31
0.0
  0
LINE
  5
95
330
4B8
100
AcDbEntity
  8
1
100
AcDbLine
 10
10.492389
 20
-11.963607
 30
0.0
 11
9.753755999999999
 21
-12.019265
 31
0.0
  0
LINE
  5
96
330
4B8
100
AcDbEntity
  8
1
100
AcDbLine
 10
9.753755999999999
 20
-12.019265
 30
0.0
 11
9.010379999999999
 21
-12.069608
 31
0.0
  0
LINE
  5
97
330
4B8
100
AcDbEntity
  8
1
100
AcDbLine
 10
0.0
 20
-12.276669
 30
0.0
 11
2.950262999999999
 21
-12.276669
 31
0.0
  0
LINE
  5
98
330
4B8
100
AcDbEntity
  8
1
100
AcDbLine
 10
7.126276999999999
 20
-7.949188999999999
 30
0.0
 11
7.150382
 21
-7.905539
 31
0.0
  0
LINE
  5
99
330
4B8
100
AcDbEntity
  8
1
100
AcDbLine
 10
7.150382
 20
-7.905539
 30
0.0
 11
7.176543999999999
 21
-7.861625
 31
0.0
  0
LINE
  5
9A
330
4B8
100
AcDbEntity
  8
1
100
AcDbLine
 10
7.176543999999999
 20
-7.861625
 30
0.0
 11
7.204774999999999
 21
-7.817464999999999
 31
0.0
  0
LINE
  5
9B
330
4B8
100
AcDbEntity
  8
1
100
AcDbLine
 10
7.204774999999999
 20
-7.817464999999999
 30
0.0
 11
7.235097
 21
-7.772958
 31
0.0
  0
LINE
  5
9C
330
4B8
100
AcDbEntity
  8
1
100
AcDbLine
 10
7.235097
 20
-7.772958
 30
0.0
 11
7.267514999999999
 21
-7.728239999999999
 31
0.0
  0
LINE
  5
9D
330
4B8
100
AcDbEntity
  8
1
100
AcDbLine
 10
7.267514999999999
 20
-7.728239999999999
 30
0.0
 11
7.302016
 21
-7.68368
 31
0.0
  0
LINE
  5
9E
330
4B8
100
AcDbEntity
  8
1
100
AcDbLine
 10
7.302016
 20
-7.68368
 30
0.0
 11
7.338642999999999
 21
-7.639297999999999
 31
0.0
  0
LINE
  5
9F
330
4B8
100
AcDbEntity
  8
1
100
AcDbLine
 10
7.338642999999999
 20
-7.639297999999999
 30
0.0
 11
7.377378
 21
-7.595113999999999
 31
0.0
  0
LINE
  5
A0
330
4B8
100
AcDbEntity
  8
1
100
AcDbLine
 10
7.377378
 20
-7.595113999999999
 30
0.0
 11
7.418110999999999
 21
-7.551497
 31
0.0
  0
LINE
  5
A1
330
4B8
100
AcDbEntity
  8
1
100
AcDbLine
 10
7.418110999999999
 20
-7.551497
 30
0.0
 11
7.460846
 21
-7.508502
 31
0.0
  0
LINE
  5
A2
330
4B8
100
AcDbEntity
  8
1
100
AcDbLine
 10
7.460846
 20
-7.508502
 30
0.0
 11
7.505599
 21
-7.466113
 31
0.0
  0
LINE
  5
A3
330
4B8
100
AcDbEntity
  8
1
100
AcDbLine
 10
7.505599
 20
-7.466113
 30
0.0
 11
7.552275999999999
 21
-7.424599999999999
 31
0.0
  0
LINE
  5
A4
330
4B8
100
AcDbEntity
  8
1
100
AcDbLine
 10
7.552275999999999
 20
-7.424599999999999
 30
0.0
 11
7.600877999999999
 21
-7.384
 31
0.0
  0
LINE
  5
A5
330
4B8
100
AcDbEntity
  8
1
100
AcDbLine
 10
7.600877999999999
 20
-7.384
 30
0.0
 11
7.651417999999999
 21
-7.344316
 31
0.0
  0
LINE
  5
A6
330
4B8
100
AcDbEntity
  8
1
100
AcDbLine
 10
7.651417999999999
 20
-7.344316
 30
0.0
 11
7.703828999999998
 21
-7.305767999999999
 31
0.0
  0
LINE
  5
A7
330
4B8
100
AcDbEntity
  8
1
100
AcDbLine
 10
7.703828999999998
 20
-7.305767999999999
 30
0.0
 11
7.758278999999999
 21
-7.268294
 31
0.0
  0
LINE
  5
A8
330
4B8
100
AcDbEntity
  8
1
100
AcDbLine
 10
7.758278999999999
 20
-7.268294
 30
0.0
 11
7.814608999999999
 21
-7.231997999999999
 31
0.0
  0
LINE
  5
A9
330
4B8
100
AcDbEntity
  8
1
100
AcDbLine
 10
7.814608999999999
 20
-7.231997999999999
 30
0.0
 11
7.872250999999999
 21
-7.19735
 31
0.0
  0
LINE
  5
AA
330
4B8
100
AcDbEntity
  8
1
100
AcDbLine
 10
7.872250999999999
 20
-7.19735
 30
0.0
 11
7.931372
 21
-7.164346
 31
0.0
  0
LINE
  5
AB
330
4B8
100
AcDbEntity
  8
1
100
AcDbLine
 10
7.931372
 20
-7.164346
 30
0.0
 11
7.991799999999999
 21
-7.133014
 31
0.0
  0
LINE
  5
AC
330
4B8
100
AcDbEntity
  8
1
100
AcDbLine
 10
7.991799999999999
 20
-7.133014
 30
0.0
 11
8.052449000000001
 21
-7.103849
 31
0.0
  0
LINE
  5
AD
330
4B8
100
AcDbEntity
  8
1
100
AcDbLine
 10
8.052449000000001
 20
-7.103849
 30
0.0
 11
8.113260999999999
 21
-7.076944
 31
0.0
  0
LINE
  5
AE
330
4B8
100
AcDbEntity
  8
1
100
AcDbLine
 10
8.113260999999999
 20
-7.076944
 30
0.0
 11
8.174272
 21
-7.052194
 31
0.0
  0
LINE
  5
AF
330
4B8
100
AcDbEntity
  8
1
100
AcDbLine
 10
8.174272
 20
-7.052194
 30
0.0
 11
8.234519
 21
-7.029749999999999
 31
0.0
  0
LINE
  5
B0
330
4B8
100
AcDbEntity
  8
1
100
AcDbLine
 10
8.234519
 20
-7.029749999999999
 30
0.0
 11
8.272396
 21
-7.016694999999999
 31
0.0
  0
LINE
  5
B1
330
4B8
100
AcDbEntity
  8
1
100
AcDbLine
 10
8.272396
 20
-7.016694999999999
 30
0.0
 11
8.293917999999999
 21
-7.009667999999999
 31
0.0
  0
LINE
  5
B2
330
4B8
100
AcDbEntity
  8
1
100
AcDbLine
 10
8.293917999999999
 20
-7.009667999999999
 30
0.0
 11
8.352524
 21
-6.991852
 31
0.0
  0
LINE
  5
B3
330
4B8
100
AcDbEntity
  8
1
100
AcDbLine
 10
8.352524
 20
-6.991852
 30
0.0
 11
8.409574
 21
-6.976207999999999
 31
0.0
  0
LINE
  5
B4
330
4B8
100
AcDbEntity
  8
1
100
AcDbLine
 10
8.409574
 20
-6.976207999999999
 30
0.0
 11
8.464930999999999
 21
-6.962763
 31
0.0
  0
LINE
  5
B5
330
4B8
100
AcDbEntity
  8
1
100
AcDbLine
 10
8.464930999999999
 20
-6.962763
 30
0.0
 11
8.518703999999999
 21
-6.951432999999999
 31
0.0
  0
LINE
  5
B6
330
4B8
100
AcDbEntity
  8
1
100
AcDbLine
 10
8.518703999999999
 20
-6.951432999999999
 30
0.0
 11
8.570491999999999
 21
-6.941944999999999
 31
0.0
  0
LINE
  5
B7
330
4B8
100
AcDbEntity
  8
1
100
AcDbLine
 10
8.570491999999999
 20
-6.941944999999999
 30
0.0
 11
8.620096
 21
-6.934289999999999
 31
0.0
  0
LINE
  5
B8
330
4B8
100
AcDbEntity
  8
1
100
AcDbLine
 10
8.620096
 20
-6.934289999999999
 30
0.0
 11
8.667695
 21
-6.928417999999999
 31
0.0
  0
LINE
  5
B9
330
4B8
100
AcDbEntity
  8
1
100
AcDbLine
 10
8.667695
 20
-6.928417999999999
 30
0.0
 11
8.713454999999999
 21
-6.923999
 31
0.0
  0
LINE
  5
BA
330
4B8
100
AcDbEntity
  8
1
100
AcDbLine
 10
8.713454999999999
 20
-6.923999
 30
0.0
 11
8.757329999999999
 21
-6.920975999999999
 31
0.0
  0
LINE
  5
BB
330
4B8
100
AcDbEntity
  8
1
100
AcDbLine
 10
8.757329999999999
 20
-6.920975999999999
 30
0.0
 11
8.799353999999999
 21
-6.919359
 31
0.0
  0
LINE
  5
BC
330
4B8
100
AcDbEntity
  8
1
100
AcDbLine
 10
8.799353999999999
 20
-6.919359
 30
0.0
 11
8.839819999999999
 21
-6.918918999999999
 31
0.0
  0
LINE
  5
BD
330
4B8
100
AcDbEntity
  8
1
100
AcDbLine
 10
8.839819999999999
 20
-6.918918999999999
 30
0.0
 11
8.878762
 21
-6.919607
 31
0.0
  0
LINE
  5
BE
330
4B8
100
AcDbEntity
  8
1
100
AcDbLine
 10
8.878762
 20
-6.919607
 30
0.0
 11
8.916136999999999
 21
-6.921436999999999
 31
0.0
  0
LINE
  5
BF
330
4B8
100
AcDbEntity
  8
1
100
AcDbLine
 10
8.916136999999999
 20
-6.921436999999999
 30
0.0
 11
8.952121999999999
 21
-6.924272
 31
0.0
  0
LINE
  5
C0
330
4B8
100
AcDbEntity
  8
1
100
AcDbLine
 10
8.952121999999999
 20
-6.924272
 30
0.0
 11
8.986800999999999
 21
-6.928103
 31
0.0
  0
LINE
  5
C1
330
4B8
100
AcDbEntity
  8
1
100
AcDbLine
 10
8.986800999999999
 20
-6.928103
 30
0.0
 11
9.020083999999998
 21
-6.932914
 31
0.0
  0
LINE
  5
C2
330
4B8
100
AcDbEntity
  8
1
100
AcDbLine
 10
9.020083999999998
 20
-6.932914
 30
0.0
 11
9.05189
 21
-6.938563999999999
 31
0.0
  0
LINE
  5
C3
330
4B8
100
AcDbEntity
  8
1
100
AcDbLine
 10
9.05189
 20
-6.938563999999999
 30
0.0
 11
9.082166
 21
-6.945035
 31
0.0
  0
LINE
  5
C4
330
4B8
100
AcDbEntity
  8
1
100
AcDbLine
 10
9.082166
 20
-6.945035
 30
0.0
 11
9.110961999999998
 21
-6.952322
 31
0.0
  0
LINE
  5
C5
330
4B8
100
AcDbEntity
  8
1
100
AcDbLine
 10
9.110961999999998
 20
-6.952322
 30
0.0
 11
9.138341999999999
 21
-6.960294999999999
 31
0.0
  0
LINE
  5
C6
330
4B8
100
AcDbEntity
  8
1
100
AcDbLine
 10
9.138341999999999
 20
-6.960294999999999
 30
0.0
 11
9.164286
 21
-6.968932999999999
 31
0.0
  0
LINE
  5
C7
330
4B8
100
AcDbEntity
  8
1
100
AcDbLine
 10
9.164286
 20
-6.968932999999999
 30
0.0
 11
9.188812999999999
 21
-6.978239999999999
 31
0.0
  0
LINE
  5
C8
330
4B8
100
AcDbEntity
  8
1
100
AcDbLine
 10
9.188812999999999
 20
-6.978239999999999
 30
0.0
 11
9.212057000000001
 21
-6.988124
 31
0.0
  0
LINE
  5
C9
330
4B8
100
AcDbEntity
  8
1
100
AcDbLine
 10
9.212057000000001
 20
-6.988124
 30
0.0
 11
9.234059
 21
-6.998603
 31
0.0
  0
LINE
  5
CA
330
4B8
100
AcDbEntity
  8
1
100
AcDbLine
 10
9.234059
 20
-6.998603
 30
0.0
 11
9.254777999999999
 21
-7.009647
 31
0.0
  0
LINE
  5
CB
330
4B8
100
AcDbEntity
  8
1
100
AcDbLine
 10
9.254777999999999
 20
-7.009647
 30
0.0
 11
9.274221999999999
 21
-7.021096
 31
0.0
  0
LINE
  5
CC
330
4B8
100
AcDbEntity
  8
1
100
AcDbLine
 10
9.274221999999999
 20
-7.021096
 30
0.0
 11
9.29235
 21
-7.032932
 31
0.0
  0
LINE
  5
CD
330
4B8
100
AcDbEntity
  8
1
100
AcDbLine
 10
9.29235
 20
-7.032932
 30
0.0
 11
9.309203
 21
-7.045163999999999
 31
0.0
  0
LINE
  5
CE
330
4B8
100
AcDbEntity
  8
1
100
AcDbLine
 10
9.309203
 20
-7.045163999999999
 30
0.0
 11
9.324907000000001
 21
-7.057674
 31
0.0
  0
LINE
  5
CF
330
4B8
100
AcDbEntity
  8
1
100
AcDbLine
 10
9.324907000000001
 20
-7.057674
 30
0.0
 11
9.339501999999999
 21
-7.070419999999999
 31
0.0
  0
LINE
  5
D0
330
4B8
100
AcDbEntity
  8
1
100
AcDbLine
 10
9.339501999999999
 20
-7.070419999999999
 30
0.0
 11
9.352947999999999
 21
-7.083438
 31
0.0
  0
LINE
  5
D1
330
4B8
100
AcDbEntity
  8
1
100
AcDbLine
 10
9.352947999999999
 20
-7.083438
 30
0.0
 11
9.365244
 21
-7.096725
 31
0.0
  0
LINE
  5
D2
330
4B8
100
AcDbEntity
  8
1
100
AcDbLine
 10
5.725698
 20
-10.288537
 30
0.0
 11
5.580208999999999
 21
-10.175577
 31
0.0
  0
LINE
  5
D3
330
4B8
100
AcDbEntity
  8
1
100
AcDbLine
 10
5.580208999999999
 20
-10.175577
 30
0.0
 11
5.436805
 21
-10.056606
 31
0.0
  0
LINE
  5
D4
330
4B8
100
AcDbEntity
  8
1
100
AcDbLine
 10
5.436805
 20
-10.056606
 30
0.0
 11
5.295485
 21
-9.931422999999998
 31
0.0
  0
LINE
  5
D5
330
4B8
100
AcDbEntity
  8
1
100
AcDbLine
 10
5.295485
 20
-9.931422999999998
 30
0.0
 11
5.1561
 21
-9.799621
 31
0.0
  0
LINE
  5
D6
330
4B8
100
AcDbEntity
  8
1
100
AcDbLine
 10
5.1561
 20
-9.799621
 30
0.0
 11
5.018798999999999
 21
-9.661197999999998
 31
0.0
  0
LINE
  5
D7
330
4B8
100
AcDbEntity
  8
1
100
AcDbLine
 10
5.018798999999999
 20
-9.661197999999998
 30
0.0
 11
4.884028999999999
 21
-9.516619
 31
0.0
  0
LINE
  5
D8
330
4B8
100
AcDbEntity
  8
1
100
AcDbLine
 10
4.884028999999999
 20
-9.516619
 30
0.0
 11
4.751853999999999
 21
-9.365736999999999
 31
0.0
  0
LINE
  5
D9
330
4B8
100
AcDbEntity
  8
1
100
AcDbLine
 10
4.751853999999999
 20
-9.365736999999999
 30
0.0
 11
4.622209999999999
 21
-9.208403999999999
 31
0.0
  0
LINE
  5
DA
330
4B8
100
AcDbEntity
  8
1
100
AcDbLine
 10
4.622209999999999
 20
-9.208403999999999
 30
0.0
 11
4.495341999999999
 21
-9.045173
 31
0.0
  0
LINE
  5
DB
330
4B8
100
AcDbEntity
  8
1
100
AcDbLine
 10
4.495341999999999
 20
-9.045173
 30
0.0
 11
4.371300999999999
 21
-8.875988000000001
 31
0.0
  0
LINE
  5
DC
330
4B8
100
AcDbEntity
  8
1
100
AcDbLine
 10
4.371300999999999
 20
-8.875988000000001
 30
0.0
 11
4.250036999999999
 21
-8.70073
 31
0.0
  0
LINE
  5
DD
330
4B8
100
AcDbEntity
  8
1
100
AcDbLine
 10
4.250036999999999
 20
-8.70073
 30
0.0
 11
4.131642
 21
-8.519953999999998
 31
0.0
  0
LINE
  5
DE
330
4B8
100
AcDbEntity
  8
1
100
AcDbLine
 10
4.131642
 20
-8.519953999999998
 30
0.0
 11
4.016083999999999
 21
-8.333557
 31
0.0
  0
LINE
  5
DF
330
4B8
100
AcDbEntity
  8
1
100
AcDbLine
 10
4.016083999999999
 20
-8.333557
 30
0.0
 11
3.903394999999999
 21
-8.141572
 31
0.0
  0
LINE
  5
E0
330
4B8
100
AcDbEntity
  8
1
100
AcDbLine
 10
3.903394999999999
 20
-8.141572
 30
0.0
 11
3.793769999999999
 21
-7.944849999999999
 31
0.0
  0
LINE
  5
E1
330
4B8
100
AcDbEntity
  8
1
100
AcDbLine
 10
3.793769999999999
 20
-7.944849999999999
 30
0.0
 11
3.687230999999999
 21
-7.743472999999999
 31
0.0
  0
LINE
  5
E2
330
4B8
100
AcDbEntity
  8
1
100
AcDbLine
 10
3.687230999999999
 20
-7.743472999999999
 30
0.0
 11
3.583755999999999
 21
-7.537418999999999
 31
0.0
  0
LINE
  5
E3
330
4B8
100
AcDbEntity
  8
1
100
AcDbLine
 10
3.583755999999999
 20
-7.537418999999999
 30
0.0
 11
3.483471999999999
 21
-7.327477
 31
0.0
  0
LINE
  5
E4
330
4B8
100
AcDbEntity
  8
1
100
AcDbLine
 10
3.483471999999999
 20
-7.327477
 30
0.0
 11
3.386376
 21
-7.113769999999999
 31
0.0
  0
LINE
  5
E5
330
4B8
100
AcDbEntity
  8
1
100
AcDbLine
 10
3.386376
 20
-7.113769999999999
 30
0.0
 11
3.292470999999999
 21
-6.896329999999999
 31
0.0
  0
LINE
  5
E6
330
4B8
100
AcDbEntity
  8
1
100
AcDbLine
 10
3.292470999999999
 20
-6.896329999999999
 30
0.0
 11
3.201893
 21
-6.675874
 31
0.0
  0
LINE
  5
E7
330
4B8
100
AcDbEntity
  8
1
100
AcDbLine
 10
3.201893
 20
-6.675874
 30
0.0
 11
3.114688999999999
 21
-6.452726
 31
0.0
  0
LINE
  5
E8
330
4B8
100
AcDbEntity
  8
1
100
AcDbLine
 10
3.114688999999999
 20
-6.452726
 30
0.0
 11
3.030812
 21
-6.226789
 31
0.0
  0
LINE
  5
E9
330
4B8
100
AcDbEntity
  8
1
100
AcDbLine
 10
3.030812
 20
-6.226789
 30
0.0
 11
2.950262999999999
 21
-5.998175999999999
 31
0.0
  0
LINE
  5
EA
330
4B8
100
AcDbEntity
  8
1
100
AcDbLine
 10
7.328591
 20
-9.188482
 30
0.0
 11
7.181299
 21
-9.272110000000001
 31
0.0
  0
LINE
  5
EB
330
4B8
100
AcDbEntity
  8
1
100
AcDbLine
 10
7.181299
 20
-9.272110000000001
 30
0.0
 11
7.036116999999999
 21
-9.357442999999999
 31
0.0
  0
LINE
  5
EC
330
4B8
100
AcDbEntity
  8
1
100
AcDbLine
 10
7.036116999999999
 20
-9.357442999999999
 30
0.0
 11
6.893166
 21
-9.444411999999999
 31
0.0
  0
LINE
  5
ED
330
4B8
100
AcDbEntity
  8
1
100
AcDbLine
 10
6.893166
 20
-9.444411999999999
 30
0.0
 11
6.752561999999999
 21
-9.532944999999999
 31
0.0
  0
LINE
  5
EE
330
4B8
100
AcDbEntity
  8
1
100
AcDbLine
 10
6.752561999999999
 20
-9.532944999999999
 30
0.0
 11
6.614422
 21
-9.62297
 31
0.0
  0
LINE
  5
EF
330
4B8
100
AcDbEntity
  8
1
100
AcDbLine
 10
6.614422
 20
-9.62297
 30
0.0
 11
6.47886
 21
-9.714413
 31
0.0
  0
LINE
  5
F0
330
4B8
100
AcDbEntity
  8
1
100
AcDbLine
 10
6.47886
 20
-9.714413
 30
0.0
 11
6.345985999999999
 21
-9.807197
 31
0.0
  0
LINE
  5
F1
330
4B8
100
AcDbEntity
  8
1
100
AcDbLine
 10
6.345985999999999
 20
-9.807197
 30
0.0
 11
6.215911
 21
-9.901244999999999
 31
0.0
  0
LINE
  5
F2
330
4B8
100
AcDbEntity
  8
1
100
AcDbLine
 10
6.215911
 20
-9.901244999999999
 30
0.0
 11
6.088741
 21
-9.996483999999998
 31
0.0
  0
LINE
  5
F3
330
4B8
100
AcDbEntity
  8
1
100
AcDbLine
 10
6.088741
 20
-9.996483999999998
 30
0.0
 11
5.964580999999999
 21
-10.092831
 31
0.0
  0
LINE
  5
F4
330
4B8
100
AcDbEntity
  8
1
100
AcDbLine
 10
5.964580999999999
 20
-10.092831
 30
0.0
 11
5.843534
 21
-10.19021
 31
0.0
  0
LINE
  5
F5
330
4B8
100
AcDbEntity
  8
1
100
AcDbLine
 10
5.843534
 20
-10.19021
 30
0.0
 11
5.725698
 21
-10.288537
 31
0.0
  0
LINE
  5
F6
330
4B8
100
AcDbEntity
  8
1
100
AcDbLine
 10
9.010379999999999
 20
-12.069608
 30
0.0
 11
8.262285
 21
-12.114654
 31
0.0
  0
LINE
  5
F7
330
4B8
100
AcDbEntity
  8
1
100
AcDbLine
 10
8.262285
 20
-12.114654
 30
0.0
 11
7.510889999999999
 21
-12.154233
 31
0.0
  0
LINE
  5
F8
330
4B8
100
AcDbEntity
  8
1
100
AcDbLine
 10
7.510889999999999
 20
-12.154233
 30
0.0
 11
6.756139999999999
 21
-12.188327
 31
0.0
  0
LINE
  5
F9
330
4B8
100
AcDbEntity
  8
1
100
AcDbLine
 10
6.756139999999999
 20
-12.188327
 30
0.0
 11
5.998089
 21
-12.216956
 31
0.0
  0
LINE
  5
FA
330
4B8
100
AcDbEntity
  8
1
100
AcDbLine
 10
5.998089
 20
-12.216956
 30
0.0
 11
5.238317999999999
 21
-12.240009
 31
0.0
  0
LINE
  5
FB
330
4B8
100
AcDbEntity
  8
1
100
AcDbLine
 10
5.238317999999999
 20
-12.240009
 30
0.0
 11
4.477352999999999
 21
-12.257451
 31
0.0
  0
LINE
  5
FC
330
4B8
100
AcDbEntity
  8
1
100
AcDbLine
 10
4.477352999999999
 20
-12.257451
 30
0.0
 11
3.714668
 21
-12.269318
 31
0.0
  0
LINE
  5
FD
330
4B8
100
AcDbEntity
  8
1
100
AcDbLine
 10
3.714668
 20
-12.269318
 30
0.0
 11
2.950262999999999
 21
-12.27561
 31
0.0
  0
LINE
  5
FE
330
4B8
100
AcDbEntity
  8
1
100
AcDbLine
 10
10.246061
 20
-10.438276
 30
0.0
 11
10.095546
 21
-10.456804
 31
0.0
  0
LINE
  5
FF
330
4B8
100
AcDbEntity
  8
1
100
AcDbLine
 10
10.095546
 20
-10.456804
 30
0.0
 11
9.944072999999999
 21
-10.473236
 31
0.0
  0
LINE
  5
100
330
4B8
100
AcDbEntity
  8
1
100
AcDbLine
 10
9.944072999999999
 20
-10.473236
 30
0.0
 11
9.791641999999999
 21
-10.487596
 31
0.0
  0
LINE
  5
101
330
4B8
100
AcDbEntity
  8
1
100
AcDbLine
 10
9.791641999999999
 20
-10.487596
 30
0.0
 11
9.638260999999999
 21
-10.499871
 31
0.0
  0
LINE
  5
102
330
4B8
100
AcDbEntity
  8
1
100
AcDbLine
 10
9.638260999999999
 20
-10.499871
 30
0.0
 11
9.483921
 21
-10.510115
 31
0.0
  0
LINE
  5
103
330
4B8
100
AcDbEntity
  8
1
100
AcDbLine
 10
9.483921
 20
-10.510115
 30
0.0
 11
9.328602
 21
-10.518458
 31
0.0
  0
LINE
  5
104
330
4B8
100
AcDbEntity
  8
1
100
AcDbLine
 10
9.328602
 20
-10.518458
 30
0.0
 11
9.172323999999999
 21
-10.524913
 31
0.0
  0
LINE
  5
105
330
4B8
100
AcDbEntity
  8
1
100
AcDbLine
 10
9.172323999999999
 20
-10.524913
 30
0.0
 11
9.015064999999999
 21
-10.529487
 31
0.0
  0
LINE
  5
106
330
4B8
100
AcDbEntity
  8
1
100
AcDbLine
 10
9.015064999999999
 20
-10.529487
 30
0.0
 11
8.856742
 21
-10.532291
 31
0.0
  0
LINE
  5
107
330
4B8
100
AcDbEntity
  8
1
100
AcDbLine
 10
8.856742
 20
-10.532291
 30
0.0
 11
8.697461
 21
-10.533337
 31
0.0
  0
LINE
  5
108
330
4B8
100
AcDbEntity
  8
1
100
AcDbLine
 10
8.697461
 20
-10.533337
 30
0.0
 11
8.537116000000001
 21
-10.532618
 31
0.0
  0
LINE
  5
109
330
4B8
100
AcDbEntity
  8
1
100
AcDbLine
 10
8.537116000000001
 20
-10.532618
 30
0.0
 11
8.375291999999999
 21
-10.530203
 31
0.0
  0
LINE
  5
10A
330
4B8
100
AcDbEntity
  8
1
100
AcDbLine
 10
8.375291999999999
 20
-10.530203
 30
0.0
 11
8.211937999999999
 21
-10.526103
 31
0.0
  0
LINE
  5
10B
330
4B8
100
AcDbEntity
  8
1
100
AcDbLine
 10
8.211937999999999
 20
-10.526103
 30
0.0
 11
8.047107
 21
-10.5203
 31
0.0
  0
LINE
  5
10C
330
4B8
100
AcDbEntity
  8
1
100
AcDbLine
 10
8.047107
 20
-10.5203
 30
0.0
 11
7.880546
 21
-10.512825
 31
0.0
  0
LINE
  5
10D
330
4B8
100
AcDbEntity
  8
1
100
AcDbLine
 10
7.880546
 20
-10.512825
 30
0.0
 11
7.712222999999999
 21
-10.503671
 31
0.0
  0
LINE
  5
10E
330
4B8
100
AcDbEntity
  8
1
100
AcDbLine
 10
7.712222999999999
 20
-10.503671
 30
0.0
 11
7.542171
 21
-10.492823
 31
0.0
  0
LINE
  5
10F
330
4B8
100
AcDbEntity
  8
1
100
AcDbLine
 10
7.542171
 20
-10.492823
 30
0.0
 11
7.370233999999999
 21
-10.480296
 31
0.0
  0
LINE
  5
110
330
4B8
100
AcDbEntity
  8
1
100
AcDbLine
 10
7.370233999999999
 20
-10.480296
 30
0.0
 11
7.196463999999999
 21
-10.46608
 31
0.0
  0
LINE
  5
111
330
4B8
100
AcDbEntity
  8
1
100
AcDbLine
 10
7.196463999999999
 20
-10.46608
 30
0.0
 11
7.020808999999999
 21
-10.450151
 31
0.0
  0
LINE
  5
112
330
4B8
100
AcDbEntity
  8
1
100
AcDbLine
 10
7.020808999999999
 20
-10.450151
 30
0.0
 11
6.84296
 21
-10.43249
 31
0.0
  0
LINE
  5
113
330
4B8
100
AcDbEntity
  8
1
100
AcDbLine
 10
6.84296
 20
-10.43249
 30
0.0
 11
6.662942
 21
-10.413084
 31
0.0
  0
LINE
  5
114
330
4B8
100
AcDbEntity
  8
1
100
AcDbLine
 10
6.662942
 20
-10.413084
 30
0.0
 11
6.480729
 21
-10.3919
 31
0.0
  0
LINE
  5
115
330
4B8
100
AcDbEntity
  8
1
100
AcDbLine
 10
6.480729
 20
-10.3919
 30
0.0
 11
6.295937999999999
 21
-10.368886
 31
0.0
  0
LINE
  5
116
330
4B8
100
AcDbEntity
  8
1
100
AcDbLine
 10
6.295937999999999
 20
-10.368886
 30
0.0
 11
6.108437
 21
-10.344003
 31
0.0
  0
LINE
  5
117
330
4B8
100
AcDbEntity
  8
1
100
AcDbLine
 10
6.108437
 20
-10.344003
 30
0.0
 11
5.918357
 21
-10.317232
 31
0.0
  0
LINE
  5
118
330
4B8
100
AcDbEntity
  8
1
100
AcDbLine
 10
5.918357
 20
-10.317232
 30
0.0
 11
5.725698
 21
-10.288537
 31
0.0
  0
LINE
  5
119
330
4B8
100
AcDbEntity
  8
1
100
AcDbLine
 10
2.999155
 20
-12.276669
 30
0.0
 11
2.993654
 21
-12.276656
 31
0.0
  0
LINE
  5
11A
330
4B8
100
AcDbEntity
  8
1
100
AcDbLine
 10
2.993654
 20
-12.276656
 30
0.0
 11
2.988170999999999
 21
-12.276616
 31
0.0
  0
LINE
  5
11B
330
4B8
100
AcDbEntity
  8
1
100
AcDbLine
 10
2.988170999999999
 20
-12.276616
 30
0.0
 11
2.982704999999999
 21
-12.276551
 31
0.0
  0
LINE
  5
11C
330
4B8
100
AcDbEntity
  8
1
100
AcDbLine
 10
2.982704999999999
 20
-12.276551
 30
0.0
 11
2.977254999999999
 21
-12.276459
 31
0.0
  0
LINE
  5
11D
330
4B8
100
AcDbEntity
  8
1
100
AcDbLine
 10
2.977254999999999
 20
-12.276459
 30
0.0
 11
2.971823
 21
-12.276342
 31
0.0
  0
LINE
  5
11E
330
4B8
100
AcDbEntity
  8
1
100
AcDbLine
 10
2.971823
 20
-12.276342
 30
0.0
 11
2.966406999999999
 21
-12.276198
 31
0.0
  0
LINE
  5
11F
330
4B8
100
AcDbEntity
  8
1
100
AcDbLine
 10
2.966406999999999
 20
-12.276198
 30
0.0
 11
2.961009
 21
-12.276027
 31
0.0
  0
LINE
  5
120
330
4B8
100
AcDbEntity
  8
1
100
AcDbLine
 10
2.961009
 20
-12.276027
 30
0.0
 11
2.955627
 21
-12.275831
 31
0.0
  0
LINE
  5
121
330
4B8
100
AcDbEntity
  8
1
100
AcDbLine
 10
2.955627
 20
-12.275831
 30
0.0
 11
2.950262999999999
 21
-12.27561
 31
0.0
  0
LINE
  5
122
330
4B8
100
AcDbEntity
  8
1
100
AcDbLine
 10
3.057008
 20
-12.274731
 30
0.0
 11
2.999155
 21
-12.276669
 31
0.0
  0
LINE
  5
123
330
4B8
100
AcDbEntity
  8
1
100
AcDbLine
 10
9.055747999999999
 20
-8.202833999999999
 30
0.0
 11
9.02846
 21
-8.236814999999999
 31
0.0
  0
LINE
  5
124
330
4B8
100
AcDbEntity
  8
1
100
AcDbLine
 10
9.02846
 20
-8.236814999999999
 30
0.0
 11
9.000752
 21
-8.270474999999999
 31
0.0
  0
LINE
  5
125
330
4B8
100
AcDbEntity
  8
1
100
AcDbLine
 10
9.000752
 20
-8.270474999999999
 30
0.0
 11
8.972627000000001
 21
-8.303815
 31
0.0
  0
LINE
  5
126
330
4B8
100
AcDbEntity
  8
1
100
AcDbLine
 10
8.972627000000001
 20
-8.303815
 30
0.0
 11
8.944074999999999
 21
-8.336844000000001
 31
0.0
  0
LINE
  5
127
330
4B8
100
AcDbEntity
  8
1
100
AcDbLine
 10
8.944074999999999
 20
-8.336844000000001
 30
0.0
 11
8.915108999999999
 21
-8.369557
 31
0.0
  0
LINE
  5
128
330
4B8
100
AcDbEntity
  8
1
100
AcDbLine
 10
8.915108999999999
 20
-8.369557
 30
0.0
 11
8.885761
 21
-8.401937
 31
0.0
  0
LINE
  5
129
330
4B8
100
AcDbEntity
  8
1
100
AcDbLine
 10
8.885761
 20
-8.401937
 30
0.0
 11
8.856042
 21
-8.433978999999999
 31
0.0
  0
LINE
  5
12A
330
4B8
100
AcDbEntity
  8
1
100
AcDbLine
 10
8.856042
 20
-8.433978999999999
 30
0.0
 11
8.825944999999999
 21
-8.465690999999999
 31
0.0
  0
LINE
  5
12B
330
4B8
100
AcDbEntity
  8
1
100
AcDbLine
 10
8.825944999999999
 20
-8.465690999999999
 30
0.0
 11
8.795471
 21
-8.497075
 31
0.0
  0
LINE
  5
12C
330
4B8
100
AcDbEntity
  8
1
100
AcDbLine
 10
8.795471
 20
-8.497075
 30
0.0
 11
8.781985999999999
 21
-8.521943999999999
 31
0.0
  0
LINE
  5
12D
330
4B8
100
AcDbEntity
  8
1
100
AcDbLine
 10
8.781985999999999
 20
-8.521943999999999
 30
0.0
 11
8.767036
 21
-8.547316
 31
0.0
  0
LINE
  5
12E
330
4B8
100
AcDbEntity
  8
1
100
AcDbLine
 10
8.767036
 20
-8.547316
 30
0.0
 11
8.750591
 21
-8.573144
 31
0.0
  0
LINE
  5
12F
330
4B8
100
AcDbEntity
  8
1
100
AcDbLine
 10
8.750591
 20
-8.573144
 30
0.0
 11
8.732603999999998
 21
-8.599414999999998
 31
0.0
  0
LINE
  5
130
330
4B8
100
AcDbEntity
  8
1
100
AcDbLine
 10
8.732603999999998
 20
-8.599414999999998
 30
0.0
 11
8.713057
 21
-8.626034999999999
 31
0.0
  0
LINE
  5
131
330
4B8
100
AcDbEntity
  8
1
100
AcDbLine
 10
8.713057
 20
-8.626034999999999
 30
0.0
 11
8.691971
 21
-8.652832
 31
0.0
  0
LINE
  5
132
330
4B8
100
AcDbEntity
  8
1
100
AcDbLine
 10
8.691971
 20
-8.652832
 30
0.0
 11
8.669325999999999
 21
-8.679739999999998
 31
0.0
  0
LINE
  5
133
330
4B8
100
AcDbEntity
  8
1
100
AcDbLine
 10
8.669325999999999
 20
-8.679739999999998
 30
0.0
 11
8.645097999999999
 21
-8.706718999999999
 31
0.0
  0
LINE
  5
134
330
4B8
100
AcDbEntity
  8
1
100
AcDbLine
 10
8.645097999999999
 20
-8.706718999999999
 30
0.0
 11
8.619324
 21
-8.733653
 31
0.0
  0
LINE
  5
135
330
4B8
100
AcDbEntity
  8
1
100
AcDbLine
 10
8.619324
 20
-8.733653
 30
0.0
 11
8.592002
 21
-8.760464999999999
 31
0.0
  0
LINE
  5
136
330
4B8
100
AcDbEntity
  8
1
100
AcDbLine
 10
8.592002
 20
-8.760464999999999
 30
0.0
 11
8.563102999999999
 21
-8.787121
 31
0.0
  0
LINE
  5
137
330
4B8
100
AcDbEntity
  8
1
100
AcDbLine
 10
8.563102999999999
 20
-8.787121
 30
0.0
 11
8.532619999999999
 21
-8.813572999999999
 31
0.0
  0
LINE
  5
138
330
4B8
100
AcDbEntity
  8
1
100
AcDbLine
 10
8.532619999999999
 20
-8.813572999999999
 30
0.0
 11
8.500507999999999
 21
-8.839779
 31
0.0
  0
LINE
  5
139
330
4B8
100
AcDbEntity
  8
1
100
AcDbLine
 10
8.500507999999999
 20
-8.839779
 30
0.0
 11
8.466787
 21
-8.865653999999999
 31
0.0
  0
LINE
  5
13A
330
4B8
100
AcDbEntity
  8
1
100
AcDbLine
 10
8.466787
 20
-8.865653999999999
 30
0.0
 11
8.431546
 21
-8.891083
 31
0.0
  0
LINE
  5
13B
330
4B8
100
AcDbEntity
  8
1
100
AcDbLine
 10
8.431546
 20
-8.891083
 30
0.0
 11
8.394769999999999
 21
-8.916005
 31
0.0
  0
LINE
  5
13C
330
4B8
100
AcDbEntity
  8
1
100
AcDbLine
 10
8.394769999999999
 20
-8.916005
 30
0.0
 11
8.356466000000001
 21
-8.940353999999999
 31
0.0
  0
LINE
  5
13D
330
4B8
100
AcDbEntity
  8
1
100
AcDbLine
 10
8.356466000000001
 20
-8.940353999999999
 30
0.0
 11
8.316762999999999
 21
-8.964008999999999
 31
0.0
  0
LINE
  5
13E
330
4B8
100
AcDbEntity
  8
1
100
AcDbLine
 10
8.316762999999999
 20
-8.964008999999999
 30
0.0
 11
8.275600999999999
 21
-8.986940999999999
 31
0.0
  0
LINE
  5
13F
330
4B8
100
AcDbEntity
  8
1
100
AcDbLine
 10
8.275600999999999
 20
-8.986940999999999
 30
0.0
 11
8.233048
 21
-9.009052999999999
 31
0.0
  0
LINE
  5
140
330
4B8
100
AcDbEntity
  8
1
100
AcDbLine
 10
8.233048
 20
-9.009052999999999
 30
0.0
 11
8.189442999999998
 21
-9.030144999999999
 31
0.0
  0
LINE
  5
141
330
4B8
100
AcDbEntity
  8
1
100
AcDbLine
 10
8.189442999999998
 20
-9.030144999999999
 30
0.0
 11
8.144828
 21
-9.050163000000001
 31
0.0
  0
LINE
  5
142
330
4B8
100
AcDbEntity
  8
1
100
AcDbLine
 10
8.144828
 20
-9.050163000000001
 30
0.0
 11
8.099199999999999
 21
-9.069081999999999
 31
0.0
  0
LINE
  5
143
330
4B8
100
AcDbEntity
  8
1
100
AcDbLine
 10
8.099199999999999
 20
-9.069081999999999
 30
0.0
 11
8.052846999999999
 21
-9.086769
 31
0.0
  0
LINE
  5
144
330
4B8
100
AcDbEntity
  8
1
100
AcDbLine
 10
8.052846999999999
 20
-9.086769
 30
0.0
 11
8.00651
 21
-9.102961999999999
 31
0.0
  0
LINE
  5
145
330
4B8
100
AcDbEntity
  8
1
100
AcDbLine
 10
9.457487
 20
-7.356924
 30
0.0
 11
9.457067
 21
-7.378189999999999
 31
0.0
  0
LINE
  5
146
330
4B8
100
AcDbEntity
  8
1
100
AcDbLine
 10
9.457067
 20
-7.378189999999999
 30
0.0
 11
9.455735999999999
 21
-7.400125999999999
 31
0.0
  0
LINE
  5
147
330
4B8
100
AcDbEntity
  8
1
100
AcDbLine
 10
9.455735999999999
 20
-7.400125999999999
 30
0.0
 11
9.453492999999999
 21
-7.422735
 31
0.0
  0
LINE
  5
148
330
4B8
100
AcDbEntity
  8
1
100
AcDbLine
 10
9.453492999999999
 20
-7.422735
 30
0.0
 11
9.450361
 21
-7.446022
 31
0.0
  0
LINE
  5
149
330
4B8
100
AcDbEntity
  8
1
100
AcDbLine
 10
9.450361
 20
-7.446022
 30
0.0
 11
9.446317
 21
-7.469988
 31
0.0
  0
LINE
  5
14A
330
4B8
100
AcDbEntity
  8
1
100
AcDbLine
 10
9.446317
 20
-7.469988
 30
0.0
 11
9.441296000000001
 21
-7.494635999999999
 31
0.0
  0
LINE
  5
14B
330
4B8
100
AcDbEntity
  8
1
100
AcDbLine
 10
9.441296000000001
 20
-7.494635999999999
 30
0.0
 11
9.435296000000001
 21
-7.519972999999999
 31
0.0
  0
LINE
  5
14C
330
4B8
100
AcDbEntity
  8
1
100
AcDbLine
 10
9.435296000000001
 20
-7.519972999999999
 30
0.0
 11
9.428319
 21
-7.546
 31
0.0
  0
LINE
  5
14D
330
4B8
100
AcDbEntity
  8
1
100
AcDbLine
 10
9.428319
 20
-7.546
 30
0.0
 11
9.420302000000001
 21
-7.572719999999999
 31
0.0
  0
LINE
  5
14E
330
4B8
100
AcDbEntity
  8
1
100
AcDbLine
 10
9.420302000000001
 20
-7.572719999999999
 30
0.0
 11
9.411267
 21
-7.600094999999999
 31
0.0
  0
LINE
  5
14F
330
4B8
100
AcDbEntity
  8
1
100
AcDbLine
 10
9.411267
 20
-7.600094999999999
 30
0.0
 11
9.401191999999999
 21
-7.628172
 31
0.0
  0
LINE
  5
150
330
4B8
100
AcDbEntity
  8
1
100
AcDbLine
 10
9.401191999999999
 20
-7.628172
 30
0.0
 11
9.38995
 21
-7.657083999999999
 31
0.0
  0
LINE
  5
151
330
4B8
100
AcDbEntity
  8
1
100
AcDbLine
 10
9.38995
 20
-7.657083999999999
 30
0.0
 11
9.377542999999999
 21
-7.686866
 31
0.0
  0
LINE
  5
152
330
4B8
100
AcDbEntity
  8
1
100
AcDbLine
 10
9.377542999999999
 20
-7.686866
 30
0.0
 11
9.36397
 21
-7.717497999999999
 31
0.0
  0
LINE
  5
153
330
4B8
100
AcDbEntity
  8
1
100
AcDbLine
 10
9.36397
 20
-7.717497999999999
 30
0.0
 11
9.349100999999999
 21
-7.749032999999999
 31
0.0
  0
LINE
  5
154
330
4B8
100
AcDbEntity
  8
1
100
AcDbLine
 10
9.349100999999999
 20
-7.749032999999999
 30
0.0
 11
9.332933999999999
 21
-7.781499
 31
0.0
  0
LINE
  5
155
330
4B8
100
AcDbEntity
  8
1
100
AcDbLine
 10
9.332933999999999
 20
-7.781499
 30
0.0
 11
9.315472999999999
 21
-7.814886
 31
0.0
  0
LINE
  5
156
330
4B8
100
AcDbEntity
  8
1
100
AcDbLine
 10
9.315472999999999
 20
-7.814886
 30
0.0
 11
9.296588999999999
 21
-7.849200999999999
 31
0.0
  0
LINE
  5
157
330
4B8
100
AcDbEntity
  8
1
100
AcDbLine
 10
9.296588999999999
 20
-7.849200999999999
 30
0.0
 11
9.276303999999999
 21
-7.884441999999999
 31
0.0
  0
LINE
  5
158
330
4B8
100
AcDbEntity
  8
1
100
AcDbLine
 10
9.276303999999999
 20
-7.884441999999999
 30
0.0
 11
9.254599999999999
 21
-7.920633999999999
 31
0.0
  0
LINE
  5
159
330
4B8
100
AcDbEntity
  8
1
100
AcDbLine
 10
9.254599999999999
 20
-7.920633999999999
 30
0.0
 11
9.231292999999999
 21
-7.957824999999999
 31
0.0
  0
LINE
  5
15A
330
4B8
100
AcDbEntity
  8
1
100
AcDbLine
 10
9.231292999999999
 20
-7.957824999999999
 30
0.0
 11
9.206392999999998
 21
-7.99605
 31
0.0
  0
LINE
  5
15B
330
4B8
100
AcDbEntity
  8
1
100
AcDbLine
 10
9.206392999999998
 20
-7.99605
 30
0.0
 11
9.179896000000001
 21
-8.035307000000001
 31
0.0
  0
LINE
  5
15C
330
4B8
100
AcDbEntity
  8
1
100
AcDbLine
 10
9.179896000000001
 20
-8.035307000000001
 30
0.0
 11
9.151597999999999
 21
-8.075596
 31
0.0
  0
LINE
  5
15D
330
4B8
100
AcDbEntity
  8
1
100
AcDbLine
 10
9.151597999999999
 20
-8.075596
 30
0.0
 11
9.121435999999999
 21
-8.116928999999998
 31
0.0
  0
LINE
  5
15E
330
4B8
100
AcDbEntity
  8
1
100
AcDbLine
 10
9.121435999999999
 20
-8.116928999999998
 30
0.0
 11
9.089483999999998
 21
-8.159335
 31
0.0
  0
LINE
  5
15F
330
4B8
100
AcDbEntity
  8
1
100
AcDbLine
 10
9.089483999999998
 20
-8.159335
 30
0.0
 11
9.055747999999999
 21
-8.202833999999999
 31
0.0
  0
LINE
  5
160
330
4B8
100
AcDbEntity
  8
1
100
AcDbLine
 10
8.391548
 20
-12.236362
 30
0.0
 11
8.391548
 21
-12.106871
 31
0.0
  0
LINE
  5
161
330
4B8
100
AcDbEntity
  8
1
100
AcDbLine
 10
9.745649999999999
 20
-8.169783999999999
 30
0.0
 11
9.586565999999999
 21
-8.218393999999999
 31
0.0
  0
LINE
  5
162
330
4B8
100
AcDbEntity
  8
1
100
AcDbLine
 10
9.586565999999999
 20
-8.218393999999999
 30
0.0
 11
9.427605999999999
 21
-8.269434
 31
0.0
  0
LINE
  5
163
330
4B8
100
AcDbEntity
  8
1
100
AcDbLine
 10
9.427605999999999
 20
-8.269434
 30
0.0
 11
9.268893999999999
 21
-8.322863999999999
 31
0.0
  0
LINE
  5
164
330
4B8
100
AcDbEntity
  8
1
100
AcDbLine
 10
9.268893999999999
 20
-8.322863999999999
 30
0.0
 11
9.110552
 21
-8.378643999999999
 31
0.0
  0
LINE
  5
165
330
4B8
100
AcDbEntity
  8
1
100
AcDbLine
 10
9.110552
 20
-8.378643999999999
 30
0.0
 11
8.952702999999999
 21
-8.436728999999999
 31
0.0
  0
LINE
  5
166
330
4B8
100
AcDbEntity
  8
1
100
AcDbLine
 10
8.952702999999999
 20
-8.436728999999999
 30
0.0
 11
8.795471
 21
-8.497075
 31
0.0
  0
LINE
  5
167
330
4B8
100
AcDbEntity
  8
1
100
AcDbLine
 10
8.00651
 20
-9.102961999999999
 30
0.0
 11
7.958097
 21
-9.118349999999999
 31
0.0
  0
LINE
  5
168
330
4B8
100
AcDbEntity
  8
1
100
AcDbLine
 10
7.958097
 20
-9.118349999999999
 30
0.0
 11
7.909988
 21
-9.132134999999999
 31
0.0
  0
LINE
  5
169
330
4B8
100
AcDbEntity
  8
1
100
AcDbLine
 10
7.909988
 20
-9.132134999999999
 30
0.0
 11
7.861527
 21
-9.144543999999999
 31
0.0
  0
LINE
  5
16A
330
4B8
100
AcDbEntity
  8
1
100
AcDbLine
 10
7.861527
 20
-9.144543999999999
 30
0.0
 11
7.812732
 21
-9.155577
 31
0.0
  0
LINE
  5
16B
330
4B8
100
AcDbEntity
  8
1
100
AcDbLine
 10
7.812732
 20
-9.155577
 30
0.0
 11
7.76383
 21
-9.165183999999999
 31
0.0
  0
LINE
  5
16C
330
4B8
100
AcDbEntity
  8
1
100
AcDbLine
 10
7.76383
 20
-9.165183999999999
 30
0.0
 11
7.714889
 21
-9.173363999999999
 31
0.0
  0
LINE
  5
16D
330
4B8
100
AcDbEntity
  8
1
100
AcDbLine
 10
7.714889
 20
-9.173363999999999
 30
0.0
 11
7.665911
 21
-9.180138000000001
 31
0.0
  0
LINE
  5
16E
330
4B8
100
AcDbEntity
  8
1
100
AcDbLine
 10
7.665911
 20
-9.180138000000001
 30
0.0
 11
7.617021
 21
-9.185489999999999
 31
0.0
  0
LINE
  5
16F
330
4B8
100
AcDbEntity
  8
1
100
AcDbLine
 10
7.617021
 20
-9.185489999999999
 30
0.0
 11
7.568250999999999
 21
-9.189434
 31
0.0
  0
LINE
  5
170
330
4B8
100
AcDbEntity
  8
1
100
AcDbLine
 10
7.568250999999999
 20
-9.189434
 30
0.0
 11
7.519638999999999
 21
-9.191986999999999
 31
0.0
  0
LINE
  5
171
330
4B8
100
AcDbEntity
  8
1
100
AcDbLine
 10
7.519638999999999
 20
-9.191986999999999
 30
0.0
 11
7.471324
 21
-9.193146
 31
0.0
  0
LINE
  5
172
330
4B8
100
AcDbEntity
  8
1
100
AcDbLine
 10
7.471324
 20
-9.193146
 30
0.0
 11
7.423372
 21
-9.192927
 31
0.0
  0
LINE
  5
173
330
4B8
100
AcDbEntity
  8
1
100
AcDbLine
 10
7.423372
 20
-9.192927
 30
0.0
 11
7.375783999999999
 21
-9.191363
 31
0.0
  0
LINE
  5
174
330
4B8
100
AcDbEntity
  8
1
100
AcDbLine
 10
7.375783999999999
 20
-9.191363
 30
0.0
 11
7.328591
 21
-9.188482
 31
0.0
  0
LINE
  5
175
330
4B8
100
AcDbEntity
  8
1
100
AcDbLine
 10
9.365244
 20
-7.096725
 30
0.0
 11
9.376412
 21
-7.109869999999999
 31
0.0
  0
LINE
  5
176
330
4B8
100
AcDbEntity
  8
1
100
AcDbLine
 10
9.376412
 20
-7.109869999999999
 30
0.0
 11
9.386886999999999
 21
-7.123505999999999
 31
0.0
  0
LINE
  5
177
330
4B8
100
AcDbEntity
  8
1
100
AcDbLine
 10
9.386886999999999
 20
-7.123505999999999
 30
0.0
 11
9.396668
 21
-7.137633999999999
 31
0.0
  0
LINE
  5
178
330
4B8
100
AcDbEntity
  8
1
100
AcDbLine
 10
9.396668
 20
-7.137633999999999
 30
0.0
 11
9.405756
 21
-7.152217999999999
 31
0.0
  0
LINE
  5
179
330
4B8
100
AcDbEntity
  8
1
100
AcDbLine
 10
9.405756
 20
-7.152217999999999
 30
0.0
 11
9.414150999999998
 21
-7.167294
 31
0.0
  0
LINE
  5
17A
330
4B8
100
AcDbEntity
  8
1
100
AcDbLine
 10
9.414150999999998
 20
-7.167294
 30
0.0
 11
9.421856
 21
-7.18297
 31
0.0
  0
LINE
  5
17B
330
4B8
100
AcDbEntity
  8
1
100
AcDbLine
 10
9.421856
 20
-7.18297
 30
0.0
 11
9.428891999999999
 21
-7.199233
 31
0.0
  0
LINE
  5
17C
330
4B8
100
AcDbEntity
  8
1
100
AcDbLine
 10
9.428891999999999
 20
-7.199233
 30
0.0
 11
9.435238999999999
 21
-7.216096
 31
0.0
  0
LINE
  5
17D
330
4B8
100
AcDbEntity
  8
1
100
AcDbLine
 10
9.435238999999999
 20
-7.216096
 30
0.0
 11
9.440839
 21
-7.233705999999999
 31
0.0
  0
LINE
  5
17E
330
4B8
100
AcDbEntity
  8
1
100
AcDbLine
 10
9.440839
 20
-7.233705999999999
 30
0.0
 11
9.445717
 21
-7.252057999999999
 31
0.0
  0
LINE
  5
17F
330
4B8
100
AcDbEntity
  8
1
100
AcDbLine
 10
9.445717
 20
-7.252057999999999
 30
0.0
 11
9.449849
 21
-7.271155
 31
0.0
  0
LINE
  5
180
330
4B8
100
AcDbEntity
  8
1
100
AcDbLine
 10
9.449849
 20
-7.271155
 30
0.0
 11
9.453103999999999
 21
-7.291174999999999
 31
0.0
  0
LINE
  5
181
330
4B8
100
AcDbEntity
  8
1
100
AcDbLine
 10
9.453103999999999
 20
-7.291174999999999
 30
0.0
 11
9.455441
 21
-7.312171
 31
0.0
  0
LINE
  5
182
330
4B8
100
AcDbEntity
  8
1
100
AcDbLine
 10
9.455441
 20
-7.312171
 30
0.0
 11
9.456902000000001
 21
-7.334086999999999
 31
0.0
  0
LINE
  5
183
330
4B8
100
AcDbEntity
  8
1
100
AcDbLine
 10
9.456902000000001
 20
-7.334086999999999
 30
0.0
 11
9.457487
 21
-7.356924
 31
0.0
  0
LINE
  5
184
330
4B8
100
AcDbEntity
  8
1
100
AcDbLine
 10
7.328591
 20
-9.188482
 30
0.0
 11
7.305813
 21
-9.180336999999999
 31
0.0
  0
LINE
  5
185
330
4B8
100
AcDbEntity
  8
1
100
AcDbLine
 10
7.305813
 20
-9.180336999999999
 30
0.0
 11
7.283682
 21
-9.171258999999999
 31
0.0
  0
LINE
  5
186
330
4B8
100
AcDbEntity
  8
1
100
AcDbLine
 10
7.283682
 20
-9.171258999999999
 30
0.0
 11
7.262196
 21
-9.161241999999999
 31
0.0
  0
LINE
  5
187
330
4B8
100
AcDbEntity
  8
1
100
AcDbLine
 10
7.262196
 20
-9.161241999999999
 30
0.0
 11
7.241336999999999
 21
-9.150267999999998
 31
0.0
  0
LINE
  5
188
330
4B8
100
AcDbEntity
  8
1
100
AcDbLine
 10
7.241336999999999
 20
-9.150267999999998
 30
0.0
 11
7.221116999999999
 21
-9.13835
 31
0.0
  0
LINE
  5
189
330
4B8
100
AcDbEntity
  8
1
100
AcDbLine
 10
7.221116999999999
 20
-9.13835
 30
0.0
 11
7.201574
 21
-9.125535000000001
 31
0.0
  0
LINE
  5
18A
330
4B8
100
AcDbEntity
  8
1
100
AcDbLine
 10
7.201574
 20
-9.125535000000001
 30
0.0
 11
7.182727
 21
-9.111841
 31
0.0
  0
LINE
  5
18B
330
4B8
100
AcDbEntity
  8
1
100
AcDbLine
 10
7.182727
 20
-9.111841
 30
0.0
 11
7.164552
 21
-9.097242999999998
 31
0.0
  0
LINE
  5
18C
330
4B8
100
AcDbEntity
  8
1
100
AcDbLine
 10
7.164552
 20
-9.097242999999998
 30
0.0
 11
7.147028999999998
 21
-9.081724000000001
 31
0.0
  0
LINE
  5
18D
330
4B8
100
AcDbEntity
  8
1
100
AcDbLine
 10
7.147028999999998
 20
-9.081724000000001
 30
0.0
 11
7.130130999999999
 21
-9.065267
 31
0.0
  0
LINE
  5
18E
330
4B8
100
AcDbEntity
  8
1
100
AcDbLine
 10
7.130130999999999
 20
-9.065267
 30
0.0
 11
7.113878999999998
 21
-9.047883999999999
 31
0.0
  0
LINE
  5
18F
330
4B8
100
AcDbEntity
  8
1
100
AcDbLine
 10
7.113878999999998
 20
-9.047883999999999
 30
0.0
 11
7.09833
 21
-9.029596000000001
 31
0.0
  0
LINE
  5
190
330
4B8
100
AcDbEntity
  8
1
100
AcDbLine
 10
7.09833
 20
-9.029596000000001
 30
0.0
 11
7.083483
 21
-9.010405999999999
 31
0.0
  0
LINE
  5
191
330
4B8
100
AcDbEntity
  8
1
100
AcDbLine
 10
7.083483
 20
-9.010405999999999
 30
0.0
 11
7.069335
 21
-8.990308999999999
 31
0.0
  0
LINE
  5
192
330
4B8
100
AcDbEntity
  8
1
100
AcDbLine
 10
7.069335
 20
-8.990308999999999
 30
0.0
 11
7.055933
 21
-8.969312
 31
0.0
  0
LINE
  5
193
330
4B8
100
AcDbEntity
  8
1
100
AcDbLine
 10
7.055933
 20
-8.969312
 30
0.0
 11
7.043277999999999
 21
-8.94743
 31
0.0
  0
LINE
  5
194
330
4B8
100
AcDbEntity
  8
1
100
AcDbLine
 10
7.043277999999999
 20
-8.94743
 30
0.0
 11
7.031367999999999
 21
-8.924644999999999
 31
0.0
  0
LINE
  5
195
330
4B8
100
AcDbEntity
  8
1
100
AcDbLine
 10
7.031367999999999
 20
-8.924644999999999
 30
0.0
 11
7.020243999999999
 21
-8.900910000000001
 31
0.0
  0
LINE
  5
196
330
4B8
100
AcDbEntity
  8
1
100
AcDbLine
 10
7.020243999999999
 20
-8.900910000000001
 30
0.0
 11
7.009888
 21
-8.876186
 31
0.0
  0
LINE
  5
197
330
4B8
100
AcDbEntity
  8
1
100
AcDbLine
 10
7.009888
 20
-8.876186
 30
0.0
 11
7.000319
 21
-8.850509999999999
 31
0.0
  0
LINE
  5
198
330
4B8
100
AcDbEntity
  8
1
100
AcDbLine
 10
7.000319
 20
-8.850509999999999
 30
0.0
 11
6.991635999999999
 21
-8.823944
 31
0.0
  0
LINE
  5
199
330
4B8
100
AcDbEntity
  8
1
100
AcDbLine
 10
6.991635999999999
 20
-8.823944
 30
0.0
 11
6.983846999999999
 21
-8.796509
 31
0.0
  0
LINE
  5
19A
330
4B8
100
AcDbEntity
  8
1
100
AcDbLine
 10
6.983846999999999
 20
-8.796509
 30
0.0
 11
6.976946
 21
-8.768185
 31
0.0
  0
LINE
  5
19B
330
4B8
100
AcDbEntity
  8
1
100
AcDbLine
 10
6.976946
 20
-8.768185
 30
0.0
 11
6.971013
 21
-8.738977
 31
0.0
  0
LINE
  5
19C
330
4B8
100
AcDbEntity
  8
1
100
AcDbLine
 10
6.971013
 20
-8.738977
 30
0.0
 11
6.966042999999999
 21
-8.70889
 31
0.0
  0
LINE
  5
19D
330
4B8
100
AcDbEntity
  8
1
100
AcDbLine
 10
6.966042999999999
 20
-8.70889
 30
0.0
 11
6.962044
 21
-8.677922
 31
0.0
  0
LINE
  5
19E
330
4B8
100
AcDbEntity
  8
1
100
AcDbLine
 10
6.962044
 20
-8.677922
 30
0.0
 11
6.959111999999999
 21
-8.646072
 31
0.0
  0
LINE
  5
19F
330
4B8
100
AcDbEntity
  8
1
100
AcDbLine
 10
6.959111999999999
 20
-8.646072
 30
0.0
 11
6.957244999999999
 21
-8.61331
 31
0.0
  0
LINE
  5
1A0
330
4B8
100
AcDbEntity
  8
1
100
AcDbLine
 10
6.957244999999999
 20
-8.61331
 30
0.0
 11
6.95645
 21
-8.579669
 31
0.0
  0
LINE
  5
1A1
330
4B8
100
AcDbEntity
  8
1
100
AcDbLine
 10
6.95645
 20
-8.579669
 30
0.0
 11
6.95683
 21
-8.545249
 31
0.0
  0
LINE
  5
1A2
330
4B8
100
AcDbEntity
  8
1
100
AcDbLine
 10
6.95683
 20
-8.545249
 30
0.0
 11
6.958388
 21
-8.510085999999999
 31
0.0
  0
LINE
  5
1A3
330
4B8
100
AcDbEntity
  8
1
100
AcDbLine
 10
6.958388
 20
-8.510085999999999
 30
0.0
 11
6.961128999999999
 21
-8.474149999999999
 31
0.0
  0
LINE
  5
1A4
330
4B8
100
AcDbEntity
  8
1
100
AcDbLine
 10
6.961128999999999
 20
-8.474149999999999
 30
0.0
 11
6.965167
 21
-8.437443
 31
0.0
  0
LINE
  5
1A5
330
4B8
100
AcDbEntity
  8
1
100
AcDbLine
 10
6.965167
 20
-8.437443
 30
0.0
 11
6.970511
 21
-8.399926999999999
 31
0.0
  0
LINE
  5
1A6
330
4B8
100
AcDbEntity
  8
1
100
AcDbLine
 10
6.970511
 20
-8.399926999999999
 30
0.0
 11
6.977161999999999
 21
-8.361651
 31
0.0
  0
LINE
  5
1A7
330
4B8
100
AcDbEntity
  8
1
100
AcDbLine
 10
6.977161999999999
 20
-8.361651
 30
0.0
 11
6.985224
 21
-8.322744999999999
 31
0.0
  0
LINE
  5
1A8
330
4B8
100
AcDbEntity
  8
1
100
AcDbLine
 10
6.985224
 20
-8.322744999999999
 30
0.0
 11
6.994700999999999
 21
-8.283234
 31
0.0
  0
LINE
  5
1A9
330
4B8
100
AcDbEntity
  8
1
100
AcDbLine
 10
6.994700999999999
 20
-8.283234
 30
0.0
 11
7.005600999999999
 21
-8.243107
 31
0.0
  0
LINE
  5
1AA
330
4B8
100
AcDbEntity
  8
1
100
AcDbLine
 10
7.005600999999999
 20
-8.243107
 30
0.0
 11
7.018032999999999
 21
-8.202455
 31
0.0
  0
LINE
  5
1AB
330
4B8
100
AcDbEntity
  8
1
100
AcDbLine
 10
7.018032999999999
 20
-8.202455
 30
0.0
 11
7.032007000000001
 21
-8.161274
 31
0.0
  0
LINE
  5
1AC
330
4B8
100
AcDbEntity
  8
1
100
AcDbLine
 10
7.032007000000001
 20
-8.161274
 30
0.0
 11
7.047528999999999
 21
-8.119583999999999
 31
0.0
  0
LINE
  5
1AD
330
4B8
100
AcDbEntity
  8
1
100
AcDbLine
 10
7.047528999999999
 20
-8.119583999999999
 30
0.0
 11
7.064697999999999
 21
-8.077508999999999
 31
0.0
  0
LINE
  5
1AE
330
4B8
100
AcDbEntity
  8
1
100
AcDbLine
 10
7.064697999999999
 20
-8.077508999999999
 30
0.0
 11
7.083553999999999
 21
-8.035097
 31
0.0
  0
LINE
  5
1AF
330
4B8
100
AcDbEntity
  8
1
100
AcDbLine
 10
7.083553999999999
 20
-8.035097
 30
0.0
 11
7.104077
 21
-7.992319999999999
 31
0.0
  0
LINE
  5
1B0
330
4B8
100
AcDbEntity
  8
1
100
AcDbLine
 10
7.104077
 20
-7.992319999999999
 30
0.0
 11
7.126276999999999
 21
-7.949188999999999
 31
0.0
  0
LINE
  5
1B1
330
4B8
100
AcDbEntity
  8
1
100
AcDbLine
 10
9.015544999999999
 20
-12.520428
 30
0.0
 11
8.990914999999999
 21
-12.515578
 31
0.0
  0
LINE
  5
1B2
330
4B8
100
AcDbEntity
  8
1
100
AcDbLine
 10
8.990914999999999
 20
-12.515578
 30
0.0
 11
8.904589999999998
 21
-12.49451
 31
0.0
  0
LINE
  5
1B3
330
4B8
100
AcDbEntity
  8
1
100
AcDbLine
 10
8.904589999999998
 20
-12.49451
 30
0.0
 11
8.818394999999998
 21
-12.467121
 31
0.0
  0
LINE
  5
1B4
330
4B8
100
AcDbEntity
  8
1
100
AcDbLine
 10
8.818394999999998
 20
-12.467121
 30
0.0
 11
8.732374999999999
 21
-12.433433
 31
0.0
  0
LINE
  5
1B5
330
4B8
100
AcDbEntity
  8
1
100
AcDbLine
 10
8.732374999999999
 20
-12.433433
 30
0.0
 11
8.646666999999998
 21
-12.393508
 31
0.0
  0
LINE
  5
1B6
330
4B8
100
AcDbEntity
  8
1
100
AcDbLine
 10
8.646666999999998
 20
-12.393508
 30
0.0
 11
8.561315999999999
 21
-12.347364
 31
0.0
  0
LINE
  5
1B7
330
4B8
100
AcDbEntity
  8
1
100
AcDbLine
 10
8.561315999999999
 20
-12.347364
 30
0.0
 11
8.476275999999998
 21
-12.294982
 31
0.0
  0
LINE
  5
1B8
330
4B8
100
AcDbEntity
  8
1
100
AcDbLine
 10
8.476275999999998
 20
-12.294982
 30
0.0
 11
8.391548
 21
-12.236362
 31
0.0
  0
LINE
  5
1B9
330
4B8
100
AcDbEntity
  8
1
100
AcDbLine
 10
9.977783
 20
-12.700002
 30
0.0
 11
9.015738
 21
-12.520472
 31
0.0
  0
LINE
  5
1BA
330
4B8
100
AcDbEntity
  8
1
100
AcDbLine
 10
8.391548
 20
-12.236362
 30
0.0
 11
8.611062999999999
 21
-12.265152
 31
0.0
  0
LINE
  5
1BB
330
4B8
100
AcDbEntity
  8
1
100
AcDbLine
 10
9.01012
 20
-4.090537999999999
 30
0.0
 11
8.262007999999999
 21
-4.335852
 31
0.0
  0
LINE
  5
1BC
330
4B8
100
AcDbEntity
  8
1
100
AcDbLine
 10
8.262007999999999
 20
-4.335852
 30
0.0
 11
7.510599
 21
-4.579412
 31
0.0
  0
LINE
  5
1BD
330
4B8
100
AcDbEntity
  8
1
100
AcDbLine
 10
7.510599
 20
-4.579412
 30
0.0
 11
6.75583
 21
-4.821231
 31
0.0
  0
LINE
  5
1BE
330
4B8
100
AcDbEntity
  8
1
100
AcDbLine
 10
6.75583
 20
-4.821231
 30
0.0
 11
5.997762999999999
 21
-5.061298999999999
 31
0.0
  0
LINE
  5
1BF
330
4B8
100
AcDbEntity
  8
1
100
AcDbLine
 10
5.997762999999999
 20
-5.061298999999999
 30
0.0
 11
5.238012
 21
-5.299081
 31
0.0
  0
LINE
  5
1C0
330
4B8
100
AcDbEntity
  8
1
100
AcDbLine
 10
5.238012
 20
-5.299081
 30
0.0
 11
4.477113
 21
-5.534398
 31
0.0
  0
LINE
  5
1C1
330
4B8
100
AcDbEntity
  8
1
100
AcDbLine
 10
4.477113
 20
-5.534398
 30
0.0
 11
3.71453
 21
-5.76743
 31
0.0
  0
LINE
  5
1C2
330
4B8
100
AcDbEntity
  8
1
100
AcDbLine
 10
3.71453
 20
-5.76743
 30
0.0
 11
2.950262999999999
 21
-5.998175999999999
 31
0.0
  0
LINE
  5
1C3
330
4B8
100
AcDbEntity
  8
1
100
AcDbLine
 10
9.964089999999998
 20
-6.212830999999999
 30
0.0
 11
9.964089999999998
 21
-6.528773
 31
0.0
  0
LINE
  5
1C4
330
4B8
100
AcDbEntity
  8
1
100
AcDbLine
 10
8.611062999999999
 20
-4.307142999999999
 30
0.0
 11
8.625922
 21
-4.40512
 31
0.0
  0
LINE
  5
1C5
330
4B8
100
AcDbEntity
  8
1
100
AcDbLine
 10
8.625922
 20
-4.40512
 30
0.0
 11
8.645412
 21
-4.502568
 31
0.0
  0
LINE
  5
1C6
330
4B8
100
AcDbEntity
  8
1
100
AcDbLine
 10
8.645412
 20
-4.502568
 30
0.0
 11
8.669534999999999
 21
-4.599505999999999
 31
0.0
  0
LINE
  5
1C7
330
4B8
100
AcDbEntity
  8
1
100
AcDbLine
 10
8.669534999999999
 20
-4.599505999999999
 30
0.0
 11
8.698199
 21
-4.696037999999999
 31
0.0
  0
LINE
  5
1C8
330
4B8
100
AcDbEntity
  8
1
100
AcDbLine
 10
8.698199
 20
-4.696037999999999
 30
0.0
 11
8.731494999999998
 21
-4.792095999999999
 31
0.0
  0
LINE
  5
1C9
330
4B8
100
AcDbEntity
  8
1
100
AcDbLine
 10
8.731494999999998
 20
-4.792095999999999
 30
0.0
 11
8.769693
 21
-4.887442
 31
0.0
  0
LINE
  5
1CA
330
4B8
100
AcDbEntity
  8
1
100
AcDbLine
 10
8.769693
 20
-4.887442
 30
0.0
 11
8.812863999999999
 21
-4.982147
 31
0.0
  0
LINE
  5
1CB
330
4B8
100
AcDbEntity
  8
1
100
AcDbLine
 10
8.812863999999999
 20
-4.982147
 30
0.0
 11
8.860936999999999
 21
-5.076181
 31
0.0
  0
LINE
  5
1CC
330
4B8
100
AcDbEntity
  8
1
100
AcDbLine
 10
8.860936999999999
 20
-5.076181
 30
0.0
 11
8.913975999999999
 21
-5.169170999999999
 31
0.0
  0
LINE
  5
1CD
330
4B8
100
AcDbEntity
  8
1
100
AcDbLine
 10
8.913975999999999
 20
-5.169170999999999
 30
0.0
 11
8.971944
 21
-5.261019999999999
 31
0.0
  0
LINE
  5
1CE
330
4B8
100
AcDbEntity
  8
1
100
AcDbLine
 10
8.971944
 20
-5.261019999999999
 30
0.0
 11
9.034877999999999
 21
-5.351873
 31
0.0
  0
LINE
  5
1CF
330
4B8
100
AcDbEntity
  8
1
100
AcDbLine
 10
9.034877999999999
 20
-5.351873
 30
0.0
 11
9.102950999999999
 21
-5.441705
 31
0.0
  0
LINE
  5
1D0
330
4B8
100
AcDbEntity
  8
1
100
AcDbLine
 10
9.102950999999999
 20
-5.441705
 30
0.0
 11
9.176031
 21
-5.530437999999999
 31
0.0
  0
LINE
  5
1D1
330
4B8
100
AcDbEntity
  8
1
100
AcDbLine
 10
9.176031
 20
-5.530437999999999
 30
0.0
 11
9.254251
 21
-5.618198999999999
 31
0.0
  0
LINE
  5
1D2
330
4B8
100
AcDbEntity
  8
1
100
AcDbLine
 10
9.254251
 20
-5.618198999999999
 30
0.0
 11
9.338179
 21
-5.705271999999999
 31
0.0
  0
LINE
  5
1D3
330
4B8
100
AcDbEntity
  8
1
100
AcDbLine
 10
9.338179
 20
-5.705271999999999
 30
0.0
 11
9.427953999999999
 21
-5.79185
 31
0.0
  0
LINE
  5
1D4
330
4B8
100
AcDbEntity
  8
1
100
AcDbLine
 10
9.427953999999999
 20
-5.79185
 30
0.0
 11
9.523436999999999
 21
-5.877782999999999
 31
0.0
  0
LINE
  5
1D5
330
4B8
100
AcDbEntity
  8
1
100
AcDbLine
 10
9.523436999999999
 20
-5.877782999999999
 30
0.0
 11
9.624776999999999
 21
-5.96285
 31
0.0
  0
LINE
  5
1D6
330
4B8
100
AcDbEntity
  8
1
100
AcDbLine
 10
9.624776999999999
 20
-5.96285
 30
0.0
 11
9.732025
 21
-6.046991
 31
0.0
  0
LINE
  5
1D7
330
4B8
100
AcDbEntity
  8
1
100
AcDbLine
 10
9.732025
 20
-6.046991
 30
0.0
 11
9.845129
 21
-6.130310999999999
 31
0.0
  0
LINE
  5
1D8
330
4B8
100
AcDbEntity
  8
1
100
AcDbLine
 10
9.845129
 20
-6.130310999999999
 30
0.0
 11
9.964089999999998
 21
-6.212830999999999
 31
0.0
  0
LINE
  5
1D9
330
4B8
100
AcDbEntity
  8
1
100
AcDbLine
 10
8.391548
 20
-4.358119999999999
 30
0.0
 11
8.391548
 21
-4.293374
 31
0.0
  0
LINE
  5
1DA
330
4B8
100
AcDbEntity
  8
1
100
AcDbLine
 10
9.164089999999999
 20
-6.688560999999999
 30
0.0
 11
9.077436999999999
 21
-6.439894
 31
0.0
  0
LINE
  5
1DB
330
4B8
100
AcDbEntity
  8
1
100
AcDbLine
 10
9.077436999999999
 20
-6.439894
 30
0.0
 11
8.990949999999999
 21
-6.188544999999999
 31
0.0
  0
LINE
  5
1DC
330
4B8
100
AcDbEntity
  8
1
100
AcDbLine
 10
8.990949999999999
 20
-6.188544999999999
 30
0.0
 11
8.904628999999999
 21
-5.934515
 31
0.0
  0
LINE
  5
1DD
330
4B8
100
AcDbEntity
  8
1
100
AcDbLine
 10
8.904628999999999
 20
-5.934515
 30
0.0
 11
8.818424999999999
 21
-5.677651999999999
 31
0.0
  0
LINE
  5
1DE
330
4B8
100
AcDbEntity
  8
1
100
AcDbLine
 10
8.818424999999999
 20
-5.677651999999999
 30
0.0
 11
8.732388
 21
-5.418108999999999
 31
0.0
  0
LINE
  5
1DF
330
4B8
100
AcDbEntity
  8
1
100
AcDbLine
 10
8.732388
 20
-5.418108999999999
 30
0.0
 11
8.646665999999999
 21
-5.156337999999999
 31
0.0
  0
LINE
  5
1E0
330
4B8
100
AcDbEntity
  8
1
100
AcDbLine
 10
8.646665999999999
 20
-5.156337999999999
 30
0.0
 11
8.561310999999999
 21
-4.892492999999999
 31
0.0
  0
LINE
  5
1E1
330
4B8
100
AcDbEntity
  8
1
100
AcDbLine
 10
8.561310999999999
 20
-4.892492999999999
 30
0.0
 11
8.476271
 21
-4.626419999999999
 31
0.0
  0
LINE
  5
1E2
330
4B8
100
AcDbEntity
  8
1
100
AcDbLine
 10
8.476271
 20
-4.626419999999999
 30
0.0
 11
8.391548
 21
-4.358119999999999
 31
0.0
  0
LINE
  5
1E3
330
4B8
100
AcDbEntity
  8
1
100
AcDbLine
 10
8.391548
 20
-4.358119999999999
 30
0.0
 11
8.611062999999999
 21
-4.307142999999999
 31
0.0
  0
LINE
  5
1E4
330
4B8
100
AcDbEntity
  8
1
100
AcDbLine
 10
9.164089999999999
 20
-6.688560999999999
 30
0.0
 11
9.295919999999998
 21
-6.662443999999999
 31
0.0
  0
LINE
  5
1E5
330
4B8
100
AcDbEntity
  8
1
100
AcDbLine
 10
9.295919999999998
 20
-6.662443999999999
 30
0.0
 11
9.964089999999998
 21
-6.528773
 31
0.0
  0
LINE
  5
1E6
330
4B8
100
AcDbEntity
  8
1
100
AcDbLine
 10
9.164089999999999
 20
4.131682999999999
 30
0.0
 11
8.468802
 21
6.092973
 31
0.0
  0
LINE
  5
1E7
330
4B8
100
AcDbEntity
  8
1
100
AcDbLine
 10
9.164089999999999
 20
5.850258
 30
0.0
 11
9.164089999999999
 21
4.131682999999999
 31
0.0
  0
LINE
  5
1E8
330
4B8
100
AcDbEntity
  8
1
100
AcDbLine
 10
5.725698
 20
0.65633
 30
0.0
 11
5.582533999999999
 21
0.8568789999999999
 31
0.0
  0
LINE
  5
1E9
330
4B8
100
AcDbEntity
  8
1
100
AcDbLine
 10
5.582533999999999
 20
0.8568789999999999
 30
0.0
 11
5.440860999999999
 21
1.063549
 31
0.0
  0
LINE
  5
1EA
330
4B8
100
AcDbEntity
  8
1
100
AcDbLine
 10
5.440860999999999
 20
1.063549
 30
0.0
 11
5.30068
 21
1.276256
 31
0.0
  0
LINE
  5
1EB
330
4B8
100
AcDbEntity
  8
1
100
AcDbLine
 10
5.30068
 20
1.276256
 30
0.0
 11
5.161725999999999
 21
1.495355999999999
 31
0.0
  0
LINE
  5
1EC
330
4B8
100
AcDbEntity
  8
1
100
AcDbLine
 10
5.161725999999999
 20
1.495355999999999
 30
0.0
 11
5.024262999999999
 21
1.720286999999999
 31
0.0
  0
LINE
  5
1ED
330
4B8
100
AcDbEntity
  8
1
100
AcDbLine
 10
5.024262999999999
 20
1.720286999999999
 30
0.0
 11
4.889078999999999
 21
1.949574
 31
0.0
  0
LINE
  5
1EE
330
4B8
100
AcDbEntity
  8
1
100
AcDbLine
 10
4.889078999999999
 20
1.949574
 30
0.0
 11
4.756287
 21
2.183075999999999
 31
0.0
  0
LINE
  5
1EF
330
4B8
100
AcDbEntity
  8
1
100
AcDbLine
 10
4.756287
 20
2.183075999999999
 30
0.0
 11
4.625773999999999
 21
2.420675
 31
0.0
  0
LINE
  5
1F0
330
4B8
100
AcDbEntity
  8
1
100
AcDbLine
 10
4.625773999999999
 20
2.420675
 30
0.0
 11
4.497994999999999
 21
2.660946
 31
0.0
  0
LINE
  5
1F1
330
4B8
100
AcDbEntity
  8
1
100
AcDbLine
 10
4.497994999999999
 20
2.660946
 30
0.0
 11
4.373024
 21
2.903697
 31
0.0
  0
LINE
  5
1F2
330
4B8
100
AcDbEntity
  8
1
100
AcDbLine
 10
4.373024
 20
2.903697
 30
0.0
 11
4.250785999999999
 21
3.148827
 31
0.0
  0
LINE
  5
1F3
330
4B8
100
AcDbEntity
  8
1
100
AcDbLine
 10
4.250785999999999
 20
3.148827
 30
0.0
 11
4.131507
 21
3.395058
 31
0.0
  0
LINE
  5
1F4
330
4B8
100
AcDbEntity
  8
1
100
AcDbLine
 10
4.131507
 20
3.395058
 30
0.0
 11
4.015213
 21
3.642220999999999
 31
0.0
  0
LINE
  5
1F5
330
4B8
100
AcDbEntity
  8
1
100
AcDbLine
 10
4.015213
 20
3.642220999999999
 30
0.0
 11
3.901877999999999
 21
3.890181999999999
 31
0.0
  0
LINE
  5
1F6
330
4B8
100
AcDbEntity
  8
1
100
AcDbLine
 10
3.901877999999999
 20
3.890181999999999
 30
0.0
 11
3.791655999999999
 21
4.137753
 31
0.0
  0
LINE
  5
1F7
330
4B8
100
AcDbEntity
  8
1
100
AcDbLine
 10
3.791655999999999
 20
4.137753
 30
0.0
 11
3.684505999999999
 21
4.384885999999999
 31
0.0
  0
LINE
  5
1F8
330
4B8
100
AcDbEntity
  8
1
100
AcDbLine
 10
3.684505999999999
 20
4.384885999999999
 30
0.0
 11
3.580469999999999
 21
4.631338999999999
 31
0.0
  0
LINE
  5
1F9
330
4B8
100
AcDbEntity
  8
1
100
AcDbLine
 10
3.580469999999999
 20
4.631338999999999
 30
0.0
 11
3.479820999999999
 21
4.875682
 31
0.0
  0
LINE
  5
1FA
330
4B8
100
AcDbEntity
  8
1
100
AcDbLine
 10
3.479820999999999
 20
4.875682
 30
0.0
 11
3.382555
 21
5.117817999999999
 31
0.0
  0
LINE
  5
1FB
330
4B8
100
AcDbEntity
  8
1
100
AcDbLine
 10
3.382555
 20
5.117817999999999
 30
0.0
 11
3.288676
 21
5.357615
 31
0.0
  0
LINE
  5
1FC
330
4B8
100
AcDbEntity
  8
1
100
AcDbLine
 10
3.288676
 20
5.357615
 30
0.0
 11
3.198479
 21
5.593666
 31
0.0
  0
LINE
  5
1FD
330
4B8
100
AcDbEntity
  8
1
100
AcDbLine
 10
3.198479
 20
5.593666
 30
0.0
 11
3.112058999999999
 21
5.825476999999999
 31
0.0
  0
LINE
  5
1FE
330
4B8
100
AcDbEntity
  8
1
100
AcDbLine
 10
3.112058999999999
 20
5.825476999999999
 30
0.0
 11
3.029320999999999
 21
6.05342
 31
0.0
  0
LINE
  5
1FF
330
4B8
100
AcDbEntity
  8
1
100
AcDbLine
 10
3.029320999999999
 20
6.05342
 30
0.0
 11
2.950262999999999
 21
6.277433999999999
 31
0.0
  0
LINE
  5
200
330
4B8
100
AcDbEntity
  8
1
100
AcDbLine
 10
7.328591
 20
0.5109670000000001
 30
0.0
 11
7.181299
 21
0.5068660000000001
 31
0.0
  0
LINE
  5
201
330
4B8
100
AcDbEntity
  8
1
100
AcDbLine
 10
7.181299
 20
0.5068660000000001
 30
0.0
 11
7.036116999999999
 21
0.505728
 31
0.0
  0
LINE
  5
202
330
4B8
100
AcDbEntity
  8
1
100
AcDbLine
 10
7.036116999999999
 20
0.505728
 30
0.0
 11
6.893166
 21
0.507555
 31
0.0
  0
LINE
  5
203
330
4B8
100
AcDbEntity
  8
1
100
AcDbLine
 10
6.893166
 20
0.507555
 30
0.0
 11
6.752561999999999
 21
0.512343
 31
0.0
  0
LINE
  5
204
330
4B8
100
AcDbEntity
  8
1
100
AcDbLine
 10
6.752561999999999
 20
0.512343
 30
0.0
 11
6.614422
 21
0.520092
 31
0.0
  0
LINE
  5
205
330
4B8
100
AcDbEntity
  8
1
100
AcDbLine
 10
6.614422
 20
0.520092
 30
0.0
 11
6.47886
 21
0.5307920000000001
 31
0.0
  0
LINE
  5
206
330
4B8
100
AcDbEntity
  8
1
100
AcDbLine
 10
6.47886
 20
0.5307920000000001
 30
0.0
 11
6.345985999999999
 21
0.544435
 31
0.0
  0
LINE
  5
207
330
4B8
100
AcDbEntity
  8
1
100
AcDbLine
 10
6.345985999999999
 20
0.544435
 30
0.0
 11
6.215911
 21
0.561012
 31
0.0
  0
LINE
  5
208
330
4B8
100
AcDbEntity
  8
1
100
AcDbLine
 10
6.215911
 20
0.561012
 30
0.0
 11
6.088741
 21
0.580507
 31
0.0
  0
LINE
  5
209
330
4B8
100
AcDbEntity
  8
1
100
AcDbLine
 10
6.088741
 20
0.580507
 30
0.0
 11
5.964580999999999
 21
0.602903
 31
0.0
  0
LINE
  5
20A
330
4B8
100
AcDbEntity
  8
1
100
AcDbLine
 10
5.964580999999999
 20
0.602903
 30
0.0
 11
5.843534
 21
0.628184
 31
0.0
  0
LINE
  5
20B
330
4B8
100
AcDbEntity
  8
1
100
AcDbLine
 10
5.843534
 20
0.628184
 30
0.0
 11
5.725698
 21
0.65633
 31
0.0
  0
LINE
  5
20C
330
4B8
100
AcDbEntity
  8
1
100
AcDbLine
 10
10.246061
 20
0.377222
 30
0.0
 11
10.095546
 21
0.341956
 31
0.0
  0
LINE
  5
20D
330
4B8
100
AcDbEntity
  8
1
100
AcDbLine
 10
10.095546
 20
0.341956
 30
0.0
 11
9.944072999999999
 21
0.310539
 31
0.0
  0
LINE
  5
20E
330
4B8
100
AcDbEntity
  8
1
100
AcDbLine
 10
9.944072999999999
 20
0.310539
 30
0.0
 11
9.791641999999999
 21
0.2829729999999999
 31
0.0
  0
LINE
  5
20F
330
4B8
100
AcDbEntity
  8
1
100
AcDbLine
 10
9.791641999999999
 20
0.2829729999999999
 30
0.0
 11
9.638260999999999
 21
0.259329
 31
0.0
  0
LINE
  5
210
330
4B8
100
AcDbEntity
  8
1
100
AcDbLine
 10
9.638260999999999
 20
0.259329
 30
0.0
 11
9.483921
 21
0.239535
 31
0.0
  0
LINE
  5
211
330
4B8
100
AcDbEntity
  8
1
100
AcDbLine
 10
9.483921
 20
0.239535
 30
0.0
 11
9.328602
 21
0.223378
 31
0.0
  0
LINE
  5
212
330
4B8
100
AcDbEntity
  8
1
100
AcDbLine
 10
9.328602
 20
0.223378
 30
0.0
 11
9.172323999999999
 21
0.210852
 31
0.0
  0
LINE
  5
213
330
4B8
100
AcDbEntity
  8
1
100
AcDbLine
 10
9.172323999999999
 20
0.210852
 30
0.0
 11
9.015064999999999
 21
0.201962
 31
0.0
  0
LINE
  5
214
330
4B8
100
AcDbEntity
  8
1
100
AcDbLine
 10
9.015064999999999
 20
0.201962
 30
0.0
 11
8.856742
 21
0.196508
 31
0.0
  0
LINE
  5
215
330
4B8
100
AcDbEntity
  8
1
100
AcDbLine
 10
8.856742
 20
0.196508
 30
0.0
 11
8.697461
 21
0.194472
 31
0.0
  0
LINE
  5
216
330
4B8
100
AcDbEntity
  8
1
100
AcDbLine
 10
8.697461
 20
0.194472
 30
0.0
 11
8.537116000000001
 21
0.195873
 31
0.0
  0
LINE
  5
217
330
4B8
100
AcDbEntity
  8
1
100
AcDbLine
 10
8.537116000000001
 20
0.195873
 30
0.0
 11
8.375291999999999
 21
0.200569
 31
0.0
  0
LINE
  5
218
330
4B8
100
AcDbEntity
  8
1
100
AcDbLine
 10
8.375291999999999
 20
0.200569
 30
0.0
 11
8.211937999999999
 21
0.208539
 31
0.0
  0
LINE
  5
219
330
4B8
100
AcDbEntity
  8
1
100
AcDbLine
 10
8.211937999999999
 20
0.208539
 30
0.0
 11
8.047107
 21
0.219805
 31
0.0
  0
LINE
  5
21A
330
4B8
100
AcDbEntity
  8
1
100
AcDbLine
 10
8.047107
 20
0.219805
 30
0.0
 11
7.880546
 21
0.234292
 31
0.0
  0
LINE
  5
21B
330
4B8
100
AcDbEntity
  8
1
100
AcDbLine
 10
7.880546
 20
0.234292
 30
0.0
 11
7.712222999999999
 21
0.2519909999999999
 31
0.0
  0
LINE
  5
21C
330
4B8
100
AcDbEntity
  8
1
100
AcDbLine
 10
7.712222999999999
 20
0.2519909999999999
 30
0.0
 11
7.542171
 21
0.272912
 31
0.0
  0
LINE
  5
21D
330
4B8
100
AcDbEntity
  8
1
100
AcDbLine
 10
7.542171
 20
0.272912
 30
0.0
 11
7.370233999999999
 21
0.296999
 31
0.0
  0
LINE
  5
21E
330
4B8
100
AcDbEntity
  8
1
100
AcDbLine
 10
7.370233999999999
 20
0.296999
 30
0.0
 11
7.196463999999999
 21
0.324235
 31
0.0
  0
LINE
  5
21F
330
4B8
100
AcDbEntity
  8
1
100
AcDbLine
 10
7.196463999999999
 20
0.324235
 30
0.0
 11
7.020808999999999
 21
0.354637
 31
0.0
  0
LINE
  5
220
330
4B8
100
AcDbEntity
  8
1
100
AcDbLine
 10
7.020808999999999
 20
0.354637
 30
0.0
 11
6.84296
 21
0.3882
 31
0.0
  0
LINE
  5
221
330
4B8
100
AcDbEntity
  8
1
100
AcDbLine
 10
6.84296
 20
0.3882
 30
0.0
 11
6.662942
 21
0.4249050000000001
 31
0.0
  0
LINE
  5
222
330
4B8
100
AcDbEntity
  8
1
100
AcDbLine
 10
6.662942
 20
0.4249050000000001
 30
0.0
 11
6.480729
 21
0.464769
 31
0.0
  0
LINE
  5
223
330
4B8
100
AcDbEntity
  8
1
100
AcDbLine
 10
6.480729
 20
0.464769
 30
0.0
 11
6.295937999999999
 21
0.507841
 31
0.0
  0
LINE
  5
224
330
4B8
100
AcDbEntity
  8
1
100
AcDbLine
 10
6.295937999999999
 20
0.507841
 30
0.0
 11
6.108437
 21
0.5541350000000001
 31
0.0
  0
LINE
  5
225
330
4B8
100
AcDbEntity
  8
1
100
AcDbLine
 10
6.108437
 20
0.5541350000000001
 30
0.0
 11
5.918357
 21
0.603632
 31
0.0
  0
LINE
  5
226
330
4B8
100
AcDbEntity
  8
1
100
AcDbLine
 10
5.918357
 20
0.603632
 30
0.0
 11
5.725698
 21
0.65633
 31
0.0
  0
LINE
  5
227
330
4B8
100
AcDbEntity
  8
1
100
AcDbLine
 10
9.457487
 20
1.744743999999999
 30
0.0
 11
9.457065
 21
1.723436999999999
 31
0.0
  0
LINE
  5
228
330
4B8
100
AcDbEntity
  8
1
100
AcDbLine
 10
9.457065
 20
1.723436999999999
 30
0.0
 11
9.455728
 21
1.701472
 31
0.0
  0
LINE
  5
229
330
4B8
100
AcDbEntity
  8
1
100
AcDbLine
 10
9.455728
 20
1.701472
 30
0.0
 11
9.453477000000001
 21
1.678852999999999
 31
0.0
  0
LINE
  5
22A
330
4B8
100
AcDbEntity
  8
1
100
AcDbLine
 10
9.453477000000001
 20
1.678852999999999
 30
0.0
 11
9.450333
 21
1.655583
 31
0.0
  0
LINE
  5
22B
330
4B8
100
AcDbEntity
  8
1
100
AcDbLine
 10
9.450333
 20
1.655583
 30
0.0
 11
9.446274
 21
1.631662
 31
0.0
  0
LINE
  5
22C
330
4B8
100
AcDbEntity
  8
1
100
AcDbLine
 10
9.446274
 20
1.631662
 30
0.0
 11
9.441236999999999
 21
1.607101
 31
0.0
  0
LINE
  5
22D
330
4B8
100
AcDbEntity
  8
1
100
AcDbLine
 10
9.441236999999999
 20
1.607101
 30
0.0
 11
9.435219
 21
1.5819
 31
0.0
  0
LINE
  5
22E
330
4B8
100
AcDbEntity
  8
1
100
AcDbLine
 10
9.435219
 20
1.5819
 30
0.0
 11
9.428221
 21
1.556063999999999
 31
0.0
  0
LINE
  5
22F
330
4B8
100
AcDbEntity
  8
1
100
AcDbLine
 10
9.428221
 20
1.556063999999999
 30
0.0
 11
9.420183999999999
 21
1.529604999999999
 31
0.0
  0
LINE
  5
230
330
4B8
100
AcDbEntity
  8
1
100
AcDbLine
 10
9.420183999999999
 20
1.529604999999999
 30
0.0
 11
9.411127
 21
1.50257
 31
0.0
  0
LINE
  5
231
330
4B8
100
AcDbEntity
  8
1
100
AcDbLine
 10
9.411127
 20
1.50257
 30
0.0
 11
9.401030999999999
 21
1.474921999999999
 31
0.0
  0
LINE
  5
232
330
4B8
100
AcDbEntity
  8
1
100
AcDbLine
 10
9.401030999999999
 20
1.474921999999999
 30
0.0
 11
9.38977
 21
1.446546999999999
 31
0.0
  0
LINE
  5
233
330
4B8
100
AcDbEntity
  8
1
100
AcDbLine
 10
9.38977
 20
1.446546999999999
 30
0.0
 11
9.377342999999999
 21
1.417426
 31
0.0
  0
LINE
  5
234
330
4B8
100
AcDbEntity
  8
1
100
AcDbLine
 10
9.377342999999999
 20
1.417426
 30
0.0
 11
9.363752999999999
 21
1.387593999999999
 31
0.0
  0
LINE
  5
235
330
4B8
100
AcDbEntity
  8
1
100
AcDbLine
 10
9.363752999999999
 20
1.387593999999999
 30
0.0
 11
9.348867999999999
 21
1.357020999999999
 31
0.0
  0
LINE
  5
236
330
4B8
100
AcDbEntity
  8
1
100
AcDbLine
 10
9.348867999999999
 20
1.357020999999999
 30
0.0
 11
9.332689999999999
 21
1.325701
 31
0.0
  0
LINE
  5
237
330
4B8
100
AcDbEntity
  8
1
100
AcDbLine
 10
9.332689999999999
 20
1.325701
 30
0.0
 11
9.31522
 21
1.293662
 31
0.0
  0
LINE
  5
238
330
4B8
100
AcDbEntity
  8
1
100
AcDbLine
 10
9.31522
 20
1.293662
 30
0.0
 11
9.296332000000001
 21
1.260929
 31
0.0
  0
LINE
  5
239
330
4B8
100
AcDbEntity
  8
1
100
AcDbLine
 10
9.296332000000001
 20
1.260929
 30
0.0
 11
9.276047999999999
 21
1.227526
 31
0.0
  0
LINE
  5
23A
330
4B8
100
AcDbEntity
  8
1
100
AcDbLine
 10
9.276047999999999
 20
1.227526
 30
0.0
 11
9.254349000000001
 21
1.193455999999999
 31
0.0
  0
LINE
  5
23B
330
4B8
100
AcDbEntity
  8
1
100
AcDbLine
 10
9.254349000000001
 20
1.193455999999999
 30
0.0
 11
9.231053999999998
 21
1.158712999999999
 31
0.0
  0
LINE
  5
23C
330
4B8
100
AcDbEntity
  8
1
100
AcDbLine
 10
9.231053999999998
 20
1.158712999999999
 30
0.0
 11
9.206172999999999
 21
1.123295999999999
 31
0.0
  0
LINE
  5
23D
330
4B8
100
AcDbEntity
  8
1
100
AcDbLine
 10
9.206172999999999
 20
1.123295999999999
 30
0.0
 11
9.179702
 21
1.087242
 31
0.0
  0
LINE
  5
23E
330
4B8
100
AcDbEntity
  8
1
100
AcDbLine
 10
9.179702
 20
1.087242
 30
0.0
 11
9.151438999999999
 21
1.050603
 31
0.0
  0
LINE
  5
23F
330
4B8
100
AcDbEntity
  8
1
100
AcDbLine
 10
9.151438999999999
 20
1.050603
 30
0.0
 11
9.121321
 21
1.013417
 31
0.0
  0
LINE
  5
240
330
4B8
100
AcDbEntity
  8
1
100
AcDbLine
 10
9.121321
 20
1.013417
 30
0.0
 11
9.089422
 21
0.975694
 31
0.0
  0
LINE
  5
241
330
4B8
100
AcDbEntity
  8
1
100
AcDbLine
 10
9.089422
 20
0.975694
 30
0.0
 11
9.055747999999999
 21
0.9374590000000001
 31
0.0
  0
LINE
  5
242
330
4B8
100
AcDbEntity
  8
1
100
AcDbLine
 10
9.365244
 20
2.004944
 30
0.0
 11
9.376412
 21
1.991798
 31
0.0
  0
LINE
  5
243
330
4B8
100
AcDbEntity
  8
1
100
AcDbLine
 10
9.376412
 20
1.991798
 30
0.0
 11
9.386886999999999
 21
1.978162
 31
0.0
  0
LINE
  5
244
330
4B8
100
AcDbEntity
  8
1
100
AcDbLine
 10
9.386886999999999
 20
1.978162
 30
0.0
 11
9.396668
 21
1.964034
 31
0.0
  0
LINE
  5
245
330
4B8
100
AcDbEntity
  8
1
100
AcDbLine
 10
9.396668
 20
1.964034
 30
0.0
 11
9.405756
 21
1.949449
 31
0.0
  0
LINE
  5
246
330
4B8
100
AcDbEntity
  8
1
100
AcDbLine
 10
9.405756
 20
1.949449
 30
0.0
 11
9.414150999999998
 21
1.934372999999999
 31
0.0
  0
LINE
  5
247
330
4B8
100
AcDbEntity
  8
1
100
AcDbLine
 10
9.414150999999998
 20
1.934372999999999
 30
0.0
 11
9.421857000000001
 21
1.918697
 31
0.0
  0
LINE
  5
248
330
4B8
100
AcDbEntity
  8
1
100
AcDbLine
 10
9.421857000000001
 20
1.918697
 30
0.0
 11
9.428892999999998
 21
1.902434999999999
 31
0.0
  0
LINE
  5
249
330
4B8
100
AcDbEntity
  8
1
100
AcDbLine
 10
9.428892999999998
 20
1.902434999999999
 30
0.0
 11
9.435238999999999
 21
1.885570999999999
 31
0.0
  0
LINE
  5
24A
330
4B8
100
AcDbEntity
  8
1
100
AcDbLine
 10
9.435238999999999
 20
1.885570999999999
 30
0.0
 11
9.440839
 21
1.867959999999999
 31
0.0
  0
LINE
  5
24B
330
4B8
100
AcDbEntity
  8
1
100
AcDbLine
 10
9.440839
 20
1.867959999999999
 30
0.0
 11
9.445717
 21
1.849609
 31
0.0
  0
LINE
  5
24C
330
4B8
100
AcDbEntity
  8
1
100
AcDbLine
 10
9.445717
 20
1.849609
 30
0.0
 11
9.449849
 21
1.830510999999999
 31
0.0
  0
LINE
  5
24D
330
4B8
100
AcDbEntity
  8
1
100
AcDbLine
 10
9.449849
 20
1.830510999999999
 30
0.0
 11
9.453105
 21
1.810491
 31
0.0
  0
LINE
  5
24E
330
4B8
100
AcDbEntity
  8
1
100
AcDbLine
 10
9.453105
 20
1.810491
 30
0.0
 11
9.455441
 21
1.789495
 31
0.0
  0
LINE
  5
24F
330
4B8
100
AcDbEntity
  8
1
100
AcDbLine
 10
9.455441
 20
1.789495
 30
0.0
 11
9.456902000000001
 21
1.767579999999999
 31
0.0
  0
LINE
  5
250
330
4B8
100
AcDbEntity
  8
1
100
AcDbLine
 10
9.456902000000001
 20
1.767579999999999
 30
0.0
 11
9.457487
 21
1.744743999999999
 31
0.0
  0
LINE
  5
251
330
4B8
100
AcDbEntity
  8
1
100
AcDbLine
 10
8.931602999999999
 20
0.810978
 30
0.0
 11
8.915108999999999
 21
0.7956310000000001
 31
0.0
  0
LINE
  5
252
330
4B8
100
AcDbEntity
  8
1
100
AcDbLine
 10
8.915108999999999
 20
0.7956310000000001
 30
0.0
 11
8.885761
 21
0.7690890000000001
 31
0.0
  0
LINE
  5
253
330
4B8
100
AcDbEntity
  8
1
100
AcDbLine
 10
8.885761
 20
0.7690890000000001
 30
0.0
 11
8.856042
 21
0.743178
 31
0.0
  0
LINE
  5
254
330
4B8
100
AcDbEntity
  8
1
100
AcDbLine
 10
8.856042
 20
0.743178
 30
0.0
 11
8.825944999999999
 21
0.717895
 31
0.0
  0
LINE
  5
255
330
4B8
100
AcDbEntity
  8
1
100
AcDbLine
 10
8.825944999999999
 20
0.717895
 30
0.0
 11
8.795471
 21
0.693243
 31
0.0
  0
LINE
  5
256
330
4B8
100
AcDbEntity
  8
1
100
AcDbLine
 10
9.055747999999999
 20
0.9374590000000001
 30
0.0
 11
9.02846
 21
0.9078979999999999
 31
0.0
  0
LINE
  5
257
330
4B8
100
AcDbEntity
  8
1
100
AcDbLine
 10
9.02846
 20
0.9078979999999999
 30
0.0
 11
9.000752
 21
0.878932
 31
0.0
  0
LINE
  5
258
330
4B8
100
AcDbEntity
  8
1
100
AcDbLine
 10
9.000752
 20
0.878932
 30
0.0
 11
8.972627000000001
 21
0.8505649999999999
 31
0.0
  0
LINE
  5
259
330
4B8
100
AcDbEntity
  8
1
100
AcDbLine
 10
8.972627000000001
 20
0.8505649999999999
 30
0.0
 11
8.944074999999999
 21
0.8227949999999999
 31
0.0
  0
LINE
  5
25A
330
4B8
100
AcDbEntity
  8
1
100
AcDbLine
 10
8.944074999999999
 20
0.8227949999999999
 30
0.0
 11
8.931602999999999
 21
0.810978
 31
0.0
  0
LINE
  5
25B
330
4B8
100
AcDbEntity
  8
1
100
AcDbLine
 10
7.126276999999999
 20
1.65199
 30
0.0
 11
7.150413999999999
 21
1.680168999999999
 31
0.0
  0
LINE
  5
25C
330
4B8
100
AcDbEntity
  8
1
100
AcDbLine
 10
7.150413999999999
 20
1.680168999999999
 30
0.0
 11
7.176605999999999
 21
1.708040999999999
 31
0.0
  0
LINE
  5
25D
330
4B8
100
AcDbEntity
  8
1
100
AcDbLine
 10
7.176605999999999
 20
1.708040999999999
 30
0.0
 11
7.205772
 21
1.736479
 31
0.0
  0
LINE
  5
25E
330
4B8
100
AcDbEntity
  8
1
100
AcDbLine
 10
7.328591
 20
0.5109670000000001
 30
0.0
 11
7.305813
 21
0.527786
 31
0.0
  0
LINE
  5
25F
330
4B8
100
AcDbEntity
  8
1
100
AcDbLine
 10
7.305813
 20
0.527786
 30
0.0
 11
7.283682
 21
0.545174
 31
0.0
  0
LINE
  5
260
330
4B8
100
AcDbEntity
  8
1
100
AcDbLine
 10
7.283682
 20
0.545174
 30
0.0
 11
7.262196
 21
0.5631270000000001
 31
0.0
  0
LINE
  5
261
330
4B8
100
AcDbEntity
  8
1
100
AcDbLine
 10
7.262196
 20
0.5631270000000001
 30
0.0
 11
7.241336999999999
 21
0.5816600000000001
 31
0.0
  0
LINE
  5
262
330
4B8
100
AcDbEntity
  8
1
100
AcDbLine
 10
7.241336999999999
 20
0.5816600000000001
 30
0.0
 11
7.221116999999999
 21
0.6007470000000001
 31
0.0
  0
LINE
  5
263
330
4B8
100
AcDbEntity
  8
1
100
AcDbLine
 10
7.221116999999999
 20
0.6007470000000001
 30
0.0
 11
7.201574
 21
0.6203260000000001
 31
0.0
  0
LINE
  5
264
330
4B8
100
AcDbEntity
  8
1
100
AcDbLine
 10
7.201574
 20
0.6203260000000001
 30
0.0
 11
7.182727
 21
0.640365
 31
0.0
  0
LINE
  5
265
330
4B8
100
AcDbEntity
  8
1
100
AcDbLine
 10
7.182727
 20
0.640365
 30
0.0
 11
7.164552
 21
0.660887
 31
0.0
  0
LINE
  5
266
330
4B8
100
AcDbEntity
  8
1
100
AcDbLine
 10
7.164552
 20
0.660887
 30
0.0
 11
7.147028999999998
 21
0.6819100000000001
 31
0.0
  0
LINE
  5
267
330
4B8
100
AcDbEntity
  8
1
100
AcDbLine
 10
7.147028999999998
 20
0.6819100000000001
 30
0.0
 11
7.130130999999999
 21
0.7034550000000001
 31
0.0
  0
LINE
  5
268
330
4B8
100
AcDbEntity
  8
1
100
AcDbLine
 10
7.130130999999999
 20
0.7034550000000001
 30
0.0
 11
7.113878999999998
 21
0.7254960000000001
 31
0.0
  0
LINE
  5
269
330
4B8
100
AcDbEntity
  8
1
100
AcDbLine
 10
7.113878999999998
 20
0.7254960000000001
 30
0.0
 11
7.09833
 21
0.747985
 31
0.0
  0
LINE
  5
26A
330
4B8
100
AcDbEntity
  8
1
100
AcDbLine
 10
7.09833
 20
0.747985
 30
0.0
 11
7.083483
 21
0.770913
 31
0.0
  0
LINE
  5
26B
330
4B8
100
AcDbEntity
  8
1
100
AcDbLine
 10
7.083483
 20
0.770913
 30
0.0
 11
7.069335
 21
0.7942840000000001
 31
0.0
  0
LINE
  5
26C
330
4B8
100
AcDbEntity
  8
1
100
AcDbLine
 10
7.069335
 20
0.7942840000000001
 30
0.0
 11
7.055933
 21
0.8180649999999999
 31
0.0
  0
LINE
  5
26D
330
4B8
100
AcDbEntity
  8
1
100
AcDbLine
 10
7.055933
 20
0.8180649999999999
 30
0.0
 11
7.043277999999999
 21
0.8422399999999999
 31
0.0
  0
LINE
  5
26E
330
4B8
100
AcDbEntity
  8
1
100
AcDbLine
 10
7.043277999999999
 20
0.8422399999999999
 30
0.0
 11
7.031367999999999
 21
0.8668229999999999
 31
0.0
  0
LINE
  5
26F
330
4B8
100
AcDbEntity
  8
1
100
AcDbLine
 10
7.031367999999999
 20
0.8668229999999999
 30
0.0
 11
7.020243999999999
 21
0.8918299999999998
 31
0.0
  0
LINE
  5
270
330
4B8
100
AcDbEntity
  8
1
100
AcDbLine
 10
7.020243999999999
 20
0.8918299999999998
 30
0.0
 11
7.009888
 21
0.9173009999999999
 31
0.0
  0
LINE
  5
271
330
4B8
100
AcDbEntity
  8
1
100
AcDbLine
 10
7.009888
 20
0.9173009999999999
 30
0.0
 11
7.000319
 21
0.943196
 31
0.0
  0
LINE
  5
272
330
4B8
100
AcDbEntity
  8
1
100
AcDbLine
 10
7.000319
 20
0.943196
 30
0.0
 11
6.991635999999999
 21
0.9694169999999999
 31
0.0
  0
LINE
  5
273
330
4B8
100
AcDbEntity
  8
1
100
AcDbLine
 10
6.991635999999999
 20
0.9694169999999999
 30
0.0
 11
6.983846999999999
 21
0.9959419999999999
 31
0.0
  0
LINE
  5
274
330
4B8
100
AcDbEntity
  8
1
100
AcDbLine
 10
6.983846999999999
 20
0.9959419999999999
 30
0.0
 11
6.976946
 21
1.022793
 31
0.0
  0
LINE
  5
275
330
4B8
100
AcDbEntity
  8
1
100
AcDbLine
 10
6.976946
 20
1.022793
 30
0.0
 11
6.971013
 21
1.049927999999999
 31
0.0
  0
LINE
  5
276
330
4B8
100
AcDbEntity
  8
1
100
AcDbLine
 10
6.971013
 20
1.049927999999999
 30
0.0
 11
6.966042999999999
 21
1.07735
 31
0.0
  0
LINE
  5
277
330
4B8
100
AcDbEntity
  8
1
100
AcDbLine
 10
6.966042999999999
 20
1.07735
 30
0.0
 11
6.962044
 21
1.105061
 31
0.0
  0
LINE
  5
278
330
4B8
100
AcDbEntity
  8
1
100
AcDbLine
 10
6.962044
 20
1.105061
 30
0.0
 11
6.959111999999999
 21
1.133020999999999
 31
0.0
  0
LINE
  5
279
330
4B8
100
AcDbEntity
  8
1
100
AcDbLine
 10
6.959111999999999
 20
1.133020999999999
 30
0.0
 11
6.957244999999999
 21
1.161262
 31
0.0
  0
LINE
  5
27A
330
4B8
100
AcDbEntity
  8
1
100
AcDbLine
 10
6.957244999999999
 20
1.161262
 30
0.0
 11
6.95645
 21
1.189759
 31
0.0
  0
LINE
  5
27B
330
4B8
100
AcDbEntity
  8
1
100
AcDbLine
 10
6.95645
 20
1.189759
 30
0.0
 11
6.95683
 21
1.218391999999999
 31
0.0
  0
LINE
  5
27C
330
4B8
100
AcDbEntity
  8
1
100
AcDbLine
 10
6.95683
 20
1.218391999999999
 30
0.0
 11
6.958388
 21
1.247137
 31
0.0
  0
LINE
  5
27D
330
4B8
100
AcDbEntity
  8
1
100
AcDbLine
 10
6.958388
 20
1.247137
 30
0.0
 11
6.961128999999999
 21
1.276026
 31
0.0
  0
LINE
  5
27E
330
4B8
100
AcDbEntity
  8
1
100
AcDbLine
 10
6.961128999999999
 20
1.276026
 30
0.0
 11
6.965167
 21
1.305019
 31
0.0
  0
LINE
  5
27F
330
4B8
100
AcDbEntity
  8
1
100
AcDbLine
 10
6.965167
 20
1.305019
 30
0.0
 11
6.970511
 21
1.334157999999999
 31
0.0
  0
LINE
  5
280
330
4B8
100
AcDbEntity
  8
1
100
AcDbLine
 10
6.970511
 20
1.334157999999999
 30
0.0
 11
6.977161999999999
 21
1.363417
 31
0.0
  0
LINE
  5
281
330
4B8
100
AcDbEntity
  8
1
100
AcDbLine
 10
6.977161999999999
 20
1.363417
 30
0.0
 11
6.985224
 21
1.392654
 31
0.0
  0
LINE
  5
282
330
4B8
100
AcDbEntity
  8
1
100
AcDbLine
 10
6.985224
 20
1.392654
 30
0.0
 11
6.994700999999999
 21
1.421866
 31
0.0
  0
LINE
  5
283
330
4B8
100
AcDbEntity
  8
1
100
AcDbLine
 10
6.994700999999999
 20
1.421866
 30
0.0
 11
7.005600999999999
 21
1.451076
 31
0.0
  0
LINE
  5
284
330
4B8
100
AcDbEntity
  8
1
100
AcDbLine
 10
7.005600999999999
 20
1.451076
 30
0.0
 11
7.018032999999999
 21
1.480183
 31
0.0
  0
LINE
  5
285
330
4B8
100
AcDbEntity
  8
1
100
AcDbLine
 10
7.018032999999999
 20
1.480183
 30
0.0
 11
7.032007000000001
 21
1.509206999999999
 31
0.0
  0
LINE
  5
286
330
4B8
100
AcDbEntity
  8
1
100
AcDbLine
 10
7.032007000000001
 20
1.509206999999999
 30
0.0
 11
7.047528999999999
 21
1.538154999999999
 31
0.0
  0
LINE
  5
287
330
4B8
100
AcDbEntity
  8
1
100
AcDbLine
 10
7.047528999999999
 20
1.538154999999999
 30
0.0
 11
7.064697999999999
 21
1.566905
 31
0.0
  0
LINE
  5
288
330
4B8
100
AcDbEntity
  8
1
100
AcDbLine
 10
7.064697999999999
 20
1.566905
 30
0.0
 11
7.083553999999999
 21
1.595425999999999
 31
0.0
  0
LINE
  5
289
330
4B8
100
AcDbEntity
  8
1
100
AcDbLine
 10
7.083553999999999
 20
1.595425999999999
 30
0.0
 11
7.104077
 21
1.623782
 31
0.0
  0
LINE
  5
28A
330
4B8
100
AcDbEntity
  8
1
100
AcDbLine
 10
7.104077
 20
1.623782
 30
0.0
 11
7.126276999999999
 21
1.65199
 31
0.0
  0
LINE
  5
28B
330
4B8
100
AcDbEntity
  8
1
100
AcDbLine
 10
8.795471
 20
0.693243
 30
0.0
 11
8.781985999999999
 21
0.6854550000000001
 31
0.0
  0
LINE
  5
28C
330
4B8
100
AcDbEntity
  8
1
100
AcDbLine
 10
8.781985999999999
 20
0.6854550000000001
 30
0.0
 11
8.767036
 21
0.6774020000000001
 31
0.0
  0
LINE
  5
28D
330
4B8
100
AcDbEntity
  8
1
100
AcDbLine
 10
8.767036
 20
0.6774020000000001
 30
0.0
 11
8.750591
 21
0.6691279999999999
 31
0.0
  0
LINE
  5
28E
330
4B8
100
AcDbEntity
  8
1
100
AcDbLine
 10
8.750591
 20
0.6691279999999999
 30
0.0
 11
8.732603999999998
 21
0.6606760000000001
 31
0.0
  0
LINE
  5
28F
330
4B8
100
AcDbEntity
  8
1
100
AcDbLine
 10
8.732603999999998
 20
0.6606760000000001
 30
0.0
 11
8.713057
 21
0.6520920000000001
 31
0.0
  0
LINE
  5
290
330
4B8
100
AcDbEntity
  8
1
100
AcDbLine
 10
8.713057
 20
0.6520920000000001
 30
0.0
 11
8.691971
 21
0.643412
 31
0.0
  0
LINE
  5
291
330
4B8
100
AcDbEntity
  8
1
100
AcDbLine
 10
8.691971
 20
0.643412
 30
0.0
 11
8.669325999999999
 21
0.6346569999999999
 31
0.0
  0
LINE
  5
292
330
4B8
100
AcDbEntity
  8
1
100
AcDbLine
 10
8.669325999999999
 20
0.6346569999999999
 30
0.0
 11
8.645097999999999
 21
0.6258720000000001
 31
0.0
  0
LINE
  5
293
330
4B8
100
AcDbEntity
  8
1
100
AcDbLine
 10
8.645097999999999
 20
0.6258720000000001
 30
0.0
 11
8.619324
 21
0.6171020000000001
 31
0.0
  0
LINE
  5
294
330
4B8
100
AcDbEntity
  8
1
100
AcDbLine
 10
8.619324
 20
0.6171020000000001
 30
0.0
 11
8.592002
 21
0.6083720000000001
 31
0.0
  0
LINE
  5
295
330
4B8
100
AcDbEntity
  8
1
100
AcDbLine
 10
8.592002
 20
0.6083720000000001
 30
0.0
 11
8.563102999999999
 21
0.5997100000000001
 31
0.0
  0
LINE
  5
296
330
4B8
100
AcDbEntity
  8
1
100
AcDbLine
 10
8.563102999999999
 20
0.5997100000000001
 30
0.0
 11
8.532619999999999
 21
0.591158
 31
0.0
  0
LINE
  5
297
330
4B8
100
AcDbEntity
  8
1
100
AcDbLine
 10
8.532619999999999
 20
0.591158
 30
0.0
 11
8.500507999999999
 21
0.5827270000000001
 31
0.0
  0
LINE
  5
298
330
4B8
100
AcDbEntity
  8
1
100
AcDbLine
 10
8.500507999999999
 20
0.5827270000000001
 30
0.0
 11
8.466787
 21
0.574457
 31
0.0
  0
LINE
  5
299
330
4B8
100
AcDbEntity
  8
1
100
AcDbLine
 10
8.466787
 20
0.574457
 30
0.0
 11
8.431546
 21
0.566426
 31
0.0
  0
LINE
  5
29A
330
4B8
100
AcDbEntity
  8
1
100
AcDbLine
 10
8.431546
 20
0.566426
 30
0.0
 11
8.394769999999999
 21
0.558643
 31
0.0
  0
LINE
  5
29B
330
4B8
100
AcDbEntity
  8
1
100
AcDbLine
 10
8.394769999999999
 20
0.558643
 30
0.0
 11
8.356466000000001
 21
0.551132
 31
0.0
  0
LINE
  5
29C
330
4B8
100
AcDbEntity
  8
1
100
AcDbLine
 10
8.356466000000001
 20
0.551132
 30
0.0
 11
8.316762999999999
 21
0.5439880000000001
 31
0.0
  0
LINE
  5
29D
330
4B8
100
AcDbEntity
  8
1
100
AcDbLine
 10
8.316762999999999
 20
0.5439880000000001
 30
0.0
 11
8.275600999999999
 21
0.5372010000000001
 31
0.0
  0
LINE
  5
29E
330
4B8
100
AcDbEntity
  8
1
100
AcDbLine
 10
8.275600999999999
 20
0.5372010000000001
 30
0.0
 11
8.233048
 21
0.5307940000000001
 31
0.0
  0
LINE
  5
29F
330
4B8
100
AcDbEntity
  8
1
100
AcDbLine
 10
8.233048
 20
0.5307940000000001
 30
0.0
 11
8.189442999999998
 21
0.524895
 31
0.0
  0
LINE
  5
2A0
330
4B8
100
AcDbEntity
  8
1
100
AcDbLine
 10
8.189442999999998
 20
0.524895
 30
0.0
 11
8.144828
 21
0.5194880000000001
 31
0.0
  0
LINE
  5
2A1
330
4B8
100
AcDbEntity
  8
1
100
AcDbLine
 10
8.144828
 20
0.5194880000000001
 30
0.0
 11
8.099199999999999
 21
0.514563
 31
0.0
  0
LINE
  5
2A2
330
4B8
100
AcDbEntity
  8
1
100
AcDbLine
 10
8.099199999999999
 20
0.514563
 30
0.0
 11
8.052846999999999
 21
0.5102190000000001
 31
0.0
  0
LINE
  5
2A3
330
4B8
100
AcDbEntity
  8
1
100
AcDbLine
 10
8.052846999999999
 20
0.5102190000000001
 30
0.0
 11
8.005807
 21
0.506436
 31
0.0
  0
LINE
  5
2A4
330
4B8
100
AcDbEntity
  8
1
100
AcDbLine
 10
8.005807
 20
0.506436
 30
0.0
 11
7.958097
 21
0.503184
 31
0.0
  0
LINE
  5
2A5
330
4B8
100
AcDbEntity
  8
1
100
AcDbLine
 10
7.958097
 20
0.503184
 30
0.0
 11
7.909988
 21
0.5005430000000001
 31
0.0
  0
LINE
  5
2A6
330
4B8
100
AcDbEntity
  8
1
100
AcDbLine
 10
7.909988
 20
0.5005430000000001
 30
0.0
 11
7.861527
 21
0.498485
 31
0.0
  0
LINE
  5
2A7
330
4B8
100
AcDbEntity
  8
1
100
AcDbLine
 10
7.861527
 20
0.498485
 30
0.0
 11
7.812732
 21
0.4969680000000001
 31
0.0
  0
LINE
  5
2A8
330
4B8
100
AcDbEntity
  8
1
100
AcDbLine
 10
7.812732
 20
0.4969680000000001
 30
0.0
 11
7.76383
 21
0.496049
 31
0.0
  0
LINE
  5
2A9
330
4B8
100
AcDbEntity
  8
1
100
AcDbLine
 10
7.76383
 20
0.496049
 30
0.0
 11
7.714889
 21
0.495694
 31
0.0
  0
LINE
  5
2AA
330
4B8
100
AcDbEntity
  8
1
100
AcDbLine
 10
7.714889
 20
0.495694
 30
0.0
 11
7.665911
 21
0.495857
 31
0.0
  0
LINE
  5
2AB
330
4B8
100
AcDbEntity
  8
1
100
AcDbLine
 10
7.665911
 20
0.495857
 30
0.0
 11
7.617021
 21
0.496574
 31
0.0
  0
LINE
  5
2AC
330
4B8
100
AcDbEntity
  8
1
100
AcDbLine
 10
7.617021
 20
0.496574
 30
0.0
 11
7.568250999999999
 21
0.497809
 31
0.0
  0
LINE
  5
2AD
330
4B8
100
AcDbEntity
  8
1
100
AcDbLine
 10
7.568250999999999
 20
0.497809
 30
0.0
 11
7.519638999999999
 21
0.49952
 31
0.0
  0
LINE
  5
2AE
330
4B8
100
AcDbEntity
  8
1
100
AcDbLine
 10
7.519638999999999
 20
0.49952
 30
0.0
 11
7.471324
 21
0.501724
 31
0.0
  0
LINE
  5
2AF
330
4B8
100
AcDbEntity
  8
1
100
AcDbLine
 10
7.471324
 20
0.501724
 30
0.0
 11
7.423372
 21
0.504404
 31
0.0
  0
LINE
  5
2B0
330
4B8
100
AcDbEntity
  8
1
100
AcDbLine
 10
7.423372
 20
0.504404
 30
0.0
 11
7.375783999999999
 21
0.507498
 31
0.0
  0
LINE
  5
2B1
330
4B8
100
AcDbEntity
  8
1
100
AcDbLine
 10
7.375783999999999
 20
0.507498
 30
0.0
 11
7.328591
 21
0.5109670000000001
 31
0.0
  0
LINE
  5
2B2
330
4B8
100
AcDbEntity
  8
1
100
AcDbLine
 10
7.205772
 20
1.736479
 30
0.0
 11
7.235217999999999
 21
1.763061999999999
 31
0.0
  0
LINE
  5
2B3
330
4B8
100
AcDbEntity
  8
1
100
AcDbLine
 10
7.235217999999999
 20
1.763061999999999
 30
0.0
 11
7.267663999999999
 21
1.790259999999999
 31
0.0
  0
LINE
  5
2B4
330
4B8
100
AcDbEntity
  8
1
100
AcDbLine
 10
7.267663999999999
 20
1.790259999999999
 30
0.0
 11
7.302192999999999
 21
1.816959999999999
 31
0.0
  0
LINE
  5
2B5
330
4B8
100
AcDbEntity
  8
1
100
AcDbLine
 10
7.302192999999999
 20
1.816959999999999
 30
0.0
 11
7.338847999999999
 21
1.843175999999999
 31
0.0
  0
LINE
  5
2B6
330
4B8
100
AcDbEntity
  8
1
100
AcDbLine
 10
7.338847999999999
 20
1.843175999999999
 30
0.0
 11
7.37761
 21
1.868946
 31
0.0
  0
LINE
  5
2B7
330
4B8
100
AcDbEntity
  8
1
100
AcDbLine
 10
7.37761
 20
1.868946
 30
0.0
 11
7.418371999999999
 21
1.894031999999999
 31
0.0
  0
LINE
  5
2B8
330
4B8
100
AcDbEntity
  8
1
100
AcDbLine
 10
7.418371999999999
 20
1.894031999999999
 30
0.0
 11
7.461138
 21
1.918431
 31
0.0
  0
LINE
  5
2B9
330
4B8
100
AcDbEntity
  8
1
100
AcDbLine
 10
7.461138
 20
1.918431
 30
0.0
 11
7.505921999999999
 21
1.942195999999999
 31
0.0
  0
LINE
  5
2BA
330
4B8
100
AcDbEntity
  8
1
100
AcDbLine
 10
7.505921999999999
 20
1.942195999999999
 30
0.0
 11
7.552636999999999
 21
1.965163999999999
 31
0.0
  0
LINE
  5
2BB
330
4B8
100
AcDbEntity
  8
1
100
AcDbLine
 10
7.552636999999999
 20
1.965163999999999
 30
0.0
 11
7.60128
 21
1.987349
 31
0.0
  0
LINE
  5
2BC
330
4B8
100
AcDbEntity
  8
1
100
AcDbLine
 10
7.60128
 20
1.987349
 30
0.0
 11
7.651867999999999
 21
2.008786999999999
 31
0.0
  0
LINE
  5
2BD
330
4B8
100
AcDbEntity
  8
1
100
AcDbLine
 10
7.651867999999999
 20
2.008786999999999
 30
0.0
 11
7.704332
 21
2.029341
 31
0.0
  0
LINE
  5
2BE
330
4B8
100
AcDbEntity
  8
1
100
AcDbLine
 10
7.704332
 20
2.029341
 30
0.0
 11
7.758846000000001
 21
2.049068999999999
 31
0.0
  0
LINE
  5
2BF
330
4B8
100
AcDbEntity
  8
1
100
AcDbLine
 10
7.758846000000001
 20
2.049068999999999
 30
0.0
 11
7.815244999999999
 21
2.067965
 31
0.0
  0
LINE
  5
2C0
330
4B8
100
AcDbEntity
  8
1
100
AcDbLine
 10
7.815244999999999
 20
2.067965
 30
0.0
 11
7.872955
 21
2.085773
 31
0.0
  0
LINE
  5
2C1
330
4B8
100
AcDbEntity
  8
1
100
AcDbLine
 10
7.872955
 20
2.085773
 30
0.0
 11
7.932141999999999
 21
2.102482
 31
0.0
  0
LINE
  5
2C2
330
4B8
100
AcDbEntity
  8
1
100
AcDbLine
 10
7.932141999999999
 20
2.102482
 30
0.0
 11
7.992633999999999
 21
2.118129
 31
0.0
  0
LINE
  5
2C3
330
4B8
100
AcDbEntity
  8
1
100
AcDbLine
 10
7.992633999999999
 20
2.118129
 30
0.0
 11
8.053328
 21
2.132495999999999
 31
0.0
  0
LINE
  5
2C4
330
4B8
100
AcDbEntity
  8
1
100
AcDbLine
 10
8.053328
 20
2.132495999999999
 30
0.0
 11
8.114163000000001
 21
2.145488
 31
0.0
  0
LINE
  5
2C5
330
4B8
100
AcDbEntity
  8
1
100
AcDbLine
 10
8.114163000000001
 20
2.145488
 30
0.0
 11
8.175175999999998
 21
2.157175
 31
0.0
  0
LINE
  5
2C6
330
4B8
100
AcDbEntity
  8
1
100
AcDbLine
 10
8.175175999999998
 20
2.157175
 30
0.0
 11
8.235400999999999
 21
2.167565999999999
 31
0.0
  0
LINE
  5
2C7
330
4B8
100
AcDbEntity
  8
1
100
AcDbLine
 10
8.235400999999999
 20
2.167565999999999
 30
0.0
 11
8.294745999999999
 21
2.176572999999999
 31
0.0
  0
LINE
  5
2C8
330
4B8
100
AcDbEntity
  8
1
100
AcDbLine
 10
8.294745999999999
 20
2.176572999999999
 30
0.0
 11
8.353274
 21
2.184225
 31
0.0
  0
LINE
  5
2C9
330
4B8
100
AcDbEntity
  8
1
100
AcDbLine
 10
8.353274
 20
2.184225
 30
0.0
 11
8.410232
 21
2.190677999999999
 31
0.0
  0
LINE
  5
2CA
330
4B8
100
AcDbEntity
  8
1
100
AcDbLine
 10
8.410232
 20
2.190677999999999
 30
0.0
 11
8.465486999999999
 21
2.195861999999999
 31
0.0
  0
LINE
  5
2CB
330
4B8
100
AcDbEntity
  8
1
100
AcDbLine
 10
8.465486999999999
 20
2.195861999999999
 30
0.0
 11
8.519146
 21
2.199774
 31
0.0
  0
LINE
  5
2CC
330
4B8
100
AcDbEntity
  8
1
100
AcDbLine
 10
8.519146
 20
2.199774
 30
0.0
 11
8.570821999999999
 21
2.202659999999999
 31
0.0
  0
LINE
  5
2CD
330
4B8
100
AcDbEntity
  8
1
100
AcDbLine
 10
8.570821999999999
 20
2.202659999999999
 30
0.0
 11
8.620321
 21
2.204486
 31
0.0
  0
LINE
  5
2CE
330
4B8
100
AcDbEntity
  8
1
100
AcDbLine
 10
8.620321
 20
2.204486
 30
0.0
 11
8.667817999999998
 21
2.205216999999999
 31
0.0
  0
LINE
  5
2CF
330
4B8
100
AcDbEntity
  8
1
100
AcDbLine
 10
8.667817999999998
 20
2.205216999999999
 30
0.0
 11
8.713485
 21
2.205093999999999
 31
0.0
  0
LINE
  5
2D0
330
4B8
100
AcDbEntity
  8
1
100
AcDbLine
 10
8.713485
 20
2.205093999999999
 30
0.0
 11
8.757277999999999
 21
2.204124999999999
 31
0.0
  0
LINE
  5
2D1
330
4B8
100
AcDbEntity
  8
1
100
AcDbLine
 10
8.757277999999999
 20
2.204124999999999
 30
0.0
 11
8.799228999999998
 21
2.202249
 31
0.0
  0
LINE
  5
2D2
330
4B8
100
AcDbEntity
  8
1
100
AcDbLine
 10
8.799228999999998
 20
2.202249
 30
0.0
 11
8.839634
 21
2.199622
 31
0.0
  0
LINE
  5
2D3
330
4B8
100
AcDbEntity
  8
1
100
AcDbLine
 10
8.839634
 20
2.199622
 30
0.0
 11
8.878529999999999
 21
2.196251999999999
 31
0.0
  0
LINE
  5
2D4
330
4B8
100
AcDbEntity
  8
1
100
AcDbLine
 10
8.878529999999999
 20
2.196251999999999
 30
0.0
 11
8.915872
 21
2.192091
 31
0.0
  0
LINE
  5
2D5
330
4B8
100
AcDbEntity
  8
1
100
AcDbLine
 10
8.915872
 20
2.192091
 30
0.0
 11
8.951836
 21
2.187231
 31
0.0
  0
LINE
  5
2D6
330
4B8
100
AcDbEntity
  8
1
100
AcDbLine
 10
8.951836
 20
2.187231
 30
0.0
 11
8.986508
 21
2.181649
 31
0.0
  0
LINE
  5
2D7
330
4B8
100
AcDbEntity
  8
1
100
AcDbLine
 10
8.986508
 20
2.181649
 30
0.0
 11
9.019797
 21
2.175337999999999
 31
0.0
  0
LINE
  5
2D8
330
4B8
100
AcDbEntity
  8
1
100
AcDbLine
 10
9.019797
 20
2.175337999999999
 30
0.0
 11
9.051614999999999
 21
2.168413999999999
 31
0.0
  0
LINE
  5
2D9
330
4B8
100
AcDbEntity
  8
1
100
AcDbLine
 10
9.051614999999999
 20
2.168413999999999
 30
0.0
 11
9.081908999999999
 21
2.160868999999999
 31
0.0
  0
LINE
  5
2DA
330
4B8
100
AcDbEntity
  8
1
100
AcDbLine
 10
9.081908999999999
 20
2.160868999999999
 30
0.0
 11
9.11073
 21
2.152686999999999
 31
0.0
  0
LINE
  5
2DB
330
4B8
100
AcDbEntity
  8
1
100
AcDbLine
 10
9.11073
 20
2.152686999999999
 30
0.0
 11
9.138135
 21
2.143972999999999
 31
0.0
  0
LINE
  5
2DC
330
4B8
100
AcDbEntity
  8
1
100
AcDbLine
 10
9.138135
 20
2.143972999999999
 30
0.0
 11
9.164101999999999
 21
2.134729
 31
0.0
  0
LINE
  5
2DD
330
4B8
100
AcDbEntity
  8
1
100
AcDbLine
 10
9.164101999999999
 20
2.134729
 30
0.0
 11
9.188653
 21
2.124931999999999
 31
0.0
  0
LINE
  5
2DE
330
4B8
100
AcDbEntity
  8
1
100
AcDbLine
 10
9.188653
 20
2.124931999999999
 30
0.0
 11
9.211918999999999
 21
2.114654
 31
0.0
  0
LINE
  5
2DF
330
4B8
100
AcDbEntity
  8
1
100
AcDbLine
 10
9.211918999999999
 20
2.114654
 30
0.0
 11
9.233943
 21
2.103863999999999
 31
0.0
  0
LINE
  5
2E0
330
4B8
100
AcDbEntity
  8
1
100
AcDbLine
 10
9.233943
 20
2.103863999999999
 30
0.0
 11
9.254682
 21
2.092579999999999
 31
0.0
  0
LINE
  5
2E1
330
4B8
100
AcDbEntity
  8
1
100
AcDbLine
 10
9.254682
 20
2.092579999999999
 30
0.0
 11
9.274143999999999
 21
2.08095
 31
0.0
  0
LINE
  5
2E2
330
4B8
100
AcDbEntity
  8
1
100
AcDbLine
 10
9.274143999999999
 20
2.08095
 30
0.0
 11
9.292289999999999
 21
2.068979999999999
 31
0.0
  0
LINE
  5
2E3
330
4B8
100
AcDbEntity
  8
1
100
AcDbLine
 10
9.292289999999999
 20
2.068979999999999
 30
0.0
 11
9.309158
 21
2.056652
 31
0.0
  0
LINE
  5
2E4
330
4B8
100
AcDbEntity
  8
1
100
AcDbLine
 10
9.309158
 20
2.056652
 30
0.0
 11
9.324875
 21
2.044077
 31
0.0
  0
LINE
  5
2E5
330
4B8
100
AcDbEntity
  8
1
100
AcDbLine
 10
9.324875
 20
2.044077
 30
0.0
 11
9.339482999999999
 21
2.031287999999999
 31
0.0
  0
LINE
  5
2E6
330
4B8
100
AcDbEntity
  8
1
100
AcDbLine
 10
9.339482999999999
 20
2.031287999999999
 30
0.0
 11
9.352938999999999
 21
2.018243999999999
 31
0.0
  0
LINE
  5
2E7
330
4B8
100
AcDbEntity
  8
1
100
AcDbLine
 10
9.352938999999999
 20
2.018243999999999
 30
0.0
 11
9.365244
 21
2.004944
 31
0.0
  0
LINE
  5
2E8
330
4B8
100
AcDbEntity
  8
1
100
AcDbLine
 10
9.745649999999999
 20
0.9318839999999999
 30
0.0
 11
9.586565999999999
 21
0.885743
 31
0.0
  0
LINE
  5
2E9
330
4B8
100
AcDbEntity
  8
1
100
AcDbLine
 10
9.586565999999999
 20
0.885743
 30
0.0
 11
9.427605999999999
 21
0.8421049999999999
 31
0.0
  0
LINE
  5
2EA
330
4B8
100
AcDbEntity
  8
1
100
AcDbLine
 10
9.427605999999999
 20
0.8421049999999999
 30
0.0
 11
9.268893999999999
 21
0.8010049999999999
 31
0.0
  0
LINE
  5
2EB
330
4B8
100
AcDbEntity
  8
1
100
AcDbLine
 10
9.268893999999999
 20
0.8010049999999999
 30
0.0
 11
9.110552
 21
0.7624750000000001
 31
0.0
  0
LINE
  5
2EC
330
4B8
100
AcDbEntity
  8
1
100
AcDbLine
 10
9.110552
 20
0.7624750000000001
 30
0.0
 11
8.952702999999999
 21
0.726546
 31
0.0
  0
LINE
  5
2ED
330
4B8
100
AcDbEntity
  8
1
100
AcDbLine
 10
8.952702999999999
 20
0.726546
 30
0.0
 11
8.795471
 21
0.693243
 31
0.0
  0
LINE
  5
2EE
330
4B8
100
AcDbEntity
  8
1
100
AcDbLine
 10
10.246061
 20
10.815497
 30
0.0
 11
10.095546
 21
10.79876
 31
0.0
  0
LINE
  5
2EF
330
4B8
100
AcDbEntity
  8
1
100
AcDbLine
 10
10.095546
 20
10.79876
 30
0.0
 11
9.944072999999999
 21
10.783775
 31
0.0
  0
LINE
  5
2F0
330
4B8
100
AcDbEntity
  8
1
100
AcDbLine
 10
9.944072999999999
 20
10.783775
 30
0.0
 11
9.791641999999999
 21
10.770569
 31
0.0
  0
LINE
  5
2F1
330
4B8
100
AcDbEntity
  8
1
100
AcDbLine
 10
9.791641999999999
 20
10.770569
 30
0.0
 11
9.638260999999999
 21
10.759198
 31
0.0
  0
LINE
  5
2F2
330
4B8
100
AcDbEntity
  8
1
100
AcDbLine
 10
9.638260999999999
 20
10.759198
 30
0.0
 11
9.483921
 21
10.749651
 31
0.0
  0
LINE
  5
2F3
330
4B8
100
AcDbEntity
  8
1
100
AcDbLine
 10
9.483921
 20
10.749651
 30
0.0
 11
9.328602
 21
10.741836
 31
0.0
  0
LINE
  5
2F4
330
4B8
100
AcDbEntity
  8
1
100
AcDbLine
 10
9.328602
 20
10.741836
 30
0.0
 11
9.172323999999999
 21
10.735765
 31
0.0
  0
LINE
  5
2F5
330
4B8
100
AcDbEntity
  8
1
100
AcDbLine
 10
9.172323999999999
 20
10.735765
 30
0.0
 11
9.015064999999999
 21
10.731449
 31
0.0
  0
LINE
  5
2F6
330
4B8
100
AcDbEntity
  8
1
100
AcDbLine
 10
9.015064999999999
 20
10.731449
 30
0.0
 11
8.856742
 21
10.728799
 31
0.0
  0
LINE
  5
2F7
330
4B8
100
AcDbEntity
  8
1
100
AcDbLine
 10
8.856742
 20
10.728799
 30
0.0
 11
8.697461
 21
10.727809
 31
0.0
  0
LINE
  5
2F8
330
4B8
100
AcDbEntity
  8
1
100
AcDbLine
 10
8.697461
 20
10.727809
 30
0.0
 11
8.537116000000001
 21
10.72849
 31
0.0
  0
LINE
  5
2F9
330
4B8
100
AcDbEntity
  8
1
100
AcDbLine
 10
8.537116000000001
 20
10.72849
 30
0.0
 11
8.375291999999999
 21
10.730772
 31
0.0
  0
LINE
  5
2FA
330
4B8
100
AcDbEntity
  8
1
100
AcDbLine
 10
8.375291999999999
 20
10.730772
 30
0.0
 11
8.211937999999999
 21
10.734643
 31
0.0
  0
LINE
  5
2FB
330
4B8
100
AcDbEntity
  8
1
100
AcDbLine
 10
8.211937999999999
 20
10.734643
 30
0.0
 11
8.047107
 21
10.740105
 31
0.0
  0
LINE
  5
2FC
330
4B8
100
AcDbEntity
  8
1
100
AcDbLine
 10
8.047107
 20
10.740105
 30
0.0
 11
7.880546
 21
10.747116
 31
0.0
  0
LINE
  5
2FD
330
4B8
100
AcDbEntity
  8
1
100
AcDbLine
 10
7.880546
 20
10.747116
 30
0.0
 11
7.712222999999999
 21
10.755662
 31
0.0
  0
LINE
  5
2FE
330
4B8
100
AcDbEntity
  8
1
100
AcDbLine
 10
7.712222999999999
 20
10.755662
 30
0.0
 11
7.542171
 21
10.765736
 31
0.0
  0
LINE
  5
2FF
330
4B8
100
AcDbEntity
  8
1
100
AcDbLine
 10
7.542171
 20
10.765736
 30
0.0
 11
7.370233999999999
 21
10.777295
 31
0.0
  0
LINE
  5
300
330
4B8
100
AcDbEntity
  8
1
100
AcDbLine
 10
7.370233999999999
 20
10.777295
 30
0.0
 11
7.196463999999999
 21
10.790316
 31
0.0
  0
LINE
  5
301
330
4B8
100
AcDbEntity
  8
1
100
AcDbLine
 10
7.196463999999999
 20
10.790316
 30
0.0
 11
7.020808999999999
 21
10.804788
 31
0.0
  0
LINE
  5
302
330
4B8
100
AcDbEntity
  8
1
100
AcDbLine
 10
7.020808999999999
 20
10.804788
 30
0.0
 11
6.84296
 21
10.820691
 31
0.0
  0
LINE
  5
303
330
4B8
100
AcDbEntity
  8
1
100
AcDbLine
 10
6.84296
 20
10.820691
 30
0.0
 11
6.662942
 21
10.837989
 31
0.0
  0
LINE
  5
304
330
4B8
100
AcDbEntity
  8
1
100
AcDbLine
 10
6.662942
 20
10.837989
 30
0.0
 11
6.480729
 21
10.85667
 31
0.0
  0
LINE
  5
305
330
4B8
100
AcDbEntity
  8
1
100
AcDbLine
 10
6.480729
 20
10.85667
 30
0.0
 11
6.295937999999999
 21
10.876727
 31
0.0
  0
LINE
  5
306
330
4B8
100
AcDbEntity
  8
1
100
AcDbLine
 10
6.295937999999999
 20
10.876727
 30
0.0
 11
6.108437
 21
10.898138
 31
0.0
  0
LINE
  5
307
330
4B8
100
AcDbEntity
  8
1
100
AcDbLine
 10
6.108437
 20
10.898138
 30
0.0
 11
5.918357
 21
10.920863
 31
0.0
  0
LINE
  5
308
330
4B8
100
AcDbEntity
  8
1
100
AcDbLine
 10
5.918357
 20
10.920863
 30
0.0
 11
5.725698
 21
10.944867
 31
0.0
  0
LINE
  5
309
330
4B8
100
AcDbEntity
  8
1
100
AcDbLine
 10
8.391548
 20
7.813494999999999
 30
0.0
 11
8.262007999999999
 21
7.778817999999999
 31
0.0
  0
LINE
  5
30A
330
4B8
100
AcDbEntity
  8
1
100
AcDbLine
 10
8.262007999999999
 20
7.778817999999999
 30
0.0
 11
7.510599
 21
7.574836
 31
0.0
  0
LINE
  5
30B
330
4B8
100
AcDbEntity
  8
1
100
AcDbLine
 10
7.510599
 20
7.574836
 30
0.0
 11
6.75583
 21
7.367108999999999
 31
0.0
  0
LINE
  5
30C
330
4B8
100
AcDbEntity
  8
1
100
AcDbLine
 10
6.75583
 20
7.367108999999999
 30
0.0
 11
5.997762999999999
 21
7.155667999999999
 31
0.0
  0
LINE
  5
30D
330
4B8
100
AcDbEntity
  8
1
100
AcDbLine
 10
5.997762999999999
 20
7.155667999999999
 30
0.0
 11
5.238012
 21
6.940935999999999
 31
0.0
  0
LINE
  5
30E
330
4B8
100
AcDbEntity
  8
1
100
AcDbLine
 10
5.238012
 20
6.940935999999999
 30
0.0
 11
4.477113
 21
6.723057999999999
 31
0.0
  0
LINE
  5
30F
330
4B8
100
AcDbEntity
  8
1
100
AcDbLine
 10
4.477113
 20
6.723057999999999
 30
0.0
 11
3.71453
 21
6.501891
 31
0.0
  0
LINE
  5
310
330
4B8
100
AcDbEntity
  8
1
100
AcDbLine
 10
3.71453
 20
6.501891
 30
0.0
 11
2.950262999999999
 21
6.277433999999999
 31
0.0
  0
LINE
  5
311
330
4B8
100
AcDbEntity
  8
1
100
AcDbLine
 10
7.891547999999999
 20
6.161992999999999
 30
0.0
 11
7.725378
 21
6.113858999999999
 31
0.0
  0
LINE
  5
312
330
4B8
100
AcDbEntity
  8
1
100
AcDbLine
 10
7.725378
 20
6.113858999999999
 30
0.0
 11
7.559628
 21
6.068525
 31
0.0
  0
LINE
  5
313
330
4B8
100
AcDbEntity
  8
1
100
AcDbLine
 10
7.559628
 20
6.068525
 30
0.0
 11
7.394299
 21
6.025987999999999
 31
0.0
  0
LINE
  5
314
330
4B8
100
AcDbEntity
  8
1
100
AcDbLine
 10
7.394299
 20
6.025987999999999
 30
0.0
 11
7.229250999999999
 21
5.986219999999999
 31
0.0
  0
LINE
  5
315
330
4B8
100
AcDbEntity
  8
1
100
AcDbLine
 10
7.229250999999999
 20
5.986219999999999
 30
0.0
 11
7.064622999999999
 21
5.94925
 31
0.0
  0
LINE
  5
316
330
4B8
100
AcDbEntity
  8
1
100
AcDbLine
 10
7.064622999999999
 20
5.94925
 30
0.0
 11
6.900833
 21
5.915173
 31
0.0
  0
LINE
  5
317
330
4B8
100
AcDbEntity
  8
1
100
AcDbLine
 10
6.900833
 20
5.915173
 30
0.0
 11
6.737882
 21
5.883995999999999
 31
0.0
  0
LINE
  5
318
330
4B8
100
AcDbEntity
  8
1
100
AcDbLine
 10
6.737882
 20
5.883995999999999
 30
0.0
 11
6.575769
 21
5.855711
 31
0.0
  0
LINE
  5
319
330
4B8
100
AcDbEntity
  8
1
100
AcDbLine
 10
6.575769
 20
5.855711
 30
0.0
 11
6.414903999999999
 21
5.83039
 31
0.0
  0
LINE
  5
31A
330
4B8
100
AcDbEntity
  8
1
100
AcDbLine
 10
6.414903999999999
 20
5.83039
 30
0.0
 11
6.25529
 21
5.808041
 31
0.0
  0
LINE
  5
31B
330
4B8
100
AcDbEntity
  8
1
100
AcDbLine
 10
6.25529
 20
5.808041
 30
0.0
 11
6.096924999999999
 21
5.788656999999999
 31
0.0
  0
LINE
  5
31C
330
4B8
100
AcDbEntity
  8
1
100
AcDbLine
 10
6.096924999999999
 20
5.788656999999999
 30
0.0
 11
5.940208999999999
 21
5.772285
 31
0.0
  0
LINE
  5
31D
330
4B8
100
AcDbEntity
  8
1
100
AcDbLine
 10
5.940208999999999
 20
5.772285
 30
0.0
 11
5.785147
 21
5.758933999999999
 31
0.0
  0
LINE
  5
31E
330
4B8
100
AcDbEntity
  8
1
100
AcDbLine
 10
5.785147
 20
5.758933999999999
 30
0.0
 11
5.631733999999999
 21
5.748597
 31
0.0
  0
LINE
  5
31F
330
4B8
100
AcDbEntity
  8
1
100
AcDbLine
 10
5.631733999999999
 20
5.748597
 30
0.0
 11
5.48036
 21
5.741298999999999
 31
0.0
  0
LINE
  5
320
330
4B8
100
AcDbEntity
  8
1
100
AcDbLine
 10
5.48036
 20
5.741298999999999
 30
0.0
 11
5.331029
 21
5.737048
 31
0.0
  0
LINE
  5
321
330
4B8
100
AcDbEntity
  8
1
100
AcDbLine
 10
5.331029
 20
5.737048
 30
0.0
 11
5.183735999999999
 21
5.735837
 31
0.0
  0
LINE
  5
322
330
4B8
100
AcDbEntity
  8
1
100
AcDbLine
 10
5.183735999999999
 20
5.735837
 30
0.0
 11
5.038853999999999
 21
5.737668
 31
0.0
  0
LINE
  5
323
330
4B8
100
AcDbEntity
  8
1
100
AcDbLine
 10
5.038853999999999
 20
5.737668
 30
0.0
 11
4.89639
 21
5.742549999999999
 31
0.0
  0
LINE
  5
324
330
4B8
100
AcDbEntity
  8
1
100
AcDbLine
 10
4.89639
 20
5.742549999999999
 30
0.0
 11
4.756337999999999
 21
5.750474999999999
 31
0.0
  0
LINE
  5
325
330
4B8
100
AcDbEntity
  8
1
100
AcDbLine
 10
4.756337999999999
 20
5.750474999999999
 30
0.0
 11
4.619050999999999
 21
5.761422
 31
0.0
  0
LINE
  5
326
330
4B8
100
AcDbEntity
  8
1
100
AcDbLine
 10
4.619050999999999
 20
5.761422
 30
0.0
 11
4.484537999999999
 21
5.775398
 31
0.0
  0
LINE
  5
327
330
4B8
100
AcDbEntity
  8
1
100
AcDbLine
 10
4.484537999999999
 20
5.775398
 30
0.0
 11
4.352791999999999
 21
5.792398
 31
0.0
  0
LINE
  5
328
330
4B8
100
AcDbEntity
  8
1
100
AcDbLine
 10
4.352791999999999
 20
5.792398
 30
0.0
 11
4.224145
 21
5.812376
 31
0.0
  0
LINE
  5
329
330
4B8
100
AcDbEntity
  8
1
100
AcDbLine
 10
4.224145
 20
5.812376
 30
0.0
 11
4.098606
 21
5.835341999999999
 31
0.0
  0
LINE
  5
32A
330
4B8
100
AcDbEntity
  8
1
100
AcDbLine
 10
4.098606
 20
5.835341999999999
 30
0.0
 11
3.976167999999999
 21
5.861286999999999
 31
0.0
  0
LINE
  5
32B
330
4B8
100
AcDbEntity
  8
1
100
AcDbLine
 10
3.976167999999999
 20
5.861286999999999
 30
0.0
 11
3.85714
 21
5.890145999999999
 31
0.0
  0
LINE
  5
32C
330
4B8
100
AcDbEntity
  8
1
100
AcDbLine
 10
3.85714
 20
5.890145999999999
 30
0.0
 11
3.74153
 21
5.921924999999999
 31
0.0
  0
LINE
  5
32D
330
4B8
100
AcDbEntity
  8
1
100
AcDbLine
 10
3.74153
 20
5.921924999999999
 30
0.0
 11
3.629330999999999
 21
5.956618999999999
 31
0.0
  0
LINE
  5
32E
330
4B8
100
AcDbEntity
  8
1
100
AcDbLine
 10
3.629330999999999
 20
5.956618999999999
 30
0.0
 11
3.520826999999999
 21
5.994137999999999
 31
0.0
  0
LINE
  5
32F
330
4B8
100
AcDbEntity
  8
1
100
AcDbLine
 10
3.520826999999999
 20
5.994137999999999
 30
0.0
 11
3.416026999999999
 21
6.034491
 31
0.0
  0
LINE
  5
330
330
4B8
100
AcDbEntity
  8
1
100
AcDbLine
 10
3.416026999999999
 20
6.034491
 30
0.0
 11
3.314921
 21
6.077669
 31
0.0
  0
LINE
  5
331
330
4B8
100
AcDbEntity
  8
1
100
AcDbLine
 10
3.314921
 20
6.077669
 30
0.0
 11
3.217766
 21
6.123562999999999
 31
0.0
  0
LINE
  5
332
330
4B8
100
AcDbEntity
  8
1
100
AcDbLine
 10
3.217766
 20
6.123562999999999
 30
0.0
 11
3.124648
 21
6.172136
 31
0.0
  0
LINE
  5
333
330
4B8
100
AcDbEntity
  8
1
100
AcDbLine
 10
3.124648
 20
6.172136
 30
0.0
 11
3.035479999999999
 21
6.223427
 31
0.0
  0
LINE
  5
334
330
4B8
100
AcDbEntity
  8
1
100
AcDbLine
 10
3.035479999999999
 20
6.223427
 30
0.0
 11
2.950262999999999
 21
6.277433999999999
 31
0.0
  0
LINE
  5
335
330
4B8
100
AcDbEntity
  8
1
100
AcDbLine
 10
5.587220999999999
 20
11.031432
 30
0.0
 11
5.043319999999999
 21
11.375165
 31
0.0
  0
LINE
  5
336
330
4B8
100
AcDbEntity
  8
1
100
AcDbLine
 10
5.725698
 20
10.944867
 30
0.0
 11
5.587220999999999
 21
11.031432
 31
0.0
  0
LINE
  5
337
330
4B8
100
AcDbEntity
  8
1
100
AcDbLine
 10
8.611062999999999
 20
7.958008999999999
 30
0.0
 11
8.625918999999999
 21
7.879894
 31
0.0
  0
LINE
  5
338
330
4B8
100
AcDbEntity
  8
1
100
AcDbLine
 10
8.625918999999999
 20
7.879894
 30
0.0
 11
8.645405999999999
 21
7.802224
 31
0.0
  0
LINE
  5
339
330
4B8
100
AcDbEntity
  8
1
100
AcDbLine
 10
8.645405999999999
 20
7.802224
 30
0.0
 11
8.669522
 21
7.724996
 31
0.0
  0
LINE
  5
33A
330
4B8
100
AcDbEntity
  8
1
100
AcDbLine
 10
8.669522
 20
7.724996
 30
0.0
 11
8.698178
 21
7.648121
 31
0.0
  0
LINE
  5
33B
330
4B8
100
AcDbEntity
  8
1
100
AcDbLine
 10
8.698178
 20
7.648121
 30
0.0
 11
8.731465
 21
7.571685
 31
0.0
  0
LINE
  5
33C
330
4B8
100
AcDbEntity
  8
1
100
AcDbLine
 10
8.731465
 20
7.571685
 30
0.0
 11
8.769652999999999
 21
7.495952
 31
0.0
  0
LINE
  5
33D
330
4B8
100
AcDbEntity
  8
1
100
AcDbLine
 10
8.769652999999999
 20
7.495952
 30
0.0
 11
8.812811999999999
 21
7.420892999999999
 31
0.0
  0
LINE
  5
33E
330
4B8
100
AcDbEntity
  8
1
100
AcDbLine
 10
8.812811999999999
 20
7.420892999999999
 30
0.0
 11
8.860872
 21
7.346538999999999
 31
0.0
  0
LINE
  5
33F
330
4B8
100
AcDbEntity
  8
1
100
AcDbLine
 10
8.860872
 20
7.346538999999999
 30
0.0
 11
8.913899
 21
7.273255999999999
 31
0.0
  0
LINE
  5
340
330
4B8
100
AcDbEntity
  8
1
100
AcDbLine
 10
8.913899
 20
7.273255999999999
 30
0.0
 11
8.971855999999998
 21
7.20115
 31
0.0
  0
LINE
  5
341
330
4B8
100
AcDbEntity
  8
1
100
AcDbLine
 10
8.971855999999998
 20
7.20115
 30
0.0
 11
9.034777999999999
 21
7.13013
 31
0.0
  0
LINE
  5
342
330
4B8
100
AcDbEntity
  8
1
100
AcDbLine
 10
9.034777999999999
 20
7.13013
 30
0.0
 11
9.102843
 21
7.060275999999999
 31
0.0
  0
LINE
  5
343
330
4B8
100
AcDbEntity
  8
1
100
AcDbLine
 10
9.102843
 20
7.060275999999999
 30
0.0
 11
9.175917
 21
6.991666
 31
0.0
  0
LINE
  5
344
330
4B8
100
AcDbEntity
  8
1
100
AcDbLine
 10
9.175917
 20
6.991666
 30
0.0
 11
9.254132
 21
6.924238
 31
0.0
  0
LINE
  5
345
330
4B8
100
AcDbEntity
  8
1
100
AcDbLine
 10
9.254132
 20
6.924238
 30
0.0
 11
9.33806
 21
6.857852999999999
 31
0.0
  0
LINE
  5
346
330
4B8
100
AcDbEntity
  8
1
100
AcDbLine
 10
9.33806
 20
6.857852999999999
 30
0.0
 11
9.427839999999999
 21
6.792378
 31
0.0
  0
LINE
  5
347
330
4B8
100
AcDbEntity
  8
1
100
AcDbLine
 10
9.427839999999999
 20
6.792378
 30
0.0
 11
9.523333
 21
6.727947999999999
 31
0.0
  0
LINE
  5
348
330
4B8
100
AcDbEntity
  8
1
100
AcDbLine
 10
9.523333
 20
6.727947999999999
 30
0.0
 11
9.624689
 21
6.664828999999999
 31
0.0
  0
LINE
  5
349
330
4B8
100
AcDbEntity
  8
1
100
AcDbLine
 10
9.624689
 20
6.664828999999999
 30
0.0
 11
9.731958999999999
 21
6.603113
 31
0.0
  0
LINE
  5
34A
330
4B8
100
AcDbEntity
  8
1
100
AcDbLine
 10
9.731958999999999
 20
6.603113
 30
0.0
 11
9.845092999999998
 21
6.542718999999999
 31
0.0
  0
LINE
  5
34B
330
4B8
100
AcDbEntity
  8
1
100
AcDbLine
 10
9.845092999999998
 20
6.542718999999999
 30
0.0
 11
9.964089999999998
 21
6.483651999999999
 31
0.0
  0
LINE
  5
34C
330
4B8
100
AcDbEntity
  8
1
100
AcDbLine
 10
8.391548
 20
6.403526
 30
0.0
 11
8.468802
 21
6.092973
 31
0.0
  0
LINE
  5
34D
330
4B8
100
AcDbEntity
  8
1
100
AcDbLine
 10
9.164089999999999
 20
5.850258
 30
0.0
 11
9.077436999999999
 21
6.090461
 31
0.0
  0
LINE
  5
34E
330
4B8
100
AcDbEntity
  8
1
100
AcDbLine
 10
9.077436999999999
 20
6.090461
 30
0.0
 11
8.990949999999999
 21
6.327042999999999
 31
0.0
  0
LINE
  5
34F
330
4B8
100
AcDbEntity
  8
1
100
AcDbLine
 10
8.990949999999999
 20
6.327042999999999
 30
0.0
 11
8.904628999999999
 21
6.560005
 31
0.0
  0
LINE
  5
350
330
4B8
100
AcDbEntity
  8
1
100
AcDbLine
 10
8.904628999999999
 20
6.560005
 30
0.0
 11
8.818424999999999
 21
6.789475999999999
 31
0.0
  0
LINE
  5
351
330
4B8
100
AcDbEntity
  8
1
100
AcDbLine
 10
8.818424999999999
 20
6.789475999999999
 30
0.0
 11
8.732388
 21
7.015328
 31
0.0
  0
LINE
  5
352
330
4B8
100
AcDbEntity
  8
1
100
AcDbLine
 10
8.732388
 20
7.015328
 30
0.0
 11
8.646665999999999
 21
7.237169
 31
0.0
  0
LINE
  5
353
330
4B8
100
AcDbEntity
  8
1
100
AcDbLine
 10
8.646665999999999
 20
7.237169
 30
0.0
 11
8.561310999999999
 21
7.454869999999999
 31
0.0
  0
LINE
  5
354
330
4B8
100
AcDbEntity
  8
1
100
AcDbLine
 10
8.561310999999999
 20
7.454869999999999
 30
0.0
 11
8.476271
 21
7.668561
 31
0.0
  0
LINE
  5
355
330
4B8
100
AcDbEntity
  8
1
100
AcDbLine
 10
8.476271
 20
7.668561
 30
0.0
 11
8.391548
 21
7.878242
 31
0.0
  0
LINE
  5
356
330
4B8
100
AcDbEntity
  8
1
100
AcDbLine
 10
9.964089999999998
 20
6.483651999999999
 30
0.0
 11
9.964089999999998
 21
6.166955
 31
0.0
  0
LINE
  5
357
330
4B8
100
AcDbEntity
  8
1
100
AcDbLine
 10
8.391548
 20
7.878242
 30
0.0
 11
8.391548
 21
6.403526
 31
0.0
  0
LINE
  5
358
330
4B8
100
AcDbEntity
  8
1
100
AcDbLine
 10
8.414369999999999
 20
6.317690999999999
 30
0.0
 11
7.891547999999999
 21
6.161992999999999
 31
0.0
  0
LINE
  5
359
330
4B8
100
AcDbEntity
  8
1
100
AcDbLine
 10
9.561382999999999
 20
6.007920999999999
 30
0.0
 11
9.964089999999998
 21
6.166955
 31
0.0
  0
LINE
  5
35A
330
4B8
100
AcDbEntity
  8
1
100
AcDbLine
 10
9.164089999999999
 20
5.850258
 30
0.0
 11
9.561382999999999
 21
6.007920999999999
 31
0.0
  0
LINE
  5
35B
330
4B8
100
AcDbEntity
  8
1
100
AcDbLine
 10
8.391548
 20
7.878242
 30
0.0
 11
8.611062999999999
 21
7.958008999999999
 31
0.0
  0
LINE
  5
35C
330
4B8
100
AcDbEntity
  8
1
100
AcDbLine
 10
16.0
 20
-4.231666999999999
 30
0.0
 11
16.0
 21
-0.617584
 31
0.0
  0
LINE
  5
35D
330
4B8
100
AcDbEntity
  8
1
100
AcDbLine
 10
15.5
 20
-1.376665
 30
0.0
 11
15.5
 21
6.018536
 31
0.0
  0
LINE
  5
35E
330
4B8
100
AcDbEntity
  8
1
100
AcDbLine
 10
14.1
 20
1.349693
 30
0.0
 11
14.1
 21
-2.344122999999999
 31
0.0
  0
LINE
  5
35F
330
4B8
100
AcDbEntity
  8
1
100
AcDbLine
 10
16.0
 20
-8.914861999999999
 30
0.0
 11
16.0
 21
-5.795306
 31
0.0
  0
LINE
  5
360
330
4B8
100
AcDbEntity
  8
1
100
AcDbLine
 10
15.5
 20
-10.507291
 30
0.0
 11
15.5
 21
-4.547156
 31
0.0
  0
LINE
  5
361
330
4B8
100
AcDbEntity
  8
1
100
AcDbLine
 10
16.0
 20
-11.696542
 30
0.0
 11
14.4941
 21
-12.700002
 31
0.0
  0
LINE
  5
362
330
4B8
100
AcDbEntity
  8
1
100
AcDbLine
 10
16.0
 20
-10.513108
 30
0.0
 11
14.085676
 21
-11.788722
 31
0.0
  0
LINE
  5
363
330
4B8
100
AcDbEntity
  8
1
100
AcDbLine
 10
15.5
 20
-10.507291
 30
0.0
 11
15.353302
 21
-10.625823
 31
0.0
  0
LINE
  5
364
330
4B8
100
AcDbEntity
  8
1
100
AcDbLine
 10
15.353302
 20
-10.625823
 30
0.0
 11
15.204418
 21
-10.745291
 31
0.0
  0
LINE
  5
365
330
4B8
100
AcDbEntity
  8
1
100
AcDbLine
 10
15.204418
 20
-10.745291
 30
0.0
 11
15.053348
 21
-10.865695
 31
0.0
  0
LINE
  5
366
330
4B8
100
AcDbEntity
  8
1
100
AcDbLine
 10
15.053348
 20
-10.865695
 30
0.0
 11
14.900128
 21
-10.987015
 31
0.0
  0
LINE
  5
367
330
4B8
100
AcDbEntity
  8
1
100
AcDbLine
 10
14.900128
 20
-10.987015
 30
0.0
 11
14.744721
 21
-11.109271
 31
0.0
  0
LINE
  5
368
330
4B8
100
AcDbEntity
  8
1
100
AcDbLine
 10
14.744721
 20
-11.109271
 30
0.0
 11
14.587016
 21
-11.232526
 31
0.0
  0
LINE
  5
369
330
4B8
100
AcDbEntity
  8
1
100
AcDbLine
 10
14.587016
 20
-11.232526
 30
0.0
 11
14.426976
 21
-11.356803
 31
0.0
  0
LINE
  5
36A
330
4B8
100
AcDbEntity
  8
1
100
AcDbLine
 10
14.426976
 20
-11.356803
 30
0.0
 11
14.264637
 21
-11.48208
 31
0.0
  0
LINE
  5
36B
330
4B8
100
AcDbEntity
  8
1
100
AcDbLine
 10
14.264637
 20
-11.48208
 30
0.0
 11
14.1
 21
-11.608356
 31
0.0
  0
LINE
  5
36C
330
4B8
100
AcDbEntity
  8
1
100
AcDbLine
 10
15.5
 20
-8.753344
 30
0.0
 11
15.353392
 21
-8.875172
 31
0.0
  0
LINE
  5
36D
330
4B8
100
AcDbEntity
  8
1
100
AcDbLine
 10
15.353392
 20
-8.875172
 30
0.0
 11
15.204576
 21
-8.99817
 31
0.0
  0
LINE
  5
36E
330
4B8
100
AcDbEntity
  8
1
100
AcDbLine
 10
15.204576
 20
-8.99817
 30
0.0
 11
15.053552
 21
-9.122339
 31
0.0
  0
LINE
  5
36F
330
4B8
100
AcDbEntity
  8
1
100
AcDbLine
 10
15.053552
 20
-9.122339
 30
0.0
 11
14.90036
 21
-9.247653999999998
 31
0.0
  0
LINE
  5
370
330
4B8
100
AcDbEntity
  8
1
100
AcDbLine
 10
14.90036
 20
-9.247653999999998
 30
0.0
 11
14.74496
 21
-9.374138
 31
0.0
  0
LINE
  5
371
330
4B8
100
AcDbEntity
  8
1
100
AcDbLine
 10
14.74496
 20
-9.374138
 30
0.0
 11
14.587235
 21
-9.501867999999999
 31
0.0
  0
LINE
  5
372
330
4B8
100
AcDbEntity
  8
1
100
AcDbLine
 10
14.587235
 20
-9.501867999999999
 30
0.0
 11
14.427147
 21
-9.630869999999999
 31
0.0
  0
LINE
  5
373
330
4B8
100
AcDbEntity
  8
1
100
AcDbLine
 10
14.427147
 20
-9.630869999999999
 30
0.0
 11
14.264736
 21
-9.761119
 31
0.0
  0
LINE
  5
374
330
4B8
100
AcDbEntity
  8
1
100
AcDbLine
 10
14.264736
 20
-9.761119
 30
0.0
 11
14.1
 21
-9.892613
 31
0.0
  0
LINE
  5
375
330
4B8
100
AcDbEntity
  8
1
100
AcDbLine
 10
14.1
 20
-9.892613
 30
0.0
 11
14.1
 21
-11.608356
 31
0.0
  0
LINE
  5
376
330
4B8
100
AcDbEntity
  8
1
100
AcDbLine
 10
16.0
 20
-11.696542
 30
0.0
 11
16.0
 21
-9.101668
 31
0.0
  0
LINE
  5
377
330
4B8
100
AcDbEntity
  8
1
100
AcDbLine
 10
15.5
 20
-7.873007
 30
0.0
 11
16.0
 21
-8.026203999999999
 31
0.0
  0
LINE
  5
378
330
4B8
100
AcDbEntity
  8
1
100
AcDbLine
 10
15.5
 20
-8.204992999999999
 30
0.0
 11
16.0
 21
-8.358189999999998
 31
0.0
  0
LINE
  5
379
330
4B8
100
AcDbEntity
  8
1
100
AcDbLine
 10
16.0
 20
-8.914861999999999
 30
0.0
 11
15.5
 21
-8.912924
 31
0.0
  0
LINE
  5
37A
330
4B8
100
AcDbEntity
  8
1
100
AcDbLine
 10
15.5
 20
-9.101668
 30
0.0
 11
16.0
 21
-9.101668
 31
0.0
  0
LINE
  5
37B
330
4B8
100
AcDbEntity
  8
1
100
AcDbLine
 10
15.5
 20
-9.286930999999999
 30
0.0
 11
16.0
 21
-9.286930999999999
 31
0.0
  0
LINE
  5
37C
330
4B8
100
AcDbEntity
  8
1
100
AcDbLine
 10
16.0
 20
-4.231666999999999
 30
0.0
 11
14.608258
 21
-5.109828
 31
0.0
  0
LINE
  5
37D
330
4B8
100
AcDbEntity
  8
1
100
AcDbLine
 10
14.493217
 20
-4.811135
 30
0.0
 11
16.0
 21
-3.860387
 31
0.0
  0
LINE
  5
37E
330
4B8
100
AcDbEntity
  8
1
100
AcDbLine
 10
16.0
 20
-1.230672999999999
 30
0.0
 11
14.085676
 21
-2.438572
 31
0.0
  0
LINE
  5
37F
330
4B8
100
AcDbEntity
  8
1
100
AcDbLine
 10
14.900128
 20
-1.795172
 30
0.0
 11
14.587016
 21
-2.011172
 31
0.0
  0
LINE
  5
380
330
4B8
100
AcDbEntity
  8
1
100
AcDbLine
 10
14.493217
 20
-4.811135
 30
0.0
 11
14.441429
 21
-4.531337
 31
0.0
  0
LINE
  5
381
330
4B8
100
AcDbEntity
  8
1
100
AcDbLine
 10
14.441429
 20
-4.531337
 30
0.0
 11
14.391275
 21
-4.255592
 31
0.0
  0
LINE
  5
382
330
4B8
100
AcDbEntity
  8
1
100
AcDbLine
 10
14.391275
 20
-4.255592
 30
0.0
 11
14.342753
 21
-3.983897
 31
0.0
  0
LINE
  5
383
330
4B8
100
AcDbEntity
  8
1
100
AcDbLine
 10
14.342753
 20
-3.983897
 30
0.0
 11
14.295875
 21
-3.716264999999999
 31
0.0
  0
LINE
  5
384
330
4B8
100
AcDbEntity
  8
1
100
AcDbLine
 10
14.295875
 20
-3.716264999999999
 30
0.0
 11
14.25063
 21
-3.452684999999999
 31
0.0
  0
LINE
  5
385
330
4B8
100
AcDbEntity
  8
1
100
AcDbLine
 10
14.25063
 20
-3.452684999999999
 30
0.0
 11
14.20699
 21
-3.193127999999999
 31
0.0
  0
LINE
  5
386
330
4B8
100
AcDbEntity
  8
1
100
AcDbLine
 10
14.20699
 20
-3.193127999999999
 30
0.0
 11
14.164947
 21
-2.937585999999999
 31
0.0
  0
LINE
  5
387
330
4B8
100
AcDbEntity
  8
1
100
AcDbLine
 10
14.164947
 20
-2.937585999999999
 30
0.0
 11
14.124509
 21
-2.686065999999999
 31
0.0
  0
LINE
  5
388
330
4B8
100
AcDbEntity
  8
1
100
AcDbLine
 10
14.124509
 20
-2.686065999999999
 30
0.0
 11
14.085676
 21
-2.438572
 31
0.0
  0
LINE
  5
389
330
4B8
100
AcDbEntity
  8
1
100
AcDbLine
 10
14.493481
 20
-4.810969
 30
0.0
 11
14.511439
 21
-4.860735
 31
0.0
  0
LINE
  5
38A
330
4B8
100
AcDbEntity
  8
1
100
AcDbLine
 10
14.511439
 20
-4.860735
 30
0.0
 11
14.529865
 21
-4.910517999999999
 31
0.0
  0
LINE
  5
38B
330
4B8
100
AcDbEntity
  8
1
100
AcDbLine
 10
14.529865
 20
-4.910517999999999
 30
0.0
 11
14.54876
 21
-4.960319
 31
0.0
  0
LINE
  5
38C
330
4B8
100
AcDbEntity
  8
1
100
AcDbLine
 10
14.54876
 20
-4.960319
 30
0.0
 11
14.568124
 21
-5.010137
 31
0.0
  0
LINE
  5
38D
330
4B8
100
AcDbEntity
  8
1
100
AcDbLine
 10
14.568124
 20
-5.010137
 30
0.0
 11
14.587957
 21
-5.059973999999999
 31
0.0
  0
LINE
  5
38E
330
4B8
100
AcDbEntity
  8
1
100
AcDbLine
 10
14.587957
 20
-5.059973999999999
 30
0.0
 11
14.608258
 21
-5.109828
 31
0.0
  0
LINE
  5
38F
330
4B8
100
AcDbEntity
  8
1
100
AcDbLine
 10
14.587016
 20
-2.011172
 30
0.0
 11
14.264637
 21
-2.231956
 31
0.0
  0
LINE
  5
390
330
4B8
100
AcDbEntity
  8
1
100
AcDbLine
 10
14.264637
 20
-2.231956
 30
0.0
 11
14.1
 21
-2.344122999999999
 31
0.0
  0
LINE
  5
391
330
4B8
100
AcDbEntity
  8
1
100
AcDbLine
 10
15.204418
 20
-1.583689999999999
 30
0.0
 11
14.900128
 21
-1.795172
 31
0.0
  0
LINE
  5
392
330
4B8
100
AcDbEntity
  8
1
100
AcDbLine
 10
15.5
 20
-1.376665
 30
0.0
 11
15.204418
 21
-1.583689999999999
 31
0.0
  0
LINE
  5
393
330
4B8
100
AcDbEntity
  8
1
100
AcDbLine
 10
15.5
 20
-5.642109999999999
 30
0.0
 11
16.0
 21
-5.795306
 31
0.0
  0
LINE
  5
394
330
4B8
100
AcDbEntity
  8
1
100
AcDbLine
 10
14.90036
 20
1.706397999999999
 30
0.0
 11
14.587235
 21
1.566294
 31
0.0
  0
LINE
  5
395
330
4B8
100
AcDbEntity
  8
1
100
AcDbLine
 10
14.587235
 20
1.566294
 30
0.0
 11
14.264736
 21
1.422745999999999
 31
0.0
  0
LINE
  5
396
330
4B8
100
AcDbEntity
  8
1
100
AcDbLine
 10
14.264736
 20
1.422745999999999
 30
0.0
 11
14.1
 21
1.349693
 31
0.0
  0
LINE
  5
397
330
4B8
100
AcDbEntity
  8
1
100
AcDbLine
 10
12.407985
 20
0.9198579999999999
 30
0.0
 11
11.549191
 21
0.703437
 31
0.0
  0
LINE
  5
398
330
4B8
100
AcDbEntity
  8
1
100
AcDbLine
 10
13.258299
 20
1.135288999999999
 30
0.0
 11
12.407985
 21
0.9198579999999999
 31
0.0
  0
LINE
  5
399
330
4B8
100
AcDbEntity
  8
1
100
AcDbLine
 10
14.1
 20
1.349693
 30
0.0
 11
13.258299
 21
1.135288999999999
 31
0.0
  0
LINE
  5
39A
330
4B8
100
AcDbEntity
  8
1
100
AcDbLine
 10
16.0
 20
1.159308
 30
0.0
 11
16.0
 21
4.804851999999999
 31
0.0
  0
LINE
  5
39B
330
4B8
100
AcDbEntity
  8
1
100
AcDbLine
 10
16.0
 20
4.804851999999999
 30
0.0
 11
15.5
 21
5.130512
 31
0.0
  0
LINE
  5
39C
330
4B8
100
AcDbEntity
  8
1
100
AcDbLine
 10
15.5
 20
3.535780999999999
 30
0.0
 11
16.0
 21
3.391583
 31
0.0
  0
LINE
  5
39D
330
4B8
100
AcDbEntity
  8
1
100
AcDbLine
 10
15.5
 20
1.435923
 30
0.0
 11
16.0
 21
1.291725
 31
0.0
  0
LINE
  5
39E
330
4B8
100
AcDbEntity
  8
1
100
AcDbLine
 10
15.204576
 20
1.843241999999999
 30
0.0
 11
14.90036
 21
1.706397999999999
 31
0.0
  0
LINE
  5
39F
330
4B8
100
AcDbEntity
  8
1
100
AcDbLine
 10
15.5
 20
1.976875999999999
 30
0.0
 11
15.204576
 21
1.843241999999999
 31
0.0
  0
LINE
  5
3A0
330
4B8
100
AcDbEntity
  8
1
100
AcDbLine
 10
15.5
 20
1.303506
 30
0.0
 11
16.0
 21
1.159308
 31
0.0
  0
LINE
  5
3A1
330
4B8
100
AcDbEntity
  8
1
100
AcDbLine
 10
15.5
 20
-0.7664850000000002
 30
0.0
 11
16.0
 21
-0.617584
 31
0.0
  0
LINE
  5
3A2
330
4B8
100
AcDbEntity
  8
1
100
AcDbLine
 10
15.5
 20
10.730219
 30
0.0
 11
15.353392
 21
10.785634
 31
0.0
  0
LINE
  5
3A3
330
4B8
100
AcDbEntity
  8
1
100
AcDbLine
 10
15.353392
 20
10.785634
 30
0.0
 11
15.204576
 21
10.841413
 31
0.0
  0
LINE
  5
3A4
330
4B8
100
AcDbEntity
  8
1
100
AcDbLine
 10
15.204576
 20
10.841413
 30
0.0
 11
15.053553
 21
10.897554
 31
0.0
  0
LINE
  5
3A5
330
4B8
100
AcDbEntity
  8
1
100
AcDbLine
 10
15.053553
 20
10.897554
 30
0.0
 11
14.90036
 21
10.95405
 31
0.0
  0
LINE
  5
3A6
330
4B8
100
AcDbEntity
  8
1
100
AcDbLine
 10
14.90036
 20
10.95405
 30
0.0
 11
14.74496
 21
11.01091
 31
0.0
  0
LINE
  5
3A7
330
4B8
100
AcDbEntity
  8
1
100
AcDbLine
 10
14.74496
 20
11.01091
 30
0.0
 11
14.587235
 21
11.068163
 31
0.0
  0
LINE
  5
3A8
330
4B8
100
AcDbEntity
  8
1
100
AcDbLine
 10
14.587235
 20
11.068163
 30
0.0
 11
14.427148
 21
11.125818
 31
0.0
  0
LINE
  5
3A9
330
4B8
100
AcDbEntity
  8
1
100
AcDbLine
 10
14.427148
 20
11.125818
 30
0.0
 11
14.264736
 21
11.183865
 31
0.0
  0
LINE
  5
3AA
330
4B8
100
AcDbEntity
  8
1
100
AcDbLine
 10
14.264736
 20
11.183865
 30
0.0
 11
14.1
 21
11.242305
 31
0.0
  0
LINE
  5
3AB
330
4B8
100
AcDbEntity
  8
1
100
AcDbLine
 10
16.0
 20
9.282436
 30
0.0
 11
14.085676
 21
9.350151
 31
0.0
  0
LINE
  5
3AC
330
4B8
100
AcDbEntity
  8
1
100
AcDbLine
 10
14.493217
 20
7.773305999999999
 30
0.0
 11
16.0
 21
7.720005999999999
 31
0.0
  0
LINE
  5
3AD
330
4B8
100
AcDbEntity
  8
1
100
AcDbLine
 10
16.0
 20
7.464875
 30
0.0
 11
14.608258
 21
7.514103999999999
 31
0.0
  0
LINE
  5
3AE
330
4B8
100
AcDbEntity
  8
1
100
AcDbLine
 10
14.493217
 20
7.773305999999999
 30
0.0
 11
14.441429
 21
7.960793999999999
 31
0.0
  0
LINE
  5
3AF
330
4B8
100
AcDbEntity
  8
1
100
AcDbLine
 10
14.441429
 20
7.960793999999999
 30
0.0
 11
14.391275
 21
8.145203
 31
0.0
  0
LINE
  5
3B0
330
4B8
100
AcDbEntity
  8
1
100
AcDbLine
 10
14.391275
 20
8.145203
 30
0.0
 11
14.342753
 21
8.326534999999999
 31
0.0
  0
LINE
  5
3B1
330
4B8
100
AcDbEntity
  8
1
100
AcDbLine
 10
14.342753
 20
8.326534999999999
 30
0.0
 11
14.295875
 21
8.50478
 31
0.0
  0
LINE
  5
3B2
330
4B8
100
AcDbEntity
  8
1
100
AcDbLine
 10
14.295875
 20
8.50478
 30
0.0
 11
14.25063
 21
8.679947
 31
0.0
  0
LINE
  5
3B3
330
4B8
100
AcDbEntity
  8
1
100
AcDbLine
 10
14.25063
 20
8.679947
 30
0.0
 11
14.20699
 21
8.852064
 31
0.0
  0
LINE
  5
3B4
330
4B8
100
AcDbEntity
  8
1
100
AcDbLine
 10
14.20699
 20
8.852064
 30
0.0
 11
14.164947
 21
9.021142999999998
 31
0.0
  0
LINE
  5
3B5
330
4B8
100
AcDbEntity
  8
1
100
AcDbLine
 10
14.164947
 20
9.021142999999998
 30
0.0
 11
14.124509
 21
9.187172
 31
0.0
  0
LINE
  5
3B6
330
4B8
100
AcDbEntity
  8
1
100
AcDbLine
 10
14.124509
 20
9.187172
 30
0.0
 11
14.085676
 21
9.350151
 31
0.0
  0
LINE
  5
3B7
330
4B8
100
AcDbEntity
  8
1
100
AcDbLine
 10
14.493481
 20
7.773297999999999
 30
0.0
 11
14.511439
 21
7.730678999999999
 31
0.0
  0
LINE
  5
3B8
330
4B8
100
AcDbEntity
  8
1
100
AcDbLine
 10
14.511439
 20
7.730678999999999
 30
0.0
 11
14.529865
 21
7.687827999999999
 31
0.0
  0
LINE
  5
3B9
330
4B8
100
AcDbEntity
  8
1
100
AcDbLine
 10
14.529865
 20
7.687827999999999
 30
0.0
 11
14.54876
 21
7.644744999999999
 31
0.0
  0
LINE
  5
3BA
330
4B8
100
AcDbEntity
  8
1
100
AcDbLine
 10
14.54876
 20
7.644744999999999
 30
0.0
 11
14.568124
 21
7.601430999999999
 31
0.0
  0
LINE
  5
3BB
330
4B8
100
AcDbEntity
  8
1
100
AcDbLine
 10
14.568124
 20
7.601430999999999
 30
0.0
 11
14.587957
 21
7.557883
 31
0.0
  0
LINE
  5
3BC
330
4B8
100
AcDbEntity
  8
1
100
AcDbLine
 10
14.587957
 20
7.557883
 30
0.0
 11
14.608258
 21
7.514103999999999
 31
0.0
  0
LINE
  5
3BD
330
4B8
100
AcDbEntity
  8
1
100
AcDbLine
 10
14.1
 20
11.242305
 30
0.0
 11
14.1
 21
9.349643999999999
 31
0.0
  0
LINE
  5
3BE
330
4B8
100
AcDbEntity
  8
1
100
AcDbLine
 10
15.5
 20
10.730219
 30
0.0
 11
15.5
 21
9.300121999999999
 31
0.0
  0
LINE
  5
3BF
330
4B8
100
AcDbEntity
  8
1
100
AcDbLine
 10
0.0
 20
12.276669
 30
0.0
 11
2.999155
 21
12.276669
 31
0.0
  0
LINE
  5
3C0
330
4B8
100
AcDbEntity
  8
1
100
AcDbLine
 10
8.391548
 20
12.106871
 30
0.0
 11
8.262285
 21
12.114654
 31
0.0
  0
LINE
  5
3C1
330
4B8
100
AcDbEntity
  8
1
100
AcDbLine
 10
8.262285
 20
12.114654
 30
0.0
 11
7.510889999999999
 21
12.154233
 31
0.0
  0
LINE
  5
3C2
330
4B8
100
AcDbEntity
  8
1
100
AcDbLine
 10
7.510889999999999
 20
12.154233
 30
0.0
 11
6.756139999999999
 21
12.188327
 31
0.0
  0
LINE
  5
3C3
330
4B8
100
AcDbEntity
  8
1
100
AcDbLine
 10
6.756139999999999
 20
12.188327
 30
0.0
 11
5.998089
 21
12.216956
 31
0.0
  0
LINE
  5
3C4
330
4B8
100
AcDbEntity
  8
1
100
AcDbLine
 10
5.998089
 20
12.216956
 30
0.0
 11
5.238317999999999
 21
12.240009
 31
0.0
  0
LINE
  5
3C5
330
4B8
100
AcDbEntity
  8
1
100
AcDbLine
 10
5.238317999999999
 20
12.240009
 30
0.0
 11
4.477352999999999
 21
12.257451
 31
0.0
  0
LINE
  5
3C6
330
4B8
100
AcDbEntity
  8
1
100
AcDbLine
 10
4.477352999999999
 20
12.257451
 30
0.0
 11
3.714668
 21
12.269318
 31
0.0
  0
LINE
  5
3C7
330
4B8
100
AcDbEntity
  8
1
100
AcDbLine
 10
3.714668
 20
12.269318
 30
0.0
 11
3.057008
 21
12.274731
 31
0.0
  0
LINE
  5
3C8
330
4B8
100
AcDbEntity
  8
1
100
AcDbLine
 10
9.164089999999999
 20
12.538819
 30
0.0
 11
9.077415
 21
12.530348
 31
0.0
  0
LINE
  5
3C9
330
4B8
100
AcDbEntity
  8
1
100
AcDbLine
 10
9.077415
 20
12.530348
 30
0.0
 11
9.015544999999999
 21
12.520428
 31
0.0
  0
LINE
  5
3CA
330
4B8
100
AcDbEntity
  8
1
100
AcDbLine
 10
9.015544999999999
 20
12.520428
 30
0.0
 11
8.990914999999999
 21
12.515578
 31
0.0
  0
LINE
  5
3CB
330
4B8
100
AcDbEntity
  8
1
100
AcDbLine
 10
8.990914999999999
 20
12.515578
 30
0.0
 11
8.904589999999998
 21
12.49451
 31
0.0
  0
LINE
  5
3CC
330
4B8
100
AcDbEntity
  8
1
100
AcDbLine
 10
8.904589999999998
 20
12.49451
 30
0.0
 11
8.818394999999998
 21
12.467121
 31
0.0
  0
LINE
  5
3CD
330
4B8
100
AcDbEntity
  8
1
100
AcDbLine
 10
8.818394999999998
 20
12.467121
 30
0.0
 11
8.732374999999999
 21
12.433433
 31
0.0
  0
LINE
  5
3CE
330
4B8
100
AcDbEntity
  8
1
100
AcDbLine
 10
8.732374999999999
 20
12.433433
 30
0.0
 11
8.646666999999998
 21
12.393508
 31
0.0
  0
LINE
  5
3CF
330
4B8
100
AcDbEntity
  8
1
100
AcDbLine
 10
8.646666999999998
 20
12.393508
 30
0.0
 11
8.561315999999999
 21
12.347364
 31
0.0
  0
LINE
  5
3D0
330
4B8
100
AcDbEntity
  8
1
100
AcDbLine
 10
8.561315999999999
 20
12.347364
 30
0.0
 11
8.476275999999998
 21
12.294982
 31
0.0
  0
LINE
  5
3D1
330
4B8
100
AcDbEntity
  8
1
100
AcDbLine
 10
8.476275999999998
 20
12.294982
 30
0.0
 11
8.391548
 21
12.236362
 31
0.0
  0
LINE
  5
3D2
330
4B8
100
AcDbEntity
  8
1
100
AcDbLine
 10
16.0
 20
11.891712
 30
0.0
 11
14.6
 21
12.700002
 31
0.0
  0
LINE
  5
3D3
330
4B8
100
AcDbEntity
  8
1
100
AcDbLine
 10
9.976976999999999
 20
12.700002
 30
0.0
 11
14.6
 21
12.700002
 31
0.0
  0
LINE
  5
3D4
330
4B8
100
AcDbEntity
  8
1
100
AcDbLine
 10
9.977783
 20
-12.700002
 30
0.0
 11
14.4941
 21
-12.700002
 31
0.0
  0
LINE
  5
3D5
330
4B8
100
AcDbEntity
  8
1
100
AcDbLine
 10
9.164089999999999
 20
12.538819
 30
0.0
 11
9.976976999999999
 21
12.700002
 31
0.0
  0
LINE
  5
3D6
330
4B8
100
AcDbEntity
  8
1
100
AcDbLine
 10
14.085676
 20
-11.788722
 30
0.0
 11
14.4941
 21
-12.700002
 31
0.0
  0
LINE
  5
3D7
330
4B8
100
AcDbEntity
  8
SK4
100
AcDbLine
 10
16.0
 20
0.0
 30
0.0
 11
-13.85
 21
0.0
 31
0.0
  0
LINE
  5
3D8
330
4B8
100
AcDbEntity
  8
SK1
100
AcDbLine
 10
-10.85
 20
7.225611999999999
 30
0.0
 11
0.0
 21
8.174174
 31
0.0
  0
LINE
  5
3D9
330
4B8
100
AcDbEntity
  8
SK1
100
AcDbLine
 10
-10.85
 20
-7.225610999999999
 30
0.0
 11
0.0
 21
-8.174174
 31
0.0
  0
LINE
  5
3DA
330
4B8
100
AcDbEntity
  8
SK1
100
AcDbLine
 10
-13.85
 20
6.725611999999999
 30
0.0
 11
-10.85
 21
6.725611999999999
 31
0.0
  0
LINE
  5
3DB
330
4B8
100
AcDbEntity
  8
SK1
100
AcDbLine
 10
-13.85
 20
-6.725610999999999
 30
0.0
 11
-10.85
 21
-6.725610999999999
 31
0.0
  0
LINE
  5
3DC
330
4B8
100
AcDbEntity
  8
SK1
100
AcDbLine
 10
-13.85
 20
6.725611999999999
 30
0.0
 11
-13.85
 21
-6.725610999999999
 31
0.0
  0
LINE
  5
3DD
330
4B8
100
AcDbEntity
  8
SK1
100
AcDbLine
 10
-10.85
 20
7.225611999999999
 30
0.0
 11
-10.85
 21
-7.225610999999999
 31
0.0
  0
LINE
  5
3DE
330
4B8
100
AcDbEntity
  8
80
100
AcDbLine
 10
0.0
 20
0.0
 30
0.0
 11
-13.85
 21
0.0
 31
0.0
  0
LINE
  5
3DF
330
4B8
100
AcDbEntity
  8
4
100
AcDbLine
 10
0.0
 20
0.0
 30
0.0
 11
19.886013
 21
0.0
 31
0.0
  0
LINE
  5
3E0
330
4B8
100
AcDbEntity
  8
81
100
AcDbLine
 10
16.0
 20
0.0
 30
0.0
 11
27.655049
 21
0.0
 31
0.0
  0
POINT
  5
3E1
330
4B8
100
AcDbEntity
  8
80
100
AcDbPoint
 10
0.0
 20
0.0
 30
0.0
  0
POINT
  5
3E2
330
4B8
100
AcDbEntity
  8
81
100
AcDbPoint
 10
16.0
 20
12.7
 30
0.0
  0
TEXT
  5
3E3
330
4B8
100
AcDbEntity
  8
SK6
100
AcDbText
 10
-14.756826
 20
15.870303
 30
0.0
 40
3.5
  1
HFS16
 41
0.7919989887640449
  7
SANDVIK_STYLE
 72
     5
 11
-3.008840999999999
 21
15.870303
 31
0.0
100
AcDbText
  0
TEXT
  5
3E4
330
4B8
100
AcDbEntity
  8
SK6
100
AcDbText
 10
-27.358894
 20
-33.622856
 30
0.0
 40
3.5
  1
830A-E06D2540H7S16
 41
0.7763531197771594
  7
SANDVIK_STYLE
 72
     5
 11
19.092901
 21
-33.622856
 31
0.0
100
AcDbText
  0
TEXT
  5
3E5
330
4B8
100
AcDbEntity
  8
2
100
AcDbText
 10
10.243403
 20
28.282752
 30
0.0
 40
3.5
  1
L=16                
100
AcDbText
  0
INSERT
  5
3E6
330
4B8
100
AcDbEntity
  8
2
100
AcDbBlockReference
  2
*D0
 10
0.0
 20
0.0
 30
0.0
  0
TEXT
  5
3E7
330
4B8
100
AcDbEntity
  8
2
100
AcDbText
 10
34.281345
 20
1.652777999999999
 30
0.0
 40
3.5
  1
%%c25.4  H7
 50
90.0
100
AcDbText
  0
INSERT
  5
3E8
330
4B8
100
AcDbEntity
  8
2
100
AcDbBlockReference
  2
*D1
 10
0.0
 20
0.0
 30
0.0
  0
ENDSEC
  0
SECTION
  2
OBJECTS
  0
DICTIONARY
  5
454
330
0
100
AcDbDictionary
281
     1
  3
ACAD_CIP_PREVIOUS_PRODUCT_INFO
350
4EB
  3
ACAD_COLOR
350
4AA
  3
ACAD_DETAILVIEWSTYLE
350
4B2
  3
ACAD_GROUP
350
455
  3
ACAD_LAYOUT
350
4A9
  3
ACAD_MATERIAL
350
458
  3
ACAD_MLEADERSTYLE
350
4AD
  3
ACAD_MLINESTYLE
350
4A6
  3
ACAD_PLOTSETTINGS
350
4A8
  3
ACAD_PLOTSTYLENAME
350
456
  3
ACAD_SCALELIST
350
48A
  3
ACAD_SECTIONVIEWSTYLE
350
4AF
  3
ACAD_TABLESTYLE
350
4AB
  3
ACAD_VISUALSTYLE
350
471
  3
ACDB_RECOMPOSE_DATA
350
547
  3
AcDbVariableDictionary
350
53A
  3
DWGPROPS
350
548
  0
DICTIONARY
  5
4EE
330
49C
100
AcDbDictionary
280
     1
281
     1
  3
ADSK_XREC_LAYER_RECONCILED
360
4EF
  0
DICTIONARY
  5
4F0
330
4BC
100
AcDbDictionary
280
     1
281
     1
  3
ADSK_XREC_LAYER_RECONCILED
360
4F1
  0
DICTIONARY
  5
4F2
330
4C0
100
AcDbDictionary
280
     1
281
     1
  3
ADSK_XREC_LAYER_RECONCILED
360
4F3
  0
DICTIONARY
  5
4F4
330
4C1
100
AcDbDictionary
280
     1
281
     1
  3
ADSK_XREC_LAYER_RECONCILED
360
4F5
  0
DICTIONARY
  5
4F6
330
4C2
100
AcDbDictionary
280
     1
281
     1
  3
ADSK_XREC_LAYER_RECONCILED
360
4F7
  0
DICTIONARY
  5
4F8
330
4C3
100
AcDbDictionary
280
     1
281
     1
  3
ADSK_XREC_LAYER_RECONCILED
360
4F9
  0
DICTIONARY
  5
4FA
330
4C4
100
AcDbDictionary
280
     1
281
     1
  3
ADSK_XREC_LAYER_RECONCILED
360
4FB
  0
DICTIONARY
  5
4FC
330
4C5
100
AcDbDictionary
280
     1
281
     1
  3
ADSK_XREC_LAYER_RECONCILED
360
4FD
  0
DICTIONARY
  5
4FE
330
4C6
100
AcDbDictionary
280
     1
281
     1
  3
ADSK_XREC_LAYER_RECONCILED
360
4FF
  0
DICTIONARY
  5
500
330
4C7
100
AcDbDictionary
280
     1
281
     1
  3
ADSK_XREC_LAYER_RECONCILED
360
501
  0
DICTIONARY
  5
502
330
4C8
100
AcDbDictionary
280
     1
281
     1
  3
ADSK_XREC_LAYER_RECONCILED
360
503
  0
DICTIONARY
  5
504
330
4C9
100
AcDbDictionary
280
     1
281
     1
  3
ADSK_XREC_LAYER_RECONCILED
360
505
  0
DICTIONARY
  5
506
330
4CA
100
AcDbDictionary
280
     1
281
     1
  3
ADSK_XREC_LAYER_RECONCILED
360
507
  0
DICTIONARY
  5
508
330
4CB
100
AcDbDictionary
280
     1
281
     1
  3
ADSK_XREC_LAYER_RECONCILED
360
509
  0
DICTIONARY
  5
50A
330
4CC
100
AcDbDictionary
280
     1
281
     1
  3
ADSK_XREC_LAYER_RECONCILED
360
50B
  0
DICTIONARY
  5
50C
330
4CD
100
AcDbDictionary
280
     1
281
     1
  3
ADSK_XREC_LAYER_RECONCILED
360
50D
  0
DICTIONARY
  5
50E
330
4CE
100
AcDbDictionary
280
     1
281
     1
  3
ADSK_XREC_LAYER_RECONCILED
360
50F
  0
DICTIONARY
  5
510
330
4CF
100
AcDbDictionary
280
     1
281
     1
  3
ADSK_XREC_LAYER_RECONCILED
360
511
  0
DICTIONARY
  5
512
330
4D0
100
AcDbDictionary
280
     1
281
     1
  3
ADSK_XREC_LAYER_RECONCILED
360
513
  0
DICTIONARY
  5
514
330
4D1
100
AcDbDictionary
280
     1
281
     1
  3
ADSK_XREC_LAYER_RECONCILED
360
515
  0
DICTIONARY
  5
516
330
4D2
100
AcDbDictionary
280
     1
281
     1
  3
ADSK_XREC_LAYER_RECONCILED
360
517
  0
DICTIONARY
  5
518
330
4D3
100
AcDbDictionary
280
     1
281
     1
  3
ADSK_XREC_LAYER_RECONCILED
360
519
  0
DICTIONARY
  5
51A
330
4D4
100
AcDbDictionary
280
     1
281
     1
  3
ADSK_XREC_LAYER_RECONCILED
360
51B
  0
DICTIONARY
  5
51C
330
4D5
100
AcDbDictionary
280
     1
281
     1
  3
ADSK_XREC_LAYER_RECONCILED
360
51D
  0
DICTIONARY
  5
51E
330
4D6
100
AcDbDictionary
280
     1
281
     1
  3
ADSK_XREC_LAYER_RECONCILED
360
51F
  0
DICTIONARY
  5
520
330
4D7
100
AcDbDictionary
280
     1
281
     1
  3
ADSK_XREC_LAYER_RECONCILED
360
521
  0
DICTIONARY
  5
522
330
4D8
100
AcDbDictionary
280
     1
281
     1
  3
ADSK_XREC_LAYER_RECONCILED
360
523
  0
DICTIONARY
  5
524
330
4D9
100
AcDbDictionary
280
     1
281
     1
  3
ADSK_XREC_LAYER_RECONCILED
360
525
  0
DICTIONARY
  5
526
330
4DA
100
AcDbDictionary
280
     1
281
     1
  3
ADSK_XREC_LAYER_RECONCILED
360
527
  0
DICTIONARY
  5
528
330
4DB
100
AcDbDictionary
280
     1
281
     1
  3
ADSK_XREC_LAYER_RECONCILED
360
529
  0
DICTIONARY
  5
52A
330
4DC
100
AcDbDictionary
280
     1
281
     1
  3
ADSK_XREC_LAYER_RECONCILED
360
52B
  0
DICTIONARY
  5
52C
330
4DD
100
AcDbDictionary
280
     1
281
     1
  3
ADSK_XREC_LAYER_RECONCILED
360
52D
  0
DICTIONARY
  5
52E
330
4DE
100
AcDbDictionary
280
     1
281
     1
  3
ADSK_XREC_LAYER_RECONCILED
360
52F
  0
DICTIONARY
  5
530
330
4DF
100
AcDbDictionary
280
     1
281
     1
  3
ADSK_XREC_LAYER_RECONCILED
360
531
  0
DICTIONARY
  5
532
330
4E0
100
AcDbDictionary
280
     1
281
     1
  3
ADSK_XREC_LAYER_RECONCILED
360
533
  0
DICTIONARY
  5
534
330
4E1
100
AcDbDictionary
280
     1
281
     1
  3
ADSK_XREC_LAYER_RECONCILED
360
535
  0
DICTIONARY
  5
536
330
4E2
100
AcDbDictionary
280
     1
281
     1
  3
ADSK_XREC_LAYER_RECONCILED
360
537
  0
DICTIONARY
  5
538
330
4E3
100
AcDbDictionary
280
     1
281
     1
  3
ADSK_XREC_LAYER_RECONCILED
360
539
  0
XRECORD
  5
4EB
102
{ACAD_REACTORS
330
454
102
}
330
454
100
AcDbXrecord
280
     1
300
AMECH_PP
300
2013
300
PDSU_F_S
  0
DICTIONARY
  5
4AA
102
{ACAD_REACTORS
330
454
102
}
330
454
100
AcDbDictionary
281
     1
  0
DICTIONARY
  5
4B2
102
{ACAD_REACTORS
330
454
102
}
330
454
100
AcDbDictionary
281
     1
  3
Imperial24
350
4B3
  0
DICTIONARY
  5
455
102
{ACAD_REACTORS
330
454
102
}
330
454
100
AcDbDictionary
281
     1
  0
DICTIONARY
  5
4A9
102
{ACAD_REACTORS
330
454
102
}
330
454
100
AcDbDictionary
281
     1
  3
Layout1
350
4B7
  3
Model
350
4BB
  0
DICTIONARY
  5
458
102
{ACAD_REACTORS
330
454
102
}
330
454
100
AcDbDictionary
281
     1
  3
ByBlock
350
461
  3
ByLayer
350
459
  3
Global
350
469
  0
DICTIONARY
  5
4AD
102
{ACAD_REACTORS
330
454
102
}
330
454
100
AcDbDictionary
281
     1
  3
Standard
350
4AE
  0
DICTIONARY
  5
4A6
102
{ACAD_REACTORS
330
454
102
}
330
454
100
AcDbDictionary
281
     1
  3
Standard
350
4A7
  0
DICTIONARY
  5
4A8
102
{ACAD_REACTORS
330
454
102
}
330
454
100
AcDbDictionary
281
     1
  0
ACDBDICTIONARYWDFLT
  5
456
102
{ACAD_REACTORS
330
454
102
}
330
454
100
AcDbDictionary
281
     1
  3
Normal
350
457
100
AcDbDictionaryWithDefault
340
457
  0
DICTIONARY
  5
48A
102
{ACAD_REACTORS
330
454
102
}
330
454
100
AcDbDictionary
281
     1
  3
A0
350
48B
  3
A1
350
48C
  3
A2
350
48D
  3
A3
350
48E
  3
A4
350
48F
  3
A5
350
490
  3
A6
350
491
  3
A7
350
492
  3
A8
350
493
  3
A9
350
494
  3
B0
350
495
  3
B1
350
496
  3
B2
350
497
  3
B3
350
498
  3
B4
350
499
  3
B5
350
49A
  3
B6
350
49B
  0
DICTIONARY
  5
4AF
102
{ACAD_REACTORS
330
454
102
}
330
454
100
AcDbDictionary
281
     1
  3
Imperial24
350
4B1
  0
DICTIONARY
  5
4AB
102
{ACAD_REACTORS
330
454
102
}
330
454
100
AcDbDictionary
281
     1
  3
Standard
350
4AC
  0
DICTIONARY
  5
471
102
{ACAD_REACTORS
330
454
102
}
330
454
100
AcDbDictionary
281
     1
  3
2dWireframe
350
477
  3
Basic
350
476
  3
Brighten
350
47D
  3
ColorChange
350
481
  3
Conceptual
350
47A
  3
Dim
350
47C
  3
EdgeColorOff
350
489
  3
Facepattern
350
480
  3
Flat
350
472
  3
FlatWithEdges
350
473
  3
Gouraud
350
474
  3
GouraudWithEdges
350
475
  3
Hidden
350
479
  3
JitterOff
350
487
  3
Linepattern
350
47F
  3
OverhangOff
350
488
  3
Realistic
350
47B
  3
Shaded
350
486
  3
Shaded with edges
350
485
  3
Shades of Gray
350
482
  3
Sketchy
350
483
  3
Thicken
350
47E
  3
Wireframe
350
478
  3
X-Ray
350
484
  0
XRECORD
  5
547
102
{ACAD_REACTORS
330
454
102
}
330
454
100
AcDbXrecord
280
     1
 90
        1
330
4AC
  0
DICTIONARY
  5
53A
102
{ACAD_REACTORS
330
454
102
}
330
454
100
AcDbDictionary
281
     1
  3
CANNOSCALE
350
53F
  3
CMLEADERSTYLE
350
53C
  3
CTABLESTYLE
350
53B
  3
CVIEWDETAILSTYLE
350
53D
  3
CVIEWSECTIONSTYLE
350
53E
  3
DIMASSOC
350
542
  3
INDEXCTL
350
541
  3
SORTENTS
350
540
  3
XCLIPFRAME
350
543
  0
XRECORD
  5
548
102
{ACAD_REACTORS
330
454
102
}
330
454
100
AcDbXrecord
280
     1
  1
DWGPROPS COOKIE
  2

  3

  4

  6

  7

  8
Micke
  9

300
=
301
=
302
=
303
=
304
=
305
=
306
=
307
=
308
=
309
=
 40
0.0000046180555556
 41
2456818.319593495
 42
2456818.319598056
  1

 90
        0
  0
XRECORD
  5
4EF
102
{ACAD_REACTORS
330
4EE
102
}
330
4EE
100
AcDbXrecord
280
     1
290
     1
  0
XRECORD
  5
4F1
102
{ACAD_REACTORS
330
4F0
102
}
330
4F0
100
AcDbXrecord
280
     1
290
     1
  0
XRECORD
  5
4F3
102
{ACAD_REACTORS
330
4F2
102
}
330
4F2
100
AcDbXrecord
280
     1
290
     1
  0
XRECORD
  5
4F5
102
{ACAD_REACTORS
330
4F4
102
}
330
4F4
100
AcDbXrecord
280
     1
290
     1
  0
XRECORD
  5
4F7
102
{ACAD_REACTORS
330
4F6
102
}
330
4F6
100
AcDbXrecord
280
     1
290
     1
  0
XRECORD
  5
4F9
102
{ACAD_REACTORS
330
4F8
102
}
330
4F8
100
AcDbXrecord
280
     1
290
     1
  0
XRECORD
  5
4FB
102
{ACAD_REACTORS
330
4FA
102
}
330
4FA
100
AcDbXrecord
280
     1
290
     1
  0
XRECORD
  5
4FD
102
{ACAD_REACTORS
330
4FC
102
}
330
4FC
100
AcDbXrecord
280
     1
290
     1
  0
XRECORD
  5
4FF
102
{ACAD_REACTORS
330
4FE
102
}
330
4FE
100
AcDbXrecord
280
     1
290
     1
  0
XRECORD
  5
501
102
{ACAD_REACTORS
330
500
102
}
330
500
100
AcDbXrecord
280
     1
290
     1
  0
XRECORD
  5
503
102
{ACAD_REACTORS
330
502
102
}
330
502
100
AcDbXrecord
280
     1
290
     1
  0
XRECORD
  5
505
102
{ACAD_REACTORS
330
504
102
}
330
504
100
AcDbXrecord
280
     1
290
     1
  0
XRECORD
  5
507
102
{ACAD_REACTORS
330
506
102
}
330
506
100
AcDbXrecord
280
     1
290
     1
  0
XRECORD
  5
509
102
{ACAD_REACTORS
330
508
102
}
330
508
100
AcDbXrecord
280
     1
290
     1
  0
XRECORD
  5
50B
102
{ACAD_REACTORS
330
50A
102
}
330
50A
100
AcDbXrecord
280
     1
290
     1
  0
XRECORD
  5
50D
102
{ACAD_REACTORS
330
50C
102
}
330
50C
100
AcDbXrecord
280
     1
290
     1
  0
XRECORD
  5
50F
102
{ACAD_REACTORS
330
50E
102
}
330
50E
100
AcDbXrecord
280
     1
290
     1
  0
XRECORD
  5
511
102
{ACAD_REACTORS
330
510
102
}
330
510
100
AcDbXrecord
280
     1
290
     1
  0
XRECORD
  5
513
102
{ACAD_REACTORS
330
512
102
}
330
512
100
AcDbXrecord
280
     1
290
     1
  0
XRECORD
  5
515
102
{ACAD_REACTORS
330
514
102
}
330
514
100
AcDbXrecord
280
     1
290
     1
  0
XRECORD
  5
517
102
{ACAD_REACTORS
330
516
102
}
330
516
100
AcDbXrecord
280
     1
290
     1
  0
XRECORD
  5
519
102
{ACAD_REACTORS
330
518
102
}
330
518
100
AcDbXrecord
280
     1
290
     1
  0
XRECORD
  5
51B
102
{ACAD_REACTORS
330
51A
102
}
330
51A
100
AcDbXrecord
280
     1
290
     1
  0
XRECORD
  5
51D
102
{ACAD_REACTORS
330
51C
102
}
330
51C
100
AcDbXrecord
280
     1
290
     1
  0
XRECORD
  5
51F
102
{ACAD_REACTORS
330
51E
102
}
330
51E
100
AcDbXrecord
280
     1
290
     1
  0
XRECORD
  5
521
102
{ACAD_REACTORS
330
520
102
}
330
520
100
AcDbXrecord
280
     1
290
     1
  0
XRECORD
  5
523
102
{ACAD_REACTORS
330
522
102
}
330
522
100
AcDbXrecord
280
     1
290
     1
  0
XRECORD
  5
525
102
{ACAD_REACTORS
330
524
102
}
330
524
100
AcDbXrecord
280
     1
290
     1
  0
XRECORD
  5
527
102
{ACAD_REACTORS
330
526
102
}
330
526
100
AcDbXrecord
280
     1
290
     1
  0
XRECORD
  5
529
102
{ACAD_REACTORS
330
528
102
}
330
528
100
AcDbXrecord
280
     1
290
     1
  0
XRECORD
  5
52B
102
{ACAD_REACTORS
330
52A
102
}
330
52A
100
AcDbXrecord
280
     1
290
     1
  0
XRECORD
  5
52D
102
{ACAD_REACTORS
330
52C
102
}
330
52C
100
AcDbXrecord
280
     1
290
     1
  0
XRECORD
  5
52F
102
{ACAD_REACTORS
330
52E
102
}
330
52E
100
AcDbXrecord
280
     1
290
     1
  0
XRECORD
  5
531
102
{ACAD_REACTORS
330
530
102
}
330
530
100
AcDbXrecord
280
     1
290
     1
  0
XRECORD
  5
533
102
{ACAD_REACTORS
330
532
102
}
330
532
100
AcDbXrecord
280
     1
290
     1
  0
XRECORD
  5
535
102
{ACAD_REACTORS
330
534
102
}
330
534
100
AcDbXrecord
280
     1
290
     1
  0
XRECORD
  5
537
102
{ACAD_REACTORS
330
536
102
}
330
536
100
AcDbXrecord
280
     1
290
     1
  0
XRECORD
  5
539
102
{ACAD_REACTORS
330
538
102
}
330
538
100
AcDbXrecord
280
     1
290
     1
  0
ACDBDETAILVIEWSTYLE
  5
4B3
102
{ACAD_REACTORS
330
4B2
102
}
330
4B2
100
AcDbModelDocViewStyle
 70
     0
  3
Imperial24
290
     0
100
AcDbDetailViewStyle
 70
     0
 71
     0
 90
        3
 71
     1
340
49D
 40
0.24
340
0
 40
0.24
300

 40
0.36
280
     3
 71
     2
340
4A4
 90
       25
 71
     3
340
49D
 40
0.24
 90
        1
 40
0.75
 90
        1
300
%<\AcVar ViewType \f "%tc1">% %<\AcVar ViewDetailId>%\PSCALE %<\AcVar ViewScale \f "%sn">%
 71
     4
340
4A4
 90
       25
340
4A4
 90
       25
280
     0
  0
LAYOUT
  5
4B7
102
{ACAD_XDICTIONARY
360
57E
102
}
102
{ACAD_REACTORS
330
4A9
102
}
330
4A9
100
AcDbPlotSettings
  1

  2
Brother DCP-9020CDW Printer
  4

  6

 40
0.0
 41
0.0
 42
0.0
 43
0.0
 44
0.0
 45
0.0
 46
0.0
 47
0.0
 48
0.0
 49
0.0
140
0.0
141
0.0
142
1.0
143
1.0
 70
   688
 72
     0
 73
     0
 74
     5
  7

 75
    16
147
1.0
148
0.0
149
0.0
100
AcDbLayout
  1
Layout1
 70
     1
 71
     1
 10
0.0
 20
0.0
 11
12.0
 21
9.0
 12
0.0
 22
0.0
 32
0.0
 14
1.000000000000000E+20
 24
1.000000000000000E+20
 34
1.000000000000000E+20
 15
-1.000000000000000E+20
 25
-1.000000000000000E+20
 35
-1.000000000000000E+20
146
0.0
 13
0.0
 23
0.0
 33
0.0
 16
1.0
 26
0.0
 36
0.0
 17
0.0
 27
1.0
 37
0.0
 76
     0
330
4B4
  0
LAYOUT
  5
4BB
102
{ACAD_XDICTIONARY
360
580
102
}
102
{ACAD_REACTORS
330
4A9
102
}
330
4A9
100
AcDbPlotSettings
  1

  2
Brother DCP-9020CDW Printer
  4

  6

 40
0.0
 41
0.0
 42
0.0
 43
0.0
 44
0.0
 45
0.0
 46
0.0
 47
0.0
 48
0.0
 49
0.0
140
0.0
141
0.0
142
1.0
143
1.0
 70
  1712
 72
     0
 73
     0
 74
     0
  7

 75
     0
147
1.0
148
0.0
149
0.0
100
AcDbLayout
  1
Model
 70
     1
 71
     0
 10
0.0
 20
0.0
 11
12.0
 21
9.0
 12
0.0
 22
0.0
 32
0.0
 14
0.0
 24
0.0
 34
0.0
 15
0.0
 25
0.0
 35
0.0
146
0.0
 13
0.0
 23
0.0
 33
0.0
 16
1.0
 26
0.0
 36
0.0
 17
0.0
 27
1.0
 37
0.0
 76
     0
330
4B8
331
4E7
  0
MATERIAL
  5
461
102
{ACAD_XDICTIONARY
360
462
102
}
102
{ACAD_REACTORS
330
458
102
}
330
458
100
AcDbMaterial
  1
ByBlock
 72
     0
 43
0.0208333333333333
 43
0.0
 43
0.0
 43
0.0
 43
0.0
 43
0.0208333333333333
 43
0.0
 43
0.0
 43
0.0
 43
0.0
 43
1.0
 43
0.0
 43
0.0
 43
0.0
 43
0.0
 43
1.0
 77
     0
 47
0.0208333333333333
 47
0.0
 47
0.0
 47
0.0
 47
0.0
 47
0.0208333333333333
 47
0.0
 47
0.0
 47
0.0
 47
0.0
 47
1.0
 47
0.0
 47
0.0
 47
0.0
 47
0.0
 47
1.0
171
     0
 49
0.0208333333333333
 49
0.0
 49
0.0
 49
0.0
 49
0.0
 49
0.0208333333333333
 49
0.0
 49
0.0
 49
0.0
 49
0.0
 49
1.0
 49
0.0
 49
0.0
 49
0.0
 49
0.0
 49
1.0
175
     0
142
0.0208333333333333
142
0.0
142
0.0
142
0.0
142
0.0
142
0.0208333333333333
142
0.0
142
0.0
142
0.0
142
0.0
142
1.0
142
0.0
142
0.0
142
0.0
142
0.0
142
1.0
179
     0
144
0.0208333333333333
144
0.0
144
0.0
144
0.0
144
0.0
144
0.0208333333333333
144
0.0
144
0.0
144
0.0
144
0.0
144
1.0
144
0.0
144
0.0
144
0.0
144
0.0
144
1.0
147
0.0208333333333333
147
0.0
147
0.0
147
0.0
147
0.0
147
0.0208333333333333
147
0.0
147
0.0
147
0.0
147
0.0
147
1.0
147
0.0
147
0.0
147
0.0
147
0.0
147
1.0
  0
MATERIAL
  5
459
102
{ACAD_XDICTIONARY
360
45A
102
}
102
{ACAD_REACTORS
330
458
102
}
330
458
100
AcDbMaterial
  1
ByLayer
 72
     0
 43
0.0208333333333333
 43
0.0
 43
0.0
 43
0.0
 43
0.0
 43
0.0208333333333333
 43
0.0
 43
0.0
 43
0.0
 43
0.0
 43
1.0
 43
0.0
 43
0.0
 43
0.0
 43
0.0
 43
1.0
 77
     0
 47
0.0208333333333333
 47
0.0
 47
0.0
 47
0.0
 47
0.0
 47
0.0208333333333333
 47
0.0
 47
0.0
 47
0.0
 47
0.0
 47
1.0
 47
0.0
 47
0.0
 47
0.0
 47
0.0
 47
1.0
171
     0
 49
0.0208333333333333
 49
0.0
 49
0.0
 49
0.0
 49
0.0
 49
0.0208333333333333
 49
0.0
 49
0.0
 49
0.0
 49
0.0
 49
1.0
 49
0.0
 49
0.0
 49
0.0
 49
0.0
 49
1.0
175
     0
142
0.0208333333333333
142
0.0
142
0.0
142
0.0
142
0.0
142
0.0208333333333333
142
0.0
142
0.0
142
0.0
142
0.0
142
1.0
142
0.0
142
0.0
142
0.0
142
0.0
142
1.0
179
     0
144
0.0208333333333333
144
0.0
144
0.0
144
0.0
144
0.0
144
0.0208333333333333
144
0.0
144
0.0
144
0.0
144
0.0
144
1.0
144
0.0
144
0.0
144
0.0
144
0.0
144
1.0
147
0.0208333333333333
147
0.0
147
0.0
147
0.0
147
0.0
147
0.0208333333333333
147
0.0
147
0.0
147
0.0
147
0.0
147
1.0
147
0.0
147
0.0
147
0.0
147
0.0
147
1.0
  0
MATERIAL
  5
469
102
{ACAD_XDICTIONARY
360
46A
102
}
102
{ACAD_REACTORS
330
458
102
}
330
458
100
AcDbMaterial
  1
Global
 72
     0
 43
0.0208333333333333
 43
0.0
 43
0.0
 43
0.0
 43
0.0
 43
0.0208333333333333
 43
0.0
 43
0.0
 43
0.0
 43
0.0
 43
1.0
 43
0.0
 43
0.0
 43
0.0
 43
0.0
 43
1.0
 77
     0
 47
0.0208333333333333
 47
0.0
 47
0.0
 47
0.0
 47
0.0
 47
0.0208333333333333
 47
0.0
 47
0.0
 47
0.0
 47
0.0
 47
1.0
 47
0.0
 47
0.0
 47
0.0
 47
0.0
 47
1.0
171
     0
 49
0.0208333333333333
 49
0.0
 49
0.0
 49
0.0
 49
0.0
 49
0.0208333333333333
 49
0.0
 49
0.0
 49
0.0
 49
0.0
 49
1.0
 49
0.0
 49
0.0
 49
0.0
 49
0.0
 49
1.0
175
     0
142
0.0208333333333333
142
0.0
142
0.0
142
0.0
142
0.0
142
0.0208333333333333
142
0.0
142
0.0
142
0.0
142
0.0
142
1.0
142
0.0
142
0.0
142
0.0
142
0.0
142
1.0
179
     0
144
0.0208333333333333
144
0.0
144
0.0
144
0.0
144
0.0
144
0.0208333333333333
144
0.0
144
0.0
144
0.0
144
0.0
144
1.0
144
0.0
144
0.0
144
0.0
144
0.0
144
1.0
147
0.0208333333333333
147
0.0
147
0.0
147
0.0
147
0.0
147
0.0208333333333333
147
0.0
147
0.0
147
0.0
147
0.0
147
1.0
147
0.0
147
0.0
147
0.0
147
0.0
147
1.0
  0
MLEADERSTYLE
  5
4AE
102
{ACAD_REACTORS
330
4AD
102
}
330
4AD
100
AcDbMLeaderStyle
170
     2
171
     1
172
     0
 90
        2
 40
0.0
 41
0.0
173
     1
 91
-1056964608
340
4A2
 92
       -2
290
     1
 42
0.09
291
     1
 43
0.36
  3
Standard
 44
0.18
300

342
49D
174
     1
178
     6
175
     1
176
     0
 93
-1056964608
 45
0.18
292
     0
297
     0
 46
0.18
 94
-1056964608
 47
1.0
 49
1.0
140
1.0
293
     1
141
0.0
294
     1
177
     0
142
1.0
295
     0
296
     0
143
0.125
1001
ACAD_MLEADERVER
1070
     2
  0
MLINESTYLE
  5
4A7
102
{ACAD_REACTORS
330
4A6
102
}
330
4A6
100
AcDbMlineStyle
  2
STANDARD
 70
     0
  3

 62
   256
 51
90.0
 52
90.0
 71
     2
 49
0.5
 62
   256
  6
BYLAYER
 49
-0.5
 62
   256
  6
BYLAYER
  0
ACDBPLACEHOLDER
  5
457
102
{ACAD_REACTORS
330
456
102
}
330
456
  0
SCALE
  5
48B
102
{ACAD_REACTORS
330
48A
102
}
330
48A
100
AcDbScale
 70
     0
300
1:1
140
1.0
141
1.0
290
     1
  0
SCALE
  5
48C
102
{ACAD_REACTORS
330
48A
102
}
330
48A
100
AcDbScale
 70
     0
300
1/128" = 1'-0"
140
0.0078125
141
12.0
290
     0
  0
SCALE
  5
48D
102
{ACAD_REACTORS
330
48A
102
}
330
48A
100
AcDbScale
 70
     0
300
1/64" = 1'-0"
140
0.015625
141
12.0
290
     0
  0
SCALE
  5
48E
102
{ACAD_REACTORS
330
48A
102
}
330
48A
100
AcDbScale
 70
     0
300
1/32" = 1'-0"
140
0.03125
141
12.0
290
     0
  0
SCALE
  5
48F
102
{ACAD_REACTORS
330
48A
102
}
330
48A
100
AcDbScale
 70
     0
300
1/16" = 1'-0"
140
0.0625
141
12.0
290
     0
  0
SCALE
  5
490
102
{ACAD_REACTORS
330
48A
102
}
330
48A
100
AcDbScale
 70
     0
300
3/32" = 1'-0"
140
0.09375
141
12.0
290
     0
  0
SCALE
  5
491
102
{ACAD_REACTORS
330
48A
102
}
330
48A
100
AcDbScale
 70
     0
300
1/8" = 1'-0"
140
0.125
141
12.0
290
     0
  0
SCALE
  5
492
102
{ACAD_REACTORS
330
48A
102
}
330
48A
100
AcDbScale
 70
     0
300
3/16" = 1'-0"
140
0.1875
141
12.0
290
     0
  0
SCALE
  5
493
102
{ACAD_REACTORS
330
48A
102
}
330
48A
100
AcDbScale
 70
     0
300
1/4" = 1'-0"
140
0.25
141
12.0
290
     0
  0
SCALE
  5
494
102
{ACAD_REACTORS
330
48A
102
}
330
48A
100
AcDbScale
 70
     0
300
3/8" = 1'-0"
140
0.375
141
12.0
290
     0
  0
SCALE
  5
495
102
{ACAD_REACTORS
330
48A
102
}
330
48A
100
AcDbScale
 70
     0
300
1/2" = 1'-0"
140
0.5
141
12.0
290
     0
  0
SCALE
  5
496
102
{ACAD_REACTORS
330
48A
102
}
330
48A
100
AcDbScale
 70
     0
300
3/4" = 1'-0"
140
0.75
141
12.0
290
     0
  0
SCALE
  5
497
102
{ACAD_REACTORS
330
48A
102
}
330
48A
100
AcDbScale
 70
     0
300
1" = 1'-0"
140
1.0
141
12.0
290
     0
  0
SCALE
  5
498
102
{ACAD_REACTORS
330
48A
102
}
330
48A
100
AcDbScale
 70
     0
300
1-1/2" = 1'-0"
140
1.5
141
12.0
290
     0
  0
SCALE
  5
499
102
{ACAD_REACTORS
330
48A
102
}
330
48A
100
AcDbScale
 70
     0
300
3" = 1'-0"
140
3.0
141
12.0
290
     0
  0
SCALE
  5
49A
102
{ACAD_REACTORS
330
48A
102
}
330
48A
100
AcDbScale
 70
     0
300
6" = 1'-0"
140
6.0
141
12.0
290
     0
  0
SCALE
  5
49B
102
{ACAD_REACTORS
330
48A
102
}
330
48A
100
AcDbScale
 70
     0
300
1'-0" = 1'-0"
140
12.0
141
12.0
290
     0
  0
ACDBSECTIONVIEWSTYLE
  5
4B1
102
{ACAD_REACTORS
330
4AF
102
}
330
4AF
100
AcDbModelDocViewStyle
 70
     0
  3
Imperial24
290
     0
100
AcDbSectionViewStyle
 70
     0
 71
     0
 90
       78
 71
     1
340
49D
 40
0.24
340
0
340
0
 40
0.24
300
I, O, Q, S, X, Z
 40
0.48
 90
        3
 40
0.18
 90
        1
 71
     2
340
4B0
 90
       25
340
4A4
 90
       50
 40
0.24
 40
0.0
 40
0.24
 71
     3
340
49D
 40
0.24
 90
        1
 40
0.75
 90
        1
300
%<\AcVar ViewType \f "%tc1">% %<\AcVar ViewSectionStartId>%-%<\AcVar ViewSectionEndId>%\PSCALE %<\AcVar ViewScale \f "%sn">%
 71
     4
300
ANSI31
 40
1.0
 90
        0
290
     0
290
     0
 90
        6
 40
0.0
 40
1.570796326794896
 40
0.2617993877991494
 40
1.308996938995747
 40
-0.2617993877991494
 40
1.832595714594046
  0
TABLESTYLE
  5
4AC
102
{ACAD_XDICTIONARY
360
545
102
}
102
{ACAD_REACTORS
330
4AB
102
}
330
4AB
100
AcDbTableStyle
  3
Standard
 70
     0
 71
     0
 40
0.06
 41
0.06
280
     0
281
     0
  7
STANDARD
140
0.18
170
     2
 62
     0
 63
     7
283
     0
274
    -2
284
     1
 64
     0
275
    -2
285
     1
 65
     0
276
    -2
286
     1
 66
     0
277
    -2
287
     1
 67
     0
278
    -2
288
     1
 68
     0
279
    -2
289
     1
 69
     0
  7
STANDARD
140
0.25
170
     5
 62
     0
 63
     7
283
     0
274
    -2
284
     1
 64
     0
275
    -2
285
     1
 65
     0
276
    -2
286
     1
 66
     0
277
    -2
287
     1
 67
     0
278
    -2
288
     1
 68
     0
279
    -2
289
     1
 69
     0
  7
STANDARD
140
0.18
170
     5
 62
     0
 63
     7
283
     0
274
    -2
284
     1
 64
     0
275
    -2
285
     1
 65
     0
276
    -2
286
     1
 66
     0
277
    -2
287
     1
 67
     0
278
    -2
288
     1
 68
     0
279
    -2
289
     1
 69
     0
  0
VISUALSTYLE
  5
477
102
{ACAD_XDICTIONARY
360
556
102
}
102
{ACAD_REACTORS
330
471
102
}
330
471
100
AcDbVisualStyle
  2
2dWireframe
 70
     4
 71
     0
 72
     2
 73
     0
 90
        0
 40
-0.6
 41
-30.0
 62
     5
 63
     7
 74
     1
 91
        4
 64
     7
 65
   257
 75
     1
175
     1
 42
1.0
 92
        0
 66
   257
 43
1.0
 76
     1
 77
     6
 78
     2
 67
     7
 79
     5
170
     0
171
     0
290
     0
174
     0
 93
        1
 44
0.0
173
     0
291
     0
 45
0.0
1001
ACAD
1000
AcDbSavedByObjectVersion
1070
     0
  0
VISUALSTYLE
  5
476
102
{ACAD_XDICTIONARY
360
554
102
}
102
{ACAD_REACTORS
330
471
102
}
330
471
100
AcDbVisualStyle
  2
Basic
 70
     7
 71
     1
 72
     0
 73
     1
 90
        0
 40
-0.6
 41
-30.0
 62
     5
 63
     7
 74
     0
 91
        4
 64
     7
 65
   257
 75
     1
175
     1
 42
1.0
 92
        8
 66
     7
 43
1.0
 76
     1
 77
     6
 78
     2
 67
     7
 79
     5
170
     0
171
     0
290
     0
174
     0
 93
        1
 44
0.0
173
     0
291
     1
 45
0.0
1001
ACAD
1000
AcDbSavedByObjectVersion
1070
     0
  0
VISUALSTYLE
  5
47D
102
{ACAD_XDICTIONARY
360
562
102
}
102
{ACAD_REACTORS
330
471
102
}
330
471
100
AcDbVisualStyle
  2
Brighten
 70
    12
 71
     2
 72
     2
 73
     0
 90
        0
 40
-0.6
 41
-30.0
 62
     5
 63
     7
 74
     1
 91
        4
 64
     7
 65
   257
 75
     1
175
     1
 42
1.0
 92
        8
 66
     7
 43
1.0
 76
     1
 77
     6
 78
     2
 67
     7
 79
     5
170
     0
171
     0
290
     0
174
     0
 93
        1
 44
50.0
173
     0
291
     1
 45
0.0
1001
ACAD
1000
AcDbSavedByObjectVersion
1070
     0
  0
VISUALSTYLE
  5
481
102
{ACAD_XDICTIONARY
360
56A
102
}
102
{ACAD_REACTORS
330
471
102
}
330
471
100
AcDbVisualStyle
  2
ColorChange
 70
    16
 71
     2
 72
     2
 73
     3
 90
        0
 40
-0.6
 41
-30.0
 62
     5
 63
     8
 74
     1
 91
        4
 64
     7
 65
   257
 75
     1
175
     1
 42
1.0
 92
        8
 66
     8
 43
1.0
 76
     1
 77
     6
 78
     2
 67
     7
 79
     5
170
     0
171
     0
290
     0
174
     0
 93
        1
 44
0.0
173
     0
291
     1
 45
0.0
1001
ACAD
1000
AcDbSavedByObjectVersion
1070
     0
  0
VISUALSTYLE
  5
47A
102
{ACAD_XDICTIONARY
360
55C
102
}
102
{ACAD_REACTORS
330
471
102
}
330
471
100
AcDbVisualStyle
  2
Conceptual
 70
     9
 71
     3
 72
     2
 73
     0
 90
        0
 40
-0.6
 41
-30.0
 62
     5
 63
     7
 74
     2
 91
        2
 64
     7
 65
   257
 75
     1
175
     1
 42
179.0
 92
        8
 66
     7
 43
1.0
 76
     1
 77
     6
 78
     2
 67
     7
 79
     3
170
     0
171
     0
290
     0
174
     0
 93
        1
 44
0.0
173
     0
291
     0
 45
0.0
1001
ACAD
1000
AcDbSavedByObjectVersion
1070
     0
  0
VISUALSTYLE
  5
47C
102
{ACAD_XDICTIONARY
360
560
102
}
102
{ACAD_REACTORS
330
471
102
}
330
471
100
AcDbVisualStyle
  2
Dim
 70
    11
 71
     2
 72
     2
 73
     0
 90
        0
 40
-0.6
 41
-30.0
 62
     5
 63
     7
 74
     1
 91
        4
 64
     7
 65
   257
 75
     1
175
     1
 42
1.0
 92
        8
 66
     7
 43
1.0
 76
     1
 77
     6
 78
     2
 67
     7
 79
     5
170
     0
171
     0
290
     0
174
     0
 93
        1
 44
-50.0
173
     0
291
     1
 45
0.0
1001
ACAD
1000
AcDbSavedByObjectVersion
1070
     0
  0
VISUALSTYLE
  5
489
102
{ACAD_XDICTIONARY
360
57A
102
}
102
{ACAD_REACTORS
330
471
102
}
330
471
100
AcDbVisualStyle
  2
EdgeColorOff
 70
    22
 71
     2
 72
     2
 73
     0
 90
        0
 40
-0.6
 41
-30.0
 62
     5
 63
     7
 74
     1
 91
        4
 64
     7
 65
   257
 75
     1
175
     1
 42
1.0
 92
        8
 66
     7
 43
1.0
 76
     1
 77
     6
 78
     2
 67
     7
 79
     5
170
     0
171
     0
290
     0
174
     0
 93
        1
 44
0.0
173
     0
291
     1
 45
0.0
1001
ACAD
1000
AcDbSavedByObjectVersion
1070
     0
  0
VISUALSTYLE
  5
480
102
{ACAD_XDICTIONARY
360
568
102
}
102
{ACAD_REACTORS
330
471
102
}
330
471
100
AcDbVisualStyle
  2
Facepattern
 70
    15
 71
     2
 72
     2
 73
     0
 90
        0
 40
-0.6
 41
-30.0
 62
     5
 63
     7
 74
     1
 91
        4
 64
     7
 65
   257
 75
     1
175
     1
 42
1.0
 92
        8
 66
     7
 43
1.0
 76
     1
 77
     6
 78
     2
 67
     7
 79
     5
170
     0
171
     0
290
     0
174
     0
 93
        1
 44
0.0
173
     0
291
     1
 45
0.0
1001
ACAD
1000
AcDbSavedByObjectVersion
1070
     0
  0
VISUALSTYLE
  5
472
102
{ACAD_XDICTIONARY
360
54C
102
}
102
{ACAD_REACTORS
330
471
102
}
330
471
100
AcDbVisualStyle
  2
Flat
 70
     0
 71
     2
 72
     1
 73
     1
 90
        2
 40
-0.6
 41
30.0
 62
     5
 63
     7
 74
     0
 91
        0
 64
     7
 65
   257
 75
     1
175
     1
 42
1.0
 92
        8
 66
     7
 43
1.0
 76
     1
 77
     6
 78
     2
 67
     7
 79
     5
170
     0
171
     0
290
     0
174
     0
 93
       13
 44
0.0
173
     0
291
     1
 45
0.0
1001
ACAD
1000
AcDbSavedByObjectVersion
1070
     0
  0
VISUALSTYLE
  5
473
102
{ACAD_XDICTIONARY
360
54E
102
}
102
{ACAD_REACTORS
330
471
102
}
330
471
100
AcDbVisualStyle
  2
FlatWithEdges
 70
     1
 71
     2
 72
     1
 73
     1
 90
        2
 40
-0.6
 41
30.0
 62
     5
 63
     7
 74
     1
 91
        0
 64
     7
 65
   257
 75
     1
175
     1
 42
1.0
 92
        0
 66
   257
 43
1.0
 76
     1
 77
     6
 78
     2
 67
     7
 79
     5
170
     0
171
     0
290
     0
174
     0
 93
       13
 44
0.0
173
     0
291
     1
 45
0.0
1001
ACAD
1000
AcDbSavedByObjectVersion
1070
     0
  0
VISUALSTYLE
  5
474
102
{ACAD_XDICTIONARY
360
550
102
}
102
{ACAD_REACTORS
330
471
102
}
330
471
100
AcDbVisualStyle
  2
Gouraud
 70
     2
 71
     2
 72
     2
 73
     1
 90
        2
 40
-0.6
 41
30.0
 62
     5
 63
     7
 74
     0
 91
        0
 64
     7
 65
   257
 75
     1
175
     1
 42
1.0
 92
        0
 66
     7
 43
1.0
 76
     1
 77
     6
 78
     2
 67
     7
 79
     5
170
     0
171
     0
290
     0
174
     0
 93
       13
 44
0.0
173
     0
291
     1
 45
0.0
1001
ACAD
1000
AcDbSavedByObjectVersion
1070
     0
  0
VISUALSTYLE
  5
475
102
{ACAD_XDICTIONARY
360
552
102
}
102
{ACAD_REACTORS
330
471
102
}
330
471
100
AcDbVisualStyle
  2
GouraudWithEdges
 70
     3
 71
     2
 72
     2
 73
     1
 90
        2
 40
-0.6
 41
30.0
 62
     5
 63
     7
 74
     1
 91
        0
 64
     7
 65
   257
 75
     1
175
     1
 42
1.0
 92
        0
 66
   257
 43
1.0
 76
     1
 77
     6
 78
     2
 67
     7
 79
     5
170
     0
171
     0
290
     0
174
     0
 93
       13
 44
0.0
173
     0
291
     1
 45
0.0
1001
ACAD
1000
AcDbSavedByObjectVersion
1070
     0
  0
VISUALSTYLE
  5
479
102
{ACAD_XDICTIONARY
360
55A
102
}
102
{ACAD_REACTORS
330
471
102
}
330
471
100
AcDbVisualStyle
  2
Hidden
 70
     6
 71
     1
 72
     2
 73
     2
 90
        0
 40
-0.6
 41
-30.0
 62
     5
 63
     7
 74
     2
 91
        2
 64
     7
 65
   257
 75
     2
175
     1
 42
40.0
 92
        0
 66
   257
 43
1.0
 76
     1
 77
     6
 78
     2
 67
     7
 79
     3
170
     0
171
     0
290
     0
174
     0
 93
        1
 44
0.0
173
     0
291
     0
 45
0.0
1001
ACAD
1000
AcDbSavedByObjectVersion
1070
     0
  0
VISUALSTYLE
  5
487
102
{ACAD_XDICTIONARY
360
576
102
}
102
{ACAD_REACTORS
330
471
102
}
330
471
100
AcDbVisualStyle
  2
JitterOff
 70
    20
 71
     2
 72
     2
 73
     0
 90
        0
 40
-0.6
 41
-30.0
 62
     5
 63
     7
 74
     1
 91
        4
 64
     7
 65
   257
 75
     1
175
     1
 42
1.0
 92
       10
 66
     7
 43
1.0
 76
     1
 77
     6
 78
     2
 67
     7
 79
     5
170
     0
171
     0
290
     0
174
     0
 93
        1
 44
0.0
173
     0
291
     1
 45
0.0
1001
ACAD
1000
AcDbSavedByObjectVersion
1070
     0
  0
VISUALSTYLE
  5
47F
102
{ACAD_XDICTIONARY
360
566
102
}
102
{ACAD_REACTORS
330
471
102
}
330
471
100
AcDbVisualStyle
  2
Linepattern
 70
    14
 71
     2
 72
     2
 73
     0
 90
        0
 40
-0.6
 41
-30.0
 62
     5
 63
     7
 74
     1
 91
        4
 64
     7
 65
   257
 75
     7
175
     7
 42
1.0
 92
        8
 66
     7
 43
1.0
 76
     1
 77
     6
 78
     2
 67
     7
 79
     5
170
     0
171
     0
290
     0
174
     0
 93
        1
 44
0.0
173
     0
291
     1
 45
0.0
1001
ACAD
1000
AcDbSavedByObjectVersion
1070
     0
  0
VISUALSTYLE
  5
488
102
{ACAD_XDICTIONARY
360
578
102
}
102
{ACAD_REACTORS
330
471
102
}
330
471
100
AcDbVisualStyle
  2
OverhangOff
 70
    21
 71
     2
 72
     2
 73
     0
 90
        0
 40
-0.6
 41
-30.0
 62
     5
 63
     7
 74
     1
 91
        4
 64
     7
 65
   257
 75
     1
175
     1
 42
1.0
 92
        9
 66
     7
 43
1.0
 76
     1
 77
     6
 78
     2
 67
     7
 79
     5
170
     0
171
     0
290
     0
174
     0
 93
        1
 44
0.0
173
     0
291
     1
 45
0.0
1001
ACAD
1000
AcDbSavedByObjectVersion
1070
     0
  0
VISUALSTYLE
  5
47B
102
{ACAD_XDICTIONARY
360
55E
102
}
102
{ACAD_REACTORS
330
471
102
}
330
471
100
AcDbVisualStyle
  2
Realistic
 70
     8
 71
     2
 72
     3
 73
     0
 90
        2
 40
-0.6
 41
30.0
 62
     5
 63
     7
 74
     0
 91
        0
 64
     7
 65
   257
 75
     1
175
     1
 42
1.0
 92
        8
 66
   257
 43
1.0
 76
     1
 77
     6
 78
     2
 67
     7
 79
     3
170
     0
171
     0
290
     0
174
     0
 93
       13
 44
0.0
173
     0
291
     0
 45
0.0
1001
ACAD
1000
AcDbSavedByObjectVersion
1070
     0
  0
VISUALSTYLE
  5
486
102
{ACAD_XDICTIONARY
360
574
102
}
102
{ACAD_REACTORS
330
471
102
}
330
471
100
AcDbVisualStyle
  2
Shaded
 70
    27
 71
     2
 72
     2
 73
     1
 90
        2
 40
-0.6
 41
30.0
 62
     5
 63
     7
 74
     0
 91
        4
 64
     7
 65
   257
 75
     1
175
     1
 42
1.0
 92
        8
 66
   257
 43
1.0
 76
     1
 77
     6
 78
     2
 67
     8
 79
     3
170
     0
171
     0
290
     0
174
     0
 93
        5
 44
0.0
173
     0
291
     0
 45
0.0
1001
ACAD
1000
AcDbSavedByObjectVersion
1070
     0
  0
VISUALSTYLE
  5
485
102
{ACAD_XDICTIONARY
360
572
102
}
102
{ACAD_REACTORS
330
471
102
}
330
471
100
AcDbVisualStyle
  2
Shaded with edges
 70
    26
 71
     2
 72
     2
 73
     1
 90
        2
 40
-0.6
 41
30.0
 62
     5
 63
     7
 74
     1
 91
       10
 64
     7
 65
   257
 75
     2
175
     1
 42
1.0
 92
        8
 66
   257
 43
1.0
 76
     1
 77
     6
 78
     2
 67
     7
 79
     3
170
     0
171
     0
290
     0
174
     0
 93
        5
 44
0.0
173
     0
291
     0
 45
0.0
1001
ACAD
1000
AcDbSavedByObjectVersion
1070
     0
  0
VISUALSTYLE
  5
482
102
{ACAD_XDICTIONARY
360
56C
102
}
102
{ACAD_REACTORS
330
471
102
}
330
471
100
AcDbVisualStyle
  2
Shades of Gray
 70
    23
 71
     2
 72
     2
 73
     3
 90
        0
 40
-0.6
 41
-30.0
 62
     5
 63
     7
 74
     2
 91
        2
 64
     7
 65
     7
 75
     1
175
     1
 42
40.0
 92
        8
 66
     7
 43
1.0
 76
     1
 77
     6
 78
     2
 67
     7
 79
     3
170
     0
171
     0
290
     0
174
     0
 93
        1
 44
0.0
173
     0
291
     0
 45
0.0
1001
ACAD
1000
AcDbSavedByObjectVersion
1070
     0
  0
VISUALSTYLE
  5
483
102
{ACAD_XDICTIONARY
360
56E
102
}
102
{ACAD_REACTORS
330
471
102
}
330
471
100
AcDbVisualStyle
  2
Sketchy
 70
    24
 71
     1
 72
     2
 73
     2
 90
        0
 40
-0.6
 41
-30.0
 62
     5
 63
     7
 74
     2
 91
        2
 64
     7
 65
     7
 75
     1
175
     1
 42
40.0
 92
       11
 66
     7
 43
1.0
 76
     1
 77
     6
 78
     2
 67
     7
 79
     6
170
     0
171
     0
290
     0
174
     0
 93
        1
 44
0.0
173
     0
291
     0
 45
0.0
1001
ACAD
1000
AcDbSavedByObjectVersion
1070
     0
  0
VISUALSTYLE
  5
47E
102
{ACAD_XDICTIONARY
360
564
102
}
102
{ACAD_REACTORS
330
471
102
}
330
471
100
AcDbVisualStyle
  2
Thicken
 70
    13
 71
     2
 72
     2
 73
     0
 90
        0
 40
-0.6
 41
-30.0
 62
     5
 63
     7
 74
     1
 91
        4
 64
     7
 65
   257
 75
     1
175
     1
 42
1.0
 92
       12
 66
     7
 43
1.0
 76
     1
 77
     6
 78
     2
 67
     7
 79
     5
170
     0
171
     0
290
     0
174
     0
 93
        1
 44
0.0
173
     0
291
     1
 45
0.0
1001
ACAD
1000
AcDbSavedByObjectVersion
1070
     0
  0
VISUALSTYLE
  5
478
102
{ACAD_XDICTIONARY
360
558
102
}
102
{ACAD_REACTORS
330
471
102
}
330
471
100
AcDbVisualStyle
  2
Wireframe
 70
     5
 71
     0
 72
     2
 73
     0
 90
        0
 40
-0.6
 41
-30.0
 62
     5
 63
     7
 74
     1
 91
        4
 64
     7
 65
   257
 75
     1
175
     1
 42
1.0
 92
        0
 66
   257
 43
1.0
 76
     1
 77
     6
 78
     2
 67
     7
 79
     3
170
     0
171
     0
290
     0
174
     0
 93
        1
 44
0.0
173
     0
291
     0
 45
0.0
1001
ACAD
1000
AcDbSavedByObjectVersion
1070
     0
  0
VISUALSTYLE
  5
484
102
{ACAD_XDICTIONARY
360
570
102
}
102
{ACAD_REACTORS
330
471
102
}
330
471
100
AcDbVisualStyle
  2
X-Ray
 70
    25
 71
     2
 72
     2
 73
     1
 90
        1
 40
0.5
 41
-30.0
 62
     5
 63
     7
 74
     1
 91
        0
 64
     7
 65
   257
 75
     1
175
     1
 42
1.0
 92
        8
 66
     7
 43
1.0
 76
     1
 77
     6
 78
     2
 67
     7
 79
     3
170
     0
171
     0
290
     0
174
     0
 93
       13
 44
0.0
173
     0
291
     0
 45
0.0
1001
ACAD
1000
AcDbSavedByObjectVersion
1070
     0
  0
DICTIONARYVAR
  5
53F
102
{ACAD_REACTORS
330
53A
102
}
330
53A
100
DictionaryVariables
280
     0
  1
1:1
  0
DICTIONARYVAR
  5
53C
102
{ACAD_REACTORS
330
53A
102
}
330
53A
100
DictionaryVariables
280
     0
  1
STANDARD
  0
DICTIONARYVAR
  5
53B
102
{ACAD_REACTORS
330
53A
102
}
330
53A
100
DictionaryVariables
280
     0
  1
STANDARD
  0
DICTIONARYVAR
  5
53D
102
{ACAD_REACTORS
330
53A
102
}
330
53A
100
DictionaryVariables
280
     0
  1
Imperial24
  0
DICTIONARYVAR
  5
53E
102
{ACAD_REACTORS
330
53A
102
}
330
53A
100
DictionaryVariables
280
     0
  1
Imperial24
  0
DICTIONARYVAR
  5
542
102
{ACAD_REACTORS
330
53A
102
}
330
53A
100
DictionaryVariables
280
     0
  1
1
  0
DICTIONARYVAR
  5
541
102
{ACAD_REACTORS
330
53A
102
}
330
53A
100
DictionaryVariables
280
     0
  1
0
  0
DICTIONARYVAR
  5
540
102
{ACAD_REACTORS
330
53A
102
}
330
53A
100
DictionaryVariables
280
     0
  1
127
  0
DICTIONARYVAR
  5
543
102
{ACAD_REACTORS
330
53A
102
}
330
53A
100
DictionaryVariables
280
     0
  1
2
  0
DICTIONARY
  5
57E
330
4B7
100
AcDbDictionary
280
     1
281
     1
  3
ACAD_XREC_ROUNDTRIP
360
57F
  0
DICTIONARY
  5
580
330
4BB
100
AcDbDictionary
280
     1
281
     1
  3
ACAD_XREC_ROUNDTRIP
360
581
  0
DICTIONARY
  5
462
330
461
100
AcDbDictionary
280
     1
281
     1
  3
ACAD_XREC_ROUNDTRIP
360
54A
  3
BUMPTILE
360
464
  3
DIFFUSETILE
360
463
  3
OPACITYTILE
360
467
  3
REFLECTIONTILE
360
466
  3
REFRACTIONTILE
360
468
  3
SPECULARTILE
360
465
  0
DICTIONARY
  5
45A
330
459
100
AcDbDictionary
280
     1
281
     1
  3
ACAD_XREC_ROUNDTRIP
360
549
  3
BUMPTILE
360
45C
  3
DIFFUSETILE
360
45B
  3
OPACITYTILE
360
45F
  3
REFLECTIONTILE
360
45E
  3
REFRACTIONTILE
360
460
  3
SPECULARTILE
360
45D
  0
DICTIONARY
  5
46A
330
469
100
AcDbDictionary
280
     1
281
     1
  3
ACAD_XREC_ROUNDTRIP
360
54B
  3
BUMPTILE
360
46C
  3
DIFFUSETILE
360
46B
  3
OPACITYTILE
360
46F
  3
REFLECTIONTILE
360
46E
  3
REFRACTIONTILE
360
470
  3
SPECULARTILE
360
46D
  0
DICTIONARY
  5
545
330
4AC
100
AcDbDictionary
280
     1
281
     1
  3
ACAD_ROUNDTRIP_2008_TABLESTYLE_CELLSTYLEMAP
360
546
  3
ACAD_XREC_ROUNDTRIP
360
57C
  0
DICTIONARY
  5
556
330
477
100
AcDbDictionary
280
     1
281
     1
  3
ACAD_XREC_ROUNDTRIP
360
557
  0
DICTIONARY
  5
554
330
476
100
AcDbDictionary
280
     1
281
     1
  3
ACAD_XREC_ROUNDTRIP
360
555
  0
DICTIONARY
  5
562
330
47D
100
AcDbDictionary
280
     1
281
     1
  3
ACAD_XREC_ROUNDTRIP
360
563
  0
DICTIONARY
  5
56A
330
481
100
AcDbDictionary
280
     1
281
     1
  3
ACAD_XREC_ROUNDTRIP
360
56B
  0
DICTIONARY
  5
55C
330
47A
100
AcDbDictionary
280
     1
281
     1
  3
ACAD_XREC_ROUNDTRIP
360
55D
  0
DICTIONARY
  5
560
330
47C
100
AcDbDictionary
280
     1
281
     1
  3
ACAD_XREC_ROUNDTRIP
360
561
  0
DICTIONARY
  5
57A
330
489
100
AcDbDictionary
280
     1
281
     1
  3
ACAD_XREC_ROUNDTRIP
360
57B
  0
DICTIONARY
  5
568
330
480
100
AcDbDictionary
280
     1
281
     1
  3
ACAD_XREC_ROUNDTRIP
360
569
  0
DICTIONARY
  5
54C
330
472
100
AcDbDictionary
280
     1
281
     1
  3
ACAD_XREC_ROUNDTRIP
360
54D
  0
DICTIONARY
  5
54E
330
473
100
AcDbDictionary
280
     1
281
     1
  3
ACAD_XREC_ROUNDTRIP
360
54F
  0
DICTIONARY
  5
550
330
474
100
AcDbDictionary
280
     1
281
     1
  3
ACAD_XREC_ROUNDTRIP
360
551
  0
DICTIONARY
  5
552
330
475
100
AcDbDictionary
280
     1
281
     1
  3
ACAD_XREC_ROUNDTRIP
360
553
  0
DICTIONARY
  5
55A
330
479
100
AcDbDictionary
280
     1
281
     1
  3
ACAD_XREC_ROUNDTRIP
360
55B
  0
DICTIONARY
  5
576
330
487
100
AcDbDictionary
280
     1
281
     1
  3
ACAD_XREC_ROUNDTRIP
360
577
  0
DICTIONARY
  5
566
330
47F
100
AcDbDictionary
280
     1
281
     1
  3
ACAD_XREC_ROUNDTRIP
360
567
  0
DICTIONARY
  5
578
330
488
100
AcDbDictionary
280
     1
281
     1
  3
ACAD_XREC_ROUNDTRIP
360
579
  0
DICTIONARY
  5
55E
330
47B
100
AcDbDictionary
280
     1
281
     1
  3
ACAD_XREC_ROUNDTRIP
360
55F
  0
DICTIONARY
  5
574
330
486
100
AcDbDictionary
280
     1
281
     1
  3
ACAD_XREC_ROUNDTRIP
360
575
  0
DICTIONARY
  5
572
330
485
100
AcDbDictionary
280
     1
281
     1
  3
ACAD_XREC_ROUNDTRIP
360
573
  0
DICTIONARY
  5
56C
330
482
100
AcDbDictionary
280
     1
281
     1
  3
ACAD_XREC_ROUNDTRIP
360
56D
  0
DICTIONARY
  5
56E
330
483
100
AcDbDictionary
280
     1
281
     1
  3
ACAD_XREC_ROUNDTRIP
360
56F
  0
DICTIONARY
  5
564
330
47E
100
AcDbDictionary
280
     1
281
     1
  3
ACAD_XREC_ROUNDTRIP
360
565
  0
DICTIONARY
  5
558
330
478
100
AcDbDictionary
280
     1
281
     1
  3
ACAD_XREC_ROUNDTRIP
360
559
  0
DICTIONARY
  5
570
330
484
100
AcDbDictionary
280
     1
281
     1
  3
ACAD_XREC_ROUNDTRIP
360
571
  0
XRECORD
  5
57F
102
{ACAD_REACTORS
330
57E
102
}
330
57E
100
AcDbXrecord
280
     1
102
SHADEPLOT
 70
     0
102
SHADEPLOTRESLEVEL
 70
     2
102
SHADEPLOTCUSTOMDPI
 70
   300
  0
XRECORD
  5
581
102
{ACAD_REACTORS
330
580
102
}
330
580
100
AcDbXrecord
280
     1
102
SHADEPLOT
 70
     0
102
SHADEPLOTRESLEVEL
 70
     2
102
SHADEPLOTCUSTOMDPI
 70
   300
  0
XRECORD
  5
54A
102
{ACAD_REACTORS
330
462
102
}
330
462
100
AcDbXrecord
280
     1
102
MATERIAL
148
0.0
149
0.0
149
0.0
 93
        0
 94
      127
282
     0
 72
     0
 77
     0
171
     0
175
     0
179
     0
273
     0
  0
XRECORD
  5
464
102
{ACAD_REACTORS
330
462
102
}
330
462
100
AcDbXrecord
280
     1
270
     1
271
     1
  0
XRECORD
  5
463
102
{ACAD_REACTORS
330
462
102
}
330
462
100
AcDbXrecord
280
     1
270
     1
271
     1
  0
XRECORD
  5
467
102
{ACAD_REACTORS
330
462
102
}
330
462
100
AcDbXrecord
280
     1
270
     1
271
     1
  0
XRECORD
  5
466
102
{ACAD_REACTORS
330
462
102
}
330
462
100
AcDbXrecord
280
     1
270
     1
271
     1
  0
XRECORD
  5
468
102
{ACAD_REACTORS
330
462
102
}
330
462
100
AcDbXrecord
280
     1
270
     1
271
     1
  0
XRECORD
  5
465
102
{ACAD_REACTORS
330
462
102
}
330
462
100
AcDbXrecord
280
     1
270
     1
271
     1
  0
XRECORD
  5
549
102
{ACAD_REACTORS
330
45A
102
}
330
45A
100
AcDbXrecord
280
     1
102
MATERIAL
148
0.0
149
0.0
149
0.0
 93
        0
 94
      127
282
     0
 72
     0
 77
     0
171
     0
175
     0
179
     0
273
     0
  0
XRECORD
  5
45C
102
{ACAD_REACTORS
330
45A
102
}
330
45A
100
AcDbXrecord
280
     1
270
     1
271
     1
  0
XRECORD
  5
45B
102
{ACAD_REACTORS
330
45A
102
}
330
45A
100
AcDbXrecord
280
     1
270
     1
271
     1
  0
XRECORD
  5
45F
102
{ACAD_REACTORS
330
45A
102
}
330
45A
100
AcDbXrecord
280
     1
270
     1
271
     1
  0
XRECORD
  5
45E
102
{ACAD_REACTORS
330
45A
102
}
330
45A
100
AcDbXrecord
280
     1
270
     1
271
     1
  0
XRECORD
  5
460
102
{ACAD_REACTORS
330
45A
102
}
330
45A
100
AcDbXrecord
280
     1
270
     1
271
     1
  0
XRECORD
  5
45D
102
{ACAD_REACTORS
330
45A
102
}
330
45A
100
AcDbXrecord
280
     1
270
     1
271
     1
  0
XRECORD
  5
54B
102
{ACAD_REACTORS
330
46A
102
}
330
46A
100
AcDbXrecord
280
     1
102
MATERIAL
148
0.0
149
0.0
149
0.0
 93
        0
 94
      127
282
     0
 72
     0
 77
     0
171
     0
175
     0
179
     0
273
     0
  0
XRECORD
  5
46C
102
{ACAD_REACTORS
330
46A
102
}
330
46A
100
AcDbXrecord
280
     1
270
     1
271
     1
  0
XRECORD
  5
46B
102
{ACAD_REACTORS
330
46A
102
}
330
46A
100
AcDbXrecord
280
     1
270
     1
271
     1
  0
XRECORD
  5
46F
102
{ACAD_REACTORS
330
46A
102
}
330
46A
100
AcDbXrecord
280
     1
270
     1
271
     1
  0
XRECORD
  5
46E
102
{ACAD_REACTORS
330
46A
102
}
330
46A
100
AcDbXrecord
280
     1
270
     1
271
     1
  0
XRECORD
  5
470
102
{ACAD_REACTORS
330
46A
102
}
330
46A
100
AcDbXrecord
280
     1
270
     1
271
     1
  0
XRECORD
  5
46D
102
{ACAD_REACTORS
330
46A
102
}
330
46A
100
AcDbXrecord
280
     1
270
     1
271
     1
  0
CELLSTYLEMAP
  5
546
102
{ACAD_REACTORS
330
545
102
}
330
545
100
AcDbCellStyleMap
 90
        3
300
CELLSTYLE
  1
TABLEFORMAT_BEGIN
 90
        5
170
     1
 91
        0
 92
    32768
 62
   257
 93
        1
300
CONTENTFORMAT
  1
CONTENTFORMAT_BEGIN
 90
        0
 91
        0
 92
      512
 93
        0
300

 40
0.0
140
1.0
 94
        5
 62
     0
340
49D
144
0.25
309
CONTENTFORMAT_END
171
     0
 94
        0
309
TABLEFORMAT_END
  1
CELLSTYLE_BEGIN
 90
        1
 91
        1
300
_TITLE
309
CELLSTYLE_END
300
CELLSTYLE
  1
TABLEFORMAT_BEGIN
 90
        5
170
     1
 91
        0
 92
        0
 62
   257
 93
        1
300
CONTENTFORMAT
  1
CONTENTFORMAT_BEGIN
 90
        0
 91
        0
 92
      512
 93
        0
300

 40
0.0
140
1.0
 94
        5
 62
     0
340
49D
144
0.18
309
CONTENTFORMAT_END
171
     0
 94
        0
309
TABLEFORMAT_END
  1
CELLSTYLE_BEGIN
 90
        2
 91
        1
300
_HEADER
309
CELLSTYLE_END
300
CELLSTYLE
  1
TABLEFORMAT_BEGIN
 90
        5
170
     1
 91
        0
 92
        0
 62
   257
 93
        1
300
CONTENTFORMAT
  1
CONTENTFORMAT_BEGIN
 90
        0
 91
        0
 92
      512
 93
        0
300

 40
0.0
140
1.0
 94
        2
 62
     0
340
49D
144
0.18
309
CONTENTFORMAT_END
171
     0
 94
        0
309
TABLEFORMAT_END
  1
CELLSTYLE_BEGIN
 90
        3
 91
        2
300
_DATA
309
CELLSTYLE_END
  0
XRECORD
  5
57C
102
{ACAD_REACTORS
330
545
102
}
330
545
100
AcDbXrecord
280
     1
102
ACAD_ROUNDTRIP_PRE2007_TABLESTYLE
 90
      512
 91
        0
  1

 92
      512
 93
        0
  2

 94
      512
 95
        0
  3

  0
XRECORD
  5
557
102
{ACAD_REACTORS
330
556
102
}
330
556
100
AcDbXrecord
280
     1
102
RTVSPost2010Prop28
280
     1
102
RTVSPost2010PropOp28
 70
     1
102
RTVSPost2010Prop29
280
     1
102
RTVSPost2010PropOp29
 70
     1
102
RTVSPost2010Prop30
280
     0
102
RTVSPost2010PropOp30
 70
     1
102
RTVSPost2010Prop31
280
     0
102
RTVSPost2010PropOp31
 70
     1
102
RTVSPost2010Prop32
280
     0
102
RTVSPost2010PropOp32
 70
     1
102
RTVSPost2010Prop33
280
     0
102
RTVSPost2010PropOp33
 70
     1
102
RTVSPost2010Prop34
280
     0
102
RTVSPost2010PropOp34
 70
     1
102
RTVSPost2010Prop35
280
     0
102
RTVSPost2010PropOp35
 70
     1
102
RTVSPost2010Prop36
280
     0
102
RTVSPost2010PropOp36
 70
     1
102
RTVSPost2010Prop37
 90
       50
102
RTVSPost2010PropOp37
 70
     1
102
RTVSPost2010Prop38
140
0.0
102
RTVSPost2010PropOp38
 70
     1
102
RTVSPost2010Prop39
140
1.0
102
RTVSPost2010PropOp39
 70
     1
102
RTVSPost2010Prop40
 90
        0
102
RTVSPost2010PropOp40
 70
     1
102
RTVSPost2010Prop41ColorIndex
 90
       18
102
RTVSPost2010Prop41ColorRGB
 90
        0
102
RTVSPost2010PropOp41
 70
     1
102
RTVSPost2010Prop42
 90
       50
102
RTVSPost2010PropOp42
 70
     1
102
RTVSPost2010Prop43
 90
        3
102
RTVSPost2010PropOp43
 70
     1
102
RTVSPost2010Prop44ColorIndex
 90
        5
102
RTVSPost2010Prop44ColorRGB
 90
      255
102
RTVSPost2010PropOp44
 70
     1
102
RTVSPost2010Prop45
280
     0
102
RTVSPost2010PropOp45
 70
     1
102
RTVSPost2010Prop46
 90
       50
102
RTVSPost2010PropOp46
 70
     1
102
RTVSPost2010Prop47
 90
       50
102
RTVSPost2010PropOp47
 70
     1
102
RTVSPost2010Prop48
 90
       50
102
RTVSPost2010PropOp48
 70
     1
102
RTVSPost2010Prop49
280
     0
102
RTVSPost2010PropOp49
 70
     1
102
RTVSPost2010Prop50
 90
       50
102
RTVSPost2010PropOp50
 70
     1
102
RTVSPost2010Prop51ColorIndex
 90
      256
102
RTVSPost2010Prop51ColorRGB
 90
-16777216
102
RTVSPost2010PropOp51
 70
     0
102
RTVSPost2010Prop52
140
1.0
102
RTVSPost2010PropOp52
 70
     0
102
RTVSPost2010Prop53
 90
        2
102
RTVSPost2010PropOp53
 70
     1
102
RTVSPost2010Prop54
  1
strokes_ogs.tif
102
RTVSPost2010PropOp54
 70
     1
102
RTVSPost2010Prop55
280
     0
102
RTVSPost2010PropOp55
 70
     1
102
RTVSPost2010Prop56
140
1.0
102
RTVSPost2010PropOp56
 70
     1
102
RTVSPost2010Prop57
140
1.0
102
RTVSPost2010PropOp57
 70
     1
102
RTVSPropertyOp0
 70
     1
102
RTVSPropertyOp1
 70
     1
102
RTVSPropertyOp2
 70
     1
102
RTVSPropertyOp3
 70
     1
102
RTVSPropertyOp4
 70
     1
102
RTVSPropertyOp5
 70
     1
102
RTVSPropertyOp6
 70
     1
102
RTVSPropertyOp7
 70
     1
102
RTVSPropertyOp8
 70
     1
102
RTVSPropertyOp9
 70
     1
102
RTVSPropertyOp10
 70
     1
102
RTVSPropertyOp11
 70
     1
102
RTVSPropertyOp12
 70
     1
102
RTVSPropertyOp13
 70
     1
102
RTVSPropertyOp14
 70
     1
102
RTVSPropertyOp15
 70
     1
102
RTVSPropertyOp16
 70
     1
102
RTVSPropertyOp17
 70
     1
102
RTVSPropertyOp18
 70
     1
102
RTVSPropertyOp19
 70
     1
102
RTVSPropertyOp20
 70
     1
102
RTVSPropertyOp21
 70
     1
102
RTVSPropertyOp22
 70
     1
102
RTVSPropertyOp23
 70
     1
102
RTVSPropertyOp24
 70
     1
102
RTVSPropertyOp25
 70
     1
102
RTVSPropertyOp26
 70
     1
102
RTVSPropertyOp27
 70
     1
102
RTVSPropertyOp28
 70
     1
102
RTVSPropertyOp29
 70
     1
102
RTVSPropertyOp30
 70
     1
102
RTVSPropertyOp31
 70
     1
102
RTVSPropertyOp32
 70
     1
102
RTVSPropertyOp33
 70
     1
102
RTVSPropertyOp34
 70
     1
102
RTVSPropertyOp35
 70
     1
102
RTVSPropertyOp36
 70
     1
102
RTVSPropertyOp37
 70
     1
102
RTVSPropertyOp38
 70
     1
102
RTVSPropertyOp39
 70
     1
102
RTVSPropertyOp40
 70
     1
102
RTVSPropertyOp41
 70
     1
102
RTVSPropertyOp42
 70
     1
102
RTVSPropertyOp43
 70
     1
102
RTVSPropertyOp44
 70
     1
102
RTVSPropertyOp45
 70
     1
102
RTVSPropertyOp46
 70
     1
102
RTVSPropertyOp47
 70
     1
102
RTVSPropertyOp48
 70
     1
102
RTVSPropertyOp49
 70
     1
102
RTVSPropertyOp50
 70
     1
102
RTVSPropertyOp51
 70
     0
102
RTVSPropertyOp52
 70
     0
102
RTVSPropertyOp53
 70
     1
102
RTVSPropertyOp54
 70
     1
102
RTVSPropertyOp55
 70
     1
102
RTVSPropertyOp56
 70
     1
102
RTVSPropertyOp57
 70
     1
102
RTVSPropertyOp58
 70
     1
102
RTVSPropertyOp59
 70
     1
102
RTVSPropertyOp60
 70
     1
102
RTVSPropertyOp61
 70
     1
102
RTVSPropertyOp62
 70
     1
  0
XRECORD
  5
555
102
{ACAD_REACTORS
330
554
102
}
330
554
100
AcDbXrecord
280
     1
102
RTVSPost2010Prop28
280
     0
102
RTVSPost2010PropOp28
 70
     1
102
RTVSPost2010Prop29
280
     1
102
RTVSPost2010PropOp29
 70
     1
102
RTVSPost2010Prop30
280
     1
102
RTVSPost2010PropOp30
 70
     1
102
RTVSPost2010Prop31
280
     0
102
RTVSPost2010PropOp31
 70
     1
102
RTVSPost2010Prop32
280
     0
102
RTVSPost2010PropOp32
 70
     1
102
RTVSPost2010Prop33
280
     0
102
RTVSPost2010PropOp33
 70
     1
102
RTVSPost2010Prop34
280
     0
102
RTVSPost2010PropOp34
 70
     1
102
RTVSPost2010Prop35
280
     0
102
RTVSPost2010PropOp35
 70
     1
102
RTVSPost2010Prop36
280
     0
102
RTVSPost2010PropOp36
 70
     1
102
RTVSPost2010Prop37
 90
       50
102
RTVSPost2010PropOp37
 70
     1
102
RTVSPost2010Prop38
140
0.0
102
RTVSPost2010PropOp38
 70
     1
102
RTVSPost2010Prop39
140
1.0
102
RTVSPost2010PropOp39
 70
     1
102
RTVSPost2010Prop40
 90
        0
102
RTVSPost2010PropOp40
 70
     1
102
RTVSPost2010Prop41ColorIndex
 90
       18
102
RTVSPost2010Prop41ColorRGB
 90
        0
102
RTVSPost2010PropOp41
 70
     1
102
RTVSPost2010Prop42
 90
       50
102
RTVSPost2010PropOp42
 70
     1
102
RTVSPost2010Prop43
 90
        3
102
RTVSPost2010PropOp43
 70
     1
102
RTVSPost2010Prop44ColorIndex
 90
        5
102
RTVSPost2010Prop44ColorRGB
 90
      255
102
RTVSPost2010PropOp44
 70
     1
102
RTVSPost2010Prop45
280
     0
102
RTVSPost2010PropOp45
 70
     1
102
RTVSPost2010Prop46
 90
       50
102
RTVSPost2010PropOp46
 70
     1
102
RTVSPost2010Prop47
 90
       50
102
RTVSPost2010PropOp47
 70
     1
102
RTVSPost2010Prop48
 90
       50
102
RTVSPost2010PropOp48
 70
     1
102
RTVSPost2010Prop49
280
     0
102
RTVSPost2010PropOp49
 70
     1
102
RTVSPost2010Prop50
 90
       50
102
RTVSPost2010PropOp50
 70
     1
102
RTVSPost2010Prop51ColorIndex
 90
      256
102
RTVSPost2010Prop51ColorRGB
 90
-16777216
102
RTVSPost2010PropOp51
 70
     0
102
RTVSPost2010Prop52
140
1.0
102
RTVSPost2010PropOp52
 70
     0
102
RTVSPost2010Prop53
 90
        2
102
RTVSPost2010PropOp53
 70
     1
102
RTVSPost2010Prop54
  1
strokes_ogs.tif
102
RTVSPost2010PropOp54
 70
     1
102
RTVSPost2010Prop55
280
     0
102
RTVSPost2010PropOp55
 70
     1
102
RTVSPost2010Prop56
140
1.0
102
RTVSPost2010PropOp56
 70
     1
102
RTVSPost2010Prop57
140
1.0
102
RTVSPost2010PropOp57
 70
     1
102
RTVSPropertyOp0
 70
     1
102
RTVSPropertyOp1
 70
     1
102
RTVSPropertyOp2
 70
     1
102
RTVSPropertyOp3
 70
     1
102
RTVSPropertyOp4
 70
     1
102
RTVSPropertyOp5
 70
     1
102
RTVSPropertyOp6
 70
     1
102
RTVSPropertyOp7
 70
     1
102
RTVSPropertyOp8
 70
     1
102
RTVSPropertyOp9
 70
     1
102
RTVSPropertyOp10
 70
     1
102
RTVSPropertyOp11
 70
     1
102
RTVSPropertyOp12
 70
     1
102
RTVSPropertyOp13
 70
     1
102
RTVSPropertyOp14
 70
     1
102
RTVSPropertyOp15
 70
     1
102
RTVSPropertyOp16
 70
     1
102
RTVSPropertyOp17
 70
     1
102
RTVSPropertyOp18
 70
     1
102
RTVSPropertyOp19
 70
     1
102
RTVSPropertyOp20
 70
     1
102
RTVSPropertyOp21
 70
     1
102
RTVSPropertyOp22
 70
     1
102
RTVSPropertyOp23
 70
     1
102
RTVSPropertyOp24
 70
     1
102
RTVSPropertyOp25
 70
     1
102
RTVSPropertyOp26
 70
     1
102
RTVSPropertyOp27
 70
     1
102
RTVSPropertyOp28
 70
     1
102
RTVSPropertyOp29
 70
     1
102
RTVSPropertyOp30
 70
     1
102
RTVSPropertyOp31
 70
     1
102
RTVSPropertyOp32
 70
     1
102
RTVSPropertyOp33
 70
     1
102
RTVSPropertyOp34
 70
     1
102
RTVSPropertyOp35
 70
     1
102
RTVSPropertyOp36
 70
     1
102
RTVSPropertyOp37
 70
     1
102
RTVSPropertyOp38
 70
     1
102
RTVSPropertyOp39
 70
     1
102
RTVSPropertyOp40
 70
     1
102
RTVSPropertyOp41
 70
     1
102
RTVSPropertyOp42
 70
     1
102
RTVSPropertyOp43
 70
     1
102
RTVSPropertyOp44
 70
     1
102
RTVSPropertyOp45
 70
     1
102
RTVSPropertyOp46
 70
     1
102
RTVSPropertyOp47
 70
     1
102
RTVSPropertyOp48
 70
     1
102
RTVSPropertyOp49
 70
     1
102
RTVSPropertyOp50
 70
     1
102
RTVSPropertyOp51
 70
     0
102
RTVSPropertyOp52
 70
     0
102
RTVSPropertyOp53
 70
     1
102
RTVSPropertyOp54
 70
     1
102
RTVSPropertyOp55
 70
     1
102
RTVSPropertyOp56
 70
     1
102
RTVSPropertyOp57
 70
     1
102
RTVSPropertyOp58
 70
     1
102
RTVSPropertyOp59
 70
     1
102
RTVSPropertyOp60
 70
     1
102
RTVSPropertyOp61
 70
     1
102
RTVSPropertyOp62
 70
     1
  0
XRECORD
  5
563
102
{ACAD_REACTORS
330
562
102
}
330
562
100
AcDbXrecord
280
     1
102
RTVSPost2010Prop28
280
     0
102
RTVSPost2010PropOp28
 70
     1
102
RTVSPost2010Prop29
280
     1
102
RTVSPost2010PropOp29
 70
     1
102
RTVSPost2010Prop30
280
     1
102
RTVSPost2010PropOp30
 70
     1
102
RTVSPost2010Prop31
280
     0
102
RTVSPost2010PropOp31
 70
     1
102
RTVSPost2010Prop32
280
     0
102
RTVSPost2010PropOp32
 70
     1
102
RTVSPost2010Prop33
280
     0
102
RTVSPost2010PropOp33
 70
     1
102
RTVSPost2010Prop34
280
     0
102
RTVSPost2010PropOp34
 70
     1
102
RTVSPost2010Prop35
280
     0
102
RTVSPost2010PropOp35
 70
     1
102
RTVSPost2010Prop36
280
     0
102
RTVSPost2010PropOp36
 70
     1
102
RTVSPost2010Prop37
 90
       50
102
RTVSPost2010PropOp37
 70
     1
102
RTVSPost2010Prop38
140
0.0
102
RTVSPost2010PropOp38
 70
     1
102
RTVSPost2010Prop39
140
1.0
102
RTVSPost2010PropOp39
 70
     1
102
RTVSPost2010Prop40
 90
        0
102
RTVSPost2010PropOp40
 70
     1
102
RTVSPost2010Prop41ColorIndex
 90
       18
102
RTVSPost2010Prop41ColorRGB
 90
        0
102
RTVSPost2010PropOp41
 70
     1
102
RTVSPost2010Prop42
 90
       50
102
RTVSPost2010PropOp42
 70
     1
102
RTVSPost2010Prop43
 90
        3
102
RTVSPost2010PropOp43
 70
     1
102
RTVSPost2010Prop44ColorIndex
 90
        5
102
RTVSPost2010Prop44ColorRGB
 90
      255
102
RTVSPost2010PropOp44
 70
     1
102
RTVSPost2010Prop45
280
     0
102
RTVSPost2010PropOp45
 70
     1
102
RTVSPost2010Prop46
 90
       50
102
RTVSPost2010PropOp46
 70
     1
102
RTVSPost2010Prop47
 90
       50
102
RTVSPost2010PropOp47
 70
     1
102
RTVSPost2010Prop48
 90
       50
102
RTVSPost2010PropOp48
 70
     1
102
RTVSPost2010Prop49
280
     0
102
RTVSPost2010PropOp49
 70
     1
102
RTVSPost2010Prop50
 90
       50
102
RTVSPost2010PropOp50
 70
     1
102
RTVSPost2010Prop51ColorIndex
 90
      256
102
RTVSPost2010Prop51ColorRGB
 90
-16777216
102
RTVSPost2010PropOp51
 70
     0
102
RTVSPost2010Prop52
140
1.0
102
RTVSPost2010PropOp52
 70
     0
102
RTVSPost2010Prop53
 90
        2
102
RTVSPost2010PropOp53
 70
     1
102
RTVSPost2010Prop54
  1
strokes_ogs.tif
102
RTVSPost2010PropOp54
 70
     1
102
RTVSPost2010Prop55
280
     0
102
RTVSPost2010PropOp55
 70
     1
102
RTVSPost2010Prop56
140
1.0
102
RTVSPost2010PropOp56
 70
     1
102
RTVSPost2010Prop57
140
1.0
102
RTVSPost2010PropOp57
 70
     1
102
RTVSPropertyOp0
 70
     1
102
RTVSPropertyOp1
 70
     1
102
RTVSPropertyOp2
 70
     1
102
RTVSPropertyOp3
 70
     1
102
RTVSPropertyOp4
 70
     1
102
RTVSPropertyOp5
 70
     1
102
RTVSPropertyOp6
 70
     1
102
RTVSPropertyOp7
 70
     1
102
RTVSPropertyOp8
 70
     1
102
RTVSPropertyOp9
 70
     1
102
RTVSPropertyOp10
 70
     1
102
RTVSPropertyOp11
 70
     1
102
RTVSPropertyOp12
 70
     1
102
RTVSPropertyOp13
 70
     1
102
RTVSPropertyOp14
 70
     1
102
RTVSPropertyOp15
 70
     1
102
RTVSPropertyOp16
 70
     1
102
RTVSPropertyOp17
 70
     1
102
RTVSPropertyOp18
 70
     1
102
RTVSPropertyOp19
 70
     1
102
RTVSPropertyOp20
 70
     1
102
RTVSPropertyOp21
 70
     1
102
RTVSPropertyOp22
 70
     1
102
RTVSPropertyOp23
 70
     1
102
RTVSPropertyOp24
 70
     1
102
RTVSPropertyOp25
 70
     1
102
RTVSPropertyOp26
 70
     1
102
RTVSPropertyOp27
 70
     1
102
RTVSPropertyOp28
 70
     1
102
RTVSPropertyOp29
 70
     1
102
RTVSPropertyOp30
 70
     1
102
RTVSPropertyOp31
 70
     1
102
RTVSPropertyOp32
 70
     1
102
RTVSPropertyOp33
 70
     1
102
RTVSPropertyOp34
 70
     1
102
RTVSPropertyOp35
 70
     1
102
RTVSPropertyOp36
 70
     1
102
RTVSPropertyOp37
 70
     1
102
RTVSPropertyOp38
 70
     1
102
RTVSPropertyOp39
 70
     1
102
RTVSPropertyOp40
 70
     1
102
RTVSPropertyOp41
 70
     1
102
RTVSPropertyOp42
 70
     1
102
RTVSPropertyOp43
 70
     1
102
RTVSPropertyOp44
 70
     1
102
RTVSPropertyOp45
 70
     1
102
RTVSPropertyOp46
 70
     1
102
RTVSPropertyOp47
 70
     1
102
RTVSPropertyOp48
 70
     1
102
RTVSPropertyOp49
 70
     1
102
RTVSPropertyOp50
 70
     1
102
RTVSPropertyOp51
 70
     0
102
RTVSPropertyOp52
 70
     0
102
RTVSPropertyOp53
 70
     1
102
RTVSPropertyOp54
 70
     1
102
RTVSPropertyOp55
 70
     1
102
RTVSPropertyOp56
 70
     1
102
RTVSPropertyOp57
 70
     1
102
RTVSPropertyOp58
 70
     1
102
RTVSPropertyOp59
 70
     1
102
RTVSPropertyOp60
 70
     1
102
RTVSPropertyOp61
 70
     1
102
RTVSPropertyOp62
 70
     1
  0
XRECORD
  5
56B
102
{ACAD_REACTORS
330
56A
102
}
330
56A
100
AcDbXrecord
280
     1
102
RTVSPost2010Prop28
280
     0
102
RTVSPost2010PropOp28
 70
     1
102
RTVSPost2010Prop29
280
     1
102
RTVSPost2010PropOp29
 70
     1
102
RTVSPost2010Prop30
280
     1
102
RTVSPost2010PropOp30
 70
     1
102
RTVSPost2010Prop31
280
     0
102
RTVSPost2010PropOp31
 70
     1
102
RTVSPost2010Prop32
280
     0
102
RTVSPost2010PropOp32
 70
     1
102
RTVSPost2010Prop33
280
     0
102
RTVSPost2010PropOp33
 70
     1
102
RTVSPost2010Prop34
280
     0
102
RTVSPost2010PropOp34
 70
     1
102
RTVSPost2010Prop35
280
     0
102
RTVSPost2010PropOp35
 70
     1
102
RTVSPost2010Prop36
280
     0
102
RTVSPost2010PropOp36
 70
     1
102
RTVSPost2010Prop37
 90
       50
102
RTVSPost2010PropOp37
 70
     1
102
RTVSPost2010Prop38
140
0.0
102
RTVSPost2010PropOp38
 70
     1
102
RTVSPost2010Prop39
140
1.0
102
RTVSPost2010PropOp39
 70
     1
102
RTVSPost2010Prop40
 90
        0
102
RTVSPost2010PropOp40
 70
     1
102
RTVSPost2010Prop41ColorIndex
 90
       18
102
RTVSPost2010Prop41ColorRGB
 90
        0
102
RTVSPost2010PropOp41
 70
     1
102
RTVSPost2010Prop42
 90
       50
102
RTVSPost2010PropOp42
 70
     1
102
RTVSPost2010Prop43
 90
        3
102
RTVSPost2010PropOp43
 70
     1
102
RTVSPost2010Prop44ColorIndex
 90
        5
102
RTVSPost2010Prop44ColorRGB
 90
      255
102
RTVSPost2010PropOp44
 70
     1
102
RTVSPost2010Prop45
280
     0
102
RTVSPost2010PropOp45
 70
     1
102
RTVSPost2010Prop46
 90
       50
102
RTVSPost2010PropOp46
 70
     1
102
RTVSPost2010Prop47
 90
       50
102
RTVSPost2010PropOp47
 70
     1
102
RTVSPost2010Prop48
 90
       50
102
RTVSPost2010PropOp48
 70
     1
102
RTVSPost2010Prop49
280
     0
102
RTVSPost2010PropOp49
 70
     1
102
RTVSPost2010Prop50
 90
       50
102
RTVSPost2010PropOp50
 70
     1
102
RTVSPost2010Prop51ColorIndex
 90
      256
102
RTVSPost2010Prop51ColorRGB
 90
-16777216
102
RTVSPost2010PropOp51
 70
     0
102
RTVSPost2010Prop52
140
1.0
102
RTVSPost2010PropOp52
 70
     0
102
RTVSPost2010Prop53
 90
        2
102
RTVSPost2010PropOp53
 70
     1
102
RTVSPost2010Prop54
  1
strokes_ogs.tif
102
RTVSPost2010PropOp54
 70
     1
102
RTVSPost2010Prop55
280
     0
102
RTVSPost2010PropOp55
 70
     1
102
RTVSPost2010Prop56
140
1.0
102
RTVSPost2010PropOp56
 70
     1
102
RTVSPost2010Prop57
140
1.0
102
RTVSPost2010PropOp57
 70
     1
102
RTVSPropertyOp0
 70
     1
102
RTVSPropertyOp1
 70
     1
102
RTVSPropertyOp2
 70
     1
102
RTVSPropertyOp3
 70
     1
102
RTVSPropertyOp4
 70
     1
102
RTVSPropertyOp5
 70
     1
102
RTVSPropertyOp6
 70
     1
102
RTVSPropertyOp7
 70
     1
102
RTVSPropertyOp8
 70
     1
102
RTVSPropertyOp9
 70
     1
102
RTVSPropertyOp10
 70
     1
102
RTVSPropertyOp11
 70
     1
102
RTVSPropertyOp12
 70
     1
102
RTVSPropertyOp13
 70
     1
102
RTVSPropertyOp14
 70
     1
102
RTVSPropertyOp15
 70
     1
102
RTVSPropertyOp16
 70
     1
102
RTVSPropertyOp17
 70
     1
102
RTVSPropertyOp18
 70
     1
102
RTVSPropertyOp19
 70
     1
102
RTVSPropertyOp20
 70
     1
102
RTVSPropertyOp21
 70
     1
102
RTVSPropertyOp22
 70
     1
102
RTVSPropertyOp23
 70
     1
102
RTVSPropertyOp24
 70
     1
102
RTVSPropertyOp25
 70
     1
102
RTVSPropertyOp26
 70
     1
102
RTVSPropertyOp27
 70
     1
102
RTVSPropertyOp28
 70
     1
102
RTVSPropertyOp29
 70
     1
102
RTVSPropertyOp30
 70
     1
102
RTVSPropertyOp31
 70
     1
102
RTVSPropertyOp32
 70
     1
102
RTVSPropertyOp33
 70
     1
102
RTVSPropertyOp34
 70
     1
102
RTVSPropertyOp35
 70
     1
102
RTVSPropertyOp36
 70
     1
102
RTVSPropertyOp37
 70
     1
102
RTVSPropertyOp38
 70
     1
102
RTVSPropertyOp39
 70
     1
102
RTVSPropertyOp40
 70
     1
102
RTVSPropertyOp41
 70
     1
102
RTVSPropertyOp42
 70
     1
102
RTVSPropertyOp43
 70
     1
102
RTVSPropertyOp44
 70
     1
102
RTVSPropertyOp45
 70
     1
102
RTVSPropertyOp46
 70
     1
102
RTVSPropertyOp47
 70
     1
102
RTVSPropertyOp48
 70
     1
102
RTVSPropertyOp49
 70
     1
102
RTVSPropertyOp50
 70
     1
102
RTVSPropertyOp51
 70
     0
102
RTVSPropertyOp52
 70
     0
102
RTVSPropertyOp53
 70
     1
102
RTVSPropertyOp54
 70
     1
102
RTVSPropertyOp55
 70
     1
102
RTVSPropertyOp56
 70
     1
102
RTVSPropertyOp57
 70
     1
102
RTVSPropertyOp58
 70
     1
102
RTVSPropertyOp59
 70
     1
102
RTVSPropertyOp60
 70
     1
102
RTVSPropertyOp61
 70
     1
102
RTVSPropertyOp62
 70
     1
  0
XRECORD
  5
55D
102
{ACAD_REACTORS
330
55C
102
}
330
55C
100
AcDbXrecord
280
     1
102
RTVSPost2010Prop28
280
     0
102
RTVSPost2010PropOp28
 70
     1
102
RTVSPost2010Prop29
280
     1
102
RTVSPost2010PropOp29
 70
     1
102
RTVSPost2010Prop30
280
     1
102
RTVSPost2010PropOp30
 70
     1
102
RTVSPost2010Prop31
280
     0
102
RTVSPost2010PropOp31
 70
     1
102
RTVSPost2010Prop32
280
     0
102
RTVSPost2010PropOp32
 70
     1
102
RTVSPost2010Prop33
280
     0
102
RTVSPost2010PropOp33
 70
     1
102
RTVSPost2010Prop34
280
     0
102
RTVSPost2010PropOp34
 70
     1
102
RTVSPost2010Prop35
280
     0
102
RTVSPost2010PropOp35
 70
     1
102
RTVSPost2010Prop36
280
     0
102
RTVSPost2010PropOp36
 70
     1
102
RTVSPost2010Prop37
 90
       50
102
RTVSPost2010PropOp37
 70
     1
102
RTVSPost2010Prop38
140
0.0
102
RTVSPost2010PropOp38
 70
     1
102
RTVSPost2010Prop39
140
1.0
102
RTVSPost2010PropOp39
 70
     1
102
RTVSPost2010Prop40
 90
        0
102
RTVSPost2010PropOp40
 70
     1
102
RTVSPost2010Prop41ColorIndex
 90
       18
102
RTVSPost2010Prop41ColorRGB
 90
        0
102
RTVSPost2010PropOp41
 70
     1
102
RTVSPost2010Prop42
 90
       50
102
RTVSPost2010PropOp42
 70
     1
102
RTVSPost2010Prop43
 90
        3
102
RTVSPost2010PropOp43
 70
     1
102
RTVSPost2010Prop44ColorIndex
 90
        5
102
RTVSPost2010Prop44ColorRGB
 90
      255
102
RTVSPost2010PropOp44
 70
     1
102
RTVSPost2010Prop45
280
     0
102
RTVSPost2010PropOp45
 70
     1
102
RTVSPost2010Prop46
 90
       50
102
RTVSPost2010PropOp46
 70
     1
102
RTVSPost2010Prop47
 90
       50
102
RTVSPost2010PropOp47
 70
     1
102
RTVSPost2010Prop48
 90
       50
102
RTVSPost2010PropOp48
 70
     1
102
RTVSPost2010Prop49
280
     0
102
RTVSPost2010PropOp49
 70
     1
102
RTVSPost2010Prop50
 90
       50
102
RTVSPost2010PropOp50
 70
     1
102
RTVSPost2010Prop51ColorIndex
 90
      256
102
RTVSPost2010Prop51ColorRGB
 90
-16777216
102
RTVSPost2010PropOp51
 70
     0
102
RTVSPost2010Prop52
140
1.0
102
RTVSPost2010PropOp52
 70
     0
102
RTVSPost2010Prop53
 90
        2
102
RTVSPost2010PropOp53
 70
     1
102
RTVSPost2010Prop54
  1
strokes_ogs.tif
102
RTVSPost2010PropOp54
 70
     1
102
RTVSPost2010Prop55
280
     0
102
RTVSPost2010PropOp55
 70
     1
102
RTVSPost2010Prop56
140
1.0
102
RTVSPost2010PropOp56
 70
     1
102
RTVSPost2010Prop57
140
1.0
102
RTVSPost2010PropOp57
 70
     1
102
RTVSPropertyOp0
 70
     1
102
RTVSPropertyOp1
 70
     1
102
RTVSPropertyOp2
 70
     1
102
RTVSPropertyOp3
 70
     1
102
RTVSPropertyOp4
 70
     1
102
RTVSPropertyOp5
 70
     1
102
RTVSPropertyOp6
 70
     1
102
RTVSPropertyOp7
 70
     1
102
RTVSPropertyOp8
 70
     1
102
RTVSPropertyOp9
 70
     1
102
RTVSPropertyOp10
 70
     1
102
RTVSPropertyOp11
 70
     1
102
RTVSPropertyOp12
 70
     1
102
RTVSPropertyOp13
 70
     1
102
RTVSPropertyOp14
 70
     1
102
RTVSPropertyOp15
 70
     1
102
RTVSPropertyOp16
 70
     1
102
RTVSPropertyOp17
 70
     1
102
RTVSPropertyOp18
 70
     1
102
RTVSPropertyOp19
 70
     1
102
RTVSPropertyOp20
 70
     1
102
RTVSPropertyOp21
 70
     1
102
RTVSPropertyOp22
 70
     1
102
RTVSPropertyOp23
 70
     1
102
RTVSPropertyOp24
 70
     1
102
RTVSPropertyOp25
 70
     1
102
RTVSPropertyOp26
 70
     1
102
RTVSPropertyOp27
 70
     1
102
RTVSPropertyOp28
 70
     1
102
RTVSPropertyOp29
 70
     1
102
RTVSPropertyOp30
 70
     1
102
RTVSPropertyOp31
 70
     1
102
RTVSPropertyOp32
 70
     1
102
RTVSPropertyOp33
 70
     1
102
RTVSPropertyOp34
 70
     1
102
RTVSPropertyOp35
 70
     1
102
RTVSPropertyOp36
 70
     1
102
RTVSPropertyOp37
 70
     1
102
RTVSPropertyOp38
 70
     1
102
RTVSPropertyOp39
 70
     1
102
RTVSPropertyOp40
 70
     1
102
RTVSPropertyOp41
 70
     1
102
RTVSPropertyOp42
 70
     1
102
RTVSPropertyOp43
 70
     1
102
RTVSPropertyOp44
 70
     1
102
RTVSPropertyOp45
 70
     1
102
RTVSPropertyOp46
 70
     1
102
RTVSPropertyOp47
 70
     1
102
RTVSPropertyOp48
 70
     1
102
RTVSPropertyOp49
 70
     1
102
RTVSPropertyOp50
 70
     1
102
RTVSPropertyOp51
 70
     0
102
RTVSPropertyOp52
 70
     0
102
RTVSPropertyOp53
 70
     1
102
RTVSPropertyOp54
 70
     1
102
RTVSPropertyOp55
 70
     1
102
RTVSPropertyOp56
 70
     1
102
RTVSPropertyOp57
 70
     1
102
RTVSPropertyOp58
 70
     1
102
RTVSPropertyOp59
 70
     1
102
RTVSPropertyOp60
 70
     1
102
RTVSPropertyOp61
 70
     1
102
RTVSPropertyOp62
 70
     1
  0
XRECORD
  5
561
102
{ACAD_REACTORS
330
560
102
}
330
560
100
AcDbXrecord
280
     1
102
RTVSPost2010Prop28
280
     0
102
RTVSPost2010PropOp28
 70
     1
102
RTVSPost2010Prop29
280
     1
102
RTVSPost2010PropOp29
 70
     1
102
RTVSPost2010Prop30
280
     1
102
RTVSPost2010PropOp30
 70
     1
102
RTVSPost2010Prop31
280
     0
102
RTVSPost2010PropOp31
 70
     1
102
RTVSPost2010Prop32
280
     0
102
RTVSPost2010PropOp32
 70
     1
102
RTVSPost2010Prop33
280
     0
102
RTVSPost2010PropOp33
 70
     1
102
RTVSPost2010Prop34
280
     0
102
RTVSPost2010PropOp34
 70
     1
102
RTVSPost2010Prop35
280
     0
102
RTVSPost2010PropOp35
 70
     1
102
RTVSPost2010Prop36
280
     0
102
RTVSPost2010PropOp36
 70
     1
102
RTVSPost2010Prop37
 90
       50
102
RTVSPost2010PropOp37
 70
     1
102
RTVSPost2010Prop38
140
0.0
102
RTVSPost2010PropOp38
 70
     1
102
RTVSPost2010Prop39
140
1.0
102
RTVSPost2010PropOp39
 70
     1
102
RTVSPost2010Prop40
 90
        0
102
RTVSPost2010PropOp40
 70
     1
102
RTVSPost2010Prop41ColorIndex
 90
       18
102
RTVSPost2010Prop41ColorRGB
 90
        0
102
RTVSPost2010PropOp41
 70
     1
102
RTVSPost2010Prop42
 90
       50
102
RTVSPost2010PropOp42
 70
     1
102
RTVSPost2010Prop43
 90
        3
102
RTVSPost2010PropOp43
 70
     1
102
RTVSPost2010Prop44ColorIndex
 90
        5
102
RTVSPost2010Prop44ColorRGB
 90
      255
102
RTVSPost2010PropOp44
 70
     1
102
RTVSPost2010Prop45
280
     0
102
RTVSPost2010PropOp45
 70
     1
102
RTVSPost2010Prop46
 90
       50
102
RTVSPost2010PropOp46
 70
     1
102
RTVSPost2010Prop47
 90
       50
102
RTVSPost2010PropOp47
 70
     1
102
RTVSPost2010Prop48
 90
       50
102
RTVSPost2010PropOp48
 70
     1
102
RTVSPost2010Prop49
280
     0
102
RTVSPost2010PropOp49
 70
     1
102
RTVSPost2010Prop50
 90
       50
102
RTVSPost2010PropOp50
 70
     1
102
RTVSPost2010Prop51ColorIndex
 90
      256
102
RTVSPost2010Prop51ColorRGB
 90
-16777216
102
RTVSPost2010PropOp51
 70
     0
102
RTVSPost2010Prop52
140
1.0
102
RTVSPost2010PropOp52
 70
     0
102
RTVSPost2010Prop53
 90
        2
102
RTVSPost2010PropOp53
 70
     1
102
RTVSPost2010Prop54
  1
strokes_ogs.tif
102
RTVSPost2010PropOp54
 70
     1
102
RTVSPost2010Prop55
280
     0
102
RTVSPost2010PropOp55
 70
     1
102
RTVSPost2010Prop56
140
1.0
102
RTVSPost2010PropOp56
 70
     1
102
RTVSPost2010Prop57
140
1.0
102
RTVSPost2010PropOp57
 70
     1
102
RTVSPropertyOp0
 70
     1
102
RTVSPropertyOp1
 70
     1
102
RTVSPropertyOp2
 70
     1
102
RTVSPropertyOp3
 70
     1
102
RTVSPropertyOp4
 70
     1
102
RTVSPropertyOp5
 70
     1
102
RTVSPropertyOp6
 70
     1
102
RTVSPropertyOp7
 70
     1
102
RTVSPropertyOp8
 70
     1
102
RTVSPropertyOp9
 70
     1
102
RTVSPropertyOp10
 70
     1
102
RTVSPropertyOp11
 70
     1
102
RTVSPropertyOp12
 70
     1
102
RTVSPropertyOp13
 70
     1
102
RTVSPropertyOp14
 70
     1
102
RTVSPropertyOp15
 70
     1
102
RTVSPropertyOp16
 70
     1
102
RTVSPropertyOp17
 70
     1
102
RTVSPropertyOp18
 70
     1
102
RTVSPropertyOp19
 70
     1
102
RTVSPropertyOp20
 70
     1
102
RTVSPropertyOp21
 70
     1
102
RTVSPropertyOp22
 70
     1
102
RTVSPropertyOp23
 70
     1
102
RTVSPropertyOp24
 70
     1
102
RTVSPropertyOp25
 70
     1
102
RTVSPropertyOp26
 70
     1
102
RTVSPropertyOp27
 70
     1
102
RTVSPropertyOp28
 70
     1
102
RTVSPropertyOp29
 70
     1
102
RTVSPropertyOp30
 70
     1
102
RTVSPropertyOp31
 70
     1
102
RTVSPropertyOp32
 70
     1
102
RTVSPropertyOp33
 70
     1
102
RTVSPropertyOp34
 70
     1
102
RTVSPropertyOp35
 70
     1
102
RTVSPropertyOp36
 70
     1
102
RTVSPropertyOp37
 70
     1
102
RTVSPropertyOp38
 70
     1
102
RTVSPropertyOp39
 70
     1
102
RTVSPropertyOp40
 70
     1
102
RTVSPropertyOp41
 70
     1
102
RTVSPropertyOp42
 70
     1
102
RTVSPropertyOp43
 70
     1
102
RTVSPropertyOp44
 70
     1
102
RTVSPropertyOp45
 70
     1
102
RTVSPropertyOp46
 70
     1
102
RTVSPropertyOp47
 70
     1
102
RTVSPropertyOp48
 70
     1
102
RTVSPropertyOp49
 70
     1
102
RTVSPropertyOp50
 70
     1
102
RTVSPropertyOp51
 70
     0
102
RTVSPropertyOp52
 70
     0
102
RTVSPropertyOp53
 70
     1
102
RTVSPropertyOp54
 70
     1
102
RTVSPropertyOp55
 70
     1
102
RTVSPropertyOp56
 70
     1
102
RTVSPropertyOp57
 70
     1
102
RTVSPropertyOp58
 70
     1
102
RTVSPropertyOp59
 70
     1
102
RTVSPropertyOp60
 70
     1
102
RTVSPropertyOp61
 70
     1
102
RTVSPropertyOp62
 70
     1
  0
XRECORD
  5
57B
102
{ACAD_REACTORS
330
57A
102
}
330
57A
100
AcDbXrecord
280
     1
102
RTVSPost2010Prop28
280
     0
102
RTVSPost2010PropOp28
 70
     1
102
RTVSPost2010Prop29
280
     1
102
RTVSPost2010PropOp29
 70
     1
102
RTVSPost2010Prop30
280
     1
102
RTVSPost2010PropOp30
 70
     1
102
RTVSPost2010Prop31
280
     0
102
RTVSPost2010PropOp31
 70
     1
102
RTVSPost2010Prop32
280
     0
102
RTVSPost2010PropOp32
 70
     1
102
RTVSPost2010Prop33
280
     0
102
RTVSPost2010PropOp33
 70
     1
102
RTVSPost2010Prop34
280
     0
102
RTVSPost2010PropOp34
 70
     1
102
RTVSPost2010Prop35
280
     0
102
RTVSPost2010PropOp35
 70
     1
102
RTVSPost2010Prop36
280
     0
102
RTVSPost2010PropOp36
 70
     1
102
RTVSPost2010Prop37
 90
       50
102
RTVSPost2010PropOp37
 70
     0
102
RTVSPost2010Prop38
140
0.0
102
RTVSPost2010PropOp38
 70
     0
102
RTVSPost2010Prop39
140
1.0
102
RTVSPost2010PropOp39
 70
     0
102
RTVSPost2010Prop40
 90
        0
102
RTVSPost2010PropOp40
 70
     0
102
RTVSPost2010Prop41ColorIndex
 90
       18
102
RTVSPost2010Prop41ColorRGB
 90
        0
102
RTVSPost2010PropOp41
 70
     0
102
RTVSPost2010Prop42
 90
       50
102
RTVSPost2010PropOp42
 70
     0
102
RTVSPost2010Prop43
 90
        3
102
RTVSPost2010PropOp43
 70
     0
102
RTVSPost2010Prop44ColorIndex
 90
        5
102
RTVSPost2010Prop44ColorRGB
 90
      255
102
RTVSPost2010PropOp44
 70
     0
102
RTVSPost2010Prop45
280
     0
102
RTVSPost2010PropOp45
 70
     1
102
RTVSPost2010Prop46
 90
       50
102
RTVSPost2010PropOp46
 70
     0
102
RTVSPost2010Prop47
 90
       50
102
RTVSPost2010PropOp47
 70
     0
102
RTVSPost2010Prop48
 90
       50
102
RTVSPost2010PropOp48
 70
     0
102
RTVSPost2010Prop49
280
     0
102
RTVSPost2010PropOp49
 70
     1
102
RTVSPost2010Prop50
 90
       50
102
RTVSPost2010PropOp50
 70
     0
102
RTVSPost2010Prop51ColorIndex
 90
      256
102
RTVSPost2010Prop51ColorRGB
 90
-16777216
102
RTVSPost2010PropOp51
 70
     0
102
RTVSPost2010Prop52
140
1.0
102
RTVSPost2010PropOp52
 70
     0
102
RTVSPost2010Prop53
 90
        2
102
RTVSPost2010PropOp53
 70
     0
102
RTVSPost2010Prop54
  1
strokes_ogs.tif
102
RTVSPost2010PropOp54
 70
     0
102
RTVSPost2010Prop55
280
     0
102
RTVSPost2010PropOp55
 70
     1
102
RTVSPost2010Prop56
140
1.0
102
RTVSPost2010PropOp56
 70
     0
102
RTVSPost2010Prop57
140
1.0
102
RTVSPost2010PropOp57
 70
     0
102
RTVSPropertyOp0
 70
     0
102
RTVSPropertyOp1
 70
     0
102
RTVSPropertyOp2
 70
     0
102
RTVSPropertyOp3
 70
     0
102
RTVSPropertyOp4
 70
     0
102
RTVSPropertyOp5
 70
     0
102
RTVSPropertyOp6
 70
     0
102
RTVSPropertyOp7
 70
     0
102
RTVSPropertyOp8
 70
     0
102
RTVSPropertyOp9
 70
     0
102
RTVSPropertyOp10
 70
     0
102
RTVSPropertyOp11
 70
     0
102
RTVSPropertyOp12
 70
     0
102
RTVSPropertyOp13
 70
     0
102
RTVSPropertyOp14
 70
     2
102
RTVSPropertyOp15
 70
     0
102
RTVSPropertyOp16
 70
     0
102
RTVSPropertyOp17
 70
     0
102
RTVSPropertyOp18
 70
     0
102
RTVSPropertyOp19
 70
     0
102
RTVSPropertyOp20
 70
     0
102
RTVSPropertyOp21
 70
     0
102
RTVSPropertyOp22
 70
     0
102
RTVSPropertyOp23
 70
     0
102
RTVSPropertyOp24
 70
     0
102
RTVSPropertyOp25
 70
     0
102
RTVSPropertyOp26
 70
     0
102
RTVSPropertyOp27
 70
     0
102
RTVSPropertyOp28
 70
     1
102
RTVSPropertyOp29
 70
     1
102
RTVSPropertyOp30
 70
     1
102
RTVSPropertyOp31
 70
     1
102
RTVSPropertyOp32
 70
     1
102
RTVSPropertyOp33
 70
     1
102
RTVSPropertyOp34
 70
     1
102
RTVSPropertyOp35
 70
     1
102
RTVSPropertyOp36
 70
     1
102
RTVSPropertyOp37
 70
     0
102
RTVSPropertyOp38
 70
     0
102
RTVSPropertyOp39
 70
     0
102
RTVSPropertyOp40
 70
     0
102
RTVSPropertyOp41
 70
     0
102
RTVSPropertyOp42
 70
     0
102
RTVSPropertyOp43
 70
     0
102
RTVSPropertyOp44
 70
     0
102
RTVSPropertyOp45
 70
     1
102
RTVSPropertyOp46
 70
     0
102
RTVSPropertyOp47
 70
     0
102
RTVSPropertyOp48
 70
     0
102
RTVSPropertyOp49
 70
     1
102
RTVSPropertyOp50
 70
     0
102
RTVSPropertyOp51
 70
     0
102
RTVSPropertyOp52
 70
     0
102
RTVSPropertyOp53
 70
     0
102
RTVSPropertyOp54
 70
     0
102
RTVSPropertyOp55
 70
     1
102
RTVSPropertyOp56
 70
     0
102
RTVSPropertyOp57
 70
     0
102
RTVSPropertyOp58
 70
     0
102
RTVSPropertyOp59
 70
     0
102
RTVSPropertyOp60
 70
     0
102
RTVSPropertyOp61
 70
     0
102
RTVSPropertyOp62
 70
     0
  0
XRECORD
  5
569
102
{ACAD_REACTORS
330
568
102
}
330
568
100
AcDbXrecord
280
     1
102
RTVSPost2010Prop28
280
     0
102
RTVSPost2010PropOp28
 70
     1
102
RTVSPost2010Prop29
280
     1
102
RTVSPost2010PropOp29
 70
     1
102
RTVSPost2010Prop30
280
     1
102
RTVSPost2010PropOp30
 70
     1
102
RTVSPost2010Prop31
280
     0
102
RTVSPost2010PropOp31
 70
     1
102
RTVSPost2010Prop32
280
     0
102
RTVSPost2010PropOp32
 70
     1
102
RTVSPost2010Prop33
280
     0
102
RTVSPost2010PropOp33
 70
     1
102
RTVSPost2010Prop34
280
     0
102
RTVSPost2010PropOp34
 70
     1
102
RTVSPost2010Prop35
280
     0
102
RTVSPost2010PropOp35
 70
     1
102
RTVSPost2010Prop36
280
     0
102
RTVSPost2010PropOp36
 70
     1
102
RTVSPost2010Prop37
 90
       50
102
RTVSPost2010PropOp37
 70
     1
102
RTVSPost2010Prop38
140
0.0
102
RTVSPost2010PropOp38
 70
     1
102
RTVSPost2010Prop39
140
1.0
102
RTVSPost2010PropOp39
 70
     1
102
RTVSPost2010Prop40
 90
        0
102
RTVSPost2010PropOp40
 70
     1
102
RTVSPost2010Prop41ColorIndex
 90
       18
102
RTVSPost2010Prop41ColorRGB
 90
        0
102
RTVSPost2010PropOp41
 70
     1
102
RTVSPost2010Prop42
 90
       50
102
RTVSPost2010PropOp42
 70
     1
102
RTVSPost2010Prop43
 90
        3
102
RTVSPost2010PropOp43
 70
     1
102
RTVSPost2010Prop44ColorIndex
 90
        5
102
RTVSPost2010Prop44ColorRGB
 90
      255
102
RTVSPost2010PropOp44
 70
     1
102
RTVSPost2010Prop45
280
     0
102
RTVSPost2010PropOp45
 70
     1
102
RTVSPost2010Prop46
 90
       50
102
RTVSPost2010PropOp46
 70
     1
102
RTVSPost2010Prop47
 90
       50
102
RTVSPost2010PropOp47
 70
     1
102
RTVSPost2010Prop48
 90
       50
102
RTVSPost2010PropOp48
 70
     1
102
RTVSPost2010Prop49
280
     0
102
RTVSPost2010PropOp49
 70
     1
102
RTVSPost2010Prop50
 90
       50
102
RTVSPost2010PropOp50
 70
     1
102
RTVSPost2010Prop51ColorIndex
 90
      256
102
RTVSPost2010Prop51ColorRGB
 90
-16777216
102
RTVSPost2010PropOp51
 70
     0
102
RTVSPost2010Prop52
140
1.0
102
RTVSPost2010PropOp52
 70
     0
102
RTVSPost2010Prop53
 90
        2
102
RTVSPost2010PropOp53
 70
     1
102
RTVSPost2010Prop54
  1
strokes_ogs.tif
102
RTVSPost2010PropOp54
 70
     1
102
RTVSPost2010Prop55
280
     0
102
RTVSPost2010PropOp55
 70
     1
102
RTVSPost2010Prop56
140
1.0
102
RTVSPost2010PropOp56
 70
     1
102
RTVSPost2010Prop57
140
1.0
102
RTVSPost2010PropOp57
 70
     1
102
RTVSPropertyOp0
 70
     1
102
RTVSPropertyOp1
 70
     1
102
RTVSPropertyOp2
 70
     1
102
RTVSPropertyOp3
 70
     1
102
RTVSPropertyOp4
 70
     1
102
RTVSPropertyOp5
 70
     1
102
RTVSPropertyOp6
 70
     1
102
RTVSPropertyOp7
 70
     1
102
RTVSPropertyOp8
 70
     1
102
RTVSPropertyOp9
 70
     1
102
RTVSPropertyOp10
 70
     1
102
RTVSPropertyOp11
 70
     1
102
RTVSPropertyOp12
 70
     1
102
RTVSPropertyOp13
 70
     1
102
RTVSPropertyOp14
 70
     1
102
RTVSPropertyOp15
 70
     1
102
RTVSPropertyOp16
 70
     1
102
RTVSPropertyOp17
 70
     1
102
RTVSPropertyOp18
 70
     1
102
RTVSPropertyOp19
 70
     1
102
RTVSPropertyOp20
 70
     1
102
RTVSPropertyOp21
 70
     1
102
RTVSPropertyOp22
 70
     1
102
RTVSPropertyOp23
 70
     1
102
RTVSPropertyOp24
 70
     1
102
RTVSPropertyOp25
 70
     1
102
RTVSPropertyOp26
 70
     1
102
RTVSPropertyOp27
 70
     1
102
RTVSPropertyOp28
 70
     1
102
RTVSPropertyOp29
 70
     1
102
RTVSPropertyOp30
 70
     1
102
RTVSPropertyOp31
 70
     1
102
RTVSPropertyOp32
 70
     1
102
RTVSPropertyOp33
 70
     1
102
RTVSPropertyOp34
 70
     1
102
RTVSPropertyOp35
 70
     1
102
RTVSPropertyOp36
 70
     1
102
RTVSPropertyOp37
 70
     1
102
RTVSPropertyOp38
 70
     1
102
RTVSPropertyOp39
 70
     1
102
RTVSPropertyOp40
 70
     1
102
RTVSPropertyOp41
 70
     1
102
RTVSPropertyOp42
 70
     1
102
RTVSPropertyOp43
 70
     1
102
RTVSPropertyOp44
 70
     1
102
RTVSPropertyOp45
 70
     1
102
RTVSPropertyOp46
 70
     1
102
RTVSPropertyOp47
 70
     1
102
RTVSPropertyOp48
 70
     1
102
RTVSPropertyOp49
 70
     1
102
RTVSPropertyOp50
 70
     1
102
RTVSPropertyOp51
 70
     0
102
RTVSPropertyOp52
 70
     0
102
RTVSPropertyOp53
 70
     1
102
RTVSPropertyOp54
 70
     1
102
RTVSPropertyOp55
 70
     1
102
RTVSPropertyOp56
 70
     1
102
RTVSPropertyOp57
 70
     1
102
RTVSPropertyOp58
 70
     1
102
RTVSPropertyOp59
 70
     1
102
RTVSPropertyOp60
 70
     1
102
RTVSPropertyOp61
 70
     1
102
RTVSPropertyOp62
 70
     1
  0
XRECORD
  5
54D
102
{ACAD_REACTORS
330
54C
102
}
330
54C
100
AcDbXrecord
280
     1
102
RTVSPost2010Prop28
280
     0
102
RTVSPost2010PropOp28
 70
     1
102
RTVSPost2010Prop29
280
     1
102
RTVSPost2010PropOp29
 70
     1
102
RTVSPost2010Prop30
280
     1
102
RTVSPost2010PropOp30
 70
     1
102
RTVSPost2010Prop31
280
     0
102
RTVSPost2010PropOp31
 70
     1
102
RTVSPost2010Prop32
280
     0
102
RTVSPost2010PropOp32
 70
     1
102
RTVSPost2010Prop33
280
     0
102
RTVSPost2010PropOp33
 70
     1
102
RTVSPost2010Prop34
280
     0
102
RTVSPost2010PropOp34
 70
     1
102
RTVSPost2010Prop35
280
     0
102
RTVSPost2010PropOp35
 70
     1
102
RTVSPost2010Prop36
280
     0
102
RTVSPost2010PropOp36
 70
     1
102
RTVSPost2010Prop37
 90
       50
102
RTVSPost2010PropOp37
 70
     1
102
RTVSPost2010Prop38
140
0.0
102
RTVSPost2010PropOp38
 70
     1
102
RTVSPost2010Prop39
140
1.0
102
RTVSPost2010PropOp39
 70
     1
102
RTVSPost2010Prop40
 90
        0
102
RTVSPost2010PropOp40
 70
     1
102
RTVSPost2010Prop41ColorIndex
 90
       18
102
RTVSPost2010Prop41ColorRGB
 90
        0
102
RTVSPost2010PropOp41
 70
     1
102
RTVSPost2010Prop42
 90
       50
102
RTVSPost2010PropOp42
 70
     1
102
RTVSPost2010Prop43
 90
        3
102
RTVSPost2010PropOp43
 70
     1
102
RTVSPost2010Prop44ColorIndex
 90
        5
102
RTVSPost2010Prop44ColorRGB
 90
      255
102
RTVSPost2010PropOp44
 70
     1
102
RTVSPost2010Prop45
280
     0
102
RTVSPost2010PropOp45
 70
     1
102
RTVSPost2010Prop46
 90
       50
102
RTVSPost2010PropOp46
 70
     1
102
RTVSPost2010Prop47
 90
       50
102
RTVSPost2010PropOp47
 70
     1
102
RTVSPost2010Prop48
 90
       50
102
RTVSPost2010PropOp48
 70
     1
102
RTVSPost2010Prop49
280
     0
102
RTVSPost2010PropOp49
 70
     1
102
RTVSPost2010Prop50
 90
       50
102
RTVSPost2010PropOp50
 70
     1
102
RTVSPost2010Prop51ColorIndex
 90
      256
102
RTVSPost2010Prop51ColorRGB
 90
-16777216
102
RTVSPost2010PropOp51
 70
     0
102
RTVSPost2010Prop52
140
1.0
102
RTVSPost2010PropOp52
 70
     0
102
RTVSPost2010Prop53
 90
        2
102
RTVSPost2010PropOp53
 70
     1
102
RTVSPost2010Prop54
  1
strokes_ogs.tif
102
RTVSPost2010PropOp54
 70
     1
102
RTVSPost2010Prop55
280
     0
102
RTVSPost2010PropOp55
 70
     1
102
RTVSPost2010Prop56
140
1.0
102
RTVSPost2010PropOp56
 70
     1
102
RTVSPost2010Prop57
140
1.0
102
RTVSPost2010PropOp57
 70
     1
102
RTVSPropertyOp0
 70
     1
102
RTVSPropertyOp1
 70
     1
102
RTVSPropertyOp2
 70
     1
102
RTVSPropertyOp3
 70
     1
102
RTVSPropertyOp4
 70
     1
102
RTVSPropertyOp5
 70
     1
102
RTVSPropertyOp6
 70
     1
102
RTVSPropertyOp7
 70
     1
102
RTVSPropertyOp8
 70
     1
102
RTVSPropertyOp9
 70
     1
102
RTVSPropertyOp10
 70
     1
102
RTVSPropertyOp11
 70
     1
102
RTVSPropertyOp12
 70
     1
102
RTVSPropertyOp13
 70
     1
102
RTVSPropertyOp14
 70
     1
102
RTVSPropertyOp15
 70
     1
102
RTVSPropertyOp16
 70
     1
102
RTVSPropertyOp17
 70
     1
102
RTVSPropertyOp18
 70
     1
102
RTVSPropertyOp19
 70
     1
102
RTVSPropertyOp20
 70
     1
102
RTVSPropertyOp21
 70
     1
102
RTVSPropertyOp22
 70
     1
102
RTVSPropertyOp23
 70
     1
102
RTVSPropertyOp24
 70
     1
102
RTVSPropertyOp25
 70
     1
102
RTVSPropertyOp26
 70
     1
102
RTVSPropertyOp27
 70
     1
102
RTVSPropertyOp28
 70
     1
102
RTVSPropertyOp29
 70
     1
102
RTVSPropertyOp30
 70
     1
102
RTVSPropertyOp31
 70
     1
102
RTVSPropertyOp32
 70
     1
102
RTVSPropertyOp33
 70
     1
102
RTVSPropertyOp34
 70
     1
102
RTVSPropertyOp35
 70
     1
102
RTVSPropertyOp36
 70
     1
102
RTVSPropertyOp37
 70
     1
102
RTVSPropertyOp38
 70
     1
102
RTVSPropertyOp39
 70
     1
102
RTVSPropertyOp40
 70
     1
102
RTVSPropertyOp41
 70
     1
102
RTVSPropertyOp42
 70
     1
102
RTVSPropertyOp43
 70
     1
102
RTVSPropertyOp44
 70
     1
102
RTVSPropertyOp45
 70
     1
102
RTVSPropertyOp46
 70
     1
102
RTVSPropertyOp47
 70
     1
102
RTVSPropertyOp48
 70
     1
102
RTVSPropertyOp49
 70
     1
102
RTVSPropertyOp50
 70
     1
102
RTVSPropertyOp51
 70
     0
102
RTVSPropertyOp52
 70
     0
102
RTVSPropertyOp53
 70
     1
102
RTVSPropertyOp54
 70
     1
102
RTVSPropertyOp55
 70
     1
102
RTVSPropertyOp56
 70
     1
102
RTVSPropertyOp57
 70
     1
102
RTVSPropertyOp58
 70
     1
102
RTVSPropertyOp59
 70
     1
102
RTVSPropertyOp60
 70
     1
102
RTVSPropertyOp61
 70
     1
102
RTVSPropertyOp62
 70
     1
  0
XRECORD
  5
54F
102
{ACAD_REACTORS
330
54E
102
}
330
54E
100
AcDbXrecord
280
     1
102
RTVSPost2010Prop28
280
     0
102
RTVSPost2010PropOp28
 70
     1
102
RTVSPost2010Prop29
280
     1
102
RTVSPost2010PropOp29
 70
     1
102
RTVSPost2010Prop30
280
     1
102
RTVSPost2010PropOp30
 70
     1
102
RTVSPost2010Prop31
280
     0
102
RTVSPost2010PropOp31
 70
     1
102
RTVSPost2010Prop32
280
     0
102
RTVSPost2010PropOp32
 70
     1
102
RTVSPost2010Prop33
280
     0
102
RTVSPost2010PropOp33
 70
     1
102
RTVSPost2010Prop34
280
     0
102
RTVSPost2010PropOp34
 70
     1
102
RTVSPost2010Prop35
280
     0
102
RTVSPost2010PropOp35
 70
     1
102
RTVSPost2010Prop36
280
     0
102
RTVSPost2010PropOp36
 70
     1
102
RTVSPost2010Prop37
 90
       50
102
RTVSPost2010PropOp37
 70
     1
102
RTVSPost2010Prop38
140
0.0
102
RTVSPost2010PropOp38
 70
     1
102
RTVSPost2010Prop39
140
1.0
102
RTVSPost2010PropOp39
 70
     1
102
RTVSPost2010Prop40
 90
        0
102
RTVSPost2010PropOp40
 70
     1
102
RTVSPost2010Prop41ColorIndex
 90
       18
102
RTVSPost2010Prop41ColorRGB
 90
        0
102
RTVSPost2010PropOp41
 70
     1
102
RTVSPost2010Prop42
 90
       50
102
RTVSPost2010PropOp42
 70
     1
102
RTVSPost2010Prop43
 90
        3
102
RTVSPost2010PropOp43
 70
     1
102
RTVSPost2010Prop44ColorIndex
 90
        5
102
RTVSPost2010Prop44ColorRGB
 90
      255
102
RTVSPost2010PropOp44
 70
     1
102
RTVSPost2010Prop45
280
     0
102
RTVSPost2010PropOp45
 70
     1
102
RTVSPost2010Prop46
 90
       50
102
RTVSPost2010PropOp46
 70
     1
102
RTVSPost2010Prop47
 90
       50
102
RTVSPost2010PropOp47
 70
     1
102
RTVSPost2010Prop48
 90
       50
102
RTVSPost2010PropOp48
 70
     1
102
RTVSPost2010Prop49
280
     0
102
RTVSPost2010PropOp49
 70
     1
102
RTVSPost2010Prop50
 90
       50
102
RTVSPost2010PropOp50
 70
     1
102
RTVSPost2010Prop51ColorIndex
 90
      256
102
RTVSPost2010Prop51ColorRGB
 90
-16777216
102
RTVSPost2010PropOp51
 70
     0
102
RTVSPost2010Prop52
140
1.0
102
RTVSPost2010PropOp52
 70
     0
102
RTVSPost2010Prop53
 90
        2
102
RTVSPost2010PropOp53
 70
     1
102
RTVSPost2010Prop54
  1
strokes_ogs.tif
102
RTVSPost2010PropOp54
 70
     1
102
RTVSPost2010Prop55
280
     0
102
RTVSPost2010PropOp55
 70
     1
102
RTVSPost2010Prop56
140
1.0
102
RTVSPost2010PropOp56
 70
     1
102
RTVSPost2010Prop57
140
1.0
102
RTVSPost2010PropOp57
 70
     1
102
RTVSPropertyOp0
 70
     1
102
RTVSPropertyOp1
 70
     1
102
RTVSPropertyOp2
 70
     1
102
RTVSPropertyOp3
 70
     1
102
RTVSPropertyOp4
 70
     1
102
RTVSPropertyOp5
 70
     1
102
RTVSPropertyOp6
 70
     1
102
RTVSPropertyOp7
 70
     1
102
RTVSPropertyOp8
 70
     1
102
RTVSPropertyOp9
 70
     1
102
RTVSPropertyOp10
 70
     1
102
RTVSPropertyOp11
 70
     1
102
RTVSPropertyOp12
 70
     1
102
RTVSPropertyOp13
 70
     1
102
RTVSPropertyOp14
 70
     1
102
RTVSPropertyOp15
 70
     1
102
RTVSPropertyOp16
 70
     1
102
RTVSPropertyOp17
 70
     1
102
RTVSPropertyOp18
 70
     1
102
RTVSPropertyOp19
 70
     1
102
RTVSPropertyOp20
 70
     1
102
RTVSPropertyOp21
 70
     1
102
RTVSPropertyOp22
 70
     1
102
RTVSPropertyOp23
 70
     1
102
RTVSPropertyOp24
 70
     1
102
RTVSPropertyOp25
 70
     1
102
RTVSPropertyOp26
 70
     1
102
RTVSPropertyOp27
 70
     1
102
RTVSPropertyOp28
 70
     1
102
RTVSPropertyOp29
 70
     1
102
RTVSPropertyOp30
 70
     1
102
RTVSPropertyOp31
 70
     1
102
RTVSPropertyOp32
 70
     1
102
RTVSPropertyOp33
 70
     1
102
RTVSPropertyOp34
 70
     1
102
RTVSPropertyOp35
 70
     1
102
RTVSPropertyOp36
 70
     1
102
RTVSPropertyOp37
 70
     1
102
RTVSPropertyOp38
 70
     1
102
RTVSPropertyOp39
 70
     1
102
RTVSPropertyOp40
 70
     1
102
RTVSPropertyOp41
 70
     1
102
RTVSPropertyOp42
 70
     1
102
RTVSPropertyOp43
 70
     1
102
RTVSPropertyOp44
 70
     1
102
RTVSPropertyOp45
 70
     1
102
RTVSPropertyOp46
 70
     1
102
RTVSPropertyOp47
 70
     1
102
RTVSPropertyOp48
 70
     1
102
RTVSPropertyOp49
 70
     1
102
RTVSPropertyOp50
 70
     1
102
RTVSPropertyOp51
 70
     0
102
RTVSPropertyOp52
 70
     0
102
RTVSPropertyOp53
 70
     1
102
RTVSPropertyOp54
 70
     1
102
RTVSPropertyOp55
 70
     1
102
RTVSPropertyOp56
 70
     1
102
RTVSPropertyOp57
 70
     1
102
RTVSPropertyOp58
 70
     1
102
RTVSPropertyOp59
 70
     1
102
RTVSPropertyOp60
 70
     1
102
RTVSPropertyOp61
 70
     1
102
RTVSPropertyOp62
 70
     1
  0
XRECORD
  5
551
102
{ACAD_REACTORS
330
550
102
}
330
550
100
AcDbXrecord
280
     1
102
RTVSPost2010Prop28
280
     0
102
RTVSPost2010PropOp28
 70
     1
102
RTVSPost2010Prop29
280
     1
102
RTVSPost2010PropOp29
 70
     1
102
RTVSPost2010Prop30
280
     1
102
RTVSPost2010PropOp30
 70
     1
102
RTVSPost2010Prop31
280
     0
102
RTVSPost2010PropOp31
 70
     1
102
RTVSPost2010Prop32
280
     0
102
RTVSPost2010PropOp32
 70
     1
102
RTVSPost2010Prop33
280
     0
102
RTVSPost2010PropOp33
 70
     1
102
RTVSPost2010Prop34
280
     0
102
RTVSPost2010PropOp34
 70
     1
102
RTVSPost2010Prop35
280
     0
102
RTVSPost2010PropOp35
 70
     1
102
RTVSPost2010Prop36
280
     0
102
RTVSPost2010PropOp36
 70
     1
102
RTVSPost2010Prop37
 90
       50
102
RTVSPost2010PropOp37
 70
     1
102
RTVSPost2010Prop38
140
0.0
102
RTVSPost2010PropOp38
 70
     1
102
RTVSPost2010Prop39
140
1.0
102
RTVSPost2010PropOp39
 70
     1
102
RTVSPost2010Prop40
 90
        0
102
RTVSPost2010PropOp40
 70
     1
102
RTVSPost2010Prop41ColorIndex
 90
       18
102
RTVSPost2010Prop41ColorRGB
 90
        0
102
RTVSPost2010PropOp41
 70
     1
102
RTVSPost2010Prop42
 90
       50
102
RTVSPost2010PropOp42
 70
     1
102
RTVSPost2010Prop43
 90
        3
102
RTVSPost2010PropOp43
 70
     1
102
RTVSPost2010Prop44ColorIndex
 90
        5
102
RTVSPost2010Prop44ColorRGB
 90
      255
102
RTVSPost2010PropOp44
 70
     1
102
RTVSPost2010Prop45
280
     0
102
RTVSPost2010PropOp45
 70
     1
102
RTVSPost2010Prop46
 90
       50
102
RTVSPost2010PropOp46
 70
     1
102
RTVSPost2010Prop47
 90
       50
102
RTVSPost2010PropOp47
 70
     1
102
RTVSPost2010Prop48
 90
       50
102
RTVSPost2010PropOp48
 70
     1
102
RTVSPost2010Prop49
280
     0
102
RTVSPost2010PropOp49
 70
     1
102
RTVSPost2010Prop50
 90
       50
102
RTVSPost2010PropOp50
 70
     1
102
RTVSPost2010Prop51ColorIndex
 90
      256
102
RTVSPost2010Prop51ColorRGB
 90
-16777216
102
RTVSPost2010PropOp51
 70
     0
102
RTVSPost2010Prop52
140
1.0
102
RTVSPost2010PropOp52
 70
     0
102
RTVSPost2010Prop53
 90
        2
102
RTVSPost2010PropOp53
 70
     1
102
RTVSPost2010Prop54
  1
strokes_ogs.tif
102
RTVSPost2010PropOp54
 70
     1
102
RTVSPost2010Prop55
280
     0
102
RTVSPost2010PropOp55
 70
     1
102
RTVSPost2010Prop56
140
1.0
102
RTVSPost2010PropOp56
 70
     1
102
RTVSPost2010Prop57
140
1.0
102
RTVSPost2010PropOp57
 70
     1
102
RTVSPropertyOp0
 70
     1
102
RTVSPropertyOp1
 70
     1
102
RTVSPropertyOp2
 70
     1
102
RTVSPropertyOp3
 70
     1
102
RTVSPropertyOp4
 70
     1
102
RTVSPropertyOp5
 70
     1
102
RTVSPropertyOp6
 70
     1
102
RTVSPropertyOp7
 70
     1
102
RTVSPropertyOp8
 70
     1
102
RTVSPropertyOp9
 70
     1
102
RTVSPropertyOp10
 70
     1
102
RTVSPropertyOp11
 70
     1
102
RTVSPropertyOp12
 70
     1
102
RTVSPropertyOp13
 70
     1
102
RTVSPropertyOp14
 70
     1
102
RTVSPropertyOp15
 70
     1
102
RTVSPropertyOp16
 70
     1
102
RTVSPropertyOp17
 70
     1
102
RTVSPropertyOp18
 70
     1
102
RTVSPropertyOp19
 70
     1
102
RTVSPropertyOp20
 70
     1
102
RTVSPropertyOp21
 70
     1
102
RTVSPropertyOp22
 70
     1
102
RTVSPropertyOp23
 70
     1
102
RTVSPropertyOp24
 70
     1
102
RTVSPropertyOp25
 70
     1
102
RTVSPropertyOp26
 70
     1
102
RTVSPropertyOp27
 70
     1
102
RTVSPropertyOp28
 70
     1
102
RTVSPropertyOp29
 70
     1
102
RTVSPropertyOp30
 70
     1
102
RTVSPropertyOp31
 70
     1
102
RTVSPropertyOp32
 70
     1
102
RTVSPropertyOp33
 70
     1
102
RTVSPropertyOp34
 70
     1
102
RTVSPropertyOp35
 70
     1
102
RTVSPropertyOp36
 70
     1
102
RTVSPropertyOp37
 70
     1
102
RTVSPropertyOp38
 70
     1
102
RTVSPropertyOp39
 70
     1
102
RTVSPropertyOp40
 70
     1
102
RTVSPropertyOp41
 70
     1
102
RTVSPropertyOp42
 70
     1
102
RTVSPropertyOp43
 70
     1
102
RTVSPropertyOp44
 70
     1
102
RTVSPropertyOp45
 70
     1
102
RTVSPropertyOp46
 70
     1
102
RTVSPropertyOp47
 70
     1
102
RTVSPropertyOp48
 70
     1
102
RTVSPropertyOp49
 70
     1
102
RTVSPropertyOp50
 70
     1
102
RTVSPropertyOp51
 70
     0
102
RTVSPropertyOp52
 70
     0
102
RTVSPropertyOp53
 70
     1
102
RTVSPropertyOp54
 70
     1
102
RTVSPropertyOp55
 70
     1
102
RTVSPropertyOp56
 70
     1
102
RTVSPropertyOp57
 70
     1
102
RTVSPropertyOp58
 70
     1
102
RTVSPropertyOp59
 70
     1
102
RTVSPropertyOp60
 70
     1
102
RTVSPropertyOp61
 70
     1
102
RTVSPropertyOp62
 70
     1
  0
XRECORD
  5
553
102
{ACAD_REACTORS
330
552
102
}
330
552
100
AcDbXrecord
280
     1
102
RTVSPost2010Prop28
280
     0
102
RTVSPost2010PropOp28
 70
     1
102
RTVSPost2010Prop29
280
     1
102
RTVSPost2010PropOp29
 70
     1
102
RTVSPost2010Prop30
280
     1
102
RTVSPost2010PropOp30
 70
     1
102
RTVSPost2010Prop31
280
     0
102
RTVSPost2010PropOp31
 70
     1
102
RTVSPost2010Prop32
280
     0
102
RTVSPost2010PropOp32
 70
     1
102
RTVSPost2010Prop33
280
     0
102
RTVSPost2010PropOp33
 70
     1
102
RTVSPost2010Prop34
280
     0
102
RTVSPost2010PropOp34
 70
     1
102
RTVSPost2010Prop35
280
     0
102
RTVSPost2010PropOp35
 70
     1
102
RTVSPost2010Prop36
280
     0
102
RTVSPost2010PropOp36
 70
     1
102
RTVSPost2010Prop37
 90
       50
102
RTVSPost2010PropOp37
 70
     1
102
RTVSPost2010Prop38
140
0.0
102
RTVSPost2010PropOp38
 70
     1
102
RTVSPost2010Prop39
140
1.0
102
RTVSPost2010PropOp39
 70
     1
102
RTVSPost2010Prop40
 90
        0
102
RTVSPost2010PropOp40
 70
     1
102
RTVSPost2010Prop41ColorIndex
 90
       18
102
RTVSPost2010Prop41ColorRGB
 90
        0
102
RTVSPost2010PropOp41
 70
     1
102
RTVSPost2010Prop42
 90
       50
102
RTVSPost2010PropOp42
 70
     1
102
RTVSPost2010Prop43
 90
        3
102
RTVSPost2010PropOp43
 70
     1
102
RTVSPost2010Prop44ColorIndex
 90
        5
102
RTVSPost2010Prop44ColorRGB
 90
      255
102
RTVSPost2010PropOp44
 70
     1
102
RTVSPost2010Prop45
280
     0
102
RTVSPost2010PropOp45
 70
     1
102
RTVSPost2010Prop46
 90
       50
102
RTVSPost2010PropOp46
 70
     1
102
RTVSPost2010Prop47
 90
       50
102
RTVSPost2010PropOp47
 70
     1
102
RTVSPost2010Prop48
 90
       50
102
RTVSPost2010PropOp48
 70
     1
102
RTVSPost2010Prop49
280
     0
102
RTVSPost2010PropOp49
 70
     1
102
RTVSPost2010Prop50
 90
       50
102
RTVSPost2010PropOp50
 70
     1
102
RTVSPost2010Prop51ColorIndex
 90
      256
102
RTVSPost2010Prop51ColorRGB
 90
-16777216
102
RTVSPost2010PropOp51
 70
     0
102
RTVSPost2010Prop52
140
1.0
102
RTVSPost2010PropOp52
 70
     0
102
RTVSPost2010Prop53
 90
        2
102
RTVSPost2010PropOp53
 70
     1
102
RTVSPost2010Prop54
  1
strokes_ogs.tif
102
RTVSPost2010PropOp54
 70
     1
102
RTVSPost2010Prop55
280
     0
102
RTVSPost2010PropOp55
 70
     1
102
RTVSPost2010Prop56
140
1.0
102
RTVSPost2010PropOp56
 70
     1
102
RTVSPost2010Prop57
140
1.0
102
RTVSPost2010PropOp57
 70
     1
102
RTVSPropertyOp0
 70
     1
102
RTVSPropertyOp1
 70
     1
102
RTVSPropertyOp2
 70
     1
102
RTVSPropertyOp3
 70
     1
102
RTVSPropertyOp4
 70
     1
102
RTVSPropertyOp5
 70
     1
102
RTVSPropertyOp6
 70
     1
102
RTVSPropertyOp7
 70
     1
102
RTVSPropertyOp8
 70
     1
102
RTVSPropertyOp9
 70
     1
102
RTVSPropertyOp10
 70
     1
102
RTVSPropertyOp11
 70
     1
102
RTVSPropertyOp12
 70
     1
102
RTVSPropertyOp13
 70
     1
102
RTVSPropertyOp14
 70
     1
102
RTVSPropertyOp15
 70
     1
102
RTVSPropertyOp16
 70
     1
102
RTVSPropertyOp17
 70
     1
102
RTVSPropertyOp18
 70
     1
102
RTVSPropertyOp19
 70
     1
102
RTVSPropertyOp20
 70
     1
102
RTVSPropertyOp21
 70
     1
102
RTVSPropertyOp22
 70
     1
102
RTVSPropertyOp23
 70
     1
102
RTVSPropertyOp24
 70
     1
102
RTVSPropertyOp25
 70
     1
102
RTVSPropertyOp26
 70
     1
102
RTVSPropertyOp27
 70
     1
102
RTVSPropertyOp28
 70
     1
102
RTVSPropertyOp29
 70
     1
102
RTVSPropertyOp30
 70
     1
102
RTVSPropertyOp31
 70
     1
102
RTVSPropertyOp32
 70
     1
102
RTVSPropertyOp33
 70
     1
102
RTVSPropertyOp34
 70
     1
102
RTVSPropertyOp35
 70
     1
102
RTVSPropertyOp36
 70
     1
102
RTVSPropertyOp37
 70
     1
102
RTVSPropertyOp38
 70
     1
102
RTVSPropertyOp39
 70
     1
102
RTVSPropertyOp40
 70
     1
102
RTVSPropertyOp41
 70
     1
102
RTVSPropertyOp42
 70
     1
102
RTVSPropertyOp43
 70
     1
102
RTVSPropertyOp44
 70
     1
102
RTVSPropertyOp45
 70
     1
102
RTVSPropertyOp46
 70
     1
102
RTVSPropertyOp47
 70
     1
102
RTVSPropertyOp48
 70
     1
102
RTVSPropertyOp49
 70
     1
102
RTVSPropertyOp50
 70
     1
102
RTVSPropertyOp51
 70
     0
102
RTVSPropertyOp52
 70
     0
102
RTVSPropertyOp53
 70
     1
102
RTVSPropertyOp54
 70
     1
102
RTVSPropertyOp55
 70
     1
102
RTVSPropertyOp56
 70
     1
102
RTVSPropertyOp57
 70
     1
102
RTVSPropertyOp58
 70
     1
102
RTVSPropertyOp59
 70
     1
102
RTVSPropertyOp60
 70
     1
102
RTVSPropertyOp61
 70
     1
102
RTVSPropertyOp62
 70
     1
  0
XRECORD
  5
55B
102
{ACAD_REACTORS
330
55A
102
}
330
55A
100
AcDbXrecord
280
     1
102
RTVSPost2010Prop28
280
     0
102
RTVSPost2010PropOp28
 70
     1
102
RTVSPost2010Prop29
280
     1
102
RTVSPost2010PropOp29
 70
     1
102
RTVSPost2010Prop30
280
     1
102
RTVSPost2010PropOp30
 70
     1
102
RTVSPost2010Prop31
280
     0
102
RTVSPost2010PropOp31
 70
     1
102
RTVSPost2010Prop32
280
     0
102
RTVSPost2010PropOp32
 70
     1
102
RTVSPost2010Prop33
280
     0
102
RTVSPost2010PropOp33
 70
     1
102
RTVSPost2010Prop34
280
     0
102
RTVSPost2010PropOp34
 70
     1
102
RTVSPost2010Prop35
280
     0
102
RTVSPost2010PropOp35
 70
     1
102
RTVSPost2010Prop36
280
     0
102
RTVSPost2010PropOp36
 70
     1
102
RTVSPost2010Prop37
 90
       50
102
RTVSPost2010PropOp37
 70
     1
102
RTVSPost2010Prop38
140
0.0
102
RTVSPost2010PropOp38
 70
     1
102
RTVSPost2010Prop39
140
1.0
102
RTVSPost2010PropOp39
 70
     1
102
RTVSPost2010Prop40
 90
        0
102
RTVSPost2010PropOp40
 70
     1
102
RTVSPost2010Prop41ColorIndex
 90
       18
102
RTVSPost2010Prop41ColorRGB
 90
        0
102
RTVSPost2010PropOp41
 70
     1
102
RTVSPost2010Prop42
 90
       50
102
RTVSPost2010PropOp42
 70
     1
102
RTVSPost2010Prop43
 90
        3
102
RTVSPost2010PropOp43
 70
     1
102
RTVSPost2010Prop44ColorIndex
 90
        5
102
RTVSPost2010Prop44ColorRGB
 90
      255
102
RTVSPost2010PropOp44
 70
     1
102
RTVSPost2010Prop45
280
     0
102
RTVSPost2010PropOp45
 70
     1
102
RTVSPost2010Prop46
 90
       50
102
RTVSPost2010PropOp46
 70
     1
102
RTVSPost2010Prop47
 90
       50
102
RTVSPost2010PropOp47
 70
     1
102
RTVSPost2010Prop48
 90
       50
102
RTVSPost2010PropOp48
 70
     1
102
RTVSPost2010Prop49
280
     0
102
RTVSPost2010PropOp49
 70
     1
102
RTVSPost2010Prop50
 90
       50
102
RTVSPost2010PropOp50
 70
     1
102
RTVSPost2010Prop51ColorIndex
 90
      256
102
RTVSPost2010Prop51ColorRGB
 90
-16777216
102
RTVSPost2010PropOp51
 70
     0
102
RTVSPost2010Prop52
140
1.0
102
RTVSPost2010PropOp52
 70
     0
102
RTVSPost2010Prop53
 90
        2
102
RTVSPost2010PropOp53
 70
     1
102
RTVSPost2010Prop54
  1
strokes_ogs.tif
102
RTVSPost2010PropOp54
 70
     1
102
RTVSPost2010Prop55
280
     0
102
RTVSPost2010PropOp55
 70
     1
102
RTVSPost2010Prop56
140
1.0
102
RTVSPost2010PropOp56
 70
     1
102
RTVSPost2010Prop57
140
1.0
102
RTVSPost2010PropOp57
 70
     1
102
RTVSPropertyOp0
 70
     1
102
RTVSPropertyOp1
 70
     1
102
RTVSPropertyOp2
 70
     1
102
RTVSPropertyOp3
 70
     1
102
RTVSPropertyOp4
 70
     1
102
RTVSPropertyOp5
 70
     1
102
RTVSPropertyOp6
 70
     1
102
RTVSPropertyOp7
 70
     1
102
RTVSPropertyOp8
 70
     1
102
RTVSPropertyOp9
 70
     1
102
RTVSPropertyOp10
 70
     1
102
RTVSPropertyOp11
 70
     1
102
RTVSPropertyOp12
 70
     1
102
RTVSPropertyOp13
 70
     1
102
RTVSPropertyOp14
 70
     1
102
RTVSPropertyOp15
 70
     1
102
RTVSPropertyOp16
 70
     1
102
RTVSPropertyOp17
 70
     1
102
RTVSPropertyOp18
 70
     1
102
RTVSPropertyOp19
 70
     1
102
RTVSPropertyOp20
 70
     1
102
RTVSPropertyOp21
 70
     1
102
RTVSPropertyOp22
 70
     1
102
RTVSPropertyOp23
 70
     1
102
RTVSPropertyOp24
 70
     1
102
RTVSPropertyOp25
 70
     1
102
RTVSPropertyOp26
 70
     1
102
RTVSPropertyOp27
 70
     1
102
RTVSPropertyOp28
 70
     1
102
RTVSPropertyOp29
 70
     1
102
RTVSPropertyOp30
 70
     1
102
RTVSPropertyOp31
 70
     1
102
RTVSPropertyOp32
 70
     1
102
RTVSPropertyOp33
 70
     1
102
RTVSPropertyOp34
 70
     1
102
RTVSPropertyOp35
 70
     1
102
RTVSPropertyOp36
 70
     1
102
RTVSPropertyOp37
 70
     1
102
RTVSPropertyOp38
 70
     1
102
RTVSPropertyOp39
 70
     1
102
RTVSPropertyOp40
 70
     1
102
RTVSPropertyOp41
 70
     1
102
RTVSPropertyOp42
 70
     1
102
RTVSPropertyOp43
 70
     1
102
RTVSPropertyOp44
 70
     1
102
RTVSPropertyOp45
 70
     1
102
RTVSPropertyOp46
 70
     1
102
RTVSPropertyOp47
 70
     1
102
RTVSPropertyOp48
 70
     1
102
RTVSPropertyOp49
 70
     1
102
RTVSPropertyOp50
 70
     1
102
RTVSPropertyOp51
 70
     0
102
RTVSPropertyOp52
 70
     0
102
RTVSPropertyOp53
 70
     1
102
RTVSPropertyOp54
 70
     1
102
RTVSPropertyOp55
 70
     1
102
RTVSPropertyOp56
 70
     1
102
RTVSPropertyOp57
 70
     1
102
RTVSPropertyOp58
 70
     1
102
RTVSPropertyOp59
 70
     1
102
RTVSPropertyOp60
 70
     1
102
RTVSPropertyOp61
 70
     1
102
RTVSPropertyOp62
 70
     1
  0
XRECORD
  5
577
102
{ACAD_REACTORS
330
576
102
}
330
576
100
AcDbXrecord
280
     1
102
RTVSPost2010Prop28
280
     0
102
RTVSPost2010PropOp28
 70
     1
102
RTVSPost2010Prop29
280
     1
102
RTVSPost2010PropOp29
 70
     1
102
RTVSPost2010Prop30
280
     1
102
RTVSPost2010PropOp30
 70
     1
102
RTVSPost2010Prop31
280
     0
102
RTVSPost2010PropOp31
 70
     1
102
RTVSPost2010Prop32
280
     0
102
RTVSPost2010PropOp32
 70
     1
102
RTVSPost2010Prop33
280
     0
102
RTVSPost2010PropOp33
 70
     1
102
RTVSPost2010Prop34
280
     0
102
RTVSPost2010PropOp34
 70
     1
102
RTVSPost2010Prop35
280
     0
102
RTVSPost2010PropOp35
 70
     1
102
RTVSPost2010Prop36
280
     0
102
RTVSPost2010PropOp36
 70
     1
102
RTVSPost2010Prop37
 90
       50
102
RTVSPost2010PropOp37
 70
     0
102
RTVSPost2010Prop38
140
0.0
102
RTVSPost2010PropOp38
 70
     0
102
RTVSPost2010Prop39
140
1.0
102
RTVSPost2010PropOp39
 70
     0
102
RTVSPost2010Prop40
 90
        0
102
RTVSPost2010PropOp40
 70
     0
102
RTVSPost2010Prop41ColorIndex
 90
       18
102
RTVSPost2010Prop41ColorRGB
 90
        0
102
RTVSPost2010PropOp41
 70
     0
102
RTVSPost2010Prop42
 90
       50
102
RTVSPost2010PropOp42
 70
     0
102
RTVSPost2010Prop43
 90
        3
102
RTVSPost2010PropOp43
 70
     0
102
RTVSPost2010Prop44ColorIndex
 90
        5
102
RTVSPost2010Prop44ColorRGB
 90
      255
102
RTVSPost2010PropOp44
 70
     0
102
RTVSPost2010Prop45
280
     0
102
RTVSPost2010PropOp45
 70
     1
102
RTVSPost2010Prop46
 90
       50
102
RTVSPost2010PropOp46
 70
     0
102
RTVSPost2010Prop47
 90
       50
102
RTVSPost2010PropOp47
 70
     0
102
RTVSPost2010Prop48
 90
       50
102
RTVSPost2010PropOp48
 70
     0
102
RTVSPost2010Prop49
280
     0
102
RTVSPost2010PropOp49
 70
     1
102
RTVSPost2010Prop50
 90
       50
102
RTVSPost2010PropOp50
 70
     0
102
RTVSPost2010Prop51ColorIndex
 90
      256
102
RTVSPost2010Prop51ColorRGB
 90
-16777216
102
RTVSPost2010PropOp51
 70
     0
102
RTVSPost2010Prop52
140
1.0
102
RTVSPost2010PropOp52
 70
     0
102
RTVSPost2010Prop53
 90
        2
102
RTVSPost2010PropOp53
 70
     0
102
RTVSPost2010Prop54
  1
strokes_ogs.tif
102
RTVSPost2010PropOp54
 70
     0
102
RTVSPost2010Prop55
280
     0
102
RTVSPost2010PropOp55
 70
     1
102
RTVSPost2010Prop56
140
1.0
102
RTVSPost2010PropOp56
 70
     0
102
RTVSPost2010Prop57
140
1.0
102
RTVSPost2010PropOp57
 70
     0
102
RTVSPropertyOp0
 70
     0
102
RTVSPropertyOp1
 70
     0
102
RTVSPropertyOp2
 70
     0
102
RTVSPropertyOp3
 70
     0
102
RTVSPropertyOp4
 70
     0
102
RTVSPropertyOp5
 70
     0
102
RTVSPropertyOp6
 70
     0
102
RTVSPropertyOp7
 70
     0
102
RTVSPropertyOp8
 70
     0
102
RTVSPropertyOp9
 70
     0
102
RTVSPropertyOp10
 70
     0
102
RTVSPropertyOp11
 70
     0
102
RTVSPropertyOp12
 70
     0
102
RTVSPropertyOp13
 70
     0
102
RTVSPropertyOp14
 70
     2
102
RTVSPropertyOp15
 70
     0
102
RTVSPropertyOp16
 70
     0
102
RTVSPropertyOp17
 70
     0
102
RTVSPropertyOp18
 70
     0
102
RTVSPropertyOp19
 70
     0
102
RTVSPropertyOp20
 70
     0
102
RTVSPropertyOp21
 70
     0
102
RTVSPropertyOp22
 70
     0
102
RTVSPropertyOp23
 70
     0
102
RTVSPropertyOp24
 70
     0
102
RTVSPropertyOp25
 70
     0
102
RTVSPropertyOp26
 70
     0
102
RTVSPropertyOp27
 70
     0
102
RTVSPropertyOp28
 70
     1
102
RTVSPropertyOp29
 70
     1
102
RTVSPropertyOp30
 70
     1
102
RTVSPropertyOp31
 70
     1
102
RTVSPropertyOp32
 70
     1
102
RTVSPropertyOp33
 70
     1
102
RTVSPropertyOp34
 70
     1
102
RTVSPropertyOp35
 70
     1
102
RTVSPropertyOp36
 70
     1
102
RTVSPropertyOp37
 70
     0
102
RTVSPropertyOp38
 70
     0
102
RTVSPropertyOp39
 70
     0
102
RTVSPropertyOp40
 70
     0
102
RTVSPropertyOp41
 70
     0
102
RTVSPropertyOp42
 70
     0
102
RTVSPropertyOp43
 70
     0
102
RTVSPropertyOp44
 70
     0
102
RTVSPropertyOp45
 70
     1
102
RTVSPropertyOp46
 70
     0
102
RTVSPropertyOp47
 70
     0
102
RTVSPropertyOp48
 70
     0
102
RTVSPropertyOp49
 70
     1
102
RTVSPropertyOp50
 70
     0
102
RTVSPropertyOp51
 70
     0
102
RTVSPropertyOp52
 70
     0
102
RTVSPropertyOp53
 70
     0
102
RTVSPropertyOp54
 70
     0
102
RTVSPropertyOp55
 70
     1
102
RTVSPropertyOp56
 70
     0
102
RTVSPropertyOp57
 70
     0
102
RTVSPropertyOp58
 70
     0
102
RTVSPropertyOp59
 70
     0
102
RTVSPropertyOp60
 70
     0
102
RTVSPropertyOp61
 70
     0
102
RTVSPropertyOp62
 70
     0
  0
XRECORD
  5
567
102
{ACAD_REACTORS
330
566
102
}
330
566
100
AcDbXrecord
280
     1
102
RTVSPost2010Prop28
280
     0
102
RTVSPost2010PropOp28
 70
     1
102
RTVSPost2010Prop29
280
     1
102
RTVSPost2010PropOp29
 70
     1
102
RTVSPost2010Prop30
280
     1
102
RTVSPost2010PropOp30
 70
     1
102
RTVSPost2010Prop31
280
     0
102
RTVSPost2010PropOp31
 70
     1
102
RTVSPost2010Prop32
280
     0
102
RTVSPost2010PropOp32
 70
     1
102
RTVSPost2010Prop33
280
     0
102
RTVSPost2010PropOp33
 70
     1
102
RTVSPost2010Prop34
280
     0
102
RTVSPost2010PropOp34
 70
     1
102
RTVSPost2010Prop35
280
     0
102
RTVSPost2010PropOp35
 70
     1
102
RTVSPost2010Prop36
280
     0
102
RTVSPost2010PropOp36
 70
     1
102
RTVSPost2010Prop37
 90
       50
102
RTVSPost2010PropOp37
 70
     1
102
RTVSPost2010Prop38
140
0.0
102
RTVSPost2010PropOp38
 70
     1
102
RTVSPost2010Prop39
140
1.0
102
RTVSPost2010PropOp39
 70
     1
102
RTVSPost2010Prop40
 90
        0
102
RTVSPost2010PropOp40
 70
     1
102
RTVSPost2010Prop41ColorIndex
 90
       18
102
RTVSPost2010Prop41ColorRGB
 90
        0
102
RTVSPost2010PropOp41
 70
     1
102
RTVSPost2010Prop42
 90
       50
102
RTVSPost2010PropOp42
 70
     1
102
RTVSPost2010Prop43
 90
        3
102
RTVSPost2010PropOp43
 70
     1
102
RTVSPost2010Prop44ColorIndex
 90
        5
102
RTVSPost2010Prop44ColorRGB
 90
      255
102
RTVSPost2010PropOp44
 70
     1
102
RTVSPost2010Prop45
280
     0
102
RTVSPost2010PropOp45
 70
     1
102
RTVSPost2010Prop46
 90
       50
102
RTVSPost2010PropOp46
 70
     1
102
RTVSPost2010Prop47
 90
       50
102
RTVSPost2010PropOp47
 70
     1
102
RTVSPost2010Prop48
 90
       50
102
RTVSPost2010PropOp48
 70
     1
102
RTVSPost2010Prop49
280
     0
102
RTVSPost2010PropOp49
 70
     1
102
RTVSPost2010Prop50
 90
       50
102
RTVSPost2010PropOp50
 70
     1
102
RTVSPost2010Prop51ColorIndex
 90
      256
102
RTVSPost2010Prop51ColorRGB
 90
-16777216
102
RTVSPost2010PropOp51
 70
     0
102
RTVSPost2010Prop52
140
1.0
102
RTVSPost2010PropOp52
 70
     0
102
RTVSPost2010Prop53
 90
        2
102
RTVSPost2010PropOp53
 70
     1
102
RTVSPost2010Prop54
  1
strokes_ogs.tif
102
RTVSPost2010PropOp54
 70
     1
102
RTVSPost2010Prop55
280
     0
102
RTVSPost2010PropOp55
 70
     1
102
RTVSPost2010Prop56
140
1.0
102
RTVSPost2010PropOp56
 70
     1
102
RTVSPost2010Prop57
140
1.0
102
RTVSPost2010PropOp57
 70
     1
102
RTVSPropertyOp0
 70
     1
102
RTVSPropertyOp1
 70
     1
102
RTVSPropertyOp2
 70
     1
102
RTVSPropertyOp3
 70
     1
102
RTVSPropertyOp4
 70
     1
102
RTVSPropertyOp5
 70
     1
102
RTVSPropertyOp6
 70
     1
102
RTVSPropertyOp7
 70
     1
102
RTVSPropertyOp8
 70
     1
102
RTVSPropertyOp9
 70
     1
102
RTVSPropertyOp10
 70
     1
102
RTVSPropertyOp11
 70
     1
102
RTVSPropertyOp12
 70
     1
102
RTVSPropertyOp13
 70
     1
102
RTVSPropertyOp14
 70
     1
102
RTVSPropertyOp15
 70
     1
102
RTVSPropertyOp16
 70
     1
102
RTVSPropertyOp17
 70
     1
102
RTVSPropertyOp18
 70
     1
102
RTVSPropertyOp19
 70
     1
102
RTVSPropertyOp20
 70
     1
102
RTVSPropertyOp21
 70
     1
102
RTVSPropertyOp22
 70
     1
102
RTVSPropertyOp23
 70
     1
102
RTVSPropertyOp24
 70
     1
102
RTVSPropertyOp25
 70
     1
102
RTVSPropertyOp26
 70
     1
102
RTVSPropertyOp27
 70
     1
102
RTVSPropertyOp28
 70
     1
102
RTVSPropertyOp29
 70
     1
102
RTVSPropertyOp30
 70
     1
102
RTVSPropertyOp31
 70
     1
102
RTVSPropertyOp32
 70
     1
102
RTVSPropertyOp33
 70
     1
102
RTVSPropertyOp34
 70
     1
102
RTVSPropertyOp35
 70
     1
102
RTVSPropertyOp36
 70
     1
102
RTVSPropertyOp37
 70
     1
102
RTVSPropertyOp38
 70
     1
102
RTVSPropertyOp39
 70
     1
102
RTVSPropertyOp40
 70
     1
102
RTVSPropertyOp41
 70
     1
102
RTVSPropertyOp42
 70
     1
102
RTVSPropertyOp43
 70
     1
102
RTVSPropertyOp44
 70
     1
102
RTVSPropertyOp45
 70
     1
102
RTVSPropertyOp46
 70
     1
102
RTVSPropertyOp47
 70
     1
102
RTVSPropertyOp48
 70
     1
102
RTVSPropertyOp49
 70
     1
102
RTVSPropertyOp50
 70
     1
102
RTVSPropertyOp51
 70
     0
102
RTVSPropertyOp52
 70
     0
102
RTVSPropertyOp53
 70
     1
102
RTVSPropertyOp54
 70
     1
102
RTVSPropertyOp55
 70
     1
102
RTVSPropertyOp56
 70
     1
102
RTVSPropertyOp57
 70
     1
102
RTVSPropertyOp58
 70
     1
102
RTVSPropertyOp59
 70
     1
102
RTVSPropertyOp60
 70
     1
102
RTVSPropertyOp61
 70
     1
102
RTVSPropertyOp62
 70
     1
  0
XRECORD
  5
579
102
{ACAD_REACTORS
330
578
102
}
330
578
100
AcDbXrecord
280
     1
102
RTVSPost2010Prop28
280
     0
102
RTVSPost2010PropOp28
 70
     1
102
RTVSPost2010Prop29
280
     1
102
RTVSPost2010PropOp29
 70
     1
102
RTVSPost2010Prop30
280
     1
102
RTVSPost2010PropOp30
 70
     1
102
RTVSPost2010Prop31
280
     0
102
RTVSPost2010PropOp31
 70
     1
102
RTVSPost2010Prop32
280
     0
102
RTVSPost2010PropOp32
 70
     1
102
RTVSPost2010Prop33
280
     0
102
RTVSPost2010PropOp33
 70
     1
102
RTVSPost2010Prop34
280
     0
102
RTVSPost2010PropOp34
 70
     1
102
RTVSPost2010Prop35
280
     0
102
RTVSPost2010PropOp35
 70
     1
102
RTVSPost2010Prop36
280
     0
102
RTVSPost2010PropOp36
 70
     1
102
RTVSPost2010Prop37
 90
       50
102
RTVSPost2010PropOp37
 70
     0
102
RTVSPost2010Prop38
140
0.0
102
RTVSPost2010PropOp38
 70
     0
102
RTVSPost2010Prop39
140
1.0
102
RTVSPost2010PropOp39
 70
     0
102
RTVSPost2010Prop40
 90
        0
102
RTVSPost2010PropOp40
 70
     0
102
RTVSPost2010Prop41ColorIndex
 90
       18
102
RTVSPost2010Prop41ColorRGB
 90
        0
102
RTVSPost2010PropOp41
 70
     0
102
RTVSPost2010Prop42
 90
       50
102
RTVSPost2010PropOp42
 70
     0
102
RTVSPost2010Prop43
 90
        3
102
RTVSPost2010PropOp43
 70
     0
102
RTVSPost2010Prop44ColorIndex
 90
        5
102
RTVSPost2010Prop44ColorRGB
 90
      255
102
RTVSPost2010PropOp44
 70
     0
102
RTVSPost2010Prop45
280
     0
102
RTVSPost2010PropOp45
 70
     1
102
RTVSPost2010Prop46
 90
       50
102
RTVSPost2010PropOp46
 70
     0
102
RTVSPost2010Prop47
 90
       50
102
RTVSPost2010PropOp47
 70
     0
102
RTVSPost2010Prop48
 90
       50
102
RTVSPost2010PropOp48
 70
     0
102
RTVSPost2010Prop49
280
     0
102
RTVSPost2010PropOp49
 70
     1
102
RTVSPost2010Prop50
 90
       50
102
RTVSPost2010PropOp50
 70
     0
102
RTVSPost2010Prop51ColorIndex
 90
      256
102
RTVSPost2010Prop51ColorRGB
 90
-16777216
102
RTVSPost2010PropOp51
 70
     0
102
RTVSPost2010Prop52
140
1.0
102
RTVSPost2010PropOp52
 70
     0
102
RTVSPost2010Prop53
 90
        2
102
RTVSPost2010PropOp53
 70
     0
102
RTVSPost2010Prop54
  1
strokes_ogs.tif
102
RTVSPost2010PropOp54
 70
     0
102
RTVSPost2010Prop55
280
     0
102
RTVSPost2010PropOp55
 70
     1
102
RTVSPost2010Prop56
140
1.0
102
RTVSPost2010PropOp56
 70
     0
102
RTVSPost2010Prop57
140
1.0
102
RTVSPost2010PropOp57
 70
     0
102
RTVSPropertyOp0
 70
     0
102
RTVSPropertyOp1
 70
     0
102
RTVSPropertyOp2
 70
     0
102
RTVSPropertyOp3
 70
     0
102
RTVSPropertyOp4
 70
     0
102
RTVSPropertyOp5
 70
     0
102
RTVSPropertyOp6
 70
     0
102
RTVSPropertyOp7
 70
     0
102
RTVSPropertyOp8
 70
     0
102
RTVSPropertyOp9
 70
     0
102
RTVSPropertyOp10
 70
     0
102
RTVSPropertyOp11
 70
     0
102
RTVSPropertyOp12
 70
     0
102
RTVSPropertyOp13
 70
     0
102
RTVSPropertyOp14
 70
     2
102
RTVSPropertyOp15
 70
     0
102
RTVSPropertyOp16
 70
     0
102
RTVSPropertyOp17
 70
     0
102
RTVSPropertyOp18
 70
     0
102
RTVSPropertyOp19
 70
     0
102
RTVSPropertyOp20
 70
     0
102
RTVSPropertyOp21
 70
     0
102
RTVSPropertyOp22
 70
     0
102
RTVSPropertyOp23
 70
     0
102
RTVSPropertyOp24
 70
     0
102
RTVSPropertyOp25
 70
     0
102
RTVSPropertyOp26
 70
     0
102
RTVSPropertyOp27
 70
     0
102
RTVSPropertyOp28
 70
     1
102
RTVSPropertyOp29
 70
     1
102
RTVSPropertyOp30
 70
     1
102
RTVSPropertyOp31
 70
     1
102
RTVSPropertyOp32
 70
     1
102
RTVSPropertyOp33
 70
     1
102
RTVSPropertyOp34
 70
     1
102
RTVSPropertyOp35
 70
     1
102
RTVSPropertyOp36
 70
     1
102
RTVSPropertyOp37
 70
     0
102
RTVSPropertyOp38
 70
     0
102
RTVSPropertyOp39
 70
     0
102
RTVSPropertyOp40
 70
     0
102
RTVSPropertyOp41
 70
     0
102
RTVSPropertyOp42
 70
     0
102
RTVSPropertyOp43
 70
     0
102
RTVSPropertyOp44
 70
     0
102
RTVSPropertyOp45
 70
     1
102
RTVSPropertyOp46
 70
     0
102
RTVSPropertyOp47
 70
     0
102
RTVSPropertyOp48
 70
     0
102
RTVSPropertyOp49
 70
     1
102
RTVSPropertyOp50
 70
     0
102
RTVSPropertyOp51
 70
     0
102
RTVSPropertyOp52
 70
     0
102
RTVSPropertyOp53
 70
     0
102
RTVSPropertyOp54
 70
     0
102
RTVSPropertyOp55
 70
     1
102
RTVSPropertyOp56
 70
     0
102
RTVSPropertyOp57
 70
     0
102
RTVSPropertyOp58
 70
     0
102
RTVSPropertyOp59
 70
     0
102
RTVSPropertyOp60
 70
     0
102
RTVSPropertyOp61
 70
     0
102
RTVSPropertyOp62
 70
     0
  0
XRECORD
  5
55F
102
{ACAD_REACTORS
330
55E
102
}
330
55E
100
AcDbXrecord
280
     1
102
RTVSPost2010Prop28
280
     0
102
RTVSPost2010PropOp28
 70
     1
102
RTVSPost2010Prop29
280
     1
102
RTVSPost2010PropOp29
 70
     1
102
RTVSPost2010Prop30
280
     1
102
RTVSPost2010PropOp30
 70
     1
102
RTVSPost2010Prop31
280
     0
102
RTVSPost2010PropOp31
 70
     1
102
RTVSPost2010Prop32
280
     0
102
RTVSPost2010PropOp32
 70
     1
102
RTVSPost2010Prop33
280
     0
102
RTVSPost2010PropOp33
 70
     1
102
RTVSPost2010Prop34
280
     0
102
RTVSPost2010PropOp34
 70
     1
102
RTVSPost2010Prop35
280
     0
102
RTVSPost2010PropOp35
 70
     1
102
RTVSPost2010Prop36
280
     0
102
RTVSPost2010PropOp36
 70
     1
102
RTVSPost2010Prop37
 90
       50
102
RTVSPost2010PropOp37
 70
     1
102
RTVSPost2010Prop38
140
0.0
102
RTVSPost2010PropOp38
 70
     1
102
RTVSPost2010Prop39
140
1.0
102
RTVSPost2010PropOp39
 70
     1
102
RTVSPost2010Prop40
 90
        0
102
RTVSPost2010PropOp40
 70
     1
102
RTVSPost2010Prop41ColorIndex
 90
       18
102
RTVSPost2010Prop41ColorRGB
 90
        0
102
RTVSPost2010PropOp41
 70
     1
102
RTVSPost2010Prop42
 90
       50
102
RTVSPost2010PropOp42
 70
     1
102
RTVSPost2010Prop43
 90
        3
102
RTVSPost2010PropOp43
 70
     1
102
RTVSPost2010Prop44ColorIndex
 90
        5
102
RTVSPost2010Prop44ColorRGB
 90
      255
102
RTVSPost2010PropOp44
 70
     1
102
RTVSPost2010Prop45
280
     0
102
RTVSPost2010PropOp45
 70
     1
102
RTVSPost2010Prop46
 90
       50
102
RTVSPost2010PropOp46
 70
     1
102
RTVSPost2010Prop47
 90
       50
102
RTVSPost2010PropOp47
 70
     1
102
RTVSPost2010Prop48
 90
       50
102
RTVSPost2010PropOp48
 70
     1
102
RTVSPost2010Prop49
280
     0
102
RTVSPost2010PropOp49
 70
     1
102
RTVSPost2010Prop50
 90
       50
102
RTVSPost2010PropOp50
 70
     1
102
RTVSPost2010Prop51ColorIndex
 90
      256
102
RTVSPost2010Prop51ColorRGB
 90
-16777216
102
RTVSPost2010PropOp51
 70
     0
102
RTVSPost2010Prop52
140
1.0
102
RTVSPost2010PropOp52
 70
     0
102
RTVSPost2010Prop53
 90
        2
102
RTVSPost2010PropOp53
 70
     1
102
RTVSPost2010Prop54
  1
strokes_ogs.tif
102
RTVSPost2010PropOp54
 70
     1
102
RTVSPost2010Prop55
280
     0
102
RTVSPost2010PropOp55
 70
     1
102
RTVSPost2010Prop56
140
1.0
102
RTVSPost2010PropOp56
 70
     1
102
RTVSPost2010Prop57
140
1.0
102
RTVSPost2010PropOp57
 70
     1
102
RTVSPropertyOp0
 70
     1
102
RTVSPropertyOp1
 70
     1
102
RTVSPropertyOp2
 70
     1
102
RTVSPropertyOp3
 70
     1
102
RTVSPropertyOp4
 70
     1
102
RTVSPropertyOp5
 70
     1
102
RTVSPropertyOp6
 70
     1
102
RTVSPropertyOp7
 70
     1
102
RTVSPropertyOp8
 70
     1
102
RTVSPropertyOp9
 70
     1
102
RTVSPropertyOp10
 70
     1
102
RTVSPropertyOp11
 70
     1
102
RTVSPropertyOp12
 70
     1
102
RTVSPropertyOp13
 70
     1
102
RTVSPropertyOp14
 70
     1
102
RTVSPropertyOp15
 70
     1
102
RTVSPropertyOp16
 70
     1
102
RTVSPropertyOp17
 70
     1
102
RTVSPropertyOp18
 70
     1
102
RTVSPropertyOp19
 70
     1
102
RTVSPropertyOp20
 70
     1
102
RTVSPropertyOp21
 70
     1
102
RTVSPropertyOp22
 70
     1
102
RTVSPropertyOp23
 70
     1
102
RTVSPropertyOp24
 70
     1
102
RTVSPropertyOp25
 70
     1
102
RTVSPropertyOp26
 70
     1
102
RTVSPropertyOp27
 70
     1
102
RTVSPropertyOp28
 70
     1
102
RTVSPropertyOp29
 70
     1
102
RTVSPropertyOp30
 70
     1
102
RTVSPropertyOp31
 70
     1
102
RTVSPropertyOp32
 70
     1
102
RTVSPropertyOp33
 70
     1
102
RTVSPropertyOp34
 70
     1
102
RTVSPropertyOp35
 70
     1
102
RTVSPropertyOp36
 70
     1
102
RTVSPropertyOp37
 70
     1
102
RTVSPropertyOp38
 70
     1
102
RTVSPropertyOp39
 70
     1
102
RTVSPropertyOp40
 70
     1
102
RTVSPropertyOp41
 70
     1
102
RTVSPropertyOp42
 70
     1
102
RTVSPropertyOp43
 70
     1
102
RTVSPropertyOp44
 70
     1
102
RTVSPropertyOp45
 70
     1
102
RTVSPropertyOp46
 70
     1
102
RTVSPropertyOp47
 70
     1
102
RTVSPropertyOp48
 70
     1
102
RTVSPropertyOp49
 70
     1
102
RTVSPropertyOp50
 70
     1
102
RTVSPropertyOp51
 70
     0
102
RTVSPropertyOp52
 70
     0
102
RTVSPropertyOp53
 70
     1
102
RTVSPropertyOp54
 70
     1
102
RTVSPropertyOp55
 70
     1
102
RTVSPropertyOp56
 70
     1
102
RTVSPropertyOp57
 70
     1
102
RTVSPropertyOp58
 70
     1
102
RTVSPropertyOp59
 70
     1
102
RTVSPropertyOp60
 70
     1
102
RTVSPropertyOp61
 70
     1
102
RTVSPropertyOp62
 70
     1
  0
XRECORD
  5
575
102
{ACAD_REACTORS
330
574
102
}
330
574
100
AcDbXrecord
280
     1
102
RTVSPost2010Prop28
280
     0
102
RTVSPost2010PropOp28
 70
     1
102
RTVSPost2010Prop29
280
     1
102
RTVSPost2010PropOp29
 70
     1
102
RTVSPost2010Prop30
280
     1
102
RTVSPost2010PropOp30
 70
     1
102
RTVSPost2010Prop31
280
     0
102
RTVSPost2010PropOp31
 70
     1
102
RTVSPost2010Prop32
280
     0
102
RTVSPost2010PropOp32
 70
     1
102
RTVSPost2010Prop33
280
     0
102
RTVSPost2010PropOp33
 70
     1
102
RTVSPost2010Prop34
280
     0
102
RTVSPost2010PropOp34
 70
     1
102
RTVSPost2010Prop35
280
     0
102
RTVSPost2010PropOp35
 70
     1
102
RTVSPost2010Prop36
280
     0
102
RTVSPost2010PropOp36
 70
     1
102
RTVSPost2010Prop37
 90
       50
102
RTVSPost2010PropOp37
 70
     1
102
RTVSPost2010Prop38
140
0.0
102
RTVSPost2010PropOp38
 70
     1
102
RTVSPost2010Prop39
140
1.0
102
RTVSPost2010PropOp39
 70
     1
102
RTVSPost2010Prop40
 90
        0
102
RTVSPost2010PropOp40
 70
     1
102
RTVSPost2010Prop41ColorIndex
 90
       18
102
RTVSPost2010Prop41ColorRGB
 90
        0
102
RTVSPost2010PropOp41
 70
     1
102
RTVSPost2010Prop42
 90
       50
102
RTVSPost2010PropOp42
 70
     1
102
RTVSPost2010Prop43
 90
        3
102
RTVSPost2010PropOp43
 70
     1
102
RTVSPost2010Prop44ColorIndex
 90
        5
102
RTVSPost2010Prop44ColorRGB
 90
      255
102
RTVSPost2010PropOp44
 70
     1
102
RTVSPost2010Prop45
280
     0
102
RTVSPost2010PropOp45
 70
     1
102
RTVSPost2010Prop46
 90
       50
102
RTVSPost2010PropOp46
 70
     1
102
RTVSPost2010Prop47
 90
       50
102
RTVSPost2010PropOp47
 70
     1
102
RTVSPost2010Prop48
 90
       50
102
RTVSPost2010PropOp48
 70
     1
102
RTVSPost2010Prop49
280
     0
102
RTVSPost2010PropOp49
 70
     1
102
RTVSPost2010Prop50
 90
       50
102
RTVSPost2010PropOp50
 70
     1
102
RTVSPost2010Prop51ColorIndex
 90
      256
102
RTVSPost2010Prop51ColorRGB
 90
-16777216
102
RTVSPost2010PropOp51
 70
     0
102
RTVSPost2010Prop52
140
1.0
102
RTVSPost2010PropOp52
 70
     0
102
RTVSPost2010Prop53
 90
        2
102
RTVSPost2010PropOp53
 70
     1
102
RTVSPost2010Prop54
  1
strokes_ogs.tif
102
RTVSPost2010PropOp54
 70
     1
102
RTVSPost2010Prop55
280
     0
102
RTVSPost2010PropOp55
 70
     1
102
RTVSPost2010Prop56
140
1.0
102
RTVSPost2010PropOp56
 70
     1
102
RTVSPost2010Prop57
140
1.0
102
RTVSPost2010PropOp57
 70
     1
102
RTVSPropertyOp0
 70
     1
102
RTVSPropertyOp1
 70
     1
102
RTVSPropertyOp2
 70
     1
102
RTVSPropertyOp3
 70
     1
102
RTVSPropertyOp4
 70
     1
102
RTVSPropertyOp5
 70
     1
102
RTVSPropertyOp6
 70
     1
102
RTVSPropertyOp7
 70
     1
102
RTVSPropertyOp8
 70
     1
102
RTVSPropertyOp9
 70
     1
102
RTVSPropertyOp10
 70
     1
102
RTVSPropertyOp11
 70
     1
102
RTVSPropertyOp12
 70
     1
102
RTVSPropertyOp13
 70
     1
102
RTVSPropertyOp14
 70
     1
102
RTVSPropertyOp15
 70
     1
102
RTVSPropertyOp16
 70
     1
102
RTVSPropertyOp17
 70
     1
102
RTVSPropertyOp18
 70
     1
102
RTVSPropertyOp19
 70
     1
102
RTVSPropertyOp20
 70
     1
102
RTVSPropertyOp21
 70
     1
102
RTVSPropertyOp22
 70
     1
102
RTVSPropertyOp23
 70
     1
102
RTVSPropertyOp24
 70
     1
102
RTVSPropertyOp25
 70
     1
102
RTVSPropertyOp26
 70
     1
102
RTVSPropertyOp27
 70
     1
102
RTVSPropertyOp28
 70
     1
102
RTVSPropertyOp29
 70
     1
102
RTVSPropertyOp30
 70
     1
102
RTVSPropertyOp31
 70
     1
102
RTVSPropertyOp32
 70
     1
102
RTVSPropertyOp33
 70
     1
102
RTVSPropertyOp34
 70
     1
102
RTVSPropertyOp35
 70
     1
102
RTVSPropertyOp36
 70
     1
102
RTVSPropertyOp37
 70
     1
102
RTVSPropertyOp38
 70
     1
102
RTVSPropertyOp39
 70
     1
102
RTVSPropertyOp40
 70
     1
102
RTVSPropertyOp41
 70
     1
102
RTVSPropertyOp42
 70
     1
102
RTVSPropertyOp43
 70
     1
102
RTVSPropertyOp44
 70
     1
102
RTVSPropertyOp45
 70
     1
102
RTVSPropertyOp46
 70
     1
102
RTVSPropertyOp47
 70
     1
102
RTVSPropertyOp48
 70
     1
102
RTVSPropertyOp49
 70
     1
102
RTVSPropertyOp50
 70
     1
102
RTVSPropertyOp51
 70
     0
102
RTVSPropertyOp52
 70
     0
102
RTVSPropertyOp53
 70
     1
102
RTVSPropertyOp54
 70
     1
102
RTVSPropertyOp55
 70
     1
102
RTVSPropertyOp56
 70
     1
102
RTVSPropertyOp57
 70
     1
102
RTVSPropertyOp58
 70
     1
102
RTVSPropertyOp59
 70
     1
102
RTVSPropertyOp60
 70
     1
102
RTVSPropertyOp61
 70
     1
102
RTVSPropertyOp62
 70
     1
  0
XRECORD
  5
573
102
{ACAD_REACTORS
330
572
102
}
330
572
100
AcDbXrecord
280
     1
102
RTVSPost2010Prop28
280
     0
102
RTVSPost2010PropOp28
 70
     1
102
RTVSPost2010Prop29
280
     1
102
RTVSPost2010PropOp29
 70
     1
102
RTVSPost2010Prop30
280
     1
102
RTVSPost2010PropOp30
 70
     1
102
RTVSPost2010Prop31
280
     0
102
RTVSPost2010PropOp31
 70
     1
102
RTVSPost2010Prop32
280
     0
102
RTVSPost2010PropOp32
 70
     1
102
RTVSPost2010Prop33
280
     0
102
RTVSPost2010PropOp33
 70
     1
102
RTVSPost2010Prop34
280
     0
102
RTVSPost2010PropOp34
 70
     1
102
RTVSPost2010Prop35
280
     0
102
RTVSPost2010PropOp35
 70
     1
102
RTVSPost2010Prop36
280
     0
102
RTVSPost2010PropOp36
 70
     1
102
RTVSPost2010Prop37
 90
       50
102
RTVSPost2010PropOp37
 70
     1
102
RTVSPost2010Prop38
140
0.0
102
RTVSPost2010PropOp38
 70
     1
102
RTVSPost2010Prop39
140
1.0
102
RTVSPost2010PropOp39
 70
     1
102
RTVSPost2010Prop40
 90
        0
102
RTVSPost2010PropOp40
 70
     1
102
RTVSPost2010Prop41ColorIndex
 90
       18
102
RTVSPost2010Prop41ColorRGB
 90
        0
102
RTVSPost2010PropOp41
 70
     1
102
RTVSPost2010Prop42
 90
       50
102
RTVSPost2010PropOp42
 70
     1
102
RTVSPost2010Prop43
 90
        3
102
RTVSPost2010PropOp43
 70
     1
102
RTVSPost2010Prop44ColorIndex
 90
        5
102
RTVSPost2010Prop44ColorRGB
 90
      255
102
RTVSPost2010PropOp44
 70
     1
102
RTVSPost2010Prop45
280
     0
102
RTVSPost2010PropOp45
 70
     1
102
RTVSPost2010Prop46
 90
       50
102
RTVSPost2010PropOp46
 70
     1
102
RTVSPost2010Prop47
 90
       50
102
RTVSPost2010PropOp47
 70
     1
102
RTVSPost2010Prop48
 90
       50
102
RTVSPost2010PropOp48
 70
     1
102
RTVSPost2010Prop49
280
     0
102
RTVSPost2010PropOp49
 70
     1
102
RTVSPost2010Prop50
 90
       50
102
RTVSPost2010PropOp50
 70
     1
102
RTVSPost2010Prop51ColorIndex
 90
      256
102
RTVSPost2010Prop51ColorRGB
 90
-16777216
102
RTVSPost2010PropOp51
 70
     0
102
RTVSPost2010Prop52
140
1.0
102
RTVSPost2010PropOp52
 70
     0
102
RTVSPost2010Prop53
 90
        2
102
RTVSPost2010PropOp53
 70
     1
102
RTVSPost2010Prop54
  1
strokes_ogs.tif
102
RTVSPost2010PropOp54
 70
     1
102
RTVSPost2010Prop55
280
     0
102
RTVSPost2010PropOp55
 70
     1
102
RTVSPost2010Prop56
140
1.0
102
RTVSPost2010PropOp56
 70
     1
102
RTVSPost2010Prop57
140
1.0
102
RTVSPost2010PropOp57
 70
     1
102
RTVSPropertyOp0
 70
     1
102
RTVSPropertyOp1
 70
     1
102
RTVSPropertyOp2
 70
     1
102
RTVSPropertyOp3
 70
     1
102
RTVSPropertyOp4
 70
     1
102
RTVSPropertyOp5
 70
     1
102
RTVSPropertyOp6
 70
     1
102
RTVSPropertyOp7
 70
     1
102
RTVSPropertyOp8
 70
     1
102
RTVSPropertyOp9
 70
     1
102
RTVSPropertyOp10
 70
     1
102
RTVSPropertyOp11
 70
     1
102
RTVSPropertyOp12
 70
     1
102
RTVSPropertyOp13
 70
     1
102
RTVSPropertyOp14
 70
     1
102
RTVSPropertyOp15
 70
     1
102
RTVSPropertyOp16
 70
     1
102
RTVSPropertyOp17
 70
     1
102
RTVSPropertyOp18
 70
     1
102
RTVSPropertyOp19
 70
     1
102
RTVSPropertyOp20
 70
     1
102
RTVSPropertyOp21
 70
     1
102
RTVSPropertyOp22
 70
     1
102
RTVSPropertyOp23
 70
     1
102
RTVSPropertyOp24
 70
     1
102
RTVSPropertyOp25
 70
     1
102
RTVSPropertyOp26
 70
     1
102
RTVSPropertyOp27
 70
     1
102
RTVSPropertyOp28
 70
     1
102
RTVSPropertyOp29
 70
     1
102
RTVSPropertyOp30
 70
     1
102
RTVSPropertyOp31
 70
     1
102
RTVSPropertyOp32
 70
     1
102
RTVSPropertyOp33
 70
     1
102
RTVSPropertyOp34
 70
     1
102
RTVSPropertyOp35
 70
     1
102
RTVSPropertyOp36
 70
     1
102
RTVSPropertyOp37
 70
     1
102
RTVSPropertyOp38
 70
     1
102
RTVSPropertyOp39
 70
     1
102
RTVSPropertyOp40
 70
     1
102
RTVSPropertyOp41
 70
     1
102
RTVSPropertyOp42
 70
     1
102
RTVSPropertyOp43
 70
     1
102
RTVSPropertyOp44
 70
     1
102
RTVSPropertyOp45
 70
     1
102
RTVSPropertyOp46
 70
     1
102
RTVSPropertyOp47
 70
     1
102
RTVSPropertyOp48
 70
     1
102
RTVSPropertyOp49
 70
     1
102
RTVSPropertyOp50
 70
     1
102
RTVSPropertyOp51
 70
     0
102
RTVSPropertyOp52
 70
     0
102
RTVSPropertyOp53
 70
     1
102
RTVSPropertyOp54
 70
     1
102
RTVSPropertyOp55
 70
     1
102
RTVSPropertyOp56
 70
     1
102
RTVSPropertyOp57
 70
     1
102
RTVSPropertyOp58
 70
     1
102
RTVSPropertyOp59
 70
     1
102
RTVSPropertyOp60
 70
     1
102
RTVSPropertyOp61
 70
     1
102
RTVSPropertyOp62
 70
     1
  0
XRECORD
  5
56D
102
{ACAD_REACTORS
330
56C
102
}
330
56C
100
AcDbXrecord
280
     1
102
RTVSPost2010Prop28
280
     0
102
RTVSPost2010PropOp28
 70
     1
102
RTVSPost2010Prop29
280
     1
102
RTVSPost2010PropOp29
 70
     1
102
RTVSPost2010Prop30
280
     1
102
RTVSPost2010PropOp30
 70
     1
102
RTVSPost2010Prop31
280
     0
102
RTVSPost2010PropOp31
 70
     1
102
RTVSPost2010Prop32
280
     0
102
RTVSPost2010PropOp32
 70
     1
102
RTVSPost2010Prop33
280
     0
102
RTVSPost2010PropOp33
 70
     1
102
RTVSPost2010Prop34
280
     0
102
RTVSPost2010PropOp34
 70
     1
102
RTVSPost2010Prop35
280
     0
102
RTVSPost2010PropOp35
 70
     1
102
RTVSPost2010Prop36
280
     0
102
RTVSPost2010PropOp36
 70
     1
102
RTVSPost2010Prop37
 90
       50
102
RTVSPost2010PropOp37
 70
     1
102
RTVSPost2010Prop38
140
0.0
102
RTVSPost2010PropOp38
 70
     1
102
RTVSPost2010Prop39
140
1.0
102
RTVSPost2010PropOp39
 70
     1
102
RTVSPost2010Prop40
 90
        0
102
RTVSPost2010PropOp40
 70
     1
102
RTVSPost2010Prop41ColorIndex
 90
       18
102
RTVSPost2010Prop41ColorRGB
 90
        0
102
RTVSPost2010PropOp41
 70
     1
102
RTVSPost2010Prop42
 90
       50
102
RTVSPost2010PropOp42
 70
     1
102
RTVSPost2010Prop43
 90
        3
102
RTVSPost2010PropOp43
 70
     1
102
RTVSPost2010Prop44ColorIndex
 90
        5
102
RTVSPost2010Prop44ColorRGB
 90
      255
102
RTVSPost2010PropOp44
 70
     1
102
RTVSPost2010Prop45
280
     0
102
RTVSPost2010PropOp45
 70
     1
102
RTVSPost2010Prop46
 90
       50
102
RTVSPost2010PropOp46
 70
     1
102
RTVSPost2010Prop47
 90
       50
102
RTVSPost2010PropOp47
 70
     1
102
RTVSPost2010Prop48
 90
       50
102
RTVSPost2010PropOp48
 70
     1
102
RTVSPost2010Prop49
280
     0
102
RTVSPost2010PropOp49
 70
     1
102
RTVSPost2010Prop50
 90
       50
102
RTVSPost2010PropOp50
 70
     1
102
RTVSPost2010Prop51ColorIndex
 90
      256
102
RTVSPost2010Prop51ColorRGB
 90
-16777216
102
RTVSPost2010PropOp51
 70
     0
102
RTVSPost2010Prop52
140
1.0
102
RTVSPost2010PropOp52
 70
     0
102
RTVSPost2010Prop53
 90
        2
102
RTVSPost2010PropOp53
 70
     1
102
RTVSPost2010Prop54
  1
strokes_ogs.tif
102
RTVSPost2010PropOp54
 70
     1
102
RTVSPost2010Prop55
280
     0
102
RTVSPost2010PropOp55
 70
     1
102
RTVSPost2010Prop56
140
1.0
102
RTVSPost2010PropOp56
 70
     1
102
RTVSPost2010Prop57
140
1.0
102
RTVSPost2010PropOp57
 70
     1
102
RTVSPropertyOp0
 70
     1
102
RTVSPropertyOp1
 70
     1
102
RTVSPropertyOp2
 70
     1
102
RTVSPropertyOp3
 70
     1
102
RTVSPropertyOp4
 70
     1
102
RTVSPropertyOp5
 70
     1
102
RTVSPropertyOp6
 70
     1
102
RTVSPropertyOp7
 70
     1
102
RTVSPropertyOp8
 70
     1
102
RTVSPropertyOp9
 70
     1
102
RTVSPropertyOp10
 70
     1
102
RTVSPropertyOp11
 70
     1
102
RTVSPropertyOp12
 70
     1
102
RTVSPropertyOp13
 70
     1
102
RTVSPropertyOp14
 70
     1
102
RTVSPropertyOp15
 70
     1
102
RTVSPropertyOp16
 70
     1
102
RTVSPropertyOp17
 70
     1
102
RTVSPropertyOp18
 70
     1
102
RTVSPropertyOp19
 70
     1
102
RTVSPropertyOp20
 70
     1
102
RTVSPropertyOp21
 70
     1
102
RTVSPropertyOp22
 70
     1
102
RTVSPropertyOp23
 70
     1
102
RTVSPropertyOp24
 70
     1
102
RTVSPropertyOp25
 70
     1
102
RTVSPropertyOp26
 70
     1
102
RTVSPropertyOp27
 70
     1
102
RTVSPropertyOp28
 70
     1
102
RTVSPropertyOp29
 70
     1
102
RTVSPropertyOp30
 70
     1
102
RTVSPropertyOp31
 70
     1
102
RTVSPropertyOp32
 70
     1
102
RTVSPropertyOp33
 70
     1
102
RTVSPropertyOp34
 70
     1
102
RTVSPropertyOp35
 70
     1
102
RTVSPropertyOp36
 70
     1
102
RTVSPropertyOp37
 70
     1
102
RTVSPropertyOp38
 70
     1
102
RTVSPropertyOp39
 70
     1
102
RTVSPropertyOp40
 70
     1
102
RTVSPropertyOp41
 70
     1
102
RTVSPropertyOp42
 70
     1
102
RTVSPropertyOp43
 70
     1
102
RTVSPropertyOp44
 70
     1
102
RTVSPropertyOp45
 70
     1
102
RTVSPropertyOp46
 70
     1
102
RTVSPropertyOp47
 70
     1
102
RTVSPropertyOp48
 70
     1
102
RTVSPropertyOp49
 70
     1
102
RTVSPropertyOp50
 70
     1
102
RTVSPropertyOp51
 70
     0
102
RTVSPropertyOp52
 70
     0
102
RTVSPropertyOp53
 70
     1
102
RTVSPropertyOp54
 70
     1
102
RTVSPropertyOp55
 70
     1
102
RTVSPropertyOp56
 70
     1
102
RTVSPropertyOp57
 70
     1
102
RTVSPropertyOp58
 70
     1
102
RTVSPropertyOp59
 70
     1
102
RTVSPropertyOp60
 70
     1
102
RTVSPropertyOp61
 70
     1
102
RTVSPropertyOp62
 70
     1
  0
XRECORD
  5
56F
102
{ACAD_REACTORS
330
56E
102
}
330
56E
100
AcDbXrecord
280
     1
102
RTVSPost2010Prop28
280
     0
102
RTVSPost2010PropOp28
 70
     1
102
RTVSPost2010Prop29
280
     1
102
RTVSPost2010PropOp29
 70
     1
102
RTVSPost2010Prop30
280
     1
102
RTVSPost2010PropOp30
 70
     1
102
RTVSPost2010Prop31
280
     0
102
RTVSPost2010PropOp31
 70
     1
102
RTVSPost2010Prop32
280
     0
102
RTVSPost2010PropOp32
 70
     1
102
RTVSPost2010Prop33
280
     0
102
RTVSPost2010PropOp33
 70
     1
102
RTVSPost2010Prop34
280
     0
102
RTVSPost2010PropOp34
 70
     1
102
RTVSPost2010Prop35
280
     0
102
RTVSPost2010PropOp35
 70
     1
102
RTVSPost2010Prop36
280
     0
102
RTVSPost2010PropOp36
 70
     1
102
RTVSPost2010Prop37
 90
       50
102
RTVSPost2010PropOp37
 70
     1
102
RTVSPost2010Prop38
140
0.0
102
RTVSPost2010PropOp38
 70
     1
102
RTVSPost2010Prop39
140
1.0
102
RTVSPost2010PropOp39
 70
     1
102
RTVSPost2010Prop40
 90
        0
102
RTVSPost2010PropOp40
 70
     1
102
RTVSPost2010Prop41ColorIndex
 90
       18
102
RTVSPost2010Prop41ColorRGB
 90
        0
102
RTVSPost2010PropOp41
 70
     1
102
RTVSPost2010Prop42
 90
       50
102
RTVSPost2010PropOp42
 70
     1
102
RTVSPost2010Prop43
 90
        3
102
RTVSPost2010PropOp43
 70
     1
102
RTVSPost2010Prop44ColorIndex
 90
        5
102
RTVSPost2010Prop44ColorRGB
 90
      255
102
RTVSPost2010PropOp44
 70
     1
102
RTVSPost2010Prop45
280
     0
102
RTVSPost2010PropOp45
 70
     1
102
RTVSPost2010Prop46
 90
       50
102
RTVSPost2010PropOp46
 70
     1
102
RTVSPost2010Prop47
 90
       50
102
RTVSPost2010PropOp47
 70
     1
102
RTVSPost2010Prop48
 90
       50
102
RTVSPost2010PropOp48
 70
     1
102
RTVSPost2010Prop49
280
     0
102
RTVSPost2010PropOp49
 70
     1
102
RTVSPost2010Prop50
 90
       50
102
RTVSPost2010PropOp50
 70
     1
102
RTVSPost2010Prop51ColorIndex
 90
      256
102
RTVSPost2010Prop51ColorRGB
 90
-16777216
102
RTVSPost2010PropOp51
 70
     0
102
RTVSPost2010Prop52
140
1.0
102
RTVSPost2010PropOp52
 70
     0
102
RTVSPost2010Prop53
 90
        2
102
RTVSPost2010PropOp53
 70
     1
102
RTVSPost2010Prop54
  1
strokes_ogs.tif
102
RTVSPost2010PropOp54
 70
     1
102
RTVSPost2010Prop55
280
     0
102
RTVSPost2010PropOp55
 70
     1
102
RTVSPost2010Prop56
140
1.0
102
RTVSPost2010PropOp56
 70
     1
102
RTVSPost2010Prop57
140
1.0
102
RTVSPost2010PropOp57
 70
     1
102
RTVSPropertyOp0
 70
     1
102
RTVSPropertyOp1
 70
     1
102
RTVSPropertyOp2
 70
     1
102
RTVSPropertyOp3
 70
     1
102
RTVSPropertyOp4
 70
     1
102
RTVSPropertyOp5
 70
     1
102
RTVSPropertyOp6
 70
     1
102
RTVSPropertyOp7
 70
     1
102
RTVSPropertyOp8
 70
     1
102
RTVSPropertyOp9
 70
     1
102
RTVSPropertyOp10
 70
     1
102
RTVSPropertyOp11
 70
     1
102
RTVSPropertyOp12
 70
     1
102
RTVSPropertyOp13
 70
     1
102
RTVSPropertyOp14
 70
     1
102
RTVSPropertyOp15
 70
     1
102
RTVSPropertyOp16
 70
     1
102
RTVSPropertyOp17
 70
     1
102
RTVSPropertyOp18
 70
     1
102
RTVSPropertyOp19
 70
     1
102
RTVSPropertyOp20
 70
     1
102
RTVSPropertyOp21
 70
     1
102
RTVSPropertyOp22
 70
     1
102
RTVSPropertyOp23
 70
     1
102
RTVSPropertyOp24
 70
     1
102
RTVSPropertyOp25
 70
     1
102
RTVSPropertyOp26
 70
     1
102
RTVSPropertyOp27
 70
     1
102
RTVSPropertyOp28
 70
     1
102
RTVSPropertyOp29
 70
     1
102
RTVSPropertyOp30
 70
     1
102
RTVSPropertyOp31
 70
     1
102
RTVSPropertyOp32
 70
     1
102
RTVSPropertyOp33
 70
     1
102
RTVSPropertyOp34
 70
     1
102
RTVSPropertyOp35
 70
     1
102
RTVSPropertyOp36
 70
     1
102
RTVSPropertyOp37
 70
     1
102
RTVSPropertyOp38
 70
     1
102
RTVSPropertyOp39
 70
     1
102
RTVSPropertyOp40
 70
     1
102
RTVSPropertyOp41
 70
     1
102
RTVSPropertyOp42
 70
     1
102
RTVSPropertyOp43
 70
     1
102
RTVSPropertyOp44
 70
     1
102
RTVSPropertyOp45
 70
     1
102
RTVSPropertyOp46
 70
     1
102
RTVSPropertyOp47
 70
     1
102
RTVSPropertyOp48
 70
     1
102
RTVSPropertyOp49
 70
     1
102
RTVSPropertyOp50
 70
     1
102
RTVSPropertyOp51
 70
     0
102
RTVSPropertyOp52
 70
     0
102
RTVSPropertyOp53
 70
     1
102
RTVSPropertyOp54
 70
     1
102
RTVSPropertyOp55
 70
     1
102
RTVSPropertyOp56
 70
     1
102
RTVSPropertyOp57
 70
     1
102
RTVSPropertyOp58
 70
     1
102
RTVSPropertyOp59
 70
     1
102
RTVSPropertyOp60
 70
     1
102
RTVSPropertyOp61
 70
     1
102
RTVSPropertyOp62
 70
     1
  0
XRECORD
  5
565
102
{ACAD_REACTORS
330
564
102
}
330
564
100
AcDbXrecord
280
     1
102
RTVSPost2010Prop28
280
     0
102
RTVSPost2010PropOp28
 70
     1
102
RTVSPost2010Prop29
280
     1
102
RTVSPost2010PropOp29
 70
     1
102
RTVSPost2010Prop30
280
     1
102
RTVSPost2010PropOp30
 70
     1
102
RTVSPost2010Prop31
280
     0
102
RTVSPost2010PropOp31
 70
     1
102
RTVSPost2010Prop32
280
     0
102
RTVSPost2010PropOp32
 70
     1
102
RTVSPost2010Prop33
280
     0
102
RTVSPost2010PropOp33
 70
     1
102
RTVSPost2010Prop34
280
     0
102
RTVSPost2010PropOp34
 70
     1
102
RTVSPost2010Prop35
280
     0
102
RTVSPost2010PropOp35
 70
     1
102
RTVSPost2010Prop36
280
     0
102
RTVSPost2010PropOp36
 70
     1
102
RTVSPost2010Prop37
 90
       50
102
RTVSPost2010PropOp37
 70
     1
102
RTVSPost2010Prop38
140
0.0
102
RTVSPost2010PropOp38
 70
     1
102
RTVSPost2010Prop39
140
1.0
102
RTVSPost2010PropOp39
 70
     1
102
RTVSPost2010Prop40
 90
        0
102
RTVSPost2010PropOp40
 70
     1
102
RTVSPost2010Prop41ColorIndex
 90
       18
102
RTVSPost2010Prop41ColorRGB
 90
        0
102
RTVSPost2010PropOp41
 70
     1
102
RTVSPost2010Prop42
 90
       50
102
RTVSPost2010PropOp42
 70
     1
102
RTVSPost2010Prop43
 90
        3
102
RTVSPost2010PropOp43
 70
     1
102
RTVSPost2010Prop44ColorIndex
 90
        5
102
RTVSPost2010Prop44ColorRGB
 90
      255
102
RTVSPost2010PropOp44
 70
     1
102
RTVSPost2010Prop45
280
     0
102
RTVSPost2010PropOp45
 70
     1
102
RTVSPost2010Prop46
 90
       50
102
RTVSPost2010PropOp46
 70
     1
102
RTVSPost2010Prop47
 90
       50
102
RTVSPost2010PropOp47
 70
     1
102
RTVSPost2010Prop48
 90
       50
102
RTVSPost2010PropOp48
 70
     1
102
RTVSPost2010Prop49
280
     0
102
RTVSPost2010PropOp49
 70
     1
102
RTVSPost2010Prop50
 90
       50
102
RTVSPost2010PropOp50
 70
     1
102
RTVSPost2010Prop51ColorIndex
 90
      256
102
RTVSPost2010Prop51ColorRGB
 90
-16777216
102
RTVSPost2010PropOp51
 70
     0
102
RTVSPost2010Prop52
140
1.0
102
RTVSPost2010PropOp52
 70
     0
102
RTVSPost2010Prop53
 90
        2
102
RTVSPost2010PropOp53
 70
     1
102
RTVSPost2010Prop54
  1
strokes_ogs.tif
102
RTVSPost2010PropOp54
 70
     1
102
RTVSPost2010Prop55
280
     0
102
RTVSPost2010PropOp55
 70
     1
102
RTVSPost2010Prop56
140
1.0
102
RTVSPost2010PropOp56
 70
     1
102
RTVSPost2010Prop57
140
1.0
102
RTVSPost2010PropOp57
 70
     1
102
RTVSPropertyOp0
 70
     1
102
RTVSPropertyOp1
 70
     1
102
RTVSPropertyOp2
 70
     1
102
RTVSPropertyOp3
 70
     1
102
RTVSPropertyOp4
 70
     1
102
RTVSPropertyOp5
 70
     1
102
RTVSPropertyOp6
 70
     1
102
RTVSPropertyOp7
 70
     1
102
RTVSPropertyOp8
 70
     1
102
RTVSPropertyOp9
 70
     1
102
RTVSPropertyOp10
 70
     1
102
RTVSPropertyOp11
 70
     1
102
RTVSPropertyOp12
 70
     1
102
RTVSPropertyOp13
 70
     1
102
RTVSPropertyOp14
 70
     1
102
RTVSPropertyOp15
 70
     1
102
RTVSPropertyOp16
 70
     1
102
RTVSPropertyOp17
 70
     1
102
RTVSPropertyOp18
 70
     1
102
RTVSPropertyOp19
 70
     1
102
RTVSPropertyOp20
 70
     1
102
RTVSPropertyOp21
 70
     1
102
RTVSPropertyOp22
 70
     1
102
RTVSPropertyOp23
 70
     1
102
RTVSPropertyOp24
 70
     1
102
RTVSPropertyOp25
 70
     1
102
RTVSPropertyOp26
 70
     1
102
RTVSPropertyOp27
 70
     1
102
RTVSPropertyOp28
 70
     1
102
RTVSPropertyOp29
 70
     1
102
RTVSPropertyOp30
 70
     1
102
RTVSPropertyOp31
 70
     1
102
RTVSPropertyOp32
 70
     1
102
RTVSPropertyOp33
 70
     1
102
RTVSPropertyOp34
 70
     1
102
RTVSPropertyOp35
 70
     1
102
RTVSPropertyOp36
 70
     1
102
RTVSPropertyOp37
 70
     1
102
RTVSPropertyOp38
 70
     1
102
RTVSPropertyOp39
 70
     1
102
RTVSPropertyOp40
 70
     1
102
RTVSPropertyOp41
 70
     1
102
RTVSPropertyOp42
 70
     1
102
RTVSPropertyOp43
 70
     1
102
RTVSPropertyOp44
 70
     1
102
RTVSPropertyOp45
 70
     1
102
RTVSPropertyOp46
 70
     1
102
RTVSPropertyOp47
 70
     1
102
RTVSPropertyOp48
 70
     1
102
RTVSPropertyOp49
 70
     1
102
RTVSPropertyOp50
 70
     1
102
RTVSPropertyOp51
 70
     0
102
RTVSPropertyOp52
 70
     0
102
RTVSPropertyOp53
 70
     1
102
RTVSPropertyOp54
 70
     1
102
RTVSPropertyOp55
 70
     1
102
RTVSPropertyOp56
 70
     1
102
RTVSPropertyOp57
 70
     1
102
RTVSPropertyOp58
 70
     1
102
RTVSPropertyOp59
 70
     1
102
RTVSPropertyOp60
 70
     1
102
RTVSPropertyOp61
 70
     1
102
RTVSPropertyOp62
 70
     1
  0
XRECORD
  5
559
102
{ACAD_REACTORS
330
558
102
}
330
558
100
AcDbXrecord
280
     1
102
RTVSPost2010Prop28
280
     0
102
RTVSPost2010PropOp28
 70
     1
102
RTVSPost2010Prop29
280
     1
102
RTVSPost2010PropOp29
 70
     1
102
RTVSPost2010Prop30
280
     1
102
RTVSPost2010PropOp30
 70
     1
102
RTVSPost2010Prop31
280
     0
102
RTVSPost2010PropOp31
 70
     1
102
RTVSPost2010Prop32
280
     0
102
RTVSPost2010PropOp32
 70
     1
102
RTVSPost2010Prop33
280
     0
102
RTVSPost2010PropOp33
 70
     1
102
RTVSPost2010Prop34
280
     0
102
RTVSPost2010PropOp34
 70
     1
102
RTVSPost2010Prop35
280
     0
102
RTVSPost2010PropOp35
 70
     1
102
RTVSPost2010Prop36
280
     0
102
RTVSPost2010PropOp36
 70
     1
102
RTVSPost2010Prop37
 90
       50
102
RTVSPost2010PropOp37
 70
     1
102
RTVSPost2010Prop38
140
0.0
102
RTVSPost2010PropOp38
 70
     1
102
RTVSPost2010Prop39
140
1.0
102
RTVSPost2010PropOp39
 70
     1
102
RTVSPost2010Prop40
 90
        0
102
RTVSPost2010PropOp40
 70
     1
102
RTVSPost2010Prop41ColorIndex
 90
       18
102
RTVSPost2010Prop41ColorRGB
 90
        0
102
RTVSPost2010PropOp41
 70
     1
102
RTVSPost2010Prop42
 90
       50
102
RTVSPost2010PropOp42
 70
     1
102
RTVSPost2010Prop43
 90
        3
102
RTVSPost2010PropOp43
 70
     1
102
RTVSPost2010Prop44ColorIndex
 90
        5
102
RTVSPost2010Prop44ColorRGB
 90
      255
102
RTVSPost2010PropOp44
 70
     1
102
RTVSPost2010Prop45
280
     0
102
RTVSPost2010PropOp45
 70
     1
102
RTVSPost2010Prop46
 90
       50
102
RTVSPost2010PropOp46
 70
     1
102
RTVSPost2010Prop47
 90
       50
102
RTVSPost2010PropOp47
 70
     1
102
RTVSPost2010Prop48
 90
       50
102
RTVSPost2010PropOp48
 70
     1
102
RTVSPost2010Prop49
280
     0
102
RTVSPost2010PropOp49
 70
     1
102
RTVSPost2010Prop50
 90
       50
102
RTVSPost2010PropOp50
 70
     1
102
RTVSPost2010Prop51ColorIndex
 90
      256
102
RTVSPost2010Prop51ColorRGB
 90
-16777216
102
RTVSPost2010PropOp51
 70
     0
102
RTVSPost2010Prop52
140
1.0
102
RTVSPost2010PropOp52
 70
     0
102
RTVSPost2010Prop53
 90
        2
102
RTVSPost2010PropOp53
 70
     1
102
RTVSPost2010Prop54
  1
strokes_ogs.tif
102
RTVSPost2010PropOp54
 70
     1
102
RTVSPost2010Prop55
280
     0
102
RTVSPost2010PropOp55
 70
     1
102
RTVSPost2010Prop56
140
1.0
102
RTVSPost2010PropOp56
 70
     1
102
RTVSPost2010Prop57
140
1.0
102
RTVSPost2010PropOp57
 70
     1
102
RTVSPropertyOp0
 70
     1
102
RTVSPropertyOp1
 70
     1
102
RTVSPropertyOp2
 70
     1
102
RTVSPropertyOp3
 70
     1
102
RTVSPropertyOp4
 70
     1
102
RTVSPropertyOp5
 70
     1
102
RTVSPropertyOp6
 70
     1
102
RTVSPropertyOp7
 70
     1
102
RTVSPropertyOp8
 70
     1
102
RTVSPropertyOp9
 70
     1
102
RTVSPropertyOp10
 70
     1
102
RTVSPropertyOp11
 70
     1
102
RTVSPropertyOp12
 70
     1
102
RTVSPropertyOp13
 70
     1
102
RTVSPropertyOp14
 70
     1
102
RTVSPropertyOp15
 70
     1
102
RTVSPropertyOp16
 70
     1
102
RTVSPropertyOp17
 70
     1
102
RTVSPropertyOp18
 70
     1
102
RTVSPropertyOp19
 70
     1
102
RTVSPropertyOp20
 70
     1
102
RTVSPropertyOp21
 70
     1
102
RTVSPropertyOp22
 70
     1
102
RTVSPropertyOp23
 70
     1
102
RTVSPropertyOp24
 70
     1
102
RTVSPropertyOp25
 70
     1
102
RTVSPropertyOp26
 70
     1
102
RTVSPropertyOp27
 70
     1
102
RTVSPropertyOp28
 70
     1
102
RTVSPropertyOp29
 70
     1
102
RTVSPropertyOp30
 70
     1
102
RTVSPropertyOp31
 70
     1
102
RTVSPropertyOp32
 70
     1
102
RTVSPropertyOp33
 70
     1
102
RTVSPropertyOp34
 70
     1
102
RTVSPropertyOp35
 70
     1
102
RTVSPropertyOp36
 70
     1
102
RTVSPropertyOp37
 70
     1
102
RTVSPropertyOp38
 70
     1
102
RTVSPropertyOp39
 70
     1
102
RTVSPropertyOp40
 70
     1
102
RTVSPropertyOp41
 70
     1
102
RTVSPropertyOp42
 70
     1
102
RTVSPropertyOp43
 70
     1
102
RTVSPropertyOp44
 70
     1
102
RTVSPropertyOp45
 70
     1
102
RTVSPropertyOp46
 70
     1
102
RTVSPropertyOp47
 70
     1
102
RTVSPropertyOp48
 70
     1
102
RTVSPropertyOp49
 70
     1
102
RTVSPropertyOp50
 70
     1
102
RTVSPropertyOp51
 70
     0
102
RTVSPropertyOp52
 70
     0
102
RTVSPropertyOp53
 70
     1
102
RTVSPropertyOp54
 70
     1
102
RTVSPropertyOp55
 70
     1
102
RTVSPropertyOp56
 70
     1
102
RTVSPropertyOp57
 70
     1
102
RTVSPropertyOp58
 70
     1
102
RTVSPropertyOp59
 70
     1
102
RTVSPropertyOp60
 70
     1
102
RTVSPropertyOp61
 70
     1
102
RTVSPropertyOp62
 70
     1
  0
XRECORD
  5
571
102
{ACAD_REACTORS
330
570
102
}
330
570
100
AcDbXrecord
280
     1
102
RTVSPost2010Prop28
280
     0
102
RTVSPost2010PropOp28
 70
     1
102
RTVSPost2010Prop29
280
     1
102
RTVSPost2010PropOp29
 70
     1
102
RTVSPost2010Prop30
280
     1
102
RTVSPost2010PropOp30
 70
     1
102
RTVSPost2010Prop31
280
     0
102
RTVSPost2010PropOp31
 70
     1
102
RTVSPost2010Prop32
280
     0
102
RTVSPost2010PropOp32
 70
     1
102
RTVSPost2010Prop33
280
     0
102
RTVSPost2010PropOp33
 70
     1
102
RTVSPost2010Prop34
280
     0
102
RTVSPost2010PropOp34
 70
     1
102
RTVSPost2010Prop35
280
     0
102
RTVSPost2010PropOp35
 70
     1
102
RTVSPost2010Prop36
280
     0
102
RTVSPost2010PropOp36
 70
     1
102
RTVSPost2010Prop37
 90
       50
102
RTVSPost2010PropOp37
 70
     1
102
RTVSPost2010Prop38
140
0.0
102
RTVSPost2010PropOp38
 70
     1
102
RTVSPost2010Prop39
140
1.0
102
RTVSPost2010PropOp39
 70
     1
102
RTVSPost2010Prop40
 90
        0
102
RTVSPost2010PropOp40
 70
     1
102
RTVSPost2010Prop41ColorIndex
 90
       18
102
RTVSPost2010Prop41ColorRGB
 90
        0
102
RTVSPost2010PropOp41
 70
     1
102
RTVSPost2010Prop42
 90
       50
102
RTVSPost2010PropOp42
 70
     1
102
RTVSPost2010Prop43
 90
        3
102
RTVSPost2010PropOp43
 70
     1
102
RTVSPost2010Prop44ColorIndex
 90
        5
102
RTVSPost2010Prop44ColorRGB
 90
      255
102
RTVSPost2010PropOp44
 70
     1
102
RTVSPost2010Prop45
280
     0
102
RTVSPost2010PropOp45
 70
     1
102
RTVSPost2010Prop46
 90
       50
102
RTVSPost2010PropOp46
 70
     1
102
RTVSPost2010Prop47
 90
       50
102
RTVSPost2010PropOp47
 70
     1
102
RTVSPost2010Prop48
 90
       50
102
RTVSPost2010PropOp48
 70
     1
102
RTVSPost2010Prop49
280
     0
102
RTVSPost2010PropOp49
 70
     1
102
RTVSPost2010Prop50
 90
       50
102
RTVSPost2010PropOp50
 70
     1
102
RTVSPost2010Prop51ColorIndex
 90
      256
102
RTVSPost2010Prop51ColorRGB
 90
-16777216
102
RTVSPost2010PropOp51
 70
     0
102
RTVSPost2010Prop52
140
1.0
102
RTVSPost2010PropOp52
 70
     0
102
RTVSPost2010Prop53
 90
        2
102
RTVSPost2010PropOp53
 70
     1
102
RTVSPost2010Prop54
  1
strokes_ogs.tif
102
RTVSPost2010PropOp54
 70
     1
102
RTVSPost2010Prop55
280
     0
102
RTVSPost2010PropOp55
 70
     1
102
RTVSPost2010Prop56
140
1.0
102
RTVSPost2010PropOp56
 70
     1
102
RTVSPost2010Prop57
140
1.0
102
RTVSPost2010PropOp57
 70
     1
102
RTVSPropertyOp0
 70
     1
102
RTVSPropertyOp1
 70
     1
102
RTVSPropertyOp2
 70
     1
102
RTVSPropertyOp3
 70
     1
102
RTVSPropertyOp4
 70
     1
102
RTVSPropertyOp5
 70
     1
102
RTVSPropertyOp6
 70
     1
102
RTVSPropertyOp7
 70
     1
102
RTVSPropertyOp8
 70
     1
102
RTVSPropertyOp9
 70
     1
102
RTVSPropertyOp10
 70
     1
102
RTVSPropertyOp11
 70
     1
102
RTVSPropertyOp12
 70
     1
102
RTVSPropertyOp13
 70
     1
102
RTVSPropertyOp14
 70
     1
102
RTVSPropertyOp15
 70
     1
102
RTVSPropertyOp16
 70
     1
102
RTVSPropertyOp17
 70
     1
102
RTVSPropertyOp18
 70
     1
102
RTVSPropertyOp19
 70
     1
102
RTVSPropertyOp20
 70
     1
102
RTVSPropertyOp21
 70
     1
102
RTVSPropertyOp22
 70
     1
102
RTVSPropertyOp23
 70
     1
102
RTVSPropertyOp24
 70
     1
102
RTVSPropertyOp25
 70
     1
102
RTVSPropertyOp26
 70
     1
102
RTVSPropertyOp27
 70
     1
102
RTVSPropertyOp28
 70
     1
102
RTVSPropertyOp29
 70
     1
102
RTVSPropertyOp30
 70
     1
102
RTVSPropertyOp31
 70
     1
102
RTVSPropertyOp32
 70
     1
102
RTVSPropertyOp33
 70
     1
102
RTVSPropertyOp34
 70
     1
102
RTVSPropertyOp35
 70
     1
102
RTVSPropertyOp36
 70
     1
102
RTVSPropertyOp37
 70
     1
102
RTVSPropertyOp38
 70
     1
102
RTVSPropertyOp39
 70
     1
102
RTVSPropertyOp40
 70
     1
102
RTVSPropertyOp41
 70
     1
102
RTVSPropertyOp42
 70
     1
102
RTVSPropertyOp43
 70
     1
102
RTVSPropertyOp44
 70
     1
102
RTVSPropertyOp45
 70
     1
102
RTVSPropertyOp46
 70
     1
102
RTVSPropertyOp47
 70
     1
102
RTVSPropertyOp48
 70
     1
102
RTVSPropertyOp49
 70
     1
102
RTVSPropertyOp50
 70
     1
102
RTVSPropertyOp51
 70
     0
102
RTVSPropertyOp52
 70
     0
102
RTVSPropertyOp53
 70
     1
102
RTVSPropertyOp54
 70
     1
102
RTVSPropertyOp55
 70
     1
102
RTVSPropertyOp56
 70
     1
102
RTVSPropertyOp57
 70
     1
102
RTVSPropertyOp58
 70
     1
102
RTVSPropertyOp59
 70
     1
102
RTVSPropertyOp60
 70
     1
102
RTVSPropertyOp61
 70
     1
102
RTVSPropertyOp62
 70
     1
  0
ENDSEC
  0
EOF
