  0
SECTION
  2
HEADER
  9
$ACADVER
  1
AC1015
  9
$ACADMAINTVER
 70
    20
  9
$DWGCODEPAGE
  3
ANSI_1252
  9
$INSBASE
 10
0.0
 20
0.0
 30
0.0
  9
$EXTMIN
 10
-22.21568600000001
 20
-34.064012
 30
0.0
  9
$EXTMAX
 10
36.121534
 20
30.582748
 30
0.0
  9
$LIMMIN
 10
0.0
 20
0.0
  9
$LIMMAX
 10
12.0
 20
9.0
  9
$ORTHOMODE
 70
     0
  9
$REGENMODE
 70
     1
  9
$FILLMODE
 70
     1
  9
$QTEXTMODE
 70
     0
  9
$MIRRTEXT
 70
     1
  9
$LTSCALE
 40
1.0
  9
$ATTMODE
 70
     1
  9
$TEXTSIZE
 40
3.0
  9
$TRACEWID
 40
10.0
  9
$TEXTSTYLE
  7
SANDVIK_STYLE
  9
$CLAYER
  8
1
  9
$CELTYPE
  6
ByLayer
  9
$CECOLOR
 62
   256
  9
$CELTSCALE
 40
1.0
  9
$DISPSILH
 70
     0
  9
$DIMSCALE
 40
1.0
  9
$DIMASZ
 40
0.18
  9
$DIMEXO
 40
0.0625
  9
$DIMDLI
 40
0.38
  9
$DIMRND
 40
0.0
  9
$DIMDLE
 40
0.0
  9
$DIMEXE
 40
0.18
  9
$DIMTP
 40
0.0
  9
$DIMTM
 40
0.0
  9
$DIMTXT
 40
0.18
  9
$DIMCEN
 40
0.09
  9
$DIMTSZ
 40
0.0
  9
$DIMTOL
 70
     0
  9
$DIMLIM
 70
     0
  9
$DIMTIH
 70
     1
  9
$DIMTOH
 70
     1
  9
$DIMSE1
 70
     0
  9
$DIMSE2
 70
     0
  9
$DIMTAD
 70
     0
  9
$DIMZIN
 70
     0
  9
$DIMBLK
  1

  9
$DIMASO
 70
     1
  9
$DIMSHO
 70
     1
  9
$DIMPOST
  1

  9
$DIMAPOST
  1

  9
$DIMALT
 70
     0
  9
$DIMALTD
 70
     2
  9
$DIMALTF
 40
25.4
  9
$DIMLFAC
 40
1.0
  9
$DIMTOFL
 70
     0
  9
$DIMTVP
 40
0.0
  9
$DIMTIX
 70
     0
  9
$DIMSOXD
 70
     0
  9
$DIMSAH
 70
     0
  9
$DIMBLK1
  1

  9
$DIMBLK2
  1

  9
$DIMSTYLE
  2
STANDARD
  9
$DIMCLRD
 70
     0
  9
$DIMCLRE
 70
     0
  9
$DIMCLRT
 70
     0
  9
$DIMTFAC
 40
1.0
  9
$DIMGAP
 40
0.09
  9
$DIMJUST
 70
     0
  9
$DIMSD1
 70
     0
  9
$DIMSD2
 70
     0
  9
$DIMTOLJ
 70
     1
  9
$DIMTZIN
 70
     0
  9
$DIMALTZ
 70
     0
  9
$DIMALTTZ
 70
     0
  9
$DIMUPT
 70
     0
  9
$DIMDEC
 70
     4
  9
$DIMTDEC
 70
     4
  9
$DIMALTU
 70
     2
  9
$DIMALTTD
 70
     2
  9
$DIMTXSTY
  7
STANDARD
  9
$DIMAUNIT
 70
     0
  9
$DIMADEC
 70
     0
  9
$DIMALTRND
 40
0.0
  9
$DIMAZIN
 70
     0
  9
$DIMDSEP
 70
    46
  9
$DIMATFIT
 70
     3
  9
$DIMFRAC
 70
     0
  9
$DIMLDRBLK
  1

  9
$DIMLUNIT
 70
     2
  9
$DIMLWD
 70
    -2
  9
$DIMLWE
 70
    -2
  9
$DIMTMOVE
 70
     0
  9
$LUNITS
 70
     2
  9
$LUPREC
 70
     2
  9
$SKETCHINC
 40
0.0
  9
$FILLETRAD
 40
0.0
  9
$AUNITS
 70
     0
  9
$AUPREC
 70
     2
  9
$MENU
  1
acad
  9
$ELEVATION
 40
0.0
  9
$PELEVATION
 40
0.0
  9
$THICKNESS
 40
0.0
  9
$LIMCHECK
 70
     0
  9
$CHAMFERA
 40
0.0
  9
$CHAMFERB
 40
0.0
  9
$CHAMFERC
 40
0.0
  9
$CHAMFERD
 40
0.0
  9
$SKPOLY
 70
     0
  9
$TDCREATE
 40
2456818.317918738
  9
$TDUCREATE
 40
2456818.234585405
  9
$TDUPDATE
 40
2456818.317923136
  9
$TDUUPDATE
 40
2456818.234589803
  9
$TDINDWG
 40
0.0000051736
  9
$TDUSRTIMER
 40
0.0000051736
  9
$USRTIMER
 70
     1
  9
$ANGBASE
 50
0.0
  9
$ANGDIR
 70
     0
  9
$PDMODE
 70
     0
  9
$PDSIZE
 40
0.0
  9
$PLINEWID
 40
0.0
  9
$SPLFRAME
 70
     0
  9
$SPLINETYPE
 70
     6
  9
$SPLINESEGS
 70
     8
  9
$HANDSEED
  5
594
  9
$SURFTAB1
 70
     6
  9
$SURFTAB2
 70
     6
  9
$SURFTYPE
 70
     6
  9
$SURFU
 70
     6
  9
$SURFV
 70
     6
  9
$UCSBASE
  2

  9
$UCSNAME
  2

  9
$UCSORG
 10
0.0
 20
0.0
 30
0.0
  9
$UCSXDIR
 10
1.0
 20
0.0
 30
0.0
  9
$UCSYDIR
 10
0.0
 20
1.0
 30
0.0
  9
$UCSORTHOREF
  2

  9
$UCSORTHOVIEW
 70
     0
  9
$UCSORGTOP
 10
0.0
 20
0.0
 30
0.0
  9
$UCSORGBOTTOM
 10
0.0
 20
0.0
 30
0.0
  9
$UCSORGLEFT
 10
0.0
 20
0.0
 30
0.0
  9
$UCSORGRIGHT
 10
0.0
 20
0.0
 30
0.0
  9
$UCSORGFRONT
 10
0.0
 20
0.0
 30
0.0
  9
$UCSORGBACK
 10
0.0
 20
0.0
 30
0.0
  9
$PUCSBASE
  2

  9
$PUCSNAME
  2

  9
$PUCSORG
 10
0.0
 20
0.0
 30
0.0
  9
$PUCSXDIR
 10
1.0
 20
0.0
 30
0.0
  9
$PUCSYDIR
 10
0.0
 20
1.0
 30
0.0
  9
$PUCSORTHOREF
  2

  9
$PUCSORTHOVIEW
 70
     0
  9
$PUCSORGTOP
 10
0.0
 20
0.0
 30
0.0
  9
$PUCSORGBOTTOM
 10
0.0
 20
0.0
 30
0.0
  9
$PUCSORGLEFT
 10
0.0
 20
0.0
 30
0.0
  9
$PUCSORGRIGHT
 10
0.0
 20
0.0
 30
0.0
  9
$PUCSORGFRONT
 10
0.0
 20
0.0
 30
0.0
  9
$PUCSORGBACK
 10
0.0
 20
0.0
 30
0.0
  9
$USERI1
 70
     0
  9
$USERI2
 70
     0
  9
$USERI3
 70
     0
  9
$USERI4
 70
     0
  9
$USERI5
 70
     0
  9
$USERR1
 40
0.0
  9
$USERR2
 40
0.0
  9
$USERR3
 40
0.0
  9
$USERR4
 40
0.0
  9
$USERR5
 40
0.0
  9
$WORLDVIEW
 70
     1
  9
$SHADEDGE
 70
     3
  9
$SHADEDIF
 70
    70
  9
$TILEMODE
 70
     1
  9
$MAXACTVP
 70
    16
  9
$PINSBASE
 10
0.0
 20
0.0
 30
0.0
  9
$PLIMCHECK
 70
     0
  9
$PEXTMIN
 10
1.000000000000000E+20
 20
1.000000000000000E+20
 30
1.000000000000000E+20
  9
$PEXTMAX
 10
-1.000000000000000E+20
 20
-1.000000000000000E+20
 30
-1.000000000000000E+20
  9
$PLIMMIN
 10
0.0
 20
0.0
  9
$PLIMMAX
 10
12.0
 20
9.0
  9
$UNITMODE
 70
     0
  9
$VISRETAIN
 70
     0
  9
$PLINEGEN
 70
     0
  9
$PSLTSCALE
 70
     1
  9
$TREEDEPTH
 70
  3020
  9
$CMLSTYLE
  2
Standard
  9
$CMLJUST
 70
     0
  9
$CMLSCALE
 40
1.0
  9
$PROXYGRAPHICS
 70
     1
  9
$MEASUREMENT
 70
     0
  9
$CELWEIGHT
370
    -1
  9
$ENDCAPS
280
     0
  9
$JOINSTYLE
280
     0
  9
$LWDISPLAY
290
     0
  9
$INSUNITS
 70
     0
  9
$HYPERLINKBASE
  1

  9
$STYLESHEET
  1

  9
$XEDIT
290
     1
  9
$CEPSNTYPE
380
     0
  9
$PSTYLEMODE
290
     1
  9
$FINGERPRINTGUID
  2
{EB5F367E-60EC-42EB-B755-0F2136A96582}
  9
$VERSIONGUID
  2
{6317EF57-5B40-4AF9-8407-11BBC84AB36E}
  9
$EXTNAMES
290
     1
  9
$PSVPSCALE
 40
0.0
  9
$OLESTARTUP
290
     0
  0
ENDSEC
  0
SECTION
  2
CLASSES
  0
CLASS
  1
ACDBDICTIONARYWDFLT
  2
AcDbDictionaryWithDefault
  3
ObjectDBX Classes
 90
        0
280
     0
281
     0
  0
CLASS
  1
MATERIAL
  2
AcDbMaterial
  3
ObjectDBX Classes
 90
     1153
280
     0
281
     0
  0
CLASS
  1
VISUALSTYLE
  2
AcDbVisualStyle
  3
ObjectDBX Classes
 90
     4095
280
     0
281
     0
  0
CLASS
  1
SCALE
  2
AcDbScale
  3
ObjectDBX Classes
 90
     1153
280
     0
281
     0
  0
CLASS
  1
TABLESTYLE
  2
AcDbTableStyle
  3
ObjectDBX Classes
 90
     4095
280
     0
281
     0
  0
CLASS
  1
MLEADERSTYLE
  2
AcDbMLeaderStyle
  3
ACDB_MLEADERSTYLE_CLASS
 90
     4095
280
     0
281
     0
  0
CLASS
  1
ACDBSECTIONVIEWSTYLE
  2
AcDbSectionViewStyle
  3
ObjectDBX Classes
 90
     1025
280
     0
281
     0
  0
CLASS
  1
ACDBDETAILVIEWSTYLE
  2
AcDbDetailViewStyle
  3
ObjectDBX Classes
 90
     1025
280
     0
281
     0
  0
CLASS
  1
EXACXREFPANELOBJECT
  2
ExAcXREFPanelObject
  3
EXAC_ESW
 90
     1025
280
     0
281
     0
  0
CLASS
  1
NPOCOLLECTION
  2
AcDbImpNonPersistentObjectsCollection
  3
ObjectDBX Classes
 90
     1153
280
     0
281
     0
  0
CLASS
  1
DICTIONARYVAR
  2
AcDbDictionaryVar
  3
ObjectDBX Classes
 90
        0
280
     0
281
     0
  0
CLASS
  1
CELLSTYLEMAP
  2
AcDbCellStyleMap
  3
ObjectDBX Classes
 90
     1152
280
     0
281
     0
  0
CLASS
  1
ACDBPLACEHOLDER
  2
AcDbPlaceHolder
  3
ObjectDBX Classes
 90
        0
280
     0
281
     0
  0
CLASS
  1
LAYOUT
  2
AcDbLayout
  3
ObjectDBX Classes
 90
        0
280
     0
281
     0
  0
ENDSEC
  0
SECTION
  2
TABLES
  0
TABLE
  2
VPORT
  5
462
330
0
100
AcDbSymbolTable
 70
     1
  0
VPORT
  5
4F9
330
462
100
AcDbSymbolTableRecord
100
AcDbViewportTableRecord
  2
*Active
 70
     0
 10
0.0
 20
0.0
 11
1.0
 21
1.0
 12
6.95292400000001
 22
-1.740631999999997
 13
0.0
 23
0.0
 14
1.0
 24
1.0
 15
0.0
 25
0.0
 16
0.0
 26
0.0
 36
1.0
 17
0.0
 27
0.0
 37
0.0
 40
72.34525773524722
 41
2.2
 42
50.0
 43
0.0
 44
0.0
 50
0.0
 51
0.0
 71
     0
 72
   100
 73
     1
 74
     1
 75
     0
 76
     0
 77
     0
 78
     0
281
     0
 65
     1
110
0.0
120
0.0
130
0.0
111
1.0
121
0.0
131
0.0
112
0.0
122
1.0
132
0.0
 79
     0
146
0.0
1001
ACAD_NAV_VCDISPLAY
1070
     3
  0
ENDTAB
  0
TABLE
  2
LTYPE
  5
45F
330
0
100
AcDbSymbolTable
 70
     4
  0
LTYPE
  5
4B4
330
45F
100
AcDbSymbolTableRecord
100
AcDbLinetypeTableRecord
  2
ByBlock
 70
     0
  3

 72
    65
 73
     0
 40
0.0
  0
LTYPE
  5
4B5
330
45F
100
AcDbSymbolTableRecord
100
AcDbLinetypeTableRecord
  2
ByLayer
 70
     0
  3

 72
    65
 73
     0
 40
0.0
  0
LTYPE
  5
4B6
330
45F
100
AcDbSymbolTableRecord
100
AcDbLinetypeTableRecord
  2
CONTINUOUS
 70
     0
  3
Solid line
 72
    65
 73
     0
 40
0.0
  0
LTYPE
  5
4C2
330
45F
100
AcDbSymbolTableRecord
100
AcDbLinetypeTableRecord
  2
PHANTOM2
 70
     0
  3
Phantom (.5x) ___ _ _ ___ _ _ ___ _ _ ___ _ _
 72
    65
 73
     6
 40
1.25
 49
0.625
 74
     0
 49
-0.125
 74
     0
 49
0.125
 74
     0
 49
-0.125
 74
     0
 49
0.125
 74
     0
 49
-0.125
 74
     0
  0
LTYPE
  5
4D0
330
45F
100
AcDbSymbolTableRecord
100
AcDbLinetypeTableRecord
  2
CENTER
 70
     0
  3
____ _ ____ _ ____ _ ____ _ ____ _ ____ _ ____
 72
    65
 73
     4
 40
5.059897
 49
3.162434999999999
 74
     0
 49
-0.6324870000000001
 74
     0
 49
0.6324870000000001
 74
     0
 49
-0.6324870000000001
 74
     0
  0
LTYPE
  5
4D1
330
45F
100
AcDbSymbolTableRecord
100
AcDbLinetypeTableRecord
  2
DASHED
 70
     0
  3
__ __ __ __ __ __ __ __ __ __ __ __ __ __ __ __
 72
    65
 73
     2
 40
7.589844999999999
 49
5.059897
 74
     0
 49
-2.529948
 74
     0
  0
ENDTAB
  0
TABLE
  2
LAYER
  5
45C
330
0
100
AcDbSymbolTable
 70
    38
  0
LAYER
  5
4AE
102
{ACAD_XDICTIONARY
360
500
102
}
330
45C
100
AcDbSymbolTableRecord
100
AcDbLayerTableRecord
  2
0
 70
     0
 62
     7
  6
CONTINUOUS
370
    -3
390
469
  0
LAYER
  5
4CE
102
{ACAD_XDICTIONARY
360
502
102
}
330
45C
100
AcDbSymbolTableRecord
100
AcDbLayerTableRecord
  2
1
 70
     0
 62
     4
  6
CONTINUOUS
370
    -3
390
469
  0
LAYER
  5
4D2
102
{ACAD_XDICTIONARY
360
504
102
}
330
45C
100
AcDbSymbolTableRecord
100
AcDbLayerTableRecord
  2
61
 70
     0
 62
     5
  6
CONTINUOUS
370
    -3
390
469
  0
LAYER
  5
4D3
102
{ACAD_XDICTIONARY
360
506
102
}
330
45C
100
AcDbSymbolTableRecord
100
AcDbLayerTableRecord
  2
62
 70
     0
 62
    -5
  6
CONTINUOUS
370
    -3
390
469
  0
LAYER
  5
4D4
102
{ACAD_XDICTIONARY
360
508
102
}
330
45C
100
AcDbSymbolTableRecord
100
AcDbLayerTableRecord
  2
63
 70
     0
 62
    -5
  6
CONTINUOUS
370
    -3
390
469
  0
LAYER
  5
4D5
102
{ACAD_XDICTIONARY
360
50A
102
}
330
45C
100
AcDbSymbolTableRecord
100
AcDbLayerTableRecord
  2
64
 70
     0
 62
    -5
  6
CONTINUOUS
370
    -3
390
469
  0
LAYER
  5
4D6
102
{ACAD_XDICTIONARY
360
50C
102
}
330
45C
100
AcDbSymbolTableRecord
100
AcDbLayerTableRecord
  2
65
 70
     0
 62
    -5
  6
CONTINUOUS
370
    -3
390
469
  0
LAYER
  5
4D7
102
{ACAD_XDICTIONARY
360
50E
102
}
330
45C
100
AcDbSymbolTableRecord
100
AcDbLayerTableRecord
  2
66
 70
     0
 62
    -5
  6
CONTINUOUS
370
    -3
390
469
  0
LAYER
  5
4D8
102
{ACAD_XDICTIONARY
360
510
102
}
330
45C
100
AcDbSymbolTableRecord
100
AcDbLayerTableRecord
  2
67
 70
     0
 62
    -5
  6
CONTINUOUS
370
    -3
390
469
  0
LAYER
  5
4D9
102
{ACAD_XDICTIONARY
360
512
102
}
330
45C
100
AcDbSymbolTableRecord
100
AcDbLayerTableRecord
  2
68
 70
     0
 62
    -5
  6
CONTINUOUS
370
    -3
390
469
  0
LAYER
  5
4DA
102
{ACAD_XDICTIONARY
360
514
102
}
330
45C
100
AcDbSymbolTableRecord
100
AcDbLayerTableRecord
  2
69
 70
     0
 62
    -5
  6
CONTINUOUS
370
    -3
390
469
  0
LAYER
  5
4DB
102
{ACAD_XDICTIONARY
360
516
102
}
330
45C
100
AcDbSymbolTableRecord
100
AcDbLayerTableRecord
  2
70
 70
     0
 62
     5
  6
CONTINUOUS
370
    -3
390
469
  0
LAYER
  5
4DC
102
{ACAD_XDICTIONARY
360
518
102
}
330
45C
100
AcDbSymbolTableRecord
100
AcDbLayerTableRecord
  2
2
 70
     0
 62
     7
  6
CONTINUOUS
370
    -3
390
469
  0
LAYER
  5
4DD
102
{ACAD_XDICTIONARY
360
51A
102
}
330
45C
100
AcDbSymbolTableRecord
100
AcDbLayerTableRecord
  2
3
 70
     0
 62
     1
  6
DASHED
370
    -3
390
469
  0
LAYER
  5
4DE
102
{ACAD_XDICTIONARY
360
51C
102
}
330
45C
100
AcDbSymbolTableRecord
100
AcDbLayerTableRecord
  2
4
 70
     0
 62
    -2
  6
CENTER
370
    -3
390
469
  0
LAYER
  5
4DF
102
{ACAD_XDICTIONARY
360
51E
102
}
330
45C
100
AcDbSymbolTableRecord
100
AcDbLayerTableRecord
  2
5
 70
     0
 62
    -7
  6
CONTINUOUS
370
    -3
390
469
  0
LAYER
  5
4E0
102
{ACAD_XDICTIONARY
360
520
102
}
330
45C
100
AcDbSymbolTableRecord
100
AcDbLayerTableRecord
  2
SK1
 70
     0
 62
     4
  6
CONTINUOUS
370
    -3
390
469
  0
LAYER
  5
4E1
102
{ACAD_XDICTIONARY
360
522
102
}
330
45C
100
AcDbSymbolTableRecord
100
AcDbLayerTableRecord
  2
6
 70
     0
 62
     5
  6
CONTINUOUS
370
    -3
390
469
  0
LAYER
  5
4E2
102
{ACAD_XDICTIONARY
360
524
102
}
330
45C
100
AcDbSymbolTableRecord
100
AcDbLayerTableRecord
  2
SK2
 70
     0
 62
     7
  6
CONTINUOUS
370
    -3
390
469
  0
LAYER
  5
4E3
102
{ACAD_XDICTIONARY
360
526
102
}
330
45C
100
AcDbSymbolTableRecord
100
AcDbLayerTableRecord
  2
SK3
 70
     0
 62
     1
  6
DASHED
370
    -3
390
469
  0
LAYER
  5
4E4
102
{ACAD_XDICTIONARY
360
528
102
}
330
45C
100
AcDbSymbolTableRecord
100
AcDbLayerTableRecord
  2
SK4
 70
     0
 62
     2
  6
CENTER
370
    -3
390
469
  0
LAYER
  5
4E5
102
{ACAD_XDICTIONARY
360
52A
102
}
330
45C
100
AcDbSymbolTableRecord
100
AcDbLayerTableRecord
  2
CUT
 70
     0
 62
    -1
  6
CONTINUOUS
370
    -3
390
469
  0
LAYER
  5
4E6
102
{ACAD_XDICTIONARY
360
52C
102
}
330
45C
100
AcDbSymbolTableRecord
100
AcDbLayerTableRecord
  2
SK6
 70
     0
 62
     5
  6
CONTINUOUS
370
    -3
390
469
  0
LAYER
  5
4E7
102
{ACAD_XDICTIONARY
360
52E
102
}
330
45C
100
AcDbSymbolTableRecord
100
AcDbLayerTableRecord
  2
80
 70
     0
 62
    -2
  6
CENTER
370
    -3
390
469
  0
LAYER
  5
4E8
102
{ACAD_XDICTIONARY
360
530
102
}
330
45C
100
AcDbSymbolTableRecord
100
AcDbLayerTableRecord
  2
81
 70
     0
 62
    -2
  6
CENTER
370
    -3
390
469
  0
LAYER
  5
4E9
102
{ACAD_XDICTIONARY
360
532
102
}
330
45C
100
AcDbSymbolTableRecord
100
AcDbLayerTableRecord
  2
82
 70
     0
 62
    -2
  6
CENTER
370
    -3
390
469
  0
LAYER
  5
4EA
102
{ACAD_XDICTIONARY
360
534
102
}
330
45C
100
AcDbSymbolTableRecord
100
AcDbLayerTableRecord
  2
NOCUT
 70
     0
 62
     7
  6
CONTINUOUS
370
    -3
390
469
  0
LAYER
  5
4EB
102
{ACAD_XDICTIONARY
360
536
102
}
330
45C
100
AcDbSymbolTableRecord
100
AcDbLayerTableRecord
  2
50
 70
     0
 62
    -7
  6
CONTINUOUS
370
    -3
390
469
  0
LAYER
  5
4EC
102
{ACAD_XDICTIONARY
360
538
102
}
330
45C
100
AcDbSymbolTableRecord
100
AcDbLayerTableRecord
  2
51
 70
     0
 62
     7
  6
CONTINUOUS
370
    -3
390
469
  0
LAYER
  5
4ED
102
{ACAD_XDICTIONARY
360
53A
102
}
330
45C
100
AcDbSymbolTableRecord
100
AcDbLayerTableRecord
  2
52
 70
     0
 62
    -7
  6
CONTINUOUS
370
    -3
390
469
  0
LAYER
  5
4EE
102
{ACAD_XDICTIONARY
360
53C
102
}
330
45C
100
AcDbSymbolTableRecord
100
AcDbLayerTableRecord
  2
53
 70
     0
 62
    -7
  6
CONTINUOUS
370
    -3
390
469
  0
LAYER
  5
4EF
102
{ACAD_XDICTIONARY
360
53E
102
}
330
45C
100
AcDbSymbolTableRecord
100
AcDbLayerTableRecord
  2
54
 70
     0
 62
    -7
  6
CONTINUOUS
370
    -3
390
469
  0
LAYER
  5
4F0
102
{ACAD_XDICTIONARY
360
540
102
}
330
45C
100
AcDbSymbolTableRecord
100
AcDbLayerTableRecord
  2
55
 70
     0
 62
    -7
  6
CONTINUOUS
370
    -3
390
469
  0
LAYER
  5
4F1
102
{ACAD_XDICTIONARY
360
542
102
}
330
45C
100
AcDbSymbolTableRecord
100
AcDbLayerTableRecord
  2
56
 70
     0
 62
    -7
  6
CONTINUOUS
370
    -3
390
469
  0
LAYER
  5
4F2
102
{ACAD_XDICTIONARY
360
544
102
}
330
45C
100
AcDbSymbolTableRecord
100
AcDbLayerTableRecord
  2
57
 70
     0
 62
    -7
  6
CONTINUOUS
370
    -3
390
469
  0
LAYER
  5
4F3
102
{ACAD_XDICTIONARY
360
546
102
}
330
45C
100
AcDbSymbolTableRecord
100
AcDbLayerTableRecord
  2
58
 70
     0
 62
    -7
  6
CONTINUOUS
370
    -3
390
469
  0
LAYER
  5
4F4
102
{ACAD_XDICTIONARY
360
548
102
}
330
45C
100
AcDbSymbolTableRecord
100
AcDbLayerTableRecord
  2
2L
 70
     0
 62
     7
  6
CONTINUOUS
370
    -3
390
469
  0
LAYER
  5
4F5
102
{ACAD_XDICTIONARY
360
54A
102
}
330
45C
100
AcDbSymbolTableRecord
100
AcDbLayerTableRecord
  2
59
 70
     0
 62
    -7
  6
CONTINUOUS
370
    -3
390
469
  0
ENDTAB
  0
TABLE
  2
STYLE
  5
45D
330
0
100
AcDbSymbolTable
 70
     3
  0
STYLE
  5
4AF
330
45D
100
AcDbSymbolTableRecord
100
AcDbTextStyleTableRecord
  2
STANDARD
 70
     0
 40
0.0
 41
1.0
 50
0.0
 71
     0
 42
4.5
  3
simplex.shx
  4

  0
STYLE
  5
4B3
330
45D
100
AcDbSymbolTableRecord
100
AcDbTextStyleTableRecord
  2
Annotative
 70
     0
 40
0.0
 41
1.0
 50
0.0
 71
     0
 42
0.2
  3
txt
  4

1001
AcadAnnotative
1000
AnnotativeData
1002
{
1070
     1
1070
     1
1002
}
  0
STYLE
  5
4CF
330
45D
100
AcDbSymbolTableRecord
100
AcDbTextStyleTableRecord
  2
SANDVIK_STYLE
 70
     0
 40
3.0
 41
1.0
 50
0.0
 71
     0
 42
3.0
  3
simplex.shx
  4

  0
ENDTAB
  0
TABLE
  2
VIEW
  5
460
330
0
100
AcDbSymbolTable
 70
     0
  0
ENDTAB
  0
TABLE
  2
UCS
  5
461
330
0
100
AcDbSymbolTable
 70
     0
  0
ENDTAB
  0
TABLE
  2
APPID
  5
463
330
0
100
AcDbSymbolTable
 70
     4
  0
APPID
  5
4B0
330
463
100
AcDbSymbolTableRecord
100
AcDbRegAppTableRecord
  2
ACAD
 70
     0
  0
APPID
  5
4B7
330
463
100
AcDbSymbolTableRecord
100
AcDbRegAppTableRecord
  2
AcadAnnotative
 70
     0
  0
APPID
  5
556
330
463
100
AcDbSymbolTableRecord
100
AcDbRegAppTableRecord
  2
ACAD_NAV_VCDISPLAY
 70
     0
  0
APPID
  5
58F
330
463
100
AcDbSymbolTableRecord
100
AcDbRegAppTableRecord
  2
ACAD_MLEADERVER
 70
     0
  0
ENDTAB
  0
TABLE
  2
DIMSTYLE
  5
464
330
0
100
AcDbSymbolTable
 70
     3
100
AcDbDimStyleTable
 71
     0
  0
DIMSTYLE
105
4B1
330
464
100
AcDbSymbolTableRecord
100
AcDbDimStyleTableRecord
  2
STANDARD
 70
     0
  4
 
 41
3.0
 42
2.5
 43
10.0
 44
2.5
 46
1.25
 73
     0
 74
     0
140
3.0
141
-3.0
143
0.039
145
1.5
146
0.75
147
1.5
271
     2
272
     2
279
     2
340
4CF
  0
DIMSTYLE
105
4B2
330
464
100
AcDbSymbolTableRecord
100
AcDbDimStyleTableRecord
  2
Annotative
 70
     0
340
4AF
1001
AcadAnnotative
1000
AnnotativeData
1002
{
1070
     1
1070
     1
1002
}
  0
DIMSTYLE
105
4F6
330
464
100
AcDbSymbolTableRecord
100
AcDbDimStyleTableRecord
  2
SANDVIK_DIM
 70
     0
  4
 
 40
0.0
 41
4.57
 42
0.0
 44
5.0
 73
     0
 74
     0
 77
     1
 78
     8
140
4.5
147
2.299999999999999
176
   256
177
   256
178
   256
271
     2
272
     2
279
     2
340
4CF
  0
ENDTAB
  0
TABLE
  2
BLOCK_RECORD
  5
45B
330
0
100
AcDbSymbolTable
 70
     2
  0
BLOCK_RECORD
  5
4CA
330
45B
100
AcDbSymbolTableRecord
100
AcDbBlockTableRecord
  2
*Model_Space
340
4CD
  0
BLOCK_RECORD
  5
4C6
330
45B
100
AcDbSymbolTableRecord
100
AcDbBlockTableRecord
  2
*Paper_Space
340
4C9
  0
BLOCK_RECORD
  5
4FA
330
45B
100
AcDbSymbolTableRecord
100
AcDbBlockTableRecord
  2
*D0
340
0
102
{BLKREFS
331
3F8
102
}
  0
BLOCK_RECORD
  5
4FB
330
45B
100
AcDbSymbolTableRecord
100
AcDbBlockTableRecord
  2
*D1
340
0
102
{BLKREFS
331
3FA
102
}
  0
ENDTAB
  0
ENDSEC
  0
SECTION
  2
BLOCKS
  0
BLOCK
  5
4CB
330
4CA
100
AcDbEntity
  8
0
100
AcDbBlockBegin
  2
*Model_Space
 70
     0
 10
0.0
 20
0.0
 30
0.0
  3
*Model_Space
  1

  0
ENDBLK
  5
4CC
330
4CA
100
AcDbEntity
  8
0
100
AcDbBlockEnd
  0
BLOCK
  5
4C7
330
4C6
100
AcDbEntity
 67
     1
  8
0
100
AcDbBlockBegin
  2
*Paper_Space
 70
     0
 10
0.0
 20
0.0
 30
0.0
  3
*Paper_Space
  1

  0
ENDBLK
  5
4C8
330
4C6
100
AcDbEntity
 67
     1
  8
0
100
AcDbBlockEnd
  0
BLOCK
  5
2
330
4FA
100
AcDbEntity
  8
0
100
AcDbBlockBegin
  2
*D0
 70
     1
 10
0.0
 20
0.0
 30
0.0
  3
*D0
  1

  0
LINE
  5
3
330
4FA
100
AcDbEntity
  8
0
100
AcDbLine
 10
16.5
 20
11.5
 30
0.0
 11
36.121534
 21
11.5
 31
0.0
  0
LINE
  5
4
330
4FA
100
AcDbEntity
  8
0
100
AcDbLine
 10
16.5
 20
-11.5
 30
0.0
 11
36.121534
 21
-11.5
 31
0.0
  0
LINE
  5
5
330
4FA
100
AcDbEntity
  8
0
100
AcDbLine
 10
35.12153400000001
 20
9.0
 30
0.0
 11
35.12153400000001
 21
-9.0
 31
0.0
  0
LINE
  5
6
330
4FA
100
AcDbEntity
  8
0
100
AcDbLine
 10
34.704867
 20
9.0
 30
0.0
 11
35.538201
 21
9.0
 31
0.0
  0
LINE
  5
7
330
4FA
100
AcDbEntity
  8
0
100
AcDbLine
 10
35.538201
 20
9.0
 30
0.0
 11
35.12153400000001
 21
11.5
 31
0.0
  0
LINE
  5
8
330
4FA
100
AcDbEntity
  8
0
100
AcDbLine
 10
35.12153400000001
 20
11.5
 30
0.0
 11
35.12153400000001
 21
11.5
 31
0.0
  0
LINE
  5
9
330
4FA
100
AcDbEntity
  8
0
100
AcDbLine
 10
35.12153400000001
 20
11.5
 30
0.0
 11
34.704867
 21
9.0
 31
0.0
  0
LINE
  5
A
330
4FA
100
AcDbEntity
  8
0
100
AcDbLine
 10
34.704867
 20
-9.0
 30
0.0
 11
35.538201
 21
-9.0
 31
0.0
  0
LINE
  5
B
330
4FA
100
AcDbEntity
  8
0
100
AcDbLine
 10
35.538201
 20
-9.0
 30
0.0
 11
35.12153400000001
 21
-11.5
 31
0.0
  0
LINE
  5
C
330
4FA
100
AcDbEntity
  8
0
100
AcDbLine
 10
35.12153400000001
 20
-11.5
 30
0.0
 11
35.12153400000001
 21
-11.5
 31
0.0
  0
LINE
  5
D
330
4FA
100
AcDbEntity
  8
0
100
AcDbLine
 10
35.12153400000001
 20
-11.5
 30
0.0
 11
34.704867
 21
-9.0
 31
0.0
  0
ENDBLK
  5
E
330
4FA
100
AcDbEntity
  8
0
100
AcDbBlockEnd
  0
BLOCK
  5
F
330
4FB
100
AcDbEntity
  8
0
100
AcDbBlockBegin
  2
*D1
 70
     1
 10
0.0
 20
0.0
 30
0.0
  3
*D1
  1

  0
LINE
  5
10
330
4FB
100
AcDbEntity
  8
0
100
AcDbLine
 10
0.0
 20
12.5
 30
0.0
 11
0.0
 21
27.499998
 31
0.0
  0
LINE
  5
11
330
4FB
100
AcDbEntity
  8
0
100
AcDbLine
 10
15.5
 20
12.5
 30
0.0
 11
15.5
 21
27.499998
 31
0.0
  0
LINE
  5
12
330
4FB
100
AcDbEntity
  8
0
100
AcDbLine
 10
2.5
 20
26.499998
 30
0.0
 11
13.0
 21
26.499998
 31
0.0
  0
LINE
  5
13
330
4FB
100
AcDbEntity
  8
0
100
AcDbLine
 10
2.5
 20
26.916664
 30
0.0
 11
2.5
 21
26.083331
 31
0.0
  0
LINE
  5
14
330
4FB
100
AcDbEntity
  8
0
100
AcDbLine
 10
2.5
 20
26.083331
 30
0.0
 11
0.0
 21
26.499998
 31
0.0
  0
LINE
  5
15
330
4FB
100
AcDbEntity
  8
0
100
AcDbLine
 10
0.0
 20
26.499998
 30
0.0
 11
0.0
 21
26.499998
 31
0.0
  0
LINE
  5
16
330
4FB
100
AcDbEntity
  8
0
100
AcDbLine
 10
0.0
 20
26.499998
 30
0.0
 11
2.5
 21
26.916664
 31
0.0
  0
LINE
  5
17
330
4FB
100
AcDbEntity
  8
0
100
AcDbLine
 10
13.0
 20
26.916664
 30
0.0
 11
13.0
 21
26.083331
 31
0.0
  0
LINE
  5
18
330
4FB
100
AcDbEntity
  8
0
100
AcDbLine
 10
13.0
 20
26.083331
 30
0.0
 11
15.5
 21
26.499998
 31
0.0
  0
LINE
  5
19
330
4FB
100
AcDbEntity
  8
0
100
AcDbLine
 10
15.5
 20
26.499998
 30
0.0
 11
15.5
 21
26.499998
 31
0.0
  0
LINE
  5
1A
330
4FB
100
AcDbEntity
  8
0
100
AcDbLine
 10
15.5
 20
26.499998
 30
0.0
 11
13.0
 21
26.916664
 31
0.0
  0
ENDBLK
  5
1B
330
4FB
100
AcDbEntity
  8
0
100
AcDbBlockEnd
  0
ENDSEC
  0
SECTION
  2
ENTITIES
  0
LINE
  5
1C
330
4CA
100
AcDbEntity
  8
1
100
AcDbLine
 10
6.551209
 20
1.256896999999999
 30
0.0
 11
6.586810999999999
 21
1.281775
 31
0.0
  0
LINE
  5
1D
330
4CA
100
AcDbEntity
  8
1
100
AcDbLine
 10
3.218720999999999
 20
-11.063544
 30
0.0
 11
2.449761
 21
-11.067979
 31
0.0
  0
LINE
  5
1E
330
4CA
100
AcDbEntity
  8
1
100
AcDbLine
 10
8.230821
 20
-8.133661999999999
 30
0.0
 11
8.176414999999998
 21
-8.159430999999999
 31
0.0
  0
LINE
  5
1F
330
4CA
100
AcDbEntity
  8
1
100
AcDbLine
 10
8.664089999999999
 20
3.383794999999999
 30
0.0
 11
15.5
 21
5.460865
 31
0.0
  0
LINE
  5
20
330
4CA
100
AcDbEntity
  8
1
100
AcDbLine
 10
8.535036999999999
 20
-3.537119999999999
 30
0.0
 11
7.785508
 21
-3.789648999999999
 31
0.0
  0
LINE
  5
21
330
4CA
100
AcDbEntity
  8
1
100
AcDbLine
 10
8.146373999999999
 20
-4.636391999999999
 30
0.0
 11
8.061068999999999
 21
-4.366845999999999
 31
0.0
  0
LINE
  5
22
330
4CA
100
AcDbEntity
  8
1
100
AcDbLine
 10
8.987090999999999
 20
0.854981
 30
0.0
 11
8.981247999999999
 21
0.8474729999999999
 31
0.0
  0
LINE
  5
23
330
4CA
100
AcDbEntity
  8
1
100
AcDbLine
 10
8.981247999999999
 20
0.8474729999999999
 30
0.0
 11
8.974244999999999
 21
0.839568
 31
0.0
  0
LINE
  5
24
330
4CA
100
AcDbEntity
  8
1
100
AcDbLine
 10
8.461138999999999
 20
-4.527883
 30
0.0
 11
8.496952
 21
-4.612855
 31
0.0
  0
LINE
  5
25
330
4CA
100
AcDbEntity
  8
1
100
AcDbLine
 10
8.974244999999999
 20
0.839568
 30
0.0
 11
8.966097999999998
 21
0.8313209999999997
 31
0.0
  0
LINE
  5
26
330
4CA
100
AcDbEntity
  8
1
100
AcDbLine
 10
8.966097999999998
 20
0.8313209999999997
 30
0.0
 11
8.956754
 21
0.8227309999999999
 31
0.0
  0
LINE
  5
27
330
4CA
100
AcDbEntity
  8
1
100
AcDbLine
 10
8.956754
 20
0.8227309999999999
 30
0.0
 11
8.951675999999999
 21
0.8183569999999999
 31
0.0
  0
LINE
  5
28
330
4CA
100
AcDbEntity
  8
1
100
AcDbLine
 10
10.424133
 20
-9.261072
 30
0.0
 11
9.959464
 21
-9.325732999999999
 31
0.0
  0
LINE
  5
29
330
4CA
100
AcDbEntity
  8
1
100
AcDbLine
 10
8.804304
 20
0.961627
 30
0.0
 11
8.825222
 21
0.9604040000000001
 31
0.0
  0
LINE
  5
2A
330
4CA
100
AcDbEntity
  8
1
100
AcDbLine
 10
8.825222
 20
0.9604040000000001
 30
0.0
 11
8.844716999999999
 21
0.9589439999999999
 31
0.0
  0
LINE
  5
2B
330
4CA
100
AcDbEntity
  8
1
100
AcDbLine
 10
8.844716999999999
 20
0.9589439999999999
 30
0.0
 11
8.862764999999999
 21
0.9572089999999999
 31
0.0
  0
LINE
  5
2C
330
4CA
100
AcDbEntity
  8
1
100
AcDbLine
 10
8.862764999999999
 20
0.9572089999999999
 30
0.0
 11
8.879419
 21
0.9552089999999999
 31
0.0
  0
LINE
  5
2D
330
4CA
100
AcDbEntity
  8
1
100
AcDbLine
 10
8.879419
 20
0.9552089999999999
 30
0.0
 11
8.894802
 21
0.9529989999999999
 31
0.0
  0
LINE
  5
2E
330
4CA
100
AcDbEntity
  8
1
100
AcDbLine
 10
8.894802
 20
0.9529989999999999
 30
0.0
 11
8.908917
 21
0.9505729999999999
 31
0.0
  0
LINE
  5
2F
330
4CA
100
AcDbEntity
  8
1
100
AcDbLine
 10
15.0
 20
-0.7339100000000001
 30
0.0
 11
15.0
 21
5.308940999999999
 31
0.0
  0
LINE
  5
30
330
4CA
100
AcDbEntity
  8
1
100
AcDbLine
 10
8.921789
 20
0.9479079999999999
 30
0.0
 11
8.933566
 21
0.9450509999999999
 31
0.0
  0
LINE
  5
31
330
4CA
100
AcDbEntity
  8
1
100
AcDbLine
 10
8.933566
 20
0.9450509999999999
 30
0.0
 11
8.944272999999999
 21
0.9419959999999999
 31
0.0
  0
LINE
  5
32
330
4CA
100
AcDbEntity
  8
1
100
AcDbLine
 10
7.712401999999999
 20
-8.315137
 30
0.0
 11
7.653910999999999
 21
-8.327246999999999
 31
0.0
  0
LINE
  5
33
330
4CA
100
AcDbEntity
  8
1
100
AcDbLine
 10
8.953903999999999
 20
0.9387260000000001
 30
0.0
 11
8.962567999999999
 21
0.9352809999999999
 31
0.0
  0
LINE
  5
34
330
4CA
100
AcDbEntity
  8
1
100
AcDbLine
 10
7.147083
 20
-6.536748
 30
0.0
 11
7.209446
 21
-6.501964
 31
0.0
  0
LINE
  5
35
330
4CA
100
AcDbEntity
  8
1
100
AcDbLine
 10
8.970278
 20
0.9316540000000001
 30
0.0
 11
8.977035
 21
0.927834
 31
0.0
  0
LINE
  5
36
330
4CA
100
AcDbEntity
  8
1
100
AcDbLine
 10
7.273606
 20
-6.468923
 30
0.0
 11
7.339217999999998
 21
-6.437714999999999
 31
0.0
  0
LINE
  5
37
330
4CA
100
AcDbEntity
  8
1
100
AcDbLine
 10
7.339217999999998
 20
-6.437714999999999
 30
0.0
 11
7.404652
 21
-6.408991
 31
0.0
  0
LINE
  5
38
330
4CA
100
AcDbEntity
  8
1
100
AcDbLine
 10
8.987935999999999
 20
0.91974
 30
0.0
 11
8.992096
 21
0.9154479999999999
 31
0.0
  0
LINE
  5
39
330
4CA
100
AcDbEntity
  8
1
100
AcDbLine
 10
7.469749
 20
-6.382912
 30
0.0
 11
7.534635999999999
 21
-6.359288999999999
 31
0.0
  0
LINE
  5
3A
330
4CA
100
AcDbEntity
  8
1
100
AcDbLine
 10
7.534635999999999
 20
-6.359288999999999
 30
0.0
 11
7.598086999999999
 21
-6.338194999999999
 31
0.0
  0
LINE
  5
3B
330
4CA
100
AcDbEntity
  8
1
100
AcDbLine
 10
8.998105999999999
 20
0.9063540000000001
 30
0.0
 11
8.999962
 21
0.9015479999999998
 31
0.0
  0
LINE
  5
3C
330
4CA
100
AcDbEntity
  8
1
100
AcDbLine
 10
6.229841
 20
-8.030293999999999
 30
0.0
 11
6.226801
 21
-8.000438
 31
0.0
  0
LINE
  5
3D
330
4CA
100
AcDbEntity
  8
1
100
AcDbLine
 10
6.226801
 20
-8.000438
 30
0.0
 11
6.224757
 21
-7.969835
 31
0.0
  0
LINE
  5
3E
330
4CA
100
AcDbEntity
  8
1
100
AcDbLine
 10
9.001443
 20
0.8913249999999999
 30
0.0
 11
9.001063999999999
 21
0.885918
 31
0.0
  0
LINE
  5
3F
330
4CA
100
AcDbEntity
  8
1
100
AcDbLine
 10
15.0
 20
-9.173413
 30
0.0
 11
15.0
 21
-4.014298
 31
0.0
  0
LINE
  5
40
330
4CA
100
AcDbEntity
  8
1
100
AcDbLine
 10
9.001063999999999
 20
0.885918
 30
0.0
 11
8.999916
 21
0.880283
 31
0.0
  0
LINE
  5
41
330
4CA
100
AcDbEntity
  8
1
100
AcDbLine
 10
8.999916
 20
0.880283
 30
0.0
 11
8.997988000000001
 21
0.8744200000000001
 31
0.0
  0
LINE
  5
42
330
4CA
100
AcDbEntity
  8
1
100
AcDbLine
 10
14.854812
 20
-7.724239999999999
 30
0.0
 11
14.707072
 21
-7.851664999999999
 31
0.0
  0
LINE
  5
43
330
4CA
100
AcDbEntity
  8
1
100
AcDbLine
 10
8.997988000000001
 20
0.8744200000000001
 30
0.0
 11
8.995281
 21
0.868345
 31
0.0
  0
LINE
  5
44
330
4CA
100
AcDbEntity
  8
1
100
AcDbLine
 10
14.707072
 20
-7.851664999999999
 30
0.0
 11
14.556777
 21
-7.980452
 31
0.0
  0
LINE
  5
45
330
4CA
100
AcDbEntity
  8
1
100
AcDbLine
 10
8.995281
 20
0.868345
 30
0.0
 11
8.991792
 21
0.862066
 31
0.0
  0
LINE
  5
46
330
4CA
100
AcDbEntity
  8
1
100
AcDbLine
 10
14.556777
 20
-7.980452
 30
0.0
 11
14.403981
 21
-8.110566999999999
 31
0.0
  0
LINE
  5
47
330
4CA
100
AcDbEntity
  8
1
100
AcDbLine
 10
8.833505
 20
0.977627
 30
0.0
 11
8.781952
 21
0.9626229999999999
 31
0.0
  0
LINE
  5
48
330
4CA
100
AcDbEntity
  8
1
100
AcDbLine
 10
14.403981
 20
-8.110566999999999
 30
0.0
 11
14.248631
 21
-8.242044999999999
 31
0.0
  0
LINE
  5
49
330
4CA
100
AcDbEntity
  8
1
100
AcDbLine
 10
8.885066999999999
 20
0.9928969999999999
 30
0.0
 11
8.833505
 21
0.977627
 31
0.0
  0
LINE
  5
4A
330
4CA
100
AcDbEntity
  8
1
100
AcDbLine
 10
14.248631
 20
-8.242044999999999
 30
0.0
 11
14.090573
 21
-8.374988999999999
 31
0.0
  0
LINE
  5
4B
330
4CA
100
AcDbEntity
  8
1
100
AcDbLine
 10
15.5
 20
-3.691492999999999
 30
0.0
 11
15.5
 21
-0.004111
 31
0.0
  0
LINE
  5
4C
330
4CA
100
AcDbEntity
  8
1
100
AcDbLine
 10
14.090573
 20
-8.374988999999999
 30
0.0
 11
13.929757
 21
-8.509433999999998
 31
0.0
  0
LINE
  5
4D
330
4CA
100
AcDbEntity
  8
1
100
AcDbLine
 10
13.997261
 20
-4.282640999999999
 30
0.0
 11
13.945349
 21
-3.995464
 31
0.0
  0
LINE
  5
4E
330
4CA
100
AcDbEntity
  8
1
100
AcDbLine
 10
4.574315
 20
-9.047323
 30
0.0
 11
4.440906
 21
-8.921203
 31
0.0
  0
LINE
  5
4F
330
4CA
100
AcDbEntity
  8
1
100
AcDbLine
 10
4.440906
 20
-8.921203
 30
0.0
 11
4.309896
 21
-8.788836999999999
 31
0.0
  0
LINE
  5
50
330
4CA
100
AcDbEntity
  8
1
100
AcDbLine
 10
7.891547999999999
 20
-3.820105
 30
0.0
 11
7.891547999999999
 21
-3.753922
 31
0.0
  0
LINE
  5
51
330
4CA
100
AcDbEntity
  8
1
100
AcDbLine
 10
8.323968999999999
 20
-3.906073999999999
 30
0.0
 11
8.331720999999999
 21
-3.998316
 31
0.0
  0
LINE
  5
52
330
4CA
100
AcDbEntity
  8
1
100
AcDbLine
 10
8.992096
 20
0.9154479999999999
 30
0.0
 11
8.99548
 21
0.910983
 31
0.0
  0
LINE
  5
53
330
4CA
100
AcDbEntity
  8
1
100
AcDbLine
 10
7.771124
 20
-8.301339999999999
 30
0.0
 11
7.712401999999999
 21
-8.315137
 31
0.0
  0
LINE
  5
54
330
4CA
100
AcDbEntity
  8
1
100
AcDbLine
 10
13.595385
 20
-10.566691
 30
0.0
 11
14.002002
 21
-11.499998
 31
0.0
  0
LINE
  5
55
330
4CA
100
AcDbEntity
  8
1
100
AcDbLine
 10
8.178015
 20
0.5247260000000001
 30
0.0
 11
8.122192999999999
 21
0.513848
 31
0.0
  0
LINE
  5
56
330
4CA
100
AcDbEntity
  8
1
100
AcDbLine
 10
8.065001999999999
 20
0.5035970000000001
 30
0.0
 11
8.007205
 21
0.494212
 31
0.0
  0
LINE
  5
57
330
4CA
100
AcDbEntity
  8
1
100
AcDbLine
 10
8.809274999999999
 20
0.729409
 30
0.0
 11
8.784943999999999
 21
0.717424
 31
0.0
  0
LINE
  5
58
330
4CA
100
AcDbEntity
  8
1
100
AcDbLine
 10
8.007205
 20
0.494212
 30
0.0
 11
7.948939
 21
0.4856710000000001
 31
0.0
  0
LINE
  5
59
330
4CA
100
AcDbEntity
  8
1
100
AcDbLine
 10
8.784943999999999
 20
0.717424
 30
0.0
 11
8.758739
 21
0.705126
 31
0.0
  0
LINE
  5
5A
330
4CA
100
AcDbEntity
  8
1
100
AcDbLine
 10
7.948939
 20
0.4856710000000001
 30
0.0
 11
7.890135
 21
0.477916
 31
0.0
  0
LINE
  5
5B
330
4CA
100
AcDbEntity
  8
1
100
AcDbLine
 10
8.758739
 20
0.705126
 30
0.0
 11
8.730666000000001
 21
0.692573
 31
0.0
  0
LINE
  5
5C
330
4CA
100
AcDbEntity
  8
1
100
AcDbLine
 10
7.890135
 20
0.477916
 30
0.0
 11
7.831272
 21
0.471078
 31
0.0
  0
LINE
  5
5D
330
4CA
100
AcDbEntity
  8
1
100
AcDbLine
 10
8.730666000000001
 20
0.692573
 30
0.0
 11
8.700628
 21
0.67977
 31
0.0
  0
LINE
  5
5E
330
4CA
100
AcDbEntity
  8
1
100
AcDbLine
 10
7.831272
 20
0.471078
 30
0.0
 11
7.772485
 21
0.465124
 31
0.0
  0
LINE
  5
5F
330
4CA
100
AcDbEntity
  8
1
100
AcDbLine
 10
7.772485
 20
0.465124
 30
0.0
 11
7.713719999999999
 21
0.459978
 31
0.0
  0
LINE
  5
60
330
4CA
100
AcDbEntity
  8
1
100
AcDbLine
 10
7.713719999999999
 20
0.459978
 30
0.0
 11
7.655183
 21
0.4557000000000001
 31
0.0
  0
LINE
  5
61
330
4CA
100
AcDbEntity
  8
1
100
AcDbLine
 10
11.345507
 20
9.984218999999999
 30
0.0
 11
10.886125
 21
9.932446
 31
0.0
  0
LINE
  5
62
330
4CA
100
AcDbEntity
  8
1
100
AcDbLine
 10
4.255808
 20
5.035476999999999
 30
0.0
 11
4.118513
 21
5.046659
 31
0.0
  0
LINE
  5
63
330
4CA
100
AcDbEntity
  8
1
100
AcDbLine
 10
3.984757
 20
6.032162999999999
 30
0.0
 11
3.218207
 21
5.804712
 31
0.0
  0
LINE
  5
64
330
4CA
100
AcDbEntity
  8
1
100
AcDbLine
 10
3.693257
 20
-8.031905999999999
 30
0.0
 11
3.578751
 21
-7.863243999999999
 31
0.0
  0
LINE
  5
65
330
4CA
100
AcDbEntity
  8
1
100
AcDbLine
 10
8.864297999999999
 20
-5.179539
 30
0.0
 11
8.934582999999999
 21
-5.25728
 31
0.0
  0
LINE
  5
66
330
4CA
100
AcDbEntity
  8
1
100
AcDbLine
 10
8.404460999999999
 20
-5.429725
 30
0.0
 11
8.318196999999999
 21
-5.168224999999999
 31
0.0
  0
LINE
  5
67
330
4CA
100
AcDbEntity
  8
1
100
AcDbLine
 10
6.274421
 20
-4.288815
 30
0.0
 11
5.512863999999999
 21
-4.535451999999999
 31
0.0
  0
LINE
  5
68
330
4CA
100
AcDbEntity
  8
1
100
AcDbLine
 10
8.358836999999999
 20
-4.178658999999999
 30
0.0
 11
8.378358999999999
 21
-4.267242999999999
 31
0.0
  0
LINE
  5
69
330
4CA
100
AcDbEntity
  8
1
100
AcDbLine
 10
5.512863999999999
 20
-4.535451999999999
 30
0.0
 11
4.749411
 21
-4.779415
 31
0.0
  0
LINE
  5
6A
330
4CA
100
AcDbEntity
  8
1
100
AcDbLine
 10
8.665853
 20
-6.369064999999999
 30
0.0
 11
8.682253999999998
 21
-6.381604
 31
0.0
  0
LINE
  5
6B
330
4CA
100
AcDbEntity
  8
1
100
AcDbLine
 10
7.042919999999999
 20
0.456169
 30
0.0
 11
6.991291999999999
 21
0.459732
 31
0.0
  0
LINE
  5
6C
330
4CA
100
AcDbEntity
  8
1
100
AcDbLine
 10
7.280732
 20
-9.465688999999999
 30
0.0
 11
7.123663
 21
-9.457497999999999
 31
0.0
  0
LINE
  5
6D
330
4CA
100
AcDbEntity
  8
1
100
AcDbLine
 10
6.005071
 20
-8.171121000000001
 30
0.0
 11
5.894913999999999
 21
-8.243005999999999
 31
0.0
  0
LINE
  5
6E
330
4CA
100
AcDbEntity
  8
1
100
AcDbLine
 10
7.240049
 20
1.540305
 30
0.0
 11
7.302554999999999
 21
1.553582999999999
 31
0.0
  0
LINE
  5
6F
330
4CA
100
AcDbEntity
  8
1
100
AcDbLine
 10
7.302554999999999
 20
1.553582999999999
 30
0.0
 11
7.364877
 21
1.565601999999999
 31
0.0
  0
LINE
  5
70
330
4CA
100
AcDbEntity
  8
1
100
AcDbLine
 10
7.364877
 20
1.565601999999999
 30
0.0
 11
7.426914
 21
1.576222
 31
0.0
  0
LINE
  5
71
330
4CA
100
AcDbEntity
  8
1
100
AcDbLine
 10
5.084826999999999
 20
9.904367
 30
0.0
 11
4.898855
 21
9.928898
 31
0.0
  0
LINE
  5
72
330
4CA
100
AcDbEntity
  8
1
100
AcDbLine
 10
7.488736
 20
1.585539999999999
 30
0.0
 11
7.549077
 21
1.593663999999999
 31
0.0
  0
LINE
  5
73
330
4CA
100
AcDbEntity
  8
1
100
AcDbLine
 10
7.549077
 20
1.593663999999999
 30
0.0
 11
7.607539999999999
 21
1.600478
 31
0.0
  0
LINE
  5
74
330
4CA
100
AcDbEntity
  8
1
100
AcDbLine
 10
8.632927
 20
9.698902
 30
0.0
 11
8.486819
 21
9.692877000000001
 31
0.0
  0
LINE
  5
75
330
4CA
100
AcDbEntity
  8
1
100
AcDbLine
 10
7.607539999999999
 20
1.600478
 30
0.0
 11
7.664482
 21
1.606009999999999
 31
0.0
  0
LINE
  5
76
330
4CA
100
AcDbEntity
  8
1
100
AcDbLine
 10
7.664482
 20
1.606009999999999
 30
0.0
 11
7.719761999999999
 21
1.610562999999999
 31
0.0
  0
LINE
  5
77
330
4CA
100
AcDbEntity
  8
1
100
AcDbLine
 10
7.719761999999999
 20
1.610562999999999
 30
0.0
 11
7.773300999999999
 21
1.614121999999999
 31
0.0
  0
LINE
  5
78
330
4CA
100
AcDbEntity
  8
1
100
AcDbLine
 10
7.773300999999999
 20
1.614121999999999
 30
0.0
 11
7.825149999999999
 21
1.616629
 31
0.0
  0
LINE
  5
79
330
4CA
100
AcDbEntity
  8
1
100
AcDbLine
 10
7.825149999999999
 20
1.616629
 30
0.0
 11
7.875361999999999
 21
1.618325
 31
0.0
  0
LINE
  5
7A
330
4CA
100
AcDbEntity
  8
1
100
AcDbLine
 10
7.875361999999999
 20
1.618325
 30
0.0
 11
7.923899
 21
1.619205999999999
 31
0.0
  0
LINE
  5
7B
330
4CA
100
AcDbEntity
  8
1
100
AcDbLine
 10
7.923899
 20
1.619205999999999
 30
0.0
 11
7.97078
 21
1.619216999999999
 31
0.0
  0
LINE
  5
7C
330
4CA
100
AcDbEntity
  8
1
100
AcDbLine
 10
7.97078
 20
1.619216999999999
 30
0.0
 11
8.016152999999999
 21
1.618532
 31
0.0
  0
LINE
  5
7D
330
4CA
100
AcDbEntity
  8
1
100
AcDbLine
 10
8.016152999999999
 20
1.618532
 30
0.0
 11
8.059997
 21
1.617152
 31
0.0
  0
LINE
  5
7E
330
4CA
100
AcDbEntity
  8
1
100
AcDbLine
 10
7.404652
 20
-6.408991
 30
0.0
 11
7.469749
 21
-6.382912
 31
0.0
  0
LINE
  5
7F
330
4CA
100
AcDbEntity
  8
1
100
AcDbLine
 10
8.059997
 20
1.617152
 30
0.0
 11
8.102318999999999
 21
1.615029
 31
0.0
  0
LINE
  5
80
330
4CA
100
AcDbEntity
  8
1
100
AcDbLine
 10
8.102318999999999
 20
1.615029
 30
0.0
 11
8.143316999999999
 21
1.612270999999999
 31
0.0
  0
LINE
  5
81
330
4CA
100
AcDbEntity
  8
1
100
AcDbLine
 10
8.143316999999999
 20
1.612270999999999
 30
0.0
 11
8.18299
 21
1.608881
 31
0.0
  0
LINE
  5
82
330
4CA
100
AcDbEntity
  8
1
100
AcDbLine
 10
8.18299
 20
1.608881
 30
0.0
 11
8.221328999999998
 21
1.60482
 31
0.0
  0
LINE
  5
83
330
4CA
100
AcDbEntity
  8
1
100
AcDbLine
 10
8.061068999999999
 20
-4.366845999999999
 30
0.0
 11
7.976126999999999
 21
-4.094751
 31
0.0
  0
LINE
  5
84
330
4CA
100
AcDbEntity
  8
1
100
AcDbLine
 10
8.221328999999998
 20
1.60482
 30
0.0
 11
8.258521
 21
1.600129999999999
 31
0.0
  0
LINE
  5
85
330
4CA
100
AcDbEntity
  8
1
100
AcDbLine
 10
8.258521
 20
1.600129999999999
 30
0.0
 11
8.294669999999999
 21
1.594791
 31
0.0
  0
LINE
  5
86
330
4CA
100
AcDbEntity
  8
1
100
AcDbLine
 10
8.294669999999999
 20
1.594791
 30
0.0
 11
8.329665999999999
 21
1.588797
 31
0.0
  0
LINE
  5
87
330
4CA
100
AcDbEntity
  8
1
100
AcDbLine
 10
8.496952
 20
-4.612855
 30
0.0
 11
8.53688
 21
-4.696883999999999
 31
0.0
  0
LINE
  5
88
330
4CA
100
AcDbEntity
  8
1
100
AcDbLine
 10
8.329665999999999
 20
1.588797
 30
0.0
 11
8.363367999999999
 21
1.582216
 31
0.0
  0
LINE
  5
89
330
4CA
100
AcDbEntity
  8
1
100
AcDbLine
 10
8.363367999999999
 20
1.582216
 30
0.0
 11
8.395770999999999
 21
1.575021999999999
 31
0.0
  0
LINE
  5
8A
330
4CA
100
AcDbEntity
  8
1
100
AcDbLine
 10
8.395770999999999
 20
1.575021999999999
 30
0.0
 11
8.426876
 21
1.567219
 31
0.0
  0
LINE
  5
8B
330
4CA
100
AcDbEntity
  8
1
100
AcDbLine
 10
6.229676
 20
-7.805822
 30
0.0
 11
6.233874
 21
-7.770993999999999
 31
0.0
  0
LINE
  5
8C
330
4CA
100
AcDbEntity
  8
1
100
AcDbLine
 10
6.233874
 20
-7.770993999999999
 30
0.0
 11
6.239268
 21
-7.735502
 31
0.0
  0
LINE
  5
8D
330
4CA
100
AcDbEntity
  8
1
100
AcDbLine
 10
8.456550999999999
 20
1.558915
 30
0.0
 11
8.484713000000001
 21
1.550119
 31
0.0
  0
LINE
  5
8E
330
4CA
100
AcDbEntity
  8
1
100
AcDbLine
 10
6.239268
 20
-7.735502
 30
0.0
 11
6.24587
 21
-7.699308
 31
0.0
  0
LINE
  5
8F
330
4CA
100
AcDbEntity
  8
1
100
AcDbLine
 10
8.484713000000001
 20
1.550119
 30
0.0
 11
8.511440999999999
 21
1.540799999999999
 31
0.0
  0
LINE
  5
90
330
4CA
100
AcDbEntity
  8
1
100
AcDbLine
 10
6.24587
 20
-7.699308
 30
0.0
 11
6.253678999999999
 21
-7.662457
 31
0.0
  0
LINE
  5
91
330
4CA
100
AcDbEntity
  8
1
100
AcDbLine
 10
8.511440999999999
 20
1.540799999999999
 30
0.0
 11
8.536847999999999
 21
1.531023
 31
0.0
  0
LINE
  5
92
330
4CA
100
AcDbEntity
  8
1
100
AcDbLine
 10
6.253678999999999
 20
-7.662457
 30
0.0
 11
6.262779
 21
-7.625080999999999
 31
0.0
  0
LINE
  5
93
330
4CA
100
AcDbEntity
  8
1
100
AcDbLine
 10
6.262779
 20
-7.625080999999999
 30
0.0
 11
6.273170999999999
 21
-7.587207
 31
0.0
  0
LINE
  5
94
330
4CA
100
AcDbEntity
  8
1
100
AcDbLine
 10
8.560969
 20
1.52076
 30
0.0
 11
8.583764999999999
 21
1.510022
 31
0.0
  0
LINE
  5
95
330
4CA
100
AcDbEntity
  8
1
100
AcDbLine
 10
6.273170999999999
 20
-7.587207
 30
0.0
 11
6.284866
 21
-7.548818999999999
 31
0.0
  0
LINE
  5
96
330
4CA
100
AcDbEntity
  8
1
100
AcDbLine
 10
8.583764999999999
 20
1.510022
 30
0.0
 11
8.605235999999999
 21
1.498935
 31
0.0
  0
LINE
  5
97
330
4CA
100
AcDbEntity
  8
1
100
AcDbLine
 10
6.284866
 20
-7.548818999999999
 30
0.0
 11
6.297966999999999
 21
-7.509968999999999
 31
0.0
  0
LINE
  5
98
330
4CA
100
AcDbEntity
  8
1
100
AcDbLine
 10
8.605235999999999
 20
1.498935
 30
0.0
 11
8.625352000000001
 21
1.487490999999999
 31
0.0
  0
LINE
  5
99
330
4CA
100
AcDbEntity
  8
1
100
AcDbLine
 10
8.625352000000001
 20
1.487490999999999
 30
0.0
 11
8.644141000000001
 21
1.475685
 31
0.0
  0
LINE
  5
9A
330
4CA
100
AcDbEntity
  8
1
100
AcDbLine
 10
8.644141000000001
 20
1.475685
 30
0.0
 11
8.661685999999999
 21
1.463643
 31
0.0
  0
LINE
  5
9B
330
4CA
100
AcDbEntity
  8
1
100
AcDbLine
 10
6.328424
 20
-7.430886
 30
0.0
 11
6.345876
 21
-7.390784
 31
0.0
  0
LINE
  5
9C
330
4CA
100
AcDbEntity
  8
1
100
AcDbLine
 10
8.661685999999999
 20
1.463643
 30
0.0
 11
8.677958
 21
1.451377
 31
0.0
  0
LINE
  5
9D
330
4CA
100
AcDbEntity
  8
1
100
AcDbLine
 10
6.345876
 20
-7.390784
 30
0.0
 11
6.364876999999999
 21
-7.350385
 31
0.0
  0
LINE
  5
9E
330
4CA
100
AcDbEntity
  8
1
100
AcDbLine
 10
8.677958
 20
1.451377
 30
0.0
 11
8.692985
 21
1.438865999999999
 31
0.0
  0
LINE
  5
9F
330
4CA
100
AcDbEntity
  8
1
100
AcDbLine
 10
8.692985
 20
1.438865999999999
 30
0.0
 11
8.706932
 21
1.426180999999999
 31
0.0
  0
LINE
  5
A0
330
4CA
100
AcDbEntity
  8
1
100
AcDbLine
 10
8.706932
 20
1.426180999999999
 30
0.0
 11
8.719768999999999
 21
1.413385
 31
0.0
  0
LINE
  5
A1
330
4CA
100
AcDbEntity
  8
1
100
AcDbLine
 10
8.719768999999999
 20
1.413385
 30
0.0
 11
8.731524999999999
 21
1.400411
 31
0.0
  0
LINE
  5
A2
330
4CA
100
AcDbEntity
  8
1
100
AcDbLine
 10
8.731524999999999
 20
1.400411
 30
0.0
 11
8.742449999999999
 21
1.387143
 31
0.0
  0
LINE
  5
A3
330
4CA
100
AcDbEntity
  8
1
100
AcDbLine
 10
8.742449999999999
 20
1.387143
 30
0.0
 11
8.752563
 21
1.373655999999999
 31
0.0
  0
LINE
  5
A4
330
4CA
100
AcDbEntity
  8
1
100
AcDbLine
 10
8.752563
 20
1.373655999999999
 30
0.0
 11
8.761846
 21
1.359870999999999
 31
0.0
  0
LINE
  5
A5
330
4CA
100
AcDbEntity
  8
1
100
AcDbLine
 10
8.761846
 20
1.359870999999999
 30
0.0
 11
8.770490999999999
 21
1.345437999999999
 31
0.0
  0
LINE
  5
A6
330
4CA
100
AcDbEntity
  8
1
100
AcDbLine
 10
8.770490999999999
 20
1.345437999999999
 30
0.0
 11
8.778598999999999
 21
1.330275
 31
0.0
  0
LINE
  5
A7
330
4CA
100
AcDbEntity
  8
1
100
AcDbLine
 10
8.778598999999999
 20
1.330275
 30
0.0
 11
8.78607
 21
1.314462999999999
 31
0.0
  0
LINE
  5
A8
330
4CA
100
AcDbEntity
  8
1
100
AcDbLine
 10
8.78607
 20
1.314462999999999
 30
0.0
 11
8.792794999999999
 21
1.297892999999999
 31
0.0
  0
LINE
  5
A9
330
4CA
100
AcDbEntity
  8
1
100
AcDbLine
 10
8.792794999999999
 20
1.297892999999999
 30
0.0
 11
8.798789999999998
 21
1.280516999999999
 31
0.0
  0
LINE
  5
AA
330
4CA
100
AcDbEntity
  8
1
100
AcDbLine
 10
8.798789999999998
 20
1.280516999999999
 30
0.0
 11
8.804039999999998
 21
1.262383
 31
0.0
  0
LINE
  5
AB
330
4CA
100
AcDbEntity
  8
1
100
AcDbLine
 10
8.804039999999998
 20
1.262383
 30
0.0
 11
8.808392999999998
 21
1.243527999999999
 31
0.0
  0
LINE
  5
AC
330
4CA
100
AcDbEntity
  8
1
100
AcDbLine
 10
4.898855
 20
9.928898
 30
0.0
 11
4.710124999999999
 21
9.954547999999999
 31
0.0
  0
LINE
  5
AD
330
4CA
100
AcDbEntity
  8
1
100
AcDbLine
 10
8.811830999999999
 20
1.223937999999999
 30
0.0
 11
8.814372999999999
 21
1.203628
 31
0.0
  0
LINE
  5
AE
330
4CA
100
AcDbEntity
  8
1
100
AcDbLine
 10
8.814372999999999
 20
1.203628
 30
0.0
 11
8.815922999999999
 21
1.182671999999999
 31
0.0
  0
LINE
  5
AF
330
4CA
100
AcDbEntity
  8
1
100
AcDbLine
 10
8.815922999999999
 20
1.182671999999999
 30
0.0
 11
8.816474000000001
 21
1.161134
 31
0.0
  0
LINE
  5
B0
330
4CA
100
AcDbEntity
  8
1
100
AcDbLine
 10
6.297966999999999
 20
-7.509968999999999
 30
0.0
 11
6.312484999999999
 21
-7.47065
 31
0.0
  0
LINE
  5
B1
330
4CA
100
AcDbEntity
  8
1
100
AcDbLine
 10
8.816474000000001
 20
1.161134
 30
0.0
 11
8.816033
 21
1.138954999999999
 31
0.0
  0
LINE
  5
B2
330
4CA
100
AcDbEntity
  8
1
100
AcDbLine
 10
8.816033
 20
1.138954999999999
 30
0.0
 11
8.814519
 21
1.116027
 31
0.0
  0
LINE
  5
B3
330
4CA
100
AcDbEntity
  8
1
100
AcDbLine
 10
8.814519
 20
1.116027
 30
0.0
 11
8.811935999999999
 21
1.092316999999999
 31
0.0
  0
LINE
  5
B4
330
4CA
100
AcDbEntity
  8
1
100
AcDbLine
 10
8.811935999999999
 20
1.092316999999999
 30
0.0
 11
8.808280999999999
 21
1.067865
 31
0.0
  0
LINE
  5
B5
330
4CA
100
AcDbEntity
  8
1
100
AcDbLine
 10
8.808280999999999
 20
1.067865
 30
0.0
 11
8.803463999999999
 21
1.042664
 31
0.0
  0
LINE
  5
B6
330
4CA
100
AcDbEntity
  8
1
100
AcDbLine
 10
8.803463999999999
 20
1.042664
 30
0.0
 11
8.797455000000001
 21
1.01672
 31
0.0
  0
LINE
  5
B7
330
4CA
100
AcDbEntity
  8
1
100
AcDbLine
 10
8.797455000000001
 20
1.01672
 30
0.0
 11
8.790283999999999
 21
0.990038
 31
0.0
  0
LINE
  5
B8
330
4CA
100
AcDbEntity
  8
1
100
AcDbLine
 10
8.790283999999999
 20
0.990038
 30
0.0
 11
8.781952
 21
0.9626229999999999
 31
0.0
  0
LINE
  5
B9
330
4CA
100
AcDbEntity
  8
1
100
AcDbLine
 10
9.492117
 20
0.380232
 30
0.0
 11
9.350941999999999
 21
0.346409
 31
0.0
  0
LINE
  5
BA
330
4CA
100
AcDbEntity
  8
1
100
AcDbLine
 10
9.350941999999999
 20
0.346409
 30
0.0
 11
9.208956999999999
 21
0.3162
 31
0.0
  0
LINE
  5
BB
330
4CA
100
AcDbEntity
  8
1
100
AcDbLine
 10
9.208956999999999
 20
0.3162
 30
0.0
 11
9.066163000000001
 21
0.2896079999999999
 31
0.0
  0
LINE
  5
BC
330
4CA
100
AcDbEntity
  8
1
100
AcDbLine
 10
9.066163000000001
 20
0.2896079999999999
 30
0.0
 11
8.922577999999999
 21
0.266704
 31
0.0
  0
LINE
  5
BD
330
4CA
100
AcDbEntity
  8
1
100
AcDbLine
 10
8.922577999999999
 20
0.266704
 30
0.0
 11
8.778183999999999
 21
0.247417
 31
0.0
  0
LINE
  5
BE
330
4CA
100
AcDbEntity
  8
1
100
AcDbLine
 10
3.578741
 20
2.814043999999999
 30
0.0
 11
3.467287
 21
3.049875
 31
0.0
  0
LINE
  5
BF
330
4CA
100
AcDbEntity
  8
1
100
AcDbLine
 10
8.778183999999999
 20
0.247417
 30
0.0
 11
8.632927
 21
0.231533
 31
0.0
  0
LINE
  5
C0
330
4CA
100
AcDbEntity
  8
1
100
AcDbLine
 10
8.632927
 20
0.231533
 30
0.0
 11
8.486819999999999
 21
0.219044
 31
0.0
  0
LINE
  5
C1
330
4CA
100
AcDbEntity
  8
1
100
AcDbLine
 10
8.944272999999999
 20
0.9419959999999999
 30
0.0
 11
8.953903999999999
 21
0.9387260000000001
 31
0.0
  0
LINE
  5
C2
330
4CA
100
AcDbEntity
  8
1
100
AcDbLine
 10
8.33985
 20
0.209959
 30
0.0
 11
8.191933
 21
0.204088
 31
0.0
  0
LINE
  5
C3
330
4CA
100
AcDbEntity
  8
1
100
AcDbLine
 10
8.191933
 20
0.204088
 30
0.0
 11
8.043172999999999
 21
0.201411
 31
0.0
  0
LINE
  5
C4
330
4CA
100
AcDbEntity
  8
1
100
AcDbLine
 10
8.043172999999999
 20
0.201411
 30
0.0
 11
7.893464999999999
 21
0.201948
 31
0.0
  0
LINE
  5
C5
330
4CA
100
AcDbEntity
  8
1
100
AcDbLine
 10
7.893464999999999
 20
0.201948
 30
0.0
 11
7.742407
 21
0.205566
 31
0.0
  0
LINE
  5
C6
330
4CA
100
AcDbEntity
  8
1
100
AcDbLine
 10
6.915994
 20
-6.690841999999999
 30
0.0
 11
6.970638
 21
-6.650403999999999
 31
0.0
  0
LINE
  5
C7
330
4CA
100
AcDbEntity
  8
1
100
AcDbLine
 10
7.742407
 20
0.205566
 30
0.0
 11
7.589955
 21
0.212241
 31
0.0
  0
LINE
  5
C8
330
4CA
100
AcDbEntity
  8
1
100
AcDbLine
 10
8.99548
 20
0.910983
 30
0.0
 11
8.998105999999999
 21
0.9063540000000001
 31
0.0
  0
LINE
  5
C9
330
4CA
100
AcDbEntity
  8
1
100
AcDbLine
 10
4.440933999999999
 20
1.212603
 30
0.0
 11
4.309928
 21
1.431669999999999
 31
0.0
  0
LINE
  5
CA
330
4CA
100
AcDbEntity
  8
1
100
AcDbLine
 10
7.436153
 20
0.2219969999999999
 30
0.0
 11
7.280732
 21
0.234773
 31
0.0
  0
LINE
  5
CB
330
4CA
100
AcDbEntity
  8
1
100
AcDbLine
 10
7.280732
 20
0.234773
 30
0.0
 11
7.123663
 21
0.250557
 31
0.0
  0
LINE
  5
CC
330
4CA
100
AcDbEntity
  8
1
100
AcDbLine
 10
7.123663
 20
0.250557
 30
0.0
 11
6.964974999999999
 21
0.269359
 31
0.0
  0
LINE
  5
CD
330
4CA
100
AcDbEntity
  8
1
100
AcDbLine
 10
6.964974999999999
 20
0.269359
 30
0.0
 11
6.804486999999999
 21
0.291143
 31
0.0
  0
LINE
  5
CE
330
4CA
100
AcDbEntity
  8
1
100
AcDbLine
 10
6.804486999999999
 20
0.291143
 30
0.0
 11
6.642225999999999
 21
0.315898
 31
0.0
  0
LINE
  5
CF
330
4CA
100
AcDbEntity
  8
1
100
AcDbLine
 10
6.642225999999999
 20
0.315898
 30
0.0
 11
6.478166
 21
0.343634
 31
0.0
  0
LINE
  5
D0
330
4CA
100
AcDbEntity
  8
1
100
AcDbLine
 10
6.478166
 20
0.343634
 30
0.0
 11
6.312053999999999
 21
0.3743510000000001
 31
0.0
  0
LINE
  5
D1
330
4CA
100
AcDbEntity
  8
1
100
AcDbLine
 10
6.312053999999999
 20
0.3743510000000001
 30
0.0
 11
6.143943
 21
0.408026
 31
0.0
  0
LINE
  5
D2
330
4CA
100
AcDbEntity
  8
1
100
AcDbLine
 10
6.143943
 20
0.408026
 30
0.0
 11
5.973780999999999
 21
0.4446800000000001
 31
0.0
  0
LINE
  5
D3
330
4CA
100
AcDbEntity
  8
1
100
AcDbLine
 10
5.973780999999999
 20
0.4446800000000001
 30
0.0
 11
5.801150999999999
 21
0.48438
 31
0.0
  0
LINE
  5
D4
330
4CA
100
AcDbEntity
  8
1
100
AcDbLine
 10
12.049819
 20
6.240444999999999
 30
0.0
 11
11.532925
 21
6.087069
 31
0.0
  0
LINE
  5
D5
330
4CA
100
AcDbEntity
  8
1
100
AcDbLine
 10
5.801150999999999
 20
0.48438
 30
0.0
 11
5.626012
 21
0.5271239999999999
 31
0.0
  0
LINE
  5
D6
330
4CA
100
AcDbEntity
  8
1
100
AcDbLine
 10
5.626012
 20
0.5271239999999999
 30
0.0
 11
5.448405999999999
 21
0.572912
 31
0.0
  0
LINE
  5
D7
330
4CA
100
AcDbEntity
  8
1
100
AcDbLine
 10
3.358896
 20
-7.509827
 30
0.0
 11
3.253652
 21
-7.325833
 31
0.0
  0
LINE
  5
D8
330
4CA
100
AcDbEntity
  8
1
100
AcDbLine
 10
8.577375999999999
 20
5.381001
 30
0.0
 11
8.490833
 21
5.624136
 31
0.0
  0
LINE
  5
D9
330
4CA
100
AcDbEntity
  8
1
100
AcDbLine
 10
5.268044
 20
0.6218080000000001
 30
0.0
 11
5.084826999999999
 21
0.6738310000000001
 31
0.0
  0
LINE
  5
DA
330
4CA
100
AcDbEntity
  8
1
100
AcDbLine
 10
3.151613
 20
-7.137397999999999
 30
0.0
 11
3.052734999999999
 21
-6.944453
 31
0.0
  0
LINE
  5
DB
330
4CA
100
AcDbEntity
  8
1
100
AcDbLine
 10
4.898855
 20
0.7289550000000001
 30
0.0
 11
4.803494999999999
 21
0.7580930000000001
 31
0.0
  0
LINE
  5
DC
330
4CA
100
AcDbEntity
  8
1
100
AcDbLine
 10
6.229841
 20
0.5736220000000002
 30
0.0
 11
6.226801
 21
0.59978
 31
0.0
  0
LINE
  5
DD
330
4CA
100
AcDbEntity
  8
1
100
AcDbLine
 10
6.226801
 20
0.59978
 30
0.0
 11
6.224757
 21
0.626066
 31
0.0
  0
LINE
  5
DE
330
4CA
100
AcDbEntity
  8
1
100
AcDbLine
 10
6.224757
 20
0.626066
 30
0.0
 11
6.223708999999999
 21
0.652482
 31
0.0
  0
LINE
  5
DF
330
4CA
100
AcDbEntity
  8
1
100
AcDbLine
 10
6.223708999999999
 20
0.652482
 30
0.0
 11
6.223633
 21
0.6790659999999999
 31
0.0
  0
LINE
  5
E0
330
4CA
100
AcDbEntity
  8
1
100
AcDbLine
 10
6.223633
 20
0.6790659999999999
 30
0.0
 11
6.224559999999999
 21
0.705788
 31
0.0
  0
LINE
  5
E1
330
4CA
100
AcDbEntity
  8
1
100
AcDbLine
 10
6.224559999999999
 20
0.705788
 30
0.0
 11
6.226575
 21
0.7325540000000001
 31
0.0
  0
LINE
  5
E2
330
4CA
100
AcDbEntity
  8
1
100
AcDbLine
 10
6.226575
 20
0.7325540000000001
 30
0.0
 11
6.229676
 21
0.7593510000000001
 31
0.0
  0
LINE
  5
E3
330
4CA
100
AcDbEntity
  8
1
100
AcDbLine
 10
6.229676
 20
0.7593510000000001
 30
0.0
 11
6.233874
 21
0.7862020000000002
 31
0.0
  0
LINE
  5
E4
330
4CA
100
AcDbEntity
  8
1
100
AcDbLine
 10
6.233874
 20
0.7862020000000002
 30
0.0
 11
6.239268
 21
0.8130749999999999
 31
0.0
  0
LINE
  5
E5
330
4CA
100
AcDbEntity
  8
1
100
AcDbLine
 10
3.218207
 20
5.804712
 30
0.0
 11
2.449761
 21
5.573434999999999
 31
0.0
  0
LINE
  5
E6
330
4CA
100
AcDbEntity
  8
1
100
AcDbLine
 10
6.239268
 20
0.8130749999999999
 30
0.0
 11
6.24587
 21
0.8400049999999998
 31
0.0
  0
LINE
  5
E7
330
4CA
100
AcDbEntity
  8
1
100
AcDbLine
 10
6.24587
 20
0.8400049999999998
 30
0.0
 11
6.253678999999999
 21
0.8669709999999998
 31
0.0
  0
LINE
  5
E8
330
4CA
100
AcDbEntity
  8
1
100
AcDbLine
 10
7.891547999999999
 20
-3.820105
 30
0.0
 11
8.320154999999999
 21
-3.717551999999999
 31
0.0
  0
LINE
  5
E9
330
4CA
100
AcDbEntity
  8
1
100
AcDbLine
 10
6.253678999999999
 20
0.8669709999999998
 30
0.0
 11
6.262779
 21
0.8938409999999999
 31
0.0
  0
LINE
  5
EA
330
4CA
100
AcDbEntity
  8
1
100
AcDbLine
 10
8.664089999999999
 20
-6.194784999999999
 30
0.0
 11
8.928019
 21
-6.142058999999999
 31
0.0
  0
LINE
  5
EB
330
4CA
100
AcDbEntity
  8
1
100
AcDbLine
 10
6.262779
 20
0.8938409999999999
 30
0.0
 11
6.273170999999999
 21
0.9206059999999999
 31
0.0
  0
LINE
  5
EC
330
4CA
100
AcDbEntity
  8
1
100
AcDbLine
 10
8.928019
 20
-6.142058999999999
 30
0.0
 11
9.464089999999998
 21
-6.033748
 31
0.0
  0
LINE
  5
ED
330
4CA
100
AcDbEntity
  8
1
100
AcDbLine
 10
6.273170999999999
 20
0.9206059999999999
 30
0.0
 11
6.284866
 21
0.9472929999999999
 31
0.0
  0
LINE
  5
EE
330
4CA
100
AcDbEntity
  8
1
100
AcDbLine
 10
8.936633
 20
-6.820203999999999
 30
0.0
 11
8.910849999999999
 21
-6.828071
 31
0.0
  0
LINE
  5
EF
330
4CA
100
AcDbEntity
  8
1
100
AcDbLine
 10
6.284866
 20
0.9472929999999999
 30
0.0
 11
6.297966999999999
 21
0.9738299999999998
 31
0.0
  0
LINE
  5
F0
330
4CA
100
AcDbEntity
  8
1
100
AcDbLine
 10
8.910849999999999
 20
-6.828071
 30
0.0
 11
8.885066999999999
 21
-6.836005
 31
0.0
  0
LINE
  5
F1
330
4CA
100
AcDbEntity
  8
1
100
AcDbLine
 10
6.297966999999999
 20
0.9738299999999998
 30
0.0
 11
6.312484999999999
 21
1.000237999999999
 31
0.0
  0
LINE
  5
F2
330
4CA
100
AcDbEntity
  8
1
100
AcDbLine
 10
8.885066999999999
 20
-6.836005
 30
0.0
 11
8.833505
 21
-6.852067999999999
 31
0.0
  0
LINE
  5
F3
330
4CA
100
AcDbEntity
  8
1
100
AcDbLine
 10
6.312484999999999
 20
1.000237999999999
 30
0.0
 11
6.328424
 21
1.026521
 31
0.0
  0
LINE
  5
F4
330
4CA
100
AcDbEntity
  8
1
100
AcDbLine
 10
8.951675999999999
 20
0.8183569999999999
 30
0.0
 11
8.946092
 21
0.8137389999999999
 31
0.0
  0
LINE
  5
F5
330
4CA
100
AcDbEntity
  8
1
100
AcDbLine
 10
6.328424
 20
1.026521
 30
0.0
 11
6.345876
 21
1.052567999999999
 31
0.0
  0
LINE
  5
F6
330
4CA
100
AcDbEntity
  8
1
100
AcDbLine
 10
8.946092
 20
0.8137389999999999
 30
0.0
 11
8.934072999999999
 21
0.8043600000000001
 31
0.0
  0
LINE
  5
F7
330
4CA
100
AcDbEntity
  8
1
100
AcDbLine
 10
0.0
 20
-11.068073
 30
0.0
 11
0.0
 21
11.068073
 31
0.0
  0
LINE
  5
F8
330
4CA
100
AcDbEntity
  8
1
100
AcDbLine
 10
8.934072999999999
 20
0.8043600000000001
 30
0.0
 11
8.920694000000001
 21
0.794638
 31
0.0
  0
LINE
  5
F9
330
4CA
100
AcDbEntity
  8
1
100
AcDbLine
 10
3.578751
 20
-7.863243999999999
 30
0.0
 11
3.467299999999999
 21
-7.689224
 31
0.0
  0
LINE
  5
FA
330
4CA
100
AcDbEntity
  8
1
100
AcDbLine
 10
8.934582999999999
 20
-5.25728
 30
0.0
 11
9.009933999999999
 21
-5.334716999999999
 31
0.0
  0
LINE
  5
FB
330
4CA
100
AcDbEntity
  8
1
100
AcDbLine
 10
6.990624999999999
 20
-8.348580999999999
 30
0.0
 11
6.939883
 21
-8.340823
 31
0.0
  0
LINE
  5
FC
330
4CA
100
AcDbEntity
  8
1
100
AcDbLine
 10
9.001443
 20
-7.270734
 30
0.0
 11
9.001063
 21
-7.289094
 31
0.0
  0
LINE
  5
FD
330
4CA
100
AcDbEntity
  8
1
100
AcDbLine
 10
6.939883
 20
-8.340823
 30
0.0
 11
6.889986
 21
-8.331741
 31
0.0
  0
LINE
  5
FE
330
4CA
100
AcDbEntity
  8
1
100
AcDbLine
 10
9.001063
 20
-7.289094
 30
0.0
 11
8.999914999999999
 21
-7.307669
 31
0.0
  0
LINE
  5
FF
330
4CA
100
AcDbEntity
  8
1
100
AcDbLine
 10
5.894913999999999
 20
-8.243005999999999
 30
0.0
 11
5.786319
 21
-8.315824
 31
0.0
  0
LINE
  5
100
330
4CA
100
AcDbEntity
  8
1
100
AcDbLine
 10
8.999914999999999
 20
-7.307669
 30
0.0
 11
8.997987
 21
-7.326477
 31
0.0
  0
LINE
  5
101
330
4CA
100
AcDbEntity
  8
1
100
AcDbLine
 10
8.997987
 20
-7.326477
 30
0.0
 11
8.995281
 21
-7.345482999999999
 31
0.0
  0
LINE
  5
102
330
4CA
100
AcDbEntity
  8
1
100
AcDbLine
 10
8.668594999999999
 20
0.6667550000000001
 30
0.0
 11
8.634544999999999
 21
0.65358
 31
0.0
  0
LINE
  5
103
330
4CA
100
AcDbEntity
  8
1
100
AcDbLine
 10
2.688591
 20
4.911330999999999
 30
0.0
 11
2.605694999999999
 21
5.134948
 31
0.0
  0
LINE
  5
104
330
4CA
100
AcDbEntity
  8
1
100
AcDbLine
 10
2.605694999999999
 20
5.134948
 30
0.0
 11
2.526086
 21
5.355683999999999
 31
0.0
  0
LINE
  5
105
330
4CA
100
AcDbEntity
  8
1
100
AcDbLine
 10
13.632823
 20
8.544249
 30
0.0
 11
13.595385
 21
8.709353
 31
0.0
  0
LINE
  5
106
330
4CA
100
AcDbEntity
  8
1
100
AcDbLine
 10
6.84145
 20
0.47298
 30
0.0
 11
6.793167999999999
 21
0.47817
 31
0.0
  0
LINE
  5
107
330
4CA
100
AcDbEntity
  8
1
100
AcDbLine
 10
9.175791999999999
 20
-5.488116
 30
0.0
 11
9.266658999999998
 21
-5.563894
 31
0.0
  0
LINE
  5
108
330
4CA
100
AcDbEntity
  8
1
100
AcDbLine
 10
13.895257
 20
-3.712712999999999
 30
0.0
 11
13.846986
 21
-3.434387
 31
0.0
  0
LINE
  5
109
330
4CA
100
AcDbEntity
  8
1
100
AcDbLine
 10
13.846986
 20
-3.434387
 30
0.0
 11
13.800542
 21
-3.160490999999999
 31
0.0
  0
LINE
  5
10A
330
4CA
100
AcDbEntity
  8
1
100
AcDbLine
 10
3.218207
 20
-5.258842999999999
 30
0.0
 11
2.449761
 21
-5.494545999999999
 31
0.0
  0
LINE
  5
10B
330
4CA
100
AcDbEntity
  8
1
100
AcDbLine
 10
13.800542
 20
-3.160490999999999
 30
0.0
 11
13.755918
 21
-2.89102
 31
0.0
  0
LINE
  5
10C
330
4CA
100
AcDbEntity
  8
1
100
AcDbLine
 10
4.710124999999999
 20
-9.167371000000001
 30
0.0
 11
4.574315
 21
-9.047323
 31
0.0
  0
LINE
  5
10D
330
4CA
100
AcDbEntity
  8
1
100
AcDbLine
 10
13.755918
 20
-2.89102
 30
0.0
 11
13.713092
 21
-2.625968999999999
 31
0.0
  0
LINE
  5
10E
330
4CA
100
AcDbEntity
  8
1
100
AcDbLine
 10
13.713092
 20
-2.625968999999999
 30
0.0
 11
13.672058
 21
-2.365337999999999
 31
0.0
  0
LINE
  5
10F
330
4CA
100
AcDbEntity
  8
1
100
AcDbLine
 10
13.672058
 20
-2.365337999999999
 30
0.0
 11
13.632823
 21
-2.109127999999999
 31
0.0
  0
LINE
  5
110
330
4CA
100
AcDbEntity
  8
1
100
AcDbLine
 10
13.632823
 20
-2.109127999999999
 30
0.0
 11
13.595385
 21
-1.857338
 31
0.0
  0
LINE
  5
111
330
4CA
100
AcDbEntity
  8
1
100
AcDbLine
 10
5.679339999999999
 20
-8.389537999999999
 30
0.0
 11
5.574033999999999
 21
-8.464108999999998
 31
0.0
  0
LINE
  5
112
330
4CA
100
AcDbEntity
  8
1
100
AcDbLine
 10
5.574033999999999
 20
-8.464108999999998
 30
0.0
 11
5.470454
 21
-8.539498
 31
0.0
  0
LINE
  5
113
330
4CA
100
AcDbEntity
  8
1
100
AcDbLine
 10
5.470454
 20
-8.539498
 30
0.0
 11
5.368651999999999
 21
-8.615667
 31
0.0
  0
LINE
  5
114
330
4CA
100
AcDbEntity
  8
1
100
AcDbLine
 10
5.470454
 20
0.62135
 30
0.0
 11
5.368651999999999
 21
0.635655
 31
0.0
  0
LINE
  5
115
330
4CA
100
AcDbEntity
  8
1
100
AcDbLine
 10
5.368651999999999
 20
-8.615667
 30
0.0
 11
5.268682
 21
-8.692576999999999
 31
0.0
  0
LINE
  5
116
330
4CA
100
AcDbEntity
  8
1
100
AcDbLine
 10
5.268682
 20
-8.692576999999999
 30
0.0
 11
5.170594999999999
 21
-8.770189999999999
 31
0.0
  0
LINE
  5
117
330
4CA
100
AcDbEntity
  8
1
100
AcDbLine
 10
5.170594999999999
 20
-8.770189999999999
 30
0.0
 11
5.07444
 21
-8.848463999999999
 31
0.0
  0
LINE
  5
118
330
4CA
100
AcDbEntity
  8
1
100
AcDbLine
 10
5.07444
 20
-8.848463999999999
 30
0.0
 11
4.980267999999999
 21
-8.92736
 31
0.0
  0
LINE
  5
119
330
4CA
100
AcDbEntity
  8
1
100
AcDbLine
 10
4.980267999999999
 20
-8.92736
 30
0.0
 11
4.888126999999999
 21
-9.006836999999999
 31
0.0
  0
LINE
  5
11A
330
4CA
100
AcDbEntity
  8
1
100
AcDbLine
 10
4.888126999999999
 20
-9.006836999999999
 30
0.0
 11
4.798064
 21
-9.086853999999998
 31
0.0
  0
LINE
  5
11B
330
4CA
100
AcDbEntity
  8
1
100
AcDbLine
 10
4.798064
 20
-9.086853999999998
 30
0.0
 11
4.710124999999999
 21
-9.167371000000001
 31
0.0
  0
LINE
  5
11C
330
4CA
100
AcDbEntity
  8
1
100
AcDbLine
 10
8.320154999999999
 20
-11.081396
 30
0.0
 11
8.924349000000001
 21
-11.039427
 31
0.0
  0
LINE
  5
11D
330
4CA
100
AcDbEntity
  8
1
100
AcDbLine
 10
8.924349000000001
 20
-11.039427
 30
0.0
 11
9.524044999999999
 21
-10.993628
 31
0.0
  0
LINE
  5
11E
330
4CA
100
AcDbEntity
  8
1
100
AcDbLine
 10
6.116731999999999
 20
-8.100205
 30
0.0
 11
6.005071
 21
-8.171121000000001
 31
0.0
  0
LINE
  5
11F
330
4CA
100
AcDbEntity
  8
1
100
AcDbLine
 10
10.119243
 20
-10.943998
 30
0.0
 11
10.709967
 21
-10.890505
 31
0.0
  0
LINE
  5
120
330
4CA
100
AcDbEntity
  8
1
100
AcDbLine
 10
10.709967
 20
-10.890505
 30
0.0
 11
11.296193
 21
-10.833183
 31
0.0
  0
LINE
  5
121
330
4CA
100
AcDbEntity
  8
1
100
AcDbLine
 10
11.296193
 20
-10.833183
 30
0.0
 11
11.877854
 21
-10.772129
 31
0.0
  0
LINE
  5
122
330
4CA
100
AcDbEntity
  8
1
100
AcDbLine
 10
11.877854
 20
-10.772129
 30
0.0
 11
12.454929
 21
-10.70738
 31
0.0
  0
LINE
  5
123
330
4CA
100
AcDbEntity
  8
1
100
AcDbLine
 10
12.454929
 20
-10.70738
 30
0.0
 11
13.027439
 21
-10.638901
 31
0.0
  0
LINE
  5
124
330
4CA
100
AcDbEntity
  8
1
100
AcDbLine
 10
5.084826999999999
 20
0.6738310000000001
 30
0.0
 11
4.898855
 21
0.7289550000000001
 31
0.0
  0
LINE
  5
125
330
4CA
100
AcDbEntity
  8
1
100
AcDbLine
 10
8.577375999999999
 20
-5.942905999999999
 30
0.0
 11
8.490833
 21
-5.687886999999999
 31
0.0
  0
LINE
  5
126
330
4CA
100
AcDbEntity
  8
1
100
AcDbLine
 10
12.491822
 20
6.677521
 30
0.0
 11
11.988265
 21
6.532543
 31
0.0
  0
LINE
  5
127
330
4CA
100
AcDbEntity
  8
1
100
AcDbLine
 10
11.988265
 20
6.532543
 30
0.0
 11
11.48392
 21
6.385880999999999
 31
0.0
  0
LINE
  5
128
330
4CA
100
AcDbEntity
  8
1
100
AcDbLine
 10
3.020272999999999
 20
5.284253999999999
 30
0.0
 11
2.915477999999999
 21
5.325446
 31
0.0
  0
LINE
  5
129
330
4CA
100
AcDbEntity
  8
1
100
AcDbLine
 10
11.48392
 20
6.385880999999999
 30
0.0
 11
10.979281
 21
6.237608999999999
 31
0.0
  0
LINE
  5
12A
330
4CA
100
AcDbEntity
  8
1
100
AcDbLine
 10
10.979281
 20
6.237608999999999
 30
0.0
 11
10.474511
 21
6.087774999999999
 31
0.0
  0
LINE
  5
12B
330
4CA
100
AcDbEntity
  8
1
100
AcDbLine
 10
10.474511
 20
6.087774999999999
 30
0.0
 11
9.969447999999999
 21
5.936396
 31
0.0
  0
LINE
  5
12C
330
4CA
100
AcDbEntity
  8
1
100
AcDbLine
 10
9.969447999999999
 20
5.936396
 30
0.0
 11
9.464089999999998
 21
5.783504999999999
 31
0.0
  0
LINE
  5
12D
330
4CA
100
AcDbEntity
  8
1
100
AcDbLine
 10
14.109467
 20
6.837308
 30
0.0
 11
13.595707
 21
6.690578999999999
 31
0.0
  0
LINE
  5
12E
330
4CA
100
AcDbEntity
  8
1
100
AcDbLine
 10
13.595707
 20
6.690578999999999
 30
0.0
 11
13.08121
 21
6.542201
 31
0.0
  0
LINE
  5
12F
330
4CA
100
AcDbEntity
  8
1
100
AcDbLine
 10
13.08121
 20
6.542201
 30
0.0
 11
12.565976
 21
6.392173999999999
 31
0.0
  0
LINE
  5
130
330
4CA
100
AcDbEntity
  8
1
100
AcDbLine
 10
6.312484999999999
 20
-7.47065
 30
0.0
 11
6.328424
 21
-7.430886
 31
0.0
  0
LINE
  5
131
330
4CA
100
AcDbEntity
  8
1
100
AcDbLine
 10
12.565976
 20
6.392173999999999
 30
0.0
 11
12.049819
 21
6.240444999999999
 31
0.0
  0
LINE
  5
132
330
4CA
100
AcDbEntity
  8
1
100
AcDbLine
 10
6.275476999999999
 20
10.980696
 30
0.0
 11
5.514019999999999
 21
11.011184
 31
0.0
  0
LINE
  5
133
330
4CA
100
AcDbEntity
  8
1
100
AcDbLine
 10
8.664089999999999
 20
3.383794999999999
 30
0.0
 11
7.968802
 21
5.38489
 31
0.0
  0
LINE
  5
134
330
4CA
100
AcDbEntity
  8
1
100
AcDbLine
 10
7.653910999999999
 20
-8.327246999999999
 30
0.0
 11
7.595714
 21
-8.337683999999999
 31
0.0
  0
LINE
  5
135
330
4CA
100
AcDbEntity
  8
1
100
AcDbLine
 10
12.256033
 20
1.090969999999999
 30
0.0
 11
11.802211
 21
0.9733139999999998
 31
0.0
  0
LINE
  5
136
330
4CA
100
AcDbEntity
  8
1
100
AcDbLine
 10
8.122192999999999
 20
0.513848
 30
0.0
 11
8.065001999999999
 21
0.5035970000000001
 31
0.0
  0
LINE
  5
137
330
4CA
100
AcDbEntity
  8
1
100
AcDbLine
 10
8.922577999999999
 20
9.715800999999999
 30
0.0
 11
8.778183
 21
9.706546000000001
 31
0.0
  0
LINE
  5
138
330
4CA
100
AcDbEntity
  8
1
100
AcDbLine
 10
8.778183
 20
9.706546000000001
 30
0.0
 11
8.632927
 21
9.698902
 31
0.0
  0
LINE
  5
139
330
4CA
100
AcDbEntity
  8
1
100
AcDbLine
 10
3.931269999999999
 20
2.112795999999999
 30
0.0
 11
3.810808999999999
 21
2.344845
 31
0.0
  0
LINE
  5
13A
330
4CA
100
AcDbEntity
  8
1
100
AcDbLine
 10
8.33985
 20
9.688487
 30
0.0
 11
8.191932000000001
 21
9.685646999999999
 31
0.0
  0
LINE
  5
13B
330
4CA
100
AcDbEntity
  8
1
100
AcDbLine
 10
2.915477999999999
 20
5.325446
 30
0.0
 11
2.814379
 21
5.369521999999999
 31
0.0
  0
LINE
  5
13C
330
4CA
100
AcDbEntity
  8
1
100
AcDbLine
 10
15.5
 20
-10.476079
 30
0.0
 11
15.5
 21
-5.145284999999999
 31
0.0
  0
LINE
  5
13D
330
4CA
100
AcDbEntity
  8
1
100
AcDbLine
 10
13.766232
 20
-8.645344999999998
 30
0.0
 11
13.6
 21
-8.782721999999999
 31
0.0
  0
LINE
  5
13E
330
4CA
100
AcDbEntity
  8
1
100
AcDbLine
 10
5.786319
 20
-8.315824
 30
0.0
 11
5.679339999999999
 21
-8.389537999999999
 31
0.0
  0
LINE
  5
13F
330
4CA
100
AcDbEntity
  8
1
100
AcDbLine
 10
13.027439
 20
-10.638901
 30
0.0
 11
13.595385
 21
-10.566691
 31
0.0
  0
LINE
  5
140
330
4CA
100
AcDbEntity
  8
1
100
AcDbLine
 10
12.189935
 20
-10.512479
 30
0.0
 11
11.47361
 21
-10.591882
 31
0.0
  0
LINE
  5
141
330
4CA
100
AcDbEntity
  8
1
100
AcDbLine
 10
10.886124
 20
-9.195475
 30
0.0
 11
10.424133
 21
-9.261072
 31
0.0
  0
LINE
  5
142
330
4CA
100
AcDbEntity
  8
1
100
AcDbLine
 10
9.492117
 20
-9.389459
 30
0.0
 11
9.350941999999999
 21
-9.407332
 31
0.0
  0
LINE
  5
143
330
4CA
100
AcDbEntity
  8
1
100
AcDbLine
 10
8.790503999999998
 20
-6.83971
 30
0.0
 11
8.781952
 21
-6.868394
 31
0.0
  0
LINE
  5
144
330
4CA
100
AcDbEntity
  8
1
100
AcDbLine
 10
7.537825999999999
 20
-8.346480999999998
 30
0.0
 11
7.480375
 21
-8.353635
 31
0.0
  0
LINE
  5
145
330
4CA
100
AcDbEntity
  8
1
100
AcDbLine
 10
6.674995
 20
-6.907102
 30
0.0
 11
6.718824999999999
 21
-6.862308
 31
0.0
  0
LINE
  5
146
330
4CA
100
AcDbEntity
  8
1
100
AcDbLine
 10
7.027311
 20
-6.611249
 30
0.0
 11
7.086177
 21
-6.573332
 31
0.0
  0
LINE
  5
147
330
4CA
100
AcDbEntity
  8
1
100
AcDbLine
 10
6.224757
 20
-7.969835
 30
0.0
 11
6.223708999999999
 21
-7.938486
 31
0.0
  0
LINE
  5
148
330
4CA
100
AcDbEntity
  8
1
100
AcDbLine
 10
6.226575
 20
-7.839988
 30
0.0
 11
6.229676
 21
-7.805822
 31
0.0
  0
LINE
  5
149
330
4CA
100
AcDbEntity
  8
1
100
AcDbLine
 10
6.364876999999999
 20
-7.350385
 30
0.0
 11
6.385407999999999
 21
-7.309667
 31
0.0
  0
LINE
  5
14A
330
4CA
100
AcDbEntity
  8
1
100
AcDbLine
 10
8.94613
 20
-7.499952
 30
0.0
 11
8.934103999999999
 21
-7.524339
 31
0.0
  0
LINE
  5
14B
330
4CA
100
AcDbEntity
  8
1
100
AcDbLine
 10
8.889628
 20
-7.600122999999999
 30
0.0
 11
8.871897999999999
 21
-7.626119999999999
 31
0.0
  0
LINE
  5
14C
330
4CA
100
AcDbEntity
  8
1
100
AcDbLine
 10
3.983991999999999
 20
5.060933999999999
 30
0.0
 11
3.852238999999999
 21
5.078293
 31
0.0
  0
LINE
  5
14D
330
4CA
100
AcDbEntity
  8
1
100
AcDbLine
 10
8.283853
 20
-8.106835
 30
0.0
 11
8.230821
 21
-8.133661999999999
 31
0.0
  0
LINE
  5
14E
330
4CA
100
AcDbEntity
  8
1
100
AcDbLine
 10
8.320154999999999
 20
-3.717551999999999
 30
0.0
 11
8.320113
 21
-3.812494
 31
0.0
  0
LINE
  5
14F
330
4CA
100
AcDbEntity
  8
1
100
AcDbLine
 10
8.970310000000001
 20
-7.109136999999999
 30
0.0
 11
8.977061
 21
-7.127197999999999
 31
0.0
  0
LINE
  5
150
330
4CA
100
AcDbEntity
  8
1
100
AcDbLine
 10
9.001072
 20
-7.252514999999999
 30
0.0
 11
9.001443
 21
-7.270734
 31
0.0
  0
LINE
  5
151
330
4CA
100
AcDbEntity
  8
1
100
AcDbLine
 10
8.995281
 20
-7.345482999999999
 30
0.0
 11
8.991792
 21
-7.364677
 31
0.0
  0
LINE
  5
152
330
4CA
100
AcDbEntity
  8
1
100
AcDbLine
 10
8.920694000000001
 20
0.794638
 30
0.0
 11
8.905888
 21
0.784559
 31
0.0
  0
LINE
  5
153
330
4CA
100
AcDbEntity
  8
1
100
AcDbLine
 10
3.253636999999999
 20
3.522226999999999
 30
0.0
 11
3.1516
 21
3.757303999999999
 31
0.0
  0
LINE
  5
154
330
4CA
100
AcDbEntity
  8
1
100
AcDbLine
 10
3.1516
 20
3.757303999999999
 30
0.0
 11
3.052723999999999
 21
3.991552999999999
 31
0.0
  0
LINE
  5
155
330
4CA
100
AcDbEntity
  8
1
100
AcDbLine
 10
8.432223999999999
 20
0.586785
 30
0.0
 11
8.385315
 21
0.573665
 31
0.0
  0
LINE
  5
156
330
4CA
100
AcDbEntity
  8
1
100
AcDbLine
 10
11.802211
 20
10.034752
 30
0.0
 11
11.345507
 21
9.984218999999999
 31
0.0
  0
LINE
  5
157
330
4CA
100
AcDbEntity
  8
1
100
AcDbLine
 10
8.232414999999999
 20
0.536222
 30
0.0
 11
8.178015
 21
0.5247260000000001
 31
0.0
  0
LINE
  5
158
330
4CA
100
AcDbEntity
  8
1
100
AcDbLine
 10
7.655183
 20
0.4557000000000001
 30
0.0
 11
7.596938999999999
 21
0.4522470000000001
 31
0.0
  0
LINE
  5
159
330
4CA
100
AcDbEntity
  8
1
100
AcDbLine
 10
7.424477
 20
0.446483
 30
0.0
 11
7.367963999999999
 21
0.446
 31
0.0
  0
LINE
  5
15A
330
4CA
100
AcDbEntity
  8
1
100
AcDbLine
 10
9.524044999999999
 20
-10.993628
 30
0.0
 11
10.119243
 21
-10.943998
 31
0.0
  0
LINE
  5
15B
330
4CA
100
AcDbEntity
  8
1
100
AcDbLine
 10
6.566300999999999
 20
0.508526
 30
0.0
 11
6.524081999999999
 21
0.515297
 31
0.0
  0
LINE
  5
15C
330
4CA
100
AcDbEntity
  8
1
100
AcDbLine
 10
7.178863
 20
1.525965
 30
0.0
 11
7.240049
 21
1.540305
 31
0.0
  0
LINE
  5
15D
330
4CA
100
AcDbEntity
  8
1
100
AcDbLine
 10
6.345876
 20
1.052567999999999
 30
0.0
 11
6.364876999999999
 21
1.078355999999999
 31
0.0
  0
LINE
  5
15E
330
4CA
100
AcDbEntity
  8
1
100
AcDbLine
 10
5.07444
 20
0.6896620000000001
 30
0.0
 11
4.980267999999999
 21
0.7113300000000001
 31
0.0
  0
LINE
  5
15F
330
4CA
100
AcDbEntity
  8
1
100
AcDbLine
 10
9.009933999999999
 20
-5.334716999999999
 30
0.0
 11
9.090246
 21
-5.411712
 31
0.0
  0
LINE
  5
160
330
4CA
100
AcDbEntity
  8
1
100
AcDbLine
 10
8.991792
 20
0.862066
 30
0.0
 11
8.987090999999999
 21
0.854981
 31
0.0
  0
LINE
  5
161
330
4CA
100
AcDbEntity
  8
1
100
AcDbLine
 10
11.532925
 20
6.087069
 30
0.0
 11
11.01585
 21
5.932205
 31
0.0
  0
LINE
  5
162
330
4CA
100
AcDbEntity
  8
1
100
AcDbLine
 10
13.945349
 20
-3.995464
 30
0.0
 11
13.895257
 21
-3.712712999999999
 31
0.0
  0
LINE
  5
163
330
4CA
100
AcDbEntity
  8
1
100
AcDbLine
 10
13.997407
 20
-4.282547
 30
0.0
 11
14.014685
 21
-4.333395999999999
 31
0.0
  0
LINE
  5
164
330
4CA
100
AcDbEntity
  8
1
100
AcDbLine
 10
14.089392
 20
-4.537854
 30
0.0
 11
14.109467
 21
-4.589233999999999
 31
0.0
  0
LINE
  5
165
330
4CA
100
AcDbEntity
  8
1
100
AcDbLine
 10
15.0
 20
-8.017660000000001
 30
0.0
 11
15.5
 21
-8.017660000000001
 31
0.0
  0
LINE
  5
166
330
4CA
100
AcDbEntity
  8
1
100
AcDbLine
 10
4.749411
 20
6.255787
 30
0.0
 11
3.984757
 21
6.032162999999999
 31
0.0
  0
LINE
  5
167
330
4CA
100
AcDbEntity
  8
1
100
AcDbLine
 10
12.994426
 20
6.820767
 30
0.0
 11
12.491822
 21
6.677521
 31
0.0
  0
LINE
  5
168
330
4CA
100
AcDbEntity
  8
1
100
AcDbLine
 10
8.962567999999999
 20
0.9352809999999999
 30
0.0
 11
8.970278
 21
0.9316540000000001
 31
0.0
  0
LINE
  5
169
330
4CA
100
AcDbEntity
  8
1
100
AcDbLine
 10
9.981524999999999
 20
5.618125
 30
0.0
 11
9.464089999999998
 21
5.458855
 31
0.0
  0
LINE
  5
16A
330
4CA
100
AcDbEntity
  8
1
100
AcDbLine
 10
9.066163000000001
 20
9.726753999999999
 30
0.0
 11
8.922577999999999
 21
9.715800999999999
 31
0.0
  0
LINE
  5
16B
330
4CA
100
AcDbEntity
  8
1
100
AcDbLine
 10
8.191932000000001
 20
9.685646999999999
 30
0.0
 11
8.043172999999999
 21
9.68435
 31
0.0
  0
LINE
  5
16C
330
4CA
100
AcDbEntity
  8
1
100
AcDbLine
 10
8.320154999999999
 20
7.363842999999999
 30
0.0
 11
8.320114
 21
7.287258999999999
 31
0.0
  0
LINE
  5
16D
330
4CA
100
AcDbEntity
  8
1
100
AcDbLine
 10
15.5
 20
5.460865
 30
0.0
 11
15.5
 21
10.476079
 31
0.0
  0
LINE
  5
16E
330
4CA
100
AcDbEntity
  8
1
100
AcDbLine
 10
13.6
 20
10.224415
 30
0.0
 11
13.6
 21
8.709353
 31
0.0
  0
LINE
  5
16F
330
4CA
100
AcDbEntity
  8
1
100
AcDbLine
 10
15.0
 20
9.686230999999999
 30
0.0
 11
14.854813
 21
9.744324999999999
 31
0.0
  0
LINE
  5
170
330
4CA
100
AcDbEntity
  8
1
100
AcDbLine
 10
14.854813
 20
9.744324999999999
 30
0.0
 11
14.707072
 21
9.802835999999999
 31
0.0
  0
LINE
  5
171
330
4CA
100
AcDbEntity
  8
1
100
AcDbLine
 10
6.793167999999999
 20
0.47817
 30
0.0
 11
6.745775
 21
0.483685
 31
0.0
  0
LINE
  5
172
330
4CA
100
AcDbEntity
  8
1
100
AcDbLine
 10
14.556777
 20
9.861760999999999
 30
0.0
 11
14.403981
 21
9.921089999999999
 31
0.0
  0
LINE
  5
173
330
4CA
100
AcDbEntity
  8
1
100
AcDbLine
 10
15.0
 20
2.850768
 30
0.0
 11
8.885066999999999
 21
0.9928969999999999
 31
0.0
  0
LINE
  5
174
330
4CA
100
AcDbEntity
  8
1
100
AcDbLine
 10
14.403981
 20
9.921089999999999
 30
0.0
 11
14.248631
 21
9.980835
 31
0.0
  0
LINE
  5
175
330
4CA
100
AcDbEntity
  8
1
100
AcDbLine
 10
14.248631
 20
9.980835
 30
0.0
 11
14.090573
 21
10.041036
 31
0.0
  0
LINE
  5
176
330
4CA
100
AcDbEntity
  8
1
100
AcDbLine
 10
14.090573
 20
10.041036
 30
0.0
 11
13.929757
 21
10.101706
 31
0.0
  0
LINE
  5
177
330
4CA
100
AcDbEntity
  8
1
100
AcDbLine
 10
13.929757
 20
10.101706
 30
0.0
 11
13.766232
 21
10.162832
 31
0.0
  0
LINE
  5
178
330
4CA
100
AcDbEntity
  8
1
100
AcDbLine
 10
13.766232
 20
10.162832
 30
0.0
 11
13.6
 21
10.224415
 31
0.0
  0
LINE
  5
179
330
4CA
100
AcDbEntity
  8
1
100
AcDbLine
 10
13.997261
 20
7.101653999999999
 30
0.0
 11
13.945349
 21
7.293841
 31
0.0
  0
LINE
  5
17A
330
4CA
100
AcDbEntity
  8
1
100
AcDbLine
 10
13.945349
 20
7.293841
 30
0.0
 11
13.895257
 21
7.482636
 31
0.0
  0
LINE
  5
17B
330
4CA
100
AcDbEntity
  8
1
100
AcDbLine
 10
13.895257
 20
7.482636
 30
0.0
 11
13.846986
 21
7.668039999999999
 31
0.0
  0
LINE
  5
17C
330
4CA
100
AcDbEntity
  8
1
100
AcDbLine
 10
13.846986
 20
7.668039999999999
 30
0.0
 11
13.800542
 21
7.850047999999999
 31
0.0
  0
LINE
  5
17D
330
4CA
100
AcDbEntity
  8
1
100
AcDbLine
 10
8.905886999999999
 20
-7.574486
 30
0.0
 11
8.889628
 21
-7.600122999999999
 31
0.0
  0
LINE
  5
17E
330
4CA
100
AcDbEntity
  8
1
100
AcDbLine
 10
13.800542
 20
7.850047999999999
 30
0.0
 11
13.755918
 21
8.028665
 31
0.0
  0
LINE
  5
17F
330
4CA
100
AcDbEntity
  8
1
100
AcDbLine
 10
13.755918
 20
8.028665
 30
0.0
 11
13.713092
 21
8.203903
 31
0.0
  0
LINE
  5
180
330
4CA
100
AcDbEntity
  8
1
100
AcDbLine
 10
13.713092
 20
8.203903
 30
0.0
 11
13.672058
 21
8.375766
 31
0.0
  0
LINE
  5
181
330
4CA
100
AcDbEntity
  8
1
100
AcDbLine
 10
8.486819
 20
9.692877000000001
 30
0.0
 11
8.33985
 21
9.688487
 31
0.0
  0
LINE
  5
182
330
4CA
100
AcDbEntity
  8
1
100
AcDbLine
 10
13.672058
 20
8.375766
 30
0.0
 11
13.632823
 21
8.544249
 31
0.0
  0
LINE
  5
183
330
4CA
100
AcDbEntity
  8
1
100
AcDbLine
 10
5.368651999999999
 20
0.635655
 30
0.0
 11
5.268682
 21
0.651814
 31
0.0
  0
LINE
  5
184
330
4CA
100
AcDbEntity
  8
1
100
AcDbLine
 10
13.997407
 20
7.101647999999999
 30
0.0
 11
14.014679
 21
7.058461999999999
 31
0.0
  0
LINE
  5
185
330
4CA
100
AcDbEntity
  8
1
100
AcDbLine
 10
14.014679
 20
7.058461999999999
 30
0.0
 11
14.032513
 21
7.014927
 31
0.0
  0
LINE
  5
186
330
4CA
100
AcDbEntity
  8
1
100
AcDbLine
 10
14.032513
 20
7.014927
 30
0.0
 11
14.050909
 21
6.971044999999999
 31
0.0
  0
LINE
  5
187
330
4CA
100
AcDbEntity
  8
1
100
AcDbLine
 10
10.119243
 20
7.841791999999999
 30
0.0
 11
10.709967
 21
7.994535
 31
0.0
  0
LINE
  5
188
330
4CA
100
AcDbEntity
  8
1
100
AcDbLine
 10
14.050909
 20
6.971044999999999
 30
0.0
 11
14.069866
 21
6.926814999999999
 31
0.0
  0
LINE
  5
189
330
4CA
100
AcDbEntity
  8
1
100
AcDbLine
 10
14.014685
 20
-4.333395999999999
 30
0.0
 11
14.032523
 21
-4.384351
 31
0.0
  0
LINE
  5
18A
330
4CA
100
AcDbEntity
  8
1
100
AcDbLine
 10
14.069866
 20
6.926814999999999
 30
0.0
 11
14.089386
 21
6.882235999999999
 31
0.0
  0
LINE
  5
18B
330
4CA
100
AcDbEntity
  8
1
100
AcDbLine
 10
14.032523
 20
-4.384351
 30
0.0
 11
14.05092
 21
-4.435412
 31
0.0
  0
LINE
  5
18C
330
4CA
100
AcDbEntity
  8
1
100
AcDbLine
 10
14.089386
 20
6.882235999999999
 30
0.0
 11
14.109467
 21
6.837308
 31
0.0
  0
LINE
  5
18D
330
4CA
100
AcDbEntity
  8
1
100
AcDbLine
 10
14.05092
 20
-4.435412
 30
0.0
 11
14.069877
 21
-4.486578999999999
 31
0.0
  0
LINE
  5
18E
330
4CA
100
AcDbEntity
  8
1
100
AcDbLine
 10
15.5
 20
4.207984999999999
 30
0.0
 11
15.0
 21
4.541248
 31
0.0
  0
LINE
  5
18F
330
4CA
100
AcDbEntity
  8
1
100
AcDbLine
 10
14.069877
 20
-4.486578999999999
 30
0.0
 11
14.089392
 21
-4.537854
 31
0.0
  0
LINE
  5
190
330
4CA
100
AcDbEntity
  8
1
100
AcDbLine
 10
15.5
 20
8.637139999999998
 30
0.0
 11
13.595385
 21
8.709353
 31
0.0
  0
LINE
  5
191
330
4CA
100
AcDbEntity
  8
1
100
AcDbLine
 10
13.997261
 20
7.101653999999999
 30
0.0
 11
15.5
 21
7.044675999999999
 31
0.0
  0
LINE
  5
192
330
4CA
100
AcDbEntity
  8
1
100
AcDbLine
 10
15.5
 20
-3.691492999999999
 30
0.0
 11
14.109467
 21
-4.589233999999999
 31
0.0
  0
LINE
  5
193
330
4CA
100
AcDbEntity
  8
1
100
AcDbLine
 10
15.5
 20
6.784585
 30
0.0
 11
14.109467
 21
6.837308
 31
0.0
  0
LINE
  5
194
330
4CA
100
AcDbEntity
  8
1
100
AcDbLine
 10
13.997261
 20
-4.282640999999999
 30
0.0
 11
15.5
 21
-3.312458999999999
 31
0.0
  0
LINE
  5
195
330
4CA
100
AcDbEntity
  8
1
100
AcDbLine
 10
15.5
 20
10.476079
 30
0.0
 11
15.5
 21
10.691707
 31
0.0
  0
LINE
  5
196
330
4CA
100
AcDbEntity
  8
1
100
AcDbLine
 10
15.0
 20
-4.988979
 30
0.0
 11
15.5
 21
-5.145284999999999
 31
0.0
  0
LINE
  5
197
330
4CA
100
AcDbEntity
  8
1
100
AcDbLine
 10
15.5
 20
10.691707
 30
0.0
 11
14.1
 21
11.499998
 31
0.0
  0
LINE
  5
198
330
4CA
100
AcDbEntity
  8
1
100
AcDbLine
 10
15.0
 20
-7.265150999999999
 30
0.0
 11
15.5
 21
-7.421457000000001
 31
0.0
  0
LINE
  5
199
330
4CA
100
AcDbEntity
  8
1
100
AcDbLine
 10
14.1
 20
11.499998
 30
0.0
 11
15.5
 21
10.691707
 31
0.0
  0
LINE
  5
19A
330
4CA
100
AcDbEntity
  8
1
100
AcDbLine
 10
15.0
 20
-7.603874
 30
0.0
 11
15.5
 21
-7.76018
 31
0.0
  0
LINE
  5
19B
330
4CA
100
AcDbEntity
  8
1
100
AcDbLine
 10
8.176414999999998
 20
-8.159430999999999
 30
0.0
 11
8.120606
 21
-8.184088
 31
0.0
  0
LINE
  5
19C
330
4CA
100
AcDbEntity
  8
1
100
AcDbLine
 10
15.0
 20
-7.828636999999999
 30
0.0
 11
15.5
 21
-7.828636999999999
 31
0.0
  0
LINE
  5
19D
330
4CA
100
AcDbEntity
  8
1
100
AcDbLine
 10
9.477762
 20
-11.499998
 30
0.0
 11
14.002002
 21
-11.499998
 31
0.0
  0
LINE
  5
19E
330
4CA
100
AcDbEntity
  8
1
100
AcDbLine
 10
8.063447999999999
 20
-8.207553
 30
0.0
 11
8.005686999999999
 21
-8.229502999999999
 31
0.0
  0
LINE
  5
19F
330
4CA
100
AcDbEntity
  8
1
100
AcDbLine
 10
8.005686999999999
 20
-8.229502999999999
 30
0.0
 11
7.947455999999999
 21
-8.249888999999999
 31
0.0
  0
LINE
  5
1A0
330
4CA
100
AcDbEntity
  8
1
100
AcDbLine
 10
8.816435
 20
-6.662816
 30
0.0
 11
8.816208999999998
 21
-6.685569999999999
 31
0.0
  0
LINE
  5
1A1
330
4CA
100
AcDbEntity
  8
SK1
100
AcDbLine
 10
-12.35
 20
-5.856749999999999
 30
0.0
 11
-9.349999999999999
 21
-5.856749999999999
 31
0.0
  0
LINE
  5
1A2
330
4CA
100
AcDbEntity
  8
SK1
100
AcDbLine
 10
-12.35
 20
5.856748999999999
 30
0.0
 11
-9.349999999999999
 21
5.856748999999999
 31
0.0
  0
LINE
  5
1A3
330
4CA
100
AcDbEntity
  8
SK1
100
AcDbLine
 10
-12.35
 20
5.856748999999999
 30
0.0
 11
-12.35
 21
-5.856749999999999
 31
0.0
  0
LINE
  5
1A4
330
4CA
100
AcDbEntity
  8
SK1
100
AcDbLine
 10
-9.349999999999999
 20
-6.356748999999999
 30
0.0
 11
0.0
 21
-7.174174
 31
0.0
  0
LINE
  5
1A5
330
4CA
100
AcDbEntity
  8
1
100
AcDbLine
 10
6.229841
 20
-8.030293999999999
 30
0.0
 11
6.116731999999999
 21
-8.100205
 31
0.0
  0
LINE
  5
1A6
330
4CA
100
AcDbEntity
  8
SK1
100
AcDbLine
 10
-9.349999999999999
 20
6.356748999999999
 30
0.0
 11
0.0
 21
7.174174
 31
0.0
  0
LINE
  5
1A7
330
4CA
100
AcDbEntity
  8
SK1
100
AcDbLine
 10
-9.349999999999999
 20
6.356748999999999
 30
0.0
 11
-9.349999999999999
 21
-6.356748999999999
 31
0.0
  0
LINE
  5
1A8
330
4CA
100
AcDbEntity
  8
80
100
AcDbLine
 10
0.0
 20
0.0
 30
0.0
 11
-11.35
 21
0.0
 31
0.0
  0
LINE
  5
1A9
330
4CA
100
AcDbEntity
  8
1
100
AcDbLine
 10
4.309896
 20
-8.788836999999999
 30
0.0
 11
4.181117999999999
 21
-8.649755
 31
0.0
  0
LINE
  5
1AA
330
4CA
100
AcDbEntity
  8
1
100
AcDbLine
 10
3.467299999999999
 20
-7.689224
 30
0.0
 11
3.358896
 21
-7.509827
 31
0.0
  0
LINE
  5
1AB
330
4CA
100
AcDbEntity
  8
1
100
AcDbLine
 10
3.052734999999999
 20
-6.944453
 30
0.0
 11
2.956995999999999
 21
-6.747530999999999
 31
0.0
  0
LINE
  5
1AC
330
4CA
100
AcDbEntity
  8
1
100
AcDbLine
 10
2.956995999999999
 20
-6.747530999999999
 30
0.0
 11
2.864338999999999
 21
-6.546650999999999
 31
0.0
  0
LINE
  5
1AD
330
4CA
100
AcDbEntity
  8
1
100
AcDbLine
 10
2.864338999999999
 20
-6.546650999999999
 30
0.0
 11
2.774820999999999
 21
-6.341949999999999
 31
0.0
  0
LINE
  5
1AE
330
4CA
100
AcDbEntity
  8
1
100
AcDbLine
 10
2.774820999999999
 20
-6.341949999999999
 30
0.0
 11
2.68859
 21
-6.134198999999999
 31
0.0
  0
LINE
  5
1AF
330
4CA
100
AcDbEntity
  8
1
100
AcDbLine
 10
8.536847999999999
 20
1.531023
 30
0.0
 11
8.560969
 21
1.52076
 31
0.0
  0
LINE
  5
1B0
330
4CA
100
AcDbEntity
  8
1
100
AcDbLine
 10
2.68859
 20
-6.134198999999999
 30
0.0
 11
2.605693999999999
 21
-5.923748
 31
0.0
  0
LINE
  5
1B1
330
4CA
100
AcDbEntity
  8
1
100
AcDbLine
 10
2.605693999999999
 20
-5.923748
 30
0.0
 11
2.526083999999999
 21
-5.71049
 31
0.0
  0
LINE
  5
1B2
330
4CA
100
AcDbEntity
  8
1
100
AcDbLine
 10
2.526083999999999
 20
-5.71049
 30
0.0
 11
2.449761
 21
-5.494545999999999
 31
0.0
  0
LINE
  5
1B3
330
4CA
100
AcDbEntity
  8
1
100
AcDbLine
 10
8.535833
 20
-10.851058
 30
0.0
 11
7.786382999999999
 21
-10.900632
 31
0.0
  0
LINE
  5
1B4
330
4CA
100
AcDbEntity
  8
1
100
AcDbLine
 10
3.052723999999999
 20
3.991552999999999
 30
0.0
 11
2.956986999999999
 21
4.224268
 31
0.0
  0
LINE
  5
1B5
330
4CA
100
AcDbEntity
  8
1
100
AcDbLine
 10
7.786382999999999
 20
-10.900632
 30
0.0
 11
7.032944
 21
-10.943855
 31
0.0
  0
LINE
  5
1B6
330
4CA
100
AcDbEntity
  8
1
100
AcDbLine
 10
2.956986999999999
 20
4.224268
 30
0.0
 11
2.864333999999999
 21
4.455379999999999
 31
0.0
  0
LINE
  5
1B7
330
4CA
100
AcDbEntity
  8
1
100
AcDbLine
 10
7.032944
 20
-10.943855
 30
0.0
 11
6.275476999999999
 21
-10.980696
 31
0.0
  0
LINE
  5
1B8
330
4CA
100
AcDbEntity
  8
1
100
AcDbLine
 10
6.275476999999999
 20
-10.980696
 30
0.0
 11
5.514019999999999
 21
-11.011184
 31
0.0
  0
LINE
  5
1B9
330
4CA
100
AcDbEntity
  8
1
100
AcDbLine
 10
5.514019999999999
 20
-11.011184
 30
0.0
 11
4.750524999999999
 21
-11.035172
 31
0.0
  0
LINE
  5
1BA
330
4CA
100
AcDbEntity
  8
1
100
AcDbLine
 10
4.750524999999999
 20
-11.035172
 30
0.0
 11
3.985641999999999
 21
-11.052609
 31
0.0
  0
LINE
  5
1BB
330
4CA
100
AcDbEntity
  8
1
100
AcDbLine
 10
3.985641999999999
 20
-11.052609
 30
0.0
 11
3.218720999999999
 21
-11.063544
 31
0.0
  0
LINE
  5
1BC
330
4CA
100
AcDbEntity
  8
1
100
AcDbLine
 10
7.595714
 20
-8.337683999999999
 30
0.0
 11
7.537825999999999
 21
-8.346480999999998
 31
0.0
  0
LINE
  5
1BD
330
4CA
100
AcDbEntity
  8
1
100
AcDbLine
 10
6.116731999999999
 20
0.5747970000000001
 30
0.0
 11
6.005071
 21
0.577857
 31
0.0
  0
LINE
  5
1BE
330
4CA
100
AcDbEntity
  8
1
100
AcDbLine
 10
2.463413
 20
-11.068073
 30
0.0
 11
2.449761
 21
-11.067979
 31
0.0
  0
LINE
  5
1BF
330
4CA
100
AcDbEntity
  8
1
100
AcDbLine
 10
0.0
 20
-11.068073
 30
0.0
 11
2.463413
 21
-11.068073
 31
0.0
  0
LINE
  5
1C0
330
4CA
100
AcDbEntity
  8
1
100
AcDbLine
 10
2.469022999999999
 20
-11.067868
 30
0.0
 11
2.463413
 21
-11.068073
 31
0.0
  0
LINE
  5
1C1
330
4CA
100
AcDbEntity
  8
1
100
AcDbLine
 10
7.086177
 20
-6.573332
 30
0.0
 11
7.147083
 21
-6.536748
 31
0.0
  0
LINE
  5
1C2
330
4CA
100
AcDbEntity
  8
1
100
AcDbLine
 10
6.566022
 20
-8.233081
 30
0.0
 11
6.523841
 21
-8.214375999999999
 31
0.0
  0
LINE
  5
1C3
330
4CA
100
AcDbEntity
  8
1
100
AcDbLine
 10
4.054739999999999
 20
-8.504072999999999
 30
0.0
 11
3.931264
 21
-8.352567
 31
0.0
  0
LINE
  5
1C4
330
4CA
100
AcDbEntity
  8
1
100
AcDbLine
 10
6.718824999999999
 20
-6.862308
 30
0.0
 11
6.764855
 21
-6.818204999999999
 31
0.0
  0
LINE
  5
1C5
330
4CA
100
AcDbEntity
  8
1
100
AcDbLine
 10
8.999962
 20
0.9015479999999998
 30
0.0
 11
9.001071000000001
 21
0.896536
 31
0.0
  0
LINE
  5
1C6
330
4CA
100
AcDbEntity
  8
1
100
AcDbLine
 10
8.043172999999999
 20
9.68435
 30
0.0
 11
7.893464999999999
 21
9.684610000000001
 31
0.0
  0
LINE
  5
1C7
330
4CA
100
AcDbEntity
  8
1
100
AcDbLine
 10
7.742407
 20
9.686361999999999
 30
0.0
 11
7.589955
 21
9.689589999999999
 31
0.0
  0
LINE
  5
1C8
330
4CA
100
AcDbEntity
  8
1
100
AcDbLine
 10
11.345507
 20
0.8552939999999999
 30
0.0
 11
10.886124
 21
0.7369710000000001
 31
0.0
  0
LINE
  5
1C9
330
4CA
100
AcDbEntity
  8
1
100
AcDbLine
 10
7.589955
 20
9.689589999999999
 30
0.0
 11
7.436153
 21
9.694302999999999
 31
0.0
  0
LINE
  5
1CA
330
4CA
100
AcDbEntity
  8
1
100
AcDbLine
 10
8.781952
 20
0.9626229999999999
 30
0.0
 11
8.804304
 21
0.961627
 31
0.0
  0
LINE
  5
1CB
330
4CA
100
AcDbEntity
  8
1
100
AcDbLine
 10
5.448405999999999
 20
0.572912
 30
0.0
 11
5.268044
 21
0.6218080000000001
 31
0.0
  0
LINE
  5
1CC
330
4CA
100
AcDbEntity
  8
1
100
AcDbLine
 10
7.147678999999999
 20
-8.363566999999999
 30
0.0
 11
7.094572999999999
 21
-8.359980999999999
 31
0.0
  0
LINE
  5
1CD
330
4CA
100
AcDbEntity
  8
1
100
AcDbLine
 10
7.280732
 20
9.700461999999999
 30
0.0
 11
7.123663
 21
9.708053999999998
 31
0.0
  0
LINE
  5
1CE
330
4CA
100
AcDbEntity
  8
1
100
AcDbLine
 10
7.123663
 20
9.708053999999998
 30
0.0
 11
6.964974
 21
9.717072999999999
 31
0.0
  0
LINE
  5
1CF
330
4CA
100
AcDbEntity
  8
1
100
AcDbLine
 10
4.054755999999999
 20
1.882854999999999
 30
0.0
 11
3.931269999999999
 21
2.112795999999999
 31
0.0
  0
LINE
  5
1D0
330
4CA
100
AcDbEntity
  8
1
100
AcDbLine
 10
6.964974
 20
9.717072999999999
 30
0.0
 11
6.804486999999999
 21
9.727486999999999
 31
0.0
  0
LINE
  5
1D1
330
4CA
100
AcDbEntity
  8
1
100
AcDbLine
 10
6.804486999999999
 20
9.727486999999999
 30
0.0
 11
6.642225999999999
 21
9.739277000000001
 31
0.0
  0
LINE
  5
1D2
330
4CA
100
AcDbEntity
  8
1
100
AcDbLine
 10
6.642225999999999
 20
9.739277000000001
 30
0.0
 11
6.478166
 21
9.752428999999999
 31
0.0
  0
LINE
  5
1D3
330
4CA
100
AcDbEntity
  8
1
100
AcDbLine
 10
6.478166
 20
9.752428999999999
 30
0.0
 11
6.312053999999999
 21
9.766923
 31
0.0
  0
LINE
  5
1D4
330
4CA
100
AcDbEntity
  8
1
100
AcDbLine
 10
6.312053999999999
 20
9.766923
 30
0.0
 11
6.143943
 21
9.78273
 31
0.0
  0
LINE
  5
1D5
330
4CA
100
AcDbEntity
  8
1
100
AcDbLine
 10
6.364876999999999
 20
1.078355999999999
 30
0.0
 11
6.385407999999999
 21
1.103939
 31
0.0
  0
LINE
  5
1D6
330
4CA
100
AcDbEntity
  8
1
100
AcDbLine
 10
12.706905
 20
-8.923835999999999
 30
0.0
 11
12.256033
 21
-8.993069999999999
 31
0.0
  0
LINE
  5
1D7
330
4CA
100
AcDbEntity
  8
1
100
AcDbLine
 10
5.973780999999999
 20
9.799832999999999
 30
0.0
 11
5.801150999999999
 21
9.818239
 31
0.0
  0
LINE
  5
1D8
330
4CA
100
AcDbEntity
  8
1
100
AcDbLine
 10
5.801150999999999
 20
9.818239
 30
0.0
 11
5.626012
 21
9.837918
 31
0.0
  0
LINE
  5
1D9
330
4CA
100
AcDbEntity
  8
1
100
AcDbLine
 10
5.626012
 20
9.837918
 30
0.0
 11
5.448405999999999
 21
9.858838999999999
 31
0.0
  0
LINE
  5
1DA
330
4CA
100
AcDbEntity
  8
1
100
AcDbLine
 10
7.891547999999999
 20
11.026039
 30
0.0
 11
7.891547999999999
 21
9.684632999999999
 31
0.0
  0
LINE
  5
1DB
330
4CA
100
AcDbEntity
  8
1
100
AcDbLine
 10
6.458130999999999
 20
1.180674999999999
 30
0.0
 11
6.486854
 21
1.206102
 31
0.0
  0
LINE
  5
1DC
330
4CA
100
AcDbEntity
  8
1
100
AcDbLine
 10
6.486854
 20
1.206102
 30
0.0
 11
6.492655
 21
1.210996999999999
 31
0.0
  0
LINE
  5
1DD
330
4CA
100
AcDbEntity
  8
1
100
AcDbLine
 10
4.803494999999999
 20
0.7580930000000001
 30
0.0
 11
4.710124999999999
 21
0.787176
 31
0.0
  0
LINE
  5
1DE
330
4CA
100
AcDbEntity
  8
1
100
AcDbLine
 10
6.229841
 20
0.5736220000000002
 30
0.0
 11
6.116731999999999
 21
0.5747970000000001
 31
0.0
  0
LINE
  5
1DF
330
4CA
100
AcDbEntity
  8
1
100
AcDbLine
 10
7.914369999999999
 20
5.614167
 30
0.0
 11
7.391547999999999
 21
5.455309999999999
 31
0.0
  0
LINE
  5
1E0
330
4CA
100
AcDbEntity
  8
1
100
AcDbLine
 10
4.710124999999999
 20
9.954547999999999
 30
0.0
 11
4.443291999999999
 21
10.132264
 31
0.0
  0
LINE
  5
1E1
330
4CA
100
AcDbEntity
  8
1
100
AcDbLine
 10
4.185623999999999
 20
10.302155
 30
0.0
 11
4.060205
 21
10.383446
 31
0.0
  0
LINE
  5
1E2
330
4CA
100
AcDbEntity
  8
1
100
AcDbLine
 10
5.786319
 20
0.5896270000000001
 30
0.0
 11
5.679339999999999
 21
0.59833
 31
0.0
  0
LINE
  5
1E3
330
4CA
100
AcDbEntity
  8
1
100
AcDbLine
 10
5.679339999999999
 20
0.59833
 30
0.0
 11
5.574033999999999
 21
0.6089060000000001
 31
0.0
  0
LINE
  5
1E4
330
4CA
100
AcDbEntity
  8
1
100
AcDbLine
 10
6.385407999999999
 20
1.103939
 30
0.0
 11
6.407479
 21
1.129334
 31
0.0
  0
LINE
  5
1E5
330
4CA
100
AcDbEntity
  8
1
100
AcDbLine
 10
8.490833
 20
5.624136
 30
0.0
 11
8.404460999999999
 21
5.863144
 31
0.0
  0
LINE
  5
1E6
330
4CA
100
AcDbEntity
  8
1
100
AcDbLine
 10
8.318196999999999
 20
6.098194
 30
0.0
 11
8.232103999999999
 21
6.329115999999999
 31
0.0
  0
LINE
  5
1E7
330
4CA
100
AcDbEntity
  8
1
100
AcDbLine
 10
8.232103999999999
 20
6.329115999999999
 30
0.0
 11
8.146373999999999
 21
6.555403
 31
0.0
  0
LINE
  5
1E8
330
4CA
100
AcDbEntity
  8
1
100
AcDbLine
 10
8.146373999999999
 20
6.555403
 30
0.0
 11
8.061068999999999
 21
6.776882999999999
 31
0.0
  0
LINE
  5
1E9
330
4CA
100
AcDbEntity
  8
1
100
AcDbLine
 10
7.042205
 20
-8.354979
 30
0.0
 11
6.990624999999999
 21
-8.348580999999999
 31
0.0
  0
LINE
  5
1EA
330
4CA
100
AcDbEntity
  8
1
100
AcDbLine
 10
7.976126999999999
 20
6.993725999999999
 30
0.0
 11
7.891547999999999
 21
7.205934
 31
0.0
  0
LINE
  5
1EB
330
4CA
100
AcDbEntity
  8
1
100
AcDbLine
 10
9.464089999999998
 20
5.783504999999999
 30
0.0
 11
9.464089999999998
 21
5.458855
 31
0.0
  0
LINE
  5
1EC
330
4CA
100
AcDbEntity
  8
1
100
AcDbLine
 10
6.889986
 20
-8.331741
 30
0.0
 11
6.840921
 21
-8.321341
 31
0.0
  0
LINE
  5
1ED
330
4CA
100
AcDbEntity
  8
1
100
AcDbLine
 10
6.840921
 20
-8.321341
 30
0.0
 11
6.792683
 21
-8.309647
 31
0.0
  0
LINE
  5
1EE
330
4CA
100
AcDbEntity
  8
1
100
AcDbLine
 10
6.792683
 20
-8.309647
 30
0.0
 11
6.745333999999999
 21
-8.296700999999998
 31
0.0
  0
LINE
  5
1EF
330
4CA
100
AcDbEntity
  8
1
100
AcDbLine
 10
6.745333999999999
 20
-8.296700999999998
 30
0.0
 11
6.698960999999999
 21
-8.282533
 31
0.0
  0
LINE
  5
1F0
330
4CA
100
AcDbEntity
  8
1
100
AcDbLine
 10
6.698960999999999
 20
-8.282533
 30
0.0
 11
6.653608999999999
 21
-8.267186
 31
0.0
  0
LINE
  5
1F1
330
4CA
100
AcDbEntity
  8
1
100
AcDbLine
 10
6.653608999999999
 20
-8.267186
 30
0.0
 11
6.609285
 21
-8.250697
 31
0.0
  0
LINE
  5
1F2
330
4CA
100
AcDbEntity
  8
1
100
AcDbLine
 10
6.609285
 20
-8.250697
 30
0.0
 11
6.566022
 21
-8.233081
 31
0.0
  0
LINE
  5
1F3
330
4CA
100
AcDbEntity
  8
1
100
AcDbLine
 10
6.523841
 20
-8.214375999999999
 30
0.0
 11
6.482769999999999
 21
-8.194622999999999
 31
0.0
  0
LINE
  5
1F4
330
4CA
100
AcDbEntity
  8
1
100
AcDbLine
 10
7.031997
 20
-4.040208999999999
 30
0.0
 11
6.274421
 21
-4.288815
 31
0.0
  0
LINE
  5
1F5
330
4CA
100
AcDbEntity
  8
1
100
AcDbLine
 10
6.442854
 20
-8.173844
 30
0.0
 11
6.404087
 21
-8.15206
 31
0.0
  0
LINE
  5
1F6
330
4CA
100
AcDbEntity
  8
1
100
AcDbLine
 10
6.404087
 20
-8.15206
 30
0.0
 11
6.366520999999999
 21
-8.129332000000001
 31
0.0
  0
LINE
  5
1F7
330
4CA
100
AcDbEntity
  8
1
100
AcDbLine
 10
6.366520999999999
 20
-8.129332000000001
 30
0.0
 11
6.330286
 21
-8.105738999999999
 31
0.0
  0
LINE
  5
1F8
330
4CA
100
AcDbEntity
  8
1
100
AcDbLine
 10
6.330286
 20
-8.105738999999999
 30
0.0
 11
6.295436
 21
-8.081342999999998
 31
0.0
  0
LINE
  5
1F9
330
4CA
100
AcDbEntity
  8
1
100
AcDbLine
 10
6.295436
 20
-8.081342999999998
 30
0.0
 11
6.261949999999999
 21
-8.056177999999999
 31
0.0
  0
LINE
  5
1FA
330
4CA
100
AcDbEntity
  8
1
100
AcDbLine
 10
6.261949999999999
 20
-8.056177999999999
 30
0.0
 11
6.229841
 21
-8.030293999999999
 31
0.0
  0
LINE
  5
1FB
330
4CA
100
AcDbEntity
  8
1
100
AcDbLine
 10
6.407479
 20
-7.268639999999999
 30
0.0
 11
6.432813999999999
 21
-7.224524999999999
 31
0.0
  0
LINE
  5
1FC
330
4CA
100
AcDbEntity
  8
1
100
AcDbLine
 10
8.804335
 20
-6.887208999999999
 30
0.0
 11
8.825275999999998
 21
-6.906032
 31
0.0
  0
LINE
  5
1FD
330
4CA
100
AcDbEntity
  8
1
100
AcDbLine
 10
6.432813999999999
 20
-7.224524999999999
 30
0.0
 11
6.460433999999999
 21
-7.179992999999999
 31
0.0
  0
LINE
  5
1FE
330
4CA
100
AcDbEntity
  8
1
100
AcDbLine
 10
6.460433999999999
 20
-7.179992999999999
 30
0.0
 11
6.490353999999999
 21
-7.135061
 31
0.0
  0
LINE
  5
1FF
330
4CA
100
AcDbEntity
  8
1
100
AcDbLine
 10
6.490353999999999
 20
-7.135061
 30
0.0
 11
6.522603
 21
-7.089603
 31
0.0
  0
LINE
  5
200
330
4CA
100
AcDbEntity
  8
1
100
AcDbLine
 10
6.522603
 20
-7.089603
 30
0.0
 11
6.557186999999999
 21
-7.043788
 31
0.0
  0
LINE
  5
201
330
4CA
100
AcDbEntity
  8
1
100
AcDbLine
 10
6.557186999999999
 20
-7.043788
 30
0.0
 11
6.594089
 21
-6.998082000000001
 31
0.0
  0
LINE
  5
202
330
4CA
100
AcDbEntity
  8
1
100
AcDbLine
 10
6.594089
 20
-6.998082000000001
 30
0.0
 11
6.633366999999999
 21
-6.952513
 31
0.0
  0
LINE
  5
203
330
4CA
100
AcDbEntity
  8
1
100
AcDbLine
 10
6.633366999999999
 20
-6.952513
 30
0.0
 11
6.674995
 21
-6.907102
 31
0.0
  0
LINE
  5
204
330
4CA
100
AcDbEntity
  8
1
100
AcDbLine
 10
4.309928
 20
1.431669999999999
 30
0.0
 11
4.181144999999999
 21
1.655291
 31
0.0
  0
LINE
  5
205
330
4CA
100
AcDbEntity
  8
1
100
AcDbLine
 10
8.781952
 20
-6.868394
 30
0.0
 11
8.804335
 21
-6.887208999999999
 31
0.0
  0
LINE
  5
206
330
4CA
100
AcDbEntity
  8
1
100
AcDbLine
 10
8.320114
 20
7.287258999999999
 30
0.0
 11
8.323967999999998
 21
7.211647999999999
 31
0.0
  0
LINE
  5
207
330
4CA
100
AcDbEntity
  8
1
100
AcDbLine
 10
9.350941999999999
 20
-9.407332
 30
0.0
 11
9.208956999999999
 21
-9.42322
 31
0.0
  0
LINE
  5
208
330
4CA
100
AcDbEntity
  8
1
100
AcDbLine
 10
8.323967999999998
 20
7.211647999999999
 30
0.0
 11
8.331716999999999
 21
7.137021999999999
 31
0.0
  0
LINE
  5
209
330
4CA
100
AcDbEntity
  8
1
100
AcDbLine
 10
9.208956999999999
 20
-9.42322
 30
0.0
 11
9.066163000000001
 21
-9.437146999999999
 31
0.0
  0
LINE
  5
20A
330
4CA
100
AcDbEntity
  8
1
100
AcDbLine
 10
8.331716999999999
 20
7.137021999999999
 30
0.0
 11
8.343322999999999
 21
7.063482
 31
0.0
  0
LINE
  5
20B
330
4CA
100
AcDbEntity
  8
1
100
AcDbLine
 10
9.066163000000001
 20
-9.437146999999999
 30
0.0
 11
8.922577999999999
 21
-9.449097
 31
0.0
  0
LINE
  5
20C
330
4CA
100
AcDbEntity
  8
1
100
AcDbLine
 10
8.343322999999999
 20
7.063482
 30
0.0
 11
8.358824
 21
6.990958999999999
 31
0.0
  0
LINE
  5
20D
330
4CA
100
AcDbEntity
  8
1
100
AcDbLine
 10
8.922577999999999
 20
-9.449097
 30
0.0
 11
8.778183999999999
 21
-9.459127999999999
 31
0.0
  0
LINE
  5
20E
330
4CA
100
AcDbEntity
  8
1
100
AcDbLine
 10
8.358824
 20
6.990958999999999
 30
0.0
 11
8.378339
 21
6.919203999999999
 31
0.0
  0
LINE
  5
20F
330
4CA
100
AcDbEntity
  8
1
100
AcDbLine
 10
8.778183999999999
 20
-9.459127999999999
 30
0.0
 11
8.632927
 21
-9.467367999999998
 31
0.0
  0
LINE
  5
210
330
4CA
100
AcDbEntity
  8
1
100
AcDbLine
 10
8.378339
 20
6.919203999999999
 30
0.0
 11
8.401875
 21
6.848103
 31
0.0
  0
LINE
  5
211
330
4CA
100
AcDbEntity
  8
1
100
AcDbLine
 10
8.632927
 20
-9.467367999999998
 30
0.0
 11
8.486819
 21
-9.473833
 31
0.0
  0
LINE
  5
212
330
4CA
100
AcDbEntity
  8
1
100
AcDbLine
 10
8.401875
 20
6.848103
 30
0.0
 11
8.429425
 21
6.777781
 31
0.0
  0
LINE
  5
213
330
4CA
100
AcDbEntity
  8
1
100
AcDbLine
 10
8.486819
 20
-9.473833
 30
0.0
 11
8.33985
 21
-9.478528
 31
0.0
  0
LINE
  5
214
330
4CA
100
AcDbEntity
  8
1
100
AcDbLine
 10
8.429425
 20
6.777781
 30
0.0
 11
8.461088999999999
 21
6.708356
 31
0.0
  0
LINE
  5
215
330
4CA
100
AcDbEntity
  8
1
100
AcDbLine
 10
8.33985
 20
-9.478528
 30
0.0
 11
8.191932000000001
 21
-9.481558999999998
 31
0.0
  0
LINE
  5
216
330
4CA
100
AcDbEntity
  8
1
100
AcDbLine
 10
8.461088999999999
 20
6.708356
 30
0.0
 11
8.496890999999999
 21
6.639822
 31
0.0
  0
LINE
  5
217
330
4CA
100
AcDbEntity
  8
1
100
AcDbLine
 10
8.191932000000001
 20
-9.481558999999998
 30
0.0
 11
8.043172999999999
 21
-9.482939999999999
 31
0.0
  0
LINE
  5
218
330
4CA
100
AcDbEntity
  8
1
100
AcDbLine
 10
8.496890999999999
 20
6.639822
 30
0.0
 11
8.536807000000001
 21
6.572197999999999
 31
0.0
  0
LINE
  5
219
330
4CA
100
AcDbEntity
  8
1
100
AcDbLine
 10
8.043172999999999
 20
-9.482939999999999
 30
0.0
 11
7.893464999999999
 21
-9.482663
 31
0.0
  0
LINE
  5
21A
330
4CA
100
AcDbEntity
  8
1
100
AcDbLine
 10
8.536807000000001
 20
6.572197999999999
 30
0.0
 11
8.580864999999999
 21
6.505634999999999
 31
0.0
  0
LINE
  5
21B
330
4CA
100
AcDbEntity
  8
1
100
AcDbLine
 10
7.893464999999999
 20
-9.482663
 30
0.0
 11
7.742407
 21
-9.480795999999999
 31
0.0
  0
LINE
  5
21C
330
4CA
100
AcDbEntity
  8
1
100
AcDbLine
 10
8.580864999999999
 20
6.505634999999999
 30
0.0
 11
8.628994999999999
 21
6.440223
 31
0.0
  0
LINE
  5
21D
330
4CA
100
AcDbEntity
  8
1
100
AcDbLine
 10
7.742407
 20
-9.480795999999999
 30
0.0
 11
7.589955
 21
-9.477349
 31
0.0
  0
LINE
  5
21E
330
4CA
100
AcDbEntity
  8
1
100
AcDbLine
 10
8.628994999999999
 20
6.440223
 30
0.0
 11
8.681267
 21
6.37589
 31
0.0
  0
LINE
  5
21F
330
4CA
100
AcDbEntity
  8
1
100
AcDbLine
 10
7.589955
 20
-9.477349
 30
0.0
 11
7.436153
 21
-9.472305
 31
0.0
  0
LINE
  5
220
330
4CA
100
AcDbEntity
  8
1
100
AcDbLine
 10
8.681267
 20
6.37589
 30
0.0
 11
8.737925999999999
 21
6.312537999999999
 31
0.0
  0
LINE
  5
221
330
4CA
100
AcDbEntity
  8
1
100
AcDbLine
 10
7.436153
 20
-9.472305
 30
0.0
 11
7.280732
 21
-9.465688999999999
 31
0.0
  0
LINE
  5
222
330
4CA
100
AcDbEntity
  8
1
100
AcDbLine
 10
8.737925999999999
 20
6.312537999999999
 30
0.0
 11
8.798860000000001
 21
6.250194
 31
0.0
  0
LINE
  5
223
330
4CA
100
AcDbEntity
  8
1
100
AcDbLine
 10
4.181144999999999
 20
1.655291
 30
0.0
 11
4.054755999999999
 21
1.882854999999999
 31
0.0
  0
LINE
  5
224
330
4CA
100
AcDbEntity
  8
1
100
AcDbLine
 10
8.798860000000001
 20
6.250194
 30
0.0
 11
8.864180000000001
 21
6.188839999999999
 31
0.0
  0
LINE
  5
225
330
4CA
100
AcDbEntity
  8
1
100
AcDbLine
 10
7.123663
 20
-9.457497999999999
 30
0.0
 11
6.964974
 21
-9.447713999999999
 31
0.0
  0
LINE
  5
226
330
4CA
100
AcDbEntity
  8
1
100
AcDbLine
 10
8.864180000000001
 20
6.188839999999999
 30
0.0
 11
8.934466999999999
 21
6.128295999999999
 31
0.0
  0
LINE
  5
227
330
4CA
100
AcDbEntity
  8
1
100
AcDbLine
 10
6.964974
 20
-9.447713999999999
 30
0.0
 11
6.804486999999999
 21
-9.436344
 31
0.0
  0
LINE
  5
228
330
4CA
100
AcDbEntity
  8
1
100
AcDbLine
 10
8.934466999999999
 20
6.128295999999999
 30
0.0
 11
9.009822999999999
 21
6.068426999999999
 31
0.0
  0
LINE
  5
229
330
4CA
100
AcDbEntity
  8
1
100
AcDbLine
 10
6.804486999999999
 20
-9.436344
 30
0.0
 11
6.642225999999999
 21
-9.423378999999998
 31
0.0
  0
LINE
  5
22A
330
4CA
100
AcDbEntity
  8
1
100
AcDbLine
 10
9.009822999999999
 20
6.068426999999999
 30
0.0
 11
9.090146
 21
6.009362999999999
 31
0.0
  0
LINE
  5
22B
330
4CA
100
AcDbEntity
  8
1
100
AcDbLine
 10
6.642225999999999
 20
-9.423378999999998
 30
0.0
 11
6.478166
 21
-9.408794999999999
 31
0.0
  0
LINE
  5
22C
330
4CA
100
AcDbEntity
  8
1
100
AcDbLine
 10
9.090146
 20
6.009362999999999
 30
0.0
 11
9.175707
 21
5.951316999999999
 31
0.0
  0
LINE
  5
22D
330
4CA
100
AcDbEntity
  8
1
100
AcDbLine
 10
6.478166
 20
-9.408794999999999
 30
0.0
 11
6.312053999999999
 21
-9.392572999999998
 31
0.0
  0
LINE
  5
22E
330
4CA
100
AcDbEntity
  8
1
100
AcDbLine
 10
9.175707
 20
5.951316999999999
 30
0.0
 11
9.266597
 21
5.894359999999999
 31
0.0
  0
LINE
  5
22F
330
4CA
100
AcDbEntity
  8
1
100
AcDbLine
 10
6.312053999999999
 20
-9.392572999999998
 30
0.0
 11
6.143943
 21
-9.374703999999999
 31
0.0
  0
LINE
  5
230
330
4CA
100
AcDbEntity
  8
1
100
AcDbLine
 10
9.266597
 20
5.894359999999999
 30
0.0
 11
9.362724
 21
5.838423
 31
0.0
  0
LINE
  5
231
330
4CA
100
AcDbEntity
  8
1
100
AcDbLine
 10
6.143943
 20
-9.374703999999999
 30
0.0
 11
5.973780999999999
 21
-9.355152999999999
 31
0.0
  0
LINE
  5
232
330
4CA
100
AcDbEntity
  8
1
100
AcDbLine
 10
9.362724
 20
5.838423
 30
0.0
 11
9.464089999999998
 21
5.783504999999999
 31
0.0
  0
LINE
  5
233
330
4CA
100
AcDbEntity
  8
1
100
AcDbLine
 10
5.973780999999999
 20
-9.355152999999999
 30
0.0
 11
5.801150999999999
 21
-9.333859
 31
0.0
  0
LINE
  5
234
330
4CA
100
AcDbEntity
  8
1
100
AcDbLine
 10
7.891547999999999
 20
7.205934
 30
0.0
 11
7.891547999999999
 21
5.701744
 31
0.0
  0
LINE
  5
235
330
4CA
100
AcDbEntity
  8
1
100
AcDbLine
 10
5.801150999999999
 20
-9.333859
 30
0.0
 11
5.626012
 21
-9.310792999999998
 31
0.0
  0
LINE
  5
236
330
4CA
100
AcDbEntity
  8
1
100
AcDbLine
 10
9.061010000000001
 20
5.295495999999999
 30
0.0
 11
9.464089999999998
 21
5.458855
 31
0.0
  0
LINE
  5
237
330
4CA
100
AcDbEntity
  8
1
100
AcDbLine
 10
5.626012
 20
-9.310792999999998
 30
0.0
 11
5.448405999999999
 21
-9.285925999999999
 31
0.0
  0
LINE
  5
238
330
4CA
100
AcDbEntity
  8
1
100
AcDbLine
 10
8.664089999999999
 20
5.133738
 30
0.0
 11
9.061010000000001
 21
5.295495999999999
 31
0.0
  0
LINE
  5
239
330
4CA
100
AcDbEntity
  8
1
100
AcDbLine
 10
5.448405999999999
 20
-9.285925999999999
 30
0.0
 11
5.268044
 21
-9.25919
 31
0.0
  0
LINE
  5
23A
330
4CA
100
AcDbEntity
  8
1
100
AcDbLine
 10
7.891547999999999
 20
7.205934
 30
0.0
 11
8.320154999999999
 21
7.363842999999999
 31
0.0
  0
LINE
  5
23B
330
4CA
100
AcDbEntity
  8
1
100
AcDbLine
 10
5.268044
 20
-9.25919
 30
0.0
 11
5.084826999999999
 21
-9.230536999999999
 31
0.0
  0
LINE
  5
23C
330
4CA
100
AcDbEntity
  8
1
100
AcDbLine
 10
8.664089999999999
 20
11.328524
 30
0.0
 11
8.577347999999998
 21
11.3239
 31
0.0
  0
LINE
  5
23D
330
4CA
100
AcDbEntity
  8
1
100
AcDbLine
 10
5.084826999999999
 20
-9.230536999999999
 30
0.0
 11
4.898855
 21
-9.199942999999999
 31
0.0
  0
LINE
  5
23E
330
4CA
100
AcDbEntity
  8
1
100
AcDbLine
 10
8.577347999999998
 20
11.3239
 30
0.0
 11
8.490788999999999
 21
11.312011
 31
0.0
  0
LINE
  5
23F
330
4CA
100
AcDbEntity
  8
1
100
AcDbLine
 10
4.898855
 20
-9.199942999999999
 30
0.0
 11
4.710124999999999
 21
-9.167371000000001
 31
0.0
  0
LINE
  5
240
330
4CA
100
AcDbEntity
  8
1
100
AcDbLine
 10
8.490788999999999
 20
11.312011
 30
0.0
 11
8.479799999999999
 21
11.30998
 31
0.0
  0
LINE
  5
241
330
4CA
100
AcDbEntity
  8
1
100
AcDbLine
 10
7.891547999999999
 20
-11.026039
 30
0.0
 11
7.891547999999999
 21
-10.893676
 31
0.0
  0
LINE
  5
242
330
4CA
100
AcDbEntity
  8
1
100
AcDbLine
 10
8.479799999999999
 20
11.30998
 30
0.0
 11
8.404411999999998
 21
11.292856
 31
0.0
  0
LINE
  5
243
330
4CA
100
AcDbEntity
  8
1
100
AcDbLine
 10
8.479799999999999
 20
-11.30998
 30
0.0
 11
8.404411999999998
 21
-11.292856
 31
0.0
  0
LINE
  5
244
330
4CA
100
AcDbEntity
  8
1
100
AcDbLine
 10
8.404411999999998
 20
11.292856
 30
0.0
 11
8.318158999999999
 21
11.26641
 31
0.0
  0
LINE
  5
245
330
4CA
100
AcDbEntity
  8
1
100
AcDbLine
 10
8.404411999999998
 20
-11.292856
 30
0.0
 11
8.318158999999999
 21
-11.26641
 31
0.0
  0
LINE
  5
246
330
4CA
100
AcDbEntity
  8
1
100
AcDbLine
 10
8.318158999999999
 20
11.26641
 30
0.0
 11
8.232089
 21
11.232696
 31
0.0
  0
LINE
  5
247
330
4CA
100
AcDbEntity
  8
1
100
AcDbLine
 10
8.318158999999999
 20
-11.26641
 30
0.0
 11
8.232089
 21
-11.232696
 31
0.0
  0
LINE
  5
248
330
4CA
100
AcDbEntity
  8
1
100
AcDbLine
 10
8.232089
 20
11.232696
 30
0.0
 11
8.146375
 21
11.191795
 31
0.0
  0
LINE
  5
249
330
4CA
100
AcDbEntity
  8
1
100
AcDbLine
 10
8.232089
 20
-11.232696
 30
0.0
 11
8.146375
 21
-11.191795
 31
0.0
  0
LINE
  5
24A
330
4CA
100
AcDbEntity
  8
1
100
AcDbLine
 10
8.146375
 20
11.191795
 30
0.0
 11
8.061075999999999
 21
11.143731
 31
0.0
  0
LINE
  5
24B
330
4CA
100
AcDbEntity
  8
1
100
AcDbLine
 10
8.146375
 20
-11.191795
 30
0.0
 11
8.061075999999999
 21
-11.143731
 31
0.0
  0
LINE
  5
24C
330
4CA
100
AcDbEntity
  8
1
100
AcDbLine
 10
8.061075999999999
 20
11.143731
 30
0.0
 11
7.976134
 21
11.088479
 31
0.0
  0
LINE
  5
24D
330
4CA
100
AcDbEntity
  8
1
100
AcDbLine
 10
8.061075999999999
 20
-11.143731
 30
0.0
 11
7.976134
 21
-11.088479
 31
0.0
  0
LINE
  5
24E
330
4CA
100
AcDbEntity
  8
1
100
AcDbLine
 10
7.976134
 20
-11.088479
 30
0.0
 11
7.891547999999999
 21
-11.026039
 31
0.0
  0
LINE
  5
24F
330
4CA
100
AcDbEntity
  8
1
100
AcDbLine
 10
9.477762
 20
-11.499998
 30
0.0
 11
8.479969999999999
 21
-11.310018
 31
0.0
  0
LINE
  5
250
330
4CA
100
AcDbEntity
  8
1
100
AcDbLine
 10
7.891547999999999
 20
-11.026039
 30
0.0
 11
8.320154999999999
 21
-11.081396
 31
0.0
  0
LINE
  5
251
330
4CA
100
AcDbEntity
  8
1
100
AcDbLine
 10
15.5
 20
-10.476079
 30
0.0
 11
14.002002
 21
-11.499998
 31
0.0
  0
LINE
  5
252
330
4CA
100
AcDbEntity
  8
1
100
AcDbLine
 10
15.0
 20
-9.173413
 30
0.0
 11
14.854828
 21
-9.298178
 31
0.0
  0
LINE
  5
253
330
4CA
100
AcDbEntity
  8
1
100
AcDbLine
 10
14.854828
 20
-9.298178
 30
0.0
 11
14.707097
 21
-9.424030999999999
 31
0.0
  0
LINE
  5
254
330
4CA
100
AcDbEntity
  8
1
100
AcDbLine
 10
14.707097
 20
-9.424030999999999
 30
0.0
 11
14.556808
 21
-9.550974
 31
0.0
  0
LINE
  5
255
330
4CA
100
AcDbEntity
  8
1
100
AcDbLine
 10
14.556808
 20
-9.550974
 30
0.0
 11
14.40401
 21
-9.678976999999999
 31
0.0
  0
LINE
  5
256
330
4CA
100
AcDbEntity
  8
1
100
AcDbLine
 10
8.664089999999999
 20
11.328524
 30
0.0
 11
8.664089999999999
 21
9.700542
 31
0.0
  0
LINE
  5
257
330
4CA
100
AcDbEntity
  8
1
100
AcDbLine
 10
14.248654
 20
-9.808067999999998
 30
0.0
 11
14.09059
 21
-9.938338999999999
 31
0.0
  0
LINE
  5
258
330
4CA
100
AcDbEntity
  8
1
100
AcDbLine
 10
14.09059
 20
-9.938338999999999
 30
0.0
 11
13.929768
 21
-10.069818
 31
0.0
  0
LINE
  5
259
330
4CA
100
AcDbEntity
  8
1
100
AcDbLine
 10
9.350941999999999
 20
9.753740999999999
 30
0.0
 11
9.208956999999999
 21
9.739419999999999
 31
0.0
  0
LINE
  5
25A
330
4CA
100
AcDbEntity
  8
1
100
AcDbLine
 10
9.208956999999999
 20
9.739419999999999
 30
0.0
 11
9.066163000000001
 21
9.726753999999999
 31
0.0
  0
LINE
  5
25B
330
4CA
100
AcDbEntity
  8
1
100
AcDbLine
 10
13.6
 20
-8.782721999999999
 30
0.0
 11
13.6
 21
-10.336314
 31
0.0
  0
LINE
  5
25C
330
4CA
100
AcDbEntity
  8
1
100
AcDbLine
 10
15.5
 20
-9.264839999999999
 30
0.0
 11
13.595385
 21
-10.566691
 31
0.0
  0
LINE
  5
25D
330
4CA
100
AcDbEntity
  8
1
100
AcDbLine
 10
14.109467
 20
-4.589233999999999
 30
0.0
 11
13.595707
 21
-4.754713999999999
 31
0.0
  0
LINE
  5
25E
330
4CA
100
AcDbEntity
  8
1
100
AcDbLine
 10
13.595707
 20
-4.754713999999999
 30
0.0
 11
13.08121
 21
-4.918992
 31
0.0
  0
LINE
  5
25F
330
4CA
100
AcDbEntity
  8
1
100
AcDbLine
 10
13.08121
 20
-4.918992
 30
0.0
 11
12.565976
 21
-5.082069999999999
 31
0.0
  0
LINE
  5
260
330
4CA
100
AcDbEntity
  8
1
100
AcDbLine
 10
12.565976
 20
-5.082069999999999
 30
0.0
 11
12.049819
 21
-5.244006999999999
 31
0.0
  0
LINE
  5
261
330
4CA
100
AcDbEntity
  8
1
100
AcDbLine
 10
12.049819
 20
-5.244006999999999
 30
0.0
 11
11.532925
 21
-5.404742999999999
 31
0.0
  0
LINE
  5
262
330
4CA
100
AcDbEntity
  8
1
100
AcDbLine
 10
11.532925
 20
-5.404742999999999
 30
0.0
 11
11.01585
 21
-5.564103
 31
0.0
  0
LINE
  5
263
330
4CA
100
AcDbEntity
  8
1
100
AcDbLine
 10
11.01585
 20
-5.564103
 30
0.0
 11
10.498779
 21
-5.722026999999999
 31
0.0
  0
LINE
  5
264
330
4CA
100
AcDbEntity
  8
1
100
AcDbLine
 10
10.498779
 20
-5.722026999999999
 30
0.0
 11
9.981524999999999
 21
-5.878574999999999
 31
0.0
  0
LINE
  5
265
330
4CA
100
AcDbEntity
  8
1
100
AcDbLine
 10
9.981524999999999
 20
-5.878574999999999
 30
0.0
 11
9.464089999999998
 21
-6.033748
 31
0.0
  0
LINE
  5
266
330
4CA
100
AcDbEntity
  8
1
100
AcDbLine
 10
13.929768
 20
-10.069818
 30
0.0
 11
13.766238
 21
-10.202477
 31
0.0
  0
LINE
  5
267
330
4CA
100
AcDbEntity
  8
1
100
AcDbLine
 10
13.997267
 20
-4.282130999999999
 30
0.0
 11
13.49624
 21
-4.445209999999999
 31
0.0
  0
LINE
  5
268
330
4CA
100
AcDbEntity
  8
1
100
AcDbLine
 10
13.49624
 20
-4.445209999999999
 30
0.0
 11
12.994426
 21
-4.607397999999999
 31
0.0
  0
LINE
  5
269
330
4CA
100
AcDbEntity
  8
1
100
AcDbLine
 10
7.596938999999999
 20
0.4522470000000001
 30
0.0
 11
7.539000999999999
 21
0.449554
 31
0.0
  0
LINE
  5
26A
330
4CA
100
AcDbEntity
  8
1
100
AcDbLine
 10
12.994426
 20
-4.607397999999999
 30
0.0
 11
12.491822
 21
-4.768651999999999
 31
0.0
  0
LINE
  5
26B
330
4CA
100
AcDbEntity
  8
1
100
AcDbLine
 10
7.539000999999999
 20
0.449554
 30
0.0
 11
7.481499
 21
0.447648
 31
0.0
  0
LINE
  5
26C
330
4CA
100
AcDbEntity
  8
1
100
AcDbLine
 10
12.491822
 20
-4.768651999999999
 30
0.0
 11
11.988265
 21
-4.928944999999999
 31
0.0
  0
LINE
  5
26D
330
4CA
100
AcDbEntity
  8
1
100
AcDbLine
 10
7.481499
 20
0.447648
 30
0.0
 11
7.424477
 21
0.446483
 31
0.0
  0
LINE
  5
26E
330
4CA
100
AcDbEntity
  8
1
100
AcDbLine
 10
11.988265
 20
-4.928944999999999
 30
0.0
 11
11.48392
 21
-5.088222
 31
0.0
  0
LINE
  5
26F
330
4CA
100
AcDbEntity
  8
1
100
AcDbLine
 10
11.48392
 20
-5.088222
 30
0.0
 11
10.979281
 21
-5.246392
 31
0.0
  0
LINE
  5
270
330
4CA
100
AcDbEntity
  8
1
100
AcDbLine
 10
10.979281
 20
-5.246392
 30
0.0
 11
10.474511
 21
-5.4034
 31
0.0
  0
LINE
  5
271
330
4CA
100
AcDbEntity
  8
1
100
AcDbLine
 10
10.474511
 20
-5.4034
 30
0.0
 11
9.969447999999999
 21
-5.559222
 31
0.0
  0
LINE
  5
272
330
4CA
100
AcDbEntity
  8
1
100
AcDbLine
 10
9.492117
 20
9.769690999999999
 30
0.0
 11
9.350941999999999
 21
9.753740999999999
 31
0.0
  0
LINE
  5
273
330
4CA
100
AcDbEntity
  8
1
100
AcDbLine
 10
9.969447999999999
 20
-5.559222
 30
0.0
 11
9.464089999999998
 21
-5.713818999999999
 31
0.0
  0
LINE
  5
274
330
4CA
100
AcDbEntity
  8
1
100
AcDbLine
 10
8.320154999999999
 20
-3.717551999999999
 30
0.0
 11
8.924349000000001
 21
-3.512986
 31
0.0
  0
LINE
  5
275
330
4CA
100
AcDbEntity
  8
1
100
AcDbLine
 10
8.924349000000001
 20
-3.512986
 30
0.0
 11
9.524044999999999
 21
-3.307869999999999
 31
0.0
  0
LINE
  5
276
330
4CA
100
AcDbEntity
  8
1
100
AcDbLine
 10
9.524044999999999
 20
-3.307869999999999
 30
0.0
 11
10.119243
 21
-3.102206
 31
0.0
  0
LINE
  5
277
330
4CA
100
AcDbEntity
  8
1
100
AcDbLine
 10
10.119243
 20
-3.102206
 30
0.0
 11
10.709967
 21
-2.89597
 31
0.0
  0
LINE
  5
278
330
4CA
100
AcDbEntity
  8
1
100
AcDbLine
 10
10.709967
 20
-2.89597
 30
0.0
 11
11.296193
 21
-2.689184999999999
 31
0.0
  0
LINE
  5
279
330
4CA
100
AcDbEntity
  8
1
100
AcDbLine
 10
11.296193
 20
-2.689184999999999
 30
0.0
 11
11.877854
 21
-2.481923
 31
0.0
  0
LINE
  5
27A
330
4CA
100
AcDbEntity
  8
1
100
AcDbLine
 10
11.877854
 20
-2.481923
 30
0.0
 11
12.454929
 21
-2.274205999999999
 31
0.0
  0
LINE
  5
27B
330
4CA
100
AcDbEntity
  8
1
100
AcDbLine
 10
12.454929
 20
-2.274205999999999
 30
0.0
 11
13.027439
 21
-2.066011
 31
0.0
  0
LINE
  5
27C
330
4CA
100
AcDbEntity
  8
1
100
AcDbLine
 10
13.027439
 20
-2.066011
 30
0.0
 11
13.595385
 21
-1.857338
 31
0.0
  0
LINE
  5
27D
330
4CA
100
AcDbEntity
  8
1
100
AcDbLine
 10
13.6
 20
-1.740746999999999
 30
0.0
 11
12.898572
 21
-1.999371
 31
0.0
  0
LINE
  5
27E
330
4CA
100
AcDbEntity
  8
1
100
AcDbLine
 10
12.898572
 20
-1.999371
 30
0.0
 11
12.189632
 21
-2.257383
 31
0.0
  0
LINE
  5
27F
330
4CA
100
AcDbEntity
  8
1
100
AcDbLine
 10
12.189632
 20
-2.257383
 30
0.0
 11
11.47318
 21
-2.514781999999999
 31
0.0
  0
LINE
  5
280
330
4CA
100
AcDbEntity
  8
1
100
AcDbLine
 10
11.47318
 20
-2.514781999999999
 30
0.0
 11
10.74865
 21
-2.771793
 31
0.0
  0
LINE
  5
281
330
4CA
100
AcDbEntity
  8
1
100
AcDbLine
 10
10.74865
 20
-2.771793
 30
0.0
 11
10.016608
 21
-3.028191999999999
 31
0.0
  0
LINE
  5
282
330
4CA
100
AcDbEntity
  8
1
100
AcDbLine
 10
10.016608
 20
-3.028191999999999
 30
0.0
 11
9.278752
 21
-3.283301
 31
0.0
  0
LINE
  5
283
330
4CA
100
AcDbEntity
  8
1
100
AcDbLine
 10
9.278752
 20
-3.283301
 30
0.0
 11
8.535036999999999
 21
-3.537119999999999
 31
0.0
  0
LINE
  5
284
330
4CA
100
AcDbEntity
  8
1
100
AcDbLine
 10
13.6
 20
1.441693
 30
0.0
 11
13.154893
 21
1.32515
 31
0.0
  0
LINE
  5
285
330
4CA
100
AcDbEntity
  8
1
100
AcDbLine
 10
13.154893
 20
1.32515
 30
0.0
 11
12.706905
 21
1.208242
 31
0.0
  0
LINE
  5
286
330
4CA
100
AcDbEntity
  8
1
100
AcDbLine
 10
11.802211
 20
0.9733139999999998
 30
0.0
 11
11.345507
 21
0.8552939999999999
 31
0.0
  0
LINE
  5
287
330
4CA
100
AcDbEntity
  8
1
100
AcDbLine
 10
10.886124
 20
0.7369710000000001
 30
0.0
 11
10.424133
 21
0.618362
 31
0.0
  0
LINE
  5
288
330
4CA
100
AcDbEntity
  8
1
100
AcDbLine
 10
10.424133
 20
0.618362
 30
0.0
 11
9.959464
 21
0.4994500000000001
 31
0.0
  0
LINE
  5
289
330
4CA
100
AcDbEntity
  8
1
100
AcDbLine
 10
13.6
 20
1.441693
 30
0.0
 11
13.6
 21
-1.740746999999999
 31
0.0
  0
LINE
  5
28A
330
4CA
100
AcDbEntity
  8
1
100
AcDbLine
 10
8.905888
 20
0.784559
 30
0.0
 11
8.889654999999999
 21
0.774161
 31
0.0
  0
LINE
  5
28B
330
4CA
100
AcDbEntity
  8
1
100
AcDbLine
 10
15.5
 20
-0.6277010000000001
 30
0.0
 11
13.595385
 21
-1.857338
 31
0.0
  0
LINE
  5
28C
330
4CA
100
AcDbEntity
  8
1
100
AcDbLine
 10
8.889654999999999
 20
0.774161
 30
0.0
 11
8.871960000000001
 21
0.763461
 31
0.0
  0
LINE
  5
28D
330
4CA
100
AcDbEntity
  8
1
100
AcDbLine
 10
6.699360999999999
 20
0.4895120000000001
 30
0.0
 11
6.653966999999999
 21
0.495613
 31
0.0
  0
LINE
  5
28E
330
4CA
100
AcDbEntity
  8
1
100
AcDbLine
 10
8.871960000000001
 20
0.763461
 30
0.0
 11
8.852674
 21
0.7524100000000001
 31
0.0
  0
LINE
  5
28F
330
4CA
100
AcDbEntity
  8
1
100
AcDbLine
 10
14.854828
 20
-0.840403
 30
0.0
 11
14.707097
 21
-0.9482169999999999
 31
0.0
  0
LINE
  5
290
330
4CA
100
AcDbEntity
  8
1
100
AcDbLine
 10
7.621277
 20
-6.330991
 30
0.0
 11
7.659834
 21
-6.319716
 31
0.0
  0
LINE
  5
291
330
4CA
100
AcDbEntity
  8
1
100
AcDbLine
 10
14.707097
 20
-0.9482169999999999
 30
0.0
 11
14.556808
 21
-1.057354
 31
0.0
  0
LINE
  5
292
330
4CA
100
AcDbEntity
  8
1
100
AcDbLine
 10
7.659834
 20
-6.319716
 30
0.0
 11
7.720105999999999
 21
-6.303701
 31
0.0
  0
LINE
  5
293
330
4CA
100
AcDbEntity
  8
1
100
AcDbLine
 10
14.556808
 20
-1.057354
 30
0.0
 11
14.40401
 21
-1.167781999999999
 31
0.0
  0
LINE
  5
294
330
4CA
100
AcDbEntity
  8
1
100
AcDbLine
 10
7.720105999999999
 20
-6.303701
 30
0.0
 11
7.778417
 21
-6.289848999999999
 31
0.0
  0
LINE
  5
295
330
4CA
100
AcDbEntity
  8
1
100
AcDbLine
 10
14.40401
 20
-1.167781999999999
 30
0.0
 11
14.248654
 21
-1.279533
 31
0.0
  0
LINE
  5
296
330
4CA
100
AcDbEntity
  8
1
100
AcDbLine
 10
7.778417
 20
-6.289848999999999
 30
0.0
 11
7.83461
 21
-6.278146999999999
 31
0.0
  0
LINE
  5
297
330
4CA
100
AcDbEntity
  8
1
100
AcDbLine
 10
14.248654
 20
-1.279533
 30
0.0
 11
14.09059
 21
-1.392695
 31
0.0
  0
LINE
  5
298
330
4CA
100
AcDbEntity
  8
1
100
AcDbLine
 10
7.83461
 20
-6.278146999999999
 30
0.0
 11
7.888811999999999
 21
-6.268538999999999
 31
0.0
  0
LINE
  5
299
330
4CA
100
AcDbEntity
  8
1
100
AcDbLine
 10
14.09059
 20
-1.392695
 30
0.0
 11
13.929768
 21
-1.5073
 31
0.0
  0
LINE
  5
29A
330
4CA
100
AcDbEntity
  8
1
100
AcDbLine
 10
6.89056
 20
0.4681580000000001
 30
0.0
 11
6.84145
 21
0.47298
 31
0.0
  0
LINE
  5
29B
330
4CA
100
AcDbEntity
  8
1
100
AcDbLine
 10
13.929768
 20
-1.5073
 30
0.0
 11
13.766238
 21
-1.623316999999999
 31
0.0
  0
LINE
  5
29C
330
4CA
100
AcDbEntity
  8
1
100
AcDbLine
 10
7.940960999999999
 20
-6.260659999999999
 30
0.0
 11
7.990950999999999
 21
-6.254463999999999
 31
0.0
  0
LINE
  5
29D
330
4CA
100
AcDbEntity
  8
1
100
AcDbLine
 10
13.766238
 20
-1.623316999999999
 30
0.0
 11
13.6
 21
-1.740746999999999
 31
0.0
  0
LINE
  5
29E
330
4CA
100
AcDbEntity
  8
1
100
AcDbLine
 10
7.990950999999999
 20
-6.254463999999999
 30
0.0
 11
8.038866999999999
 21
-6.249937
 31
0.0
  0
LINE
  5
29F
330
4CA
100
AcDbEntity
  8
1
100
AcDbLine
 10
15.0
 20
2.913209999999999
 30
0.0
 11
15.5
 21
2.766084999999999
 31
0.0
  0
LINE
  5
2A0
330
4CA
100
AcDbEntity
  8
1
100
AcDbLine
 10
6.745775
 20
0.483685
 30
0.0
 11
6.699360999999999
 21
0.4895120000000001
 31
0.0
  0
LINE
  5
2A1
330
4CA
100
AcDbEntity
  8
1
100
AcDbLine
 10
14.090573
 20
1.666045999999999
 30
0.0
 11
13.766232
 21
1.517487
 31
0.0
  0
LINE
  5
2A2
330
4CA
100
AcDbEntity
  8
1
100
AcDbLine
 10
8.084944999999999
 20
-6.246767
 30
0.0
 11
8.129151
 21
-6.244896999999999
 31
0.0
  0
LINE
  5
2A3
330
4CA
100
AcDbEntity
  8
1
100
AcDbLine
 10
13.766232
 20
1.517487
 30
0.0
 11
13.6
 21
1.441693
 31
0.0
  0
LINE
  5
2A4
330
4CA
100
AcDbEntity
  8
1
100
AcDbLine
 10
8.129151
 20
-6.244896999999999
 30
0.0
 11
8.171505999999999
 21
-6.244339
 31
0.0
  0
LINE
  5
2A5
330
4CA
100
AcDbEntity
  8
1
100
AcDbLine
 10
14.403981
 20
1.810522999999999
 30
0.0
 11
14.090573
 21
1.666045999999999
 31
0.0
  0
LINE
  5
2A6
330
4CA
100
AcDbEntity
  8
1
100
AcDbLine
 10
6.609602
 20
0.5019520000000001
 30
0.0
 11
6.566300999999999
 21
0.508526
 31
0.0
  0
LINE
  5
2A7
330
4CA
100
AcDbEntity
  8
1
100
AcDbLine
 10
14.707072
 20
1.951171
 30
0.0
 11
14.403981
 21
1.810522999999999
 31
0.0
  0
LINE
  5
2A8
330
4CA
100
AcDbEntity
  8
1
100
AcDbLine
 10
15.0
 20
2.088052999999999
 30
0.0
 11
14.707072
 21
1.951171
 31
0.0
  0
LINE
  5
2A9
330
4CA
100
AcDbEntity
  8
1
100
AcDbLine
 10
8.251694999999999
 20
-6.246529999999999
 30
0.0
 11
8.289522999999999
 21
-6.249247
 31
0.0
  0
LINE
  5
2AA
330
4CA
100
AcDbEntity
  8
1
100
AcDbLine
 10
15.0
 20
0.7707350000000001
 30
0.0
 11
15.5
 21
0.623611
 31
0.0
  0
LINE
  5
2AB
330
4CA
100
AcDbEntity
  8
1
100
AcDbLine
 10
8.289522999999999
 20
-6.249247
 30
0.0
 11
8.325898
 21
-6.252921999999999
 31
0.0
  0
LINE
  5
2AC
330
4CA
100
AcDbEntity
  8
1
100
AcDbLine
 10
15.0
 20
0.6356310000000001
 30
0.0
 11
15.5
 21
0.488507
 31
0.0
  0
LINE
  5
2AD
330
4CA
100
AcDbEntity
  8
1
100
AcDbLine
 10
8.325898
 20
-6.252921999999999
 30
0.0
 11
8.360874
 21
-6.257552999999999
 31
0.0
  0
LINE
  5
2AE
330
4CA
100
AcDbEntity
  8
1
100
AcDbLine
 10
15.0
 20
-0.156034
 30
0.0
 11
15.5
 21
-0.004111
 31
0.0
  0
LINE
  5
2AF
330
4CA
100
AcDbEntity
  8
1
100
AcDbLine
 10
8.360874
 20
-6.257552999999999
 30
0.0
 11
8.394391999999999
 21
-6.263116
 31
0.0
  0
LINE
  5
2B0
330
4CA
100
AcDbEntity
  8
1
100
AcDbLine
 10
4.443291999999999
 20
10.132264
 30
0.0
 11
4.313378
 21
10.218263
 31
0.0
  0
LINE
  5
2B1
330
4CA
100
AcDbEntity
  8
1
100
AcDbLine
 10
8.394391999999999
 20
-6.263116
 30
0.0
 11
8.426364999999998
 21
-6.269472
 31
0.0
  0
LINE
  5
2B2
330
4CA
100
AcDbEntity
  8
1
100
AcDbLine
 10
8.426364999999998
 20
-6.269472
 30
0.0
 11
8.456716999999999
 21
-6.276594
 31
0.0
  0
LINE
  5
2B3
330
4CA
100
AcDbEntity
  8
1
100
AcDbLine
 10
8.456716999999999
 20
-6.276594
 30
0.0
 11
8.485519999999999
 21
-6.284483999999999
 31
0.0
  0
LINE
  5
2B4
330
4CA
100
AcDbEntity
  8
1
100
AcDbLine
 10
4.060205
 20
10.383446
 30
0.0
 11
3.937642999999999
 21
10.461362
 31
0.0
  0
LINE
  5
2B5
330
4CA
100
AcDbEntity
  8
1
100
AcDbLine
 10
8.485519999999999
 20
-6.284483999999999
 30
0.0
 11
8.512905999999999
 21
-6.293045999999999
 31
0.0
  0
LINE
  5
2B6
330
4CA
100
AcDbEntity
  8
1
100
AcDbLine
 10
3.937642999999999
 20
10.461362
 30
0.0
 11
3.818066999999999
 21
10.535634
 31
0.0
  0
LINE
  5
2B7
330
4CA
100
AcDbEntity
  8
1
100
AcDbLine
 10
8.512905999999999
 20
-6.293045999999999
 30
0.0
 11
8.538902999999999
 21
-6.302275999999999
 31
0.0
  0
LINE
  5
2B8
330
4CA
100
AcDbEntity
  8
1
100
AcDbLine
 10
3.818066999999999
 20
10.535634
 30
0.0
 11
3.701348
 21
10.606086
 31
0.0
  0
LINE
  5
2B9
330
4CA
100
AcDbEntity
  8
1
100
AcDbLine
 10
8.538902999999999
 20
-6.302275999999999
 30
0.0
 11
8.563482
 21
-6.312159999999999
 31
0.0
  0
LINE
  5
2BA
330
4CA
100
AcDbEntity
  8
1
100
AcDbLine
 10
3.701348
 20
10.606086
 30
0.0
 11
3.587619
 21
10.672221
 31
0.0
  0
LINE
  5
2BB
330
4CA
100
AcDbEntity
  8
1
100
AcDbLine
 10
8.563482
 20
-6.312159999999999
 30
0.0
 11
8.586686999999999
 21
-6.32258
 31
0.0
  0
LINE
  5
2BC
330
4CA
100
AcDbEntity
  8
1
100
AcDbLine
 10
3.587619
 20
10.672221
 30
0.0
 11
3.476888999999999
 21
10.733872
 31
0.0
  0
LINE
  5
2BD
330
4CA
100
AcDbEntity
  8
1
100
AcDbLine
 10
8.586686999999999
 20
-6.32258
 30
0.0
 11
8.608525
 21
-6.333543999999999
 31
0.0
  0
LINE
  5
2BE
330
4CA
100
AcDbEntity
  8
1
100
AcDbLine
 10
3.476888999999999
 20
10.733872
 30
0.0
 11
3.369149999999999
 21
10.79087
 31
0.0
  0
LINE
  5
2BF
330
4CA
100
AcDbEntity
  8
1
100
AcDbLine
 10
8.608525
 20
-6.333543999999999
 30
0.0
 11
8.628989
 21
-6.34503
 31
0.0
  0
LINE
  5
2C0
330
4CA
100
AcDbEntity
  8
1
100
AcDbLine
 10
3.369149999999999
 20
10.79087
 30
0.0
 11
3.264504999999999
 21
10.842841
 31
0.0
  0
LINE
  5
2C1
330
4CA
100
AcDbEntity
  8
1
100
AcDbLine
 10
8.628989
 20
-6.34503
 30
0.0
 11
8.648111
 21
-6.356876999999999
 31
0.0
  0
LINE
  5
2C2
330
4CA
100
AcDbEntity
  8
1
100
AcDbLine
 10
3.264504999999999
 20
10.842841
 30
0.0
 11
3.162990999999999
 21
10.889662
 31
0.0
  0
LINE
  5
2C3
330
4CA
100
AcDbEntity
  8
1
100
AcDbLine
 10
8.648111
 20
-6.356876999999999
 30
0.0
 11
8.665853
 21
-6.369064999999999
 31
0.0
  0
LINE
  5
2C4
330
4CA
100
AcDbEntity
  8
1
100
AcDbLine
 10
3.162990999999999
 20
10.889662
 30
0.0
 11
3.064570999999999
 21
10.931259
 31
0.0
  0
LINE
  5
2C5
330
4CA
100
AcDbEntity
  8
1
100
AcDbLine
 10
3.064570999999999
 20
10.931259
 30
0.0
 11
2.969234
 21
10.967449
 31
0.0
  0
LINE
  5
2C6
330
4CA
100
AcDbEntity
  8
1
100
AcDbLine
 10
8.682253999999998
 20
-6.381604
 30
0.0
 11
8.697461999999999
 21
-6.394376999999999
 31
0.0
  0
LINE
  5
2C7
330
4CA
100
AcDbEntity
  8
1
100
AcDbLine
 10
2.969234
 20
10.967449
 30
0.0
 11
2.87692
 21
10.998184
 31
0.0
  0
LINE
  5
2C8
330
4CA
100
AcDbEntity
  8
1
100
AcDbLine
 10
8.697461999999999
 20
-6.394376999999999
 30
0.0
 11
8.711447999999998
 21
-6.407333
 31
0.0
  0
LINE
  5
2C9
330
4CA
100
AcDbEntity
  8
1
100
AcDbLine
 10
2.87692
 20
10.998184
 30
0.0
 11
2.78769
 21
11.0234
 31
0.0
  0
LINE
  5
2CA
330
4CA
100
AcDbEntity
  8
1
100
AcDbLine
 10
8.711447999999998
 20
-6.407333
 30
0.0
 11
8.724241000000001
 21
-6.420519
 31
0.0
  0
LINE
  5
2CB
330
4CA
100
AcDbEntity
  8
1
100
AcDbLine
 10
2.78769
 20
11.0234
 30
0.0
 11
2.701706999999999
 21
11.042985
 31
0.0
  0
LINE
  5
2CC
330
4CA
100
AcDbEntity
  8
1
100
AcDbLine
 10
8.724241000000001
 20
-6.420519
 30
0.0
 11
8.736079
 21
-6.433969
 31
0.0
  0
LINE
  5
2CD
330
4CA
100
AcDbEntity
  8
1
100
AcDbLine
 10
2.701706999999999
 20
11.042985
 30
0.0
 11
2.619027999999999
 21
11.056935
 31
0.0
  0
LINE
  5
2CE
330
4CA
100
AcDbEntity
  8
1
100
AcDbLine
 10
8.736079
 20
-6.433969
 30
0.0
 11
8.746952
 21
-6.447566999999999
 31
0.0
  0
LINE
  5
2CF
330
4CA
100
AcDbEntity
  8
1
100
AcDbLine
 10
2.619027999999999
 20
11.056935
 30
0.0
 11
2.539595999999999
 21
11.065291
 31
0.0
  0
LINE
  5
2D0
330
4CA
100
AcDbEntity
  8
1
100
AcDbLine
 10
8.746952
 20
-6.447566999999999
 30
0.0
 11
8.756871
 21
-6.461426999999999
 31
0.0
  0
LINE
  5
2D1
330
4CA
100
AcDbEntity
  8
1
100
AcDbLine
 10
2.539595999999999
 20
11.065291
 30
0.0
 11
2.463413
 21
11.068073
 31
0.0
  0
LINE
  5
2D2
330
4CA
100
AcDbEntity
  8
1
100
AcDbLine
 10
8.756871
 20
-6.461426999999999
 30
0.0
 11
8.766106999999999
 21
-6.475932
 31
0.0
  0
LINE
  5
2D3
330
4CA
100
AcDbEntity
  8
1
100
AcDbLine
 10
7.891547999999999
 20
10.893676
 30
0.0
 11
7.786382999999999
 21
10.900632
 31
0.0
  0
LINE
  5
2D4
330
4CA
100
AcDbEntity
  8
1
100
AcDbLine
 10
8.766106999999999
 20
-6.475932
 30
0.0
 11
8.774777999999999
 21
-6.491158
 31
0.0
  0
LINE
  5
2D5
330
4CA
100
AcDbEntity
  8
1
100
AcDbLine
 10
7.786382999999999
 20
10.900632
 30
0.0
 11
7.032944
 21
10.943855
 31
0.0
  0
LINE
  5
2D6
330
4CA
100
AcDbEntity
  8
1
100
AcDbLine
 10
8.774777999999999
 20
-6.491158
 30
0.0
 11
8.782766
 21
-6.507029
 31
0.0
  0
LINE
  5
2D7
330
4CA
100
AcDbEntity
  8
1
100
AcDbLine
 10
7.032944
 20
10.943855
 30
0.0
 11
6.275476999999999
 21
10.980696
 31
0.0
  0
LINE
  5
2D8
330
4CA
100
AcDbEntity
  8
1
100
AcDbLine
 10
8.782766
 20
-6.507029
 30
0.0
 11
8.789989
 21
-6.523703
 31
0.0
  0
LINE
  5
2D9
330
4CA
100
AcDbEntity
  8
1
100
AcDbLine
 10
8.789989
 20
-6.523703
 30
0.0
 11
8.796476
 21
-6.54124
 31
0.0
  0
LINE
  5
2DA
330
4CA
100
AcDbEntity
  8
1
100
AcDbLine
 10
5.514019999999999
 20
11.011184
 30
0.0
 11
4.750524999999999
 21
11.035172
 31
0.0
  0
LINE
  5
2DB
330
4CA
100
AcDbEntity
  8
1
100
AcDbLine
 10
8.796476
 20
-6.54124
 30
0.0
 11
8.802198999999999
 21
-6.559578
 31
0.0
  0
LINE
  5
2DC
330
4CA
100
AcDbEntity
  8
1
100
AcDbLine
 10
4.750524999999999
 20
11.035172
 30
0.0
 11
3.985641999999999
 21
11.052609
 31
0.0
  0
LINE
  5
2DD
330
4CA
100
AcDbEntity
  8
1
100
AcDbLine
 10
8.802198999999999
 20
-6.559578
 30
0.0
 11
8.806991
 21
-6.578702
 31
0.0
  0
LINE
  5
2DE
330
4CA
100
AcDbEntity
  8
1
100
AcDbLine
 10
2.864333999999999
 20
4.455379999999999
 30
0.0
 11
2.77482
 21
4.684690999999999
 31
0.0
  0
LINE
  5
2DF
330
4CA
100
AcDbEntity
  8
1
100
AcDbLine
 10
8.806991
 20
-6.578702
 30
0.0
 11
8.810833999999999
 21
-6.598633
 31
0.0
  0
LINE
  5
2E0
330
4CA
100
AcDbEntity
  8
1
100
AcDbLine
 10
3.218720999999999
 20
11.063544
 30
0.0
 11
2.463413
 21
11.0679
 31
0.0
  0
LINE
  5
2E1
330
4CA
100
AcDbEntity
  8
1
100
AcDbLine
 10
8.810833999999999
 20
-6.598633
 30
0.0
 11
8.813746999999999
 21
-6.619349
 31
0.0
  0
LINE
  5
2E2
330
4CA
100
AcDbEntity
  8
1
100
AcDbLine
 10
7.891547999999999
 20
7.139750999999999
 30
0.0
 11
7.785508
 21
7.111036999999999
 31
0.0
  0
LINE
  5
2E3
330
4CA
100
AcDbEntity
  8
1
100
AcDbLine
 10
8.813746999999999
 20
-6.619349
 30
0.0
 11
8.815616999999999
 21
-6.640766
 31
0.0
  0
LINE
  5
2E4
330
4CA
100
AcDbEntity
  8
1
100
AcDbLine
 10
7.785508
 20
7.111036999999999
 30
0.0
 11
7.031997
 21
6.903694999999999
 31
0.0
  0
LINE
  5
2E5
330
4CA
100
AcDbEntity
  8
1
100
AcDbLine
 10
8.815616999999999
 20
-6.640766
 30
0.0
 11
8.816435
 21
-6.662816
 31
0.0
  0
LINE
  5
2E6
330
4CA
100
AcDbEntity
  8
1
100
AcDbLine
 10
7.031997
 20
6.903694999999999
 30
0.0
 11
6.274421
 21
6.691925999999999
 31
0.0
  0
LINE
  5
2E7
330
4CA
100
AcDbEntity
  8
1
100
AcDbLine
 10
6.274421
 20
6.691925999999999
 30
0.0
 11
5.512863999999999
 21
6.475769999999999
 31
0.0
  0
LINE
  5
2E8
330
4CA
100
AcDbEntity
  8
1
100
AcDbLine
 10
8.816208999999998
 20
-6.685569999999999
 30
0.0
 11
8.814853999999998
 21
-6.709141999999999
 31
0.0
  0
LINE
  5
2E9
330
4CA
100
AcDbEntity
  8
1
100
AcDbLine
 10
5.512863999999999
 20
6.475769999999999
 30
0.0
 11
4.749411
 21
6.255787
 31
0.0
  0
LINE
  5
2EA
330
4CA
100
AcDbEntity
  8
1
100
AcDbLine
 10
8.814853999999998
 20
-6.709141999999999
 30
0.0
 11
8.812374
 21
-6.733569999999999
 31
0.0
  0
LINE
  5
2EB
330
4CA
100
AcDbEntity
  8
1
100
AcDbLine
 10
8.812374
 20
-6.733569999999999
 30
0.0
 11
8.808764999999999
 21
-6.758824999999999
 31
0.0
  0
LINE
  5
2EC
330
4CA
100
AcDbEntity
  8
1
100
AcDbLine
 10
8.808764999999999
 20
-6.758824999999999
 30
0.0
 11
8.803927999999999
 21
-6.784928999999999
 31
0.0
  0
LINE
  5
2ED
330
4CA
100
AcDbEntity
  8
1
100
AcDbLine
 10
8.803927999999999
 20
-6.784928999999999
 30
0.0
 11
8.797830000000001
 21
-6.811888999999999
 31
0.0
  0
LINE
  5
2EE
330
4CA
100
AcDbEntity
  8
1
100
AcDbLine
 10
8.797830000000001
 20
-6.811888999999999
 30
0.0
 11
8.790503999999998
 21
-6.83971
 31
0.0
  0
LINE
  5
2EF
330
4CA
100
AcDbEntity
  8
1
100
AcDbLine
 10
3.985641999999999
 20
11.052609
 30
0.0
 11
3.218720999999999
 21
11.063544
 31
0.0
  0
LINE
  5
2F0
330
4CA
100
AcDbEntity
  8
1
100
AcDbLine
 10
2.814379
 20
5.369521999999999
 30
0.0
 11
2.717232
 21
5.416369
 31
0.0
  0
LINE
  5
2F1
330
4CA
100
AcDbEntity
  8
1
100
AcDbLine
 10
9.959464
 20
-9.325732999999999
 30
0.0
 11
9.492117
 21
-9.389459
 31
0.0
  0
LINE
  5
2F2
330
4CA
100
AcDbEntity
  8
1
100
AcDbLine
 10
8.871897999999999
 20
-7.626119999999999
 30
0.0
 11
8.852569
 21
-7.652541
 31
0.0
  0
LINE
  5
2F3
330
4CA
100
AcDbEntity
  8
1
100
AcDbLine
 10
8.852569
 20
-7.652541
 30
0.0
 11
8.831633999999999
 21
-7.679325999999999
 31
0.0
  0
LINE
  5
2F4
330
4CA
100
AcDbEntity
  8
1
100
AcDbLine
 10
8.831633999999999
 20
-7.679325999999999
 30
0.0
 11
8.809057000000001
 21
-7.706452
 31
0.0
  0
LINE
  5
2F5
330
4CA
100
AcDbEntity
  8
1
100
AcDbLine
 10
8.809057000000001
 20
-7.706452
 30
0.0
 11
8.784656
 21
-7.734016999999999
 31
0.0
  0
LINE
  5
2F6
330
4CA
100
AcDbEntity
  8
1
100
AcDbLine
 10
8.784656
 20
-7.734016999999999
 30
0.0
 11
8.758372999999998
 21
-7.761999999999999
 31
0.0
  0
LINE
  5
2F7
330
4CA
100
AcDbEntity
  8
1
100
AcDbLine
 10
8.758372999999998
 20
-7.761999999999999
 30
0.0
 11
8.730210000000001
 21
-7.790308
 31
0.0
  0
LINE
  5
2F8
330
4CA
100
AcDbEntity
  8
1
100
AcDbLine
 10
8.730210000000001
 20
-7.790308
 30
0.0
 11
8.700075999999999
 21
-7.818928999999999
 31
0.0
  0
LINE
  5
2F9
330
4CA
100
AcDbEntity
  8
1
100
AcDbLine
 10
8.700075999999999
 20
-7.818928999999999
 30
0.0
 11
8.667935999999999
 21
-7.847794
 31
0.0
  0
LINE
  5
2FA
330
4CA
100
AcDbEntity
  8
1
100
AcDbLine
 10
8.667935999999999
 20
-7.847794
 30
0.0
 11
8.633771000000001
 21
-7.876835
 31
0.0
  0
LINE
  5
2FB
330
4CA
100
AcDbEntity
  8
1
100
AcDbLine
 10
6.524081999999999
 20
0.515297
 30
0.0
 11
6.482974999999999
 21
0.522229
 31
0.0
  0
LINE
  5
2FC
330
4CA
100
AcDbEntity
  8
1
100
AcDbLine
 10
8.597499
 20
-7.906028
 30
0.0
 11
8.559047999999998
 21
-7.935318999999999
 31
0.0
  0
LINE
  5
2FD
330
4CA
100
AcDbEntity
  8
1
100
AcDbLine
 10
8.559047999999998
 20
-7.935318999999999
 30
0.0
 11
8.518436999999998
 21
-7.964592999999998
 31
0.0
  0
LINE
  5
2FE
330
4CA
100
AcDbEntity
  8
1
100
AcDbLine
 10
6.443024999999999
 20
0.529324
 30
0.0
 11
6.404225
 21
0.536553
 31
0.0
  0
LINE
  5
2FF
330
4CA
100
AcDbEntity
  8
1
100
AcDbLine
 10
8.518436999999998
 20
-7.964592999999998
 30
0.0
 11
8.475728999999999
 21
-7.993724
 31
0.0
  0
LINE
  5
300
330
4CA
100
AcDbEntity
  8
1
100
AcDbLine
 10
6.404225
 20
0.536553
 30
0.0
 11
6.366626999999999
 21
0.543873
 31
0.0
  0
LINE
  5
301
330
4CA
100
AcDbEntity
  8
1
100
AcDbLine
 10
8.475728999999999
 20
-7.993724
 30
0.0
 11
8.430865999999999
 21
-8.022638999999999
 31
0.0
  0
LINE
  5
302
330
4CA
100
AcDbEntity
  8
1
100
AcDbLine
 10
6.366626999999999
 20
0.543873
 30
0.0
 11
6.330362999999999
 21
0.5512670000000001
 31
0.0
  0
LINE
  5
303
330
4CA
100
AcDbEntity
  8
1
100
AcDbLine
 10
8.430865999999999
 20
-8.022638999999999
 30
0.0
 11
8.383863999999999
 21
-8.051224000000001
 31
0.0
  0
LINE
  5
304
330
4CA
100
AcDbEntity
  8
1
100
AcDbLine
 10
6.330362999999999
 20
0.5512670000000001
 30
0.0
 11
6.295486
 21
0.558711
 31
0.0
  0
LINE
  5
305
330
4CA
100
AcDbEntity
  8
1
100
AcDbLine
 10
8.383863999999999
 20
-8.051224000000001
 30
0.0
 11
8.334907000000001
 21
-8.079299
 31
0.0
  0
LINE
  5
306
330
4CA
100
AcDbEntity
  8
1
100
AcDbLine
 10
6.295486
 20
0.558711
 30
0.0
 11
6.261973
 21
0.566171
 31
0.0
  0
LINE
  5
307
330
4CA
100
AcDbEntity
  8
1
100
AcDbLine
 10
8.334907000000001
 20
-8.079299
 30
0.0
 11
8.283853
 21
-8.106835
 31
0.0
  0
LINE
  5
308
330
4CA
100
AcDbEntity
  8
1
100
AcDbLine
 10
6.261973
 20
0.566171
 30
0.0
 11
6.229841
 21
0.5736220000000002
 31
0.0
  0
LINE
  5
309
330
4CA
100
AcDbEntity
  8
1
100
AcDbLine
 10
6.492655
 20
1.210996999999999
 30
0.0
 11
6.517879999999999
 21
1.231545
 31
0.0
  0
LINE
  5
30A
330
4CA
100
AcDbEntity
  8
1
100
AcDbLine
 10
6.517879999999999
 20
1.231545
 30
0.0
 11
6.551209
 21
1.256896999999999
 31
0.0
  0
LINE
  5
30B
330
4CA
100
AcDbEntity
  8
1
100
AcDbLine
 10
6.586810999999999
 20
1.281775
 30
0.0
 11
6.624747
 21
1.306186999999999
 31
0.0
  0
LINE
  5
30C
330
4CA
100
AcDbEntity
  8
1
100
AcDbLine
 10
6.624747
 20
1.306186999999999
 30
0.0
 11
6.664986999999999
 21
1.330188999999999
 31
0.0
  0
LINE
  5
30D
330
4CA
100
AcDbEntity
  8
1
100
AcDbLine
 10
8.966134
 20
-7.452758
 30
0.0
 11
8.956794
 21
-7.476088999999999
 31
0.0
  0
LINE
  5
30E
330
4CA
100
AcDbEntity
  8
1
100
AcDbLine
 10
6.664986999999999
 20
1.330188999999999
 30
0.0
 11
6.707355
 21
1.353462999999999
 31
0.0
  0
LINE
  5
30F
330
4CA
100
AcDbEntity
  8
1
100
AcDbLine
 10
6.707355
 20
1.353462999999999
 30
0.0
 11
6.751866999999999
 21
1.375998
 31
0.0
  0
LINE
  5
310
330
4CA
100
AcDbEntity
  8
1
100
AcDbLine
 10
6.751866999999999
 20
1.375998
 30
0.0
 11
6.798530999999999
 21
1.397864
 31
0.0
  0
LINE
  5
311
330
4CA
100
AcDbEntity
  8
1
100
AcDbLine
 10
6.798530999999999
 20
1.397864
 30
0.0
 11
6.847160999999999
 21
1.418855999999999
 31
0.0
  0
LINE
  5
312
330
4CA
100
AcDbEntity
  8
1
100
AcDbLine
 10
6.847160999999999
 20
1.418855999999999
 30
0.0
 11
6.897749
 21
1.438971999999999
 31
0.0
  0
LINE
  5
313
330
4CA
100
AcDbEntity
  8
1
100
AcDbLine
 10
6.950317999999999
 20
1.458266
 30
0.0
 11
7.004724999999999
 21
1.476604999999999
 31
0.0
  0
LINE
  5
314
330
4CA
100
AcDbEntity
  8
1
100
AcDbLine
 10
4.749411
 20
-4.779415
 30
0.0
 11
3.984757
 21
-5.020466
 31
0.0
  0
LINE
  5
315
330
4CA
100
AcDbEntity
  8
1
100
AcDbLine
 10
7.004724999999999
 20
1.476604999999999
 30
0.0
 11
7.061099
 21
1.494026
 31
0.0
  0
LINE
  5
316
330
4CA
100
AcDbEntity
  8
1
100
AcDbLine
 10
3.984757
 20
-5.020466
 30
0.0
 11
3.218207
 21
-5.258842999999999
 31
0.0
  0
LINE
  5
317
330
4CA
100
AcDbEntity
  8
1
100
AcDbLine
 10
7.061099
 20
1.494026
 30
0.0
 11
7.119318999999999
 21
1.510539999999999
 31
0.0
  0
LINE
  5
318
330
4CA
100
AcDbEntity
  8
1
100
AcDbLine
 10
7.119318999999999
 20
1.510539999999999
 30
0.0
 11
7.178863
 21
1.525965
 31
0.0
  0
LINE
  5
319
330
4CA
100
AcDbEntity
  8
1
100
AcDbLine
 10
13.6
 20
-10.336314
 30
0.0
 11
12.898732
 21
-10.42729
 31
0.0
  0
LINE
  5
31A
330
4CA
100
AcDbEntity
  8
1
100
AcDbLine
 10
12.898732
 20
-10.42729
 30
0.0
 11
12.189935
 21
-10.512479
 31
0.0
  0
LINE
  5
31B
330
4CA
100
AcDbEntity
  8
1
100
AcDbLine
 10
7.423405
 20
-8.359173
 30
0.0
 11
7.366944999999999
 21
-8.363127999999999
 31
0.0
  0
LINE
  5
31C
330
4CA
100
AcDbEntity
  8
1
100
AcDbLine
 10
7.366944999999999
 20
-8.363127999999999
 30
0.0
 11
7.311100999999999
 21
-8.365510999999999
 31
0.0
  0
LINE
  5
31D
330
4CA
100
AcDbEntity
  8
1
100
AcDbLine
 10
7.094572999999999
 20
-8.359980999999999
 30
0.0
 11
7.042205
 21
-8.354979
 31
0.0
  0
LINE
  5
31E
330
4CA
100
AcDbEntity
  8
1
100
AcDbLine
 10
12.256033
 20
10.084039
 30
0.0
 11
11.802211
 21
10.034752
 31
0.0
  0
LINE
  5
31F
330
4CA
100
AcDbEntity
  8
1
100
AcDbLine
 10
8.664089999999999
 20
5.133738
 30
0.0
 11
8.664089999999999
 21
3.383794999999999
 31
0.0
  0
LINE
  5
320
330
4CA
100
AcDbEntity
  8
1
100
AcDbLine
 10
7.480375
 20
-8.353635
 30
0.0
 11
7.423405
 21
-8.359173
 31
0.0
  0
LINE
  5
321
330
4CA
100
AcDbEntity
  8
1
100
AcDbLine
 10
3.128772999999999
 20
5.245953
 30
0.0
 11
3.020272999999999
 21
5.284253999999999
 31
0.0
  0
LINE
  5
322
330
4CA
100
AcDbEntity
  8
1
100
AcDbLine
 10
8.634544999999999
 20
0.65358
 30
0.0
 11
8.598392
 21
0.6402770000000002
 31
0.0
  0
LINE
  5
323
330
4CA
100
AcDbEntity
  8
1
100
AcDbLine
 10
8.598392
 20
0.6402770000000002
 30
0.0
 11
8.560063000000001
 21
0.6268699999999999
 31
0.0
  0
LINE
  5
324
330
4CA
100
AcDbEntity
  8
1
100
AcDbLine
 10
8.560063000000001
 20
0.6268699999999999
 30
0.0
 11
8.519576999999999
 21
0.6134300000000001
 31
0.0
  0
LINE
  5
325
330
4CA
100
AcDbEntity
  8
1
100
AcDbLine
 10
8.519576999999999
 20
0.6134300000000001
 30
0.0
 11
8.476983999999999
 21
0.600061
 31
0.0
  0
LINE
  5
326
330
4CA
100
AcDbEntity
  8
1
100
AcDbLine
 10
8.987102
 20
-7.385863
 30
0.0
 11
8.981269000000001
 21
-7.407621999999999
 31
0.0
  0
LINE
  5
327
330
4CA
100
AcDbEntity
  8
1
100
AcDbLine
 10
8.981269000000001
 20
-7.407621999999999
 30
0.0
 11
8.974274000000001
 21
-7.429933
 31
0.0
  0
LINE
  5
328
330
4CA
100
AcDbEntity
  8
1
100
AcDbLine
 10
7.391547999999999
 20
5.455309999999999
 30
0.0
 11
7.225332
 21
5.406185999999999
 31
0.0
  0
LINE
  5
329
330
4CA
100
AcDbEntity
  8
1
100
AcDbLine
 10
7.225332
 20
5.406185999999999
 30
0.0
 11
7.059539
 21
5.359919999999999
 31
0.0
  0
LINE
  5
32A
330
4CA
100
AcDbEntity
  8
1
100
AcDbLine
 10
7.059539
 20
5.359919999999999
 30
0.0
 11
6.894169999999999
 21
5.316512
 31
0.0
  0
LINE
  5
32B
330
4CA
100
AcDbEntity
  8
1
100
AcDbLine
 10
6.894169999999999
 20
5.316512
 30
0.0
 11
6.729085
 21
5.27593
 31
0.0
  0
LINE
  5
32C
330
4CA
100
AcDbEntity
  8
1
100
AcDbLine
 10
6.729085
 20
5.27593
 30
0.0
 11
6.564424999999999
 21
5.238205
 31
0.0
  0
LINE
  5
32D
330
4CA
100
AcDbEntity
  8
1
100
AcDbLine
 10
6.564424999999999
 20
5.238205
 30
0.0
 11
6.400601999999999
 21
5.203433999999999
 31
0.0
  0
LINE
  5
32E
330
4CA
100
AcDbEntity
  8
1
100
AcDbLine
 10
4.181117999999999
 20
-8.649755
 30
0.0
 11
4.054739999999999
 21
-8.504072999999999
 31
0.0
  0
LINE
  5
32F
330
4CA
100
AcDbEntity
  8
1
100
AcDbLine
 10
6.400601999999999
 20
5.203433999999999
 30
0.0
 11
6.237619999999999
 21
5.171621
 31
0.0
  0
LINE
  5
330
330
4CA
100
AcDbEntity
  8
1
100
AcDbLine
 10
6.237619999999999
 20
5.171621
 30
0.0
 11
6.075474999999999
 21
5.142761
 31
0.0
  0
LINE
  5
331
330
4CA
100
AcDbEntity
  8
1
100
AcDbLine
 10
12.454929
 20
8.433174000000001
 30
0.0
 11
13.027439
 21
8.572889999999999
 31
0.0
  0
LINE
  5
332
330
4CA
100
AcDbEntity
  8
1
100
AcDbLine
 10
5.914581
 20
5.116927999999999
 30
0.0
 11
5.75494
 21
5.094127999999999
 31
0.0
  0
LINE
  5
333
330
4CA
100
AcDbEntity
  8
1
100
AcDbLine
 10
5.75494
 20
5.094127999999999
 30
0.0
 11
5.596548999999999
 21
5.074352999999999
 31
0.0
  0
LINE
  5
334
330
4CA
100
AcDbEntity
  8
1
100
AcDbLine
 10
5.439809999999999
 20
5.057654
 30
0.0
 11
5.284724999999999
 21
5.044037
 31
0.0
  0
LINE
  5
335
330
4CA
100
AcDbEntity
  8
1
100
AcDbLine
 10
5.284724999999999
 20
5.044037
 30
0.0
 11
5.131292
 21
5.033497
 31
0.0
  0
LINE
  5
336
330
4CA
100
AcDbEntity
  8
1
100
AcDbLine
 10
5.131292
 20
5.033497
 30
0.0
 11
4.979898999999999
 21
5.026059
 31
0.0
  0
LINE
  5
337
330
4CA
100
AcDbEntity
  8
1
100
AcDbLine
 10
4.979898999999999
 20
5.026059
 30
0.0
 11
4.830550999999999
 21
5.021732
 31
0.0
  0
LINE
  5
338
330
4CA
100
AcDbEntity
  8
1
100
AcDbLine
 10
4.830550999999999
 20
5.021732
 30
0.0
 11
4.683243
 21
5.020506
 31
0.0
  0
LINE
  5
339
330
4CA
100
AcDbEntity
  8
1
100
AcDbLine
 10
4.683243
 20
5.020506
 30
0.0
 11
4.538346999999999
 21
5.022386
 31
0.0
  0
LINE
  5
33A
330
4CA
100
AcDbEntity
  8
1
100
AcDbLine
 10
4.538346999999999
 20
5.022386
 30
0.0
 11
4.395870999999999
 21
5.027378999999999
 31
0.0
  0
LINE
  5
33B
330
4CA
100
AcDbEntity
  8
1
100
AcDbLine
 10
4.395870999999999
 20
5.027378999999999
 30
0.0
 11
4.255808
 21
5.035476999999999
 31
0.0
  0
LINE
  5
33C
330
4CA
100
AcDbEntity
  8
1
100
AcDbLine
 10
8.320113
 20
-3.812494
 30
0.0
 11
8.323968999999999
 21
-3.906073999999999
 31
0.0
  0
LINE
  5
33D
330
4CA
100
AcDbEntity
  8
1
100
AcDbLine
 10
4.118513
 20
5.046659
 30
0.0
 11
3.983991999999999
 21
5.060933999999999
 31
0.0
  0
LINE
  5
33E
330
4CA
100
AcDbEntity
  8
1
100
AcDbLine
 10
8.331720999999999
 20
-3.998316
 30
0.0
 11
8.343330999999999
 21
-4.089133
 31
0.0
  0
LINE
  5
33F
330
4CA
100
AcDbEntity
  8
1
100
AcDbLine
 10
8.738035999999999
 20
-5.022287
 30
0.0
 11
8.798975
 21
-5.101316999999999
 31
0.0
  0
LINE
  5
340
330
4CA
100
AcDbEntity
  8
1
100
AcDbLine
 10
3.852238999999999
 20
5.078293
 30
0.0
 11
3.723587999999999
 21
5.098692999999999
 31
0.0
  0
LINE
  5
341
330
4CA
100
AcDbEntity
  8
1
100
AcDbLine
 10
3.723587999999999
 20
5.098692999999999
 30
0.0
 11
3.598047
 21
5.122142
 31
0.0
  0
LINE
  5
342
330
4CA
100
AcDbEntity
  8
1
100
AcDbLine
 10
8.378358999999999
 20
-4.267242999999999
 30
0.0
 11
8.401904
 21
-4.355051999999999
 31
0.0
  0
LINE
  5
343
330
4CA
100
AcDbEntity
  8
1
100
AcDbLine
 10
8.401904
 20
-4.355051999999999
 30
0.0
 11
8.429463999999999
 21
-4.441961
 31
0.0
  0
LINE
  5
344
330
4CA
100
AcDbEntity
  8
1
100
AcDbLine
 10
3.356577999999999
 20
5.178094
 30
0.0
 11
3.240969999999999
 21
5.210537
 31
0.0
  0
LINE
  5
345
330
4CA
100
AcDbEntity
  8
1
100
AcDbLine
 10
3.240969999999999
 20
5.210537
 30
0.0
 11
3.128772999999999
 21
5.245953
 31
0.0
  0
LINE
  5
346
330
4CA
100
AcDbEntity
  8
1
100
AcDbLine
 10
8.53688
 20
-4.696883999999999
 30
0.0
 11
8.580949999999999
 21
-4.779835
 31
0.0
  0
LINE
  5
347
330
4CA
100
AcDbEntity
  8
1
100
AcDbLine
 10
8.580949999999999
 20
-4.779835
 30
0.0
 11
8.629089
 21
-4.861625
 31
0.0
  0
LINE
  5
348
330
4CA
100
AcDbEntity
  8
1
100
AcDbLine
 10
8.629089
 20
-4.861625
 30
0.0
 11
8.681369999999999
 21
-4.942378999999999
 31
0.0
  0
LINE
  5
349
330
4CA
100
AcDbEntity
  8
1
100
AcDbLine
 10
8.681369999999999
 20
-4.942378999999999
 30
0.0
 11
8.738035999999999
 21
-5.022287
 31
0.0
  0
LINE
  5
34A
330
4CA
100
AcDbEntity
  8
1
100
AcDbLine
 10
2.624122999999999
 20
5.465951999999999
 30
0.0
 11
2.534965999999999
 21
5.518307
 31
0.0
  0
LINE
  5
34B
330
4CA
100
AcDbEntity
  8
1
100
AcDbLine
 10
2.534965999999999
 20
5.518307
 30
0.0
 11
2.449761
 21
5.573434999999999
 31
0.0
  0
LINE
  5
34C
330
4CA
100
AcDbEntity
  8
1
100
AcDbLine
 10
0.0
 20
11.068073
 30
0.0
 11
2.463413
 21
11.068073
 31
0.0
  0
LINE
  5
34D
330
4CA
100
AcDbEntity
  8
1
100
AcDbLine
 10
8.343330999999999
 20
-4.089133
 30
0.0
 11
8.358836999999999
 21
-4.178658999999999
 31
0.0
  0
LINE
  5
34E
330
4CA
100
AcDbEntity
  8
1
100
AcDbLine
 10
13.6
 20
10.224415
 30
0.0
 11
13.154893
 21
10.178869
 31
0.0
  0
LINE
  5
34F
330
4CA
100
AcDbEntity
  8
1
100
AcDbLine
 10
13.154893
 20
10.178869
 30
0.0
 11
12.706905
 21
10.132078
 31
0.0
  0
LINE
  5
350
330
4CA
100
AcDbEntity
  8
1
100
AcDbLine
 10
8.862842999999999
 20
-6.943600999999999
 30
0.0
 11
8.879497999999999
 21
-6.962308
 31
0.0
  0
LINE
  5
351
330
4CA
100
AcDbEntity
  8
1
100
AcDbLine
 10
9.090246
 20
-5.411712
 30
0.0
 11
9.175791999999999
 21
-5.488116
 31
0.0
  0
LINE
  5
352
330
4CA
100
AcDbEntity
  8
1
100
AcDbLine
 10
6.764855
 20
-6.818204999999999
 30
0.0
 11
6.813111999999999
 21
-6.774766999999999
 31
0.0
  0
LINE
  5
353
330
4CA
100
AcDbEntity
  8
1
100
AcDbLine
 10
9.266658999999998
 20
-5.563894
 30
0.0
 11
9.362757999999999
 21
-5.639122
 31
0.0
  0
LINE
  5
354
330
4CA
100
AcDbEntity
  8
1
100
AcDbLine
 10
6.863488999999999
 20
-6.732300999999999
 30
0.0
 11
6.915994
 21
-6.690841999999999
 31
0.0
  0
LINE
  5
355
330
4CA
100
AcDbEntity
  8
1
100
AcDbLine
 10
10.886125
 20
9.932446
 30
0.0
 11
10.424133
 21
9.879433999999999
 31
0.0
  0
LINE
  5
356
330
4CA
100
AcDbEntity
  8
1
100
AcDbLine
 10
6.970638
 20
-6.650403999999999
 30
0.0
 11
7.027311
 21
-6.611249
 31
0.0
  0
LINE
  5
357
330
4CA
100
AcDbEntity
  8
1
100
AcDbLine
 10
9.959464
 20
9.825181999999999
 30
0.0
 11
9.492117
 21
9.769690999999999
 31
0.0
  0
LINE
  5
358
330
4CA
100
AcDbEntity
  8
1
100
AcDbLine
 10
8.320154999999999
 20
7.363842999999999
 30
0.0
 11
8.924349000000001
 21
7.526441
 31
0.0
  0
LINE
  5
359
330
4CA
100
AcDbEntity
  8
1
100
AcDbLine
 10
8.924349000000001
 20
7.526441
 30
0.0
 11
9.524044999999999
 21
7.685757
 31
0.0
  0
LINE
  5
35A
330
4CA
100
AcDbEntity
  8
1
100
AcDbLine
 10
8.318196999999999
 20
-5.168224999999999
 30
0.0
 11
8.232103999999999
 21
-4.903583999999999
 31
0.0
  0
LINE
  5
35B
330
4CA
100
AcDbEntity
  8
1
100
AcDbLine
 10
8.232103999999999
 20
-4.903583999999999
 30
0.0
 11
8.146373999999999
 21
-4.636391999999999
 31
0.0
  0
LINE
  5
35C
330
4CA
100
AcDbEntity
  8
1
100
AcDbLine
 10
3.931264
 20
-8.352567
 30
0.0
 11
3.81081
 21
-8.195232999999999
 31
0.0
  0
LINE
  5
35D
330
4CA
100
AcDbEntity
  8
1
100
AcDbLine
 10
7.311100999999999
 20
-8.365510999999999
 30
0.0
 11
7.255944999999999
 21
-8.366355999999999
 31
0.0
  0
LINE
  5
35E
330
4CA
100
AcDbEntity
  8
1
100
AcDbLine
 10
11.296193
 20
8.143996000000001
 30
0.0
 11
11.877854
 21
8.290205999999999
 31
0.0
  0
LINE
  5
35F
330
4CA
100
AcDbEntity
  8
1
100
AcDbLine
 10
11.877854
 20
8.290205999999999
 30
0.0
 11
12.454929
 21
8.433174000000001
 31
0.0
  0
LINE
  5
360
330
4CA
100
AcDbEntity
  8
1
100
AcDbLine
 10
8.833505
 20
-6.852067999999999
 30
0.0
 11
8.781952
 21
-6.868394
 31
0.0
  0
LINE
  5
361
330
4CA
100
AcDbEntity
  8
1
100
AcDbLine
 10
13.027439
 20
8.572889999999999
 30
0.0
 11
13.595385
 21
8.709353
 31
0.0
  0
LINE
  5
362
330
4CA
100
AcDbEntity
  8
1
100
AcDbLine
 10
13.997267
 20
7.102002
 30
0.0
 11
13.49624
 21
6.962271
 31
0.0
  0
LINE
  5
363
330
4CA
100
AcDbEntity
  8
1
100
AcDbLine
 10
13.49624
 20
6.962271
 30
0.0
 11
12.994426
 21
6.820767
 31
0.0
  0
LINE
  5
364
330
4CA
100
AcDbEntity
  8
1
100
AcDbLine
 10
8.844787
 20
-6.924835
 30
0.0
 11
8.862842999999999
 21
-6.943600999999999
 31
0.0
  0
LINE
  5
365
330
4CA
100
AcDbEntity
  8
1
100
AcDbLine
 10
3.810808999999999
 20
2.344845
 30
0.0
 11
3.693251
 21
2.578984999999999
 31
0.0
  0
LINE
  5
366
330
4CA
100
AcDbEntity
  8
1
100
AcDbLine
 10
8.894878999999999
 20
-6.980944999999999
 30
0.0
 11
8.908989999999999
 21
-6.999472999999999
 31
0.0
  0
LINE
  5
367
330
4CA
100
AcDbEntity
  8
1
100
AcDbLine
 10
8.908989999999999
 20
-6.999472999999999
 30
0.0
 11
8.921855
 21
-7.017899
 31
0.0
  0
LINE
  5
368
330
4CA
100
AcDbEntity
  8
1
100
AcDbLine
 10
8.921855
 20
-7.017899
 30
0.0
 11
8.933624999999999
 21
-7.03627
 31
0.0
  0
LINE
  5
369
330
4CA
100
AcDbEntity
  8
1
100
AcDbLine
 10
8.933624999999999
 20
-7.03627
 30
0.0
 11
8.944323999999999
 21
-7.054585
 31
0.0
  0
LINE
  5
36A
330
4CA
100
AcDbEntity
  8
1
100
AcDbLine
 10
8.831791
 20
0.74105
 30
0.0
 11
8.809274999999999
 21
0.729409
 31
0.0
  0
LINE
  5
36B
330
4CA
100
AcDbEntity
  8
1
100
AcDbLine
 10
8.700628
 20
0.67977
 30
0.0
 11
8.668594999999999
 21
0.6667550000000001
 31
0.0
  0
LINE
  5
36C
330
4CA
100
AcDbEntity
  8
1
100
AcDbLine
 10
10.424133
 20
9.879433999999999
 30
0.0
 11
9.959464
 21
9.825181999999999
 31
0.0
  0
LINE
  5
36D
330
4CA
100
AcDbEntity
  8
1
100
AcDbLine
 10
8.962605999999999
 20
-7.091006
 30
0.0
 11
8.970310000000001
 21
-7.109136999999999
 31
0.0
  0
LINE
  5
36E
330
4CA
100
AcDbEntity
  8
1
100
AcDbLine
 10
3.467287
 20
3.049875
 30
0.0
 11
3.358880999999999
 21
3.286323
 31
0.0
  0
LINE
  5
36F
330
4CA
100
AcDbEntity
  8
1
100
AcDbLine
 10
3.358880999999999
 20
3.286323
 30
0.0
 11
3.253636999999999
 21
3.522226999999999
 31
0.0
  0
LINE
  5
370
330
4CA
100
AcDbEntity
  8
1
100
AcDbLine
 10
6.991291999999999
 20
0.459732
 30
0.0
 11
6.940502999999999
 21
0.4637430000000001
 31
0.0
  0
LINE
  5
371
330
4CA
100
AcDbEntity
  8
1
100
AcDbLine
 10
4.574333
 20
0.9977350000000001
 30
0.0
 11
4.440933999999999
 21
1.212603
 31
0.0
  0
LINE
  5
372
330
4CA
100
AcDbEntity
  8
1
100
AcDbLine
 10
2.717232
 20
5.416369
 30
0.0
 11
2.624122999999999
 21
5.465951999999999
 31
0.0
  0
LINE
  5
373
330
4CA
100
AcDbEntity
  8
1
100
AcDbLine
 10
2.526086
 20
5.355683999999999
 30
0.0
 11
2.449761
 21
5.573434999999999
 31
0.0
  0
LINE
  5
374
330
4CA
100
AcDbEntity
  8
1
100
AcDbLine
 10
7.976134
 20
11.088479
 30
0.0
 11
7.891547999999999
 21
11.026039
 31
0.0
  0
LINE
  5
375
330
4CA
100
AcDbEntity
  8
1
100
AcDbLine
 10
8.385315
 20
0.573665
 30
0.0
 11
8.33643
 21
0.560858
 31
0.0
  0
LINE
  5
376
330
4CA
100
AcDbEntity
  8
1
100
AcDbLine
 10
8.33643
 20
0.560858
 30
0.0
 11
8.285422
 21
0.5483510000000001
 31
0.0
  0
LINE
  5
377
330
4CA
100
AcDbEntity
  8
1
100
AcDbLine
 10
8.285422
 20
0.5483510000000001
 30
0.0
 11
8.232414999999999
 21
0.536222
 31
0.0
  0
LINE
  5
378
330
4CA
100
AcDbEntity
  8
1
100
AcDbLine
 10
14.707072
 20
9.802835999999999
 30
0.0
 11
14.556777
 21
9.861760999999999
 31
0.0
  0
LINE
  5
379
330
4CA
100
AcDbEntity
  8
1
100
AcDbLine
 10
4.980267999999999
 20
0.7113300000000001
 30
0.0
 11
4.888126999999999
 21
0.7348130000000001
 31
0.0
  0
LINE
  5
37A
330
4CA
100
AcDbEntity
  8
1
100
AcDbLine
 10
12.706905
 20
1.208242
 30
0.0
 11
12.256033
 21
1.090969999999999
 31
0.0
  0
LINE
  5
37B
330
4CA
100
AcDbEntity
  8
1
100
AcDbLine
 10
4.888126999999999
 20
0.7348130000000001
 30
0.0
 11
4.798064
 21
0.7601
 31
0.0
  0
LINE
  5
37C
330
4CA
100
AcDbEntity
  8
1
100
AcDbLine
 10
8.426876
 20
1.567219
 30
0.0
 11
8.456550999999999
 21
1.558915
 31
0.0
  0
LINE
  5
37D
330
4CA
100
AcDbEntity
  8
1
100
AcDbLine
 10
9.959464
 20
0.4994500000000001
 30
0.0
 11
9.492117
 21
0.380232
 31
0.0
  0
LINE
  5
37E
330
4CA
100
AcDbEntity
  8
1
100
AcDbLine
 10
15.0
 20
-0.7339100000000001
 30
0.0
 11
14.854828
 21
-0.840403
 31
0.0
  0
LINE
  5
37F
330
4CA
100
AcDbEntity
  8
1
100
AcDbLine
 10
15.0
 20
-4.977869
 30
0.0
 11
8.936633
 21
-6.820203999999999
 31
0.0
  0
LINE
  5
380
330
4CA
100
AcDbEntity
  8
1
100
AcDbLine
 10
8.852674
 20
0.7524100000000001
 30
0.0
 11
8.831791
 21
0.74105
 31
0.0
  0
LINE
  5
381
330
4CA
100
AcDbEntity
  8
1
100
AcDbLine
 10
15.0
 20
9.686230999999999
 30
0.0
 11
15.0
 21
8.656097
 31
0.0
  0
LINE
  5
382
330
4CA
100
AcDbEntity
  8
1
100
AcDbLine
 10
6.940502999999999
 20
0.4637430000000001
 30
0.0
 11
6.89056
 21
0.4681580000000001
 31
0.0
  0
LINE
  5
383
330
4CA
100
AcDbEntity
  8
1
100
AcDbLine
 10
7.888811999999999
 20
-6.268538999999999
 30
0.0
 11
7.940960999999999
 21
-6.260659999999999
 31
0.0
  0
LINE
  5
384
330
4CA
100
AcDbEntity
  8
1
100
AcDbLine
 10
8.038866999999999
 20
-6.249937
 30
0.0
 11
8.084944999999999
 21
-6.246767
 31
0.0
  0
LINE
  5
385
330
4CA
100
AcDbEntity
  8
1
100
AcDbLine
 10
7.312067999999999
 20
0.446207
 30
0.0
 11
7.25686
 21
0.4470560000000001
 31
0.0
  0
LINE
  5
386
330
4CA
100
AcDbEntity
  8
1
100
AcDbLine
 10
6.653966999999999
 20
0.495613
 30
0.0
 11
6.609602
 21
0.5019520000000001
 31
0.0
  0
LINE
  5
387
330
4CA
100
AcDbEntity
  8
1
100
AcDbLine
 10
8.171505999999999
 20
-6.244339
 30
0.0
 11
8.212328999999998
 21
-6.244896999999999
 31
0.0
  0
LINE
  5
388
330
4CA
100
AcDbEntity
  8
1
100
AcDbLine
 10
8.212328999999998
 20
-6.244896999999999
 30
0.0
 11
8.251694999999999
 21
-6.246529999999999
 31
0.0
  0
LINE
  5
389
330
4CA
100
AcDbEntity
  8
1
100
AcDbLine
 10
7.095335999999999
 20
0.453098
 30
0.0
 11
7.042919999999999
 21
0.456169
 31
0.0
  0
LINE
  5
38A
330
4CA
100
AcDbEntity
  8
1
100
AcDbLine
 10
9.476421999999999
 20
11.499998
 30
0.0
 11
14.1
 21
11.499998
 31
0.0
  0
LINE
  5
38B
330
4CA
100
AcDbEntity
  8
1
100
AcDbLine
 10
15.5
 20
0.488507
 30
0.0
 11
15.5
 21
4.207984999999999
 31
0.0
  0
LINE
  5
38C
330
4CA
100
AcDbEntity
  8
1
100
AcDbLine
 10
8.120606
 20
-8.184088
 30
0.0
 11
8.063447999999999
 21
-8.207553
 31
0.0
  0
LINE
  5
38D
330
4CA
100
AcDbEntity
  8
1
100
AcDbLine
 10
4.313378
 20
10.218263
 30
0.0
 11
4.185623999999999
 21
10.302155
 31
0.0
  0
LINE
  5
38E
330
4CA
100
AcDbEntity
  8
1
100
AcDbLine
 10
7.947455999999999
 20
-8.249888999999999
 30
0.0
 11
7.888691
 21
-8.268728999999998
 31
0.0
  0
LINE
  5
38F
330
4CA
100
AcDbEntity
  8
1
100
AcDbLine
 10
8.808392999999998
 20
1.243527999999999
 30
0.0
 11
8.811830999999999
 21
1.223937999999999
 31
0.0
  0
LINE
  5
390
330
4CA
100
AcDbEntity
  8
1
100
AcDbLine
 10
13.6
 20
-8.782721999999999
 30
0.0
 11
13.154893
 21
-8.853721
 31
0.0
  0
LINE
  5
391
330
4CA
100
AcDbEntity
  8
1
100
AcDbLine
 10
9.464089999999998
 20
-5.713818999999999
 30
0.0
 11
9.464089999999998
 21
-6.033748
 31
0.0
  0
LINE
  5
392
330
4CA
100
AcDbEntity
  8
1
100
AcDbLine
 10
8.920713000000001
 20
-7.549200999999999
 30
0.0
 11
8.905886999999999
 21
-7.574486
 31
0.0
  0
LINE
  5
393
330
4CA
100
AcDbEntity
  8
1
100
AcDbLine
 10
6.223708999999999
 20
-7.938486
 30
0.0
 11
6.223633
 21
-7.906371
 31
0.0
  0
LINE
  5
394
330
4CA
100
AcDbEntity
  8
1
100
AcDbLine
 10
8.486819999999999
 20
0.219044
 30
0.0
 11
8.33985
 21
0.209959
 31
0.0
  0
LINE
  5
395
330
4CA
100
AcDbEntity
  8
1
100
AcDbLine
 10
6.223633
 20
-7.906371
 30
0.0
 11
6.224559999999999
 21
-7.873513
 31
0.0
  0
LINE
  5
396
330
4CA
100
AcDbEntity
  8
1
100
AcDbLine
 10
8.977061
 20
-7.127197999999999
 30
0.0
 11
8.982939999999999
 21
-7.145191
 31
0.0
  0
LINE
  5
397
330
4CA
100
AcDbEntity
  8
1
100
AcDbLine
 10
6.224559999999999
 20
-7.873513
 30
0.0
 11
6.226575
 21
-7.839988
 31
0.0
  0
LINE
  5
398
330
4CA
100
AcDbEntity
  8
1
100
AcDbLine
 10
8.982939999999999
 20
-7.145191
 30
0.0
 11
8.987951999999999
 21
-7.163066999999999
 31
0.0
  0
LINE
  5
399
330
4CA
100
AcDbEntity
  8
1
100
AcDbLine
 10
2.77482
 20
4.684690999999999
 30
0.0
 11
2.688591
 21
4.911330999999999
 31
0.0
  0
LINE
  5
39A
330
4CA
100
AcDbEntity
  8
1
100
AcDbLine
 10
8.992107999999999
 20
-7.180861
 30
0.0
 11
8.995487999999999
 21
-7.198696
 31
0.0
  0
LINE
  5
39B
330
4CA
100
AcDbEntity
  8
1
100
AcDbLine
 10
8.995487999999999
 20
-7.198696
 30
0.0
 11
8.998111999999999
 21
-7.216564999999999
 31
0.0
  0
LINE
  5
39C
330
4CA
100
AcDbEntity
  8
1
100
AcDbLine
 10
7.589955
 20
0.212241
 30
0.0
 11
7.436153
 21
0.2219969999999999
 31
0.0
  0
LINE
  5
39D
330
4CA
100
AcDbEntity
  8
1
100
AcDbLine
 10
8.999964999999999
 20
-7.234461999999999
 30
0.0
 11
9.001072
 21
-7.252514999999999
 31
0.0
  0
LINE
  5
39E
330
4CA
100
AcDbEntity
  8
1
100
AcDbLine
 10
7.25686
 20
0.4470560000000001
 30
0.0
 11
7.202336999999999
 21
0.448496
 31
0.0
  0
LINE
  5
39F
330
4CA
100
AcDbEntity
  8
1
100
AcDbLine
 10
11.47361
 20
-10.591882
 30
0.0
 11
10.749187
 21
-10.665607
 31
0.0
  0
LINE
  5
3A0
330
4CA
100
AcDbEntity
  8
1
100
AcDbLine
 10
8.664089999999999
 20
11.328524
 30
0.0
 11
9.476421999999999
 21
11.499998
 31
0.0
  0
LINE
  5
3A1
330
4CA
100
AcDbEntity
  8
1
100
AcDbLine
 10
10.749187
 20
-10.665607
 30
0.0
 11
10.017235
 21
-10.733545
 31
0.0
  0
LINE
  5
3A2
330
4CA
100
AcDbEntity
  8
1
100
AcDbLine
 10
10.017235
 20
-10.733545
 30
0.0
 11
9.279464
 21
-10.795371
 31
0.0
  0
LINE
  5
3A3
330
4CA
100
AcDbEntity
  8
1
100
AcDbLine
 10
9.279464
 20
-10.795371
 30
0.0
 11
8.535833
 21
-10.851058
 31
0.0
  0
LINE
  5
3A4
330
4CA
100
AcDbEntity
  8
1
100
AcDbLine
 10
3.253652
 20
-7.325833
 30
0.0
 11
3.151613
 21
-7.137397999999999
 31
0.0
  0
LINE
  5
3A5
330
4CA
100
AcDbEntity
  8
1
100
AcDbLine
 10
13.154893
 20
-8.853721
 30
0.0
 11
12.706905
 21
-8.923835999999999
 31
0.0
  0
LINE
  5
3A6
330
4CA
100
AcDbEntity
  8
1
100
AcDbLine
 10
12.256033
 20
-8.993069999999999
 30
0.0
 11
11.802211
 21
-9.061438
 31
0.0
  0
LINE
  5
3A7
330
4CA
100
AcDbEntity
  8
1
100
AcDbLine
 10
11.802211
 20
-9.061438
 30
0.0
 11
11.345507
 21
-9.128924000000001
 31
0.0
  0
LINE
  5
3A8
330
4CA
100
AcDbEntity
  8
1
100
AcDbLine
 10
11.01585
 20
5.932205
 30
0.0
 11
10.498779
 21
5.775908
 31
0.0
  0
LINE
  5
3A9
330
4CA
100
AcDbEntity
  8
1
100
AcDbLine
 10
10.498779
 20
5.775908
 30
0.0
 11
9.981524999999999
 21
5.618125
 31
0.0
  0
LINE
  5
3AA
330
4CA
100
AcDbEntity
  8
1
100
AcDbLine
 10
7.255944999999999
 20
-8.366355999999999
 30
0.0
 11
7.201474
 21
-8.365702
 31
0.0
  0
LINE
  5
3AB
330
4CA
100
AcDbEntity
  8
1
100
AcDbLine
 10
7.893464999999999
 20
9.684610000000001
 30
0.0
 11
7.742407
 21
9.686361999999999
 31
0.0
  0
LINE
  5
3AC
330
4CA
100
AcDbEntity
  8
1
100
AcDbLine
 10
7.436153
 20
9.694302999999999
 30
0.0
 11
7.280732
 21
9.700461999999999
 31
0.0
  0
LINE
  5
3AD
330
4CA
100
AcDbEntity
  8
1
100
AcDbLine
 10
4.710124999999999
 20
0.787176
 30
0.0
 11
4.574333
 21
0.9977350000000001
 31
0.0
  0
LINE
  5
3AE
330
4CA
100
AcDbEntity
  8
1
100
AcDbLine
 10
8.664089999999999
 20
-6.194784999999999
 30
0.0
 11
8.577375999999999
 21
-5.942905999999999
 31
0.0
  0
LINE
  5
3AF
330
4CA
100
AcDbEntity
  8
1
100
AcDbLine
 10
8.908917
 20
0.9505729999999999
 30
0.0
 11
8.921789
 21
0.9479079999999999
 31
0.0
  0
LINE
  5
3B0
330
4CA
100
AcDbEntity
  8
1
100
AcDbLine
 10
6.143943
 20
9.78273
 30
0.0
 11
5.973780999999999
 21
9.799832999999999
 31
0.0
  0
LINE
  5
3B1
330
4CA
100
AcDbEntity
  8
1
100
AcDbLine
 10
8.944323999999999
 20
-7.054585
 30
0.0
 11
8.95395
 21
-7.072822
 31
0.0
  0
LINE
  5
3B2
330
4CA
100
AcDbEntity
  8
1
100
AcDbLine
 10
6.407479
 20
1.129334
 30
0.0
 11
6.431677999999999
 21
1.155094
 31
0.0
  0
LINE
  5
3B3
330
4CA
100
AcDbEntity
  8
1
100
AcDbLine
 10
8.95395
 20
-7.072822
 30
0.0
 11
8.962605999999999
 21
-7.091006
 31
0.0
  0
LINE
  5
3B4
330
4CA
100
AcDbEntity
  8
1
100
AcDbLine
 10
6.431677999999999
 20
1.155094
 30
0.0
 11
6.458130999999999
 21
1.180674999999999
 31
0.0
  0
LINE
  5
3B5
330
4CA
100
AcDbEntity
  8
1
100
AcDbLine
 10
5.448405999999999
 20
9.858838999999999
 30
0.0
 11
5.268044
 21
9.880997999999999
 31
0.0
  0
LINE
  5
3B6
330
4CA
100
AcDbEntity
  8
1
100
AcDbLine
 10
5.268044
 20
9.880997999999999
 30
0.0
 11
5.084826999999999
 21
9.904367
 31
0.0
  0
LINE
  5
3B7
330
4CA
100
AcDbEntity
  8
1
100
AcDbLine
 10
8.633771000000001
 20
-7.876835
 30
0.0
 11
8.597499
 21
-7.906028
 31
0.0
  0
LINE
  5
3B8
330
4CA
100
AcDbEntity
  8
1
100
AcDbLine
 10
6.482974999999999
 20
0.522229
 30
0.0
 11
6.443024999999999
 21
0.529324
 31
0.0
  0
LINE
  5
3B9
330
4CA
100
AcDbEntity
  8
1
100
AcDbLine
 10
6.005071
 20
0.577857
 30
0.0
 11
5.894913999999999
 21
0.5828020000000001
 31
0.0
  0
LINE
  5
3BA
330
4CA
100
AcDbEntity
  8
1
100
AcDbLine
 10
5.894913999999999
 20
0.5828020000000001
 30
0.0
 11
5.786319
 21
0.5896270000000001
 31
0.0
  0
LINE
  5
3BB
330
4CA
100
AcDbEntity
  8
1
100
AcDbLine
 10
8.664089999999999
 20
5.133738
 30
0.0
 11
8.577375999999999
 21
5.381001
 31
0.0
  0
LINE
  5
3BC
330
4CA
100
AcDbEntity
  8
1
100
AcDbLine
 10
5.574033999999999
 20
0.6089060000000001
 30
0.0
 11
5.470454
 21
0.62135
 31
0.0
  0
LINE
  5
3BD
330
4CA
100
AcDbEntity
  8
1
100
AcDbLine
 10
8.404460999999999
 20
5.863144
 30
0.0
 11
8.318196999999999
 21
6.098194
 31
0.0
  0
LINE
  5
3BE
330
4CA
100
AcDbEntity
  8
1
100
AcDbLine
 10
7.201474
 20
-8.365702
 30
0.0
 11
7.147678999999999
 21
-8.363566999999999
 31
0.0
  0
LINE
  5
3BF
330
4CA
100
AcDbEntity
  8
1
100
AcDbLine
 10
5.268682
 20
0.651814
 30
0.0
 11
5.170594999999999
 21
0.66982
 31
0.0
  0
LINE
  5
3C0
330
4CA
100
AcDbEntity
  8
1
100
AcDbLine
 10
5.170594999999999
 20
0.66982
 30
0.0
 11
5.07444
 21
0.6896620000000001
 31
0.0
  0
LINE
  5
3C1
330
4CA
100
AcDbEntity
  8
1
100
AcDbLine
 10
7.426914
 20
1.576222
 30
0.0
 11
7.488736
 21
1.585539999999999
 31
0.0
  0
LINE
  5
3C2
330
4CA
100
AcDbEntity
  8
1
100
AcDbLine
 10
8.061068999999999
 20
6.776882999999999
 30
0.0
 11
7.976126999999999
 21
6.993725999999999
 31
0.0
  0
LINE
  5
3C3
330
4CA
100
AcDbEntity
  8
1
100
AcDbLine
 10
6.897749
 20
1.438971999999999
 30
0.0
 11
6.950317999999999
 21
1.458266
 31
0.0
  0
LINE
  5
3C4
330
4CA
100
AcDbEntity
  8
1
100
AcDbLine
 10
3.693251
 20
2.578984999999999
 30
0.0
 11
3.578741
 21
2.814043999999999
 31
0.0
  0
LINE
  5
3C5
330
4CA
100
AcDbEntity
  8
1
100
AcDbLine
 10
7.785508
 20
-3.789648999999999
 30
0.0
 11
7.031997
 21
-4.040208999999999
 31
0.0
  0
LINE
  5
3C6
330
4CA
100
AcDbEntity
  8
1
100
AcDbLine
 10
6.482769999999999
 20
-8.194622999999999
 30
0.0
 11
6.442854
 21
-8.173844
 31
0.0
  0
LINE
  5
3C7
330
4CA
100
AcDbEntity
  8
1
100
AcDbLine
 10
7.882255
 20
-8.270688999999999
 30
0.0
 11
7.829869999999999
 21
-8.285883999999999
 31
0.0
  0
LINE
  5
3C8
330
4CA
100
AcDbEntity
  8
1
100
AcDbLine
 10
7.829869999999999
 20
-8.285883999999999
 30
0.0
 11
7.771124
 21
-8.301339999999999
 31
0.0
  0
LINE
  5
3C9
330
4CA
100
AcDbEntity
  8
1
100
AcDbLine
 10
7.209446
 20
-6.501964
 30
0.0
 11
7.273606
 21
-6.468923
 31
0.0
  0
LINE
  5
3CA
330
4CA
100
AcDbEntity
  8
1
100
AcDbLine
 10
8.977035
 20
0.927834
 30
0.0
 11
8.982919
 21
0.9238599999999999
 31
0.0
  0
LINE
  5
3CB
330
4CA
100
AcDbEntity
  8
1
100
AcDbLine
 10
8.982919
 20
0.9238599999999999
 30
0.0
 11
8.987935999999999
 21
0.91974
 31
0.0
  0
LINE
  5
3CC
330
4CA
100
AcDbEntity
  8
1
100
AcDbLine
 10
7.598086999999999
 20
-6.338194999999999
 30
0.0
 11
7.621277
 21
-6.330991
 31
0.0
  0
LINE
  5
3CD
330
4CA
100
AcDbEntity
  8
1
100
AcDbLine
 10
9.001071000000001
 20
0.896536
 30
0.0
 11
9.001443
 21
0.8913249999999999
 31
0.0
  0
LINE
  5
3CE
330
4CA
100
AcDbEntity
  8
1
100
AcDbLine
 10
15.0
 20
-7.598177999999999
 30
0.0
 11
14.854812
 21
-7.724239999999999
 31
0.0
  0
LINE
  5
3CF
330
4CA
100
AcDbEntity
  8
1
100
AcDbLine
 10
7.202336999999999
 20
0.448496
 30
0.0
 11
7.148492
 21
0.450523
 31
0.0
  0
LINE
  5
3D0
330
4CA
100
AcDbEntity
  8
1
100
AcDbLine
 10
7.148492
 20
0.450523
 30
0.0
 11
7.095335999999999
 21
0.453098
 31
0.0
  0
LINE
  5
3D1
330
4CA
100
AcDbEntity
  8
1
100
AcDbLine
 10
13.929757
 20
-8.509433999999998
 30
0.0
 11
13.766232
 21
-8.645344999999998
 31
0.0
  0
LINE
  5
3D2
330
4CA
100
AcDbEntity
  8
1
100
AcDbLine
 10
13.766238
 20
-10.202477
 30
0.0
 11
13.6
 21
-10.336314
 31
0.0
  0
LINE
  5
3D3
330
4CA
100
AcDbEntity
  8
1
100
AcDbLine
 10
8.879497999999999
 20
-6.962308
 30
0.0
 11
8.894878999999999
 21
-6.980944999999999
 31
0.0
  0
LINE
  5
3D4
330
4CA
100
AcDbEntity
  8
1
100
AcDbLine
 10
6.385407999999999
 20
-7.309667
 30
0.0
 11
6.407479
 21
-7.268639999999999
 31
0.0
  0
LINE
  5
3D5
330
4CA
100
AcDbEntity
  8
1
100
AcDbLine
 10
8.987951999999999
 20
-7.163066999999999
 30
0.0
 11
8.992107999999999
 21
-7.180861
 31
0.0
  0
LINE
  5
3D6
330
4CA
100
AcDbEntity
  8
1
100
AcDbLine
 10
8.991792
 20
-7.364677
 30
0.0
 11
8.987102
 21
-7.385863
 31
0.0
  0
LINE
  5
3D7
330
4CA
100
AcDbEntity
  8
1
100
AcDbLine
 10
8.476983999999999
 20
0.600061
 30
0.0
 11
8.432223999999999
 21
0.586785
 31
0.0
  0
LINE
  5
3D8
330
4CA
100
AcDbEntity
  8
1
100
AcDbLine
 10
7.888691
 20
-8.268728999999998
 30
0.0
 11
7.882255
 21
-8.270688999999999
 31
0.0
  0
LINE
  5
3D9
330
4CA
100
AcDbEntity
  8
1
100
AcDbLine
 10
8.974274000000001
 20
-7.429933
 30
0.0
 11
8.966134
 21
-7.452758
 31
0.0
  0
LINE
  5
3DA
330
4CA
100
AcDbEntity
  8
1
100
AcDbLine
 10
8.956794
 20
-7.476088999999999
 30
0.0
 11
8.94613
 21
-7.499952
 31
0.0
  0
LINE
  5
3DB
330
4CA
100
AcDbEntity
  8
1
100
AcDbLine
 10
3.81081
 20
-8.195232999999999
 30
0.0
 11
3.693257
 21
-8.031905999999999
 31
0.0
  0
LINE
  5
3DC
330
4CA
100
AcDbEntity
  8
1
100
AcDbLine
 10
8.934103999999999
 20
-7.524339
 30
0.0
 11
8.920713000000001
 21
-7.549200999999999
 31
0.0
  0
LINE
  5
3DD
330
4CA
100
AcDbEntity
  8
1
100
AcDbLine
 10
6.075474999999999
 20
5.142761
 30
0.0
 11
5.914581
 21
5.116927999999999
 31
0.0
  0
LINE
  5
3DE
330
4CA
100
AcDbEntity
  8
1
100
AcDbLine
 10
5.596548999999999
 20
5.074352999999999
 30
0.0
 11
5.439809999999999
 21
5.057654
 31
0.0
  0
LINE
  5
3DF
330
4CA
100
AcDbEntity
  8
1
100
AcDbLine
 10
7.891547999999999
 20
5.701744
 30
0.0
 11
7.968802
 21
5.38489
 31
0.0
  0
LINE
  5
3E0
330
4CA
100
AcDbEntity
  8
1
100
AcDbLine
 10
8.998111999999999
 20
-7.216564999999999
 30
0.0
 11
8.999964999999999
 21
-7.234461999999999
 31
0.0
  0
LINE
  5
3E1
330
4CA
100
AcDbEntity
  8
1
100
AcDbLine
 10
3.598047
 20
5.122142
 30
0.0
 11
3.475605999999999
 21
5.148630999999999
 31
0.0
  0
LINE
  5
3E2
330
4CA
100
AcDbEntity
  8
1
100
AcDbLine
 10
3.475605999999999
 20
5.148630999999999
 30
0.0
 11
3.356577999999999
 21
5.178094
 31
0.0
  0
LINE
  5
3E3
330
4CA
100
AcDbEntity
  8
1
100
AcDbLine
 10
11.345507
 20
-9.128924000000001
 30
0.0
 11
10.886124
 21
-9.195475
 31
0.0
  0
LINE
  5
3E4
330
4CA
100
AcDbEntity
  8
1
100
AcDbLine
 10
8.429463999999999
 20
-4.441961
 30
0.0
 11
8.461138999999999
 21
-4.527883
 31
0.0
  0
LINE
  5
3E5
330
4CA
100
AcDbEntity
  8
1
100
AcDbLine
 10
8.490833
 20
-5.687886999999999
 30
0.0
 11
8.404460999999999
 21
-5.429725
 31
0.0
  0
LINE
  5
3E6
330
4CA
100
AcDbEntity
  8
1
100
AcDbLine
 10
9.524044999999999
 20
7.685757
 30
0.0
 11
10.119243
 21
7.841791999999999
 31
0.0
  0
LINE
  5
3E7
330
4CA
100
AcDbEntity
  8
1
100
AcDbLine
 10
10.709967
 20
7.994535
 30
0.0
 11
11.296193
 21
8.143996000000001
 31
0.0
  0
LINE
  5
3E8
330
4CA
100
AcDbEntity
  8
1
100
AcDbLine
 10
7.367963999999999
 20
0.446
 30
0.0
 11
7.312067999999999
 21
0.446207
 31
0.0
  0
LINE
  5
3E9
330
4CA
100
AcDbEntity
  8
1
100
AcDbLine
 10
8.798975
 20
-5.101316999999999
 30
0.0
 11
8.864297999999999
 21
-5.179539
 31
0.0
  0
LINE
  5
3EA
330
4CA
100
AcDbEntity
  8
1
100
AcDbLine
 10
7.976126999999999
 20
-4.094751
 30
0.0
 11
7.891547999999999
 21
-3.820105
 31
0.0
  0
LINE
  5
3EB
330
4CA
100
AcDbEntity
  8
1
100
AcDbLine
 10
14.40401
 20
-9.678976999999999
 30
0.0
 11
14.248654
 21
-9.808067999999998
 31
0.0
  0
LINE
  5
3EC
330
4CA
100
AcDbEntity
  8
1
100
AcDbLine
 10
12.706905
 20
10.132078
 30
0.0
 11
12.256033
 21
10.084039
 31
0.0
  0
LINE
  5
3ED
330
4CA
100
AcDbEntity
  8
1
100
AcDbLine
 10
8.825275999999998
 20
-6.906032
 30
0.0
 11
8.844787
 21
-6.924835
 31
0.0
  0
LINE
  5
3EE
330
4CA
100
AcDbEntity
  8
1
100
AcDbLine
 10
6.813111999999999
 20
-6.774766999999999
 30
0.0
 11
6.863488999999999
 21
-6.732300999999999
 31
0.0
  0
LINE
  5
3EF
330
4CA
100
AcDbEntity
  8
1
100
AcDbLine
 10
9.362757999999999
 20
-5.639122
 30
0.0
 11
9.464089999999998
 21
-5.713818999999999
 31
0.0
  0
LINE
  5
3F0
330
4CA
100
AcDbEntity
  8
81
100
AcDbLine
 10
15.5
 20
0.0
 30
0.0
 11
25.575837
 21
0.0
 31
0.0
  0
LINE
  5
3F1
330
4CA
100
AcDbEntity
  8
SK4
100
AcDbLine
 10
-14.251214
 20
0.0
 30
0.0
 11
17.306505
 21
0.0
 31
0.0
  0
LINE
  5
3F2
330
4CA
100
AcDbEntity
  8
4
100
AcDbLine
 10
0.0
 20
0.0
 30
0.0
 11
17.780199
 21
0.0
 31
0.0
  0
POINT
  5
3F3
330
4CA
100
AcDbEntity
  8
81
100
AcDbPoint
 10
15.5
 20
11.5
 30
0.0
  0
POINT
  5
3F4
330
4CA
100
AcDbEntity
  8
80
100
AcDbPoint
 10
0.0
 20
0.0
 30
0.0
  0
TEXT
  5
3F5
330
4CA
100
AcDbEntity
  8
SK6
100
AcDbText
 10
-13.138521
 20
14.389225
 30
0.0
 40
3.5
  1
HFS14
 41
0.7925176483516485
  7
SANDVIK_STYLE
 72
     5
 11
-1.11867
 21
14.389225
 31
0.0
100
AcDbText
  0
TEXT
  5
3F6
330
4CA
100
AcDbEntity
  8
SK6
100
AcDbText
 10
-22.215686
 20
-34.064012
 30
0.0
 40
3.5
  1
830A-E06D2300H7S14
 41
0.7987981994459834
  7
SANDVIK_STYLE
 72
     5
 11
25.845339
 21
-34.064012
 31
0.0
100
AcDbText
  0
TEXT
  5
3F7
330
4CA
100
AcDbEntity
  8
2
100
AcDbText
 10
34.53844
 20
1.23337
 30
0.0
 40
3.5
  1
%%c23 H7
 50
90.0
100
AcDbText
  0
INSERT
  5
3F8
330
4CA
100
AcDbEntity
  8
2
100
AcDbBlockReference
  2
*D0
 10
0.0
 20
0.0
 30
0.0
  0
TEXT
  5
3F9
330
4CA
100
AcDbEntity
  8
2
100
AcDbText
 10
7.75
 20
27.082748
 30
0.0
 40
3.5
  1
L=15.5 
100
AcDbText
  0
INSERT
  5
3FA
330
4CA
100
AcDbEntity
  8
2
100
AcDbBlockReference
  2
*D1
 10
0.0
 20
0.0
 30
0.0
  0
ENDSEC
  0
SECTION
  2
OBJECTS
  0
DICTIONARY
  5
466
330
0
100
AcDbDictionary
281
     1
  3
ACAD_CIP_PREVIOUS_PRODUCT_INFO
350
4FD
  3
ACAD_COLOR
350
4BC
  3
ACAD_DETAILVIEWSTYLE
350
4C4
  3
ACAD_GROUP
350
467
  3
ACAD_LAYOUT
350
4BB
  3
ACAD_MATERIAL
350
46A
  3
ACAD_MLEADERSTYLE
350
4BF
  3
ACAD_MLINESTYLE
350
4B8
  3
ACAD_PLOTSETTINGS
350
4BA
  3
ACAD_PLOTSTYLENAME
350
468
  3
ACAD_SCALELIST
350
49C
  3
ACAD_SECTIONVIEWSTYLE
350
4C1
  3
ACAD_TABLESTYLE
350
4BD
  3
ACAD_VISUALSTYLE
350
483
  3
ACDB_RECOMPOSE_DATA
350
559
  3
AcDbVariableDictionary
350
54C
  3
DWGPROPS
350
55A
  0
DICTIONARY
  5
500
330
4AE
100
AcDbDictionary
280
     1
281
     1
  3
ADSK_XREC_LAYER_RECONCILED
360
501
  0
DICTIONARY
  5
502
330
4CE
100
AcDbDictionary
280
     1
281
     1
  3
ADSK_XREC_LAYER_RECONCILED
360
503
  0
DICTIONARY
  5
504
330
4D2
100
AcDbDictionary
280
     1
281
     1
  3
ADSK_XREC_LAYER_RECONCILED
360
505
  0
DICTIONARY
  5
506
330
4D3
100
AcDbDictionary
280
     1
281
     1
  3
ADSK_XREC_LAYER_RECONCILED
360
507
  0
DICTIONARY
  5
508
330
4D4
100
AcDbDictionary
280
     1
281
     1
  3
ADSK_XREC_LAYER_RECONCILED
360
509
  0
DICTIONARY
  5
50A
330
4D5
100
AcDbDictionary
280
     1
281
     1
  3
ADSK_XREC_LAYER_RECONCILED
360
50B
  0
DICTIONARY
  5
50C
330
4D6
100
AcDbDictionary
280
     1
281
     1
  3
ADSK_XREC_LAYER_RECONCILED
360
50D
  0
DICTIONARY
  5
50E
330
4D7
100
AcDbDictionary
280
     1
281
     1
  3
ADSK_XREC_LAYER_RECONCILED
360
50F
  0
DICTIONARY
  5
510
330
4D8
100
AcDbDictionary
280
     1
281
     1
  3
ADSK_XREC_LAYER_RECONCILED
360
511
  0
DICTIONARY
  5
512
330
4D9
100
AcDbDictionary
280
     1
281
     1
  3
ADSK_XREC_LAYER_RECONCILED
360
513
  0
DICTIONARY
  5
514
330
4DA
100
AcDbDictionary
280
     1
281
     1
  3
ADSK_XREC_LAYER_RECONCILED
360
515
  0
DICTIONARY
  5
516
330
4DB
100
AcDbDictionary
280
     1
281
     1
  3
ADSK_XREC_LAYER_RECONCILED
360
517
  0
DICTIONARY
  5
518
330
4DC
100
AcDbDictionary
280
     1
281
     1
  3
ADSK_XREC_LAYER_RECONCILED
360
519
  0
DICTIONARY
  5
51A
330
4DD
100
AcDbDictionary
280
     1
281
     1
  3
ADSK_XREC_LAYER_RECONCILED
360
51B
  0
DICTIONARY
  5
51C
330
4DE
100
AcDbDictionary
280
     1
281
     1
  3
ADSK_XREC_LAYER_RECONCILED
360
51D
  0
DICTIONARY
  5
51E
330
4DF
100
AcDbDictionary
280
     1
281
     1
  3
ADSK_XREC_LAYER_RECONCILED
360
51F
  0
DICTIONARY
  5
520
330
4E0
100
AcDbDictionary
280
     1
281
     1
  3
ADSK_XREC_LAYER_RECONCILED
360
521
  0
DICTIONARY
  5
522
330
4E1
100
AcDbDictionary
280
     1
281
     1
  3
ADSK_XREC_LAYER_RECONCILED
360
523
  0
DICTIONARY
  5
524
330
4E2
100
AcDbDictionary
280
     1
281
     1
  3
ADSK_XREC_LAYER_RECONCILED
360
525
  0
DICTIONARY
  5
526
330
4E3
100
AcDbDictionary
280
     1
281
     1
  3
ADSK_XREC_LAYER_RECONCILED
360
527
  0
DICTIONARY
  5
528
330
4E4
100
AcDbDictionary
280
     1
281
     1
  3
ADSK_XREC_LAYER_RECONCILED
360
529
  0
DICTIONARY
  5
52A
330
4E5
100
AcDbDictionary
280
     1
281
     1
  3
ADSK_XREC_LAYER_RECONCILED
360
52B
  0
DICTIONARY
  5
52C
330
4E6
100
AcDbDictionary
280
     1
281
     1
  3
ADSK_XREC_LAYER_RECONCILED
360
52D
  0
DICTIONARY
  5
52E
330
4E7
100
AcDbDictionary
280
     1
281
     1
  3
ADSK_XREC_LAYER_RECONCILED
360
52F
  0
DICTIONARY
  5
530
330
4E8
100
AcDbDictionary
280
     1
281
     1
  3
ADSK_XREC_LAYER_RECONCILED
360
531
  0
DICTIONARY
  5
532
330
4E9
100
AcDbDictionary
280
     1
281
     1
  3
ADSK_XREC_LAYER_RECONCILED
360
533
  0
DICTIONARY
  5
534
330
4EA
100
AcDbDictionary
280
     1
281
     1
  3
ADSK_XREC_LAYER_RECONCILED
360
535
  0
DICTIONARY
  5
536
330
4EB
100
AcDbDictionary
280
     1
281
     1
  3
ADSK_XREC_LAYER_RECONCILED
360
537
  0
DICTIONARY
  5
538
330
4EC
100
AcDbDictionary
280
     1
281
     1
  3
ADSK_XREC_LAYER_RECONCILED
360
539
  0
DICTIONARY
  5
53A
330
4ED
100
AcDbDictionary
280
     1
281
     1
  3
ADSK_XREC_LAYER_RECONCILED
360
53B
  0
DICTIONARY
  5
53C
330
4EE
100
AcDbDictionary
280
     1
281
     1
  3
ADSK_XREC_LAYER_RECONCILED
360
53D
  0
DICTIONARY
  5
53E
330
4EF
100
AcDbDictionary
280
     1
281
     1
  3
ADSK_XREC_LAYER_RECONCILED
360
53F
  0
DICTIONARY
  5
540
330
4F0
100
AcDbDictionary
280
     1
281
     1
  3
ADSK_XREC_LAYER_RECONCILED
360
541
  0
DICTIONARY
  5
542
330
4F1
100
AcDbDictionary
280
     1
281
     1
  3
ADSK_XREC_LAYER_RECONCILED
360
543
  0
DICTIONARY
  5
544
330
4F2
100
AcDbDictionary
280
     1
281
     1
  3
ADSK_XREC_LAYER_RECONCILED
360
545
  0
DICTIONARY
  5
546
330
4F3
100
AcDbDictionary
280
     1
281
     1
  3
ADSK_XREC_LAYER_RECONCILED
360
547
  0
DICTIONARY
  5
548
330
4F4
100
AcDbDictionary
280
     1
281
     1
  3
ADSK_XREC_LAYER_RECONCILED
360
549
  0
DICTIONARY
  5
54A
330
4F5
100
AcDbDictionary
280
     1
281
     1
  3
ADSK_XREC_LAYER_RECONCILED
360
54B
  0
XRECORD
  5
4FD
102
{ACAD_REACTORS
330
466
102
}
330
466
100
AcDbXrecord
280
     1
300
AMECH_PP
300
2013
300
PDSU_F_S
  0
DICTIONARY
  5
4BC
102
{ACAD_REACTORS
330
466
102
}
330
466
100
AcDbDictionary
281
     1
  0
DICTIONARY
  5
4C4
102
{ACAD_REACTORS
330
466
102
}
330
466
100
AcDbDictionary
281
     1
  3
Imperial24
350
4C5
  0
DICTIONARY
  5
467
102
{ACAD_REACTORS
330
466
102
}
330
466
100
AcDbDictionary
281
     1
  0
DICTIONARY
  5
4BB
102
{ACAD_REACTORS
330
466
102
}
330
466
100
AcDbDictionary
281
     1
  3
Layout1
350
4C9
  3
Model
350
4CD
  0
DICTIONARY
  5
46A
102
{ACAD_REACTORS
330
466
102
}
330
466
100
AcDbDictionary
281
     1
  3
ByBlock
350
473
  3
ByLayer
350
46B
  3
Global
350
47B
  0
DICTIONARY
  5
4BF
102
{ACAD_REACTORS
330
466
102
}
330
466
100
AcDbDictionary
281
     1
  3
Standard
350
4C0
  0
DICTIONARY
  5
4B8
102
{ACAD_REACTORS
330
466
102
}
330
466
100
AcDbDictionary
281
     1
  3
Standard
350
4B9
  0
DICTIONARY
  5
4BA
102
{ACAD_REACTORS
330
466
102
}
330
466
100
AcDbDictionary
281
     1
  0
ACDBDICTIONARYWDFLT
  5
468
102
{ACAD_REACTORS
330
466
102
}
330
466
100
AcDbDictionary
281
     1
  3
Normal
350
469
100
AcDbDictionaryWithDefault
340
469
  0
DICTIONARY
  5
49C
102
{ACAD_REACTORS
330
466
102
}
330
466
100
AcDbDictionary
281
     1
  3
A0
350
49D
  3
A1
350
49E
  3
A2
350
49F
  3
A3
350
4A0
  3
A4
350
4A1
  3
A5
350
4A2
  3
A6
350
4A3
  3
A7
350
4A4
  3
A8
350
4A5
  3
A9
350
4A6
  3
B0
350
4A7
  3
B1
350
4A8
  3
B2
350
4A9
  3
B3
350
4AA
  3
B4
350
4AB
  3
B5
350
4AC
  3
B6
350
4AD
  0
DICTIONARY
  5
4C1
102
{ACAD_REACTORS
330
466
102
}
330
466
100
AcDbDictionary
281
     1
  3
Imperial24
350
4C3
  0
DICTIONARY
  5
4BD
102
{ACAD_REACTORS
330
466
102
}
330
466
100
AcDbDictionary
281
     1
  3
Standard
350
4BE
  0
DICTIONARY
  5
483
102
{ACAD_REACTORS
330
466
102
}
330
466
100
AcDbDictionary
281
     1
  3
2dWireframe
350
489
  3
Basic
350
488
  3
Brighten
350
48F
  3
ColorChange
350
493
  3
Conceptual
350
48C
  3
Dim
350
48E
  3
EdgeColorOff
350
49B
  3
Facepattern
350
492
  3
Flat
350
484
  3
FlatWithEdges
350
485
  3
Gouraud
350
486
  3
GouraudWithEdges
350
487
  3
Hidden
350
48B
  3
JitterOff
350
499
  3
Linepattern
350
491
  3
OverhangOff
350
49A
  3
Realistic
350
48D
  3
Shaded
350
498
  3
Shaded with edges
350
497
  3
Shades of Gray
350
494
  3
Sketchy
350
495
  3
Thicken
350
490
  3
Wireframe
350
48A
  3
X-Ray
350
496
  0
XRECORD
  5
559
102
{ACAD_REACTORS
330
466
102
}
330
466
100
AcDbXrecord
280
     1
 90
        1
330
4BE
  0
DICTIONARY
  5
54C
102
{ACAD_REACTORS
330
466
102
}
330
466
100
AcDbDictionary
281
     1
  3
CANNOSCALE
350
551
  3
CMLEADERSTYLE
350
54E
  3
CTABLESTYLE
350
54D
  3
CVIEWDETAILSTYLE
350
54F
  3
CVIEWSECTIONSTYLE
350
550
  3
DIMASSOC
350
554
  3
INDEXCTL
350
553
  3
SORTENTS
350
552
  3
XCLIPFRAME
350
555
  0
XRECORD
  5
55A
102
{ACAD_REACTORS
330
466
102
}
330
466
100
AcDbXrecord
280
     1
  1
DWGPROPS COOKIE
  2

  3

  4

  6

  7

  8
Micke
  9

300
=
301
=
302
=
303
=
304
=
305
=
306
=
307
=
308
=
309
=
 40
0.0000044675925926
 41
2456818.317918738
 42
2456818.317923136
  1

 90
        0
  0
XRECORD
  5
501
102
{ACAD_REACTORS
330
500
102
}
330
500
100
AcDbXrecord
280
     1
290
     1
  0
XRECORD
  5
503
102
{ACAD_REACTORS
330
502
102
}
330
502
100
AcDbXrecord
280
     1
290
     1
  0
XRECORD
  5
505
102
{ACAD_REACTORS
330
504
102
}
330
504
100
AcDbXrecord
280
     1
290
     1
  0
XRECORD
  5
507
102
{ACAD_REACTORS
330
506
102
}
330
506
100
AcDbXrecord
280
     1
290
     1
  0
XRECORD
  5
509
102
{ACAD_REACTORS
330
508
102
}
330
508
100
AcDbXrecord
280
     1
290
     1
  0
XRECORD
  5
50B
102
{ACAD_REACTORS
330
50A
102
}
330
50A
100
AcDbXrecord
280
     1
290
     1
  0
XRECORD
  5
50D
102
{ACAD_REACTORS
330
50C
102
}
330
50C
100
AcDbXrecord
280
     1
290
     1
  0
XRECORD
  5
50F
102
{ACAD_REACTORS
330
50E
102
}
330
50E
100
AcDbXrecord
280
     1
290
     1
  0
XRECORD
  5
511
102
{ACAD_REACTORS
330
510
102
}
330
510
100
AcDbXrecord
280
     1
290
     1
  0
XRECORD
  5
513
102
{ACAD_REACTORS
330
512
102
}
330
512
100
AcDbXrecord
280
     1
290
     1
  0
XRECORD
  5
515
102
{ACAD_REACTORS
330
514
102
}
330
514
100
AcDbXrecord
280
     1
290
     1
  0
XRECORD
  5
517
102
{ACAD_REACTORS
330
516
102
}
330
516
100
AcDbXrecord
280
     1
290
     1
  0
XRECORD
  5
519
102
{ACAD_REACTORS
330
518
102
}
330
518
100
AcDbXrecord
280
     1
290
     1
  0
XRECORD
  5
51B
102
{ACAD_REACTORS
330
51A
102
}
330
51A
100
AcDbXrecord
280
     1
290
     1
  0
XRECORD
  5
51D
102
{ACAD_REACTORS
330
51C
102
}
330
51C
100
AcDbXrecord
280
     1
290
     1
  0
XRECORD
  5
51F
102
{ACAD_REACTORS
330
51E
102
}
330
51E
100
AcDbXrecord
280
     1
290
     1
  0
XRECORD
  5
521
102
{ACAD_REACTORS
330
520
102
}
330
520
100
AcDbXrecord
280
     1
290
     1
  0
XRECORD
  5
523
102
{ACAD_REACTORS
330
522
102
}
330
522
100
AcDbXrecord
280
     1
290
     1
  0
XRECORD
  5
525
102
{ACAD_REACTORS
330
524
102
}
330
524
100
AcDbXrecord
280
     1
290
     1
  0
XRECORD
  5
527
102
{ACAD_REACTORS
330
526
102
}
330
526
100
AcDbXrecord
280
     1
290
     1
  0
XRECORD
  5
529
102
{ACAD_REACTORS
330
528
102
}
330
528
100
AcDbXrecord
280
     1
290
     1
  0
XRECORD
  5
52B
102
{ACAD_REACTORS
330
52A
102
}
330
52A
100
AcDbXrecord
280
     1
290
     1
  0
XRECORD
  5
52D
102
{ACAD_REACTORS
330
52C
102
}
330
52C
100
AcDbXrecord
280
     1
290
     1
  0
XRECORD
  5
52F
102
{ACAD_REACTORS
330
52E
102
}
330
52E
100
AcDbXrecord
280
     1
290
     1
  0
XRECORD
  5
531
102
{ACAD_REACTORS
330
530
102
}
330
530
100
AcDbXrecord
280
     1
290
     1
  0
XRECORD
  5
533
102
{ACAD_REACTORS
330
532
102
}
330
532
100
AcDbXrecord
280
     1
290
     1
  0
XRECORD
  5
535
102
{ACAD_REACTORS
330
534
102
}
330
534
100
AcDbXrecord
280
     1
290
     1
  0
XRECORD
  5
537
102
{ACAD_REACTORS
330
536
102
}
330
536
100
AcDbXrecord
280
     1
290
     1
  0
XRECORD
  5
539
102
{ACAD_REACTORS
330
538
102
}
330
538
100
AcDbXrecord
280
     1
290
     1
  0
XRECORD
  5
53B
102
{ACAD_REACTORS
330
53A
102
}
330
53A
100
AcDbXrecord
280
     1
290
     1
  0
XRECORD
  5
53D
102
{ACAD_REACTORS
330
53C
102
}
330
53C
100
AcDbXrecord
280
     1
290
     1
  0
XRECORD
  5
53F
102
{ACAD_REACTORS
330
53E
102
}
330
53E
100
AcDbXrecord
280
     1
290
     1
  0
XRECORD
  5
541
102
{ACAD_REACTORS
330
540
102
}
330
540
100
AcDbXrecord
280
     1
290
     1
  0
XRECORD
  5
543
102
{ACAD_REACTORS
330
542
102
}
330
542
100
AcDbXrecord
280
     1
290
     1
  0
XRECORD
  5
545
102
{ACAD_REACTORS
330
544
102
}
330
544
100
AcDbXrecord
280
     1
290
     1
  0
XRECORD
  5
547
102
{ACAD_REACTORS
330
546
102
}
330
546
100
AcDbXrecord
280
     1
290
     1
  0
XRECORD
  5
549
102
{ACAD_REACTORS
330
548
102
}
330
548
100
AcDbXrecord
280
     1
290
     1
  0
XRECORD
  5
54B
102
{ACAD_REACTORS
330
54A
102
}
330
54A
100
AcDbXrecord
280
     1
290
     1
  0
ACDBDETAILVIEWSTYLE
  5
4C5
102
{ACAD_REACTORS
330
4C4
102
}
330
4C4
100
AcDbModelDocViewStyle
 70
     0
  3
Imperial24
290
     0
100
AcDbDetailViewStyle
 70
     0
 71
     0
 90
        3
 71
     1
340
4AF
 40
0.24
340
0
 40
0.24
300

 40
0.36
280
     3
 71
     2
340
4B6
 90
       25
 71
     3
340
4AF
 40
0.24
 90
        1
 40
0.75
 90
        1
300
%<\AcVar ViewType \f "%tc1">% %<\AcVar ViewDetailId>%\PSCALE %<\AcVar ViewScale \f "%sn">%
 71
     4
340
4B6
 90
       25
340
4B6
 90
       25
280
     0
  0
LAYOUT
  5
4C9
102
{ACAD_XDICTIONARY
360
590
102
}
102
{ACAD_REACTORS
330
4BB
102
}
330
4BB
100
AcDbPlotSettings
  1

  2
Brother DCP-9020CDW Printer
  4

  6

 40
0.0
 41
0.0
 42
0.0
 43
0.0
 44
0.0
 45
0.0
 46
0.0
 47
0.0
 48
0.0
 49
0.0
140
0.0
141
0.0
142
1.0
143
1.0
 70
   688
 72
     0
 73
     0
 74
     5
  7

 75
    16
147
1.0
148
0.0
149
0.0
100
AcDbLayout
  1
Layout1
 70
     1
 71
     1
 10
0.0
 20
0.0
 11
12.0
 21
9.0
 12
0.0
 22
0.0
 32
0.0
 14
1.000000000000000E+20
 24
1.000000000000000E+20
 34
1.000000000000000E+20
 15
-1.000000000000000E+20
 25
-1.000000000000000E+20
 35
-1.000000000000000E+20
146
0.0
 13
0.0
 23
0.0
 33
0.0
 16
1.0
 26
0.0
 36
0.0
 17
0.0
 27
1.0
 37
0.0
 76
     0
330
4C6
  0
LAYOUT
  5
4CD
102
{ACAD_XDICTIONARY
360
592
102
}
102
{ACAD_REACTORS
330
4BB
102
}
330
4BB
100
AcDbPlotSettings
  1

  2
Brother DCP-9020CDW Printer
  4

  6

 40
0.0
 41
0.0
 42
0.0
 43
0.0
 44
0.0
 45
0.0
 46
0.0
 47
0.0
 48
0.0
 49
0.0
140
0.0
141
0.0
142
1.0
143
1.0
 70
  1712
 72
     0
 73
     0
 74
     0
  7

 75
     0
147
1.0
148
0.0
149
0.0
100
AcDbLayout
  1
Model
 70
     1
 71
     0
 10
0.0
 20
0.0
 11
12.0
 21
9.0
 12
0.0
 22
0.0
 32
0.0
 14
0.0
 24
0.0
 34
0.0
 15
0.0
 25
0.0
 35
0.0
146
0.0
 13
0.0
 23
0.0
 33
0.0
 16
1.0
 26
0.0
 36
0.0
 17
0.0
 27
1.0
 37
0.0
 76
     0
330
4CA
331
4F9
  0
MATERIAL
  5
473
102
{ACAD_XDICTIONARY
360
474
102
}
102
{ACAD_REACTORS
330
46A
102
}
330
46A
100
AcDbMaterial
  1
ByBlock
 72
     0
 43
0.0208333333333333
 43
0.0
 43
0.0
 43
0.0
 43
0.0
 43
0.0208333333333333
 43
0.0
 43
0.0
 43
0.0
 43
0.0
 43
1.0
 43
0.0
 43
0.0
 43
0.0
 43
0.0
 43
1.0
 77
     0
 47
0.0208333333333333
 47
0.0
 47
0.0
 47
0.0
 47
0.0
 47
0.0208333333333333
 47
0.0
 47
0.0
 47
0.0
 47
0.0
 47
1.0
 47
0.0
 47
0.0
 47
0.0
 47
0.0
 47
1.0
171
     0
 49
0.0208333333333333
 49
0.0
 49
0.0
 49
0.0
 49
0.0
 49
0.0208333333333333
 49
0.0
 49
0.0
 49
0.0
 49
0.0
 49
1.0
 49
0.0
 49
0.0
 49
0.0
 49
0.0
 49
1.0
175
     0
142
0.0208333333333333
142
0.0
142
0.0
142
0.0
142
0.0
142
0.0208333333333333
142
0.0
142
0.0
142
0.0
142
0.0
142
1.0
142
0.0
142
0.0
142
0.0
142
0.0
142
1.0
179
     0
144
0.0208333333333333
144
0.0
144
0.0
144
0.0
144
0.0
144
0.0208333333333333
144
0.0
144
0.0
144
0.0
144
0.0
144
1.0
144
0.0
144
0.0
144
0.0
144
0.0
144
1.0
147
0.0208333333333333
147
0.0
147
0.0
147
0.0
147
0.0
147
0.0208333333333333
147
0.0
147
0.0
147
0.0
147
0.0
147
1.0
147
0.0
147
0.0
147
0.0
147
0.0
147
1.0
  0
MATERIAL
  5
46B
102
{ACAD_XDICTIONARY
360
46C
102
}
102
{ACAD_REACTORS
330
46A
102
}
330
46A
100
AcDbMaterial
  1
ByLayer
 72
     0
 43
0.0208333333333333
 43
0.0
 43
0.0
 43
0.0
 43
0.0
 43
0.0208333333333333
 43
0.0
 43
0.0
 43
0.0
 43
0.0
 43
1.0
 43
0.0
 43
0.0
 43
0.0
 43
0.0
 43
1.0
 77
     0
 47
0.0208333333333333
 47
0.0
 47
0.0
 47
0.0
 47
0.0
 47
0.0208333333333333
 47
0.0
 47
0.0
 47
0.0
 47
0.0
 47
1.0
 47
0.0
 47
0.0
 47
0.0
 47
0.0
 47
1.0
171
     0
 49
0.0208333333333333
 49
0.0
 49
0.0
 49
0.0
 49
0.0
 49
0.0208333333333333
 49
0.0
 49
0.0
 49
0.0
 49
0.0
 49
1.0
 49
0.0
 49
0.0
 49
0.0
 49
0.0
 49
1.0
175
     0
142
0.0208333333333333
142
0.0
142
0.0
142
0.0
142
0.0
142
0.0208333333333333
142
0.0
142
0.0
142
0.0
142
0.0
142
1.0
142
0.0
142
0.0
142
0.0
142
0.0
142
1.0
179
     0
144
0.0208333333333333
144
0.0
144
0.0
144
0.0
144
0.0
144
0.0208333333333333
144
0.0
144
0.0
144
0.0
144
0.0
144
1.0
144
0.0
144
0.0
144
0.0
144
0.0
144
1.0
147
0.0208333333333333
147
0.0
147
0.0
147
0.0
147
0.0
147
0.0208333333333333
147
0.0
147
0.0
147
0.0
147
0.0
147
1.0
147
0.0
147
0.0
147
0.0
147
0.0
147
1.0
  0
MATERIAL
  5
47B
102
{ACAD_XDICTIONARY
360
47C
102
}
102
{ACAD_REACTORS
330
46A
102
}
330
46A
100
AcDbMaterial
  1
Global
 72
     0
 43
0.0208333333333333
 43
0.0
 43
0.0
 43
0.0
 43
0.0
 43
0.0208333333333333
 43
0.0
 43
0.0
 43
0.0
 43
0.0
 43
1.0
 43
0.0
 43
0.0
 43
0.0
 43
0.0
 43
1.0
 77
     0
 47
0.0208333333333333
 47
0.0
 47
0.0
 47
0.0
 47
0.0
 47
0.0208333333333333
 47
0.0
 47
0.0
 47
0.0
 47
0.0
 47
1.0
 47
0.0
 47
0.0
 47
0.0
 47
0.0
 47
1.0
171
     0
 49
0.0208333333333333
 49
0.0
 49
0.0
 49
0.0
 49
0.0
 49
0.0208333333333333
 49
0.0
 49
0.0
 49
0.0
 49
0.0
 49
1.0
 49
0.0
 49
0.0
 49
0.0
 49
0.0
 49
1.0
175
     0
142
0.0208333333333333
142
0.0
142
0.0
142
0.0
142
0.0
142
0.0208333333333333
142
0.0
142
0.0
142
0.0
142
0.0
142
1.0
142
0.0
142
0.0
142
0.0
142
0.0
142
1.0
179
     0
144
0.0208333333333333
144
0.0
144
0.0
144
0.0
144
0.0
144
0.0208333333333333
144
0.0
144
0.0
144
0.0
144
0.0
144
1.0
144
0.0
144
0.0
144
0.0
144
0.0
144
1.0
147
0.0208333333333333
147
0.0
147
0.0
147
0.0
147
0.0
147
0.0208333333333333
147
0.0
147
0.0
147
0.0
147
0.0
147
1.0
147
0.0
147
0.0
147
0.0
147
0.0
147
1.0
  0
MLEADERSTYLE
  5
4C0
102
{ACAD_REACTORS
330
4BF
102
}
330
4BF
100
AcDbMLeaderStyle
170
     2
171
     1
172
     0
 90
        2
 40
0.0
 41
0.0
173
     1
 91
-1056964608
340
4B4
 92
       -2
290
     1
 42
0.09
291
     1
 43
0.36
  3
Standard
 44
0.18
300

342
4AF
174
     1
178
     6
175
     1
176
     0
 93
-1056964608
 45
0.18
292
     0
297
     0
 46
0.18
 94
-1056964608
 47
1.0
 49
1.0
140
1.0
293
     1
141
0.0
294
     1
177
     0
142
1.0
295
     0
296
     0
143
0.125
1001
ACAD_MLEADERVER
1070
     2
  0
MLINESTYLE
  5
4B9
102
{ACAD_REACTORS
330
4B8
102
}
330
4B8
100
AcDbMlineStyle
  2
STANDARD
 70
     0
  3

 62
   256
 51
90.0
 52
90.0
 71
     2
 49
0.5
 62
   256
  6
BYLAYER
 49
-0.5
 62
   256
  6
BYLAYER
  0
ACDBPLACEHOLDER
  5
469
102
{ACAD_REACTORS
330
468
102
}
330
468
  0
SCALE
  5
49D
102
{ACAD_REACTORS
330
49C
102
}
330
49C
100
AcDbScale
 70
     0
300
1:1
140
1.0
141
1.0
290
     1
  0
SCALE
  5
49E
102
{ACAD_REACTORS
330
49C
102
}
330
49C
100
AcDbScale
 70
     0
300
1/128" = 1'-0"
140
0.0078125
141
12.0
290
     0
  0
SCALE
  5
49F
102
{ACAD_REACTORS
330
49C
102
}
330
49C
100
AcDbScale
 70
     0
300
1/64" = 1'-0"
140
0.015625
141
12.0
290
     0
  0
SCALE
  5
4A0
102
{ACAD_REACTORS
330
49C
102
}
330
49C
100
AcDbScale
 70
     0
300
1/32" = 1'-0"
140
0.03125
141
12.0
290
     0
  0
SCALE
  5
4A1
102
{ACAD_REACTORS
330
49C
102
}
330
49C
100
AcDbScale
 70
     0
300
1/16" = 1'-0"
140
0.0625
141
12.0
290
     0
  0
SCALE
  5
4A2
102
{ACAD_REACTORS
330
49C
102
}
330
49C
100
AcDbScale
 70
     0
300
3/32" = 1'-0"
140
0.09375
141
12.0
290
     0
  0
SCALE
  5
4A3
102
{ACAD_REACTORS
330
49C
102
}
330
49C
100
AcDbScale
 70
     0
300
1/8" = 1'-0"
140
0.125
141
12.0
290
     0
  0
SCALE
  5
4A4
102
{ACAD_REACTORS
330
49C
102
}
330
49C
100
AcDbScale
 70
     0
300
3/16" = 1'-0"
140
0.1875
141
12.0
290
     0
  0
SCALE
  5
4A5
102
{ACAD_REACTORS
330
49C
102
}
330
49C
100
AcDbScale
 70
     0
300
1/4" = 1'-0"
140
0.25
141
12.0
290
     0
  0
SCALE
  5
4A6
102
{ACAD_REACTORS
330
49C
102
}
330
49C
100
AcDbScale
 70
     0
300
3/8" = 1'-0"
140
0.375
141
12.0
290
     0
  0
SCALE
  5
4A7
102
{ACAD_REACTORS
330
49C
102
}
330
49C
100
AcDbScale
 70
     0
300
1/2" = 1'-0"
140
0.5
141
12.0
290
     0
  0
SCALE
  5
4A8
102
{ACAD_REACTORS
330
49C
102
}
330
49C
100
AcDbScale
 70
     0
300
3/4" = 1'-0"
140
0.75
141
12.0
290
     0
  0
SCALE
  5
4A9
102
{ACAD_REACTORS
330
49C
102
}
330
49C
100
AcDbScale
 70
     0
300
1" = 1'-0"
140
1.0
141
12.0
290
     0
  0
SCALE
  5
4AA
102
{ACAD_REACTORS
330
49C
102
}
330
49C
100
AcDbScale
 70
     0
300
1-1/2" = 1'-0"
140
1.5
141
12.0
290
     0
  0
SCALE
  5
4AB
102
{ACAD_REACTORS
330
49C
102
}
330
49C
100
AcDbScale
 70
     0
300
3" = 1'-0"
140
3.0
141
12.0
290
     0
  0
SCALE
  5
4AC
102
{ACAD_REACTORS
330
49C
102
}
330
49C
100
AcDbScale
 70
     0
300
6" = 1'-0"
140
6.0
141
12.0
290
     0
  0
SCALE
  5
4AD
102
{ACAD_REACTORS
330
49C
102
}
330
49C
100
AcDbScale
 70
     0
300
1'-0" = 1'-0"
140
12.0
141
12.0
290
     0
  0
ACDBSECTIONVIEWSTYLE
  5
4C3
102
{ACAD_REACTORS
330
4C1
102
}
330
4C1
100
AcDbModelDocViewStyle
 70
     0
  3
Imperial24
290
     0
100
AcDbSectionViewStyle
 70
     0
 71
     0
 90
       78
 71
     1
340
4AF
 40
0.24
340
0
340
0
 40
0.24
300
I, O, Q, S, X, Z
 40
0.48
 90
        3
 40
0.18
 90
        1
 71
     2
340
4C2
 90
       25
340
4B6
 90
       50
 40
0.24
 40
0.0
 40
0.24
 71
     3
340
4AF
 40
0.24
 90
        1
 40
0.75
 90
        1
300
%<\AcVar ViewType \f "%tc1">% %<\AcVar ViewSectionStartId>%-%<\AcVar ViewSectionEndId>%\PSCALE %<\AcVar ViewScale \f "%sn">%
 71
     4
300
ANSI31
 40
1.0
 90
        0
290
     0
290
     0
 90
        6
 40
0.0
 40
1.570796326794896
 40
0.2617993877991494
 40
1.308996938995747
 40
-0.2617993877991494
 40
1.832595714594046
  0
TABLESTYLE
  5
4BE
102
{ACAD_XDICTIONARY
360
557
102
}
102
{ACAD_REACTORS
330
4BD
102
}
330
4BD
100
AcDbTableStyle
  3
Standard
 70
     0
 71
     0
 40
0.06
 41
0.06
280
     0
281
     0
  7
STANDARD
140
0.18
170
     2
 62
     0
 63
     7
283
     0
274
    -2
284
     1
 64
     0
275
    -2
285
     1
 65
     0
276
    -2
286
     1
 66
     0
277
    -2
287
     1
 67
     0
278
    -2
288
     1
 68
     0
279
    -2
289
     1
 69
     0
  7
STANDARD
140
0.25
170
     5
 62
     0
 63
     7
283
     0
274
    -2
284
     1
 64
     0
275
    -2
285
     1
 65
     0
276
    -2
286
     1
 66
     0
277
    -2
287
     1
 67
     0
278
    -2
288
     1
 68
     0
279
    -2
289
     1
 69
     0
  7
STANDARD
140
0.18
170
     5
 62
     0
 63
     7
283
     0
274
    -2
284
     1
 64
     0
275
    -2
285
     1
 65
     0
276
    -2
286
     1
 66
     0
277
    -2
287
     1
 67
     0
278
    -2
288
     1
 68
     0
279
    -2
289
     1
 69
     0
  0
VISUALSTYLE
  5
489
102
{ACAD_XDICTIONARY
360
568
102
}
102
{ACAD_REACTORS
330
483
102
}
330
483
100
AcDbVisualStyle
  2
2dWireframe
 70
     4
 71
     0
 72
     2
 73
     0
 90
        0
 40
-0.6
 41
-30.0
 62
     5
 63
     7
 74
     1
 91
        4
 64
     7
 65
   257
 75
     1
175
     1
 42
1.0
 92
        0
 66
   257
 43
1.0
 76
     1
 77
     6
 78
     2
 67
     7
 79
     5
170
     0
171
     0
290
     0
174
     0
 93
        1
 44
0.0
173
     0
291
     0
 45
0.0
1001
ACAD
1000
AcDbSavedByObjectVersion
1070
     0
  0
VISUALSTYLE
  5
488
102
{ACAD_XDICTIONARY
360
566
102
}
102
{ACAD_REACTORS
330
483
102
}
330
483
100
AcDbVisualStyle
  2
Basic
 70
     7
 71
     1
 72
     0
 73
     1
 90
        0
 40
-0.6
 41
-30.0
 62
     5
 63
     7
 74
     0
 91
        4
 64
     7
 65
   257
 75
     1
175
     1
 42
1.0
 92
        8
 66
     7
 43
1.0
 76
     1
 77
     6
 78
     2
 67
     7
 79
     5
170
     0
171
     0
290
     0
174
     0
 93
        1
 44
0.0
173
     0
291
     1
 45
0.0
1001
ACAD
1000
AcDbSavedByObjectVersion
1070
     0
  0
VISUALSTYLE
  5
48F
102
{ACAD_XDICTIONARY
360
574
102
}
102
{ACAD_REACTORS
330
483
102
}
330
483
100
AcDbVisualStyle
  2
Brighten
 70
    12
 71
     2
 72
     2
 73
     0
 90
        0
 40
-0.6
 41
-30.0
 62
     5
 63
     7
 74
     1
 91
        4
 64
     7
 65
   257
 75
     1
175
     1
 42
1.0
 92
        8
 66
     7
 43
1.0
 76
     1
 77
     6
 78
     2
 67
     7
 79
     5
170
     0
171
     0
290
     0
174
     0
 93
        1
 44
50.0
173
     0
291
     1
 45
0.0
1001
ACAD
1000
AcDbSavedByObjectVersion
1070
     0
  0
VISUALSTYLE
  5
493
102
{ACAD_XDICTIONARY
360
57C
102
}
102
{ACAD_REACTORS
330
483
102
}
330
483
100
AcDbVisualStyle
  2
ColorChange
 70
    16
 71
     2
 72
     2
 73
     3
 90
        0
 40
-0.6
 41
-30.0
 62
     5
 63
     8
 74
     1
 91
        4
 64
     7
 65
   257
 75
     1
175
     1
 42
1.0
 92
        8
 66
     8
 43
1.0
 76
     1
 77
     6
 78
     2
 67
     7
 79
     5
170
     0
171
     0
290
     0
174
     0
 93
        1
 44
0.0
173
     0
291
     1
 45
0.0
1001
ACAD
1000
AcDbSavedByObjectVersion
1070
     0
  0
VISUALSTYLE
  5
48C
102
{ACAD_XDICTIONARY
360
56E
102
}
102
{ACAD_REACTORS
330
483
102
}
330
483
100
AcDbVisualStyle
  2
Conceptual
 70
     9
 71
     3
 72
     2
 73
     0
 90
        0
 40
-0.6
 41
-30.0
 62
     5
 63
     7
 74
     2
 91
        2
 64
     7
 65
   257
 75
     1
175
     1
 42
179.0
 92
        8
 66
     7
 43
1.0
 76
     1
 77
     6
 78
     2
 67
     7
 79
     3
170
     0
171
     0
290
     0
174
     0
 93
        1
 44
0.0
173
     0
291
     0
 45
0.0
1001
ACAD
1000
AcDbSavedByObjectVersion
1070
     0
  0
VISUALSTYLE
  5
48E
102
{ACAD_XDICTIONARY
360
572
102
}
102
{ACAD_REACTORS
330
483
102
}
330
483
100
AcDbVisualStyle
  2
Dim
 70
    11
 71
     2
 72
     2
 73
     0
 90
        0
 40
-0.6
 41
-30.0
 62
     5
 63
     7
 74
     1
 91
        4
 64
     7
 65
   257
 75
     1
175
     1
 42
1.0
 92
        8
 66
     7
 43
1.0
 76
     1
 77
     6
 78
     2
 67
     7
 79
     5
170
     0
171
     0
290
     0
174
     0
 93
        1
 44
-50.0
173
     0
291
     1
 45
0.0
1001
ACAD
1000
AcDbSavedByObjectVersion
1070
     0
  0
VISUALSTYLE
  5
49B
102
{ACAD_XDICTIONARY
360
58C
102
}
102
{ACAD_REACTORS
330
483
102
}
330
483
100
AcDbVisualStyle
  2
EdgeColorOff
 70
    22
 71
     2
 72
     2
 73
     0
 90
        0
 40
-0.6
 41
-30.0
 62
     5
 63
     7
 74
     1
 91
        4
 64
     7
 65
   257
 75
     1
175
     1
 42
1.0
 92
        8
 66
     7
 43
1.0
 76
     1
 77
     6
 78
     2
 67
     7
 79
     5
170
     0
171
     0
290
     0
174
     0
 93
        1
 44
0.0
173
     0
291
     1
 45
0.0
1001
ACAD
1000
AcDbSavedByObjectVersion
1070
     0
  0
VISUALSTYLE
  5
492
102
{ACAD_XDICTIONARY
360
57A
102
}
102
{ACAD_REACTORS
330
483
102
}
330
483
100
AcDbVisualStyle
  2
Facepattern
 70
    15
 71
     2
 72
     2
 73
     0
 90
        0
 40
-0.6
 41
-30.0
 62
     5
 63
     7
 74
     1
 91
        4
 64
     7
 65
   257
 75
     1
175
     1
 42
1.0
 92
        8
 66
     7
 43
1.0
 76
     1
 77
     6
 78
     2
 67
     7
 79
     5
170
     0
171
     0
290
     0
174
     0
 93
        1
 44
0.0
173
     0
291
     1
 45
0.0
1001
ACAD
1000
AcDbSavedByObjectVersion
1070
     0
  0
VISUALSTYLE
  5
484
102
{ACAD_XDICTIONARY
360
55E
102
}
102
{ACAD_REACTORS
330
483
102
}
330
483
100
AcDbVisualStyle
  2
Flat
 70
     0
 71
     2
 72
     1
 73
     1
 90
        2
 40
-0.6
 41
30.0
 62
     5
 63
     7
 74
     0
 91
        0
 64
     7
 65
   257
 75
     1
175
     1
 42
1.0
 92
        8
 66
     7
 43
1.0
 76
     1
 77
     6
 78
     2
 67
     7
 79
     5
170
     0
171
     0
290
     0
174
     0
 93
       13
 44
0.0
173
     0
291
     1
 45
0.0
1001
ACAD
1000
AcDbSavedByObjectVersion
1070
     0
  0
VISUALSTYLE
  5
485
102
{ACAD_XDICTIONARY
360
560
102
}
102
{ACAD_REACTORS
330
483
102
}
330
483
100
AcDbVisualStyle
  2
FlatWithEdges
 70
     1
 71
     2
 72
     1
 73
     1
 90
        2
 40
-0.6
 41
30.0
 62
     5
 63
     7
 74
     1
 91
        0
 64
     7
 65
   257
 75
     1
175
     1
 42
1.0
 92
        0
 66
   257
 43
1.0
 76
     1
 77
     6
 78
     2
 67
     7
 79
     5
170
     0
171
     0
290
     0
174
     0
 93
       13
 44
0.0
173
     0
291
     1
 45
0.0
1001
ACAD
1000
AcDbSavedByObjectVersion
1070
     0
  0
VISUALSTYLE
  5
486
102
{ACAD_XDICTIONARY
360
562
102
}
102
{ACAD_REACTORS
330
483
102
}
330
483
100
AcDbVisualStyle
  2
Gouraud
 70
     2
 71
     2
 72
     2
 73
     1
 90
        2
 40
-0.6
 41
30.0
 62
     5
 63
     7
 74
     0
 91
        0
 64
     7
 65
   257
 75
     1
175
     1
 42
1.0
 92
        0
 66
     7
 43
1.0
 76
     1
 77
     6
 78
     2
 67
     7
 79
     5
170
     0
171
     0
290
     0
174
     0
 93
       13
 44
0.0
173
     0
291
     1
 45
0.0
1001
ACAD
1000
AcDbSavedByObjectVersion
1070
     0
  0
VISUALSTYLE
  5
487
102
{ACAD_XDICTIONARY
360
564
102
}
102
{ACAD_REACTORS
330
483
102
}
330
483
100
AcDbVisualStyle
  2
GouraudWithEdges
 70
     3
 71
     2
 72
     2
 73
     1
 90
        2
 40
-0.6
 41
30.0
 62
     5
 63
     7
 74
     1
 91
        0
 64
     7
 65
   257
 75
     1
175
     1
 42
1.0
 92
        0
 66
   257
 43
1.0
 76
     1
 77
     6
 78
     2
 67
     7
 79
     5
170
     0
171
     0
290
     0
174
     0
 93
       13
 44
0.0
173
     0
291
     1
 45
0.0
1001
ACAD
1000
AcDbSavedByObjectVersion
1070
     0
  0
VISUALSTYLE
  5
48B
102
{ACAD_XDICTIONARY
360
56C
102
}
102
{ACAD_REACTORS
330
483
102
}
330
483
100
AcDbVisualStyle
  2
Hidden
 70
     6
 71
     1
 72
     2
 73
     2
 90
        0
 40
-0.6
 41
-30.0
 62
     5
 63
     7
 74
     2
 91
        2
 64
     7
 65
   257
 75
     2
175
     1
 42
40.0
 92
        0
 66
   257
 43
1.0
 76
     1
 77
     6
 78
     2
 67
     7
 79
     3
170
     0
171
     0
290
     0
174
     0
 93
        1
 44
0.0
173
     0
291
     0
 45
0.0
1001
ACAD
1000
AcDbSavedByObjectVersion
1070
     0
  0
VISUALSTYLE
  5
499
102
{ACAD_XDICTIONARY
360
588
102
}
102
{ACAD_REACTORS
330
483
102
}
330
483
100
AcDbVisualStyle
  2
JitterOff
 70
    20
 71
     2
 72
     2
 73
     0
 90
        0
 40
-0.6
 41
-30.0
 62
     5
 63
     7
 74
     1
 91
        4
 64
     7
 65
   257
 75
     1
175
     1
 42
1.0
 92
       10
 66
     7
 43
1.0
 76
     1
 77
     6
 78
     2
 67
     7
 79
     5
170
     0
171
     0
290
     0
174
     0
 93
        1
 44
0.0
173
     0
291
     1
 45
0.0
1001
ACAD
1000
AcDbSavedByObjectVersion
1070
     0
  0
VISUALSTYLE
  5
491
102
{ACAD_XDICTIONARY
360
578
102
}
102
{ACAD_REACTORS
330
483
102
}
330
483
100
AcDbVisualStyle
  2
Linepattern
 70
    14
 71
     2
 72
     2
 73
     0
 90
        0
 40
-0.6
 41
-30.0
 62
     5
 63
     7
 74
     1
 91
        4
 64
     7
 65
   257
 75
     7
175
     7
 42
1.0
 92
        8
 66
     7
 43
1.0
 76
     1
 77
     6
 78
     2
 67
     7
 79
     5
170
     0
171
     0
290
     0
174
     0
 93
        1
 44
0.0
173
     0
291
     1
 45
0.0
1001
ACAD
1000
AcDbSavedByObjectVersion
1070
     0
  0
VISUALSTYLE
  5
49A
102
{ACAD_XDICTIONARY
360
58A
102
}
102
{ACAD_REACTORS
330
483
102
}
330
483
100
AcDbVisualStyle
  2
OverhangOff
 70
    21
 71
     2
 72
     2
 73
     0
 90
        0
 40
-0.6
 41
-30.0
 62
     5
 63
     7
 74
     1
 91
        4
 64
     7
 65
   257
 75
     1
175
     1
 42
1.0
 92
        9
 66
     7
 43
1.0
 76
     1
 77
     6
 78
     2
 67
     7
 79
     5
170
     0
171
     0
290
     0
174
     0
 93
        1
 44
0.0
173
     0
291
     1
 45
0.0
1001
ACAD
1000
AcDbSavedByObjectVersion
1070
     0
  0
VISUALSTYLE
  5
48D
102
{ACAD_XDICTIONARY
360
570
102
}
102
{ACAD_REACTORS
330
483
102
}
330
483
100
AcDbVisualStyle
  2
Realistic
 70
     8
 71
     2
 72
     3
 73
     0
 90
        2
 40
-0.6
 41
30.0
 62
     5
 63
     7
 74
     0
 91
        0
 64
     7
 65
   257
 75
     1
175
     1
 42
1.0
 92
        8
 66
   257
 43
1.0
 76
     1
 77
     6
 78
     2
 67
     7
 79
     3
170
     0
171
     0
290
     0
174
     0
 93
       13
 44
0.0
173
     0
291
     0
 45
0.0
1001
ACAD
1000
AcDbSavedByObjectVersion
1070
     0
  0
VISUALSTYLE
  5
498
102
{ACAD_XDICTIONARY
360
586
102
}
102
{ACAD_REACTORS
330
483
102
}
330
483
100
AcDbVisualStyle
  2
Shaded
 70
    27
 71
     2
 72
     2
 73
     1
 90
        2
 40
-0.6
 41
30.0
 62
     5
 63
     7
 74
     0
 91
        4
 64
     7
 65
   257
 75
     1
175
     1
 42
1.0
 92
        8
 66
   257
 43
1.0
 76
     1
 77
     6
 78
     2
 67
     8
 79
     3
170
     0
171
     0
290
     0
174
     0
 93
        5
 44
0.0
173
     0
291
     0
 45
0.0
1001
ACAD
1000
AcDbSavedByObjectVersion
1070
     0
  0
VISUALSTYLE
  5
497
102
{ACAD_XDICTIONARY
360
584
102
}
102
{ACAD_REACTORS
330
483
102
}
330
483
100
AcDbVisualStyle
  2
Shaded with edges
 70
    26
 71
     2
 72
     2
 73
     1
 90
        2
 40
-0.6
 41
30.0
 62
     5
 63
     7
 74
     1
 91
       10
 64
     7
 65
   257
 75
     2
175
     1
 42
1.0
 92
        8
 66
   257
 43
1.0
 76
     1
 77
     6
 78
     2
 67
     7
 79
     3
170
     0
171
     0
290
     0
174
     0
 93
        5
 44
0.0
173
     0
291
     0
 45
0.0
1001
ACAD
1000
AcDbSavedByObjectVersion
1070
     0
  0
VISUALSTYLE
  5
494
102
{ACAD_XDICTIONARY
360
57E
102
}
102
{ACAD_REACTORS
330
483
102
}
330
483
100
AcDbVisualStyle
  2
Shades of Gray
 70
    23
 71
     2
 72
     2
 73
     3
 90
        0
 40
-0.6
 41
-30.0
 62
     5
 63
     7
 74
     2
 91
        2
 64
     7
 65
     7
 75
     1
175
     1
 42
40.0
 92
        8
 66
     7
 43
1.0
 76
     1
 77
     6
 78
     2
 67
     7
 79
     3
170
     0
171
     0
290
     0
174
     0
 93
        1
 44
0.0
173
     0
291
     0
 45
0.0
1001
ACAD
1000
AcDbSavedByObjectVersion
1070
     0
  0
VISUALSTYLE
  5
495
102
{ACAD_XDICTIONARY
360
580
102
}
102
{ACAD_REACTORS
330
483
102
}
330
483
100
AcDbVisualStyle
  2
Sketchy
 70
    24
 71
     1
 72
     2
 73
     2
 90
        0
 40
-0.6
 41
-30.0
 62
     5
 63
     7
 74
     2
 91
        2
 64
     7
 65
     7
 75
     1
175
     1
 42
40.0
 92
       11
 66
     7
 43
1.0
 76
     1
 77
     6
 78
     2
 67
     7
 79
     6
170
     0
171
     0
290
     0
174
     0
 93
        1
 44
0.0
173
     0
291
     0
 45
0.0
1001
ACAD
1000
AcDbSavedByObjectVersion
1070
     0
  0
VISUALSTYLE
  5
490
102
{ACAD_XDICTIONARY
360
576
102
}
102
{ACAD_REACTORS
330
483
102
}
330
483
100
AcDbVisualStyle
  2
Thicken
 70
    13
 71
     2
 72
     2
 73
     0
 90
        0
 40
-0.6
 41
-30.0
 62
     5
 63
     7
 74
     1
 91
        4
 64
     7
 65
   257
 75
     1
175
     1
 42
1.0
 92
       12
 66
     7
 43
1.0
 76
     1
 77
     6
 78
     2
 67
     7
 79
     5
170
     0
171
     0
290
     0
174
     0
 93
        1
 44
0.0
173
     0
291
     1
 45
0.0
1001
ACAD
1000
AcDbSavedByObjectVersion
1070
     0
  0
VISUALSTYLE
  5
48A
102
{ACAD_XDICTIONARY
360
56A
102
}
102
{ACAD_REACTORS
330
483
102
}
330
483
100
AcDbVisualStyle
  2
Wireframe
 70
     5
 71
     0
 72
     2
 73
     0
 90
        0
 40
-0.6
 41
-30.0
 62
     5
 63
     7
 74
     1
 91
        4
 64
     7
 65
   257
 75
     1
175
     1
 42
1.0
 92
        0
 66
   257
 43
1.0
 76
     1
 77
     6
 78
     2
 67
     7
 79
     3
170
     0
171
     0
290
     0
174
     0
 93
        1
 44
0.0
173
     0
291
     0
 45
0.0
1001
ACAD
1000
AcDbSavedByObjectVersion
1070
     0
  0
VISUALSTYLE
  5
496
102
{ACAD_XDICTIONARY
360
582
102
}
102
{ACAD_REACTORS
330
483
102
}
330
483
100
AcDbVisualStyle
  2
X-Ray
 70
    25
 71
     2
 72
     2
 73
     1
 90
        1
 40
0.5
 41
-30.0
 62
     5
 63
     7
 74
     1
 91
        0
 64
     7
 65
   257
 75
     1
175
     1
 42
1.0
 92
        8
 66
     7
 43
1.0
 76
     1
 77
     6
 78
     2
 67
     7
 79
     3
170
     0
171
     0
290
     0
174
     0
 93
       13
 44
0.0
173
     0
291
     0
 45
0.0
1001
ACAD
1000
AcDbSavedByObjectVersion
1070
     0
  0
DICTIONARYVAR
  5
551
102
{ACAD_REACTORS
330
54C
102
}
330
54C
100
DictionaryVariables
280
     0
  1
1:1
  0
DICTIONARYVAR
  5
54E
102
{ACAD_REACTORS
330
54C
102
}
330
54C
100
DictionaryVariables
280
     0
  1
STANDARD
  0
DICTIONARYVAR
  5
54D
102
{ACAD_REACTORS
330
54C
102
}
330
54C
100
DictionaryVariables
280
     0
  1
STANDARD
  0
DICTIONARYVAR
  5
54F
102
{ACAD_REACTORS
330
54C
102
}
330
54C
100
DictionaryVariables
280
     0
  1
Imperial24
  0
DICTIONARYVAR
  5
550
102
{ACAD_REACTORS
330
54C
102
}
330
54C
100
DictionaryVariables
280
     0
  1
Imperial24
  0
DICTIONARYVAR
  5
554
102
{ACAD_REACTORS
330
54C
102
}
330
54C
100
DictionaryVariables
280
     0
  1
1
  0
DICTIONARYVAR
  5
553
102
{ACAD_REACTORS
330
54C
102
}
330
54C
100
DictionaryVariables
280
     0
  1
0
  0
DICTIONARYVAR
  5
552
102
{ACAD_REACTORS
330
54C
102
}
330
54C
100
DictionaryVariables
280
     0
  1
127
  0
DICTIONARYVAR
  5
555
102
{ACAD_REACTORS
330
54C
102
}
330
54C
100
DictionaryVariables
280
     0
  1
2
  0
DICTIONARY
  5
590
330
4C9
100
AcDbDictionary
280
     1
281
     1
  3
ACAD_XREC_ROUNDTRIP
360
591
  0
DICTIONARY
  5
592
330
4CD
100
AcDbDictionary
280
     1
281
     1
  3
ACAD_XREC_ROUNDTRIP
360
593
  0
DICTIONARY
  5
474
330
473
100
AcDbDictionary
280
     1
281
     1
  3
ACAD_XREC_ROUNDTRIP
360
55C
  3
BUMPTILE
360
476
  3
DIFFUSETILE
360
475
  3
OPACITYTILE
360
479
  3
REFLECTIONTILE
360
478
  3
REFRACTIONTILE
360
47A
  3
SPECULARTILE
360
477
  0
DICTIONARY
  5
46C
330
46B
100
AcDbDictionary
280
     1
281
     1
  3
ACAD_XREC_ROUNDTRIP
360
55B
  3
BUMPTILE
360
46E
  3
DIFFUSETILE
360
46D
  3
OPACITYTILE
360
471
  3
REFLECTIONTILE
360
470
  3
REFRACTIONTILE
360
472
  3
SPECULARTILE
360
46F
  0
DICTIONARY
  5
47C
330
47B
100
AcDbDictionary
280
     1
281
     1
  3
ACAD_XREC_ROUNDTRIP
360
55D
  3
BUMPTILE
360
47E
  3
DIFFUSETILE
360
47D
  3
OPACITYTILE
360
481
  3
REFLECTIONTILE
360
480
  3
REFRACTIONTILE
360
482
  3
SPECULARTILE
360
47F
  0
DICTIONARY
  5
557
330
4BE
100
AcDbDictionary
280
     1
281
     1
  3
ACAD_ROUNDTRIP_2008_TABLESTYLE_CELLSTYLEMAP
360
558
  3
ACAD_XREC_ROUNDTRIP
360
58E
  0
DICTIONARY
  5
568
330
489
100
AcDbDictionary
280
     1
281
     1
  3
ACAD_XREC_ROUNDTRIP
360
569
  0
DICTIONARY
  5
566
330
488
100
AcDbDictionary
280
     1
281
     1
  3
ACAD_XREC_ROUNDTRIP
360
567
  0
DICTIONARY
  5
574
330
48F
100
AcDbDictionary
280
     1
281
     1
  3
ACAD_XREC_ROUNDTRIP
360
575
  0
DICTIONARY
  5
57C
330
493
100
AcDbDictionary
280
     1
281
     1
  3
ACAD_XREC_ROUNDTRIP
360
57D
  0
DICTIONARY
  5
56E
330
48C
100
AcDbDictionary
280
     1
281
     1
  3
ACAD_XREC_ROUNDTRIP
360
56F
  0
DICTIONARY
  5
572
330
48E
100
AcDbDictionary
280
     1
281
     1
  3
ACAD_XREC_ROUNDTRIP
360
573
  0
DICTIONARY
  5
58C
330
49B
100
AcDbDictionary
280
     1
281
     1
  3
ACAD_XREC_ROUNDTRIP
360
58D
  0
DICTIONARY
  5
57A
330
492
100
AcDbDictionary
280
     1
281
     1
  3
ACAD_XREC_ROUNDTRIP
360
57B
  0
DICTIONARY
  5
55E
330
484
100
AcDbDictionary
280
     1
281
     1
  3
ACAD_XREC_ROUNDTRIP
360
55F
  0
DICTIONARY
  5
560
330
485
100
AcDbDictionary
280
     1
281
     1
  3
ACAD_XREC_ROUNDTRIP
360
561
  0
DICTIONARY
  5
562
330
486
100
AcDbDictionary
280
     1
281
     1
  3
ACAD_XREC_ROUNDTRIP
360
563
  0
DICTIONARY
  5
564
330
487
100
AcDbDictionary
280
     1
281
     1
  3
ACAD_XREC_ROUNDTRIP
360
565
  0
DICTIONARY
  5
56C
330
48B
100
AcDbDictionary
280
     1
281
     1
  3
ACAD_XREC_ROUNDTRIP
360
56D
  0
DICTIONARY
  5
588
330
499
100
AcDbDictionary
280
     1
281
     1
  3
ACAD_XREC_ROUNDTRIP
360
589
  0
DICTIONARY
  5
578
330
491
100
AcDbDictionary
280
     1
281
     1
  3
ACAD_XREC_ROUNDTRIP
360
579
  0
DICTIONARY
  5
58A
330
49A
100
AcDbDictionary
280
     1
281
     1
  3
ACAD_XREC_ROUNDTRIP
360
58B
  0
DICTIONARY
  5
570
330
48D
100
AcDbDictionary
280
     1
281
     1
  3
ACAD_XREC_ROUNDTRIP
360
571
  0
DICTIONARY
  5
586
330
498
100
AcDbDictionary
280
     1
281
     1
  3
ACAD_XREC_ROUNDTRIP
360
587
  0
DICTIONARY
  5
584
330
497
100
AcDbDictionary
280
     1
281
     1
  3
ACAD_XREC_ROUNDTRIP
360
585
  0
DICTIONARY
  5
57E
330
494
100
AcDbDictionary
280
     1
281
     1
  3
ACAD_XREC_ROUNDTRIP
360
57F
  0
DICTIONARY
  5
580
330
495
100
AcDbDictionary
280
     1
281
     1
  3
ACAD_XREC_ROUNDTRIP
360
581
  0
DICTIONARY
  5
576
330
490
100
AcDbDictionary
280
     1
281
     1
  3
ACAD_XREC_ROUNDTRIP
360
577
  0
DICTIONARY
  5
56A
330
48A
100
AcDbDictionary
280
     1
281
     1
  3
ACAD_XREC_ROUNDTRIP
360
56B
  0
DICTIONARY
  5
582
330
496
100
AcDbDictionary
280
     1
281
     1
  3
ACAD_XREC_ROUNDTRIP
360
583
  0
XRECORD
  5
591
102
{ACAD_REACTORS
330
590
102
}
330
590
100
AcDbXrecord
280
     1
102
SHADEPLOT
 70
     0
102
SHADEPLOTRESLEVEL
 70
     2
102
SHADEPLOTCUSTOMDPI
 70
   300
  0
XRECORD
  5
593
102
{ACAD_REACTORS
330
592
102
}
330
592
100
AcDbXrecord
280
     1
102
SHADEPLOT
 70
     0
102
SHADEPLOTRESLEVEL
 70
     2
102
SHADEPLOTCUSTOMDPI
 70
   300
  0
XRECORD
  5
55C
102
{ACAD_REACTORS
330
474
102
}
330
474
100
AcDbXrecord
280
     1
102
MATERIAL
148
0.0
149
0.0
149
0.0
 93
        0
 94
      127
282
     0
 72
     0
 77
     0
171
     0
175
     0
179
     0
273
     0
  0
XRECORD
  5
476
102
{ACAD_REACTORS
330
474
102
}
330
474
100
AcDbXrecord
280
     1
270
     1
271
     1
  0
XRECORD
  5
475
102
{ACAD_REACTORS
330
474
102
}
330
474
100
AcDbXrecord
280
     1
270
     1
271
     1
  0
XRECORD
  5
479
102
{ACAD_REACTORS
330
474
102
}
330
474
100
AcDbXrecord
280
     1
270
     1
271
     1
  0
XRECORD
  5
478
102
{ACAD_REACTORS
330
474
102
}
330
474
100
AcDbXrecord
280
     1
270
     1
271
     1
  0
XRECORD
  5
47A
102
{ACAD_REACTORS
330
474
102
}
330
474
100
AcDbXrecord
280
     1
270
     1
271
     1
  0
XRECORD
  5
477
102
{ACAD_REACTORS
330
474
102
}
330
474
100
AcDbXrecord
280
     1
270
     1
271
     1
  0
XRECORD
  5
55B
102
{ACAD_REACTORS
330
46C
102
}
330
46C
100
AcDbXrecord
280
     1
102
MATERIAL
148
0.0
149
0.0
149
0.0
 93
        0
 94
      127
282
     0
 72
     0
 77
     0
171
     0
175
     0
179
     0
273
     0
  0
XRECORD
  5
46E
102
{ACAD_REACTORS
330
46C
102
}
330
46C
100
AcDbXrecord
280
     1
270
     1
271
     1
  0
XRECORD
  5
46D
102
{ACAD_REACTORS
330
46C
102
}
330
46C
100
AcDbXrecord
280
     1
270
     1
271
     1
  0
XRECORD
  5
471
102
{ACAD_REACTORS
330
46C
102
}
330
46C
100
AcDbXrecord
280
     1
270
     1
271
     1
  0
XRECORD
  5
470
102
{ACAD_REACTORS
330
46C
102
}
330
46C
100
AcDbXrecord
280
     1
270
     1
271
     1
  0
XRECORD
  5
472
102
{ACAD_REACTORS
330
46C
102
}
330
46C
100
AcDbXrecord
280
     1
270
     1
271
     1
  0
XRECORD
  5
46F
102
{ACAD_REACTORS
330
46C
102
}
330
46C
100
AcDbXrecord
280
     1
270
     1
271
     1
  0
XRECORD
  5
55D
102
{ACAD_REACTORS
330
47C
102
}
330
47C
100
AcDbXrecord
280
     1
102
MATERIAL
148
0.0
149
0.0
149
0.0
 93
        0
 94
      127
282
     0
 72
     0
 77
     0
171
     0
175
     0
179
     0
273
     0
  0
XRECORD
  5
47E
102
{ACAD_REACTORS
330
47C
102
}
330
47C
100
AcDbXrecord
280
     1
270
     1
271
     1
  0
XRECORD
  5
47D
102
{ACAD_REACTORS
330
47C
102
}
330
47C
100
AcDbXrecord
280
     1
270
     1
271
     1
  0
XRECORD
  5
481
102
{ACAD_REACTORS
330
47C
102
}
330
47C
100
AcDbXrecord
280
     1
270
     1
271
     1
  0
XRECORD
  5
480
102
{ACAD_REACTORS
330
47C
102
}
330
47C
100
AcDbXrecord
280
     1
270
     1
271
     1
  0
XRECORD
  5
482
102
{ACAD_REACTORS
330
47C
102
}
330
47C
100
AcDbXrecord
280
     1
270
     1
271
     1
  0
XRECORD
  5
47F
102
{ACAD_REACTORS
330
47C
102
}
330
47C
100
AcDbXrecord
280
     1
270
     1
271
     1
  0
CELLSTYLEMAP
  5
558
102
{ACAD_REACTORS
330
557
102
}
330
557
100
AcDbCellStyleMap
 90
        3
300
CELLSTYLE
  1
TABLEFORMAT_BEGIN
 90
        5
170
     1
 91
        0
 92
    32768
 62
   257
 93
        1
300
CONTENTFORMAT
  1
CONTENTFORMAT_BEGIN
 90
        0
 91
        0
 92
      512
 93
        0
300

 40
0.0
140
1.0
 94
        5
 62
     0
340
4AF
144
0.25
309
CONTENTFORMAT_END
171
     0
 94
        0
309
TABLEFORMAT_END
  1
CELLSTYLE_BEGIN
 90
        1
 91
        1
300
_TITLE
309
CELLSTYLE_END
300
CELLSTYLE
  1
TABLEFORMAT_BEGIN
 90
        5
170
     1
 91
        0
 92
        0
 62
   257
 93
        1
300
CONTENTFORMAT
  1
CONTENTFORMAT_BEGIN
 90
        0
 91
        0
 92
      512
 93
        0
300

 40
0.0
140
1.0
 94
        5
 62
     0
340
4AF
144
0.18
309
CONTENTFORMAT_END
171
     0
 94
        0
309
TABLEFORMAT_END
  1
CELLSTYLE_BEGIN
 90
        2
 91
        1
300
_HEADER
309
CELLSTYLE_END
300
CELLSTYLE
  1
TABLEFORMAT_BEGIN
 90
        5
170
     1
 91
        0
 92
        0
 62
   257
 93
        1
300
CONTENTFORMAT
  1
CONTENTFORMAT_BEGIN
 90
        0
 91
        0
 92
      512
 93
        0
300

 40
0.0
140
1.0
 94
        2
 62
     0
340
4AF
144
0.18
309
CONTENTFORMAT_END
171
     0
 94
        0
309
TABLEFORMAT_END
  1
CELLSTYLE_BEGIN
 90
        3
 91
        2
300
_DATA
309
CELLSTYLE_END
  0
XRECORD
  5
58E
102
{ACAD_REACTORS
330
557
102
}
330
557
100
AcDbXrecord
280
     1
102
ACAD_ROUNDTRIP_PRE2007_TABLESTYLE
 90
      512
 91
        0
  1

 92
      512
 93
        0
  2

 94
      512
 95
        0
  3

  0
XRECORD
  5
569
102
{ACAD_REACTORS
330
568
102
}
330
568
100
AcDbXrecord
280
     1
102
RTVSPost2010Prop28
280
     1
102
RTVSPost2010PropOp28
 70
     1
102
RTVSPost2010Prop29
280
     1
102
RTVSPost2010PropOp29
 70
     1
102
RTVSPost2010Prop30
280
     0
102
RTVSPost2010PropOp30
 70
     1
102
RTVSPost2010Prop31
280
     0
102
RTVSPost2010PropOp31
 70
     1
102
RTVSPost2010Prop32
280
     0
102
RTVSPost2010PropOp32
 70
     1
102
RTVSPost2010Prop33
280
     0
102
RTVSPost2010PropOp33
 70
     1
102
RTVSPost2010Prop34
280
     0
102
RTVSPost2010PropOp34
 70
     1
102
RTVSPost2010Prop35
280
     0
102
RTVSPost2010PropOp35
 70
     1
102
RTVSPost2010Prop36
280
     0
102
RTVSPost2010PropOp36
 70
     1
102
RTVSPost2010Prop37
 90
       50
102
RTVSPost2010PropOp37
 70
     1
102
RTVSPost2010Prop38
140
0.0
102
RTVSPost2010PropOp38
 70
     1
102
RTVSPost2010Prop39
140
1.0
102
RTVSPost2010PropOp39
 70
     1
102
RTVSPost2010Prop40
 90
        0
102
RTVSPost2010PropOp40
 70
     1
102
RTVSPost2010Prop41ColorIndex
 90
       18
102
RTVSPost2010Prop41ColorRGB
 90
        0
102
RTVSPost2010PropOp41
 70
     1
102
RTVSPost2010Prop42
 90
       50
102
RTVSPost2010PropOp42
 70
     1
102
RTVSPost2010Prop43
 90
        3
102
RTVSPost2010PropOp43
 70
     1
102
RTVSPost2010Prop44ColorIndex
 90
        5
102
RTVSPost2010Prop44ColorRGB
 90
      255
102
RTVSPost2010PropOp44
 70
     1
102
RTVSPost2010Prop45
280
     0
102
RTVSPost2010PropOp45
 70
     1
102
RTVSPost2010Prop46
 90
       50
102
RTVSPost2010PropOp46
 70
     1
102
RTVSPost2010Prop47
 90
       50
102
RTVSPost2010PropOp47
 70
     1
102
RTVSPost2010Prop48
 90
       50
102
RTVSPost2010PropOp48
 70
     1
102
RTVSPost2010Prop49
280
     0
102
RTVSPost2010PropOp49
 70
     1
102
RTVSPost2010Prop50
 90
       50
102
RTVSPost2010PropOp50
 70
     1
102
RTVSPost2010Prop51ColorIndex
 90
      256
102
RTVSPost2010Prop51ColorRGB
 90
-16777216
102
RTVSPost2010PropOp51
 70
     0
102
RTVSPost2010Prop52
140
1.0
102
RTVSPost2010PropOp52
 70
     0
102
RTVSPost2010Prop53
 90
        2
102
RTVSPost2010PropOp53
 70
     1
102
RTVSPost2010Prop54
  1
strokes_ogs.tif
102
RTVSPost2010PropOp54
 70
     1
102
RTVSPost2010Prop55
280
     0
102
RTVSPost2010PropOp55
 70
     1
102
RTVSPost2010Prop56
140
1.0
102
RTVSPost2010PropOp56
 70
     1
102
RTVSPost2010Prop57
140
1.0
102
RTVSPost2010PropOp57
 70
     1
102
RTVSPropertyOp0
 70
     1
102
RTVSPropertyOp1
 70
     1
102
RTVSPropertyOp2
 70
     1
102
RTVSPropertyOp3
 70
     1
102
RTVSPropertyOp4
 70
     1
102
RTVSPropertyOp5
 70
     1
102
RTVSPropertyOp6
 70
     1
102
RTVSPropertyOp7
 70
     1
102
RTVSPropertyOp8
 70
     1
102
RTVSPropertyOp9
 70
     1
102
RTVSPropertyOp10
 70
     1
102
RTVSPropertyOp11
 70
     1
102
RTVSPropertyOp12
 70
     1
102
RTVSPropertyOp13
 70
     1
102
RTVSPropertyOp14
 70
     1
102
RTVSPropertyOp15
 70
     1
102
RTVSPropertyOp16
 70
     1
102
RTVSPropertyOp17
 70
     1
102
RTVSPropertyOp18
 70
     1
102
RTVSPropertyOp19
 70
     1
102
RTVSPropertyOp20
 70
     1
102
RTVSPropertyOp21
 70
     1
102
RTVSPropertyOp22
 70
     1
102
RTVSPropertyOp23
 70
     1
102
RTVSPropertyOp24
 70
     1
102
RTVSPropertyOp25
 70
     1
102
RTVSPropertyOp26
 70
     1
102
RTVSPropertyOp27
 70
     1
102
RTVSPropertyOp28
 70
     1
102
RTVSPropertyOp29
 70
     1
102
RTVSPropertyOp30
 70
     1
102
RTVSPropertyOp31
 70
     1
102
RTVSPropertyOp32
 70
     1
102
RTVSPropertyOp33
 70
     1
102
RTVSPropertyOp34
 70
     1
102
RTVSPropertyOp35
 70
     1
102
RTVSPropertyOp36
 70
     1
102
RTVSPropertyOp37
 70
     1
102
RTVSPropertyOp38
 70
     1
102
RTVSPropertyOp39
 70
     1
102
RTVSPropertyOp40
 70
     1
102
RTVSPropertyOp41
 70
     1
102
RTVSPropertyOp42
 70
     1
102
RTVSPropertyOp43
 70
     1
102
RTVSPropertyOp44
 70
     1
102
RTVSPropertyOp45
 70
     1
102
RTVSPropertyOp46
 70
     1
102
RTVSPropertyOp47
 70
     1
102
RTVSPropertyOp48
 70
     1
102
RTVSPropertyOp49
 70
     1
102
RTVSPropertyOp50
 70
     1
102
RTVSPropertyOp51
 70
     0
102
RTVSPropertyOp52
 70
     0
102
RTVSPropertyOp53
 70
     1
102
RTVSPropertyOp54
 70
     1
102
RTVSPropertyOp55
 70
     1
102
RTVSPropertyOp56
 70
     1
102
RTVSPropertyOp57
 70
     1
102
RTVSPropertyOp58
 70
     1
102
RTVSPropertyOp59
 70
     1
102
RTVSPropertyOp60
 70
     1
102
RTVSPropertyOp61
 70
     1
102
RTVSPropertyOp62
 70
     1
  0
XRECORD
  5
567
102
{ACAD_REACTORS
330
566
102
}
330
566
100
AcDbXrecord
280
     1
102
RTVSPost2010Prop28
280
     0
102
RTVSPost2010PropOp28
 70
     1
102
RTVSPost2010Prop29
280
     1
102
RTVSPost2010PropOp29
 70
     1
102
RTVSPost2010Prop30
280
     1
102
RTVSPost2010PropOp30
 70
     1
102
RTVSPost2010Prop31
280
     0
102
RTVSPost2010PropOp31
 70
     1
102
RTVSPost2010Prop32
280
     0
102
RTVSPost2010PropOp32
 70
     1
102
RTVSPost2010Prop33
280
     0
102
RTVSPost2010PropOp33
 70
     1
102
RTVSPost2010Prop34
280
     0
102
RTVSPost2010PropOp34
 70
     1
102
RTVSPost2010Prop35
280
     0
102
RTVSPost2010PropOp35
 70
     1
102
RTVSPost2010Prop36
280
     0
102
RTVSPost2010PropOp36
 70
     1
102
RTVSPost2010Prop37
 90
       50
102
RTVSPost2010PropOp37
 70
     1
102
RTVSPost2010Prop38
140
0.0
102
RTVSPost2010PropOp38
 70
     1
102
RTVSPost2010Prop39
140
1.0
102
RTVSPost2010PropOp39
 70
     1
102
RTVSPost2010Prop40
 90
        0
102
RTVSPost2010PropOp40
 70
     1
102
RTVSPost2010Prop41ColorIndex
 90
       18
102
RTVSPost2010Prop41ColorRGB
 90
        0
102
RTVSPost2010PropOp41
 70
     1
102
RTVSPost2010Prop42
 90
       50
102
RTVSPost2010PropOp42
 70
     1
102
RTVSPost2010Prop43
 90
        3
102
RTVSPost2010PropOp43
 70
     1
102
RTVSPost2010Prop44ColorIndex
 90
        5
102
RTVSPost2010Prop44ColorRGB
 90
      255
102
RTVSPost2010PropOp44
 70
     1
102
RTVSPost2010Prop45
280
     0
102
RTVSPost2010PropOp45
 70
     1
102
RTVSPost2010Prop46
 90
       50
102
RTVSPost2010PropOp46
 70
     1
102
RTVSPost2010Prop47
 90
       50
102
RTVSPost2010PropOp47
 70
     1
102
RTVSPost2010Prop48
 90
       50
102
RTVSPost2010PropOp48
 70
     1
102
RTVSPost2010Prop49
280
     0
102
RTVSPost2010PropOp49
 70
     1
102
RTVSPost2010Prop50
 90
       50
102
RTVSPost2010PropOp50
 70
     1
102
RTVSPost2010Prop51ColorIndex
 90
      256
102
RTVSPost2010Prop51ColorRGB
 90
-16777216
102
RTVSPost2010PropOp51
 70
     0
102
RTVSPost2010Prop52
140
1.0
102
RTVSPost2010PropOp52
 70
     0
102
RTVSPost2010Prop53
 90
        2
102
RTVSPost2010PropOp53
 70
     1
102
RTVSPost2010Prop54
  1
strokes_ogs.tif
102
RTVSPost2010PropOp54
 70
     1
102
RTVSPost2010Prop55
280
     0
102
RTVSPost2010PropOp55
 70
     1
102
RTVSPost2010Prop56
140
1.0
102
RTVSPost2010PropOp56
 70
     1
102
RTVSPost2010Prop57
140
1.0
102
RTVSPost2010PropOp57
 70
     1
102
RTVSPropertyOp0
 70
     1
102
RTVSPropertyOp1
 70
     1
102
RTVSPropertyOp2
 70
     1
102
RTVSPropertyOp3
 70
     1
102
RTVSPropertyOp4
 70
     1
102
RTVSPropertyOp5
 70
     1
102
RTVSPropertyOp6
 70
     1
102
RTVSPropertyOp7
 70
     1
102
RTVSPropertyOp8
 70
     1
102
RTVSPropertyOp9
 70
     1
102
RTVSPropertyOp10
 70
     1
102
RTVSPropertyOp11
 70
     1
102
RTVSPropertyOp12
 70
     1
102
RTVSPropertyOp13
 70
     1
102
RTVSPropertyOp14
 70
     1
102
RTVSPropertyOp15
 70
     1
102
RTVSPropertyOp16
 70
     1
102
RTVSPropertyOp17
 70
     1
102
RTVSPropertyOp18
 70
     1
102
RTVSPropertyOp19
 70
     1
102
RTVSPropertyOp20
 70
     1
102
RTVSPropertyOp21
 70
     1
102
RTVSPropertyOp22
 70
     1
102
RTVSPropertyOp23
 70
     1
102
RTVSPropertyOp24
 70
     1
102
RTVSPropertyOp25
 70
     1
102
RTVSPropertyOp26
 70
     1
102
RTVSPropertyOp27
 70
     1
102
RTVSPropertyOp28
 70
     1
102
RTVSPropertyOp29
 70
     1
102
RTVSPropertyOp30
 70
     1
102
RTVSPropertyOp31
 70
     1
102
RTVSPropertyOp32
 70
     1
102
RTVSPropertyOp33
 70
     1
102
RTVSPropertyOp34
 70
     1
102
RTVSPropertyOp35
 70
     1
102
RTVSPropertyOp36
 70
     1
102
RTVSPropertyOp37
 70
     1
102
RTVSPropertyOp38
 70
     1
102
RTVSPropertyOp39
 70
     1
102
RTVSPropertyOp40
 70
     1
102
RTVSPropertyOp41
 70
     1
102
RTVSPropertyOp42
 70
     1
102
RTVSPropertyOp43
 70
     1
102
RTVSPropertyOp44
 70
     1
102
RTVSPropertyOp45
 70
     1
102
RTVSPropertyOp46
 70
     1
102
RTVSPropertyOp47
 70
     1
102
RTVSPropertyOp48
 70
     1
102
RTVSPropertyOp49
 70
     1
102
RTVSPropertyOp50
 70
     1
102
RTVSPropertyOp51
 70
     0
102
RTVSPropertyOp52
 70
     0
102
RTVSPropertyOp53
 70
     1
102
RTVSPropertyOp54
 70
     1
102
RTVSPropertyOp55
 70
     1
102
RTVSPropertyOp56
 70
     1
102
RTVSPropertyOp57
 70
     1
102
RTVSPropertyOp58
 70
     1
102
RTVSPropertyOp59
 70
     1
102
RTVSPropertyOp60
 70
     1
102
RTVSPropertyOp61
 70
     1
102
RTVSPropertyOp62
 70
     1
  0
XRECORD
  5
575
102
{ACAD_REACTORS
330
574
102
}
330
574
100
AcDbXrecord
280
     1
102
RTVSPost2010Prop28
280
     0
102
RTVSPost2010PropOp28
 70
     1
102
RTVSPost2010Prop29
280
     1
102
RTVSPost2010PropOp29
 70
     1
102
RTVSPost2010Prop30
280
     1
102
RTVSPost2010PropOp30
 70
     1
102
RTVSPost2010Prop31
280
     0
102
RTVSPost2010PropOp31
 70
     1
102
RTVSPost2010Prop32
280
     0
102
RTVSPost2010PropOp32
 70
     1
102
RTVSPost2010Prop33
280
     0
102
RTVSPost2010PropOp33
 70
     1
102
RTVSPost2010Prop34
280
     0
102
RTVSPost2010PropOp34
 70
     1
102
RTVSPost2010Prop35
280
     0
102
RTVSPost2010PropOp35
 70
     1
102
RTVSPost2010Prop36
280
     0
102
RTVSPost2010PropOp36
 70
     1
102
RTVSPost2010Prop37
 90
       50
102
RTVSPost2010PropOp37
 70
     1
102
RTVSPost2010Prop38
140
0.0
102
RTVSPost2010PropOp38
 70
     1
102
RTVSPost2010Prop39
140
1.0
102
RTVSPost2010PropOp39
 70
     1
102
RTVSPost2010Prop40
 90
        0
102
RTVSPost2010PropOp40
 70
     1
102
RTVSPost2010Prop41ColorIndex
 90
       18
102
RTVSPost2010Prop41ColorRGB
 90
        0
102
RTVSPost2010PropOp41
 70
     1
102
RTVSPost2010Prop42
 90
       50
102
RTVSPost2010PropOp42
 70
     1
102
RTVSPost2010Prop43
 90
        3
102
RTVSPost2010PropOp43
 70
     1
102
RTVSPost2010Prop44ColorIndex
 90
        5
102
RTVSPost2010Prop44ColorRGB
 90
      255
102
RTVSPost2010PropOp44
 70
     1
102
RTVSPost2010Prop45
280
     0
102
RTVSPost2010PropOp45
 70
     1
102
RTVSPost2010Prop46
 90
       50
102
RTVSPost2010PropOp46
 70
     1
102
RTVSPost2010Prop47
 90
       50
102
RTVSPost2010PropOp47
 70
     1
102
RTVSPost2010Prop48
 90
       50
102
RTVSPost2010PropOp48
 70
     1
102
RTVSPost2010Prop49
280
     0
102
RTVSPost2010PropOp49
 70
     1
102
RTVSPost2010Prop50
 90
       50
102
RTVSPost2010PropOp50
 70
     1
102
RTVSPost2010Prop51ColorIndex
 90
      256
102
RTVSPost2010Prop51ColorRGB
 90
-16777216
102
RTVSPost2010PropOp51
 70
     0
102
RTVSPost2010Prop52
140
1.0
102
RTVSPost2010PropOp52
 70
     0
102
RTVSPost2010Prop53
 90
        2
102
RTVSPost2010PropOp53
 70
     1
102
RTVSPost2010Prop54
  1
strokes_ogs.tif
102
RTVSPost2010PropOp54
 70
     1
102
RTVSPost2010Prop55
280
     0
102
RTVSPost2010PropOp55
 70
     1
102
RTVSPost2010Prop56
140
1.0
102
RTVSPost2010PropOp56
 70
     1
102
RTVSPost2010Prop57
140
1.0
102
RTVSPost2010PropOp57
 70
     1
102
RTVSPropertyOp0
 70
     1
102
RTVSPropertyOp1
 70
     1
102
RTVSPropertyOp2
 70
     1
102
RTVSPropertyOp3
 70
     1
102
RTVSPropertyOp4
 70
     1
102
RTVSPropertyOp5
 70
     1
102
RTVSPropertyOp6
 70
     1
102
RTVSPropertyOp7
 70
     1
102
RTVSPropertyOp8
 70
     1
102
RTVSPropertyOp9
 70
     1
102
RTVSPropertyOp10
 70
     1
102
RTVSPropertyOp11
 70
     1
102
RTVSPropertyOp12
 70
     1
102
RTVSPropertyOp13
 70
     1
102
RTVSPropertyOp14
 70
     1
102
RTVSPropertyOp15
 70
     1
102
RTVSPropertyOp16
 70
     1
102
RTVSPropertyOp17
 70
     1
102
RTVSPropertyOp18
 70
     1
102
RTVSPropertyOp19
 70
     1
102
RTVSPropertyOp20
 70
     1
102
RTVSPropertyOp21
 70
     1
102
RTVSPropertyOp22
 70
     1
102
RTVSPropertyOp23
 70
     1
102
RTVSPropertyOp24
 70
     1
102
RTVSPropertyOp25
 70
     1
102
RTVSPropertyOp26
 70
     1
102
RTVSPropertyOp27
 70
     1
102
RTVSPropertyOp28
 70
     1
102
RTVSPropertyOp29
 70
     1
102
RTVSPropertyOp30
 70
     1
102
RTVSPropertyOp31
 70
     1
102
RTVSPropertyOp32
 70
     1
102
RTVSPropertyOp33
 70
     1
102
RTVSPropertyOp34
 70
     1
102
RTVSPropertyOp35
 70
     1
102
RTVSPropertyOp36
 70
     1
102
RTVSPropertyOp37
 70
     1
102
RTVSPropertyOp38
 70
     1
102
RTVSPropertyOp39
 70
     1
102
RTVSPropertyOp40
 70
     1
102
RTVSPropertyOp41
 70
     1
102
RTVSPropertyOp42
 70
     1
102
RTVSPropertyOp43
 70
     1
102
RTVSPropertyOp44
 70
     1
102
RTVSPropertyOp45
 70
     1
102
RTVSPropertyOp46
 70
     1
102
RTVSPropertyOp47
 70
     1
102
RTVSPropertyOp48
 70
     1
102
RTVSPropertyOp49
 70
     1
102
RTVSPropertyOp50
 70
     1
102
RTVSPropertyOp51
 70
     0
102
RTVSPropertyOp52
 70
     0
102
RTVSPropertyOp53
 70
     1
102
RTVSPropertyOp54
 70
     1
102
RTVSPropertyOp55
 70
     1
102
RTVSPropertyOp56
 70
     1
102
RTVSPropertyOp57
 70
     1
102
RTVSPropertyOp58
 70
     1
102
RTVSPropertyOp59
 70
     1
102
RTVSPropertyOp60
 70
     1
102
RTVSPropertyOp61
 70
     1
102
RTVSPropertyOp62
 70
     1
  0
XRECORD
  5
57D
102
{ACAD_REACTORS
330
57C
102
}
330
57C
100
AcDbXrecord
280
     1
102
RTVSPost2010Prop28
280
     0
102
RTVSPost2010PropOp28
 70
     1
102
RTVSPost2010Prop29
280
     1
102
RTVSPost2010PropOp29
 70
     1
102
RTVSPost2010Prop30
280
     1
102
RTVSPost2010PropOp30
 70
     1
102
RTVSPost2010Prop31
280
     0
102
RTVSPost2010PropOp31
 70
     1
102
RTVSPost2010Prop32
280
     0
102
RTVSPost2010PropOp32
 70
     1
102
RTVSPost2010Prop33
280
     0
102
RTVSPost2010PropOp33
 70
     1
102
RTVSPost2010Prop34
280
     0
102
RTVSPost2010PropOp34
 70
     1
102
RTVSPost2010Prop35
280
     0
102
RTVSPost2010PropOp35
 70
     1
102
RTVSPost2010Prop36
280
     0
102
RTVSPost2010PropOp36
 70
     1
102
RTVSPost2010Prop37
 90
       50
102
RTVSPost2010PropOp37
 70
     1
102
RTVSPost2010Prop38
140
0.0
102
RTVSPost2010PropOp38
 70
     1
102
RTVSPost2010Prop39
140
1.0
102
RTVSPost2010PropOp39
 70
     1
102
RTVSPost2010Prop40
 90
        0
102
RTVSPost2010PropOp40
 70
     1
102
RTVSPost2010Prop41ColorIndex
 90
       18
102
RTVSPost2010Prop41ColorRGB
 90
        0
102
RTVSPost2010PropOp41
 70
     1
102
RTVSPost2010Prop42
 90
       50
102
RTVSPost2010PropOp42
 70
     1
102
RTVSPost2010Prop43
 90
        3
102
RTVSPost2010PropOp43
 70
     1
102
RTVSPost2010Prop44ColorIndex
 90
        5
102
RTVSPost2010Prop44ColorRGB
 90
      255
102
RTVSPost2010PropOp44
 70
     1
102
RTVSPost2010Prop45
280
     0
102
RTVSPost2010PropOp45
 70
     1
102
RTVSPost2010Prop46
 90
       50
102
RTVSPost2010PropOp46
 70
     1
102
RTVSPost2010Prop47
 90
       50
102
RTVSPost2010PropOp47
 70
     1
102
RTVSPost2010Prop48
 90
       50
102
RTVSPost2010PropOp48
 70
     1
102
RTVSPost2010Prop49
280
     0
102
RTVSPost2010PropOp49
 70
     1
102
RTVSPost2010Prop50
 90
       50
102
RTVSPost2010PropOp50
 70
     1
102
RTVSPost2010Prop51ColorIndex
 90
      256
102
RTVSPost2010Prop51ColorRGB
 90
-16777216
102
RTVSPost2010PropOp51
 70
     0
102
RTVSPost2010Prop52
140
1.0
102
RTVSPost2010PropOp52
 70
     0
102
RTVSPost2010Prop53
 90
        2
102
RTVSPost2010PropOp53
 70
     1
102
RTVSPost2010Prop54
  1
strokes_ogs.tif
102
RTVSPost2010PropOp54
 70
     1
102
RTVSPost2010Prop55
280
     0
102
RTVSPost2010PropOp55
 70
     1
102
RTVSPost2010Prop56
140
1.0
102
RTVSPost2010PropOp56
 70
     1
102
RTVSPost2010Prop57
140
1.0
102
RTVSPost2010PropOp57
 70
     1
102
RTVSPropertyOp0
 70
     1
102
RTVSPropertyOp1
 70
     1
102
RTVSPropertyOp2
 70
     1
102
RTVSPropertyOp3
 70
     1
102
RTVSPropertyOp4
 70
     1
102
RTVSPropertyOp5
 70
     1
102
RTVSPropertyOp6
 70
     1
102
RTVSPropertyOp7
 70
     1
102
RTVSPropertyOp8
 70
     1
102
RTVSPropertyOp9
 70
     1
102
RTVSPropertyOp10
 70
     1
102
RTVSPropertyOp11
 70
     1
102
RTVSPropertyOp12
 70
     1
102
RTVSPropertyOp13
 70
     1
102
RTVSPropertyOp14
 70
     1
102
RTVSPropertyOp15
 70
     1
102
RTVSPropertyOp16
 70
     1
102
RTVSPropertyOp17
 70
     1
102
RTVSPropertyOp18
 70
     1
102
RTVSPropertyOp19
 70
     1
102
RTVSPropertyOp20
 70
     1
102
RTVSPropertyOp21
 70
     1
102
RTVSPropertyOp22
 70
     1
102
RTVSPropertyOp23
 70
     1
102
RTVSPropertyOp24
 70
     1
102
RTVSPropertyOp25
 70
     1
102
RTVSPropertyOp26
 70
     1
102
RTVSPropertyOp27
 70
     1
102
RTVSPropertyOp28
 70
     1
102
RTVSPropertyOp29
 70
     1
102
RTVSPropertyOp30
 70
     1
102
RTVSPropertyOp31
 70
     1
102
RTVSPropertyOp32
 70
     1
102
RTVSPropertyOp33
 70
     1
102
RTVSPropertyOp34
 70
     1
102
RTVSPropertyOp35
 70
     1
102
RTVSPropertyOp36
 70
     1
102
RTVSPropertyOp37
 70
     1
102
RTVSPropertyOp38
 70
     1
102
RTVSPropertyOp39
 70
     1
102
RTVSPropertyOp40
 70
     1
102
RTVSPropertyOp41
 70
     1
102
RTVSPropertyOp42
 70
     1
102
RTVSPropertyOp43
 70
     1
102
RTVSPropertyOp44
 70
     1
102
RTVSPropertyOp45
 70
     1
102
RTVSPropertyOp46
 70
     1
102
RTVSPropertyOp47
 70
     1
102
RTVSPropertyOp48
 70
     1
102
RTVSPropertyOp49
 70
     1
102
RTVSPropertyOp50
 70
     1
102
RTVSPropertyOp51
 70
     0
102
RTVSPropertyOp52
 70
     0
102
RTVSPropertyOp53
 70
     1
102
RTVSPropertyOp54
 70
     1
102
RTVSPropertyOp55
 70
     1
102
RTVSPropertyOp56
 70
     1
102
RTVSPropertyOp57
 70
     1
102
RTVSPropertyOp58
 70
     1
102
RTVSPropertyOp59
 70
     1
102
RTVSPropertyOp60
 70
     1
102
RTVSPropertyOp61
 70
     1
102
RTVSPropertyOp62
 70
     1
  0
XRECORD
  5
56F
102
{ACAD_REACTORS
330
56E
102
}
330
56E
100
AcDbXrecord
280
     1
102
RTVSPost2010Prop28
280
     0
102
RTVSPost2010PropOp28
 70
     1
102
RTVSPost2010Prop29
280
     1
102
RTVSPost2010PropOp29
 70
     1
102
RTVSPost2010Prop30
280
     1
102
RTVSPost2010PropOp30
 70
     1
102
RTVSPost2010Prop31
280
     0
102
RTVSPost2010PropOp31
 70
     1
102
RTVSPost2010Prop32
280
     0
102
RTVSPost2010PropOp32
 70
     1
102
RTVSPost2010Prop33
280
     0
102
RTVSPost2010PropOp33
 70
     1
102
RTVSPost2010Prop34
280
     0
102
RTVSPost2010PropOp34
 70
     1
102
RTVSPost2010Prop35
280
     0
102
RTVSPost2010PropOp35
 70
     1
102
RTVSPost2010Prop36
280
     0
102
RTVSPost2010PropOp36
 70
     1
102
RTVSPost2010Prop37
 90
       50
102
RTVSPost2010PropOp37
 70
     1
102
RTVSPost2010Prop38
140
0.0
102
RTVSPost2010PropOp38
 70
     1
102
RTVSPost2010Prop39
140
1.0
102
RTVSPost2010PropOp39
 70
     1
102
RTVSPost2010Prop40
 90
        0
102
RTVSPost2010PropOp40
 70
     1
102
RTVSPost2010Prop41ColorIndex
 90
       18
102
RTVSPost2010Prop41ColorRGB
 90
        0
102
RTVSPost2010PropOp41
 70
     1
102
RTVSPost2010Prop42
 90
       50
102
RTVSPost2010PropOp42
 70
     1
102
RTVSPost2010Prop43
 90
        3
102
RTVSPost2010PropOp43
 70
     1
102
RTVSPost2010Prop44ColorIndex
 90
        5
102
RTVSPost2010Prop44ColorRGB
 90
      255
102
RTVSPost2010PropOp44
 70
     1
102
RTVSPost2010Prop45
280
     0
102
RTVSPost2010PropOp45
 70
     1
102
RTVSPost2010Prop46
 90
       50
102
RTVSPost2010PropOp46
 70
     1
102
RTVSPost2010Prop47
 90
       50
102
RTVSPost2010PropOp47
 70
     1
102
RTVSPost2010Prop48
 90
       50
102
RTVSPost2010PropOp48
 70
     1
102
RTVSPost2010Prop49
280
     0
102
RTVSPost2010PropOp49
 70
     1
102
RTVSPost2010Prop50
 90
       50
102
RTVSPost2010PropOp50
 70
     1
102
RTVSPost2010Prop51ColorIndex
 90
      256
102
RTVSPost2010Prop51ColorRGB
 90
-16777216
102
RTVSPost2010PropOp51
 70
     0
102
RTVSPost2010Prop52
140
1.0
102
RTVSPost2010PropOp52
 70
     0
102
RTVSPost2010Prop53
 90
        2
102
RTVSPost2010PropOp53
 70
     1
102
RTVSPost2010Prop54
  1
strokes_ogs.tif
102
RTVSPost2010PropOp54
 70
     1
102
RTVSPost2010Prop55
280
     0
102
RTVSPost2010PropOp55
 70
     1
102
RTVSPost2010Prop56
140
1.0
102
RTVSPost2010PropOp56
 70
     1
102
RTVSPost2010Prop57
140
1.0
102
RTVSPost2010PropOp57
 70
     1
102
RTVSPropertyOp0
 70
     1
102
RTVSPropertyOp1
 70
     1
102
RTVSPropertyOp2
 70
     1
102
RTVSPropertyOp3
 70
     1
102
RTVSPropertyOp4
 70
     1
102
RTVSPropertyOp5
 70
     1
102
RTVSPropertyOp6
 70
     1
102
RTVSPropertyOp7
 70
     1
102
RTVSPropertyOp8
 70
     1
102
RTVSPropertyOp9
 70
     1
102
RTVSPropertyOp10
 70
     1
102
RTVSPropertyOp11
 70
     1
102
RTVSPropertyOp12
 70
     1
102
RTVSPropertyOp13
 70
     1
102
RTVSPropertyOp14
 70
     1
102
RTVSPropertyOp15
 70
     1
102
RTVSPropertyOp16
 70
     1
102
RTVSPropertyOp17
 70
     1
102
RTVSPropertyOp18
 70
     1
102
RTVSPropertyOp19
 70
     1
102
RTVSPropertyOp20
 70
     1
102
RTVSPropertyOp21
 70
     1
102
RTVSPropertyOp22
 70
     1
102
RTVSPropertyOp23
 70
     1
102
RTVSPropertyOp24
 70
     1
102
RTVSPropertyOp25
 70
     1
102
RTVSPropertyOp26
 70
     1
102
RTVSPropertyOp27
 70
     1
102
RTVSPropertyOp28
 70
     1
102
RTVSPropertyOp29
 70
     1
102
RTVSPropertyOp30
 70
     1
102
RTVSPropertyOp31
 70
     1
102
RTVSPropertyOp32
 70
     1
102
RTVSPropertyOp33
 70
     1
102
RTVSPropertyOp34
 70
     1
102
RTVSPropertyOp35
 70
     1
102
RTVSPropertyOp36
 70
     1
102
RTVSPropertyOp37
 70
     1
102
RTVSPropertyOp38
 70
     1
102
RTVSPropertyOp39
 70
     1
102
RTVSPropertyOp40
 70
     1
102
RTVSPropertyOp41
 70
     1
102
RTVSPropertyOp42
 70
     1
102
RTVSPropertyOp43
 70
     1
102
RTVSPropertyOp44
 70
     1
102
RTVSPropertyOp45
 70
     1
102
RTVSPropertyOp46
 70
     1
102
RTVSPropertyOp47
 70
     1
102
RTVSPropertyOp48
 70
     1
102
RTVSPropertyOp49
 70
     1
102
RTVSPropertyOp50
 70
     1
102
RTVSPropertyOp51
 70
     0
102
RTVSPropertyOp52
 70
     0
102
RTVSPropertyOp53
 70
     1
102
RTVSPropertyOp54
 70
     1
102
RTVSPropertyOp55
 70
     1
102
RTVSPropertyOp56
 70
     1
102
RTVSPropertyOp57
 70
     1
102
RTVSPropertyOp58
 70
     1
102
RTVSPropertyOp59
 70
     1
102
RTVSPropertyOp60
 70
     1
102
RTVSPropertyOp61
 70
     1
102
RTVSPropertyOp62
 70
     1
  0
XRECORD
  5
573
102
{ACAD_REACTORS
330
572
102
}
330
572
100
AcDbXrecord
280
     1
102
RTVSPost2010Prop28
280
     0
102
RTVSPost2010PropOp28
 70
     1
102
RTVSPost2010Prop29
280
     1
102
RTVSPost2010PropOp29
 70
     1
102
RTVSPost2010Prop30
280
     1
102
RTVSPost2010PropOp30
 70
     1
102
RTVSPost2010Prop31
280
     0
102
RTVSPost2010PropOp31
 70
     1
102
RTVSPost2010Prop32
280
     0
102
RTVSPost2010PropOp32
 70
     1
102
RTVSPost2010Prop33
280
     0
102
RTVSPost2010PropOp33
 70
     1
102
RTVSPost2010Prop34
280
     0
102
RTVSPost2010PropOp34
 70
     1
102
RTVSPost2010Prop35
280
     0
102
RTVSPost2010PropOp35
 70
     1
102
RTVSPost2010Prop36
280
     0
102
RTVSPost2010PropOp36
 70
     1
102
RTVSPost2010Prop37
 90
       50
102
RTVSPost2010PropOp37
 70
     1
102
RTVSPost2010Prop38
140
0.0
102
RTVSPost2010PropOp38
 70
     1
102
RTVSPost2010Prop39
140
1.0
102
RTVSPost2010PropOp39
 70
     1
102
RTVSPost2010Prop40
 90
        0
102
RTVSPost2010PropOp40
 70
     1
102
RTVSPost2010Prop41ColorIndex
 90
       18
102
RTVSPost2010Prop41ColorRGB
 90
        0
102
RTVSPost2010PropOp41
 70
     1
102
RTVSPost2010Prop42
 90
       50
102
RTVSPost2010PropOp42
 70
     1
102
RTVSPost2010Prop43
 90
        3
102
RTVSPost2010PropOp43
 70
     1
102
RTVSPost2010Prop44ColorIndex
 90
        5
102
RTVSPost2010Prop44ColorRGB
 90
      255
102
RTVSPost2010PropOp44
 70
     1
102
RTVSPost2010Prop45
280
     0
102
RTVSPost2010PropOp45
 70
     1
102
RTVSPost2010Prop46
 90
       50
102
RTVSPost2010PropOp46
 70
     1
102
RTVSPost2010Prop47
 90
       50
102
RTVSPost2010PropOp47
 70
     1
102
RTVSPost2010Prop48
 90
       50
102
RTVSPost2010PropOp48
 70
     1
102
RTVSPost2010Prop49
280
     0
102
RTVSPost2010PropOp49
 70
     1
102
RTVSPost2010Prop50
 90
       50
102
RTVSPost2010PropOp50
 70
     1
102
RTVSPost2010Prop51ColorIndex
 90
      256
102
RTVSPost2010Prop51ColorRGB
 90
-16777216
102
RTVSPost2010PropOp51
 70
     0
102
RTVSPost2010Prop52
140
1.0
102
RTVSPost2010PropOp52
 70
     0
102
RTVSPost2010Prop53
 90
        2
102
RTVSPost2010PropOp53
 70
     1
102
RTVSPost2010Prop54
  1
strokes_ogs.tif
102
RTVSPost2010PropOp54
 70
     1
102
RTVSPost2010Prop55
280
     0
102
RTVSPost2010PropOp55
 70
     1
102
RTVSPost2010Prop56
140
1.0
102
RTVSPost2010PropOp56
 70
     1
102
RTVSPost2010Prop57
140
1.0
102
RTVSPost2010PropOp57
 70
     1
102
RTVSPropertyOp0
 70
     1
102
RTVSPropertyOp1
 70
     1
102
RTVSPropertyOp2
 70
     1
102
RTVSPropertyOp3
 70
     1
102
RTVSPropertyOp4
 70
     1
102
RTVSPropertyOp5
 70
     1
102
RTVSPropertyOp6
 70
     1
102
RTVSPropertyOp7
 70
     1
102
RTVSPropertyOp8
 70
     1
102
RTVSPropertyOp9
 70
     1
102
RTVSPropertyOp10
 70
     1
102
RTVSPropertyOp11
 70
     1
102
RTVSPropertyOp12
 70
     1
102
RTVSPropertyOp13
 70
     1
102
RTVSPropertyOp14
 70
     1
102
RTVSPropertyOp15
 70
     1
102
RTVSPropertyOp16
 70
     1
102
RTVSPropertyOp17
 70
     1
102
RTVSPropertyOp18
 70
     1
102
RTVSPropertyOp19
 70
     1
102
RTVSPropertyOp20
 70
     1
102
RTVSPropertyOp21
 70
     1
102
RTVSPropertyOp22
 70
     1
102
RTVSPropertyOp23
 70
     1
102
RTVSPropertyOp24
 70
     1
102
RTVSPropertyOp25
 70
     1
102
RTVSPropertyOp26
 70
     1
102
RTVSPropertyOp27
 70
     1
102
RTVSPropertyOp28
 70
     1
102
RTVSPropertyOp29
 70
     1
102
RTVSPropertyOp30
 70
     1
102
RTVSPropertyOp31
 70
     1
102
RTVSPropertyOp32
 70
     1
102
RTVSPropertyOp33
 70
     1
102
RTVSPropertyOp34
 70
     1
102
RTVSPropertyOp35
 70
     1
102
RTVSPropertyOp36
 70
     1
102
RTVSPropertyOp37
 70
     1
102
RTVSPropertyOp38
 70
     1
102
RTVSPropertyOp39
 70
     1
102
RTVSPropertyOp40
 70
     1
102
RTVSPropertyOp41
 70
     1
102
RTVSPropertyOp42
 70
     1
102
RTVSPropertyOp43
 70
     1
102
RTVSPropertyOp44
 70
     1
102
RTVSPropertyOp45
 70
     1
102
RTVSPropertyOp46
 70
     1
102
RTVSPropertyOp47
 70
     1
102
RTVSPropertyOp48
 70
     1
102
RTVSPropertyOp49
 70
     1
102
RTVSPropertyOp50
 70
     1
102
RTVSPropertyOp51
 70
     0
102
RTVSPropertyOp52
 70
     0
102
RTVSPropertyOp53
 70
     1
102
RTVSPropertyOp54
 70
     1
102
RTVSPropertyOp55
 70
     1
102
RTVSPropertyOp56
 70
     1
102
RTVSPropertyOp57
 70
     1
102
RTVSPropertyOp58
 70
     1
102
RTVSPropertyOp59
 70
     1
102
RTVSPropertyOp60
 70
     1
102
RTVSPropertyOp61
 70
     1
102
RTVSPropertyOp62
 70
     1
  0
XRECORD
  5
58D
102
{ACAD_REACTORS
330
58C
102
}
330
58C
100
AcDbXrecord
280
     1
102
RTVSPost2010Prop28
280
     0
102
RTVSPost2010PropOp28
 70
     1
102
RTVSPost2010Prop29
280
     1
102
RTVSPost2010PropOp29
 70
     1
102
RTVSPost2010Prop30
280
     1
102
RTVSPost2010PropOp30
 70
     1
102
RTVSPost2010Prop31
280
     0
102
RTVSPost2010PropOp31
 70
     1
102
RTVSPost2010Prop32
280
     0
102
RTVSPost2010PropOp32
 70
     1
102
RTVSPost2010Prop33
280
     0
102
RTVSPost2010PropOp33
 70
     1
102
RTVSPost2010Prop34
280
     0
102
RTVSPost2010PropOp34
 70
     1
102
RTVSPost2010Prop35
280
     0
102
RTVSPost2010PropOp35
 70
     1
102
RTVSPost2010Prop36
280
     0
102
RTVSPost2010PropOp36
 70
     1
102
RTVSPost2010Prop37
 90
       50
102
RTVSPost2010PropOp37
 70
     0
102
RTVSPost2010Prop38
140
0.0
102
RTVSPost2010PropOp38
 70
     0
102
RTVSPost2010Prop39
140
1.0
102
RTVSPost2010PropOp39
 70
     0
102
RTVSPost2010Prop40
 90
        0
102
RTVSPost2010PropOp40
 70
     0
102
RTVSPost2010Prop41ColorIndex
 90
       18
102
RTVSPost2010Prop41ColorRGB
 90
        0
102
RTVSPost2010PropOp41
 70
     0
102
RTVSPost2010Prop42
 90
       50
102
RTVSPost2010PropOp42
 70
     0
102
RTVSPost2010Prop43
 90
        3
102
RTVSPost2010PropOp43
 70
     0
102
RTVSPost2010Prop44ColorIndex
 90
        5
102
RTVSPost2010Prop44ColorRGB
 90
      255
102
RTVSPost2010PropOp44
 70
     0
102
RTVSPost2010Prop45
280
     0
102
RTVSPost2010PropOp45
 70
     1
102
RTVSPost2010Prop46
 90
       50
102
RTVSPost2010PropOp46
 70
     0
102
RTVSPost2010Prop47
 90
       50
102
RTVSPost2010PropOp47
 70
     0
102
RTVSPost2010Prop48
 90
       50
102
RTVSPost2010PropOp48
 70
     0
102
RTVSPost2010Prop49
280
     0
102
RTVSPost2010PropOp49
 70
     1
102
RTVSPost2010Prop50
 90
       50
102
RTVSPost2010PropOp50
 70
     0
102
RTVSPost2010Prop51ColorIndex
 90
      256
102
RTVSPost2010Prop51ColorRGB
 90
-16777216
102
RTVSPost2010PropOp51
 70
     0
102
RTVSPost2010Prop52
140
1.0
102
RTVSPost2010PropOp52
 70
     0
102
RTVSPost2010Prop53
 90
        2
102
RTVSPost2010PropOp53
 70
     0
102
RTVSPost2010Prop54
  1
strokes_ogs.tif
102
RTVSPost2010PropOp54
 70
     0
102
RTVSPost2010Prop55
280
     0
102
RTVSPost2010PropOp55
 70
     1
102
RTVSPost2010Prop56
140
1.0
102
RTVSPost2010PropOp56
 70
     0
102
RTVSPost2010Prop57
140
1.0
102
RTVSPost2010PropOp57
 70
     0
102
RTVSPropertyOp0
 70
     0
102
RTVSPropertyOp1
 70
     0
102
RTVSPropertyOp2
 70
     0
102
RTVSPropertyOp3
 70
     0
102
RTVSPropertyOp4
 70
     0
102
RTVSPropertyOp5
 70
     0
102
RTVSPropertyOp6
 70
     0
102
RTVSPropertyOp7
 70
     0
102
RTVSPropertyOp8
 70
     0
102
RTVSPropertyOp9
 70
     0
102
RTVSPropertyOp10
 70
     0
102
RTVSPropertyOp11
 70
     0
102
RTVSPropertyOp12
 70
     0
102
RTVSPropertyOp13
 70
     0
102
RTVSPropertyOp14
 70
     2
102
RTVSPropertyOp15
 70
     0
102
RTVSPropertyOp16
 70
     0
102
RTVSPropertyOp17
 70
     0
102
RTVSPropertyOp18
 70
     0
102
RTVSPropertyOp19
 70
     0
102
RTVSPropertyOp20
 70
     0
102
RTVSPropertyOp21
 70
     0
102
RTVSPropertyOp22
 70
     0
102
RTVSPropertyOp23
 70
     0
102
RTVSPropertyOp24
 70
     0
102
RTVSPropertyOp25
 70
     0
102
RTVSPropertyOp26
 70
     0
102
RTVSPropertyOp27
 70
     0
102
RTVSPropertyOp28
 70
     1
102
RTVSPropertyOp29
 70
     1
102
RTVSPropertyOp30
 70
     1
102
RTVSPropertyOp31
 70
     1
102
RTVSPropertyOp32
 70
     1
102
RTVSPropertyOp33
 70
     1
102
RTVSPropertyOp34
 70
     1
102
RTVSPropertyOp35
 70
     1
102
RTVSPropertyOp36
 70
     1
102
RTVSPropertyOp37
 70
     0
102
RTVSPropertyOp38
 70
     0
102
RTVSPropertyOp39
 70
     0
102
RTVSPropertyOp40
 70
     0
102
RTVSPropertyOp41
 70
     0
102
RTVSPropertyOp42
 70
     0
102
RTVSPropertyOp43
 70
     0
102
RTVSPropertyOp44
 70
     0
102
RTVSPropertyOp45
 70
     1
102
RTVSPropertyOp46
 70
     0
102
RTVSPropertyOp47
 70
     0
102
RTVSPropertyOp48
 70
     0
102
RTVSPropertyOp49
 70
     1
102
RTVSPropertyOp50
 70
     0
102
RTVSPropertyOp51
 70
     0
102
RTVSPropertyOp52
 70
     0
102
RTVSPropertyOp53
 70
     0
102
RTVSPropertyOp54
 70
     0
102
RTVSPropertyOp55
 70
     1
102
RTVSPropertyOp56
 70
     0
102
RTVSPropertyOp57
 70
     0
102
RTVSPropertyOp58
 70
     0
102
RTVSPropertyOp59
 70
     0
102
RTVSPropertyOp60
 70
     0
102
RTVSPropertyOp61
 70
     0
102
RTVSPropertyOp62
 70
     0
  0
XRECORD
  5
57B
102
{ACAD_REACTORS
330
57A
102
}
330
57A
100
AcDbXrecord
280
     1
102
RTVSPost2010Prop28
280
     0
102
RTVSPost2010PropOp28
 70
     1
102
RTVSPost2010Prop29
280
     1
102
RTVSPost2010PropOp29
 70
     1
102
RTVSPost2010Prop30
280
     1
102
RTVSPost2010PropOp30
 70
     1
102
RTVSPost2010Prop31
280
     0
102
RTVSPost2010PropOp31
 70
     1
102
RTVSPost2010Prop32
280
     0
102
RTVSPost2010PropOp32
 70
     1
102
RTVSPost2010Prop33
280
     0
102
RTVSPost2010PropOp33
 70
     1
102
RTVSPost2010Prop34
280
     0
102
RTVSPost2010PropOp34
 70
     1
102
RTVSPost2010Prop35
280
     0
102
RTVSPost2010PropOp35
 70
     1
102
RTVSPost2010Prop36
280
     0
102
RTVSPost2010PropOp36
 70
     1
102
RTVSPost2010Prop37
 90
       50
102
RTVSPost2010PropOp37
 70
     1
102
RTVSPost2010Prop38
140
0.0
102
RTVSPost2010PropOp38
 70
     1
102
RTVSPost2010Prop39
140
1.0
102
RTVSPost2010PropOp39
 70
     1
102
RTVSPost2010Prop40
 90
        0
102
RTVSPost2010PropOp40
 70
     1
102
RTVSPost2010Prop41ColorIndex
 90
       18
102
RTVSPost2010Prop41ColorRGB
 90
        0
102
RTVSPost2010PropOp41
 70
     1
102
RTVSPost2010Prop42
 90
       50
102
RTVSPost2010PropOp42
 70
     1
102
RTVSPost2010Prop43
 90
        3
102
RTVSPost2010PropOp43
 70
     1
102
RTVSPost2010Prop44ColorIndex
 90
        5
102
RTVSPost2010Prop44ColorRGB
 90
      255
102
RTVSPost2010PropOp44
 70
     1
102
RTVSPost2010Prop45
280
     0
102
RTVSPost2010PropOp45
 70
     1
102
RTVSPost2010Prop46
 90
       50
102
RTVSPost2010PropOp46
 70
     1
102
RTVSPost2010Prop47
 90
       50
102
RTVSPost2010PropOp47
 70
     1
102
RTVSPost2010Prop48
 90
       50
102
RTVSPost2010PropOp48
 70
     1
102
RTVSPost2010Prop49
280
     0
102
RTVSPost2010PropOp49
 70
     1
102
RTVSPost2010Prop50
 90
       50
102
RTVSPost2010PropOp50
 70
     1
102
RTVSPost2010Prop51ColorIndex
 90
      256
102
RTVSPost2010Prop51ColorRGB
 90
-16777216
102
RTVSPost2010PropOp51
 70
     0
102
RTVSPost2010Prop52
140
1.0
102
RTVSPost2010PropOp52
 70
     0
102
RTVSPost2010Prop53
 90
        2
102
RTVSPost2010PropOp53
 70
     1
102
RTVSPost2010Prop54
  1
strokes_ogs.tif
102
RTVSPost2010PropOp54
 70
     1
102
RTVSPost2010Prop55
280
     0
102
RTVSPost2010PropOp55
 70
     1
102
RTVSPost2010Prop56
140
1.0
102
RTVSPost2010PropOp56
 70
     1
102
RTVSPost2010Prop57
140
1.0
102
RTVSPost2010PropOp57
 70
     1
102
RTVSPropertyOp0
 70
     1
102
RTVSPropertyOp1
 70
     1
102
RTVSPropertyOp2
 70
     1
102
RTVSPropertyOp3
 70
     1
102
RTVSPropertyOp4
 70
     1
102
RTVSPropertyOp5
 70
     1
102
RTVSPropertyOp6
 70
     1
102
RTVSPropertyOp7
 70
     1
102
RTVSPropertyOp8
 70
     1
102
RTVSPropertyOp9
 70
     1
102
RTVSPropertyOp10
 70
     1
102
RTVSPropertyOp11
 70
     1
102
RTVSPropertyOp12
 70
     1
102
RTVSPropertyOp13
 70
     1
102
RTVSPropertyOp14
 70
     1
102
RTVSPropertyOp15
 70
     1
102
RTVSPropertyOp16
 70
     1
102
RTVSPropertyOp17
 70
     1
102
RTVSPropertyOp18
 70
     1
102
RTVSPropertyOp19
 70
     1
102
RTVSPropertyOp20
 70
     1
102
RTVSPropertyOp21
 70
     1
102
RTVSPropertyOp22
 70
     1
102
RTVSPropertyOp23
 70
     1
102
RTVSPropertyOp24
 70
     1
102
RTVSPropertyOp25
 70
     1
102
RTVSPropertyOp26
 70
     1
102
RTVSPropertyOp27
 70
     1
102
RTVSPropertyOp28
 70
     1
102
RTVSPropertyOp29
 70
     1
102
RTVSPropertyOp30
 70
     1
102
RTVSPropertyOp31
 70
     1
102
RTVSPropertyOp32
 70
     1
102
RTVSPropertyOp33
 70
     1
102
RTVSPropertyOp34
 70
     1
102
RTVSPropertyOp35
 70
     1
102
RTVSPropertyOp36
 70
     1
102
RTVSPropertyOp37
 70
     1
102
RTVSPropertyOp38
 70
     1
102
RTVSPropertyOp39
 70
     1
102
RTVSPropertyOp40
 70
     1
102
RTVSPropertyOp41
 70
     1
102
RTVSPropertyOp42
 70
     1
102
RTVSPropertyOp43
 70
     1
102
RTVSPropertyOp44
 70
     1
102
RTVSPropertyOp45
 70
     1
102
RTVSPropertyOp46
 70
     1
102
RTVSPropertyOp47
 70
     1
102
RTVSPropertyOp48
 70
     1
102
RTVSPropertyOp49
 70
     1
102
RTVSPropertyOp50
 70
     1
102
RTVSPropertyOp51
 70
     0
102
RTVSPropertyOp52
 70
     0
102
RTVSPropertyOp53
 70
     1
102
RTVSPropertyOp54
 70
     1
102
RTVSPropertyOp55
 70
     1
102
RTVSPropertyOp56
 70
     1
102
RTVSPropertyOp57
 70
     1
102
RTVSPropertyOp58
 70
     1
102
RTVSPropertyOp59
 70
     1
102
RTVSPropertyOp60
 70
     1
102
RTVSPropertyOp61
 70
     1
102
RTVSPropertyOp62
 70
     1
  0
XRECORD
  5
55F
102
{ACAD_REACTORS
330
55E
102
}
330
55E
100
AcDbXrecord
280
     1
102
RTVSPost2010Prop28
280
     0
102
RTVSPost2010PropOp28
 70
     1
102
RTVSPost2010Prop29
280
     1
102
RTVSPost2010PropOp29
 70
     1
102
RTVSPost2010Prop30
280
     1
102
RTVSPost2010PropOp30
 70
     1
102
RTVSPost2010Prop31
280
     0
102
RTVSPost2010PropOp31
 70
     1
102
RTVSPost2010Prop32
280
     0
102
RTVSPost2010PropOp32
 70
     1
102
RTVSPost2010Prop33
280
     0
102
RTVSPost2010PropOp33
 70
     1
102
RTVSPost2010Prop34
280
     0
102
RTVSPost2010PropOp34
 70
     1
102
RTVSPost2010Prop35
280
     0
102
RTVSPost2010PropOp35
 70
     1
102
RTVSPost2010Prop36
280
     0
102
RTVSPost2010PropOp36
 70
     1
102
RTVSPost2010Prop37
 90
       50
102
RTVSPost2010PropOp37
 70
     1
102
RTVSPost2010Prop38
140
0.0
102
RTVSPost2010PropOp38
 70
     1
102
RTVSPost2010Prop39
140
1.0
102
RTVSPost2010PropOp39
 70
     1
102
RTVSPost2010Prop40
 90
        0
102
RTVSPost2010PropOp40
 70
     1
102
RTVSPost2010Prop41ColorIndex
 90
       18
102
RTVSPost2010Prop41ColorRGB
 90
        0
102
RTVSPost2010PropOp41
 70
     1
102
RTVSPost2010Prop42
 90
       50
102
RTVSPost2010PropOp42
 70
     1
102
RTVSPost2010Prop43
 90
        3
102
RTVSPost2010PropOp43
 70
     1
102
RTVSPost2010Prop44ColorIndex
 90
        5
102
RTVSPost2010Prop44ColorRGB
 90
      255
102
RTVSPost2010PropOp44
 70
     1
102
RTVSPost2010Prop45
280
     0
102
RTVSPost2010PropOp45
 70
     1
102
RTVSPost2010Prop46
 90
       50
102
RTVSPost2010PropOp46
 70
     1
102
RTVSPost2010Prop47
 90
       50
102
RTVSPost2010PropOp47
 70
     1
102
RTVSPost2010Prop48
 90
       50
102
RTVSPost2010PropOp48
 70
     1
102
RTVSPost2010Prop49
280
     0
102
RTVSPost2010PropOp49
 70
     1
102
RTVSPost2010Prop50
 90
       50
102
RTVSPost2010PropOp50
 70
     1
102
RTVSPost2010Prop51ColorIndex
 90
      256
102
RTVSPost2010Prop51ColorRGB
 90
-16777216
102
RTVSPost2010PropOp51
 70
     0
102
RTVSPost2010Prop52
140
1.0
102
RTVSPost2010PropOp52
 70
     0
102
RTVSPost2010Prop53
 90
        2
102
RTVSPost2010PropOp53
 70
     1
102
RTVSPost2010Prop54
  1
strokes_ogs.tif
102
RTVSPost2010PropOp54
 70
     1
102
RTVSPost2010Prop55
280
     0
102
RTVSPost2010PropOp55
 70
     1
102
RTVSPost2010Prop56
140
1.0
102
RTVSPost2010PropOp56
 70
     1
102
RTVSPost2010Prop57
140
1.0
102
RTVSPost2010PropOp57
 70
     1
102
RTVSPropertyOp0
 70
     1
102
RTVSPropertyOp1
 70
     1
102
RTVSPropertyOp2
 70
     1
102
RTVSPropertyOp3
 70
     1
102
RTVSPropertyOp4
 70
     1
102
RTVSPropertyOp5
 70
     1
102
RTVSPropertyOp6
 70
     1
102
RTVSPropertyOp7
 70
     1
102
RTVSPropertyOp8
 70
     1
102
RTVSPropertyOp9
 70
     1
102
RTVSPropertyOp10
 70
     1
102
RTVSPropertyOp11
 70
     1
102
RTVSPropertyOp12
 70
     1
102
RTVSPropertyOp13
 70
     1
102
RTVSPropertyOp14
 70
     1
102
RTVSPropertyOp15
 70
     1
102
RTVSPropertyOp16
 70
     1
102
RTVSPropertyOp17
 70
     1
102
RTVSPropertyOp18
 70
     1
102
RTVSPropertyOp19
 70
     1
102
RTVSPropertyOp20
 70
     1
102
RTVSPropertyOp21
 70
     1
102
RTVSPropertyOp22
 70
     1
102
RTVSPropertyOp23
 70
     1
102
RTVSPropertyOp24
 70
     1
102
RTVSPropertyOp25
 70
     1
102
RTVSPropertyOp26
 70
     1
102
RTVSPropertyOp27
 70
     1
102
RTVSPropertyOp28
 70
     1
102
RTVSPropertyOp29
 70
     1
102
RTVSPropertyOp30
 70
     1
102
RTVSPropertyOp31
 70
     1
102
RTVSPropertyOp32
 70
     1
102
RTVSPropertyOp33
 70
     1
102
RTVSPropertyOp34
 70
     1
102
RTVSPropertyOp35
 70
     1
102
RTVSPropertyOp36
 70
     1
102
RTVSPropertyOp37
 70
     1
102
RTVSPropertyOp38
 70
     1
102
RTVSPropertyOp39
 70
     1
102
RTVSPropertyOp40
 70
     1
102
RTVSPropertyOp41
 70
     1
102
RTVSPropertyOp42
 70
     1
102
RTVSPropertyOp43
 70
     1
102
RTVSPropertyOp44
 70
     1
102
RTVSPropertyOp45
 70
     1
102
RTVSPropertyOp46
 70
     1
102
RTVSPropertyOp47
 70
     1
102
RTVSPropertyOp48
 70
     1
102
RTVSPropertyOp49
 70
     1
102
RTVSPropertyOp50
 70
     1
102
RTVSPropertyOp51
 70
     0
102
RTVSPropertyOp52
 70
     0
102
RTVSPropertyOp53
 70
     1
102
RTVSPropertyOp54
 70
     1
102
RTVSPropertyOp55
 70
     1
102
RTVSPropertyOp56
 70
     1
102
RTVSPropertyOp57
 70
     1
102
RTVSPropertyOp58
 70
     1
102
RTVSPropertyOp59
 70
     1
102
RTVSPropertyOp60
 70
     1
102
RTVSPropertyOp61
 70
     1
102
RTVSPropertyOp62
 70
     1
  0
XRECORD
  5
561
102
{ACAD_REACTORS
330
560
102
}
330
560
100
AcDbXrecord
280
     1
102
RTVSPost2010Prop28
280
     0
102
RTVSPost2010PropOp28
 70
     1
102
RTVSPost2010Prop29
280
     1
102
RTVSPost2010PropOp29
 70
     1
102
RTVSPost2010Prop30
280
     1
102
RTVSPost2010PropOp30
 70
     1
102
RTVSPost2010Prop31
280
     0
102
RTVSPost2010PropOp31
 70
     1
102
RTVSPost2010Prop32
280
     0
102
RTVSPost2010PropOp32
 70
     1
102
RTVSPost2010Prop33
280
     0
102
RTVSPost2010PropOp33
 70
     1
102
RTVSPost2010Prop34
280
     0
102
RTVSPost2010PropOp34
 70
     1
102
RTVSPost2010Prop35
280
     0
102
RTVSPost2010PropOp35
 70
     1
102
RTVSPost2010Prop36
280
     0
102
RTVSPost2010PropOp36
 70
     1
102
RTVSPost2010Prop37
 90
       50
102
RTVSPost2010PropOp37
 70
     1
102
RTVSPost2010Prop38
140
0.0
102
RTVSPost2010PropOp38
 70
     1
102
RTVSPost2010Prop39
140
1.0
102
RTVSPost2010PropOp39
 70
     1
102
RTVSPost2010Prop40
 90
        0
102
RTVSPost2010PropOp40
 70
     1
102
RTVSPost2010Prop41ColorIndex
 90
       18
102
RTVSPost2010Prop41ColorRGB
 90
        0
102
RTVSPost2010PropOp41
 70
     1
102
RTVSPost2010Prop42
 90
       50
102
RTVSPost2010PropOp42
 70
     1
102
RTVSPost2010Prop43
 90
        3
102
RTVSPost2010PropOp43
 70
     1
102
RTVSPost2010Prop44ColorIndex
 90
        5
102
RTVSPost2010Prop44ColorRGB
 90
      255
102
RTVSPost2010PropOp44
 70
     1
102
RTVSPost2010Prop45
280
     0
102
RTVSPost2010PropOp45
 70
     1
102
RTVSPost2010Prop46
 90
       50
102
RTVSPost2010PropOp46
 70
     1
102
RTVSPost2010Prop47
 90
       50
102
RTVSPost2010PropOp47
 70
     1
102
RTVSPost2010Prop48
 90
       50
102
RTVSPost2010PropOp48
 70
     1
102
RTVSPost2010Prop49
280
     0
102
RTVSPost2010PropOp49
 70
     1
102
RTVSPost2010Prop50
 90
       50
102
RTVSPost2010PropOp50
 70
     1
102
RTVSPost2010Prop51ColorIndex
 90
      256
102
RTVSPost2010Prop51ColorRGB
 90
-16777216
102
RTVSPost2010PropOp51
 70
     0
102
RTVSPost2010Prop52
140
1.0
102
RTVSPost2010PropOp52
 70
     0
102
RTVSPost2010Prop53
 90
        2
102
RTVSPost2010PropOp53
 70
     1
102
RTVSPost2010Prop54
  1
strokes_ogs.tif
102
RTVSPost2010PropOp54
 70
     1
102
RTVSPost2010Prop55
280
     0
102
RTVSPost2010PropOp55
 70
     1
102
RTVSPost2010Prop56
140
1.0
102
RTVSPost2010PropOp56
 70
     1
102
RTVSPost2010Prop57
140
1.0
102
RTVSPost2010PropOp57
 70
     1
102
RTVSPropertyOp0
 70
     1
102
RTVSPropertyOp1
 70
     1
102
RTVSPropertyOp2
 70
     1
102
RTVSPropertyOp3
 70
     1
102
RTVSPropertyOp4
 70
     1
102
RTVSPropertyOp5
 70
     1
102
RTVSPropertyOp6
 70
     1
102
RTVSPropertyOp7
 70
     1
102
RTVSPropertyOp8
 70
     1
102
RTVSPropertyOp9
 70
     1
102
RTVSPropertyOp10
 70
     1
102
RTVSPropertyOp11
 70
     1
102
RTVSPropertyOp12
 70
     1
102
RTVSPropertyOp13
 70
     1
102
RTVSPropertyOp14
 70
     1
102
RTVSPropertyOp15
 70
     1
102
RTVSPropertyOp16
 70
     1
102
RTVSPropertyOp17
 70
     1
102
RTVSPropertyOp18
 70
     1
102
RTVSPropertyOp19
 70
     1
102
RTVSPropertyOp20
 70
     1
102
RTVSPropertyOp21
 70
     1
102
RTVSPropertyOp22
 70
     1
102
RTVSPropertyOp23
 70
     1
102
RTVSPropertyOp24
 70
     1
102
RTVSPropertyOp25
 70
     1
102
RTVSPropertyOp26
 70
     1
102
RTVSPropertyOp27
 70
     1
102
RTVSPropertyOp28
 70
     1
102
RTVSPropertyOp29
 70
     1
102
RTVSPropertyOp30
 70
     1
102
RTVSPropertyOp31
 70
     1
102
RTVSPropertyOp32
 70
     1
102
RTVSPropertyOp33
 70
     1
102
RTVSPropertyOp34
 70
     1
102
RTVSPropertyOp35
 70
     1
102
RTVSPropertyOp36
 70
     1
102
RTVSPropertyOp37
 70
     1
102
RTVSPropertyOp38
 70
     1
102
RTVSPropertyOp39
 70
     1
102
RTVSPropertyOp40
 70
     1
102
RTVSPropertyOp41
 70
     1
102
RTVSPropertyOp42
 70
     1
102
RTVSPropertyOp43
 70
     1
102
RTVSPropertyOp44
 70
     1
102
RTVSPropertyOp45
 70
     1
102
RTVSPropertyOp46
 70
     1
102
RTVSPropertyOp47
 70
     1
102
RTVSPropertyOp48
 70
     1
102
RTVSPropertyOp49
 70
     1
102
RTVSPropertyOp50
 70
     1
102
RTVSPropertyOp51
 70
     0
102
RTVSPropertyOp52
 70
     0
102
RTVSPropertyOp53
 70
     1
102
RTVSPropertyOp54
 70
     1
102
RTVSPropertyOp55
 70
     1
102
RTVSPropertyOp56
 70
     1
102
RTVSPropertyOp57
 70
     1
102
RTVSPropertyOp58
 70
     1
102
RTVSPropertyOp59
 70
     1
102
RTVSPropertyOp60
 70
     1
102
RTVSPropertyOp61
 70
     1
102
RTVSPropertyOp62
 70
     1
  0
XRECORD
  5
563
102
{ACAD_REACTORS
330
562
102
}
330
562
100
AcDbXrecord
280
     1
102
RTVSPost2010Prop28
280
     0
102
RTVSPost2010PropOp28
 70
     1
102
RTVSPost2010Prop29
280
     1
102
RTVSPost2010PropOp29
 70
     1
102
RTVSPost2010Prop30
280
     1
102
RTVSPost2010PropOp30
 70
     1
102
RTVSPost2010Prop31
280
     0
102
RTVSPost2010PropOp31
 70
     1
102
RTVSPost2010Prop32
280
     0
102
RTVSPost2010PropOp32
 70
     1
102
RTVSPost2010Prop33
280
     0
102
RTVSPost2010PropOp33
 70
     1
102
RTVSPost2010Prop34
280
     0
102
RTVSPost2010PropOp34
 70
     1
102
RTVSPost2010Prop35
280
     0
102
RTVSPost2010PropOp35
 70
     1
102
RTVSPost2010Prop36
280
     0
102
RTVSPost2010PropOp36
 70
     1
102
RTVSPost2010Prop37
 90
       50
102
RTVSPost2010PropOp37
 70
     1
102
RTVSPost2010Prop38
140
0.0
102
RTVSPost2010PropOp38
 70
     1
102
RTVSPost2010Prop39
140
1.0
102
RTVSPost2010PropOp39
 70
     1
102
RTVSPost2010Prop40
 90
        0
102
RTVSPost2010PropOp40
 70
     1
102
RTVSPost2010Prop41ColorIndex
 90
       18
102
RTVSPost2010Prop41ColorRGB
 90
        0
102
RTVSPost2010PropOp41
 70
     1
102
RTVSPost2010Prop42
 90
       50
102
RTVSPost2010PropOp42
 70
     1
102
RTVSPost2010Prop43
 90
        3
102
RTVSPost2010PropOp43
 70
     1
102
RTVSPost2010Prop44ColorIndex
 90
        5
102
RTVSPost2010Prop44ColorRGB
 90
      255
102
RTVSPost2010PropOp44
 70
     1
102
RTVSPost2010Prop45
280
     0
102
RTVSPost2010PropOp45
 70
     1
102
RTVSPost2010Prop46
 90
       50
102
RTVSPost2010PropOp46
 70
     1
102
RTVSPost2010Prop47
 90
       50
102
RTVSPost2010PropOp47
 70
     1
102
RTVSPost2010Prop48
 90
       50
102
RTVSPost2010PropOp48
 70
     1
102
RTVSPost2010Prop49
280
     0
102
RTVSPost2010PropOp49
 70
     1
102
RTVSPost2010Prop50
 90
       50
102
RTVSPost2010PropOp50
 70
     1
102
RTVSPost2010Prop51ColorIndex
 90
      256
102
RTVSPost2010Prop51ColorRGB
 90
-16777216
102
RTVSPost2010PropOp51
 70
     0
102
RTVSPost2010Prop52
140
1.0
102
RTVSPost2010PropOp52
 70
     0
102
RTVSPost2010Prop53
 90
        2
102
RTVSPost2010PropOp53
 70
     1
102
RTVSPost2010Prop54
  1
strokes_ogs.tif
102
RTVSPost2010PropOp54
 70
     1
102
RTVSPost2010Prop55
280
     0
102
RTVSPost2010PropOp55
 70
     1
102
RTVSPost2010Prop56
140
1.0
102
RTVSPost2010PropOp56
 70
     1
102
RTVSPost2010Prop57
140
1.0
102
RTVSPost2010PropOp57
 70
     1
102
RTVSPropertyOp0
 70
     1
102
RTVSPropertyOp1
 70
     1
102
RTVSPropertyOp2
 70
     1
102
RTVSPropertyOp3
 70
     1
102
RTVSPropertyOp4
 70
     1
102
RTVSPropertyOp5
 70
     1
102
RTVSPropertyOp6
 70
     1
102
RTVSPropertyOp7
 70
     1
102
RTVSPropertyOp8
 70
     1
102
RTVSPropertyOp9
 70
     1
102
RTVSPropertyOp10
 70
     1
102
RTVSPropertyOp11
 70
     1
102
RTVSPropertyOp12
 70
     1
102
RTVSPropertyOp13
 70
     1
102
RTVSPropertyOp14
 70
     1
102
RTVSPropertyOp15
 70
     1
102
RTVSPropertyOp16
 70
     1
102
RTVSPropertyOp17
 70
     1
102
RTVSPropertyOp18
 70
     1
102
RTVSPropertyOp19
 70
     1
102
RTVSPropertyOp20
 70
     1
102
RTVSPropertyOp21
 70
     1
102
RTVSPropertyOp22
 70
     1
102
RTVSPropertyOp23
 70
     1
102
RTVSPropertyOp24
 70
     1
102
RTVSPropertyOp25
 70
     1
102
RTVSPropertyOp26
 70
     1
102
RTVSPropertyOp27
 70
     1
102
RTVSPropertyOp28
 70
     1
102
RTVSPropertyOp29
 70
     1
102
RTVSPropertyOp30
 70
     1
102
RTVSPropertyOp31
 70
     1
102
RTVSPropertyOp32
 70
     1
102
RTVSPropertyOp33
 70
     1
102
RTVSPropertyOp34
 70
     1
102
RTVSPropertyOp35
 70
     1
102
RTVSPropertyOp36
 70
     1
102
RTVSPropertyOp37
 70
     1
102
RTVSPropertyOp38
 70
     1
102
RTVSPropertyOp39
 70
     1
102
RTVSPropertyOp40
 70
     1
102
RTVSPropertyOp41
 70
     1
102
RTVSPropertyOp42
 70
     1
102
RTVSPropertyOp43
 70
     1
102
RTVSPropertyOp44
 70
     1
102
RTVSPropertyOp45
 70
     1
102
RTVSPropertyOp46
 70
     1
102
RTVSPropertyOp47
 70
     1
102
RTVSPropertyOp48
 70
     1
102
RTVSPropertyOp49
 70
     1
102
RTVSPropertyOp50
 70
     1
102
RTVSPropertyOp51
 70
     0
102
RTVSPropertyOp52
 70
     0
102
RTVSPropertyOp53
 70
     1
102
RTVSPropertyOp54
 70
     1
102
RTVSPropertyOp55
 70
     1
102
RTVSPropertyOp56
 70
     1
102
RTVSPropertyOp57
 70
     1
102
RTVSPropertyOp58
 70
     1
102
RTVSPropertyOp59
 70
     1
102
RTVSPropertyOp60
 70
     1
102
RTVSPropertyOp61
 70
     1
102
RTVSPropertyOp62
 70
     1
  0
XRECORD
  5
565
102
{ACAD_REACTORS
330
564
102
}
330
564
100
AcDbXrecord
280
     1
102
RTVSPost2010Prop28
280
     0
102
RTVSPost2010PropOp28
 70
     1
102
RTVSPost2010Prop29
280
     1
102
RTVSPost2010PropOp29
 70
     1
102
RTVSPost2010Prop30
280
     1
102
RTVSPost2010PropOp30
 70
     1
102
RTVSPost2010Prop31
280
     0
102
RTVSPost2010PropOp31
 70
     1
102
RTVSPost2010Prop32
280
     0
102
RTVSPost2010PropOp32
 70
     1
102
RTVSPost2010Prop33
280
     0
102
RTVSPost2010PropOp33
 70
     1
102
RTVSPost2010Prop34
280
     0
102
RTVSPost2010PropOp34
 70
     1
102
RTVSPost2010Prop35
280
     0
102
RTVSPost2010PropOp35
 70
     1
102
RTVSPost2010Prop36
280
     0
102
RTVSPost2010PropOp36
 70
     1
102
RTVSPost2010Prop37
 90
       50
102
RTVSPost2010PropOp37
 70
     1
102
RTVSPost2010Prop38
140
0.0
102
RTVSPost2010PropOp38
 70
     1
102
RTVSPost2010Prop39
140
1.0
102
RTVSPost2010PropOp39
 70
     1
102
RTVSPost2010Prop40
 90
        0
102
RTVSPost2010PropOp40
 70
     1
102
RTVSPost2010Prop41ColorIndex
 90
       18
102
RTVSPost2010Prop41ColorRGB
 90
        0
102
RTVSPost2010PropOp41
 70
     1
102
RTVSPost2010Prop42
 90
       50
102
RTVSPost2010PropOp42
 70
     1
102
RTVSPost2010Prop43
 90
        3
102
RTVSPost2010PropOp43
 70
     1
102
RTVSPost2010Prop44ColorIndex
 90
        5
102
RTVSPost2010Prop44ColorRGB
 90
      255
102
RTVSPost2010PropOp44
 70
     1
102
RTVSPost2010Prop45
280
     0
102
RTVSPost2010PropOp45
 70
     1
102
RTVSPost2010Prop46
 90
       50
102
RTVSPost2010PropOp46
 70
     1
102
RTVSPost2010Prop47
 90
       50
102
RTVSPost2010PropOp47
 70
     1
102
RTVSPost2010Prop48
 90
       50
102
RTVSPost2010PropOp48
 70
     1
102
RTVSPost2010Prop49
280
     0
102
RTVSPost2010PropOp49
 70
     1
102
RTVSPost2010Prop50
 90
       50
102
RTVSPost2010PropOp50
 70
     1
102
RTVSPost2010Prop51ColorIndex
 90
      256
102
RTVSPost2010Prop51ColorRGB
 90
-16777216
102
RTVSPost2010PropOp51
 70
     0
102
RTVSPost2010Prop52
140
1.0
102
RTVSPost2010PropOp52
 70
     0
102
RTVSPost2010Prop53
 90
        2
102
RTVSPost2010PropOp53
 70
     1
102
RTVSPost2010Prop54
  1
strokes_ogs.tif
102
RTVSPost2010PropOp54
 70
     1
102
RTVSPost2010Prop55
280
     0
102
RTVSPost2010PropOp55
 70
     1
102
RTVSPost2010Prop56
140
1.0
102
RTVSPost2010PropOp56
 70
     1
102
RTVSPost2010Prop57
140
1.0
102
RTVSPost2010PropOp57
 70
     1
102
RTVSPropertyOp0
 70
     1
102
RTVSPropertyOp1
 70
     1
102
RTVSPropertyOp2
 70
     1
102
RTVSPropertyOp3
 70
     1
102
RTVSPropertyOp4
 70
     1
102
RTVSPropertyOp5
 70
     1
102
RTVSPropertyOp6
 70
     1
102
RTVSPropertyOp7
 70
     1
102
RTVSPropertyOp8
 70
     1
102
RTVSPropertyOp9
 70
     1
102
RTVSPropertyOp10
 70
     1
102
RTVSPropertyOp11
 70
     1
102
RTVSPropertyOp12
 70
     1
102
RTVSPropertyOp13
 70
     1
102
RTVSPropertyOp14
 70
     1
102
RTVSPropertyOp15
 70
     1
102
RTVSPropertyOp16
 70
     1
102
RTVSPropertyOp17
 70
     1
102
RTVSPropertyOp18
 70
     1
102
RTVSPropertyOp19
 70
     1
102
RTVSPropertyOp20
 70
     1
102
RTVSPropertyOp21
 70
     1
102
RTVSPropertyOp22
 70
     1
102
RTVSPropertyOp23
 70
     1
102
RTVSPropertyOp24
 70
     1
102
RTVSPropertyOp25
 70
     1
102
RTVSPropertyOp26
 70
     1
102
RTVSPropertyOp27
 70
     1
102
RTVSPropertyOp28
 70
     1
102
RTVSPropertyOp29
 70
     1
102
RTVSPropertyOp30
 70
     1
102
RTVSPropertyOp31
 70
     1
102
RTVSPropertyOp32
 70
     1
102
RTVSPropertyOp33
 70
     1
102
RTVSPropertyOp34
 70
     1
102
RTVSPropertyOp35
 70
     1
102
RTVSPropertyOp36
 70
     1
102
RTVSPropertyOp37
 70
     1
102
RTVSPropertyOp38
 70
     1
102
RTVSPropertyOp39
 70
     1
102
RTVSPropertyOp40
 70
     1
102
RTVSPropertyOp41
 70
     1
102
RTVSPropertyOp42
 70
     1
102
RTVSPropertyOp43
 70
     1
102
RTVSPropertyOp44
 70
     1
102
RTVSPropertyOp45
 70
     1
102
RTVSPropertyOp46
 70
     1
102
RTVSPropertyOp47
 70
     1
102
RTVSPropertyOp48
 70
     1
102
RTVSPropertyOp49
 70
     1
102
RTVSPropertyOp50
 70
     1
102
RTVSPropertyOp51
 70
     0
102
RTVSPropertyOp52
 70
     0
102
RTVSPropertyOp53
 70
     1
102
RTVSPropertyOp54
 70
     1
102
RTVSPropertyOp55
 70
     1
102
RTVSPropertyOp56
 70
     1
102
RTVSPropertyOp57
 70
     1
102
RTVSPropertyOp58
 70
     1
102
RTVSPropertyOp59
 70
     1
102
RTVSPropertyOp60
 70
     1
102
RTVSPropertyOp61
 70
     1
102
RTVSPropertyOp62
 70
     1
  0
XRECORD
  5
56D
102
{ACAD_REACTORS
330
56C
102
}
330
56C
100
AcDbXrecord
280
     1
102
RTVSPost2010Prop28
280
     0
102
RTVSPost2010PropOp28
 70
     1
102
RTVSPost2010Prop29
280
     1
102
RTVSPost2010PropOp29
 70
     1
102
RTVSPost2010Prop30
280
     1
102
RTVSPost2010PropOp30
 70
     1
102
RTVSPost2010Prop31
280
     0
102
RTVSPost2010PropOp31
 70
     1
102
RTVSPost2010Prop32
280
     0
102
RTVSPost2010PropOp32
 70
     1
102
RTVSPost2010Prop33
280
     0
102
RTVSPost2010PropOp33
 70
     1
102
RTVSPost2010Prop34
280
     0
102
RTVSPost2010PropOp34
 70
     1
102
RTVSPost2010Prop35
280
     0
102
RTVSPost2010PropOp35
 70
     1
102
RTVSPost2010Prop36
280
     0
102
RTVSPost2010PropOp36
 70
     1
102
RTVSPost2010Prop37
 90
       50
102
RTVSPost2010PropOp37
 70
     1
102
RTVSPost2010Prop38
140
0.0
102
RTVSPost2010PropOp38
 70
     1
102
RTVSPost2010Prop39
140
1.0
102
RTVSPost2010PropOp39
 70
     1
102
RTVSPost2010Prop40
 90
        0
102
RTVSPost2010PropOp40
 70
     1
102
RTVSPost2010Prop41ColorIndex
 90
       18
102
RTVSPost2010Prop41ColorRGB
 90
        0
102
RTVSPost2010PropOp41
 70
     1
102
RTVSPost2010Prop42
 90
       50
102
RTVSPost2010PropOp42
 70
     1
102
RTVSPost2010Prop43
 90
        3
102
RTVSPost2010PropOp43
 70
     1
102
RTVSPost2010Prop44ColorIndex
 90
        5
102
RTVSPost2010Prop44ColorRGB
 90
      255
102
RTVSPost2010PropOp44
 70
     1
102
RTVSPost2010Prop45
280
     0
102
RTVSPost2010PropOp45
 70
     1
102
RTVSPost2010Prop46
 90
       50
102
RTVSPost2010PropOp46
 70
     1
102
RTVSPost2010Prop47
 90
       50
102
RTVSPost2010PropOp47
 70
     1
102
RTVSPost2010Prop48
 90
       50
102
RTVSPost2010PropOp48
 70
     1
102
RTVSPost2010Prop49
280
     0
102
RTVSPost2010PropOp49
 70
     1
102
RTVSPost2010Prop50
 90
       50
102
RTVSPost2010PropOp50
 70
     1
102
RTVSPost2010Prop51ColorIndex
 90
      256
102
RTVSPost2010Prop51ColorRGB
 90
-16777216
102
RTVSPost2010PropOp51
 70
     0
102
RTVSPost2010Prop52
140
1.0
102
RTVSPost2010PropOp52
 70
     0
102
RTVSPost2010Prop53
 90
        2
102
RTVSPost2010PropOp53
 70
     1
102
RTVSPost2010Prop54
  1
strokes_ogs.tif
102
RTVSPost2010PropOp54
 70
     1
102
RTVSPost2010Prop55
280
     0
102
RTVSPost2010PropOp55
 70
     1
102
RTVSPost2010Prop56
140
1.0
102
RTVSPost2010PropOp56
 70
     1
102
RTVSPost2010Prop57
140
1.0
102
RTVSPost2010PropOp57
 70
     1
102
RTVSPropertyOp0
 70
     1
102
RTVSPropertyOp1
 70
     1
102
RTVSPropertyOp2
 70
     1
102
RTVSPropertyOp3
 70
     1
102
RTVSPropertyOp4
 70
     1
102
RTVSPropertyOp5
 70
     1
102
RTVSPropertyOp6
 70
     1
102
RTVSPropertyOp7
 70
     1
102
RTVSPropertyOp8
 70
     1
102
RTVSPropertyOp9
 70
     1
102
RTVSPropertyOp10
 70
     1
102
RTVSPropertyOp11
 70
     1
102
RTVSPropertyOp12
 70
     1
102
RTVSPropertyOp13
 70
     1
102
RTVSPropertyOp14
 70
     1
102
RTVSPropertyOp15
 70
     1
102
RTVSPropertyOp16
 70
     1
102
RTVSPropertyOp17
 70
     1
102
RTVSPropertyOp18
 70
     1
102
RTVSPropertyOp19
 70
     1
102
RTVSPropertyOp20
 70
     1
102
RTVSPropertyOp21
 70
     1
102
RTVSPropertyOp22
 70
     1
102
RTVSPropertyOp23
 70
     1
102
RTVSPropertyOp24
 70
     1
102
RTVSPropertyOp25
 70
     1
102
RTVSPropertyOp26
 70
     1
102
RTVSPropertyOp27
 70
     1
102
RTVSPropertyOp28
 70
     1
102
RTVSPropertyOp29
 70
     1
102
RTVSPropertyOp30
 70
     1
102
RTVSPropertyOp31
 70
     1
102
RTVSPropertyOp32
 70
     1
102
RTVSPropertyOp33
 70
     1
102
RTVSPropertyOp34
 70
     1
102
RTVSPropertyOp35
 70
     1
102
RTVSPropertyOp36
 70
     1
102
RTVSPropertyOp37
 70
     1
102
RTVSPropertyOp38
 70
     1
102
RTVSPropertyOp39
 70
     1
102
RTVSPropertyOp40
 70
     1
102
RTVSPropertyOp41
 70
     1
102
RTVSPropertyOp42
 70
     1
102
RTVSPropertyOp43
 70
     1
102
RTVSPropertyOp44
 70
     1
102
RTVSPropertyOp45
 70
     1
102
RTVSPropertyOp46
 70
     1
102
RTVSPropertyOp47
 70
     1
102
RTVSPropertyOp48
 70
     1
102
RTVSPropertyOp49
 70
     1
102
RTVSPropertyOp50
 70
     1
102
RTVSPropertyOp51
 70
     0
102
RTVSPropertyOp52
 70
     0
102
RTVSPropertyOp53
 70
     1
102
RTVSPropertyOp54
 70
     1
102
RTVSPropertyOp55
 70
     1
102
RTVSPropertyOp56
 70
     1
102
RTVSPropertyOp57
 70
     1
102
RTVSPropertyOp58
 70
     1
102
RTVSPropertyOp59
 70
     1
102
RTVSPropertyOp60
 70
     1
102
RTVSPropertyOp61
 70
     1
102
RTVSPropertyOp62
 70
     1
  0
XRECORD
  5
589
102
{ACAD_REACTORS
330
588
102
}
330
588
100
AcDbXrecord
280
     1
102
RTVSPost2010Prop28
280
     0
102
RTVSPost2010PropOp28
 70
     1
102
RTVSPost2010Prop29
280
     1
102
RTVSPost2010PropOp29
 70
     1
102
RTVSPost2010Prop30
280
     1
102
RTVSPost2010PropOp30
 70
     1
102
RTVSPost2010Prop31
280
     0
102
RTVSPost2010PropOp31
 70
     1
102
RTVSPost2010Prop32
280
     0
102
RTVSPost2010PropOp32
 70
     1
102
RTVSPost2010Prop33
280
     0
102
RTVSPost2010PropOp33
 70
     1
102
RTVSPost2010Prop34
280
     0
102
RTVSPost2010PropOp34
 70
     1
102
RTVSPost2010Prop35
280
     0
102
RTVSPost2010PropOp35
 70
     1
102
RTVSPost2010Prop36
280
     0
102
RTVSPost2010PropOp36
 70
     1
102
RTVSPost2010Prop37
 90
       50
102
RTVSPost2010PropOp37
 70
     0
102
RTVSPost2010Prop38
140
0.0
102
RTVSPost2010PropOp38
 70
     0
102
RTVSPost2010Prop39
140
1.0
102
RTVSPost2010PropOp39
 70
     0
102
RTVSPost2010Prop40
 90
        0
102
RTVSPost2010PropOp40
 70
     0
102
RTVSPost2010Prop41ColorIndex
 90
       18
102
RTVSPost2010Prop41ColorRGB
 90
        0
102
RTVSPost2010PropOp41
 70
     0
102
RTVSPost2010Prop42
 90
       50
102
RTVSPost2010PropOp42
 70
     0
102
RTVSPost2010Prop43
 90
        3
102
RTVSPost2010PropOp43
 70
     0
102
RTVSPost2010Prop44ColorIndex
 90
        5
102
RTVSPost2010Prop44ColorRGB
 90
      255
102
RTVSPost2010PropOp44
 70
     0
102
RTVSPost2010Prop45
280
     0
102
RTVSPost2010PropOp45
 70
     1
102
RTVSPost2010Prop46
 90
       50
102
RTVSPost2010PropOp46
 70
     0
102
RTVSPost2010Prop47
 90
       50
102
RTVSPost2010PropOp47
 70
     0
102
RTVSPost2010Prop48
 90
       50
102
RTVSPost2010PropOp48
 70
     0
102
RTVSPost2010Prop49
280
     0
102
RTVSPost2010PropOp49
 70
     1
102
RTVSPost2010Prop50
 90
       50
102
RTVSPost2010PropOp50
 70
     0
102
RTVSPost2010Prop51ColorIndex
 90
      256
102
RTVSPost2010Prop51ColorRGB
 90
-16777216
102
RTVSPost2010PropOp51
 70
     0
102
RTVSPost2010Prop52
140
1.0
102
RTVSPost2010PropOp52
 70
     0
102
RTVSPost2010Prop53
 90
        2
102
RTVSPost2010PropOp53
 70
     0
102
RTVSPost2010Prop54
  1
strokes_ogs.tif
102
RTVSPost2010PropOp54
 70
     0
102
RTVSPost2010Prop55
280
     0
102
RTVSPost2010PropOp55
 70
     1
102
RTVSPost2010Prop56
140
1.0
102
RTVSPost2010PropOp56
 70
     0
102
RTVSPost2010Prop57
140
1.0
102
RTVSPost2010PropOp57
 70
     0
102
RTVSPropertyOp0
 70
     0
102
RTVSPropertyOp1
 70
     0
102
RTVSPropertyOp2
 70
     0
102
RTVSPropertyOp3
 70
     0
102
RTVSPropertyOp4
 70
     0
102
RTVSPropertyOp5
 70
     0
102
RTVSPropertyOp6
 70
     0
102
RTVSPropertyOp7
 70
     0
102
RTVSPropertyOp8
 70
     0
102
RTVSPropertyOp9
 70
     0
102
RTVSPropertyOp10
 70
     0
102
RTVSPropertyOp11
 70
     0
102
RTVSPropertyOp12
 70
     0
102
RTVSPropertyOp13
 70
     0
102
RTVSPropertyOp14
 70
     2
102
RTVSPropertyOp15
 70
     0
102
RTVSPropertyOp16
 70
     0
102
RTVSPropertyOp17
 70
     0
102
RTVSPropertyOp18
 70
     0
102
RTVSPropertyOp19
 70
     0
102
RTVSPropertyOp20
 70
     0
102
RTVSPropertyOp21
 70
     0
102
RTVSPropertyOp22
 70
     0
102
RTVSPropertyOp23
 70
     0
102
RTVSPropertyOp24
 70
     0
102
RTVSPropertyOp25
 70
     0
102
RTVSPropertyOp26
 70
     0
102
RTVSPropertyOp27
 70
     0
102
RTVSPropertyOp28
 70
     1
102
RTVSPropertyOp29
 70
     1
102
RTVSPropertyOp30
 70
     1
102
RTVSPropertyOp31
 70
     1
102
RTVSPropertyOp32
 70
     1
102
RTVSPropertyOp33
 70
     1
102
RTVSPropertyOp34
 70
     1
102
RTVSPropertyOp35
 70
     1
102
RTVSPropertyOp36
 70
     1
102
RTVSPropertyOp37
 70
     0
102
RTVSPropertyOp38
 70
     0
102
RTVSPropertyOp39
 70
     0
102
RTVSPropertyOp40
 70
     0
102
RTVSPropertyOp41
 70
     0
102
RTVSPropertyOp42
 70
     0
102
RTVSPropertyOp43
 70
     0
102
RTVSPropertyOp44
 70
     0
102
RTVSPropertyOp45
 70
     1
102
RTVSPropertyOp46
 70
     0
102
RTVSPropertyOp47
 70
     0
102
RTVSPropertyOp48
 70
     0
102
RTVSPropertyOp49
 70
     1
102
RTVSPropertyOp50
 70
     0
102
RTVSPropertyOp51
 70
     0
102
RTVSPropertyOp52
 70
     0
102
RTVSPropertyOp53
 70
     0
102
RTVSPropertyOp54
 70
     0
102
RTVSPropertyOp55
 70
     1
102
RTVSPropertyOp56
 70
     0
102
RTVSPropertyOp57
 70
     0
102
RTVSPropertyOp58
 70
     0
102
RTVSPropertyOp59
 70
     0
102
RTVSPropertyOp60
 70
     0
102
RTVSPropertyOp61
 70
     0
102
RTVSPropertyOp62
 70
     0
  0
XRECORD
  5
579
102
{ACAD_REACTORS
330
578
102
}
330
578
100
AcDbXrecord
280
     1
102
RTVSPost2010Prop28
280
     0
102
RTVSPost2010PropOp28
 70
     1
102
RTVSPost2010Prop29
280
     1
102
RTVSPost2010PropOp29
 70
     1
102
RTVSPost2010Prop30
280
     1
102
RTVSPost2010PropOp30
 70
     1
102
RTVSPost2010Prop31
280
     0
102
RTVSPost2010PropOp31
 70
     1
102
RTVSPost2010Prop32
280
     0
102
RTVSPost2010PropOp32
 70
     1
102
RTVSPost2010Prop33
280
     0
102
RTVSPost2010PropOp33
 70
     1
102
RTVSPost2010Prop34
280
     0
102
RTVSPost2010PropOp34
 70
     1
102
RTVSPost2010Prop35
280
     0
102
RTVSPost2010PropOp35
 70
     1
102
RTVSPost2010Prop36
280
     0
102
RTVSPost2010PropOp36
 70
     1
102
RTVSPost2010Prop37
 90
       50
102
RTVSPost2010PropOp37
 70
     1
102
RTVSPost2010Prop38
140
0.0
102
RTVSPost2010PropOp38
 70
     1
102
RTVSPost2010Prop39
140
1.0
102
RTVSPost2010PropOp39
 70
     1
102
RTVSPost2010Prop40
 90
        0
102
RTVSPost2010PropOp40
 70
     1
102
RTVSPost2010Prop41ColorIndex
 90
       18
102
RTVSPost2010Prop41ColorRGB
 90
        0
102
RTVSPost2010PropOp41
 70
     1
102
RTVSPost2010Prop42
 90
       50
102
RTVSPost2010PropOp42
 70
     1
102
RTVSPost2010Prop43
 90
        3
102
RTVSPost2010PropOp43
 70
     1
102
RTVSPost2010Prop44ColorIndex
 90
        5
102
RTVSPost2010Prop44ColorRGB
 90
      255
102
RTVSPost2010PropOp44
 70
     1
102
RTVSPost2010Prop45
280
     0
102
RTVSPost2010PropOp45
 70
     1
102
RTVSPost2010Prop46
 90
       50
102
RTVSPost2010PropOp46
 70
     1
102
RTVSPost2010Prop47
 90
       50
102
RTVSPost2010PropOp47
 70
     1
102
RTVSPost2010Prop48
 90
       50
102
RTVSPost2010PropOp48
 70
     1
102
RTVSPost2010Prop49
280
     0
102
RTVSPost2010PropOp49
 70
     1
102
RTVSPost2010Prop50
 90
       50
102
RTVSPost2010PropOp50
 70
     1
102
RTVSPost2010Prop51ColorIndex
 90
      256
102
RTVSPost2010Prop51ColorRGB
 90
-16777216
102
RTVSPost2010PropOp51
 70
     0
102
RTVSPost2010Prop52
140
1.0
102
RTVSPost2010PropOp52
 70
     0
102
RTVSPost2010Prop53
 90
        2
102
RTVSPost2010PropOp53
 70
     1
102
RTVSPost2010Prop54
  1
strokes_ogs.tif
102
RTVSPost2010PropOp54
 70
     1
102
RTVSPost2010Prop55
280
     0
102
RTVSPost2010PropOp55
 70
     1
102
RTVSPost2010Prop56
140
1.0
102
RTVSPost2010PropOp56
 70
     1
102
RTVSPost2010Prop57
140
1.0
102
RTVSPost2010PropOp57
 70
     1
102
RTVSPropertyOp0
 70
     1
102
RTVSPropertyOp1
 70
     1
102
RTVSPropertyOp2
 70
     1
102
RTVSPropertyOp3
 70
     1
102
RTVSPropertyOp4
 70
     1
102
RTVSPropertyOp5
 70
     1
102
RTVSPropertyOp6
 70
     1
102
RTVSPropertyOp7
 70
     1
102
RTVSPropertyOp8
 70
     1
102
RTVSPropertyOp9
 70
     1
102
RTVSPropertyOp10
 70
     1
102
RTVSPropertyOp11
 70
     1
102
RTVSPropertyOp12
 70
     1
102
RTVSPropertyOp13
 70
     1
102
RTVSPropertyOp14
 70
     1
102
RTVSPropertyOp15
 70
     1
102
RTVSPropertyOp16
 70
     1
102
RTVSPropertyOp17
 70
     1
102
RTVSPropertyOp18
 70
     1
102
RTVSPropertyOp19
 70
     1
102
RTVSPropertyOp20
 70
     1
102
RTVSPropertyOp21
 70
     1
102
RTVSPropertyOp22
 70
     1
102
RTVSPropertyOp23
 70
     1
102
RTVSPropertyOp24
 70
     1
102
RTVSPropertyOp25
 70
     1
102
RTVSPropertyOp26
 70
     1
102
RTVSPropertyOp27
 70
     1
102
RTVSPropertyOp28
 70
     1
102
RTVSPropertyOp29
 70
     1
102
RTVSPropertyOp30
 70
     1
102
RTVSPropertyOp31
 70
     1
102
RTVSPropertyOp32
 70
     1
102
RTVSPropertyOp33
 70
     1
102
RTVSPropertyOp34
 70
     1
102
RTVSPropertyOp35
 70
     1
102
RTVSPropertyOp36
 70
     1
102
RTVSPropertyOp37
 70
     1
102
RTVSPropertyOp38
 70
     1
102
RTVSPropertyOp39
 70
     1
102
RTVSPropertyOp40
 70
     1
102
RTVSPropertyOp41
 70
     1
102
RTVSPropertyOp42
 70
     1
102
RTVSPropertyOp43
 70
     1
102
RTVSPropertyOp44
 70
     1
102
RTVSPropertyOp45
 70
     1
102
RTVSPropertyOp46
 70
     1
102
RTVSPropertyOp47
 70
     1
102
RTVSPropertyOp48
 70
     1
102
RTVSPropertyOp49
 70
     1
102
RTVSPropertyOp50
 70
     1
102
RTVSPropertyOp51
 70
     0
102
RTVSPropertyOp52
 70
     0
102
RTVSPropertyOp53
 70
     1
102
RTVSPropertyOp54
 70
     1
102
RTVSPropertyOp55
 70
     1
102
RTVSPropertyOp56
 70
     1
102
RTVSPropertyOp57
 70
     1
102
RTVSPropertyOp58
 70
     1
102
RTVSPropertyOp59
 70
     1
102
RTVSPropertyOp60
 70
     1
102
RTVSPropertyOp61
 70
     1
102
RTVSPropertyOp62
 70
     1
  0
XRECORD
  5
58B
102
{ACAD_REACTORS
330
58A
102
}
330
58A
100
AcDbXrecord
280
     1
102
RTVSPost2010Prop28
280
     0
102
RTVSPost2010PropOp28
 70
     1
102
RTVSPost2010Prop29
280
     1
102
RTVSPost2010PropOp29
 70
     1
102
RTVSPost2010Prop30
280
     1
102
RTVSPost2010PropOp30
 70
     1
102
RTVSPost2010Prop31
280
     0
102
RTVSPost2010PropOp31
 70
     1
102
RTVSPost2010Prop32
280
     0
102
RTVSPost2010PropOp32
 70
     1
102
RTVSPost2010Prop33
280
     0
102
RTVSPost2010PropOp33
 70
     1
102
RTVSPost2010Prop34
280
     0
102
RTVSPost2010PropOp34
 70
     1
102
RTVSPost2010Prop35
280
     0
102
RTVSPost2010PropOp35
 70
     1
102
RTVSPost2010Prop36
280
     0
102
RTVSPost2010PropOp36
 70
     1
102
RTVSPost2010Prop37
 90
       50
102
RTVSPost2010PropOp37
 70
     0
102
RTVSPost2010Prop38
140
0.0
102
RTVSPost2010PropOp38
 70
     0
102
RTVSPost2010Prop39
140
1.0
102
RTVSPost2010PropOp39
 70
     0
102
RTVSPost2010Prop40
 90
        0
102
RTVSPost2010PropOp40
 70
     0
102
RTVSPost2010Prop41ColorIndex
 90
       18
102
RTVSPost2010Prop41ColorRGB
 90
        0
102
RTVSPost2010PropOp41
 70
     0
102
RTVSPost2010Prop42
 90
       50
102
RTVSPost2010PropOp42
 70
     0
102
RTVSPost2010Prop43
 90
        3
102
RTVSPost2010PropOp43
 70
     0
102
RTVSPost2010Prop44ColorIndex
 90
        5
102
RTVSPost2010Prop44ColorRGB
 90
      255
102
RTVSPost2010PropOp44
 70
     0
102
RTVSPost2010Prop45
280
     0
102
RTVSPost2010PropOp45
 70
     1
102
RTVSPost2010Prop46
 90
       50
102
RTVSPost2010PropOp46
 70
     0
102
RTVSPost2010Prop47
 90
       50
102
RTVSPost2010PropOp47
 70
     0
102
RTVSPost2010Prop48
 90
       50
102
RTVSPost2010PropOp48
 70
     0
102
RTVSPost2010Prop49
280
     0
102
RTVSPost2010PropOp49
 70
     1
102
RTVSPost2010Prop50
 90
       50
102
RTVSPost2010PropOp50
 70
     0
102
RTVSPost2010Prop51ColorIndex
 90
      256
102
RTVSPost2010Prop51ColorRGB
 90
-16777216
102
RTVSPost2010PropOp51
 70
     0
102
RTVSPost2010Prop52
140
1.0
102
RTVSPost2010PropOp52
 70
     0
102
RTVSPost2010Prop53
 90
        2
102
RTVSPost2010PropOp53
 70
     0
102
RTVSPost2010Prop54
  1
strokes_ogs.tif
102
RTVSPost2010PropOp54
 70
     0
102
RTVSPost2010Prop55
280
     0
102
RTVSPost2010PropOp55
 70
     1
102
RTVSPost2010Prop56
140
1.0
102
RTVSPost2010PropOp56
 70
     0
102
RTVSPost2010Prop57
140
1.0
102
RTVSPost2010PropOp57
 70
     0
102
RTVSPropertyOp0
 70
     0
102
RTVSPropertyOp1
 70
     0
102
RTVSPropertyOp2
 70
     0
102
RTVSPropertyOp3
 70
     0
102
RTVSPropertyOp4
 70
     0
102
RTVSPropertyOp5
 70
     0
102
RTVSPropertyOp6
 70
     0
102
RTVSPropertyOp7
 70
     0
102
RTVSPropertyOp8
 70
     0
102
RTVSPropertyOp9
 70
     0
102
RTVSPropertyOp10
 70
     0
102
RTVSPropertyOp11
 70
     0
102
RTVSPropertyOp12
 70
     0
102
RTVSPropertyOp13
 70
     0
102
RTVSPropertyOp14
 70
     2
102
RTVSPropertyOp15
 70
     0
102
RTVSPropertyOp16
 70
     0
102
RTVSPropertyOp17
 70
     0
102
RTVSPropertyOp18
 70
     0
102
RTVSPropertyOp19
 70
     0
102
RTVSPropertyOp20
 70
     0
102
RTVSPropertyOp21
 70
     0
102
RTVSPropertyOp22
 70
     0
102
RTVSPropertyOp23
 70
     0
102
RTVSPropertyOp24
 70
     0
102
RTVSPropertyOp25
 70
     0
102
RTVSPropertyOp26
 70
     0
102
RTVSPropertyOp27
 70
     0
102
RTVSPropertyOp28
 70
     1
102
RTVSPropertyOp29
 70
     1
102
RTVSPropertyOp30
 70
     1
102
RTVSPropertyOp31
 70
     1
102
RTVSPropertyOp32
 70
     1
102
RTVSPropertyOp33
 70
     1
102
RTVSPropertyOp34
 70
     1
102
RTVSPropertyOp35
 70
     1
102
RTVSPropertyOp36
 70
     1
102
RTVSPropertyOp37
 70
     0
102
RTVSPropertyOp38
 70
     0
102
RTVSPropertyOp39
 70
     0
102
RTVSPropertyOp40
 70
     0
102
RTVSPropertyOp41
 70
     0
102
RTVSPropertyOp42
 70
     0
102
RTVSPropertyOp43
 70
     0
102
RTVSPropertyOp44
 70
     0
102
RTVSPropertyOp45
 70
     1
102
RTVSPropertyOp46
 70
     0
102
RTVSPropertyOp47
 70
     0
102
RTVSPropertyOp48
 70
     0
102
RTVSPropertyOp49
 70
     1
102
RTVSPropertyOp50
 70
     0
102
RTVSPropertyOp51
 70
     0
102
RTVSPropertyOp52
 70
     0
102
RTVSPropertyOp53
 70
     0
102
RTVSPropertyOp54
 70
     0
102
RTVSPropertyOp55
 70
     1
102
RTVSPropertyOp56
 70
     0
102
RTVSPropertyOp57
 70
     0
102
RTVSPropertyOp58
 70
     0
102
RTVSPropertyOp59
 70
     0
102
RTVSPropertyOp60
 70
     0
102
RTVSPropertyOp61
 70
     0
102
RTVSPropertyOp62
 70
     0
  0
XRECORD
  5
571
102
{ACAD_REACTORS
330
570
102
}
330
570
100
AcDbXrecord
280
     1
102
RTVSPost2010Prop28
280
     0
102
RTVSPost2010PropOp28
 70
     1
102
RTVSPost2010Prop29
280
     1
102
RTVSPost2010PropOp29
 70
     1
102
RTVSPost2010Prop30
280
     1
102
RTVSPost2010PropOp30
 70
     1
102
RTVSPost2010Prop31
280
     0
102
RTVSPost2010PropOp31
 70
     1
102
RTVSPost2010Prop32
280
     0
102
RTVSPost2010PropOp32
 70
     1
102
RTVSPost2010Prop33
280
     0
102
RTVSPost2010PropOp33
 70
     1
102
RTVSPost2010Prop34
280
     0
102
RTVSPost2010PropOp34
 70
     1
102
RTVSPost2010Prop35
280
     0
102
RTVSPost2010PropOp35
 70
     1
102
RTVSPost2010Prop36
280
     0
102
RTVSPost2010PropOp36
 70
     1
102
RTVSPost2010Prop37
 90
       50
102
RTVSPost2010PropOp37
 70
     1
102
RTVSPost2010Prop38
140
0.0
102
RTVSPost2010PropOp38
 70
     1
102
RTVSPost2010Prop39
140
1.0
102
RTVSPost2010PropOp39
 70
     1
102
RTVSPost2010Prop40
 90
        0
102
RTVSPost2010PropOp40
 70
     1
102
RTVSPost2010Prop41ColorIndex
 90
       18
102
RTVSPost2010Prop41ColorRGB
 90
        0
102
RTVSPost2010PropOp41
 70
     1
102
RTVSPost2010Prop42
 90
       50
102
RTVSPost2010PropOp42
 70
     1
102
RTVSPost2010Prop43
 90
        3
102
RTVSPost2010PropOp43
 70
     1
102
RTVSPost2010Prop44ColorIndex
 90
        5
102
RTVSPost2010Prop44ColorRGB
 90
      255
102
RTVSPost2010PropOp44
 70
     1
102
RTVSPost2010Prop45
280
     0
102
RTVSPost2010PropOp45
 70
     1
102
RTVSPost2010Prop46
 90
       50
102
RTVSPost2010PropOp46
 70
     1
102
RTVSPost2010Prop47
 90
       50
102
RTVSPost2010PropOp47
 70
     1
102
RTVSPost2010Prop48
 90
       50
102
RTVSPost2010PropOp48
 70
     1
102
RTVSPost2010Prop49
280
     0
102
RTVSPost2010PropOp49
 70
     1
102
RTVSPost2010Prop50
 90
       50
102
RTVSPost2010PropOp50
 70
     1
102
RTVSPost2010Prop51ColorIndex
 90
      256
102
RTVSPost2010Prop51ColorRGB
 90
-16777216
102
RTVSPost2010PropOp51
 70
     0
102
RTVSPost2010Prop52
140
1.0
102
RTVSPost2010PropOp52
 70
     0
102
RTVSPost2010Prop53
 90
        2
102
RTVSPost2010PropOp53
 70
     1
102
RTVSPost2010Prop54
  1
strokes_ogs.tif
102
RTVSPost2010PropOp54
 70
     1
102
RTVSPost2010Prop55
280
     0
102
RTVSPost2010PropOp55
 70
     1
102
RTVSPost2010Prop56
140
1.0
102
RTVSPost2010PropOp56
 70
     1
102
RTVSPost2010Prop57
140
1.0
102
RTVSPost2010PropOp57
 70
     1
102
RTVSPropertyOp0
 70
     1
102
RTVSPropertyOp1
 70
     1
102
RTVSPropertyOp2
 70
     1
102
RTVSPropertyOp3
 70
     1
102
RTVSPropertyOp4
 70
     1
102
RTVSPropertyOp5
 70
     1
102
RTVSPropertyOp6
 70
     1
102
RTVSPropertyOp7
 70
     1
102
RTVSPropertyOp8
 70
     1
102
RTVSPropertyOp9
 70
     1
102
RTVSPropertyOp10
 70
     1
102
RTVSPropertyOp11
 70
     1
102
RTVSPropertyOp12
 70
     1
102
RTVSPropertyOp13
 70
     1
102
RTVSPropertyOp14
 70
     1
102
RTVSPropertyOp15
 70
     1
102
RTVSPropertyOp16
 70
     1
102
RTVSPropertyOp17
 70
     1
102
RTVSPropertyOp18
 70
     1
102
RTVSPropertyOp19
 70
     1
102
RTVSPropertyOp20
 70
     1
102
RTVSPropertyOp21
 70
     1
102
RTVSPropertyOp22
 70
     1
102
RTVSPropertyOp23
 70
     1
102
RTVSPropertyOp24
 70
     1
102
RTVSPropertyOp25
 70
     1
102
RTVSPropertyOp26
 70
     1
102
RTVSPropertyOp27
 70
     1
102
RTVSPropertyOp28
 70
     1
102
RTVSPropertyOp29
 70
     1
102
RTVSPropertyOp30
 70
     1
102
RTVSPropertyOp31
 70
     1
102
RTVSPropertyOp32
 70
     1
102
RTVSPropertyOp33
 70
     1
102
RTVSPropertyOp34
 70
     1
102
RTVSPropertyOp35
 70
     1
102
RTVSPropertyOp36
 70
     1
102
RTVSPropertyOp37
 70
     1
102
RTVSPropertyOp38
 70
     1
102
RTVSPropertyOp39
 70
     1
102
RTVSPropertyOp40
 70
     1
102
RTVSPropertyOp41
 70
     1
102
RTVSPropertyOp42
 70
     1
102
RTVSPropertyOp43
 70
     1
102
RTVSPropertyOp44
 70
     1
102
RTVSPropertyOp45
 70
     1
102
RTVSPropertyOp46
 70
     1
102
RTVSPropertyOp47
 70
     1
102
RTVSPropertyOp48
 70
     1
102
RTVSPropertyOp49
 70
     1
102
RTVSPropertyOp50
 70
     1
102
RTVSPropertyOp51
 70
     0
102
RTVSPropertyOp52
 70
     0
102
RTVSPropertyOp53
 70
     1
102
RTVSPropertyOp54
 70
     1
102
RTVSPropertyOp55
 70
     1
102
RTVSPropertyOp56
 70
     1
102
RTVSPropertyOp57
 70
     1
102
RTVSPropertyOp58
 70
     1
102
RTVSPropertyOp59
 70
     1
102
RTVSPropertyOp60
 70
     1
102
RTVSPropertyOp61
 70
     1
102
RTVSPropertyOp62
 70
     1
  0
XRECORD
  5
587
102
{ACAD_REACTORS
330
586
102
}
330
586
100
AcDbXrecord
280
     1
102
RTVSPost2010Prop28
280
     0
102
RTVSPost2010PropOp28
 70
     1
102
RTVSPost2010Prop29
280
     1
102
RTVSPost2010PropOp29
 70
     1
102
RTVSPost2010Prop30
280
     1
102
RTVSPost2010PropOp30
 70
     1
102
RTVSPost2010Prop31
280
     0
102
RTVSPost2010PropOp31
 70
     1
102
RTVSPost2010Prop32
280
     0
102
RTVSPost2010PropOp32
 70
     1
102
RTVSPost2010Prop33
280
     0
102
RTVSPost2010PropOp33
 70
     1
102
RTVSPost2010Prop34
280
     0
102
RTVSPost2010PropOp34
 70
     1
102
RTVSPost2010Prop35
280
     0
102
RTVSPost2010PropOp35
 70
     1
102
RTVSPost2010Prop36
280
     0
102
RTVSPost2010PropOp36
 70
     1
102
RTVSPost2010Prop37
 90
       50
102
RTVSPost2010PropOp37
 70
     1
102
RTVSPost2010Prop38
140
0.0
102
RTVSPost2010PropOp38
 70
     1
102
RTVSPost2010Prop39
140
1.0
102
RTVSPost2010PropOp39
 70
     1
102
RTVSPost2010Prop40
 90
        0
102
RTVSPost2010PropOp40
 70
     1
102
RTVSPost2010Prop41ColorIndex
 90
       18
102
RTVSPost2010Prop41ColorRGB
 90
        0
102
RTVSPost2010PropOp41
 70
     1
102
RTVSPost2010Prop42
 90
       50
102
RTVSPost2010PropOp42
 70
     1
102
RTVSPost2010Prop43
 90
        3
102
RTVSPost2010PropOp43
 70
     1
102
RTVSPost2010Prop44ColorIndex
 90
        5
102
RTVSPost2010Prop44ColorRGB
 90
      255
102
RTVSPost2010PropOp44
 70
     1
102
RTVSPost2010Prop45
280
     0
102
RTVSPost2010PropOp45
 70
     1
102
RTVSPost2010Prop46
 90
       50
102
RTVSPost2010PropOp46
 70
     1
102
RTVSPost2010Prop47
 90
       50
102
RTVSPost2010PropOp47
 70
     1
102
RTVSPost2010Prop48
 90
       50
102
RTVSPost2010PropOp48
 70
     1
102
RTVSPost2010Prop49
280
     0
102
RTVSPost2010PropOp49
 70
     1
102
RTVSPost2010Prop50
 90
       50
102
RTVSPost2010PropOp50
 70
     1
102
RTVSPost2010Prop51ColorIndex
 90
      256
102
RTVSPost2010Prop51ColorRGB
 90
-16777216
102
RTVSPost2010PropOp51
 70
     0
102
RTVSPost2010Prop52
140
1.0
102
RTVSPost2010PropOp52
 70
     0
102
RTVSPost2010Prop53
 90
        2
102
RTVSPost2010PropOp53
 70
     1
102
RTVSPost2010Prop54
  1
strokes_ogs.tif
102
RTVSPost2010PropOp54
 70
     1
102
RTVSPost2010Prop55
280
     0
102
RTVSPost2010PropOp55
 70
     1
102
RTVSPost2010Prop56
140
1.0
102
RTVSPost2010PropOp56
 70
     1
102
RTVSPost2010Prop57
140
1.0
102
RTVSPost2010PropOp57
 70
     1
102
RTVSPropertyOp0
 70
     1
102
RTVSPropertyOp1
 70
     1
102
RTVSPropertyOp2
 70
     1
102
RTVSPropertyOp3
 70
     1
102
RTVSPropertyOp4
 70
     1
102
RTVSPropertyOp5
 70
     1
102
RTVSPropertyOp6
 70
     1
102
RTVSPropertyOp7
 70
     1
102
RTVSPropertyOp8
 70
     1
102
RTVSPropertyOp9
 70
     1
102
RTVSPropertyOp10
 70
     1
102
RTVSPropertyOp11
 70
     1
102
RTVSPropertyOp12
 70
     1
102
RTVSPropertyOp13
 70
     1
102
RTVSPropertyOp14
 70
     1
102
RTVSPropertyOp15
 70
     1
102
RTVSPropertyOp16
 70
     1
102
RTVSPropertyOp17
 70
     1
102
RTVSPropertyOp18
 70
     1
102
RTVSPropertyOp19
 70
     1
102
RTVSPropertyOp20
 70
     1
102
RTVSPropertyOp21
 70
     1
102
RTVSPropertyOp22
 70
     1
102
RTVSPropertyOp23
 70
     1
102
RTVSPropertyOp24
 70
     1
102
RTVSPropertyOp25
 70
     1
102
RTVSPropertyOp26
 70
     1
102
RTVSPropertyOp27
 70
     1
102
RTVSPropertyOp28
 70
     1
102
RTVSPropertyOp29
 70
     1
102
RTVSPropertyOp30
 70
     1
102
RTVSPropertyOp31
 70
     1
102
RTVSPropertyOp32
 70
     1
102
RTVSPropertyOp33
 70
     1
102
RTVSPropertyOp34
 70
     1
102
RTVSPropertyOp35
 70
     1
102
RTVSPropertyOp36
 70
     1
102
RTVSPropertyOp37
 70
     1
102
RTVSPropertyOp38
 70
     1
102
RTVSPropertyOp39
 70
     1
102
RTVSPropertyOp40
 70
     1
102
RTVSPropertyOp41
 70
     1
102
RTVSPropertyOp42
 70
     1
102
RTVSPropertyOp43
 70
     1
102
RTVSPropertyOp44
 70
     1
102
RTVSPropertyOp45
 70
     1
102
RTVSPropertyOp46
 70
     1
102
RTVSPropertyOp47
 70
     1
102
RTVSPropertyOp48
 70
     1
102
RTVSPropertyOp49
 70
     1
102
RTVSPropertyOp50
 70
     1
102
RTVSPropertyOp51
 70
     0
102
RTVSPropertyOp52
 70
     0
102
RTVSPropertyOp53
 70
     1
102
RTVSPropertyOp54
 70
     1
102
RTVSPropertyOp55
 70
     1
102
RTVSPropertyOp56
 70
     1
102
RTVSPropertyOp57
 70
     1
102
RTVSPropertyOp58
 70
     1
102
RTVSPropertyOp59
 70
     1
102
RTVSPropertyOp60
 70
     1
102
RTVSPropertyOp61
 70
     1
102
RTVSPropertyOp62
 70
     1
  0
XRECORD
  5
585
102
{ACAD_REACTORS
330
584
102
}
330
584
100
AcDbXrecord
280
     1
102
RTVSPost2010Prop28
280
     0
102
RTVSPost2010PropOp28
 70
     1
102
RTVSPost2010Prop29
280
     1
102
RTVSPost2010PropOp29
 70
     1
102
RTVSPost2010Prop30
280
     1
102
RTVSPost2010PropOp30
 70
     1
102
RTVSPost2010Prop31
280
     0
102
RTVSPost2010PropOp31
 70
     1
102
RTVSPost2010Prop32
280
     0
102
RTVSPost2010PropOp32
 70
     1
102
RTVSPost2010Prop33
280
     0
102
RTVSPost2010PropOp33
 70
     1
102
RTVSPost2010Prop34
280
     0
102
RTVSPost2010PropOp34
 70
     1
102
RTVSPost2010Prop35
280
     0
102
RTVSPost2010PropOp35
 70
     1
102
RTVSPost2010Prop36
280
     0
102
RTVSPost2010PropOp36
 70
     1
102
RTVSPost2010Prop37
 90
       50
102
RTVSPost2010PropOp37
 70
     1
102
RTVSPost2010Prop38
140
0.0
102
RTVSPost2010PropOp38
 70
     1
102
RTVSPost2010Prop39
140
1.0
102
RTVSPost2010PropOp39
 70
     1
102
RTVSPost2010Prop40
 90
        0
102
RTVSPost2010PropOp40
 70
     1
102
RTVSPost2010Prop41ColorIndex
 90
       18
102
RTVSPost2010Prop41ColorRGB
 90
        0
102
RTVSPost2010PropOp41
 70
     1
102
RTVSPost2010Prop42
 90
       50
102
RTVSPost2010PropOp42
 70
     1
102
RTVSPost2010Prop43
 90
        3
102
RTVSPost2010PropOp43
 70
     1
102
RTVSPost2010Prop44ColorIndex
 90
        5
102
RTVSPost2010Prop44ColorRGB
 90
      255
102
RTVSPost2010PropOp44
 70
     1
102
RTVSPost2010Prop45
280
     0
102
RTVSPost2010PropOp45
 70
     1
102
RTVSPost2010Prop46
 90
       50
102
RTVSPost2010PropOp46
 70
     1
102
RTVSPost2010Prop47
 90
       50
102
RTVSPost2010PropOp47
 70
     1
102
RTVSPost2010Prop48
 90
       50
102
RTVSPost2010PropOp48
 70
     1
102
RTVSPost2010Prop49
280
     0
102
RTVSPost2010PropOp49
 70
     1
102
RTVSPost2010Prop50
 90
       50
102
RTVSPost2010PropOp50
 70
     1
102
RTVSPost2010Prop51ColorIndex
 90
      256
102
RTVSPost2010Prop51ColorRGB
 90
-16777216
102
RTVSPost2010PropOp51
 70
     0
102
RTVSPost2010Prop52
140
1.0
102
RTVSPost2010PropOp52
 70
     0
102
RTVSPost2010Prop53
 90
        2
102
RTVSPost2010PropOp53
 70
     1
102
RTVSPost2010Prop54
  1
strokes_ogs.tif
102
RTVSPost2010PropOp54
 70
     1
102
RTVSPost2010Prop55
280
     0
102
RTVSPost2010PropOp55
 70
     1
102
RTVSPost2010Prop56
140
1.0
102
RTVSPost2010PropOp56
 70
     1
102
RTVSPost2010Prop57
140
1.0
102
RTVSPost2010PropOp57
 70
     1
102
RTVSPropertyOp0
 70
     1
102
RTVSPropertyOp1
 70
     1
102
RTVSPropertyOp2
 70
     1
102
RTVSPropertyOp3
 70
     1
102
RTVSPropertyOp4
 70
     1
102
RTVSPropertyOp5
 70
     1
102
RTVSPropertyOp6
 70
     1
102
RTVSPropertyOp7
 70
     1
102
RTVSPropertyOp8
 70
     1
102
RTVSPropertyOp9
 70
     1
102
RTVSPropertyOp10
 70
     1
102
RTVSPropertyOp11
 70
     1
102
RTVSPropertyOp12
 70
     1
102
RTVSPropertyOp13
 70
     1
102
RTVSPropertyOp14
 70
     1
102
RTVSPropertyOp15
 70
     1
102
RTVSPropertyOp16
 70
     1
102
RTVSPropertyOp17
 70
     1
102
RTVSPropertyOp18
 70
     1
102
RTVSPropertyOp19
 70
     1
102
RTVSPropertyOp20
 70
     1
102
RTVSPropertyOp21
 70
     1
102
RTVSPropertyOp22
 70
     1
102
RTVSPropertyOp23
 70
     1
102
RTVSPropertyOp24
 70
     1
102
RTVSPropertyOp25
 70
     1
102
RTVSPropertyOp26
 70
     1
102
RTVSPropertyOp27
 70
     1
102
RTVSPropertyOp28
 70
     1
102
RTVSPropertyOp29
 70
     1
102
RTVSPropertyOp30
 70
     1
102
RTVSPropertyOp31
 70
     1
102
RTVSPropertyOp32
 70
     1
102
RTVSPropertyOp33
 70
     1
102
RTVSPropertyOp34
 70
     1
102
RTVSPropertyOp35
 70
     1
102
RTVSPropertyOp36
 70
     1
102
RTVSPropertyOp37
 70
     1
102
RTVSPropertyOp38
 70
     1
102
RTVSPropertyOp39
 70
     1
102
RTVSPropertyOp40
 70
     1
102
RTVSPropertyOp41
 70
     1
102
RTVSPropertyOp42
 70
     1
102
RTVSPropertyOp43
 70
     1
102
RTVSPropertyOp44
 70
     1
102
RTVSPropertyOp45
 70
     1
102
RTVSPropertyOp46
 70
     1
102
RTVSPropertyOp47
 70
     1
102
RTVSPropertyOp48
 70
     1
102
RTVSPropertyOp49
 70
     1
102
RTVSPropertyOp50
 70
     1
102
RTVSPropertyOp51
 70
     0
102
RTVSPropertyOp52
 70
     0
102
RTVSPropertyOp53
 70
     1
102
RTVSPropertyOp54
 70
     1
102
RTVSPropertyOp55
 70
     1
102
RTVSPropertyOp56
 70
     1
102
RTVSPropertyOp57
 70
     1
102
RTVSPropertyOp58
 70
     1
102
RTVSPropertyOp59
 70
     1
102
RTVSPropertyOp60
 70
     1
102
RTVSPropertyOp61
 70
     1
102
RTVSPropertyOp62
 70
     1
  0
XRECORD
  5
57F
102
{ACAD_REACTORS
330
57E
102
}
330
57E
100
AcDbXrecord
280
     1
102
RTVSPost2010Prop28
280
     0
102
RTVSPost2010PropOp28
 70
     1
102
RTVSPost2010Prop29
280
     1
102
RTVSPost2010PropOp29
 70
     1
102
RTVSPost2010Prop30
280
     1
102
RTVSPost2010PropOp30
 70
     1
102
RTVSPost2010Prop31
280
     0
102
RTVSPost2010PropOp31
 70
     1
102
RTVSPost2010Prop32
280
     0
102
RTVSPost2010PropOp32
 70
     1
102
RTVSPost2010Prop33
280
     0
102
RTVSPost2010PropOp33
 70
     1
102
RTVSPost2010Prop34
280
     0
102
RTVSPost2010PropOp34
 70
     1
102
RTVSPost2010Prop35
280
     0
102
RTVSPost2010PropOp35
 70
     1
102
RTVSPost2010Prop36
280
     0
102
RTVSPost2010PropOp36
 70
     1
102
RTVSPost2010Prop37
 90
       50
102
RTVSPost2010PropOp37
 70
     1
102
RTVSPost2010Prop38
140
0.0
102
RTVSPost2010PropOp38
 70
     1
102
RTVSPost2010Prop39
140
1.0
102
RTVSPost2010PropOp39
 70
     1
102
RTVSPost2010Prop40
 90
        0
102
RTVSPost2010PropOp40
 70
     1
102
RTVSPost2010Prop41ColorIndex
 90
       18
102
RTVSPost2010Prop41ColorRGB
 90
        0
102
RTVSPost2010PropOp41
 70
     1
102
RTVSPost2010Prop42
 90
       50
102
RTVSPost2010PropOp42
 70
     1
102
RTVSPost2010Prop43
 90
        3
102
RTVSPost2010PropOp43
 70
     1
102
RTVSPost2010Prop44ColorIndex
 90
        5
102
RTVSPost2010Prop44ColorRGB
 90
      255
102
RTVSPost2010PropOp44
 70
     1
102
RTVSPost2010Prop45
280
     0
102
RTVSPost2010PropOp45
 70
     1
102
RTVSPost2010Prop46
 90
       50
102
RTVSPost2010PropOp46
 70
     1
102
RTVSPost2010Prop47
 90
       50
102
RTVSPost2010PropOp47
 70
     1
102
RTVSPost2010Prop48
 90
       50
102
RTVSPost2010PropOp48
 70
     1
102
RTVSPost2010Prop49
280
     0
102
RTVSPost2010PropOp49
 70
     1
102
RTVSPost2010Prop50
 90
       50
102
RTVSPost2010PropOp50
 70
     1
102
RTVSPost2010Prop51ColorIndex
 90
      256
102
RTVSPost2010Prop51ColorRGB
 90
-16777216
102
RTVSPost2010PropOp51
 70
     0
102
RTVSPost2010Prop52
140
1.0
102
RTVSPost2010PropOp52
 70
     0
102
RTVSPost2010Prop53
 90
        2
102
RTVSPost2010PropOp53
 70
     1
102
RTVSPost2010Prop54
  1
strokes_ogs.tif
102
RTVSPost2010PropOp54
 70
     1
102
RTVSPost2010Prop55
280
     0
102
RTVSPost2010PropOp55
 70
     1
102
RTVSPost2010Prop56
140
1.0
102
RTVSPost2010PropOp56
 70
     1
102
RTVSPost2010Prop57
140
1.0
102
RTVSPost2010PropOp57
 70
     1
102
RTVSPropertyOp0
 70
     1
102
RTVSPropertyOp1
 70
     1
102
RTVSPropertyOp2
 70
     1
102
RTVSPropertyOp3
 70
     1
102
RTVSPropertyOp4
 70
     1
102
RTVSPropertyOp5
 70
     1
102
RTVSPropertyOp6
 70
     1
102
RTVSPropertyOp7
 70
     1
102
RTVSPropertyOp8
 70
     1
102
RTVSPropertyOp9
 70
     1
102
RTVSPropertyOp10
 70
     1
102
RTVSPropertyOp11
 70
     1
102
RTVSPropertyOp12
 70
     1
102
RTVSPropertyOp13
 70
     1
102
RTVSPropertyOp14
 70
     1
102
RTVSPropertyOp15
 70
     1
102
RTVSPropertyOp16
 70
     1
102
RTVSPropertyOp17
 70
     1
102
RTVSPropertyOp18
 70
     1
102
RTVSPropertyOp19
 70
     1
102
RTVSPropertyOp20
 70
     1
102
RTVSPropertyOp21
 70
     1
102
RTVSPropertyOp22
 70
     1
102
RTVSPropertyOp23
 70
     1
102
RTVSPropertyOp24
 70
     1
102
RTVSPropertyOp25
 70
     1
102
RTVSPropertyOp26
 70
     1
102
RTVSPropertyOp27
 70
     1
102
RTVSPropertyOp28
 70
     1
102
RTVSPropertyOp29
 70
     1
102
RTVSPropertyOp30
 70
     1
102
RTVSPropertyOp31
 70
     1
102
RTVSPropertyOp32
 70
     1
102
RTVSPropertyOp33
 70
     1
102
RTVSPropertyOp34
 70
     1
102
RTVSPropertyOp35
 70
     1
102
RTVSPropertyOp36
 70
     1
102
RTVSPropertyOp37
 70
     1
102
RTVSPropertyOp38
 70
     1
102
RTVSPropertyOp39
 70
     1
102
RTVSPropertyOp40
 70
     1
102
RTVSPropertyOp41
 70
     1
102
RTVSPropertyOp42
 70
     1
102
RTVSPropertyOp43
 70
     1
102
RTVSPropertyOp44
 70
     1
102
RTVSPropertyOp45
 70
     1
102
RTVSPropertyOp46
 70
     1
102
RTVSPropertyOp47
 70
     1
102
RTVSPropertyOp48
 70
     1
102
RTVSPropertyOp49
 70
     1
102
RTVSPropertyOp50
 70
     1
102
RTVSPropertyOp51
 70
     0
102
RTVSPropertyOp52
 70
     0
102
RTVSPropertyOp53
 70
     1
102
RTVSPropertyOp54
 70
     1
102
RTVSPropertyOp55
 70
     1
102
RTVSPropertyOp56
 70
     1
102
RTVSPropertyOp57
 70
     1
102
RTVSPropertyOp58
 70
     1
102
RTVSPropertyOp59
 70
     1
102
RTVSPropertyOp60
 70
     1
102
RTVSPropertyOp61
 70
     1
102
RTVSPropertyOp62
 70
     1
  0
XRECORD
  5
581
102
{ACAD_REACTORS
330
580
102
}
330
580
100
AcDbXrecord
280
     1
102
RTVSPost2010Prop28
280
     0
102
RTVSPost2010PropOp28
 70
     1
102
RTVSPost2010Prop29
280
     1
102
RTVSPost2010PropOp29
 70
     1
102
RTVSPost2010Prop30
280
     1
102
RTVSPost2010PropOp30
 70
     1
102
RTVSPost2010Prop31
280
     0
102
RTVSPost2010PropOp31
 70
     1
102
RTVSPost2010Prop32
280
     0
102
RTVSPost2010PropOp32
 70
     1
102
RTVSPost2010Prop33
280
     0
102
RTVSPost2010PropOp33
 70
     1
102
RTVSPost2010Prop34
280
     0
102
RTVSPost2010PropOp34
 70
     1
102
RTVSPost2010Prop35
280
     0
102
RTVSPost2010PropOp35
 70
     1
102
RTVSPost2010Prop36
280
     0
102
RTVSPost2010PropOp36
 70
     1
102
RTVSPost2010Prop37
 90
       50
102
RTVSPost2010PropOp37
 70
     1
102
RTVSPost2010Prop38
140
0.0
102
RTVSPost2010PropOp38
 70
     1
102
RTVSPost2010Prop39
140
1.0
102
RTVSPost2010PropOp39
 70
     1
102
RTVSPost2010Prop40
 90
        0
102
RTVSPost2010PropOp40
 70
     1
102
RTVSPost2010Prop41ColorIndex
 90
       18
102
RTVSPost2010Prop41ColorRGB
 90
        0
102
RTVSPost2010PropOp41
 70
     1
102
RTVSPost2010Prop42
 90
       50
102
RTVSPost2010PropOp42
 70
     1
102
RTVSPost2010Prop43
 90
        3
102
RTVSPost2010PropOp43
 70
     1
102
RTVSPost2010Prop44ColorIndex
 90
        5
102
RTVSPost2010Prop44ColorRGB
 90
      255
102
RTVSPost2010PropOp44
 70
     1
102
RTVSPost2010Prop45
280
     0
102
RTVSPost2010PropOp45
 70
     1
102
RTVSPost2010Prop46
 90
       50
102
RTVSPost2010PropOp46
 70
     1
102
RTVSPost2010Prop47
 90
       50
102
RTVSPost2010PropOp47
 70
     1
102
RTVSPost2010Prop48
 90
       50
102
RTVSPost2010PropOp48
 70
     1
102
RTVSPost2010Prop49
280
     0
102
RTVSPost2010PropOp49
 70
     1
102
RTVSPost2010Prop50
 90
       50
102
RTVSPost2010PropOp50
 70
     1
102
RTVSPost2010Prop51ColorIndex
 90
      256
102
RTVSPost2010Prop51ColorRGB
 90
-16777216
102
RTVSPost2010PropOp51
 70
     0
102
RTVSPost2010Prop52
140
1.0
102
RTVSPost2010PropOp52
 70
     0
102
RTVSPost2010Prop53
 90
        2
102
RTVSPost2010PropOp53
 70
     1
102
RTVSPost2010Prop54
  1
strokes_ogs.tif
102
RTVSPost2010PropOp54
 70
     1
102
RTVSPost2010Prop55
280
     0
102
RTVSPost2010PropOp55
 70
     1
102
RTVSPost2010Prop56
140
1.0
102
RTVSPost2010PropOp56
 70
     1
102
RTVSPost2010Prop57
140
1.0
102
RTVSPost2010PropOp57
 70
     1
102
RTVSPropertyOp0
 70
     1
102
RTVSPropertyOp1
 70
     1
102
RTVSPropertyOp2
 70
     1
102
RTVSPropertyOp3
 70
     1
102
RTVSPropertyOp4
 70
     1
102
RTVSPropertyOp5
 70
     1
102
RTVSPropertyOp6
 70
     1
102
RTVSPropertyOp7
 70
     1
102
RTVSPropertyOp8
 70
     1
102
RTVSPropertyOp9
 70
     1
102
RTVSPropertyOp10
 70
     1
102
RTVSPropertyOp11
 70
     1
102
RTVSPropertyOp12
 70
     1
102
RTVSPropertyOp13
 70
     1
102
RTVSPropertyOp14
 70
     1
102
RTVSPropertyOp15
 70
     1
102
RTVSPropertyOp16
 70
     1
102
RTVSPropertyOp17
 70
     1
102
RTVSPropertyOp18
 70
     1
102
RTVSPropertyOp19
 70
     1
102
RTVSPropertyOp20
 70
     1
102
RTVSPropertyOp21
 70
     1
102
RTVSPropertyOp22
 70
     1
102
RTVSPropertyOp23
 70
     1
102
RTVSPropertyOp24
 70
     1
102
RTVSPropertyOp25
 70
     1
102
RTVSPropertyOp26
 70
     1
102
RTVSPropertyOp27
 70
     1
102
RTVSPropertyOp28
 70
     1
102
RTVSPropertyOp29
 70
     1
102
RTVSPropertyOp30
 70
     1
102
RTVSPropertyOp31
 70
     1
102
RTVSPropertyOp32
 70
     1
102
RTVSPropertyOp33
 70
     1
102
RTVSPropertyOp34
 70
     1
102
RTVSPropertyOp35
 70
     1
102
RTVSPropertyOp36
 70
     1
102
RTVSPropertyOp37
 70
     1
102
RTVSPropertyOp38
 70
     1
102
RTVSPropertyOp39
 70
     1
102
RTVSPropertyOp40
 70
     1
102
RTVSPropertyOp41
 70
     1
102
RTVSPropertyOp42
 70
     1
102
RTVSPropertyOp43
 70
     1
102
RTVSPropertyOp44
 70
     1
102
RTVSPropertyOp45
 70
     1
102
RTVSPropertyOp46
 70
     1
102
RTVSPropertyOp47
 70
     1
102
RTVSPropertyOp48
 70
     1
102
RTVSPropertyOp49
 70
     1
102
RTVSPropertyOp50
 70
     1
102
RTVSPropertyOp51
 70
     0
102
RTVSPropertyOp52
 70
     0
102
RTVSPropertyOp53
 70
     1
102
RTVSPropertyOp54
 70
     1
102
RTVSPropertyOp55
 70
     1
102
RTVSPropertyOp56
 70
     1
102
RTVSPropertyOp57
 70
     1
102
RTVSPropertyOp58
 70
     1
102
RTVSPropertyOp59
 70
     1
102
RTVSPropertyOp60
 70
     1
102
RTVSPropertyOp61
 70
     1
102
RTVSPropertyOp62
 70
     1
  0
XRECORD
  5
577
102
{ACAD_REACTORS
330
576
102
}
330
576
100
AcDbXrecord
280
     1
102
RTVSPost2010Prop28
280
     0
102
RTVSPost2010PropOp28
 70
     1
102
RTVSPost2010Prop29
280
     1
102
RTVSPost2010PropOp29
 70
     1
102
RTVSPost2010Prop30
280
     1
102
RTVSPost2010PropOp30
 70
     1
102
RTVSPost2010Prop31
280
     0
102
RTVSPost2010PropOp31
 70
     1
102
RTVSPost2010Prop32
280
     0
102
RTVSPost2010PropOp32
 70
     1
102
RTVSPost2010Prop33
280
     0
102
RTVSPost2010PropOp33
 70
     1
102
RTVSPost2010Prop34
280
     0
102
RTVSPost2010PropOp34
 70
     1
102
RTVSPost2010Prop35
280
     0
102
RTVSPost2010PropOp35
 70
     1
102
RTVSPost2010Prop36
280
     0
102
RTVSPost2010PropOp36
 70
     1
102
RTVSPost2010Prop37
 90
       50
102
RTVSPost2010PropOp37
 70
     1
102
RTVSPost2010Prop38
140
0.0
102
RTVSPost2010PropOp38
 70
     1
102
RTVSPost2010Prop39
140
1.0
102
RTVSPost2010PropOp39
 70
     1
102
RTVSPost2010Prop40
 90
        0
102
RTVSPost2010PropOp40
 70
     1
102
RTVSPost2010Prop41ColorIndex
 90
       18
102
RTVSPost2010Prop41ColorRGB
 90
        0
102
RTVSPost2010PropOp41
 70
     1
102
RTVSPost2010Prop42
 90
       50
102
RTVSPost2010PropOp42
 70
     1
102
RTVSPost2010Prop43
 90
        3
102
RTVSPost2010PropOp43
 70
     1
102
RTVSPost2010Prop44ColorIndex
 90
        5
102
RTVSPost2010Prop44ColorRGB
 90
      255
102
RTVSPost2010PropOp44
 70
     1
102
RTVSPost2010Prop45
280
     0
102
RTVSPost2010PropOp45
 70
     1
102
RTVSPost2010Prop46
 90
       50
102
RTVSPost2010PropOp46
 70
     1
102
RTVSPost2010Prop47
 90
       50
102
RTVSPost2010PropOp47
 70
     1
102
RTVSPost2010Prop48
 90
       50
102
RTVSPost2010PropOp48
 70
     1
102
RTVSPost2010Prop49
280
     0
102
RTVSPost2010PropOp49
 70
     1
102
RTVSPost2010Prop50
 90
       50
102
RTVSPost2010PropOp50
 70
     1
102
RTVSPost2010Prop51ColorIndex
 90
      256
102
RTVSPost2010Prop51ColorRGB
 90
-16777216
102
RTVSPost2010PropOp51
 70
     0
102
RTVSPost2010Prop52
140
1.0
102
RTVSPost2010PropOp52
 70
     0
102
RTVSPost2010Prop53
 90
        2
102
RTVSPost2010PropOp53
 70
     1
102
RTVSPost2010Prop54
  1
strokes_ogs.tif
102
RTVSPost2010PropOp54
 70
     1
102
RTVSPost2010Prop55
280
     0
102
RTVSPost2010PropOp55
 70
     1
102
RTVSPost2010Prop56
140
1.0
102
RTVSPost2010PropOp56
 70
     1
102
RTVSPost2010Prop57
140
1.0
102
RTVSPost2010PropOp57
 70
     1
102
RTVSPropertyOp0
 70
     1
102
RTVSPropertyOp1
 70
     1
102
RTVSPropertyOp2
 70
     1
102
RTVSPropertyOp3
 70
     1
102
RTVSPropertyOp4
 70
     1
102
RTVSPropertyOp5
 70
     1
102
RTVSPropertyOp6
 70
     1
102
RTVSPropertyOp7
 70
     1
102
RTVSPropertyOp8
 70
     1
102
RTVSPropertyOp9
 70
     1
102
RTVSPropertyOp10
 70
     1
102
RTVSPropertyOp11
 70
     1
102
RTVSPropertyOp12
 70
     1
102
RTVSPropertyOp13
 70
     1
102
RTVSPropertyOp14
 70
     1
102
RTVSPropertyOp15
 70
     1
102
RTVSPropertyOp16
 70
     1
102
RTVSPropertyOp17
 70
     1
102
RTVSPropertyOp18
 70
     1
102
RTVSPropertyOp19
 70
     1
102
RTVSPropertyOp20
 70
     1
102
RTVSPropertyOp21
 70
     1
102
RTVSPropertyOp22
 70
     1
102
RTVSPropertyOp23
 70
     1
102
RTVSPropertyOp24
 70
     1
102
RTVSPropertyOp25
 70
     1
102
RTVSPropertyOp26
 70
     1
102
RTVSPropertyOp27
 70
     1
102
RTVSPropertyOp28
 70
     1
102
RTVSPropertyOp29
 70
     1
102
RTVSPropertyOp30
 70
     1
102
RTVSPropertyOp31
 70
     1
102
RTVSPropertyOp32
 70
     1
102
RTVSPropertyOp33
 70
     1
102
RTVSPropertyOp34
 70
     1
102
RTVSPropertyOp35
 70
     1
102
RTVSPropertyOp36
 70
     1
102
RTVSPropertyOp37
 70
     1
102
RTVSPropertyOp38
 70
     1
102
RTVSPropertyOp39
 70
     1
102
RTVSPropertyOp40
 70
     1
102
RTVSPropertyOp41
 70
     1
102
RTVSPropertyOp42
 70
     1
102
RTVSPropertyOp43
 70
     1
102
RTVSPropertyOp44
 70
     1
102
RTVSPropertyOp45
 70
     1
102
RTVSPropertyOp46
 70
     1
102
RTVSPropertyOp47
 70
     1
102
RTVSPropertyOp48
 70
     1
102
RTVSPropertyOp49
 70
     1
102
RTVSPropertyOp50
 70
     1
102
RTVSPropertyOp51
 70
     0
102
RTVSPropertyOp52
 70
     0
102
RTVSPropertyOp53
 70
     1
102
RTVSPropertyOp54
 70
     1
102
RTVSPropertyOp55
 70
     1
102
RTVSPropertyOp56
 70
     1
102
RTVSPropertyOp57
 70
     1
102
RTVSPropertyOp58
 70
     1
102
RTVSPropertyOp59
 70
     1
102
RTVSPropertyOp60
 70
     1
102
RTVSPropertyOp61
 70
     1
102
RTVSPropertyOp62
 70
     1
  0
XRECORD
  5
56B
102
{ACAD_REACTORS
330
56A
102
}
330
56A
100
AcDbXrecord
280
     1
102
RTVSPost2010Prop28
280
     0
102
RTVSPost2010PropOp28
 70
     1
102
RTVSPost2010Prop29
280
     1
102
RTVSPost2010PropOp29
 70
     1
102
RTVSPost2010Prop30
280
     1
102
RTVSPost2010PropOp30
 70
     1
102
RTVSPost2010Prop31
280
     0
102
RTVSPost2010PropOp31
 70
     1
102
RTVSPost2010Prop32
280
     0
102
RTVSPost2010PropOp32
 70
     1
102
RTVSPost2010Prop33
280
     0
102
RTVSPost2010PropOp33
 70
     1
102
RTVSPost2010Prop34
280
     0
102
RTVSPost2010PropOp34
 70
     1
102
RTVSPost2010Prop35
280
     0
102
RTVSPost2010PropOp35
 70
     1
102
RTVSPost2010Prop36
280
     0
102
RTVSPost2010PropOp36
 70
     1
102
RTVSPost2010Prop37
 90
       50
102
RTVSPost2010PropOp37
 70
     1
102
RTVSPost2010Prop38
140
0.0
102
RTVSPost2010PropOp38
 70
     1
102
RTVSPost2010Prop39
140
1.0
102
RTVSPost2010PropOp39
 70
     1
102
RTVSPost2010Prop40
 90
        0
102
RTVSPost2010PropOp40
 70
     1
102
RTVSPost2010Prop41ColorIndex
 90
       18
102
RTVSPost2010Prop41ColorRGB
 90
        0
102
RTVSPost2010PropOp41
 70
     1
102
RTVSPost2010Prop42
 90
       50
102
RTVSPost2010PropOp42
 70
     1
102
RTVSPost2010Prop43
 90
        3
102
RTVSPost2010PropOp43
 70
     1
102
RTVSPost2010Prop44ColorIndex
 90
        5
102
RTVSPost2010Prop44ColorRGB
 90
      255
102
RTVSPost2010PropOp44
 70
     1
102
RTVSPost2010Prop45
280
     0
102
RTVSPost2010PropOp45
 70
     1
102
RTVSPost2010Prop46
 90
       50
102
RTVSPost2010PropOp46
 70
     1
102
RTVSPost2010Prop47
 90
       50
102
RTVSPost2010PropOp47
 70
     1
102
RTVSPost2010Prop48
 90
       50
102
RTVSPost2010PropOp48
 70
     1
102
RTVSPost2010Prop49
280
     0
102
RTVSPost2010PropOp49
 70
     1
102
RTVSPost2010Prop50
 90
       50
102
RTVSPost2010PropOp50
 70
     1
102
RTVSPost2010Prop51ColorIndex
 90
      256
102
RTVSPost2010Prop51ColorRGB
 90
-16777216
102
RTVSPost2010PropOp51
 70
     0
102
RTVSPost2010Prop52
140
1.0
102
RTVSPost2010PropOp52
 70
     0
102
RTVSPost2010Prop53
 90
        2
102
RTVSPost2010PropOp53
 70
     1
102
RTVSPost2010Prop54
  1
strokes_ogs.tif
102
RTVSPost2010PropOp54
 70
     1
102
RTVSPost2010Prop55
280
     0
102
RTVSPost2010PropOp55
 70
     1
102
RTVSPost2010Prop56
140
1.0
102
RTVSPost2010PropOp56
 70
     1
102
RTVSPost2010Prop57
140
1.0
102
RTVSPost2010PropOp57
 70
     1
102
RTVSPropertyOp0
 70
     1
102
RTVSPropertyOp1
 70
     1
102
RTVSPropertyOp2
 70
     1
102
RTVSPropertyOp3
 70
     1
102
RTVSPropertyOp4
 70
     1
102
RTVSPropertyOp5
 70
     1
102
RTVSPropertyOp6
 70
     1
102
RTVSPropertyOp7
 70
     1
102
RTVSPropertyOp8
 70
     1
102
RTVSPropertyOp9
 70
     1
102
RTVSPropertyOp10
 70
     1
102
RTVSPropertyOp11
 70
     1
102
RTVSPropertyOp12
 70
     1
102
RTVSPropertyOp13
 70
     1
102
RTVSPropertyOp14
 70
     1
102
RTVSPropertyOp15
 70
     1
102
RTVSPropertyOp16
 70
     1
102
RTVSPropertyOp17
 70
     1
102
RTVSPropertyOp18
 70
     1
102
RTVSPropertyOp19
 70
     1
102
RTVSPropertyOp20
 70
     1
102
RTVSPropertyOp21
 70
     1
102
RTVSPropertyOp22
 70
     1
102
RTVSPropertyOp23
 70
     1
102
RTVSPropertyOp24
 70
     1
102
RTVSPropertyOp25
 70
     1
102
RTVSPropertyOp26
 70
     1
102
RTVSPropertyOp27
 70
     1
102
RTVSPropertyOp28
 70
     1
102
RTVSPropertyOp29
 70
     1
102
RTVSPropertyOp30
 70
     1
102
RTVSPropertyOp31
 70
     1
102
RTVSPropertyOp32
 70
     1
102
RTVSPropertyOp33
 70
     1
102
RTVSPropertyOp34
 70
     1
102
RTVSPropertyOp35
 70
     1
102
RTVSPropertyOp36
 70
     1
102
RTVSPropertyOp37
 70
     1
102
RTVSPropertyOp38
 70
     1
102
RTVSPropertyOp39
 70
     1
102
RTVSPropertyOp40
 70
     1
102
RTVSPropertyOp41
 70
     1
102
RTVSPropertyOp42
 70
     1
102
RTVSPropertyOp43
 70
     1
102
RTVSPropertyOp44
 70
     1
102
RTVSPropertyOp45
 70
     1
102
RTVSPropertyOp46
 70
     1
102
RTVSPropertyOp47
 70
     1
102
RTVSPropertyOp48
 70
     1
102
RTVSPropertyOp49
 70
     1
102
RTVSPropertyOp50
 70
     1
102
RTVSPropertyOp51
 70
     0
102
RTVSPropertyOp52
 70
     0
102
RTVSPropertyOp53
 70
     1
102
RTVSPropertyOp54
 70
     1
102
RTVSPropertyOp55
 70
     1
102
RTVSPropertyOp56
 70
     1
102
RTVSPropertyOp57
 70
     1
102
RTVSPropertyOp58
 70
     1
102
RTVSPropertyOp59
 70
     1
102
RTVSPropertyOp60
 70
     1
102
RTVSPropertyOp61
 70
     1
102
RTVSPropertyOp62
 70
     1
  0
XRECORD
  5
583
102
{ACAD_REACTORS
330
582
102
}
330
582
100
AcDbXrecord
280
     1
102
RTVSPost2010Prop28
280
     0
102
RTVSPost2010PropOp28
 70
     1
102
RTVSPost2010Prop29
280
     1
102
RTVSPost2010PropOp29
 70
     1
102
RTVSPost2010Prop30
280
     1
102
RTVSPost2010PropOp30
 70
     1
102
RTVSPost2010Prop31
280
     0
102
RTVSPost2010PropOp31
 70
     1
102
RTVSPost2010Prop32
280
     0
102
RTVSPost2010PropOp32
 70
     1
102
RTVSPost2010Prop33
280
     0
102
RTVSPost2010PropOp33
 70
     1
102
RTVSPost2010Prop34
280
     0
102
RTVSPost2010PropOp34
 70
     1
102
RTVSPost2010Prop35
280
     0
102
RTVSPost2010PropOp35
 70
     1
102
RTVSPost2010Prop36
280
     0
102
RTVSPost2010PropOp36
 70
     1
102
RTVSPost2010Prop37
 90
       50
102
RTVSPost2010PropOp37
 70
     1
102
RTVSPost2010Prop38
140
0.0
102
RTVSPost2010PropOp38
 70
     1
102
RTVSPost2010Prop39
140
1.0
102
RTVSPost2010PropOp39
 70
     1
102
RTVSPost2010Prop40
 90
        0
102
RTVSPost2010PropOp40
 70
     1
102
RTVSPost2010Prop41ColorIndex
 90
       18
102
RTVSPost2010Prop41ColorRGB
 90
        0
102
RTVSPost2010PropOp41
 70
     1
102
RTVSPost2010Prop42
 90
       50
102
RTVSPost2010PropOp42
 70
     1
102
RTVSPost2010Prop43
 90
        3
102
RTVSPost2010PropOp43
 70
     1
102
RTVSPost2010Prop44ColorIndex
 90
        5
102
RTVSPost2010Prop44ColorRGB
 90
      255
102
RTVSPost2010PropOp44
 70
     1
102
RTVSPost2010Prop45
280
     0
102
RTVSPost2010PropOp45
 70
     1
102
RTVSPost2010Prop46
 90
       50
102
RTVSPost2010PropOp46
 70
     1
102
RTVSPost2010Prop47
 90
       50
102
RTVSPost2010PropOp47
 70
     1
102
RTVSPost2010Prop48
 90
       50
102
RTVSPost2010PropOp48
 70
     1
102
RTVSPost2010Prop49
280
     0
102
RTVSPost2010PropOp49
 70
     1
102
RTVSPost2010Prop50
 90
       50
102
RTVSPost2010PropOp50
 70
     1
102
RTVSPost2010Prop51ColorIndex
 90
      256
102
RTVSPost2010Prop51ColorRGB
 90
-16777216
102
RTVSPost2010PropOp51
 70
     0
102
RTVSPost2010Prop52
140
1.0
102
RTVSPost2010PropOp52
 70
     0
102
RTVSPost2010Prop53
 90
        2
102
RTVSPost2010PropOp53
 70
     1
102
RTVSPost2010Prop54
  1
strokes_ogs.tif
102
RTVSPost2010PropOp54
 70
     1
102
RTVSPost2010Prop55
280
     0
102
RTVSPost2010PropOp55
 70
     1
102
RTVSPost2010Prop56
140
1.0
102
RTVSPost2010PropOp56
 70
     1
102
RTVSPost2010Prop57
140
1.0
102
RTVSPost2010PropOp57
 70
     1
102
RTVSPropertyOp0
 70
     1
102
RTVSPropertyOp1
 70
     1
102
RTVSPropertyOp2
 70
     1
102
RTVSPropertyOp3
 70
     1
102
RTVSPropertyOp4
 70
     1
102
RTVSPropertyOp5
 70
     1
102
RTVSPropertyOp6
 70
     1
102
RTVSPropertyOp7
 70
     1
102
RTVSPropertyOp8
 70
     1
102
RTVSPropertyOp9
 70
     1
102
RTVSPropertyOp10
 70
     1
102
RTVSPropertyOp11
 70
     1
102
RTVSPropertyOp12
 70
     1
102
RTVSPropertyOp13
 70
     1
102
RTVSPropertyOp14
 70
     1
102
RTVSPropertyOp15
 70
     1
102
RTVSPropertyOp16
 70
     1
102
RTVSPropertyOp17
 70
     1
102
RTVSPropertyOp18
 70
     1
102
RTVSPropertyOp19
 70
     1
102
RTVSPropertyOp20
 70
     1
102
RTVSPropertyOp21
 70
     1
102
RTVSPropertyOp22
 70
     1
102
RTVSPropertyOp23
 70
     1
102
RTVSPropertyOp24
 70
     1
102
RTVSPropertyOp25
 70
     1
102
RTVSPropertyOp26
 70
     1
102
RTVSPropertyOp27
 70
     1
102
RTVSPropertyOp28
 70
     1
102
RTVSPropertyOp29
 70
     1
102
RTVSPropertyOp30
 70
     1
102
RTVSPropertyOp31
 70
     1
102
RTVSPropertyOp32
 70
     1
102
RTVSPropertyOp33
 70
     1
102
RTVSPropertyOp34
 70
     1
102
RTVSPropertyOp35
 70
     1
102
RTVSPropertyOp36
 70
     1
102
RTVSPropertyOp37
 70
     1
102
RTVSPropertyOp38
 70
     1
102
RTVSPropertyOp39
 70
     1
102
RTVSPropertyOp40
 70
     1
102
RTVSPropertyOp41
 70
     1
102
RTVSPropertyOp42
 70
     1
102
RTVSPropertyOp43
 70
     1
102
RTVSPropertyOp44
 70
     1
102
RTVSPropertyOp45
 70
     1
102
RTVSPropertyOp46
 70
     1
102
RTVSPropertyOp47
 70
     1
102
RTVSPropertyOp48
 70
     1
102
RTVSPropertyOp49
 70
     1
102
RTVSPropertyOp50
 70
     1
102
RTVSPropertyOp51
 70
     0
102
RTVSPropertyOp52
 70
     0
102
RTVSPropertyOp53
 70
     1
102
RTVSPropertyOp54
 70
     1
102
RTVSPropertyOp55
 70
     1
102
RTVSPropertyOp56
 70
     1
102
RTVSPropertyOp57
 70
     1
102
RTVSPropertyOp58
 70
     1
102
RTVSPropertyOp59
 70
     1
102
RTVSPropertyOp60
 70
     1
102
RTVSPropertyOp61
 70
     1
102
RTVSPropertyOp62
 70
     1
  0
ENDSEC
  0
EOF
