  0
SECTION
  2
HEADER
  9
$ACADVER
  1
AC1015
  9
$ACADMAINTVER
 70
    20
  9
$DWGCODEPAGE
  3
ANSI_1252
  9
$INSBASE
 10
0.0
 20
0.0
 30
0.0
  9
$EXTMIN
 10
-18.222194
 20
-21.804762
 30
0.0
  9
$EXTMAX
 10
34.925889
 20
30.082752
 30
0.0
  9
$LIMMIN
 10
0.0
 20
0.0
  9
$LIMMAX
 10
12.0
 20
9.0
  9
$ORTHOMODE
 70
     0
  9
$REGENMODE
 70
     1
  9
$FILLMODE
 70
     1
  9
$QTEXTMODE
 70
     0
  9
$MIRRTEXT
 70
     1
  9
$LTSCALE
 40
1.0
  9
$ATTMODE
 70
     1
  9
$TEXTSIZE
 40
3.0
  9
$TRACEWID
 40
10.0
  9
$TEXTSTYLE
  7
SANDVIK_STYLE
  9
$CLAYER
  8
1
  9
$CELTYPE
  6
ByLayer
  9
$CECOLOR
 62
   256
  9
$CELTSCALE
 40
1.0
  9
$DISPSILH
 70
     0
  9
$DIMSCALE
 40
1.0
  9
$DIMASZ
 40
0.18
  9
$DIMEXO
 40
0.0625
  9
$DIMDLI
 40
0.38
  9
$DIMRND
 40
0.0
  9
$DIMDLE
 40
0.0
  9
$DIMEXE
 40
0.18
  9
$DIMTP
 40
0.0
  9
$DIMTM
 40
0.0
  9
$DIMTXT
 40
0.18
  9
$DIMCEN
 40
0.09
  9
$DIMTSZ
 40
0.0
  9
$DIMTOL
 70
     0
  9
$DIMLIM
 70
     0
  9
$DIMTIH
 70
     1
  9
$DIMTOH
 70
     1
  9
$DIMSE1
 70
     0
  9
$DIMSE2
 70
     0
  9
$DIMTAD
 70
     0
  9
$DIMZIN
 70
     0
  9
$DIMBLK
  1

  9
$DIMASO
 70
     1
  9
$DIMSHO
 70
     1
  9
$DIMPOST
  1

  9
$DIMAPOST
  1

  9
$DIMALT
 70
     0
  9
$DIMALTD
 70
     2
  9
$DIMALTF
 40
25.4
  9
$DIMLFAC
 40
1.0
  9
$DIMTOFL
 70
     0
  9
$DIMTVP
 40
0.0
  9
$DIMTIX
 70
     0
  9
$DIMSOXD
 70
     0
  9
$DIMSAH
 70
     0
  9
$DIMBLK1
  1

  9
$DIMBLK2
  1

  9
$DIMSTYLE
  2
STANDARD
  9
$DIMCLRD
 70
     0
  9
$DIMCLRE
 70
     0
  9
$DIMCLRT
 70
     0
  9
$DIMTFAC
 40
1.0
  9
$DIMGAP
 40
0.09
  9
$DIMJUST
 70
     0
  9
$DIMSD1
 70
     0
  9
$DIMSD2
 70
     0
  9
$DIMTOLJ
 70
     1
  9
$DIMTZIN
 70
     0
  9
$DIMALTZ
 70
     0
  9
$DIMALTTZ
 70
     0
  9
$DIMUPT
 70
     0
  9
$DIMDEC
 70
     4
  9
$DIMTDEC
 70
     4
  9
$DIMALTU
 70
     2
  9
$DIMALTTD
 70
     2
  9
$DIMTXSTY
  7
STANDARD
  9
$DIMAUNIT
 70
     0
  9
$DIMADEC
 70
     0
  9
$DIMALTRND
 40
0.0
  9
$DIMAZIN
 70
     0
  9
$DIMDSEP
 70
    46
  9
$DIMATFIT
 70
     3
  9
$DIMFRAC
 70
     0
  9
$DIMLDRBLK
  1

  9
$DIMLUNIT
 70
     2
  9
$DIMLWD
 70
    -2
  9
$DIMLWE
 70
    -2
  9
$DIMTMOVE
 70
     0
  9
$LUNITS
 70
     2
  9
$LUPREC
 70
     2
  9
$SKETCHINC
 40
0.0
  9
$FILLETRAD
 40
0.0
  9
$AUNITS
 70
     0
  9
$AUPREC
 70
     2
  9
$MENU
  1
acad
  9
$ELEVATION
 40
0.0
  9
$PELEVATION
 40
0.0
  9
$THICKNESS
 40
0.0
  9
$LIMCHECK
 70
     0
  9
$CHAMFERA
 40
0.0
  9
$CHAMFERB
 40
0.0
  9
$CHAMFERC
 40
0.0
  9
$CHAMFERD
 40
0.0
  9
$SKPOLY
 70
     0
  9
$TDCREATE
 40
2456818.317926377
  9
$TDUCREATE
 40
2456818.234593044
  9
$TDUPDATE
 40
2456818.317930903
  9
$TDUUPDATE
 40
2456818.234597569
  9
$TDINDWG
 40
0.0000053009
  9
$TDUSRTIMER
 40
0.0000053009
  9
$USRTIMER
 70
     1
  9
$ANGBASE
 50
0.0
  9
$ANGDIR
 70
     0
  9
$PDMODE
 70
     0
  9
$PDSIZE
 40
0.0
  9
$PLINEWID
 40
0.0
  9
$SPLFRAME
 70
     0
  9
$SPLINETYPE
 70
     6
  9
$SPLINESEGS
 70
     8
  9
$HANDSEED
  5
595
  9
$SURFTAB1
 70
     6
  9
$SURFTAB2
 70
     6
  9
$SURFTYPE
 70
     6
  9
$SURFU
 70
     6
  9
$SURFV
 70
     6
  9
$UCSBASE
  2

  9
$UCSNAME
  2

  9
$UCSORG
 10
0.0
 20
0.0
 30
0.0
  9
$UCSXDIR
 10
1.0
 20
0.0
 30
0.0
  9
$UCSYDIR
 10
0.0
 20
1.0
 30
0.0
  9
$UCSORTHOREF
  2

  9
$UCSORTHOVIEW
 70
     0
  9
$UCSORGTOP
 10
0.0
 20
0.0
 30
0.0
  9
$UCSORGBOTTOM
 10
0.0
 20
0.0
 30
0.0
  9
$UCSORGLEFT
 10
0.0
 20
0.0
 30
0.0
  9
$UCSORGRIGHT
 10
0.0
 20
0.0
 30
0.0
  9
$UCSORGFRONT
 10
0.0
 20
0.0
 30
0.0
  9
$UCSORGBACK
 10
0.0
 20
0.0
 30
0.0
  9
$PUCSBASE
  2

  9
$PUCSNAME
  2

  9
$PUCSORG
 10
0.0
 20
0.0
 30
0.0
  9
$PUCSXDIR
 10
1.0
 20
0.0
 30
0.0
  9
$PUCSYDIR
 10
0.0
 20
1.0
 30
0.0
  9
$PUCSORTHOREF
  2

  9
$PUCSORTHOVIEW
 70
     0
  9
$PUCSORGTOP
 10
0.0
 20
0.0
 30
0.0
  9
$PUCSORGBOTTOM
 10
0.0
 20
0.0
 30
0.0
  9
$PUCSORGLEFT
 10
0.0
 20
0.0
 30
0.0
  9
$PUCSORGRIGHT
 10
0.0
 20
0.0
 30
0.0
  9
$PUCSORGFRONT
 10
0.0
 20
0.0
 30
0.0
  9
$PUCSORGBACK
 10
0.0
 20
0.0
 30
0.0
  9
$USERI1
 70
     0
  9
$USERI2
 70
     0
  9
$USERI3
 70
     0
  9
$USERI4
 70
     0
  9
$USERI5
 70
     0
  9
$USERR1
 40
0.0
  9
$USERR2
 40
0.0
  9
$USERR3
 40
0.0
  9
$USERR4
 40
0.0
  9
$USERR5
 40
0.0
  9
$WORLDVIEW
 70
     1
  9
$SHADEDGE
 70
     3
  9
$SHADEDIF
 70
    70
  9
$TILEMODE
 70
     1
  9
$MAXACTVP
 70
    16
  9
$PINSBASE
 10
0.0
 20
0.0
 30
0.0
  9
$PLIMCHECK
 70
     0
  9
$PEXTMIN
 10
1.000000000000000E+20
 20
1.000000000000000E+20
 30
1.000000000000000E+20
  9
$PEXTMAX
 10
-1.000000000000000E+20
 20
-1.000000000000000E+20
 30
-1.000000000000000E+20
  9
$PLIMMIN
 10
0.0
 20
0.0
  9
$PLIMMAX
 10
12.0
 20
9.0
  9
$UNITMODE
 70
     0
  9
$VISRETAIN
 70
     0
  9
$PLINEGEN
 70
     0
  9
$PSLTSCALE
 70
     1
  9
$TREEDEPTH
 70
  3020
  9
$CMLSTYLE
  2
Standard
  9
$CMLJUST
 70
     0
  9
$CMLSCALE
 40
1.0
  9
$PROXYGRAPHICS
 70
     1
  9
$MEASUREMENT
 70
     0
  9
$CELWEIGHT
370
    -1
  9
$ENDCAPS
280
     0
  9
$JOINSTYLE
280
     0
  9
$LWDISPLAY
290
     0
  9
$INSUNITS
 70
     0
  9
$HYPERLINKBASE
  1

  9
$STYLESHEET
  1

  9
$XEDIT
290
     1
  9
$CEPSNTYPE
380
     0
  9
$PSTYLEMODE
290
     1
  9
$FINGERPRINTGUID
  2
{0D831EAA-9BC9-410F-9C71-419E348A383A}
  9
$VERSIONGUID
  2
{31773511-1865-40A2-8D89-6497A4C25C89}
  9
$EXTNAMES
290
     1
  9
$PSVPSCALE
 40
0.0
  9
$OLESTARTUP
290
     0
  0
ENDSEC
  0
SECTION
  2
CLASSES
  0
CLASS
  1
ACDBDICTIONARYWDFLT
  2
AcDbDictionaryWithDefault
  3
ObjectDBX Classes
 90
        0
280
     0
281
     0
  0
CLASS
  1
MATERIAL
  2
AcDbMaterial
  3
ObjectDBX Classes
 90
     1153
280
     0
281
     0
  0
CLASS
  1
VISUALSTYLE
  2
AcDbVisualStyle
  3
ObjectDBX Classes
 90
     4095
280
     0
281
     0
  0
CLASS
  1
SCALE
  2
AcDbScale
  3
ObjectDBX Classes
 90
     1153
280
     0
281
     0
  0
CLASS
  1
TABLESTYLE
  2
AcDbTableStyle
  3
ObjectDBX Classes
 90
     4095
280
     0
281
     0
  0
CLASS
  1
MLEADERSTYLE
  2
AcDbMLeaderStyle
  3
ACDB_MLEADERSTYLE_CLASS
 90
     4095
280
     0
281
     0
  0
CLASS
  1
ACDBSECTIONVIEWSTYLE
  2
AcDbSectionViewStyle
  3
ObjectDBX Classes
 90
     1025
280
     0
281
     0
  0
CLASS
  1
ACDBDETAILVIEWSTYLE
  2
AcDbDetailViewStyle
  3
ObjectDBX Classes
 90
     1025
280
     0
281
     0
  0
CLASS
  1
EXACXREFPANELOBJECT
  2
ExAcXREFPanelObject
  3
EXAC_ESW
 90
     1025
280
     0
281
     0
  0
CLASS
  1
NPOCOLLECTION
  2
AcDbImpNonPersistentObjectsCollection
  3
ObjectDBX Classes
 90
     1153
280
     0
281
     0
  0
CLASS
  1
DICTIONARYVAR
  2
AcDbDictionaryVar
  3
ObjectDBX Classes
 90
        0
280
     0
281
     0
  0
CLASS
  1
CELLSTYLEMAP
  2
AcDbCellStyleMap
  3
ObjectDBX Classes
 90
     1152
280
     0
281
     0
  0
CLASS
  1
ACDBPLACEHOLDER
  2
AcDbPlaceHolder
  3
ObjectDBX Classes
 90
        0
280
     0
281
     0
  0
CLASS
  1
LAYOUT
  2
AcDbLayout
  3
ObjectDBX Classes
 90
        0
280
     0
281
     0
  0
ENDSEC
  0
SECTION
  2
TABLES
  0
TABLE
  2
VPORT
  5
463
330
0
100
AcDbSymbolTable
 70
     1
  0
VPORT
  5
4FA
330
463
100
AcDbSymbolTableRecord
100
AcDbViewportTableRecord
  2
*Active
 70
     0
 10
0.0
 20
0.0
 11
1.0
 21
1.0
 12
8.351847500000008
 22
4.138995000000001
 13
0.0
 23
0.0
 14
1.0
 24
1.0
 15
0.0
 25
0.0
 16
0.0
 26
0.0
 36
1.0
 17
0.0
 27
0.0
 37
0.0
 40
58.06656936204146
 41
2.2
 42
50.0
 43
0.0
 44
0.0
 50
0.0
 51
0.0
 71
     0
 72
   100
 73
     1
 74
     1
 75
     0
 76
     0
 77
     0
 78
     0
281
     0
 65
     1
110
0.0
120
0.0
130
0.0
111
1.0
121
0.0
131
0.0
112
0.0
122
1.0
132
0.0
 79
     0
146
0.0
1001
ACAD_NAV_VCDISPLAY
1070
     3
  0
ENDTAB
  0
TABLE
  2
LTYPE
  5
460
330
0
100
AcDbSymbolTable
 70
     4
  0
LTYPE
  5
4B5
330
460
100
AcDbSymbolTableRecord
100
AcDbLinetypeTableRecord
  2
ByBlock
 70
     0
  3

 72
    65
 73
     0
 40
0.0
  0
LTYPE
  5
4B6
330
460
100
AcDbSymbolTableRecord
100
AcDbLinetypeTableRecord
  2
ByLayer
 70
     0
  3

 72
    65
 73
     0
 40
0.0
  0
LTYPE
  5
4B7
330
460
100
AcDbSymbolTableRecord
100
AcDbLinetypeTableRecord
  2
CONTINUOUS
 70
     0
  3
Solid line
 72
    65
 73
     0
 40
0.0
  0
LTYPE
  5
4C3
330
460
100
AcDbSymbolTableRecord
100
AcDbLinetypeTableRecord
  2
PHANTOM2
 70
     0
  3
Phantom (.5x) ___ _ _ ___ _ _ ___ _ _ ___ _ _
 72
    65
 73
     6
 40
1.25
 49
0.625
 74
     0
 49
-0.125
 74
     0
 49
0.125
 74
     0
 49
-0.125
 74
     0
 49
0.125
 74
     0
 49
-0.125
 74
     0
  0
LTYPE
  5
4D1
330
460
100
AcDbSymbolTableRecord
100
AcDbLinetypeTableRecord
  2
CENTER
 70
     0
  3
____ _ ____ _ ____ _ ____ _ ____ _ ____ _ ____
 72
    65
 73
     4
 40
5.059897
 49
3.162434999999999
 74
     0
 49
-0.6324870000000001
 74
     0
 49
0.6324870000000001
 74
     0
 49
-0.6324870000000001
 74
     0
  0
LTYPE
  5
4D2
330
460
100
AcDbSymbolTableRecord
100
AcDbLinetypeTableRecord
  2
DASHED
 70
     0
  3
__ __ __ __ __ __ __ __ __ __ __ __ __ __ __ __
 72
    65
 73
     2
 40
7.589844999999999
 49
5.059897
 74
     0
 49
-2.529948
 74
     0
  0
ENDTAB
  0
TABLE
  2
LAYER
  5
45D
330
0
100
AcDbSymbolTable
 70
    38
  0
LAYER
  5
4AF
102
{ACAD_XDICTIONARY
360
501
102
}
330
45D
100
AcDbSymbolTableRecord
100
AcDbLayerTableRecord
  2
0
 70
     0
 62
     7
  6
CONTINUOUS
370
    -3
390
46A
  0
LAYER
  5
4CF
102
{ACAD_XDICTIONARY
360
503
102
}
330
45D
100
AcDbSymbolTableRecord
100
AcDbLayerTableRecord
  2
1
 70
     0
 62
     4
  6
CONTINUOUS
370
    -3
390
46A
  0
LAYER
  5
4D3
102
{ACAD_XDICTIONARY
360
505
102
}
330
45D
100
AcDbSymbolTableRecord
100
AcDbLayerTableRecord
  2
61
 70
     0
 62
     5
  6
CONTINUOUS
370
    -3
390
46A
  0
LAYER
  5
4D4
102
{ACAD_XDICTIONARY
360
507
102
}
330
45D
100
AcDbSymbolTableRecord
100
AcDbLayerTableRecord
  2
62
 70
     0
 62
    -5
  6
CONTINUOUS
370
    -3
390
46A
  0
LAYER
  5
4D5
102
{ACAD_XDICTIONARY
360
509
102
}
330
45D
100
AcDbSymbolTableRecord
100
AcDbLayerTableRecord
  2
63
 70
     0
 62
    -5
  6
CONTINUOUS
370
    -3
390
46A
  0
LAYER
  5
4D6
102
{ACAD_XDICTIONARY
360
50B
102
}
330
45D
100
AcDbSymbolTableRecord
100
AcDbLayerTableRecord
  2
64
 70
     0
 62
    -5
  6
CONTINUOUS
370
    -3
390
46A
  0
LAYER
  5
4D7
102
{ACAD_XDICTIONARY
360
50D
102
}
330
45D
100
AcDbSymbolTableRecord
100
AcDbLayerTableRecord
  2
65
 70
     0
 62
    -5
  6
CONTINUOUS
370
    -3
390
46A
  0
LAYER
  5
4D8
102
{ACAD_XDICTIONARY
360
50F
102
}
330
45D
100
AcDbSymbolTableRecord
100
AcDbLayerTableRecord
  2
66
 70
     0
 62
    -5
  6
CONTINUOUS
370
    -3
390
46A
  0
LAYER
  5
4D9
102
{ACAD_XDICTIONARY
360
511
102
}
330
45D
100
AcDbSymbolTableRecord
100
AcDbLayerTableRecord
  2
67
 70
     0
 62
    -5
  6
CONTINUOUS
370
    -3
390
46A
  0
LAYER
  5
4DA
102
{ACAD_XDICTIONARY
360
513
102
}
330
45D
100
AcDbSymbolTableRecord
100
AcDbLayerTableRecord
  2
68
 70
     0
 62
    -5
  6
CONTINUOUS
370
    -3
390
46A
  0
LAYER
  5
4DB
102
{ACAD_XDICTIONARY
360
515
102
}
330
45D
100
AcDbSymbolTableRecord
100
AcDbLayerTableRecord
  2
69
 70
     0
 62
    -5
  6
CONTINUOUS
370
    -3
390
46A
  0
LAYER
  5
4DC
102
{ACAD_XDICTIONARY
360
517
102
}
330
45D
100
AcDbSymbolTableRecord
100
AcDbLayerTableRecord
  2
70
 70
     0
 62
     5
  6
CONTINUOUS
370
    -3
390
46A
  0
LAYER
  5
4DD
102
{ACAD_XDICTIONARY
360
519
102
}
330
45D
100
AcDbSymbolTableRecord
100
AcDbLayerTableRecord
  2
2
 70
     0
 62
     7
  6
CONTINUOUS
370
    -3
390
46A
  0
LAYER
  5
4DE
102
{ACAD_XDICTIONARY
360
51B
102
}
330
45D
100
AcDbSymbolTableRecord
100
AcDbLayerTableRecord
  2
3
 70
     0
 62
     1
  6
DASHED
370
    -3
390
46A
  0
LAYER
  5
4DF
102
{ACAD_XDICTIONARY
360
51D
102
}
330
45D
100
AcDbSymbolTableRecord
100
AcDbLayerTableRecord
  2
4
 70
     0
 62
    -2
  6
CENTER
370
    -3
390
46A
  0
LAYER
  5
4E0
102
{ACAD_XDICTIONARY
360
51F
102
}
330
45D
100
AcDbSymbolTableRecord
100
AcDbLayerTableRecord
  2
5
 70
     0
 62
    -7
  6
CONTINUOUS
370
    -3
390
46A
  0
LAYER
  5
4E1
102
{ACAD_XDICTIONARY
360
521
102
}
330
45D
100
AcDbSymbolTableRecord
100
AcDbLayerTableRecord
  2
SK1
 70
     0
 62
     4
  6
CONTINUOUS
370
    -3
390
46A
  0
LAYER
  5
4E2
102
{ACAD_XDICTIONARY
360
523
102
}
330
45D
100
AcDbSymbolTableRecord
100
AcDbLayerTableRecord
  2
6
 70
     0
 62
     5
  6
CONTINUOUS
370
    -3
390
46A
  0
LAYER
  5
4E3
102
{ACAD_XDICTIONARY
360
525
102
}
330
45D
100
AcDbSymbolTableRecord
100
AcDbLayerTableRecord
  2
SK2
 70
     0
 62
     7
  6
CONTINUOUS
370
    -3
390
46A
  0
LAYER
  5
4E4
102
{ACAD_XDICTIONARY
360
527
102
}
330
45D
100
AcDbSymbolTableRecord
100
AcDbLayerTableRecord
  2
SK3
 70
     0
 62
     1
  6
DASHED
370
    -3
390
46A
  0
LAYER
  5
4E5
102
{ACAD_XDICTIONARY
360
529
102
}
330
45D
100
AcDbSymbolTableRecord
100
AcDbLayerTableRecord
  2
SK4
 70
     0
 62
     2
  6
CENTER
370
    -3
390
46A
  0
LAYER
  5
4E6
102
{ACAD_XDICTIONARY
360
52B
102
}
330
45D
100
AcDbSymbolTableRecord
100
AcDbLayerTableRecord
  2
CUT
 70
     0
 62
    -1
  6
CONTINUOUS
370
    -3
390
46A
  0
LAYER
  5
4E7
102
{ACAD_XDICTIONARY
360
52D
102
}
330
45D
100
AcDbSymbolTableRecord
100
AcDbLayerTableRecord
  2
SK6
 70
     0
 62
     5
  6
CONTINUOUS
370
    -3
390
46A
  0
LAYER
  5
4E8
102
{ACAD_XDICTIONARY
360
52F
102
}
330
45D
100
AcDbSymbolTableRecord
100
AcDbLayerTableRecord
  2
80
 70
     0
 62
    -2
  6
CENTER
370
    -3
390
46A
  0
LAYER
  5
4E9
102
{ACAD_XDICTIONARY
360
531
102
}
330
45D
100
AcDbSymbolTableRecord
100
AcDbLayerTableRecord
  2
81
 70
     0
 62
    -2
  6
CENTER
370
    -3
390
46A
  0
LAYER
  5
4EA
102
{ACAD_XDICTIONARY
360
533
102
}
330
45D
100
AcDbSymbolTableRecord
100
AcDbLayerTableRecord
  2
82
 70
     0
 62
    -2
  6
CENTER
370
    -3
390
46A
  0
LAYER
  5
4EB
102
{ACAD_XDICTIONARY
360
535
102
}
330
45D
100
AcDbSymbolTableRecord
100
AcDbLayerTableRecord
  2
NOCUT
 70
     0
 62
     7
  6
CONTINUOUS
370
    -3
390
46A
  0
LAYER
  5
4EC
102
{ACAD_XDICTIONARY
360
537
102
}
330
45D
100
AcDbSymbolTableRecord
100
AcDbLayerTableRecord
  2
50
 70
     0
 62
    -7
  6
CONTINUOUS
370
    -3
390
46A
  0
LAYER
  5
4ED
102
{ACAD_XDICTIONARY
360
539
102
}
330
45D
100
AcDbSymbolTableRecord
100
AcDbLayerTableRecord
  2
51
 70
     0
 62
     7
  6
CONTINUOUS
370
    -3
390
46A
  0
LAYER
  5
4EE
102
{ACAD_XDICTIONARY
360
53B
102
}
330
45D
100
AcDbSymbolTableRecord
100
AcDbLayerTableRecord
  2
52
 70
     0
 62
    -7
  6
CONTINUOUS
370
    -3
390
46A
  0
LAYER
  5
4EF
102
{ACAD_XDICTIONARY
360
53D
102
}
330
45D
100
AcDbSymbolTableRecord
100
AcDbLayerTableRecord
  2
53
 70
     0
 62
    -7
  6
CONTINUOUS
370
    -3
390
46A
  0
LAYER
  5
4F0
102
{ACAD_XDICTIONARY
360
53F
102
}
330
45D
100
AcDbSymbolTableRecord
100
AcDbLayerTableRecord
  2
54
 70
     0
 62
    -7
  6
CONTINUOUS
370
    -3
390
46A
  0
LAYER
  5
4F1
102
{ACAD_XDICTIONARY
360
541
102
}
330
45D
100
AcDbSymbolTableRecord
100
AcDbLayerTableRecord
  2
55
 70
     0
 62
    -7
  6
CONTINUOUS
370
    -3
390
46A
  0
LAYER
  5
4F2
102
{ACAD_XDICTIONARY
360
543
102
}
330
45D
100
AcDbSymbolTableRecord
100
AcDbLayerTableRecord
  2
56
 70
     0
 62
    -7
  6
CONTINUOUS
370
    -3
390
46A
  0
LAYER
  5
4F3
102
{ACAD_XDICTIONARY
360
545
102
}
330
45D
100
AcDbSymbolTableRecord
100
AcDbLayerTableRecord
  2
57
 70
     0
 62
    -7
  6
CONTINUOUS
370
    -3
390
46A
  0
LAYER
  5
4F4
102
{ACAD_XDICTIONARY
360
547
102
}
330
45D
100
AcDbSymbolTableRecord
100
AcDbLayerTableRecord
  2
58
 70
     0
 62
    -7
  6
CONTINUOUS
370
    -3
390
46A
  0
LAYER
  5
4F5
102
{ACAD_XDICTIONARY
360
549
102
}
330
45D
100
AcDbSymbolTableRecord
100
AcDbLayerTableRecord
  2
2L
 70
     0
 62
     7
  6
CONTINUOUS
370
    -3
390
46A
  0
LAYER
  5
4F6
102
{ACAD_XDICTIONARY
360
54B
102
}
330
45D
100
AcDbSymbolTableRecord
100
AcDbLayerTableRecord
  2
59
 70
     0
 62
    -7
  6
CONTINUOUS
370
    -3
390
46A
  0
ENDTAB
  0
TABLE
  2
STYLE
  5
45E
330
0
100
AcDbSymbolTable
 70
     3
  0
STYLE
  5
4B0
330
45E
100
AcDbSymbolTableRecord
100
AcDbTextStyleTableRecord
  2
STANDARD
 70
     0
 40
0.0
 41
1.0
 50
0.0
 71
     0
 42
4.5
  3
simplex.shx
  4

  0
STYLE
  5
4B4
330
45E
100
AcDbSymbolTableRecord
100
AcDbTextStyleTableRecord
  2
Annotative
 70
     0
 40
0.0
 41
1.0
 50
0.0
 71
     0
 42
0.2
  3
txt
  4

1001
AcadAnnotative
1000
AnnotativeData
1002
{
1070
     1
1070
     1
1002
}
  0
STYLE
  5
4D0
330
45E
100
AcDbSymbolTableRecord
100
AcDbTextStyleTableRecord
  2
SANDVIK_STYLE
 70
     0
 40
3.0
 41
1.0
 50
0.0
 71
     0
 42
3.0
  3
simplex.shx
  4

  0
ENDTAB
  0
TABLE
  2
VIEW
  5
461
330
0
100
AcDbSymbolTable
 70
     0
  0
ENDTAB
  0
TABLE
  2
UCS
  5
462
330
0
100
AcDbSymbolTable
 70
     0
  0
ENDTAB
  0
TABLE
  2
APPID
  5
464
330
0
100
AcDbSymbolTable
 70
     4
  0
APPID
  5
4B1
330
464
100
AcDbSymbolTableRecord
100
AcDbRegAppTableRecord
  2
ACAD
 70
     0
  0
APPID
  5
4B8
330
464
100
AcDbSymbolTableRecord
100
AcDbRegAppTableRecord
  2
AcadAnnotative
 70
     0
  0
APPID
  5
557
330
464
100
AcDbSymbolTableRecord
100
AcDbRegAppTableRecord
  2
ACAD_NAV_VCDISPLAY
 70
     0
  0
APPID
  5
590
330
464
100
AcDbSymbolTableRecord
100
AcDbRegAppTableRecord
  2
ACAD_MLEADERVER
 70
     0
  0
ENDTAB
  0
TABLE
  2
DIMSTYLE
  5
465
330
0
100
AcDbSymbolTable
 70
     3
100
AcDbDimStyleTable
 71
     0
  0
DIMSTYLE
105
4B2
330
465
100
AcDbSymbolTableRecord
100
AcDbDimStyleTableRecord
  2
STANDARD
 70
     0
  4
 
 41
3.0
 42
2.5
 43
10.0
 44
2.5
 46
1.25
 73
     0
 74
     0
140
3.0
141
-3.0
143
0.039
145
1.5
146
0.75
147
1.5
271
     2
272
     2
279
     2
340
4D0
  0
DIMSTYLE
105
4B3
330
465
100
AcDbSymbolTableRecord
100
AcDbDimStyleTableRecord
  2
Annotative
 70
     0
340
4B0
1001
AcadAnnotative
1000
AnnotativeData
1002
{
1070
     1
1070
     1
1002
}
  0
DIMSTYLE
105
4F7
330
465
100
AcDbSymbolTableRecord
100
AcDbDimStyleTableRecord
  2
SANDVIK_DIM
 70
     0
  4
 
 40
0.0
 41
4.57
 42
0.0
 44
5.0
 73
     0
 74
     0
 77
     1
 78
     8
140
4.5
147
2.299999999999999
176
   256
177
   256
178
   256
271
     2
272
     2
279
     2
340
4D0
  0
ENDTAB
  0
TABLE
  2
BLOCK_RECORD
  5
45C
330
0
100
AcDbSymbolTable
 70
     2
  0
BLOCK_RECORD
  5
4CB
330
45C
100
AcDbSymbolTableRecord
100
AcDbBlockTableRecord
  2
*Model_Space
340
4CE
  0
BLOCK_RECORD
  5
4C7
330
45C
100
AcDbSymbolTableRecord
100
AcDbBlockTableRecord
  2
*Paper_Space
340
4CA
  0
BLOCK_RECORD
  5
4FB
330
45C
100
AcDbSymbolTableRecord
100
AcDbBlockTableRecord
  2
*D0
340
0
102
{BLKREFS
331
3F9
102
}
  0
BLOCK_RECORD
  5
4FC
330
45C
100
AcDbSymbolTableRecord
100
AcDbBlockTableRecord
  2
*D1
340
0
102
{BLKREFS
331
3FB
102
}
  0
ENDTAB
  0
ENDSEC
  0
SECTION
  2
BLOCKS
  0
BLOCK
  5
4CC
330
4CB
100
AcDbEntity
  8
0
100
AcDbBlockBegin
  2
*Model_Space
 70
     0
 10
0.0
 20
0.0
 30
0.0
  3
*Model_Space
  1

  0
ENDBLK
  5
4CD
330
4CB
100
AcDbEntity
  8
0
100
AcDbBlockEnd
  0
BLOCK
  5
4C8
330
4C7
100
AcDbEntity
 67
     1
  8
0
100
AcDbBlockBegin
  2
*Paper_Space
 70
     0
 10
0.0
 20
0.0
 30
0.0
  3
*Paper_Space
  1

  0
ENDBLK
  5
4C9
330
4C7
100
AcDbEntity
 67
     1
  8
0
100
AcDbBlockEnd
  0
BLOCK
  5
2
330
4FB
100
AcDbEntity
  8
0
100
AcDbBlockBegin
  2
*D0
 70
     1
 10
0.0
 20
0.0
 30
0.0
  3
*D0
  1

  0
LINE
  5
3
330
4FB
100
AcDbEntity
  8
0
100
AcDbLine
 10
0.0
 20
12.0
 30
0.0
 11
0.0
 21
27.000002
 31
0.0
  0
LINE
  5
4
330
4FB
100
AcDbEntity
  8
0
100
AcDbLine
 10
15.5
 20
12.0
 30
0.0
 11
15.5
 21
27.000002
 31
0.0
  0
LINE
  5
5
330
4FB
100
AcDbEntity
  8
0
100
AcDbLine
 10
2.5
 20
26.000002
 30
0.0
 11
13.0
 21
26.000002
 31
0.0
  0
LINE
  5
6
330
4FB
100
AcDbEntity
  8
0
100
AcDbLine
 10
2.5
 20
26.416668
 30
0.0
 11
2.5
 21
25.583335
 31
0.0
  0
LINE
  5
7
330
4FB
100
AcDbEntity
  8
0
100
AcDbLine
 10
2.5
 20
25.583335
 30
0.0
 11
0.0
 21
26.000002
 31
0.0
  0
LINE
  5
8
330
4FB
100
AcDbEntity
  8
0
100
AcDbLine
 10
0.0
 20
26.000002
 30
0.0
 11
0.0
 21
26.000002
 31
0.0
  0
LINE
  5
9
330
4FB
100
AcDbEntity
  8
0
100
AcDbLine
 10
0.0
 20
26.000002
 30
0.0
 11
2.5
 21
26.416668
 31
0.0
  0
LINE
  5
A
330
4FB
100
AcDbEntity
  8
0
100
AcDbLine
 10
13.0
 20
26.416668
 30
0.0
 11
13.0
 21
25.583335
 31
0.0
  0
LINE
  5
B
330
4FB
100
AcDbEntity
  8
0
100
AcDbLine
 10
13.0
 20
25.583335
 30
0.0
 11
15.5
 21
26.000002
 31
0.0
  0
LINE
  5
C
330
4FB
100
AcDbEntity
  8
0
100
AcDbLine
 10
15.5
 20
26.000002
 30
0.0
 11
15.5
 21
26.000002
 31
0.0
  0
LINE
  5
D
330
4FB
100
AcDbEntity
  8
0
100
AcDbLine
 10
15.5
 20
26.000002
 30
0.0
 11
13.0
 21
26.416668
 31
0.0
  0
ENDBLK
  5
E
330
4FB
100
AcDbEntity
  8
0
100
AcDbBlockEnd
  0
BLOCK
  5
F
330
4FC
100
AcDbEntity
  8
0
100
AcDbBlockBegin
  2
*D1
 70
     1
 10
0.0
 20
0.0
 30
0.0
  3
*D1
  1

  0
LINE
  5
10
330
4FC
100
AcDbEntity
  8
0
100
AcDbLine
 10
16.5
 20
11.0
 30
0.0
 11
34.925889
 21
11.0
 31
0.0
  0
LINE
  5
11
330
4FC
100
AcDbEntity
  8
0
100
AcDbLine
 10
16.5
 20
-11.0
 30
0.0
 11
34.925889
 21
-11.0
 31
0.0
  0
LINE
  5
12
330
4FC
100
AcDbEntity
  8
0
100
AcDbLine
 10
33.925889
 20
8.5
 30
0.0
 11
33.925889
 21
-8.5
 31
0.0
  0
LINE
  5
13
330
4FC
100
AcDbEntity
  8
0
100
AcDbLine
 10
33.50922199999999
 20
8.5
 30
0.0
 11
34.342556
 21
8.5
 31
0.0
  0
LINE
  5
14
330
4FC
100
AcDbEntity
  8
0
100
AcDbLine
 10
34.342556
 20
8.5
 30
0.0
 11
33.925889
 21
11.0
 31
0.0
  0
LINE
  5
15
330
4FC
100
AcDbEntity
  8
0
100
AcDbLine
 10
33.925889
 20
11.0
 30
0.0
 11
33.925889
 21
11.0
 31
0.0
  0
LINE
  5
16
330
4FC
100
AcDbEntity
  8
0
100
AcDbLine
 10
33.925889
 20
11.0
 30
0.0
 11
33.50922199999999
 21
8.5
 31
0.0
  0
LINE
  5
17
330
4FC
100
AcDbEntity
  8
0
100
AcDbLine
 10
33.50922199999999
 20
-8.5
 30
0.0
 11
34.342556
 21
-8.5
 31
0.0
  0
LINE
  5
18
330
4FC
100
AcDbEntity
  8
0
100
AcDbLine
 10
34.342556
 20
-8.5
 30
0.0
 11
33.925889
 21
-11.0
 31
0.0
  0
LINE
  5
19
330
4FC
100
AcDbEntity
  8
0
100
AcDbLine
 10
33.925889
 20
-11.0
 30
0.0
 11
33.925889
 21
-11.0
 31
0.0
  0
LINE
  5
1A
330
4FC
100
AcDbEntity
  8
0
100
AcDbLine
 10
33.925889
 20
-11.0
 30
0.0
 11
33.50922199999999
 21
-8.5
 31
0.0
  0
ENDBLK
  5
1B
330
4FC
100
AcDbEntity
  8
0
100
AcDbBlockEnd
  0
ENDSEC
  0
SECTION
  2
ENTITIES
  0
LINE
  5
1C
330
4CB
100
AcDbEntity
  8
1
100
AcDbLine
 10
7.891547999999999
 20
6.892635
 30
0.0
 11
8.320154999999999
 21
7.043677999999999
 31
0.0
  0
LINE
  5
1D
330
4CB
100
AcDbEntity
  8
1
100
AcDbLine
 10
8.664089999999999
 20
10.835983
 30
0.0
 11
8.577347999999998
 21
10.83156
 31
0.0
  0
LINE
  5
1E
330
4CB
100
AcDbEntity
  8
1
100
AcDbLine
 10
8.577347999999998
 20
10.83156
 30
0.0
 11
8.490788999999999
 21
10.820188
 31
0.0
  0
LINE
  5
1F
330
4CB
100
AcDbEntity
  8
1
100
AcDbLine
 10
8.490788999999999
 20
10.820188
 30
0.0
 11
8.479799999999999
 21
10.818245
 31
0.0
  0
LINE
  5
20
330
4CB
100
AcDbEntity
  8
1
100
AcDbLine
 10
8.479799999999999
 20
10.818245
 30
0.0
 11
8.404411999999998
 21
10.801866
 31
0.0
  0
LINE
  5
21
330
4CB
100
AcDbEntity
  8
1
100
AcDbLine
 10
8.404411999999998
 20
10.801866
 30
0.0
 11
8.318158999999999
 21
10.776569
 31
0.0
  0
LINE
  5
22
330
4CB
100
AcDbEntity
  8
1
100
AcDbLine
 10
8.318158999999999
 20
10.776569
 30
0.0
 11
8.232089
 21
10.744321
 31
0.0
  0
LINE
  5
23
330
4CB
100
AcDbEntity
  8
1
100
AcDbLine
 10
8.232089
 20
10.744321
 30
0.0
 11
8.146375
 21
10.705198
 31
0.0
  0
LINE
  5
24
330
4CB
100
AcDbEntity
  8
1
100
AcDbLine
 10
8.146375
 20
10.705198
 30
0.0
 11
8.061075999999999
 21
10.659225
 31
0.0
  0
LINE
  5
25
330
4CB
100
AcDbEntity
  8
1
100
AcDbLine
 10
8.061075999999999
 20
10.659225
 30
0.0
 11
7.976134
 21
10.606375
 31
0.0
  0
LINE
  5
26
330
4CB
100
AcDbEntity
  8
1
100
AcDbLine
 10
7.976134
 20
10.606375
 30
0.0
 11
7.891547999999999
 21
10.54665
 31
0.0
  0
LINE
  5
27
330
4CB
100
AcDbEntity
  8
1
100
AcDbLine
 10
15.5
 20
5.223437999999999
 30
0.0
 11
15.5
 21
10.020601
 31
0.0
  0
LINE
  5
28
330
4CB
100
AcDbEntity
  8
1
100
AcDbLine
 10
15.5
 20
10.020601
 30
0.0
 11
15.5
 21
10.191711
 31
0.0
  0
LINE
  5
29
330
4CB
100
AcDbEntity
  8
1
100
AcDbLine
 10
13.6
 20
9.779878
 30
0.0
 11
13.6
 21
8.330688999999999
 31
0.0
  0
LINE
  5
2A
330
4CB
100
AcDbEntity
  8
1
100
AcDbLine
 10
15.0
 20
9.265093999999999
 30
0.0
 11
14.854813
 21
9.320661999999998
 31
0.0
  0
LINE
  5
2B
330
4CB
100
AcDbEntity
  8
1
100
AcDbLine
 10
14.854813
 20
9.320661999999998
 30
0.0
 11
14.707072
 21
9.376628999999999
 31
0.0
  0
LINE
  5
2C
330
4CB
100
AcDbEntity
  8
1
100
AcDbLine
 10
14.707072
 20
9.376628999999999
 30
0.0
 11
14.556777
 21
9.432992
 31
0.0
  0
LINE
  5
2D
330
4CB
100
AcDbEntity
  8
1
100
AcDbLine
 10
14.556777
 20
9.432992
 30
0.0
 11
14.403981
 21
9.489741999999999
 31
0.0
  0
LINE
  5
2E
330
4CB
100
AcDbEntity
  8
1
100
AcDbLine
 10
14.403981
 20
9.489741999999999
 30
0.0
 11
14.248631
 21
9.546889
 31
0.0
  0
LINE
  5
2F
330
4CB
100
AcDbEntity
  8
1
100
AcDbLine
 10
14.248631
 20
9.546889
 30
0.0
 11
14.090573
 21
9.604471999999999
 31
0.0
  0
LINE
  5
30
330
4CB
100
AcDbEntity
  8
1
100
AcDbLine
 10
8.784656
 20
-7.397758
 30
0.0
 11
8.758372999999998
 21
-7.424524
 31
0.0
  0
LINE
  5
31
330
4CB
100
AcDbEntity
  8
1
100
AcDbLine
 10
14.090573
 20
9.604471999999999
 30
0.0
 11
13.929757
 21
9.662504999999999
 31
0.0
  0
LINE
  5
32
330
4CB
100
AcDbEntity
  8
1
100
AcDbLine
 10
13.929757
 20
9.662504999999999
 30
0.0
 11
13.766232
 21
9.720972999999998
 31
0.0
  0
LINE
  5
33
330
4CB
100
AcDbEntity
  8
1
100
AcDbLine
 10
13.766232
 20
9.720972999999998
 30
0.0
 11
13.6
 21
9.779878
 31
0.0
  0
LINE
  5
34
330
4CB
100
AcDbEntity
  8
1
100
AcDbLine
 10
13.997261
 20
6.792888
 30
0.0
 11
13.945349
 21
6.976719999999999
 31
0.0
  0
LINE
  5
35
330
4CB
100
AcDbEntity
  8
1
100
AcDbLine
 10
13.945349
 20
6.976719999999999
 30
0.0
 11
13.895257
 21
7.157306
 31
0.0
  0
LINE
  5
36
330
4CB
100
AcDbEntity
  8
1
100
AcDbLine
 10
13.895257
 20
7.157306
 30
0.0
 11
13.846986
 21
7.334649
 31
0.0
  0
LINE
  5
37
330
4CB
100
AcDbEntity
  8
1
100
AcDbLine
 10
13.846986
 20
7.334649
 30
0.0
 11
13.800542
 21
7.508744
 31
0.0
  0
LINE
  5
38
330
4CB
100
AcDbEntity
  8
1
100
AcDbLine
 10
13.800542
 20
7.508744
 30
0.0
 11
13.755918
 21
7.679594999999999
 31
0.0
  0
LINE
  5
39
330
4CB
100
AcDbEntity
  8
1
100
AcDbLine
 10
13.755918
 20
7.679594999999999
 30
0.0
 11
13.713092
 21
7.847214
 31
0.0
  0
LINE
  5
3A
330
4CB
100
AcDbEntity
  8
1
100
AcDbLine
 10
6.404087
 20
-7.797625
 30
0.0
 11
6.366520999999999
 21
-7.775885999999999
 31
0.0
  0
LINE
  5
3B
330
4CB
100
AcDbEntity
  8
1
100
AcDbLine
 10
13.713092
 20
7.847214
 30
0.0
 11
13.672058
 21
8.011604999999999
 31
0.0
  0
LINE
  5
3C
330
4CB
100
AcDbEntity
  8
1
100
AcDbLine
 10
13.672058
 20
8.011604999999999
 30
0.0
 11
13.632823
 21
8.172762999999999
 31
0.0
  0
LINE
  5
3D
330
4CB
100
AcDbEntity
  8
1
100
AcDbLine
 10
13.632823
 20
8.172762999999999
 30
0.0
 11
13.595385
 21
8.330688999999999
 31
0.0
  0
LINE
  5
3E
330
4CB
100
AcDbEntity
  8
1
100
AcDbLine
 10
15.0
 20
9.265093999999999
 30
0.0
 11
15.0
 21
8.279747999999999
 31
0.0
  0
LINE
  5
3F
330
4CB
100
AcDbEntity
  8
1
100
AcDbLine
 10
13.997407
 20
6.792882999999999
 30
0.0
 11
14.014679
 21
6.751574999999999
 31
0.0
  0
LINE
  5
40
330
4CB
100
AcDbEntity
  8
1
100
AcDbLine
 10
14.014679
 20
6.751574999999999
 30
0.0
 11
14.032513
 21
6.709933
 31
0.0
  0
LINE
  5
41
330
4CB
100
AcDbEntity
  8
1
100
AcDbLine
 10
8.789989
 20
-6.240065
 30
0.0
 11
8.796476
 21
-6.25684
 31
0.0
  0
LINE
  5
42
330
4CB
100
AcDbEntity
  8
1
100
AcDbLine
 10
14.032513
 20
6.709933
 30
0.0
 11
14.050909
 21
6.667958
 31
0.0
  0
LINE
  5
43
330
4CB
100
AcDbEntity
  8
1
100
AcDbLine
 10
14.050909
 20
6.667958
 30
0.0
 11
14.069866
 21
6.625650999999999
 31
0.0
  0
LINE
  5
44
330
4CB
100
AcDbEntity
  8
1
100
AcDbLine
 10
14.069866
 20
6.625650999999999
 30
0.0
 11
14.089386
 21
6.58301
 31
0.0
  0
LINE
  5
45
330
4CB
100
AcDbEntity
  8
1
100
AcDbLine
 10
8.394391999999999
 20
-5.990808
 30
0.0
 11
8.426364999999998
 21
-5.996887999999999
 31
0.0
  0
LINE
  5
46
330
4CB
100
AcDbEntity
  8
1
100
AcDbLine
 10
14.089386
 20
6.58301
 30
0.0
 11
14.109467
 21
6.540035999999999
 31
0.0
  0
LINE
  5
47
330
4CB
100
AcDbEntity
  8
1
100
AcDbLine
 10
15.5
 20
4.025030999999999
 30
0.0
 11
15.0
 21
4.343804
 31
0.0
  0
LINE
  5
48
330
4CB
100
AcDbEntity
  8
1
100
AcDbLine
 10
15.5
 20
8.261614999999999
 30
0.0
 11
13.595385
 21
8.330688999999999
 31
0.0
  0
LINE
  5
49
330
4CB
100
AcDbEntity
  8
1
100
AcDbLine
 10
13.997261
 20
6.792888
 30
0.0
 11
15.5
 21
6.738388
 31
0.0
  0
LINE
  5
4A
330
4CB
100
AcDbEntity
  8
1
100
AcDbLine
 10
15.5
 20
6.489605
 30
0.0
 11
14.109467
 21
6.540035999999999
 31
0.0
  0
LINE
  5
4B
330
4CB
100
AcDbEntity
  8
1
100
AcDbLine
 10
7.178863
 20
1.45962
 30
0.0
 11
7.240049
 21
1.473335999999999
 31
0.0
  0
LINE
  5
4C
330
4CB
100
AcDbEntity
  8
1
100
AcDbLine
 10
14.1
 20
11.000002
 30
0.0
 11
15.5
 21
10.191711
 31
0.0
  0
LINE
  5
4D
330
4CB
100
AcDbEntity
  8
1
100
AcDbLine
 10
15.5
 20
10.191711
 30
0.0
 11
14.1
 21
11.000002
 31
0.0
  0
LINE
  5
4E
330
4CB
100
AcDbEntity
  8
1
100
AcDbLine
 10
9.476421999999999
 20
11.000002
 30
0.0
 11
14.002002
 21
11.000002
 31
0.0
  0
LINE
  5
4F
330
4CB
100
AcDbEntity
  8
1
100
AcDbLine
 10
14.002002
 20
11.000002
 30
0.0
 11
14.1
 21
11.000002
 31
0.0
  0
LINE
  5
50
330
4CB
100
AcDbEntity
  8
1
100
AcDbLine
 10
9.477762
 20
-11.000002
 30
0.0
 11
14.002002
 21
-11.000002
 31
0.0
  0
LINE
  5
51
330
4CB
100
AcDbEntity
  8
1
100
AcDbLine
 10
8.664089999999999
 20
10.835983
 30
0.0
 11
9.476421999999999
 21
11.000002
 31
0.0
  0
LINE
  5
52
330
4CB
100
AcDbEntity
  8
1
100
AcDbLine
 10
13.595385
 20
-10.107273
 30
0.0
 11
14.002002
 21
-11.000002
 31
0.0
  0
LINE
  5
53
330
4CB
100
AcDbEntity
  8
SK4
100
AcDbLine
 10
17.311613
 20
0.0
 30
0.0
 11
-13.087011
 21
0.0
 31
0.0
  0
LINE
  5
54
330
4CB
100
AcDbEntity
  8
SK1
100
AcDbLine
 10
-9.349999999999999
 20
6.356748999999999
 30
0.0
 11
-9.349999999999999
 21
-6.356748999999999
 31
0.0
  0
LINE
  5
55
330
4CB
100
AcDbEntity
  8
SK1
100
AcDbLine
 10
-12.35
 20
5.856748999999999
 30
0.0
 11
-12.35
 21
-5.856748999999999
 31
0.0
  0
LINE
  5
56
330
4CB
100
AcDbEntity
  8
SK1
100
AcDbLine
 10
-9.349999999999999
 20
-6.356748999999999
 30
0.0
 11
0.0
 21
-7.174174
 31
0.0
  0
LINE
  5
57
330
4CB
100
AcDbEntity
  8
SK1
100
AcDbLine
 10
-12.35
 20
-5.856748999999999
 30
0.0
 11
-9.349999999999999
 21
-5.856748999999999
 31
0.0
  0
LINE
  5
58
330
4CB
100
AcDbEntity
  8
SK1
100
AcDbLine
 10
-9.349999999999999
 20
6.356748999999999
 30
0.0
 11
0.0
 21
7.174174
 31
0.0
  0
LINE
  5
59
330
4CB
100
AcDbEntity
  8
80
100
AcDbLine
 10
0.0
 20
0.0
 30
0.0
 11
-11.35
 21
0.0
 31
0.0
  0
LINE
  5
5A
330
4CB
100
AcDbEntity
  8
1
100
AcDbLine
 10
7.882255
 20
-7.911096999999999
 30
0.0
 11
7.829869999999999
 21
-7.925631
 31
0.0
  0
LINE
  5
5B
330
4CB
100
AcDbEntity
  8
1
100
AcDbLine
 10
8.518436999999998
 20
-7.618308999999999
 30
0.0
 11
8.475728999999999
 21
-7.646172999999999
 31
0.0
  0
LINE
  5
5C
330
4CB
100
AcDbEntity
  8
1
100
AcDbLine
 10
8.043172999999999
 20
9.263294
 30
0.0
 11
7.893464999999999
 21
9.263542999999998
 31
0.0
  0
LINE
  5
5D
330
4CB
100
AcDbEntity
  8
1
100
AcDbLine
 10
4.181117999999999
 20
-8.273682
 30
0.0
 11
4.054739999999999
 21
-8.134333999999999
 31
0.0
  0
LINE
  5
5E
330
4CB
100
AcDbEntity
  8
1
100
AcDbLine
 10
4.054739999999999
 20
-8.134333999999999
 30
0.0
 11
3.931264
 21
-7.989414999999999
 31
0.0
  0
LINE
  5
5F
330
4CB
100
AcDbEntity
  8
1
100
AcDbLine
 10
3.931264
 20
-7.989414999999999
 30
0.0
 11
3.81081
 21
-7.838921
 31
0.0
  0
LINE
  5
60
330
4CB
100
AcDbEntity
  8
1
100
AcDbLine
 10
3.81081
 20
-7.838921
 30
0.0
 11
3.693257
 21
-7.682694999999999
 31
0.0
  0
LINE
  5
61
330
4CB
100
AcDbEntity
  8
1
100
AcDbLine
 10
3.693257
 20
-7.682694999999999
 30
0.0
 11
3.578751
 21
-7.521366
 31
0.0
  0
LINE
  5
62
330
4CB
100
AcDbEntity
  8
1
100
AcDbLine
 10
3.578751
 20
-7.521366
 30
0.0
 11
3.467299999999999
 21
-7.354911999999999
 31
0.0
  0
LINE
  5
63
330
4CB
100
AcDbEntity
  8
1
100
AcDbLine
 10
3.467299999999999
 20
-7.354911999999999
 30
0.0
 11
3.358896
 21
-7.183314999999999
 31
0.0
  0
LINE
  5
64
330
4CB
100
AcDbEntity
  8
1
100
AcDbLine
 10
3.358896
 20
-7.183314999999999
 30
0.0
 11
3.253652
 21
-7.007321000000001
 31
0.0
  0
LINE
  5
65
330
4CB
100
AcDbEntity
  8
1
100
AcDbLine
 10
3.253652
 20
-7.007321000000001
 30
0.0
 11
3.151613
 21
-6.827078
 31
0.0
  0
LINE
  5
66
330
4CB
100
AcDbEntity
  8
1
100
AcDbLine
 10
3.151613
 20
-6.827078
 30
0.0
 11
3.052734999999999
 21
-6.642522999999999
 31
0.0
  0
LINE
  5
67
330
4CB
100
AcDbEntity
  8
1
100
AcDbLine
 10
3.052734999999999
 20
-6.642522999999999
 30
0.0
 11
2.956995999999999
 21
-6.454162999999999
 31
0.0
  0
LINE
  5
68
330
4CB
100
AcDbEntity
  8
1
100
AcDbLine
 10
2.956995999999999
 20
-6.454162999999999
 30
0.0
 11
2.864338999999999
 21
-6.262016
 31
0.0
  0
LINE
  5
69
330
4CB
100
AcDbEntity
  8
1
100
AcDbLine
 10
2.864338999999999
 20
-6.262016
 30
0.0
 11
2.774820999999999
 21
-6.066215
 31
0.0
  0
LINE
  5
6A
330
4CB
100
AcDbEntity
  8
1
100
AcDbLine
 10
2.774820999999999
 20
-6.066215
 30
0.0
 11
2.68859
 21
-5.867497
 31
0.0
  0
LINE
  5
6B
330
4CB
100
AcDbEntity
  8
1
100
AcDbLine
 10
2.68859
 20
-5.867497
 30
0.0
 11
2.605693999999999
 21
-5.666196
 31
0.0
  0
LINE
  5
6C
330
4CB
100
AcDbEntity
  8
1
100
AcDbLine
 10
2.605693999999999
 20
-5.666196
 30
0.0
 11
2.526083999999999
 21
-5.462208999999999
 31
0.0
  0
LINE
  5
6D
330
4CB
100
AcDbEntity
  8
1
100
AcDbLine
 10
2.526083999999999
 20
-5.462208999999999
 30
0.0
 11
2.449761
 21
-5.255653999999999
 31
0.0
  0
LINE
  5
6E
330
4CB
100
AcDbEntity
  8
1
100
AcDbLine
 10
8.535833
 20
-10.379276
 30
0.0
 11
7.786382999999999
 21
-10.426695
 31
0.0
  0
LINE
  5
6F
330
4CB
100
AcDbEntity
  8
1
100
AcDbLine
 10
7.786382999999999
 20
-10.426695
 30
0.0
 11
7.032944
 21
-10.468038
 31
0.0
  0
LINE
  5
70
330
4CB
100
AcDbEntity
  8
1
100
AcDbLine
 10
7.032944
 20
-10.468038
 30
0.0
 11
6.275476999999999
 21
-10.503278
 31
0.0
  0
LINE
  5
71
330
4CB
100
AcDbEntity
  8
1
100
AcDbLine
 10
8.758372999999998
 20
-7.424524
 30
0.0
 11
8.730210000000001
 21
-7.451600999999999
 31
0.0
  0
LINE
  5
72
330
4CB
100
AcDbEntity
  8
1
100
AcDbLine
 10
6.275476999999999
 20
-10.503278
 30
0.0
 11
5.514019999999999
 21
-10.532441
 31
0.0
  0
LINE
  5
73
330
4CB
100
AcDbEntity
  8
1
100
AcDbLine
 10
5.514019999999999
 20
-10.532441
 30
0.0
 11
4.750524999999999
 21
-10.555386
 31
0.0
  0
LINE
  5
74
330
4CB
100
AcDbEntity
  8
1
100
AcDbLine
 10
4.750524999999999
 20
-10.555386
 30
0.0
 11
3.985641999999999
 21
-10.572064
 31
0.0
  0
LINE
  5
75
330
4CB
100
AcDbEntity
  8
1
100
AcDbLine
 10
3.985641999999999
 20
-10.572064
 30
0.0
 11
3.218720999999999
 21
-10.582524
 31
0.0
  0
LINE
  5
76
330
4CB
100
AcDbEntity
  8
1
100
AcDbLine
 10
3.218720999999999
 20
-10.582524
 30
0.0
 11
2.449761
 21
-10.586766
 31
0.0
  0
LINE
  5
77
330
4CB
100
AcDbEntity
  8
1
100
AcDbLine
 10
2.463413
 20
-10.586856
 30
0.0
 11
2.449761
 21
-10.586766
 31
0.0
  0
LINE
  5
78
330
4CB
100
AcDbEntity
  8
1
100
AcDbLine
 10
0.0
 20
-10.586856
 30
0.0
 11
2.463413
 21
-10.586856
 31
0.0
  0
LINE
  5
79
330
4CB
100
AcDbEntity
  8
1
100
AcDbLine
 10
2.469022999999999
 20
-10.58666
 30
0.0
 11
2.463413
 21
-10.586856
 31
0.0
  0
LINE
  5
7A
330
4CB
100
AcDbEntity
  8
1
100
AcDbLine
 10
15.5
 20
-10.020601
 30
0.0
 11
15.5
 21
-4.921578
 31
0.0
  0
LINE
  5
7B
330
4CB
100
AcDbEntity
  8
1
100
AcDbLine
 10
15.0
 20
-8.774572
 30
0.0
 11
15.0
 21
-3.839765
 31
0.0
  0
LINE
  5
7C
330
4CB
100
AcDbEntity
  8
1
100
AcDbLine
 10
15.0
 20
-7.267825
 30
0.0
 11
14.854812
 21
-7.388405999999999
 31
0.0
  0
LINE
  5
7D
330
4CB
100
AcDbEntity
  8
1
100
AcDbLine
 10
14.854812
 20
-7.388405999999999
 30
0.0
 11
14.707072
 21
-7.510291
 31
0.0
  0
LINE
  5
7E
330
4CB
100
AcDbEntity
  8
1
100
AcDbLine
 10
14.707072
 20
-7.510291
 30
0.0
 11
14.556777
 21
-7.633478
 31
0.0
  0
LINE
  5
7F
330
4CB
100
AcDbEntity
  8
1
100
AcDbLine
 10
14.556777
 20
-7.633478
 30
0.0
 11
14.403981
 21
-7.757936999999999
 31
0.0
  0
LINE
  5
80
330
4CB
100
AcDbEntity
  8
1
100
AcDbLine
 10
14.403981
 20
-7.757936999999999
 30
0.0
 11
14.248631
 21
-7.883697999999999
 31
0.0
  0
LINE
  5
81
330
4CB
100
AcDbEntity
  8
1
100
AcDbLine
 10
14.248631
 20
-7.883697999999999
 30
0.0
 11
14.090573
 21
-8.010861999999999
 31
0.0
  0
LINE
  5
82
330
4CB
100
AcDbEntity
  8
1
100
AcDbLine
 10
14.090573
 20
-8.010861999999999
 30
0.0
 11
13.929757
 21
-8.139461
 31
0.0
  0
LINE
  5
83
330
4CB
100
AcDbEntity
  8
1
100
AcDbLine
 10
13.929757
 20
-8.139461
 30
0.0
 11
13.766232
 21
-8.269463
 31
0.0
  0
LINE
  5
84
330
4CB
100
AcDbEntity
  8
1
100
AcDbLine
 10
13.766232
 20
-8.269463
 30
0.0
 11
13.6
 21
-8.400867999999999
 31
0.0
  0
LINE
  5
85
330
4CB
100
AcDbEntity
  8
1
100
AcDbLine
 10
6.229841
 20
-7.681153
 30
0.0
 11
6.116731999999999
 21
-7.748025
 31
0.0
  0
LINE
  5
86
330
4CB
100
AcDbEntity
  8
1
100
AcDbLine
 10
6.116731999999999
 20
-7.748025
 30
0.0
 11
6.005071
 21
-7.815857
 31
0.0
  0
LINE
  5
87
330
4CB
100
AcDbEntity
  8
1
100
AcDbLine
 10
6.005071
 20
-7.815857
 30
0.0
 11
5.894913999999999
 21
-7.884616999999999
 31
0.0
  0
LINE
  5
88
330
4CB
100
AcDbEntity
  8
1
100
AcDbLine
 10
5.894913999999999
 20
-7.884616999999999
 30
0.0
 11
5.786319
 21
-7.954269999999999
 31
0.0
  0
LINE
  5
89
330
4CB
100
AcDbEntity
  8
1
100
AcDbLine
 10
5.786319
 20
-7.954269999999999
 30
0.0
 11
5.679339999999999
 21
-8.024777999999999
 31
0.0
  0
LINE
  5
8A
330
4CB
100
AcDbEntity
  8
1
100
AcDbLine
 10
5.679339999999999
 20
-8.024777999999999
 30
0.0
 11
5.574033999999999
 21
-8.096106999999999
 31
0.0
  0
LINE
  5
8B
330
4CB
100
AcDbEntity
  8
1
100
AcDbLine
 10
5.574033999999999
 20
-8.096106999999999
 30
0.0
 11
5.470454
 21
-8.168217999999999
 31
0.0
  0
LINE
  5
8C
330
4CB
100
AcDbEntity
  8
1
100
AcDbLine
 10
5.470454
 20
-8.168217999999999
 30
0.0
 11
5.368651999999999
 21
-8.241075
 31
0.0
  0
LINE
  5
8D
330
4CB
100
AcDbEntity
  8
1
100
AcDbLine
 10
5.368651999999999
 20
-8.241075
 30
0.0
 11
5.268682
 21
-8.314641999999999
 31
0.0
  0
LINE
  5
8E
330
4CB
100
AcDbEntity
  8
1
100
AcDbLine
 10
5.268682
 20
-8.314641999999999
 30
0.0
 11
5.170594999999999
 21
-8.38888
 31
0.0
  0
LINE
  5
8F
330
4CB
100
AcDbEntity
  8
1
100
AcDbLine
 10
5.170594999999999
 20
-8.38888
 30
0.0
 11
5.07444
 21
-8.463751
 31
0.0
  0
LINE
  5
90
330
4CB
100
AcDbEntity
  8
1
100
AcDbLine
 10
5.07444
 20
-8.463751
 30
0.0
 11
4.980267999999999
 21
-8.539216999999998
 31
0.0
  0
LINE
  5
91
330
4CB
100
AcDbEntity
  8
1
100
AcDbLine
 10
4.888126999999999
 20
-8.615237999999999
 30
0.0
 11
4.798064
 21
-8.691777
 31
0.0
  0
LINE
  5
92
330
4CB
100
AcDbEntity
  8
1
100
AcDbLine
 10
4.798064
 20
-8.691777
 30
0.0
 11
4.710124999999999
 21
-8.768791999999999
 31
0.0
  0
LINE
  5
93
330
4CB
100
AcDbEntity
  8
1
100
AcDbLine
 10
8.320154999999999
 20
-10.599599
 30
0.0
 11
8.924349000000001
 21
-10.559455
 31
0.0
  0
LINE
  5
94
330
4CB
100
AcDbEntity
  8
1
100
AcDbLine
 10
8.924349000000001
 20
-10.559455
 30
0.0
 11
9.524044999999999
 21
-10.515647
 31
0.0
  0
LINE
  5
95
330
4CB
100
AcDbEntity
  8
1
100
AcDbLine
 10
9.524044999999999
 20
-10.515647
 30
0.0
 11
10.119243
 21
-10.468176
 31
0.0
  0
LINE
  5
96
330
4CB
100
AcDbEntity
  8
1
100
AcDbLine
 10
10.119243
 20
-10.468176
 30
0.0
 11
10.709967
 21
-10.417009
 31
0.0
  0
LINE
  5
97
330
4CB
100
AcDbEntity
  8
1
100
AcDbLine
 10
10.709967
 20
-10.417009
 30
0.0
 11
11.296193
 21
-10.362178
 31
0.0
  0
LINE
  5
98
330
4CB
100
AcDbEntity
  8
1
100
AcDbLine
 10
11.296193
 20
-10.362178
 30
0.0
 11
11.877854
 21
-10.303779
 31
0.0
  0
LINE
  5
99
330
4CB
100
AcDbEntity
  8
1
100
AcDbLine
 10
11.877854
 20
-10.303779
 30
0.0
 11
12.454929
 21
-10.241845
 31
0.0
  0
LINE
  5
9A
330
4CB
100
AcDbEntity
  8
1
100
AcDbLine
 10
12.454929
 20
-10.241845
 30
0.0
 11
13.027439
 21
-10.176343
 31
0.0
  0
LINE
  5
9B
330
4CB
100
AcDbEntity
  8
1
100
AcDbLine
 10
13.027439
 20
-10.176343
 30
0.0
 11
13.595385
 21
-10.107273
 31
0.0
  0
LINE
  5
9C
330
4CB
100
AcDbEntity
  8
1
100
AcDbLine
 10
13.6
 20
-9.886911999999998
 30
0.0
 11
12.898732
 21
-9.973933
 31
0.0
  0
LINE
  5
9D
330
4CB
100
AcDbEntity
  8
1
100
AcDbLine
 10
12.898732
 20
-9.973933
 30
0.0
 11
12.189935
 21
-10.055419
 31
0.0
  0
LINE
  5
9E
330
4CB
100
AcDbEntity
  8
1
100
AcDbLine
 10
8.120606
 20
-7.828261
 30
0.0
 11
8.063447999999999
 21
-7.850705
 31
0.0
  0
LINE
  5
9F
330
4CB
100
AcDbEntity
  8
1
100
AcDbLine
 10
12.189935
 20
-10.055419
 30
0.0
 11
11.47361
 21
-10.131369
 31
0.0
  0
LINE
  5
A0
330
4CB
100
AcDbEntity
  8
1
100
AcDbLine
 10
11.47361
 20
-10.131369
 30
0.0
 11
10.749187
 21
-10.201888
 31
0.0
  0
LINE
  5
A1
330
4CB
100
AcDbEntity
  8
1
100
AcDbLine
 10
10.749187
 20
-10.201888
 30
0.0
 11
10.017235
 21
-10.266873
 31
0.0
  0
LINE
  5
A2
330
4CB
100
AcDbEntity
  8
1
100
AcDbLine
 10
8.905886999999999
 20
-7.245163
 30
0.0
 11
8.889628
 21
-7.269685
 31
0.0
  0
LINE
  5
A3
330
4CB
100
AcDbEntity
  8
1
100
AcDbLine
 10
10.017235
 20
-10.266873
 30
0.0
 11
9.279464
 21
-10.32601
 31
0.0
  0
LINE
  5
A4
330
4CB
100
AcDbEntity
  8
1
100
AcDbLine
 10
9.279464
 20
-10.32601
 30
0.0
 11
8.535833
 21
-10.379276
 31
0.0
  0
LINE
  5
A5
330
4CB
100
AcDbEntity
  8
1
100
AcDbLine
 10
13.6
 20
-8.400867999999999
 30
0.0
 11
13.154893
 21
-8.468778999999999
 31
0.0
  0
LINE
  5
A6
330
4CB
100
AcDbEntity
  8
1
100
AcDbLine
 10
13.154893
 20
-8.468778999999999
 30
0.0
 11
12.706905
 21
-8.535846000000001
 31
0.0
  0
LINE
  5
A7
330
4CB
100
AcDbEntity
  8
1
100
AcDbLine
 10
12.706905
 20
-8.535846000000001
 30
0.0
 11
12.256033
 21
-8.602069
 31
0.0
  0
LINE
  5
A8
330
4CB
100
AcDbEntity
  8
1
100
AcDbLine
 10
12.256033
 20
-8.602069
 30
0.0
 11
11.802211
 21
-8.667464999999999
 31
0.0
  0
LINE
  5
A9
330
4CB
100
AcDbEntity
  8
1
100
AcDbLine
 10
11.802211
 20
-8.667464999999999
 30
0.0
 11
11.345507
 21
-8.732016999999999
 31
0.0
  0
LINE
  5
AA
330
4CB
100
AcDbEntity
  8
1
100
AcDbLine
 10
11.345507
 20
-8.732016999999999
 30
0.0
 11
10.886124
 21
-8.795674999999999
 31
0.0
  0
LINE
  5
AB
330
4CB
100
AcDbEntity
  8
1
100
AcDbLine
 10
10.886124
 20
-8.795674999999999
 30
0.0
 11
10.424133
 21
-8.858419999999998
 31
0.0
  0
LINE
  5
AC
330
4CB
100
AcDbEntity
  8
1
100
AcDbLine
 10
10.424133
 20
-8.858419999999998
 30
0.0
 11
9.959464
 21
-8.920269000000001
 31
0.0
  0
LINE
  5
AD
330
4CB
100
AcDbEntity
  8
1
100
AcDbLine
 10
9.959464
 20
-8.920269000000001
 30
0.0
 11
9.492117
 21
-8.981224
 31
0.0
  0
LINE
  5
AE
330
4CB
100
AcDbEntity
  8
1
100
AcDbLine
 10
9.492117
 20
-8.981224
 30
0.0
 11
9.350941999999999
 21
-8.998319999999999
 31
0.0
  0
LINE
  5
AF
330
4CB
100
AcDbEntity
  8
1
100
AcDbLine
 10
9.350941999999999
 20
-8.998319999999999
 30
0.0
 11
9.208956999999999
 21
-9.013517999999999
 31
0.0
  0
LINE
  5
B0
330
4CB
100
AcDbEntity
  8
1
100
AcDbLine
 10
9.208956999999999
 20
-9.013517999999999
 30
0.0
 11
9.066163000000001
 21
-9.026839
 31
0.0
  0
LINE
  5
B1
330
4CB
100
AcDbEntity
  8
1
100
AcDbLine
 10
9.066163000000001
 20
-9.026839
 30
0.0
 11
8.922577999999999
 21
-9.038269999999998
 31
0.0
  0
LINE
  5
B2
330
4CB
100
AcDbEntity
  8
1
100
AcDbLine
 10
8.922577999999999
 20
-9.038269999999998
 30
0.0
 11
8.778183999999999
 21
-9.047864999999999
 31
0.0
  0
LINE
  5
B3
330
4CB
100
AcDbEntity
  8
1
100
AcDbLine
 10
8.778183999999999
 20
-9.047864999999999
 30
0.0
 11
8.632927
 21
-9.055747
 31
0.0
  0
LINE
  5
B4
330
4CB
100
AcDbEntity
  8
1
100
AcDbLine
 10
8.632927
 20
-9.055747
 30
0.0
 11
8.486819
 21
-9.06193
 31
0.0
  0
LINE
  5
B5
330
4CB
100
AcDbEntity
  8
1
100
AcDbLine
 10
6.274421
 20
-4.102345999999999
 30
0.0
 11
5.512863999999999
 21
-4.33826
 31
0.0
  0
LINE
  5
B6
330
4CB
100
AcDbEntity
  8
1
100
AcDbLine
 10
8.486819
 20
-9.06193
 30
0.0
 11
8.33985
 21
-9.066421
 31
0.0
  0
LINE
  5
B7
330
4CB
100
AcDbEntity
  8
1
100
AcDbLine
 10
8.33985
 20
-9.066421
 30
0.0
 11
8.191932000000001
 21
-9.069321
 31
0.0
  0
LINE
  5
B8
330
4CB
100
AcDbEntity
  8
1
100
AcDbLine
 10
8.059997
 20
1.546842
 30
0.0
 11
8.102318999999999
 21
1.544811
 31
0.0
  0
LINE
  5
B9
330
4CB
100
AcDbEntity
  8
1
100
AcDbLine
 10
8.191932000000001
 20
-9.069321
 30
0.0
 11
8.043172999999999
 21
-9.070641999999999
 31
0.0
  0
LINE
  5
BA
330
4CB
100
AcDbEntity
  8
1
100
AcDbLine
 10
8.043172999999999
 20
-9.070641999999999
 30
0.0
 11
7.893464999999999
 21
-9.070375999999999
 31
0.0
  0
LINE
  5
BB
330
4CB
100
AcDbEntity
  8
1
100
AcDbLine
 10
7.893464999999999
 20
-9.070375999999999
 30
0.0
 11
7.742407
 21
-9.068589999999998
 31
0.0
  0
LINE
  5
BC
330
4CB
100
AcDbEntity
  8
1
100
AcDbLine
 10
7.742407
 20
-9.068589999999998
 30
0.0
 11
7.589955
 21
-9.065292999999998
 31
0.0
  0
LINE
  5
BD
330
4CB
100
AcDbEntity
  8
1
100
AcDbLine
 10
7.589955
 20
-9.065292999999998
 30
0.0
 11
7.436153
 21
-9.060468999999999
 31
0.0
  0
LINE
  5
BE
330
4CB
100
AcDbEntity
  8
1
100
AcDbLine
 10
7.436153
 20
-9.060468999999999
 30
0.0
 11
7.280732
 21
-9.054140999999999
 31
0.0
  0
LINE
  5
BF
330
4CB
100
AcDbEntity
  8
1
100
AcDbLine
 10
7.280732
 20
-9.054140999999999
 30
0.0
 11
7.123663
 21
-9.046305
 31
0.0
  0
LINE
  5
C0
330
4CB
100
AcDbEntity
  8
1
100
AcDbLine
 10
7.123663
 20
-9.046305
 30
0.0
 11
6.964974
 21
-9.036946
 31
0.0
  0
LINE
  5
C1
330
4CB
100
AcDbEntity
  8
1
100
AcDbLine
 10
6.964974
 20
-9.036946
 30
0.0
 11
6.804486999999999
 21
-9.026070999999999
 31
0.0
  0
LINE
  5
C2
330
4CB
100
AcDbEntity
  8
1
100
AcDbLine
 10
6.804486999999999
 20
-9.026070999999999
 30
0.0
 11
6.642225999999999
 21
-9.013669999999999
 31
0.0
  0
LINE
  5
C3
330
4CB
100
AcDbEntity
  8
1
100
AcDbLine
 10
6.642225999999999
 20
-9.013669999999999
 30
0.0
 11
6.478166
 21
-8.999719999999999
 31
0.0
  0
LINE
  5
C4
330
4CB
100
AcDbEntity
  8
1
100
AcDbLine
 10
6.478166
 20
-8.999719999999999
 30
0.0
 11
6.312053999999999
 21
-8.984202999999999
 31
0.0
  0
LINE
  5
C5
330
4CB
100
AcDbEntity
  8
1
100
AcDbLine
 10
6.312053999999999
 20
-8.984202999999999
 30
0.0
 11
6.143943
 21
-8.967111
 31
0.0
  0
LINE
  5
C6
330
4CB
100
AcDbEntity
  8
1
100
AcDbLine
 10
6.143943
 20
-8.967111
 30
0.0
 11
5.973780999999999
 21
-8.94841
 31
0.0
  0
LINE
  5
C7
330
4CB
100
AcDbEntity
  8
1
100
AcDbLine
 10
5.973780999999999
 20
-8.94841
 30
0.0
 11
5.801150999999999
 21
-8.928041999999999
 31
0.0
  0
LINE
  5
C8
330
4CB
100
AcDbEntity
  8
1
100
AcDbLine
 10
5.801150999999999
 20
-8.928041999999999
 30
0.0
 11
5.626012
 21
-8.905978999999998
 31
0.0
  0
LINE
  5
C9
330
4CB
100
AcDbEntity
  8
1
100
AcDbLine
 10
5.626012
 20
-8.905978999999998
 30
0.0
 11
5.448405999999999
 21
-8.882192999999999
 31
0.0
  0
LINE
  5
CA
330
4CB
100
AcDbEntity
  8
1
100
AcDbLine
 10
5.448405999999999
 20
-8.882192999999999
 30
0.0
 11
5.268044
 21
-8.856619999999999
 31
0.0
  0
LINE
  5
CB
330
4CB
100
AcDbEntity
  8
1
100
AcDbLine
 10
3.1516
 20
3.593944
 30
0.0
 11
3.052723999999999
 21
3.818008999999999
 31
0.0
  0
LINE
  5
CC
330
4CB
100
AcDbEntity
  8
1
100
AcDbLine
 10
5.268044
 20
-8.856619999999999
 30
0.0
 11
5.084826999999999
 21
-8.829213000000001
 31
0.0
  0
LINE
  5
CD
330
4CB
100
AcDbEntity
  8
1
100
AcDbLine
 10
3.052723999999999
 20
3.818008999999999
 30
0.0
 11
2.956986999999999
 21
4.040605
 31
0.0
  0
LINE
  5
CE
330
4CB
100
AcDbEntity
  8
1
100
AcDbLine
 10
5.084826999999999
 20
-8.829213000000001
 30
0.0
 11
4.898855
 21
-8.799948999999999
 31
0.0
  0
LINE
  5
CF
330
4CB
100
AcDbEntity
  8
1
100
AcDbLine
 10
2.956986999999999
 20
4.040605
 30
0.0
 11
2.864333999999999
 21
4.261669
 31
0.0
  0
LINE
  5
D0
330
4CB
100
AcDbEntity
  8
1
100
AcDbLine
 10
4.898855
 20
-8.799948999999999
 30
0.0
 11
4.710124999999999
 21
-8.768791999999999
 31
0.0
  0
LINE
  5
D1
330
4CB
100
AcDbEntity
  8
1
100
AcDbLine
 10
2.864333999999999
 20
4.261669
 30
0.0
 11
2.77482
 21
4.481009999999999
 31
0.0
  0
LINE
  5
D2
330
4CB
100
AcDbEntity
  8
1
100
AcDbLine
 10
7.891547999999999
 20
-10.54665
 30
0.0
 11
7.891547999999999
 21
-10.420041
 31
0.0
  0
LINE
  5
D3
330
4CB
100
AcDbEntity
  8
1
100
AcDbLine
 10
8.479799999999999
 20
-10.818245
 30
0.0
 11
8.404411999999998
 21
-10.801866
 31
0.0
  0
LINE
  5
D4
330
4CB
100
AcDbEntity
  8
1
100
AcDbLine
 10
8.404411999999998
 20
-10.801866
 30
0.0
 11
8.318158999999999
 21
-10.776569
 31
0.0
  0
LINE
  5
D5
330
4CB
100
AcDbEntity
  8
1
100
AcDbLine
 10
8.475728999999999
 20
-7.646172999999999
 30
0.0
 11
8.430865999999999
 21
-7.673830999999999
 31
0.0
  0
LINE
  5
D6
330
4CB
100
AcDbEntity
  8
1
100
AcDbLine
 10
8.318158999999999
 20
-10.776569
 30
0.0
 11
8.232089
 21
-10.744321
 31
0.0
  0
LINE
  5
D7
330
4CB
100
AcDbEntity
  8
1
100
AcDbLine
 10
8.232089
 20
-10.744321
 30
0.0
 11
8.146375
 21
-10.705198
 31
0.0
  0
LINE
  5
D8
330
4CB
100
AcDbEntity
  8
1
100
AcDbLine
 10
8.146375
 20
-10.705198
 30
0.0
 11
8.061075999999999
 21
-10.659225
 31
0.0
  0
LINE
  5
D9
330
4CB
100
AcDbEntity
  8
1
100
AcDbLine
 10
8.061075999999999
 20
-10.659225
 30
0.0
 11
7.976134
 21
-10.606375
 31
0.0
  0
LINE
  5
DA
330
4CB
100
AcDbEntity
  8
1
100
AcDbLine
 10
7.976134
 20
-10.606375
 30
0.0
 11
7.891547999999999
 21
-10.54665
 31
0.0
  0
LINE
  5
DB
330
4CB
100
AcDbEntity
  8
1
100
AcDbLine
 10
9.477762
 20
-11.000002
 30
0.0
 11
8.479969999999999
 21
-10.818282
 31
0.0
  0
LINE
  5
DC
330
4CB
100
AcDbEntity
  8
1
100
AcDbLine
 10
7.891547999999999
 20
-10.54665
 30
0.0
 11
8.320154999999999
 21
-10.599599
 31
0.0
  0
LINE
  5
DD
330
4CB
100
AcDbEntity
  8
1
100
AcDbLine
 10
15.5
 20
-10.020601
 30
0.0
 11
14.002002
 21
-11.000002
 31
0.0
  0
LINE
  5
DE
330
4CB
100
AcDbEntity
  8
1
100
AcDbLine
 10
15.0
 20
-8.774572
 30
0.0
 11
14.854828
 21
-8.893912
 31
0.0
  0
LINE
  5
DF
330
4CB
100
AcDbEntity
  8
1
100
AcDbLine
 10
14.854828
 20
-8.893912
 30
0.0
 11
14.707097
 21
-9.014293999999999
 31
0.0
  0
LINE
  5
E0
330
4CB
100
AcDbEntity
  8
1
100
AcDbLine
 10
14.707097
 20
-9.014293999999999
 30
0.0
 11
14.556808
 21
-9.135716999999999
 31
0.0
  0
LINE
  5
E1
330
4CB
100
AcDbEntity
  8
1
100
AcDbLine
 10
14.556808
 20
-9.135716999999999
 30
0.0
 11
14.40401
 21
-9.258155
 31
0.0
  0
LINE
  5
E2
330
4CB
100
AcDbEntity
  8
1
100
AcDbLine
 10
14.40401
 20
-9.258155
 30
0.0
 11
14.248654
 21
-9.381634
 31
0.0
  0
LINE
  5
E3
330
4CB
100
AcDbEntity
  8
1
100
AcDbLine
 10
14.248654
 20
-9.381634
 30
0.0
 11
14.09059
 21
-9.506241000000001
 31
0.0
  0
LINE
  5
E4
330
4CB
100
AcDbEntity
  8
1
100
AcDbLine
 10
14.09059
 20
-9.506241000000001
 30
0.0
 11
13.929768
 21
-9.632002999999999
 31
0.0
  0
LINE
  5
E5
330
4CB
100
AcDbEntity
  8
1
100
AcDbLine
 10
7.742407
 20
0.196628
 30
0.0
 11
7.589955
 21
0.203014
 31
0.0
  0
LINE
  5
E6
330
4CB
100
AcDbEntity
  8
1
100
AcDbLine
 10
13.929768
 20
-9.632002999999999
 30
0.0
 11
13.766238
 21
-9.758894999999998
 31
0.0
  0
LINE
  5
E7
330
4CB
100
AcDbEntity
  8
1
100
AcDbLine
 10
13.766238
 20
-9.758894999999998
 30
0.0
 11
13.6
 21
-9.886911999999998
 31
0.0
  0
LINE
  5
E8
330
4CB
100
AcDbEntity
  8
1
100
AcDbLine
 10
13.6
 20
-8.400867999999999
 30
0.0
 11
13.6
 21
-9.886911999999998
 31
0.0
  0
LINE
  5
E9
330
4CB
100
AcDbEntity
  8
1
100
AcDbLine
 10
8.628989
 20
-6.069162
 30
0.0
 11
8.648111
 21
-6.080492999999999
 31
0.0
  0
LINE
  5
EA
330
4CB
100
AcDbEntity
  8
1
100
AcDbLine
 10
15.5
 20
-8.862023999999999
 30
0.0
 11
13.595385
 21
-10.107273
 31
0.0
  0
LINE
  5
EB
330
4CB
100
AcDbEntity
  8
1
100
AcDbLine
 10
14.109467
 20
-4.389704
 30
0.0
 11
13.595707
 21
-4.547988
 31
0.0
  0
LINE
  5
EC
330
4CB
100
AcDbEntity
  8
1
100
AcDbLine
 10
13.595707
 20
-4.547988
 30
0.0
 11
13.08121
 21
-4.705123999999999
 31
0.0
  0
LINE
  5
ED
330
4CB
100
AcDbEntity
  8
1
100
AcDbLine
 10
13.08121
 20
-4.705123999999999
 30
0.0
 11
12.565976
 21
-4.861112
 31
0.0
  0
LINE
  5
EE
330
4CB
100
AcDbEntity
  8
1
100
AcDbLine
 10
12.049819
 20
-5.016008
 30
0.0
 11
11.532925
 21
-5.169755999999999
 31
0.0
  0
LINE
  5
EF
330
4CB
100
AcDbEntity
  8
1
100
AcDbLine
 10
11.532925
 20
-5.169755999999999
 30
0.0
 11
11.01585
 21
-5.322187
 31
0.0
  0
LINE
  5
F0
330
4CB
100
AcDbEntity
  8
1
100
AcDbLine
 10
11.01585
 20
-5.322187
 30
0.0
 11
10.498779
 21
-5.473244999999999
 31
0.0
  0
LINE
  5
F1
330
4CB
100
AcDbEntity
  8
1
100
AcDbLine
 10
9.981524999999999
 20
-5.622987
 30
0.0
 11
9.464089999999998
 21
-5.771412999999999
 31
0.0
  0
LINE
  5
F2
330
4CB
100
AcDbEntity
  8
1
100
AcDbLine
 10
13.997267
 20
-4.095951999999999
 30
0.0
 11
13.49624
 21
-4.251941999999999
 31
0.0
  0
LINE
  5
F3
330
4CB
100
AcDbEntity
  8
1
100
AcDbLine
 10
13.49624
 20
-4.251941999999999
 30
0.0
 11
12.994426
 21
-4.407078
 31
0.0
  0
LINE
  5
F4
330
4CB
100
AcDbEntity
  8
1
100
AcDbLine
 10
12.994426
 20
-4.407078
 30
0.0
 11
12.491822
 21
-4.561320999999999
 31
0.0
  0
LINE
  5
F5
330
4CB
100
AcDbEntity
  8
1
100
AcDbLine
 10
12.491822
 20
-4.561320999999999
 30
0.0
 11
11.988265
 21
-4.714644999999999
 31
0.0
  0
LINE
  5
F6
330
4CB
100
AcDbEntity
  8
1
100
AcDbLine
 10
11.988265
 20
-4.714644999999999
 30
0.0
 11
11.48392
 21
-4.866997
 31
0.0
  0
LINE
  5
F7
330
4CB
100
AcDbEntity
  8
1
100
AcDbLine
 10
11.48392
 20
-4.866997
 30
0.0
 11
10.979281
 21
-5.01829
 31
0.0
  0
LINE
  5
F8
330
4CB
100
AcDbEntity
  8
1
100
AcDbLine
 10
10.979281
 20
-5.01829
 30
0.0
 11
10.474511
 21
-5.168471
 31
0.0
  0
LINE
  5
F9
330
4CB
100
AcDbEntity
  8
1
100
AcDbLine
 10
10.474511
 20
-5.168471
 30
0.0
 11
9.969447999999999
 21
-5.317518999999999
 31
0.0
  0
LINE
  5
FA
330
4CB
100
AcDbEntity
  8
1
100
AcDbLine
 10
9.969447999999999
 20
-5.317518999999999
 30
0.0
 11
9.464089999999998
 21
-5.465393999999999
 31
0.0
  0
LINE
  5
FB
330
4CB
100
AcDbEntity
  8
1
100
AcDbLine
 10
8.320154999999999
 20
-3.555919999999999
 30
0.0
 11
8.924349000000001
 21
-3.360248
 31
0.0
  0
LINE
  5
FC
330
4CB
100
AcDbEntity
  8
1
100
AcDbLine
 10
8.924349000000001
 20
-3.360248
 30
0.0
 11
9.524044999999999
 21
-3.164050999999999
 31
0.0
  0
LINE
  5
FD
330
4CB
100
AcDbEntity
  8
1
100
AcDbLine
 10
9.524044999999999
 20
-3.164050999999999
 30
0.0
 11
10.119243
 21
-2.967327999999999
 31
0.0
  0
LINE
  5
FE
330
4CB
100
AcDbEntity
  8
1
100
AcDbLine
 10
10.119243
 20
-2.967327999999999
 30
0.0
 11
10.709967
 21
-2.770059999999999
 31
0.0
  0
LINE
  5
FF
330
4CB
100
AcDbEntity
  8
1
100
AcDbLine
 10
10.709967
 20
-2.770059999999999
 30
0.0
 11
11.296193
 21
-2.572265
 31
0.0
  0
LINE
  5
100
330
4CB
100
AcDbEntity
  8
1
100
AcDbLine
 10
11.296193
 20
-2.572265
 30
0.0
 11
11.877854
 21
-2.374013999999999
 31
0.0
  0
LINE
  5
101
330
4CB
100
AcDbEntity
  8
1
100
AcDbLine
 10
11.877854
 20
-2.374013999999999
 30
0.0
 11
12.454929
 21
-2.175327999999999
 31
0.0
  0
LINE
  5
102
330
4CB
100
AcDbEntity
  8
1
100
AcDbLine
 10
12.454929
 20
-2.175327999999999
 30
0.0
 11
13.027439
 21
-1.976184999999999
 31
0.0
  0
LINE
  5
103
330
4CB
100
AcDbEntity
  8
1
100
AcDbLine
 10
13.027439
 20
-1.976184999999999
 30
0.0
 11
13.595385
 21
-1.776584999999999
 31
0.0
  0
LINE
  5
104
330
4CB
100
AcDbEntity
  8
1
100
AcDbLine
 10
13.6
 20
-1.665061999999999
 30
0.0
 11
12.898572
 21
-1.912443
 31
0.0
  0
LINE
  5
105
330
4CB
100
AcDbEntity
  8
1
100
AcDbLine
 10
12.898572
 20
-1.912443
 30
0.0
 11
12.189632
 21
-2.159235999999999
 31
0.0
  0
LINE
  5
106
330
4CB
100
AcDbEntity
  8
1
100
AcDbLine
 10
12.189632
 20
-2.159235999999999
 30
0.0
 11
11.47318
 21
-2.405443999999999
 31
0.0
  0
LINE
  5
107
330
4CB
100
AcDbEntity
  8
1
100
AcDbLine
 10
11.47318
 20
-2.405443999999999
 30
0.0
 11
10.74865
 21
-2.651280999999999
 31
0.0
  0
LINE
  5
108
330
4CB
100
AcDbEntity
  8
1
100
AcDbLine
 10
10.74865
 20
-2.651280999999999
 30
0.0
 11
10.016608
 21
-2.896533
 31
0.0
  0
LINE
  5
109
330
4CB
100
AcDbEntity
  8
1
100
AcDbLine
 10
10.016608
 20
-2.896533
 30
0.0
 11
9.278752
 21
-3.14055
 31
0.0
  0
LINE
  5
10A
330
4CB
100
AcDbEntity
  8
1
100
AcDbLine
 10
9.278752
 20
-3.14055
 30
0.0
 11
8.535036999999999
 21
-3.383333
 31
0.0
  0
LINE
  5
10B
330
4CB
100
AcDbEntity
  8
1
100
AcDbLine
 10
13.6
 20
1.379010999999999
 30
0.0
 11
13.154893
 21
1.267535
 31
0.0
  0
LINE
  5
10C
330
4CB
100
AcDbEntity
  8
1
100
AcDbLine
 10
13.154893
 20
1.267535
 30
0.0
 11
12.706905
 21
1.15571
 31
0.0
  0
LINE
  5
10D
330
4CB
100
AcDbEntity
  8
1
100
AcDbLine
 10
12.706905
 20
1.15571
 30
0.0
 11
12.256033
 21
1.043537
 31
0.0
  0
LINE
  5
10E
330
4CB
100
AcDbEntity
  8
1
100
AcDbLine
 10
12.256033
 20
1.043537
 30
0.0
 11
11.802211
 21
0.9309969999999999
 31
0.0
  0
LINE
  5
10F
330
4CB
100
AcDbEntity
  8
1
100
AcDbLine
 10
11.802211
 20
0.9309969999999999
 30
0.0
 11
11.345507
 21
0.8181079999999999
 31
0.0
  0
LINE
  5
110
330
4CB
100
AcDbEntity
  8
1
100
AcDbLine
 10
11.345507
 20
0.8181079999999999
 30
0.0
 11
10.886124
 21
0.704929
 31
0.0
  0
LINE
  5
111
330
4CB
100
AcDbEntity
  8
1
100
AcDbLine
 10
10.886124
 20
0.704929
 30
0.0
 11
10.424133
 21
0.5914770000000001
 31
0.0
  0
LINE
  5
112
330
4CB
100
AcDbEntity
  8
1
100
AcDbLine
 10
10.424133
 20
0.5914770000000001
 30
0.0
 11
9.959464
 21
0.4777350000000001
 31
0.0
  0
LINE
  5
113
330
4CB
100
AcDbEntity
  8
1
100
AcDbLine
 10
9.959464
 20
0.4777350000000001
 30
0.0
 11
9.492117
 21
0.3637
 31
0.0
  0
LINE
  5
114
330
4CB
100
AcDbEntity
  8
1
100
AcDbLine
 10
15.0
 20
2.726822999999999
 30
0.0
 11
8.885066999999999
 21
0.9497279999999999
 31
0.0
  0
LINE
  5
115
330
4CB
100
AcDbEntity
  8
1
100
AcDbLine
 10
15.0
 20
-4.761441
 30
0.0
 11
8.936633
 21
-6.523674999999999
 31
0.0
  0
LINE
  5
116
330
4CB
100
AcDbEntity
  8
1
100
AcDbLine
 10
7.621277
 20
-6.055731999999999
 30
0.0
 11
7.659834
 21
-6.044948
 31
0.0
  0
LINE
  5
117
330
4CB
100
AcDbEntity
  8
1
100
AcDbLine
 10
7.659834
 20
-6.044948
 30
0.0
 11
7.720105999999999
 21
-6.029628999999999
 31
0.0
  0
LINE
  5
118
330
4CB
100
AcDbEntity
  8
1
100
AcDbLine
 10
7.720105999999999
 20
-6.029628999999999
 30
0.0
 11
7.778417
 21
-6.016378999999999
 31
0.0
  0
LINE
  5
119
330
4CB
100
AcDbEntity
  8
1
100
AcDbLine
 10
7.778417
 20
-6.016378999999999
 30
0.0
 11
7.83461
 21
-6.005186
 31
0.0
  0
LINE
  5
11A
330
4CB
100
AcDbEntity
  8
1
100
AcDbLine
 10
7.83461
 20
-6.005186
 30
0.0
 11
7.888811999999999
 21
-5.995995999999999
 31
0.0
  0
LINE
  5
11B
330
4CB
100
AcDbEntity
  8
1
100
AcDbLine
 10
7.888811999999999
 20
-5.995995999999999
 30
0.0
 11
7.940960999999999
 21
-5.988459999999999
 31
0.0
  0
LINE
  5
11C
330
4CB
100
AcDbEntity
  8
1
100
AcDbLine
 10
7.940960999999999
 20
-5.988459999999999
 30
0.0
 11
7.990950999999999
 21
-5.982533
 31
0.0
  0
LINE
  5
11D
330
4CB
100
AcDbEntity
  8
1
100
AcDbLine
 10
7.990950999999999
 20
-5.982533
 30
0.0
 11
8.038866999999999
 21
-5.978201999999999
 31
0.0
  0
LINE
  5
11E
330
4CB
100
AcDbEntity
  8
1
100
AcDbLine
 10
8.038866999999999
 20
-5.978201999999999
 30
0.0
 11
8.084944999999999
 21
-5.975170999999999
 31
0.0
  0
LINE
  5
11F
330
4CB
100
AcDbEntity
  8
1
100
AcDbLine
 10
8.084944999999999
 20
-5.975170999999999
 30
0.0
 11
8.129151
 21
-5.973381999999999
 31
0.0
  0
LINE
  5
120
330
4CB
100
AcDbEntity
  8
1
100
AcDbLine
 10
8.129151
 20
-5.973381999999999
 30
0.0
 11
8.171505999999999
 21
-5.972847999999999
 31
0.0
  0
LINE
  5
121
330
4CB
100
AcDbEntity
  8
1
100
AcDbLine
 10
8.171505999999999
 20
-5.972847999999999
 30
0.0
 11
8.212328999999998
 21
-5.973381999999999
 31
0.0
  0
LINE
  5
122
330
4CB
100
AcDbEntity
  8
1
100
AcDbLine
 10
8.212328999999998
 20
-5.973381999999999
 30
0.0
 11
8.251694999999999
 21
-5.974943999999999
 31
0.0
  0
LINE
  5
123
330
4CB
100
AcDbEntity
  8
1
100
AcDbLine
 10
8.251694999999999
 20
-5.974943999999999
 30
0.0
 11
8.289522999999999
 21
-5.977541999999999
 31
0.0
  0
LINE
  5
124
330
4CB
100
AcDbEntity
  8
1
100
AcDbLine
 10
8.289522999999999
 20
-5.977541999999999
 30
0.0
 11
8.325898
 21
-5.981057999999999
 31
0.0
  0
LINE
  5
125
330
4CB
100
AcDbEntity
  8
1
100
AcDbLine
 10
8.325898
 20
-5.981057999999999
 30
0.0
 11
8.360874
 21
-5.985487
 31
0.0
  0
LINE
  5
126
330
4CB
100
AcDbEntity
  8
1
100
AcDbLine
 10
8.360874
 20
-5.985487
 30
0.0
 11
8.394391999999999
 21
-5.990808
 31
0.0
  0
LINE
  5
127
330
4CB
100
AcDbEntity
  8
1
100
AcDbLine
 10
8.426364999999998
 20
-5.996887999999999
 30
0.0
 11
8.456716999999999
 21
-6.003701
 31
0.0
  0
LINE
  5
128
330
4CB
100
AcDbEntity
  8
1
100
AcDbLine
 10
8.456716999999999
 20
-6.003701
 30
0.0
 11
8.485519999999999
 21
-6.011248
 31
0.0
  0
LINE
  5
129
330
4CB
100
AcDbEntity
  8
1
100
AcDbLine
 10
8.485519999999999
 20
-6.011248
 30
0.0
 11
8.512905999999999
 21
-6.019436999999999
 31
0.0
  0
LINE
  5
12A
330
4CB
100
AcDbEntity
  8
1
100
AcDbLine
 10
8.512905999999999
 20
-6.019436999999999
 30
0.0
 11
8.538902999999999
 21
-6.028266
 31
0.0
  0
LINE
  5
12B
330
4CB
100
AcDbEntity
  8
1
100
AcDbLine
 10
8.538902999999999
 20
-6.028266
 30
0.0
 11
8.563482
 21
-6.037719999999999
 31
0.0
  0
LINE
  5
12C
330
4CB
100
AcDbEntity
  8
1
100
AcDbLine
 10
8.563482
 20
-6.037719999999999
 30
0.0
 11
8.586686999999999
 21
-6.047687
 31
0.0
  0
LINE
  5
12D
330
4CB
100
AcDbEntity
  8
1
100
AcDbLine
 10
8.586686999999999
 20
-6.047687
 30
0.0
 11
8.608525
 21
-6.058175
 31
0.0
  0
LINE
  5
12E
330
4CB
100
AcDbEntity
  8
1
100
AcDbLine
 10
8.608525
 20
-6.058175
 30
0.0
 11
8.628989
 21
-6.069162
 31
0.0
  0
LINE
  5
12F
330
4CB
100
AcDbEntity
  8
1
100
AcDbLine
 10
8.665853
 20
-6.092151
 30
0.0
 11
8.682253999999998
 21
-6.104144999999999
 31
0.0
  0
LINE
  5
130
330
4CB
100
AcDbEntity
  8
1
100
AcDbLine
 10
8.682253999999998
 20
-6.104144999999999
 30
0.0
 11
8.697461999999999
 21
-6.116362
 31
0.0
  0
LINE
  5
131
330
4CB
100
AcDbEntity
  8
1
100
AcDbLine
 10
8.889628
 20
-7.269685
 30
0.0
 11
8.871897999999999
 21
-7.294552
 31
0.0
  0
LINE
  5
132
330
4CB
100
AcDbEntity
  8
1
100
AcDbLine
 10
8.724241000000001
 20
-6.141367999999999
 30
0.0
 11
8.736079
 21
-6.154233
 31
0.0
  0
LINE
  5
133
330
4CB
100
AcDbEntity
  8
1
100
AcDbLine
 10
8.736079
 20
-6.154233
 30
0.0
 11
8.746952
 21
-6.16724
 31
0.0
  0
LINE
  5
134
330
4CB
100
AcDbEntity
  8
1
100
AcDbLine
 10
8.746952
 20
-6.16724
 30
0.0
 11
8.756871
 21
-6.180496999999999
 31
0.0
  0
LINE
  5
135
330
4CB
100
AcDbEntity
  8
1
100
AcDbLine
 10
8.756871
 20
-6.180496999999999
 30
0.0
 11
8.766106999999999
 21
-6.194372
 31
0.0
  0
LINE
  5
136
330
4CB
100
AcDbEntity
  8
1
100
AcDbLine
 10
8.766106999999999
 20
-6.194372
 30
0.0
 11
8.774777999999999
 21
-6.208936
 31
0.0
  0
LINE
  5
137
330
4CB
100
AcDbEntity
  8
1
100
AcDbLine
 10
8.774777999999999
 20
-6.208936
 30
0.0
 11
8.782766
 21
-6.224116999999999
 31
0.0
  0
LINE
  5
138
330
4CB
100
AcDbEntity
  8
1
100
AcDbLine
 10
8.796476
 20
-6.25684
 30
0.0
 11
8.802198999999999
 21
-6.274380999999999
 31
0.0
  0
LINE
  5
139
330
4CB
100
AcDbEntity
  8
1
100
AcDbLine
 10
8.802198999999999
 20
-6.274380999999999
 30
0.0
 11
8.806991
 21
-6.292673
 31
0.0
  0
LINE
  5
13A
330
4CB
100
AcDbEntity
  8
1
100
AcDbLine
 10
8.806991
 20
-6.292673
 30
0.0
 11
8.810833999999999
 21
-6.311738
 31
0.0
  0
LINE
  5
13B
330
4CB
100
AcDbEntity
  8
1
100
AcDbLine
 10
8.810833999999999
 20
-6.311738
 30
0.0
 11
8.813746999999999
 21
-6.331552999999999
 31
0.0
  0
LINE
  5
13C
330
4CB
100
AcDbEntity
  8
1
100
AcDbLine
 10
8.813746999999999
 20
-6.331552999999999
 30
0.0
 11
8.815616999999999
 21
-6.352038999999999
 31
0.0
  0
LINE
  5
13D
330
4CB
100
AcDbEntity
  8
1
100
AcDbLine
 10
8.815616999999999
 20
-6.352038999999999
 30
0.0
 11
8.816435
 21
-6.37313
 31
0.0
  0
LINE
  5
13E
330
4CB
100
AcDbEntity
  8
1
100
AcDbLine
 10
8.816208999999998
 20
-6.394894999999999
 30
0.0
 11
8.814853999999998
 21
-6.417441999999999
 31
0.0
  0
LINE
  5
13F
330
4CB
100
AcDbEntity
  8
1
100
AcDbLine
 10
8.814853999999998
 20
-6.417441999999999
 30
0.0
 11
8.812374
 21
-6.440808999999999
 31
0.0
  0
LINE
  5
140
330
4CB
100
AcDbEntity
  8
1
100
AcDbLine
 10
8.812374
 20
-6.440808999999999
 30
0.0
 11
8.808764999999999
 21
-6.464965
 31
0.0
  0
LINE
  5
141
330
4CB
100
AcDbEntity
  8
1
100
AcDbLine
 10
8.808764999999999
 20
-6.464965
 30
0.0
 11
8.803927999999999
 21
-6.489933999999999
 31
0.0
  0
LINE
  5
142
330
4CB
100
AcDbEntity
  8
1
100
AcDbLine
 10
8.803927999999999
 20
-6.489933999999999
 30
0.0
 11
8.797830000000001
 21
-6.515722
 31
0.0
  0
LINE
  5
143
330
4CB
100
AcDbEntity
  8
1
100
AcDbLine
 10
8.797830000000001
 20
-6.515722
 30
0.0
 11
8.790503999999998
 21
-6.542333
 31
0.0
  0
LINE
  5
144
330
4CB
100
AcDbEntity
  8
1
100
AcDbLine
 10
8.790503999999998
 20
-6.542333
 30
0.0
 11
8.781952
 21
-6.56977
 31
0.0
  0
LINE
  5
145
330
4CB
100
AcDbEntity
  8
1
100
AcDbLine
 10
7.829869999999999
 20
-7.925631
 30
0.0
 11
7.771124
 21
-7.940414999999999
 31
0.0
  0
LINE
  5
146
330
4CB
100
AcDbEntity
  8
1
100
AcDbLine
 10
7.771124
 20
-7.940414999999999
 30
0.0
 11
7.712401999999999
 21
-7.953611999999999
 31
0.0
  0
LINE
  5
147
330
4CB
100
AcDbEntity
  8
1
100
AcDbLine
 10
7.712401999999999
 20
-7.953611999999999
 30
0.0
 11
7.653910999999999
 21
-7.965194999999999
 31
0.0
  0
LINE
  5
148
330
4CB
100
AcDbEntity
  8
1
100
AcDbLine
 10
7.653910999999999
 20
-7.965194999999999
 30
0.0
 11
7.595714
 21
-7.975178999999999
 31
0.0
  0
LINE
  5
149
330
4CB
100
AcDbEntity
  8
1
100
AcDbLine
 10
7.595714
 20
-7.975178999999999
 30
0.0
 11
7.537825999999999
 21
-7.983594
 31
0.0
  0
LINE
  5
14A
330
4CB
100
AcDbEntity
  8
1
100
AcDbLine
 10
7.537825999999999
 20
-7.983594
 30
0.0
 11
7.480375
 21
-7.990435999999999
 31
0.0
  0
LINE
  5
14B
330
4CB
100
AcDbEntity
  8
1
100
AcDbLine
 10
7.480375
 20
-7.990435999999999
 30
0.0
 11
7.423405
 21
-7.995733999999999
 31
0.0
  0
LINE
  5
14C
330
4CB
100
AcDbEntity
  8
1
100
AcDbLine
 10
7.423405
 20
-7.995733999999999
 30
0.0
 11
7.366944999999999
 21
-7.999516
 31
0.0
  0
LINE
  5
14D
330
4CB
100
AcDbEntity
  8
1
100
AcDbLine
 10
7.366944999999999
 20
-7.999516
 30
0.0
 11
7.311100999999999
 21
-8.001796
 31
0.0
  0
LINE
  5
14E
330
4CB
100
AcDbEntity
  8
1
100
AcDbLine
 10
8.700075999999999
 20
-7.478978999999998
 30
0.0
 11
8.667935999999999
 21
-7.506588
 31
0.0
  0
LINE
  5
14F
330
4CB
100
AcDbEntity
  8
1
100
AcDbLine
 10
7.311100999999999
 20
-8.001796
 30
0.0
 11
7.255944999999999
 21
-8.002603999999999
 31
0.0
  0
LINE
  5
150
330
4CB
100
AcDbEntity
  8
1
100
AcDbLine
 10
7.255944999999999
 20
-8.002603999999999
 30
0.0
 11
7.201474
 21
-8.001978999999998
 31
0.0
  0
LINE
  5
151
330
4CB
100
AcDbEntity
  8
1
100
AcDbLine
 10
7.201474
 20
-8.001978999999998
 30
0.0
 11
7.147678999999999
 21
-7.999936999999999
 31
0.0
  0
LINE
  5
152
330
4CB
100
AcDbEntity
  8
1
100
AcDbLine
 10
7.147678999999999
 20
-7.999936999999999
 30
0.0
 11
7.094572999999999
 21
-7.996506
 31
0.0
  0
LINE
  5
153
330
4CB
100
AcDbEntity
  8
1
100
AcDbLine
 10
7.094572999999999
 20
-7.996506
 30
0.0
 11
7.042205
 21
-7.991722
 31
0.0
  0
LINE
  5
154
330
4CB
100
AcDbEntity
  8
1
100
AcDbLine
 10
7.042205
 20
-7.991722
 30
0.0
 11
6.990624999999999
 21
-7.985600999999999
 31
0.0
  0
LINE
  5
155
330
4CB
100
AcDbEntity
  8
1
100
AcDbLine
 10
6.990624999999999
 20
-7.985600999999999
 30
0.0
 11
6.939883
 21
-7.978181
 31
0.0
  0
LINE
  5
156
330
4CB
100
AcDbEntity
  8
1
100
AcDbLine
 10
6.939883
 20
-7.978181
 30
0.0
 11
6.889986
 21
-7.969494
 31
0.0
  0
LINE
  5
157
330
4CB
100
AcDbEntity
  8
1
100
AcDbLine
 10
6.889986
 20
-7.969494
 30
0.0
 11
6.840921
 21
-7.959546
 31
0.0
  0
LINE
  5
158
330
4CB
100
AcDbEntity
  8
1
100
AcDbLine
 10
6.840921
 20
-7.959546
 30
0.0
 11
6.792683
 21
-7.94836
 31
0.0
  0
LINE
  5
159
330
4CB
100
AcDbEntity
  8
1
100
AcDbLine
 10
6.792683
 20
-7.94836
 30
0.0
 11
6.745333999999999
 21
-7.935977
 31
0.0
  0
LINE
  5
15A
330
4CB
100
AcDbEntity
  8
1
100
AcDbLine
 10
6.745333999999999
 20
-7.935977
 30
0.0
 11
6.698960999999999
 21
-7.922424999999999
 31
0.0
  0
LINE
  5
15B
330
4CB
100
AcDbEntity
  8
1
100
AcDbLine
 10
8.430865999999999
 20
-7.673830999999999
 30
0.0
 11
8.383863999999999
 21
-7.701172999999999
 31
0.0
  0
LINE
  5
15C
330
4CB
100
AcDbEntity
  8
1
100
AcDbLine
 10
6.698960999999999
 20
-7.922424999999999
 30
0.0
 11
6.653608999999999
 21
-7.907746
 31
0.0
  0
LINE
  5
15D
330
4CB
100
AcDbEntity
  8
1
100
AcDbLine
 10
6.653608999999999
 20
-7.907746
 30
0.0
 11
6.609285
 21
-7.891972999999999
 31
0.0
  0
LINE
  5
15E
330
4CB
100
AcDbEntity
  8
1
100
AcDbLine
 10
6.609285
 20
-7.891972999999999
 30
0.0
 11
6.566022
 21
-7.875122999999999
 31
0.0
  0
LINE
  5
15F
330
4CB
100
AcDbEntity
  8
1
100
AcDbLine
 10
6.566022
 20
-7.875122999999999
 30
0.0
 11
6.523841
 21
-7.857232
 31
0.0
  0
LINE
  5
160
330
4CB
100
AcDbEntity
  8
1
100
AcDbLine
 10
6.523841
 20
-7.857232
 30
0.0
 11
6.482769999999999
 21
-7.838338
 31
0.0
  0
LINE
  5
161
330
4CB
100
AcDbEntity
  8
1
100
AcDbLine
 10
6.482769999999999
 20
-7.838338
 30
0.0
 11
6.442854
 21
-7.818461999999999
 31
0.0
  0
LINE
  5
162
330
4CB
100
AcDbEntity
  8
1
100
AcDbLine
 10
6.442854
 20
-7.818461999999999
 30
0.0
 11
6.404087
 21
-7.797625
 31
0.0
  0
LINE
  5
163
330
4CB
100
AcDbEntity
  8
1
100
AcDbLine
 10
6.366520999999999
 20
-7.775885999999999
 30
0.0
 11
6.330286
 21
-7.753319
 31
0.0
  0
LINE
  5
164
330
4CB
100
AcDbEntity
  8
1
100
AcDbLine
 10
6.330286
 20
-7.753319
 30
0.0
 11
6.295436
 21
-7.729982999999999
 31
0.0
  0
LINE
  5
165
330
4CB
100
AcDbEntity
  8
1
100
AcDbLine
 10
6.295436
 20
-7.729982999999999
 30
0.0
 11
6.261949999999999
 21
-7.705911999999999
 31
0.0
  0
LINE
  5
166
330
4CB
100
AcDbEntity
  8
1
100
AcDbLine
 10
6.261949999999999
 20
-7.705911999999999
 30
0.0
 11
6.229841
 21
-7.681153
 31
0.0
  0
LINE
  5
167
330
4CB
100
AcDbEntity
  8
1
100
AcDbLine
 10
6.407479
 20
-6.952614999999999
 30
0.0
 11
6.432813999999999
 21
-6.910417999999999
 31
0.0
  0
LINE
  5
168
330
4CB
100
AcDbEntity
  8
1
100
AcDbLine
 10
6.432813999999999
 20
-6.910417999999999
 30
0.0
 11
6.460433999999999
 21
-6.867822
 31
0.0
  0
LINE
  5
169
330
4CB
100
AcDbEntity
  8
1
100
AcDbLine
 10
6.460433999999999
 20
-6.867822
 30
0.0
 11
6.490353999999999
 21
-6.824842999999999
 31
0.0
  0
LINE
  5
16A
330
4CB
100
AcDbEntity
  8
1
100
AcDbLine
 10
6.490353999999999
 20
-6.824842999999999
 30
0.0
 11
6.522603
 21
-6.781361999999999
 31
0.0
  0
LINE
  5
16B
330
4CB
100
AcDbEntity
  8
1
100
AcDbLine
 10
6.522603
 20
-6.781361999999999
 30
0.0
 11
6.557186999999999
 21
-6.737538
 31
0.0
  0
LINE
  5
16C
330
4CB
100
AcDbEntity
  8
1
100
AcDbLine
 10
6.557186999999999
 20
-6.737538
 30
0.0
 11
6.594089
 21
-6.693819999999999
 31
0.0
  0
LINE
  5
16D
330
4CB
100
AcDbEntity
  8
1
100
AcDbLine
 10
8.648111
 20
-6.080492999999999
 30
0.0
 11
8.665853
 21
-6.092151
 31
0.0
  0
LINE
  5
16E
330
4CB
100
AcDbEntity
  8
1
100
AcDbLine
 10
6.594089
 20
-6.693819999999999
 30
0.0
 11
6.633366999999999
 21
-6.650232
 31
0.0
  0
LINE
  5
16F
330
4CB
100
AcDbEntity
  8
1
100
AcDbLine
 10
6.633366999999999
 20
-6.650232
 30
0.0
 11
6.674995
 21
-6.606794999999999
 31
0.0
  0
LINE
  5
170
330
4CB
100
AcDbEntity
  8
1
100
AcDbLine
 10
6.674995
 20
-6.606794999999999
 30
0.0
 11
6.718824999999999
 21
-6.563949
 31
0.0
  0
LINE
  5
171
330
4CB
100
AcDbEntity
  8
1
100
AcDbLine
 10
6.718824999999999
 20
-6.563949
 30
0.0
 11
6.764855
 21
-6.521764
 31
0.0
  0
LINE
  5
172
330
4CB
100
AcDbEntity
  8
1
100
AcDbLine
 10
6.764855
 20
-6.521764
 30
0.0
 11
6.813111999999999
 21
-6.480215
 31
0.0
  0
LINE
  5
173
330
4CB
100
AcDbEntity
  8
1
100
AcDbLine
 10
6.813111999999999
 20
-6.480215
 30
0.0
 11
6.863488999999999
 21
-6.439594
 31
0.0
  0
LINE
  5
174
330
4CB
100
AcDbEntity
  8
1
100
AcDbLine
 10
6.863488999999999
 20
-6.439594
 30
0.0
 11
6.915994
 21
-6.399937999999999
 31
0.0
  0
LINE
  5
175
330
4CB
100
AcDbEntity
  8
1
100
AcDbLine
 10
6.915994
 20
-6.399937999999999
 30
0.0
 11
6.970638
 21
-6.361258999999999
 31
0.0
  0
LINE
  5
176
330
4CB
100
AcDbEntity
  8
1
100
AcDbLine
 10
6.970638
 20
-6.361258999999999
 30
0.0
 11
7.027311
 21
-6.323805999999999
 31
0.0
  0
LINE
  5
177
330
4CB
100
AcDbEntity
  8
1
100
AcDbLine
 10
7.086177
 20
-6.287537
 30
0.0
 11
7.147083
 21
-6.252543
 31
0.0
  0
LINE
  5
178
330
4CB
100
AcDbEntity
  8
1
100
AcDbLine
 10
7.147083
 20
-6.252543
 30
0.0
 11
7.209446
 21
-6.219272
 31
0.0
  0
LINE
  5
179
330
4CB
100
AcDbEntity
  8
1
100
AcDbLine
 10
7.209446
 20
-6.219272
 30
0.0
 11
7.273606
 21
-6.187667
 31
0.0
  0
LINE
  5
17A
330
4CB
100
AcDbEntity
  8
1
100
AcDbLine
 10
7.273606
 20
-6.187667
 30
0.0
 11
7.339217999999998
 21
-6.157816
 31
0.0
  0
LINE
  5
17B
330
4CB
100
AcDbEntity
  8
1
100
AcDbLine
 10
7.339217999999998
 20
-6.157816
 30
0.0
 11
7.404652
 21
-6.130341
 31
0.0
  0
LINE
  5
17C
330
4CB
100
AcDbEntity
  8
1
100
AcDbLine
 10
7.469749
 20
-6.105395999999999
 30
0.0
 11
7.534635999999999
 21
-6.082800999999999
 31
0.0
  0
LINE
  5
17D
330
4CB
100
AcDbEntity
  8
1
100
AcDbLine
 10
7.534635999999999
 20
-6.082800999999999
 30
0.0
 11
7.598086999999999
 21
-6.062623999999999
 31
0.0
  0
LINE
  5
17E
330
4CB
100
AcDbEntity
  8
1
100
AcDbLine
 10
7.598086999999999
 20
-6.062623999999999
 30
0.0
 11
7.621277
 21
-6.055731999999999
 31
0.0
  0
LINE
  5
17F
330
4CB
100
AcDbEntity
  8
1
100
AcDbLine
 10
6.229841
 20
-7.681153
 30
0.0
 11
6.226801
 21
-7.652596
 31
0.0
  0
LINE
  5
180
330
4CB
100
AcDbEntity
  8
1
100
AcDbLine
 10
6.226801
 20
-7.652596
 30
0.0
 11
6.224757
 21
-7.623322999999999
 31
0.0
  0
LINE
  5
181
330
4CB
100
AcDbEntity
  8
1
100
AcDbLine
 10
6.224757
 20
-7.623322999999999
 30
0.0
 11
6.223708999999999
 21
-7.593336999999999
 31
0.0
  0
LINE
  5
182
330
4CB
100
AcDbEntity
  8
1
100
AcDbLine
 10
6.223708999999999
 20
-7.593336999999999
 30
0.0
 11
6.223633
 21
-7.562617999999999
 31
0.0
  0
LINE
  5
183
330
4CB
100
AcDbEntity
  8
1
100
AcDbLine
 10
6.223633
 20
-7.562617999999999
 30
0.0
 11
6.224559999999999
 21
-7.531189
 31
0.0
  0
LINE
  5
184
330
4CB
100
AcDbEntity
  8
1
100
AcDbLine
 10
6.224559999999999
 20
-7.531189
 30
0.0
 11
6.226575
 21
-7.499121
 31
0.0
  0
LINE
  5
185
330
4CB
100
AcDbEntity
  8
1
100
AcDbLine
 10
6.226575
 20
-7.499121
 30
0.0
 11
6.229676
 21
-7.466441
 31
0.0
  0
LINE
  5
186
330
4CB
100
AcDbEntity
  8
1
100
AcDbLine
 10
6.229676
 20
-7.466441
 30
0.0
 11
6.233874
 21
-7.433127999999999
 31
0.0
  0
LINE
  5
187
330
4CB
100
AcDbEntity
  8
1
100
AcDbLine
 10
6.233874
 20
-7.433127999999999
 30
0.0
 11
6.239268
 21
-7.399178
 31
0.0
  0
LINE
  5
188
330
4CB
100
AcDbEntity
  8
1
100
AcDbLine
 10
6.239268
 20
-7.399178
 30
0.0
 11
6.24587
 21
-7.364558
 31
0.0
  0
LINE
  5
189
330
4CB
100
AcDbEntity
  8
1
100
AcDbLine
 10
6.24587
 20
-7.364558
 30
0.0
 11
6.253678999999999
 21
-7.329308999999999
 31
0.0
  0
LINE
  5
18A
330
4CB
100
AcDbEntity
  8
1
100
AcDbLine
 10
6.253678999999999
 20
-7.329308999999999
 30
0.0
 11
6.262779
 21
-7.293557999999999
 31
0.0
  0
LINE
  5
18B
330
4CB
100
AcDbEntity
  8
1
100
AcDbLine
 10
6.262779
 20
-7.293557999999999
 30
0.0
 11
6.273170999999999
 21
-7.257330999999999
 31
0.0
  0
LINE
  5
18C
330
4CB
100
AcDbEntity
  8
1
100
AcDbLine
 10
6.273170999999999
 20
-7.257330999999999
 30
0.0
 11
6.284866
 21
-7.220611999999999
 31
0.0
  0
LINE
  5
18D
330
4CB
100
AcDbEntity
  8
1
100
AcDbLine
 10
6.284866
 20
-7.220611999999999
 30
0.0
 11
6.297966999999999
 21
-7.183450999999999
 31
0.0
  0
LINE
  5
18E
330
4CB
100
AcDbEntity
  8
1
100
AcDbLine
 10
6.297966999999999
 20
-7.183450999999999
 30
0.0
 11
6.312484999999999
 21
-7.145842
 31
0.0
  0
LINE
  5
18F
330
4CB
100
AcDbEntity
  8
1
100
AcDbLine
 10
6.312484999999999
 20
-7.145842
 30
0.0
 11
6.328424
 21
-7.107806
 31
0.0
  0
LINE
  5
190
330
4CB
100
AcDbEntity
  8
1
100
AcDbLine
 10
6.328424
 20
-7.107806
 30
0.0
 11
6.345876
 21
-7.069447999999999
 31
0.0
  0
LINE
  5
191
330
4CB
100
AcDbEntity
  8
1
100
AcDbLine
 10
6.345876
 20
-7.069447999999999
 30
0.0
 11
6.364876999999999
 21
-7.030804999999999
 31
0.0
  0
LINE
  5
192
330
4CB
100
AcDbEntity
  8
1
100
AcDbLine
 10
6.364876999999999
 20
-7.030804999999999
 30
0.0
 11
6.385407999999999
 21
-6.991858
 31
0.0
  0
LINE
  5
193
330
4CB
100
AcDbEntity
  8
1
100
AcDbLine
 10
6.385407999999999
 20
-6.991858
 30
0.0
 11
6.407479
 21
-6.952614999999999
 31
0.0
  0
LINE
  5
194
330
4CB
100
AcDbEntity
  8
1
100
AcDbLine
 10
8.991792
 20
-7.044475999999999
 30
0.0
 11
8.987102
 21
-7.064741
 31
0.0
  0
LINE
  5
195
330
4CB
100
AcDbEntity
  8
1
100
AcDbLine
 10
8.987102
 20
-7.064741
 30
0.0
 11
8.981269000000001
 21
-7.085552999999999
 31
0.0
  0
LINE
  5
196
330
4CB
100
AcDbEntity
  8
1
100
AcDbLine
 10
8.981269000000001
 20
-7.085552999999999
 30
0.0
 11
8.974274000000001
 21
-7.106894
 31
0.0
  0
LINE
  5
197
330
4CB
100
AcDbEntity
  8
1
100
AcDbLine
 10
8.974274000000001
 20
-7.106894
 30
0.0
 11
8.966134
 21
-7.128727
 31
0.0
  0
LINE
  5
198
330
4CB
100
AcDbEntity
  8
1
100
AcDbLine
 10
8.966134
 20
-7.128727
 30
0.0
 11
8.956794
 21
-7.151044
 31
0.0
  0
LINE
  5
199
330
4CB
100
AcDbEntity
  8
1
100
AcDbLine
 10
8.956794
 20
-7.151044
 30
0.0
 11
8.94613
 21
-7.173868999999999
 31
0.0
  0
LINE
  5
19A
330
4CB
100
AcDbEntity
  8
1
100
AcDbLine
 10
8.94613
 20
-7.173868999999999
 30
0.0
 11
8.934103999999999
 21
-7.197197
 31
0.0
  0
LINE
  5
19B
330
4CB
100
AcDbEntity
  8
1
100
AcDbLine
 10
3.253636999999999
 20
3.369087999999999
 30
0.0
 11
3.1516
 21
3.593944
 31
0.0
  0
LINE
  5
19C
330
4CB
100
AcDbEntity
  8
1
100
AcDbLine
 10
8.920713000000001
 20
-7.220977
 30
0.0
 11
8.905886999999999
 21
-7.245163
 31
0.0
  0
LINE
  5
19D
330
4CB
100
AcDbEntity
  8
1
100
AcDbLine
 10
2.688591
 20
4.697796
 30
0.0
 11
2.605694999999999
 21
4.911691
 31
0.0
  0
LINE
  5
19E
330
4CB
100
AcDbEntity
  8
1
100
AcDbLine
 10
2.605694999999999
 20
4.911691
 30
0.0
 11
2.526086
 21
5.12283
 31
0.0
  0
LINE
  5
19F
330
4CB
100
AcDbEntity
  8
1
100
AcDbLine
 10
2.526086
 20
5.12283
 30
0.0
 11
2.449761
 21
5.331112999999999
 31
0.0
  0
LINE
  5
1A0
330
4CB
100
AcDbEntity
  8
1
100
AcDbLine
 10
0.0
 20
-10.586856
 30
0.0
 11
0.0
 21
10.586856
 31
0.0
  0
LINE
  5
1A1
330
4CB
100
AcDbEntity
  8
1
100
AcDbLine
 10
8.831633999999999
 20
-7.345444999999999
 30
0.0
 11
8.809057000000001
 21
-7.371391
 31
0.0
  0
LINE
  5
1A2
330
4CB
100
AcDbEntity
  8
1
100
AcDbLine
 10
8.535036999999999
 20
-3.383333
 30
0.0
 11
7.785508
 21
-3.624883
 31
0.0
  0
LINE
  5
1A3
330
4CB
100
AcDbEntity
  8
1
100
AcDbLine
 10
7.785508
 20
-3.624883
 30
0.0
 11
7.031997
 21
-3.864548999999999
 31
0.0
  0
LINE
  5
1A4
330
4CB
100
AcDbEntity
  8
1
100
AcDbLine
 10
7.031997
 20
-3.864548999999999
 30
0.0
 11
6.274421
 21
-4.102345999999999
 31
0.0
  0
LINE
  5
1A5
330
4CB
100
AcDbEntity
  8
1
100
AcDbLine
 10
8.730210000000001
 20
-7.451600999999999
 30
0.0
 11
8.700075999999999
 21
-7.478978999999998
 31
0.0
  0
LINE
  5
1A6
330
4CB
100
AcDbEntity
  8
1
100
AcDbLine
 10
5.512863999999999
 20
-4.33826
 30
0.0
 11
4.749411
 21
-4.571616
 31
0.0
  0
LINE
  5
1A7
330
4CB
100
AcDbEntity
  8
1
100
AcDbLine
 10
4.749411
 20
-4.571616
 30
0.0
 11
3.984757
 21
-4.802186999999999
 31
0.0
  0
LINE
  5
1A8
330
4CB
100
AcDbEntity
  8
1
100
AcDbLine
 10
3.984757
 20
-4.802186999999999
 30
0.0
 11
3.218207
 21
-5.030199999999999
 31
0.0
  0
LINE
  5
1A9
330
4CB
100
AcDbEntity
  8
1
100
AcDbLine
 10
3.218207
 20
-5.030199999999999
 30
0.0
 11
2.449761
 21
-5.255653999999999
 31
0.0
  0
LINE
  5
1AA
330
4CB
100
AcDbEntity
  8
1
100
AcDbLine
 10
4.710124999999999
 20
-8.768791999999999
 30
0.0
 11
4.574315
 21
-8.653964
 31
0.0
  0
LINE
  5
1AB
330
4CB
100
AcDbEntity
  8
1
100
AcDbLine
 10
4.574315
 20
-8.653964
 30
0.0
 11
4.440906
 21
-8.533326999999999
 31
0.0
  0
LINE
  5
1AC
330
4CB
100
AcDbEntity
  8
1
100
AcDbLine
 10
4.440906
 20
-8.533326999999999
 30
0.0
 11
4.309896
 21
-8.406717
 31
0.0
  0
LINE
  5
1AD
330
4CB
100
AcDbEntity
  8
1
100
AcDbLine
 10
4.309896
 20
-8.406717
 30
0.0
 11
4.181117999999999
 21
-8.273682
 31
0.0
  0
LINE
  5
1AE
330
4CB
100
AcDbEntity
  8
1
100
AcDbLine
 10
8.383863999999999
 20
-7.701172999999999
 30
0.0
 11
8.334907000000001
 21
-7.728028
 31
0.0
  0
LINE
  5
1AF
330
4CB
100
AcDbEntity
  8
1
100
AcDbLine
 10
8.334907000000001
 20
-7.728028
 30
0.0
 11
8.283853
 21
-7.754367
 31
0.0
  0
LINE
  5
1B0
330
4CB
100
AcDbEntity
  8
1
100
AcDbLine
 10
8.283853
 20
-7.754367
 30
0.0
 11
8.230821
 21
-7.780027
 31
0.0
  0
LINE
  5
1B1
330
4CB
100
AcDbEntity
  8
1
100
AcDbLine
 10
8.230821
 20
-7.780027
 30
0.0
 11
8.176414999999998
 21
-7.804675999999999
 31
0.0
  0
LINE
  5
1B2
330
4CB
100
AcDbEntity
  8
1
100
AcDbLine
 10
8.176414999999998
 20
-7.804675999999999
 30
0.0
 11
8.120606
 21
-7.828261
 31
0.0
  0
LINE
  5
1B3
330
4CB
100
AcDbEntity
  8
1
100
AcDbLine
 10
8.063447999999999
 20
-7.850705
 30
0.0
 11
8.005686999999999
 21
-7.871700999999999
 31
0.0
  0
LINE
  5
1B4
330
4CB
100
AcDbEntity
  8
1
100
AcDbLine
 10
8.005686999999999
 20
-7.871700999999999
 30
0.0
 11
7.947455999999999
 21
-7.891200999999999
 31
0.0
  0
LINE
  5
1B5
330
4CB
100
AcDbEntity
  8
1
100
AcDbLine
 10
7.947455999999999
 20
-7.891200999999999
 30
0.0
 11
7.888691
 21
-7.909221999999999
 31
0.0
  0
LINE
  5
1B6
330
4CB
100
AcDbEntity
  8
1
100
AcDbLine
 10
7.888691
 20
-7.909221999999999
 30
0.0
 11
7.882255
 21
-7.911096999999999
 31
0.0
  0
LINE
  5
1B7
330
4CB
100
AcDbEntity
  8
1
100
AcDbLine
 10
9.464089999999998
 20
-5.465393999999999
 30
0.0
 11
9.464089999999998
 21
-5.771412999999999
 31
0.0
  0
LINE
  5
1B8
330
4CB
100
AcDbEntity
  8
1
100
AcDbLine
 10
8.871897999999999
 20
-7.294552
 30
0.0
 11
8.852569
 21
-7.319824999999999
 31
0.0
  0
LINE
  5
1B9
330
4CB
100
AcDbEntity
  8
1
100
AcDbLine
 10
8.320154999999999
 20
-3.555919999999999
 30
0.0
 11
8.320113
 21
-3.646735
 31
0.0
  0
LINE
  5
1BA
330
4CB
100
AcDbEntity
  8
1
100
AcDbLine
 10
8.320113
 20
-3.646735
 30
0.0
 11
8.323968999999999
 21
-3.736245999999999
 31
0.0
  0
LINE
  5
1BB
330
4CB
100
AcDbEntity
  8
1
100
AcDbLine
 10
8.323968999999999
 20
-3.736245999999999
 30
0.0
 11
8.331720999999999
 21
-3.824476999999999
 31
0.0
  0
LINE
  5
1BC
330
4CB
100
AcDbEntity
  8
1
100
AcDbLine
 10
8.331720999999999
 20
-3.824476999999999
 30
0.0
 11
8.343330999999999
 21
-3.911344999999999
 31
0.0
  0
LINE
  5
1BD
330
4CB
100
AcDbEntity
  8
1
100
AcDbLine
 10
8.343330999999999
 20
-3.911344999999999
 30
0.0
 11
8.358836999999999
 21
-3.996978999999999
 31
0.0
  0
LINE
  5
1BE
330
4CB
100
AcDbEntity
  8
1
100
AcDbLine
 10
8.811935999999999
 20
1.044826
 30
0.0
 11
8.808280999999999
 21
1.021436
 31
0.0
  0
LINE
  5
1BF
330
4CB
100
AcDbEntity
  8
1
100
AcDbLine
 10
8.358836999999999
 20
-3.996978999999999
 30
0.0
 11
8.378358999999999
 21
-4.081712
 31
0.0
  0
LINE
  5
1C0
330
4CB
100
AcDbEntity
  8
1
100
AcDbLine
 10
8.378358999999999
 20
-4.081712
 30
0.0
 11
8.401904
 21
-4.165703999999999
 31
0.0
  0
LINE
  5
1C1
330
4CB
100
AcDbEntity
  8
1
100
AcDbLine
 10
8.401904
 20
-4.165703999999999
 30
0.0
 11
8.429463999999999
 21
-4.248833999999999
 31
0.0
  0
LINE
  5
1C2
330
4CB
100
AcDbEntity
  8
1
100
AcDbLine
 10
8.429463999999999
 20
-4.248833999999999
 30
0.0
 11
8.461138999999999
 21
-4.331019999999999
 31
0.0
  0
LINE
  5
1C3
330
4CB
100
AcDbEntity
  8
1
100
AcDbLine
 10
8.461138999999999
 20
-4.331019999999999
 30
0.0
 11
8.496952
 21
-4.412298
 31
0.0
  0
LINE
  5
1C4
330
4CB
100
AcDbEntity
  8
1
100
AcDbLine
 10
8.496952
 20
-4.412298
 30
0.0
 11
8.53688
 21
-4.492672999999999
 31
0.0
  0
LINE
  5
1C5
330
4CB
100
AcDbEntity
  8
1
100
AcDbLine
 10
8.53688
 20
-4.492672999999999
 30
0.0
 11
8.580949999999999
 21
-4.572017999999999
 31
0.0
  0
LINE
  5
1C6
330
4CB
100
AcDbEntity
  8
1
100
AcDbLine
 10
8.580949999999999
 20
-4.572017999999999
 30
0.0
 11
8.629089
 21
-4.650250999999999
 31
0.0
  0
LINE
  5
1C7
330
4CB
100
AcDbEntity
  8
1
100
AcDbLine
 10
8.629089
 20
-4.650250999999999
 30
0.0
 11
8.681369999999999
 21
-4.727494999999999
 31
0.0
  0
LINE
  5
1C8
330
4CB
100
AcDbEntity
  8
1
100
AcDbLine
 10
8.681369999999999
 20
-4.727494999999999
 30
0.0
 11
8.738035999999999
 21
-4.803927999999999
 31
0.0
  0
LINE
  5
1C9
330
4CB
100
AcDbEntity
  8
1
100
AcDbLine
 10
8.738035999999999
 20
-4.803927999999999
 30
0.0
 11
8.798975
 21
-4.879521999999999
 31
0.0
  0
LINE
  5
1CA
330
4CB
100
AcDbEntity
  8
1
100
AcDbLine
 10
8.798975
 20
-4.879521999999999
 30
0.0
 11
8.864297999999999
 21
-4.954342999999999
 31
0.0
  0
LINE
  5
1CB
330
4CB
100
AcDbEntity
  8
1
100
AcDbLine
 10
8.864297999999999
 20
-4.954342999999999
 30
0.0
 11
8.934582999999999
 21
-5.028704
 31
0.0
  0
LINE
  5
1CC
330
4CB
100
AcDbEntity
  8
1
100
AcDbLine
 10
8.934582999999999
 20
-5.028704
 30
0.0
 11
9.009933999999999
 21
-5.102775
 31
0.0
  0
LINE
  5
1CD
330
4CB
100
AcDbEntity
  8
1
100
AcDbLine
 10
9.009933999999999
 20
-5.102775
 30
0.0
 11
9.090246
 21
-5.176422
 31
0.0
  0
LINE
  5
1CE
330
4CB
100
AcDbEntity
  8
1
100
AcDbLine
 10
9.090246
 20
-5.176422
 30
0.0
 11
9.175791999999999
 21
-5.249503999999999
 31
0.0
  0
LINE
  5
1CF
330
4CB
100
AcDbEntity
  8
1
100
AcDbLine
 10
9.175791999999999
 20
-5.249503999999999
 30
0.0
 11
9.266658999999998
 21
-5.321988
 31
0.0
  0
LINE
  5
1D0
330
4CB
100
AcDbEntity
  8
1
100
AcDbLine
 10
9.266658999999998
 20
-5.321988
 30
0.0
 11
9.362757999999999
 21
-5.393944
 31
0.0
  0
LINE
  5
1D1
330
4CB
100
AcDbEntity
  8
1
100
AcDbLine
 10
9.362757999999999
 20
-5.393944
 30
0.0
 11
9.464089999999998
 21
-5.465393999999999
 31
0.0
  0
LINE
  5
1D2
330
4CB
100
AcDbEntity
  8
1
100
AcDbLine
 10
7.891547999999999
 20
-3.654015
 30
0.0
 11
7.891547999999999
 21
-3.590708999999999
 31
0.0
  0
LINE
  5
1D3
330
4CB
100
AcDbEntity
  8
1
100
AcDbLine
 10
8.664089999999999
 20
-5.925448999999999
 30
0.0
 11
8.577375999999999
 21
-5.684521
 31
0.0
  0
LINE
  5
1D4
330
4CB
100
AcDbEntity
  8
1
100
AcDbLine
 10
8.577375999999999
 20
-5.684521
 30
0.0
 11
8.490833
 21
-5.440589
 31
0.0
  0
LINE
  5
1D5
330
4CB
100
AcDbEntity
  8
1
100
AcDbLine
 10
8.490833
 20
-5.440589
 30
0.0
 11
8.404460999999999
 21
-5.193651
 31
0.0
  0
LINE
  5
1D6
330
4CB
100
AcDbEntity
  8
1
100
AcDbLine
 10
8.404460999999999
 20
-5.193651
 30
0.0
 11
8.318196999999999
 21
-4.943521999999999
 31
0.0
  0
LINE
  5
1D7
330
4CB
100
AcDbEntity
  8
1
100
AcDbLine
 10
8.318196999999999
 20
-4.943521999999999
 30
0.0
 11
8.232103999999999
 21
-4.690386
 31
0.0
  0
LINE
  5
1D8
330
4CB
100
AcDbEntity
  8
1
100
AcDbLine
 10
8.232103999999999
 20
-4.690386
 30
0.0
 11
8.146373999999999
 21
-4.434810999999999
 31
0.0
  0
LINE
  5
1D9
330
4CB
100
AcDbEntity
  8
1
100
AcDbLine
 10
8.146373999999999
 20
-4.434810999999999
 30
0.0
 11
8.061068999999999
 21
-4.176985
 31
0.0
  0
LINE
  5
1DA
330
4CB
100
AcDbEntity
  8
1
100
AcDbLine
 10
8.809274999999999
 20
0.697696
 30
0.0
 11
8.784943999999999
 21
0.686232
 31
0.0
  0
LINE
  5
1DB
330
4CB
100
AcDbEntity
  8
1
100
AcDbLine
 10
8.061068999999999
 20
-4.176985
 30
0.0
 11
7.976126999999999
 21
-3.916719
 31
0.0
  0
LINE
  5
1DC
330
4CB
100
AcDbEntity
  8
1
100
AcDbLine
 10
7.976126999999999
 20
-3.916719
 30
0.0
 11
7.891547999999999
 21
-3.654015
 31
0.0
  0
LINE
  5
1DD
330
4CB
100
AcDbEntity
  8
1
100
AcDbLine
 10
8.833505
 20
-6.554153999999999
 30
0.0
 11
8.781952
 21
-6.56977
 31
0.0
  0
LINE
  5
1DE
330
4CB
100
AcDbEntity
  8
1
100
AcDbLine
 10
8.781952
 20
-6.56977
 30
0.0
 11
8.804335
 21
-6.587767999999999
 31
0.0
  0
LINE
  5
1DF
330
4CB
100
AcDbEntity
  8
1
100
AcDbLine
 10
8.804335
 20
-6.587767999999999
 30
0.0
 11
8.825275999999998
 21
-6.605771999999999
 31
0.0
  0
LINE
  5
1E0
330
4CB
100
AcDbEntity
  8
1
100
AcDbLine
 10
8.825275999999998
 20
-6.605771999999999
 30
0.0
 11
8.844787
 21
-6.623758
 31
0.0
  0
LINE
  5
1E1
330
4CB
100
AcDbEntity
  8
1
100
AcDbLine
 10
8.844787
 20
-6.623758
 30
0.0
 11
8.862842999999999
 21
-6.641708
 31
0.0
  0
LINE
  5
1E2
330
4CB
100
AcDbEntity
  8
1
100
AcDbLine
 10
8.862842999999999
 20
-6.641708
 30
0.0
 11
8.879497999999999
 21
-6.659600999999999
 31
0.0
  0
LINE
  5
1E3
330
4CB
100
AcDbEntity
  8
1
100
AcDbLine
 10
8.879497999999999
 20
-6.659600999999999
 30
0.0
 11
8.894878999999999
 21
-6.677427999999999
 31
0.0
  0
LINE
  5
1E4
330
4CB
100
AcDbEntity
  8
1
100
AcDbLine
 10
8.894878999999999
 20
-6.677427999999999
 30
0.0
 11
8.908989999999999
 21
-6.695149999999999
 31
0.0
  0
LINE
  5
1E5
330
4CB
100
AcDbEntity
  8
1
100
AcDbLine
 10
8.908989999999999
 20
-6.695149999999999
 30
0.0
 11
8.921855
 21
-6.712774999999999
 31
0.0
  0
LINE
  5
1E6
330
4CB
100
AcDbEntity
  8
1
100
AcDbLine
 10
8.921855
 20
-6.712774999999999
 30
0.0
 11
8.933624999999999
 21
-6.730347
 31
0.0
  0
LINE
  5
1E7
330
4CB
100
AcDbEntity
  8
1
100
AcDbLine
 10
8.933624999999999
 20
-6.730347
 30
0.0
 11
8.944323999999999
 21
-6.747866
 31
0.0
  0
LINE
  5
1E8
330
4CB
100
AcDbEntity
  8
1
100
AcDbLine
 10
8.944323999999999
 20
-6.747866
 30
0.0
 11
8.95395
 21
-6.76531
 31
0.0
  0
LINE
  5
1E9
330
4CB
100
AcDbEntity
  8
1
100
AcDbLine
 10
8.95395
 20
-6.76531
 30
0.0
 11
8.962605999999999
 21
-6.782702999999999
 31
0.0
  0
LINE
  5
1EA
330
4CB
100
AcDbEntity
  8
1
100
AcDbLine
 10
8.962605999999999
 20
-6.782702999999999
 30
0.0
 11
8.970310000000001
 21
-6.800046
 31
0.0
  0
LINE
  5
1EB
330
4CB
100
AcDbEntity
  8
1
100
AcDbLine
 10
8.970310000000001
 20
-6.800046
 30
0.0
 11
8.977061
 21
-6.817321999999999
 31
0.0
  0
LINE
  5
1EC
330
4CB
100
AcDbEntity
  8
1
100
AcDbLine
 10
8.977061
 20
-6.817321999999999
 30
0.0
 11
8.982939999999999
 21
-6.834532
 31
0.0
  0
LINE
  5
1ED
330
4CB
100
AcDbEntity
  8
1
100
AcDbLine
 10
8.862764999999999
 20
0.915592
 30
0.0
 11
8.879419
 21
0.9136790000000001
 31
0.0
  0
LINE
  5
1EE
330
4CB
100
AcDbEntity
  8
1
100
AcDbLine
 10
8.982939999999999
 20
-6.834532
 30
0.0
 11
8.987951999999999
 21
-6.851630999999999
 31
0.0
  0
LINE
  5
1EF
330
4CB
100
AcDbEntity
  8
1
100
AcDbLine
 10
8.987951999999999
 20
-6.851630999999999
 30
0.0
 11
8.992107999999999
 21
-6.868651999999999
 31
0.0
  0
LINE
  5
1F0
330
4CB
100
AcDbEntity
  8
1
100
AcDbLine
 10
8.992107999999999
 20
-6.868651999999999
 30
0.0
 11
8.995487999999999
 21
-6.885711999999999
 31
0.0
  0
LINE
  5
1F1
330
4CB
100
AcDbEntity
  8
1
100
AcDbLine
 10
8.995487999999999
 20
-6.885711999999999
 30
0.0
 11
8.998111999999999
 21
-6.902803999999999
 31
0.0
  0
LINE
  5
1F2
330
4CB
100
AcDbEntity
  8
1
100
AcDbLine
 10
8.998111999999999
 20
-6.902803999999999
 30
0.0
 11
8.999964999999999
 21
-6.919921999999999
 31
0.0
  0
LINE
  5
1F3
330
4CB
100
AcDbEntity
  8
1
100
AcDbLine
 10
8.999964999999999
 20
-6.919921999999999
 30
0.0
 11
9.001072
 21
-6.937191
 31
0.0
  0
LINE
  5
1F4
330
4CB
100
AcDbEntity
  8
1
100
AcDbLine
 10
9.001072
 20
-6.937191
 30
0.0
 11
9.001443
 21
-6.954616999999999
 31
0.0
  0
LINE
  5
1F5
330
4CB
100
AcDbEntity
  8
1
100
AcDbLine
 10
9.001443
 20
-6.954616999999999
 30
0.0
 11
9.001063
 21
-6.972178999999999
 31
0.0
  0
LINE
  5
1F6
330
4CB
100
AcDbEntity
  8
1
100
AcDbLine
 10
9.001063
 20
-6.972178999999999
 30
0.0
 11
8.999914999999999
 21
-6.989946
 31
0.0
  0
LINE
  5
1F7
330
4CB
100
AcDbEntity
  8
1
100
AcDbLine
 10
8.999914999999999
 20
-6.989946
 30
0.0
 11
8.997987
 21
-7.007936999999999
 31
0.0
  0
LINE
  5
1F8
330
4CB
100
AcDbEntity
  8
1
100
AcDbLine
 10
8.997987
 20
-7.007936999999999
 30
0.0
 11
8.995281
 21
-7.026116
 31
0.0
  0
LINE
  5
1F9
330
4CB
100
AcDbEntity
  8
1
100
AcDbLine
 10
8.995281
 20
-7.026116
 30
0.0
 11
8.991792
 21
-7.044475999999999
 31
0.0
  0
LINE
  5
1FA
330
4CB
100
AcDbEntity
  8
1
100
AcDbLine
 10
7.891547999999999
 20
-3.654015
 30
0.0
 11
8.320154999999999
 21
-3.555919999999999
 31
0.0
  0
LINE
  5
1FB
330
4CB
100
AcDbEntity
  8
1
100
AcDbLine
 10
8.664089999999999
 20
-5.925448999999999
 30
0.0
 11
8.928019
 21
-5.875015
 31
0.0
  0
LINE
  5
1FC
330
4CB
100
AcDbEntity
  8
1
100
AcDbLine
 10
8.936633
 20
-6.523674999999999
 30
0.0
 11
8.910849999999999
 21
-6.531201
 31
0.0
  0
LINE
  5
1FD
330
4CB
100
AcDbEntity
  8
1
100
AcDbLine
 10
8.910849999999999
 20
-6.531201
 30
0.0
 11
8.885066999999999
 21
-6.538788999999999
 31
0.0
  0
LINE
  5
1FE
330
4CB
100
AcDbEntity
  8
1
100
AcDbLine
 10
8.885066999999999
 20
-6.538788999999999
 30
0.0
 11
8.833505
 21
-6.554153999999999
 31
0.0
  0
LINE
  5
1FF
330
4CB
100
AcDbEntity
  8
1
100
AcDbLine
 10
8.951675999999999
 20
0.7827770000000001
 30
0.0
 11
8.946092
 21
0.7783590000000001
 31
0.0
  0
LINE
  5
200
330
4CB
100
AcDbEntity
  8
1
100
AcDbLine
 10
8.946092
 20
0.7783590000000001
 30
0.0
 11
8.934072999999999
 21
0.769388
 31
0.0
  0
LINE
  5
201
330
4CB
100
AcDbEntity
  8
1
100
AcDbLine
 10
8.934072999999999
 20
0.769388
 30
0.0
 11
8.920694000000001
 21
0.760089
 31
0.0
  0
LINE
  5
202
330
4CB
100
AcDbEntity
  8
1
100
AcDbLine
 10
10.498779
 20
-5.473244999999999
 30
0.0
 11
9.981524999999999
 21
-5.622987
 31
0.0
  0
LINE
  5
203
330
4CB
100
AcDbEntity
  8
1
100
AcDbLine
 10
8.697461999999999
 20
-6.116362
 30
0.0
 11
8.711447999999998
 21
-6.128756
 31
0.0
  0
LINE
  5
204
330
4CB
100
AcDbEntity
  8
1
100
AcDbLine
 10
8.711447999999998
 20
-6.128756
 30
0.0
 11
8.724241000000001
 21
-6.141367999999999
 31
0.0
  0
LINE
  5
205
330
4CB
100
AcDbEntity
  8
1
100
AcDbLine
 10
8.782766
 20
-6.224116999999999
 30
0.0
 11
8.789989
 21
-6.240065
 31
0.0
  0
LINE
  5
206
330
4CB
100
AcDbEntity
  8
1
100
AcDbLine
 10
8.816435
 20
-6.37313
 30
0.0
 11
8.816208999999998
 21
-6.394894999999999
 31
0.0
  0
LINE
  5
207
330
4CB
100
AcDbEntity
  8
1
100
AcDbLine
 10
8.628994999999999
 20
6.160216
 30
0.0
 11
8.681267
 21
6.098679999999999
 31
0.0
  0
LINE
  5
208
330
4CB
100
AcDbEntity
  8
1
100
AcDbLine
 10
8.577375999999999
 20
5.147045999999999
 30
0.0
 11
8.490833
 21
5.379609999999999
 31
0.0
  0
LINE
  5
209
330
4CB
100
AcDbEntity
  8
1
100
AcDbLine
 10
7.027311
 20
-6.323805999999999
 30
0.0
 11
7.086177
 21
-6.287537
 31
0.0
  0
LINE
  5
20A
330
4CB
100
AcDbEntity
  8
1
100
AcDbLine
 10
7.404652
 20
-6.130341
 30
0.0
 11
7.469749
 21
-6.105395999999999
 31
0.0
  0
LINE
  5
20B
330
4CB
100
AcDbEntity
  8
1
100
AcDbLine
 10
4.309928
 20
1.369423999999999
 30
0.0
 11
4.181144999999999
 21
1.583323
 31
0.0
  0
LINE
  5
20C
330
4CB
100
AcDbEntity
  8
1
100
AcDbLine
 10
8.934103999999999
 20
-7.197197
 30
0.0
 11
8.920713000000001
 21
-7.220977
 31
0.0
  0
LINE
  5
20D
330
4CB
100
AcDbEntity
  8
1
100
AcDbLine
 10
2.77482
 20
4.481009999999999
 30
0.0
 11
2.688591
 21
4.697796
 31
0.0
  0
LINE
  5
20E
330
4CB
100
AcDbEntity
  8
1
100
AcDbLine
 10
8.852569
 20
-7.319824999999999
 30
0.0
 11
8.831633999999999
 21
-7.345444999999999
 31
0.0
  0
LINE
  5
20F
330
4CB
100
AcDbEntity
  8
1
100
AcDbLine
 10
8.664089999999999
 20
3.236674999999999
 30
0.0
 11
15.5
 21
5.223437999999999
 31
0.0
  0
LINE
  5
210
330
4CB
100
AcDbEntity
  8
1
100
AcDbLine
 10
8.809057000000001
 20
-7.371391
 30
0.0
 11
8.784656
 21
-7.397758
 31
0.0
  0
LINE
  5
211
330
4CB
100
AcDbEntity
  8
1
100
AcDbLine
 10
8.667935999999999
 20
-7.506588
 30
0.0
 11
8.633771000000001
 21
-7.534366999999999
 31
0.0
  0
LINE
  5
212
330
4CB
100
AcDbEntity
  8
1
100
AcDbLine
 10
8.633771000000001
 20
-7.534366999999999
 30
0.0
 11
8.597499
 21
-7.562289999999999
 31
0.0
  0
LINE
  5
213
330
4CB
100
AcDbEntity
  8
1
100
AcDbLine
 10
8.597499
 20
-7.562289999999999
 30
0.0
 11
8.559047999999998
 21
-7.590308
 31
0.0
  0
LINE
  5
214
330
4CB
100
AcDbEntity
  8
1
100
AcDbLine
 10
8.559047999999998
 20
-7.590308
 30
0.0
 11
8.518436999999998
 21
-7.618308999999999
 31
0.0
  0
LINE
  5
215
330
4CB
100
AcDbEntity
  8
1
100
AcDbLine
 10
8.953903999999999
 20
0.8979119999999999
 30
0.0
 11
8.962567999999999
 21
0.894617
 31
0.0
  0
LINE
  5
216
330
4CB
100
AcDbEntity
  8
1
100
AcDbLine
 10
8.928019
 20
-5.875015
 30
0.0
 11
9.464089999999998
 21
-5.771412999999999
 31
0.0
  0
LINE
  5
217
330
4CB
100
AcDbEntity
  8
1
100
AcDbLine
 10
8.920694000000001
 20
0.760089
 30
0.0
 11
8.905888
 21
0.750448
 31
0.0
  0
LINE
  5
218
330
4CB
100
AcDbEntity
  8
1
100
AcDbLine
 10
8.905888
 20
0.750448
 30
0.0
 11
8.889654999999999
 21
0.740503
 31
0.0
  0
LINE
  5
219
330
4CB
100
AcDbEntity
  8
1
100
AcDbLine
 10
8.889654999999999
 20
0.740503
 30
0.0
 11
8.871960000000001
 21
0.730267
 31
0.0
  0
LINE
  5
21A
330
4CB
100
AcDbEntity
  8
1
100
AcDbLine
 10
8.871960000000001
 20
0.730267
 30
0.0
 11
8.852674
 21
0.7196970000000001
 31
0.0
  0
LINE
  5
21B
330
4CB
100
AcDbEntity
  8
1
100
AcDbLine
 10
8.852674
 20
0.7196970000000001
 30
0.0
 11
8.831791
 21
0.708831
 31
0.0
  0
LINE
  5
21C
330
4CB
100
AcDbEntity
  8
1
100
AcDbLine
 10
8.831791
 20
0.708831
 30
0.0
 11
8.809274999999999
 21
0.697696
 31
0.0
  0
LINE
  5
21D
330
4CB
100
AcDbEntity
  8
1
100
AcDbLine
 10
8.784943999999999
 20
0.686232
 30
0.0
 11
8.758739
 21
0.6744680000000001
 31
0.0
  0
LINE
  5
21E
330
4CB
100
AcDbEntity
  8
1
100
AcDbLine
 10
8.758739
 20
0.6744680000000001
 30
0.0
 11
8.730666000000001
 21
0.662461
 31
0.0
  0
LINE
  5
21F
330
4CB
100
AcDbEntity
  8
1
100
AcDbLine
 10
15.5
 20
0.467268
 30
0.0
 11
15.5
 21
4.025030999999999
 31
0.0
  0
LINE
  5
220
330
4CB
100
AcDbEntity
  8
1
100
AcDbLine
 10
8.730666000000001
 20
0.662461
 30
0.0
 11
8.700628
 21
0.6502150000000001
 31
0.0
  0
LINE
  5
221
330
4CB
100
AcDbEntity
  8
1
100
AcDbLine
 10
15.0
 20
-0.7020020000000001
 30
0.0
 11
15.0
 21
5.078119
 31
0.0
  0
LINE
  5
222
330
4CB
100
AcDbEntity
  8
1
100
AcDbLine
 10
8.700628
 20
0.6502150000000001
 30
0.0
 11
8.668594999999999
 21
0.637766
 31
0.0
  0
LINE
  5
223
330
4CB
100
AcDbEntity
  8
1
100
AcDbLine
 10
8.664089999999999
 20
3.236674999999999
 30
0.0
 11
7.968802
 21
5.150765999999999
 31
0.0
  0
LINE
  5
224
330
4CB
100
AcDbEntity
  8
1
100
AcDbLine
 10
8.668594999999999
 20
0.637766
 30
0.0
 11
8.634544999999999
 21
0.625164
 31
0.0
  0
LINE
  5
225
330
4CB
100
AcDbEntity
  8
1
100
AcDbLine
 10
8.664089999999999
 20
4.910533999999999
 30
0.0
 11
8.664089999999999
 21
3.236674999999999
 31
0.0
  0
LINE
  5
226
330
4CB
100
AcDbEntity
  8
1
100
AcDbLine
 10
8.634544999999999
 20
0.625164
 30
0.0
 11
8.598392
 21
0.6124390000000001
 31
0.0
  0
LINE
  5
227
330
4CB
100
AcDbEntity
  8
1
100
AcDbLine
 10
4.710124999999999
 20
0.7529520000000001
 30
0.0
 11
4.574333
 21
0.9543559999999999
 31
0.0
  0
LINE
  5
228
330
4CB
100
AcDbEntity
  8
1
100
AcDbLine
 10
8.598392
 20
0.6124390000000001
 30
0.0
 11
8.560063000000001
 21
0.599615
 31
0.0
  0
LINE
  5
229
330
4CB
100
AcDbEntity
  8
1
100
AcDbLine
 10
4.574333
 20
0.9543559999999999
 30
0.0
 11
4.440933999999999
 21
1.159880999999999
 31
0.0
  0
LINE
  5
22A
330
4CB
100
AcDbEntity
  8
1
100
AcDbLine
 10
8.560063000000001
 20
0.599615
 30
0.0
 11
8.519576999999999
 21
0.5867600000000001
 31
0.0
  0
LINE
  5
22B
330
4CB
100
AcDbEntity
  8
1
100
AcDbLine
 10
4.440933999999999
 20
1.159880999999999
 30
0.0
 11
4.309928
 21
1.369423999999999
 31
0.0
  0
LINE
  5
22C
330
4CB
100
AcDbEntity
  8
1
100
AcDbLine
 10
8.519576999999999
 20
0.5867600000000001
 30
0.0
 11
8.476983999999999
 21
0.5739720000000001
 31
0.0
  0
LINE
  5
22D
330
4CB
100
AcDbEntity
  8
1
100
AcDbLine
 10
8.476983999999999
 20
0.5739720000000001
 30
0.0
 11
8.432223999999999
 21
0.5612729999999999
 31
0.0
  0
LINE
  5
22E
330
4CB
100
AcDbEntity
  8
1
100
AcDbLine
 10
8.432223999999999
 20
0.5612729999999999
 30
0.0
 11
8.385315
 21
0.548723
 31
0.0
  0
LINE
  5
22F
330
4CB
100
AcDbEntity
  8
1
100
AcDbLine
 10
8.385315
 20
0.548723
 30
0.0
 11
8.33643
 21
0.536473
 31
0.0
  0
LINE
  5
230
330
4CB
100
AcDbEntity
  8
1
100
AcDbLine
 10
8.33643
 20
0.536473
 30
0.0
 11
8.285422
 21
0.5245100000000001
 31
0.0
  0
LINE
  5
231
330
4CB
100
AcDbEntity
  8
1
100
AcDbLine
 10
8.285422
 20
0.5245100000000001
 30
0.0
 11
8.232414999999999
 21
0.512908
 31
0.0
  0
LINE
  5
232
330
4CB
100
AcDbEntity
  8
1
100
AcDbLine
 10
8.232414999999999
 20
0.512908
 30
0.0
 11
8.178015
 21
0.501912
 31
0.0
  0
LINE
  5
233
330
4CB
100
AcDbEntity
  8
1
100
AcDbLine
 10
8.178015
 20
0.501912
 30
0.0
 11
8.122192999999999
 21
0.491507
 31
0.0
  0
LINE
  5
234
330
4CB
100
AcDbEntity
  8
1
100
AcDbLine
 10
8.998105999999999
 20
0.866948
 30
0.0
 11
8.999962
 21
0.8623509999999999
 31
0.0
  0
LINE
  5
235
330
4CB
100
AcDbEntity
  8
1
100
AcDbLine
 10
8.122192999999999
 20
0.491507
 30
0.0
 11
8.065001999999999
 21
0.4817020000000001
 31
0.0
  0
LINE
  5
236
330
4CB
100
AcDbEntity
  8
1
100
AcDbLine
 10
8.065001999999999
 20
0.4817020000000001
 30
0.0
 11
8.007205
 21
0.472724
 31
0.0
  0
LINE
  5
237
330
4CB
100
AcDbEntity
  8
1
100
AcDbLine
 10
8.007205
 20
0.472724
 30
0.0
 11
7.948939
 21
0.464555
 31
0.0
  0
LINE
  5
238
330
4CB
100
AcDbEntity
  8
1
100
AcDbLine
 10
7.948939
 20
0.464555
 30
0.0
 11
7.890135
 21
0.457137
 31
0.0
  0
LINE
  5
239
330
4CB
100
AcDbEntity
  8
1
100
AcDbLine
 10
7.890135
 20
0.457137
 30
0.0
 11
7.831272
 21
0.450596
 31
0.0
  0
LINE
  5
23A
330
4CB
100
AcDbEntity
  8
1
100
AcDbLine
 10
7.831272
 20
0.450596
 30
0.0
 11
7.772485
 21
0.4449010000000001
 31
0.0
  0
LINE
  5
23B
330
4CB
100
AcDbEntity
  8
1
100
AcDbLine
 10
7.772485
 20
0.4449010000000001
 30
0.0
 11
7.713719999999999
 21
0.4399790000000001
 31
0.0
  0
LINE
  5
23C
330
4CB
100
AcDbEntity
  8
1
100
AcDbLine
 10
7.713719999999999
 20
0.4399790000000001
 30
0.0
 11
7.655183
 21
0.435887
 31
0.0
  0
LINE
  5
23D
330
4CB
100
AcDbEntity
  8
1
100
AcDbLine
 10
7.655183
 20
0.435887
 30
0.0
 11
7.596938999999999
 21
0.4325840000000001
 31
0.0
  0
LINE
  5
23E
330
4CB
100
AcDbEntity
  8
1
100
AcDbLine
 10
7.596938999999999
 20
0.4325840000000001
 30
0.0
 11
7.539000999999999
 21
0.4300080000000001
 31
0.0
  0
LINE
  5
23F
330
4CB
100
AcDbEntity
  8
1
100
AcDbLine
 10
7.539000999999999
 20
0.4300080000000001
 30
0.0
 11
7.481499
 21
0.4281850000000001
 31
0.0
  0
LINE
  5
240
330
4CB
100
AcDbEntity
  8
1
100
AcDbLine
 10
7.481499
 20
0.4281850000000001
 30
0.0
 11
7.424477
 21
0.427071
 31
0.0
  0
LINE
  5
241
330
4CB
100
AcDbEntity
  8
1
100
AcDbLine
 10
7.424477
 20
0.427071
 30
0.0
 11
7.367963999999999
 21
0.4266090000000001
 31
0.0
  0
LINE
  5
242
330
4CB
100
AcDbEntity
  8
1
100
AcDbLine
 10
7.367963999999999
 20
0.4266090000000001
 30
0.0
 11
7.312067999999999
 21
0.426807
 31
0.0
  0
LINE
  5
243
330
4CB
100
AcDbEntity
  8
1
100
AcDbLine
 10
7.312067999999999
 20
0.426807
 30
0.0
 11
7.25686
 21
0.427619
 31
0.0
  0
LINE
  5
244
330
4CB
100
AcDbEntity
  8
1
100
AcDbLine
 10
7.25686
 20
0.427619
 30
0.0
 11
7.202336999999999
 21
0.428996
 31
0.0
  0
LINE
  5
245
330
4CB
100
AcDbEntity
  8
1
100
AcDbLine
 10
7.202336999999999
 20
0.428996
 30
0.0
 11
7.148492
 21
0.430936
 31
0.0
  0
LINE
  5
246
330
4CB
100
AcDbEntity
  8
1
100
AcDbLine
 10
7.148492
 20
0.430936
 30
0.0
 11
7.095335999999999
 21
0.433398
 31
0.0
  0
LINE
  5
247
330
4CB
100
AcDbEntity
  8
1
100
AcDbLine
 10
7.095335999999999
 20
0.433398
 30
0.0
 11
7.042919999999999
 21
0.4363350000000001
 31
0.0
  0
LINE
  5
248
330
4CB
100
AcDbEntity
  8
1
100
AcDbLine
 10
7.042919999999999
 20
0.4363350000000001
 30
0.0
 11
6.991291999999999
 21
0.439744
 31
0.0
  0
LINE
  5
249
330
4CB
100
AcDbEntity
  8
1
100
AcDbLine
 10
6.991291999999999
 20
0.439744
 30
0.0
 11
6.940502999999999
 21
0.4435800000000001
 31
0.0
  0
LINE
  5
24A
330
4CB
100
AcDbEntity
  8
1
100
AcDbLine
 10
6.940502999999999
 20
0.4435800000000001
 30
0.0
 11
6.89056
 21
0.447803
 31
0.0
  0
LINE
  5
24B
330
4CB
100
AcDbEntity
  8
1
100
AcDbLine
 10
6.89056
 20
0.447803
 30
0.0
 11
6.84145
 21
0.4524160000000001
 31
0.0
  0
LINE
  5
24C
330
4CB
100
AcDbEntity
  8
1
100
AcDbLine
 10
6.84145
 20
0.4524160000000001
 30
0.0
 11
6.793167999999999
 21
0.4573800000000001
 31
0.0
  0
LINE
  5
24D
330
4CB
100
AcDbEntity
  8
1
100
AcDbLine
 10
6.793167999999999
 20
0.4573800000000001
 30
0.0
 11
6.745775
 21
0.462655
 31
0.0
  0
LINE
  5
24E
330
4CB
100
AcDbEntity
  8
1
100
AcDbLine
 10
6.745775
 20
0.462655
 30
0.0
 11
6.699360999999999
 21
0.468229
 31
0.0
  0
LINE
  5
24F
330
4CB
100
AcDbEntity
  8
1
100
AcDbLine
 10
6.699360999999999
 20
0.468229
 30
0.0
 11
6.653966999999999
 21
0.474065
 31
0.0
  0
LINE
  5
250
330
4CB
100
AcDbEntity
  8
1
100
AcDbLine
 10
6.653966999999999
 20
0.474065
 30
0.0
 11
6.609602
 21
0.4801280000000001
 31
0.0
  0
LINE
  5
251
330
4CB
100
AcDbEntity
  8
1
100
AcDbLine
 10
6.609602
 20
0.4801280000000001
 30
0.0
 11
6.566300999999999
 21
0.486416
 31
0.0
  0
LINE
  5
252
330
4CB
100
AcDbEntity
  8
1
100
AcDbLine
 10
6.566300999999999
 20
0.486416
 30
0.0
 11
6.524081999999999
 21
0.4928930000000001
 31
0.0
  0
LINE
  5
253
330
4CB
100
AcDbEntity
  8
1
100
AcDbLine
 10
6.524081999999999
 20
0.4928930000000001
 30
0.0
 11
6.482974999999999
 21
0.499524
 31
0.0
  0
LINE
  5
254
330
4CB
100
AcDbEntity
  8
1
100
AcDbLine
 10
6.482974999999999
 20
0.499524
 30
0.0
 11
6.443024999999999
 21
0.5063100000000001
 31
0.0
  0
LINE
  5
255
330
4CB
100
AcDbEntity
  8
1
100
AcDbLine
 10
6.443024999999999
 20
0.5063100000000001
 30
0.0
 11
6.404225
 21
0.5132250000000001
 31
0.0
  0
LINE
  5
256
330
4CB
100
AcDbEntity
  8
1
100
AcDbLine
 10
6.404225
 20
0.5132250000000001
 30
0.0
 11
6.366626999999999
 21
0.5202270000000001
 31
0.0
  0
LINE
  5
257
330
4CB
100
AcDbEntity
  8
1
100
AcDbLine
 10
6.366626999999999
 20
0.5202270000000001
 30
0.0
 11
6.330362999999999
 21
0.527299
 31
0.0
  0
LINE
  5
258
330
4CB
100
AcDbEntity
  8
1
100
AcDbLine
 10
6.330362999999999
 20
0.527299
 30
0.0
 11
6.295486
 21
0.534419
 31
0.0
  0
LINE
  5
259
330
4CB
100
AcDbEntity
  8
1
100
AcDbLine
 10
6.295486
 20
0.534419
 30
0.0
 11
6.261973
 21
0.541555
 31
0.0
  0
LINE
  5
25A
330
4CB
100
AcDbEntity
  8
1
100
AcDbLine
 10
6.261973
 20
0.541555
 30
0.0
 11
6.229841
 21
0.548682
 31
0.0
  0
LINE
  5
25B
330
4CB
100
AcDbEntity
  8
1
100
AcDbLine
 10
6.492655
 20
1.158345999999999
 30
0.0
 11
6.517879999999999
 21
1.177999999999999
 31
0.0
  0
LINE
  5
25C
330
4CB
100
AcDbEntity
  8
1
100
AcDbLine
 10
6.517879999999999
 20
1.177999999999999
 30
0.0
 11
6.551209
 21
1.20225
 31
0.0
  0
LINE
  5
25D
330
4CB
100
AcDbEntity
  8
1
100
AcDbLine
 10
6.551209
 20
1.20225
 30
0.0
 11
6.586810999999999
 21
1.226045999999999
 31
0.0
  0
LINE
  5
25E
330
4CB
100
AcDbEntity
  8
1
100
AcDbLine
 10
6.586810999999999
 20
1.226045999999999
 30
0.0
 11
6.624747
 21
1.249396999999999
 31
0.0
  0
LINE
  5
25F
330
4CB
100
AcDbEntity
  8
1
100
AcDbLine
 10
6.624747
 20
1.249396999999999
 30
0.0
 11
6.664986999999999
 21
1.272354999999999
 31
0.0
  0
LINE
  5
260
330
4CB
100
AcDbEntity
  8
1
100
AcDbLine
 10
6.664986999999999
 20
1.272354999999999
 30
0.0
 11
6.707355
 21
1.294618
 31
0.0
  0
LINE
  5
261
330
4CB
100
AcDbEntity
  8
1
100
AcDbLine
 10
6.707355
 20
1.294618
 30
0.0
 11
6.751866999999999
 21
1.316171999999999
 31
0.0
  0
LINE
  5
262
330
4CB
100
AcDbEntity
  8
1
100
AcDbLine
 10
6.751866999999999
 20
1.316171999999999
 30
0.0
 11
6.798530999999999
 21
1.337087999999999
 31
0.0
  0
LINE
  5
263
330
4CB
100
AcDbEntity
  8
1
100
AcDbLine
 10
6.798530999999999
 20
1.337087999999999
 30
0.0
 11
6.847160999999999
 21
1.357167
 31
0.0
  0
LINE
  5
264
330
4CB
100
AcDbEntity
  8
1
100
AcDbLine
 10
6.847160999999999
 20
1.357167
 30
0.0
 11
6.897749
 21
1.376408
 31
0.0
  0
LINE
  5
265
330
4CB
100
AcDbEntity
  8
1
100
AcDbLine
 10
6.897749
 20
1.376408
 30
0.0
 11
6.950317999999999
 21
1.394862999999999
 31
0.0
  0
LINE
  5
266
330
4CB
100
AcDbEntity
  8
1
100
AcDbLine
 10
6.950317999999999
 20
1.394862999999999
 30
0.0
 11
7.004724999999999
 21
1.412404999999999
 31
0.0
  0
LINE
  5
267
330
4CB
100
AcDbEntity
  8
1
100
AcDbLine
 10
7.004724999999999
 20
1.412404999999999
 30
0.0
 11
7.061099
 21
1.429069
 31
0.0
  0
LINE
  5
268
330
4CB
100
AcDbEntity
  8
1
100
AcDbLine
 10
7.061099
 20
1.429069
 30
0.0
 11
7.119318999999999
 21
1.444865
 31
0.0
  0
LINE
  5
269
330
4CB
100
AcDbEntity
  8
1
100
AcDbLine
 10
7.119318999999999
 20
1.444865
 30
0.0
 11
7.178863
 21
1.45962
 31
0.0
  0
LINE
  5
26A
330
4CB
100
AcDbEntity
  8
1
100
AcDbLine
 10
7.240049
 20
1.473335999999999
 30
0.0
 11
7.302554999999999
 21
1.486036
 31
0.0
  0
LINE
  5
26B
330
4CB
100
AcDbEntity
  8
1
100
AcDbLine
 10
7.302554999999999
 20
1.486036
 30
0.0
 11
7.364877
 21
1.497532999999999
 31
0.0
  0
LINE
  5
26C
330
4CB
100
AcDbEntity
  8
1
100
AcDbLine
 10
7.364877
 20
1.497532999999999
 30
0.0
 11
7.426914
 21
1.507690999999999
 31
0.0
  0
LINE
  5
26D
330
4CB
100
AcDbEntity
  8
1
100
AcDbLine
 10
7.426914
 20
1.507690999999999
 30
0.0
 11
7.488736
 21
1.516604
 31
0.0
  0
LINE
  5
26E
330
4CB
100
AcDbEntity
  8
1
100
AcDbLine
 10
7.488736
 20
1.516604
 30
0.0
 11
7.549077
 21
1.524375
 31
0.0
  0
LINE
  5
26F
330
4CB
100
AcDbEntity
  8
1
100
AcDbLine
 10
7.549077
 20
1.524375
 30
0.0
 11
7.607539999999999
 21
1.530891999999999
 31
0.0
  0
LINE
  5
270
330
4CB
100
AcDbEntity
  8
1
100
AcDbLine
 10
7.607539999999999
 20
1.530891999999999
 30
0.0
 11
7.664482
 21
1.536183999999999
 31
0.0
  0
LINE
  5
271
330
4CB
100
AcDbEntity
  8
1
100
AcDbLine
 10
7.664482
 20
1.536183999999999
 30
0.0
 11
7.719761999999999
 21
1.540538999999999
 31
0.0
  0
LINE
  5
272
330
4CB
100
AcDbEntity
  8
1
100
AcDbLine
 10
7.719761999999999
 20
1.540538999999999
 30
0.0
 11
7.773300999999999
 21
1.543943999999999
 31
0.0
  0
LINE
  5
273
330
4CB
100
AcDbEntity
  8
1
100
AcDbLine
 10
7.773300999999999
 20
1.543943999999999
 30
0.0
 11
7.825149999999999
 21
1.546340999999999
 31
0.0
  0
LINE
  5
274
330
4CB
100
AcDbEntity
  8
1
100
AcDbLine
 10
7.825149999999999
 20
1.546340999999999
 30
0.0
 11
7.875361999999999
 21
1.547963999999999
 31
0.0
  0
LINE
  5
275
330
4CB
100
AcDbEntity
  8
1
100
AcDbLine
 10
7.875361999999999
 20
1.547963999999999
 30
0.0
 11
7.923899
 21
1.548805999999999
 31
0.0
  0
LINE
  5
276
330
4CB
100
AcDbEntity
  8
1
100
AcDbLine
 10
7.923899
 20
1.548805999999999
 30
0.0
 11
7.97078
 21
1.548817
 31
0.0
  0
LINE
  5
277
330
4CB
100
AcDbEntity
  8
1
100
AcDbLine
 10
7.97078
 20
1.548817
 30
0.0
 11
8.016152999999999
 21
1.548162
 31
0.0
  0
LINE
  5
278
330
4CB
100
AcDbEntity
  8
1
100
AcDbLine
 10
8.016152999999999
 20
1.548162
 30
0.0
 11
8.059997
 21
1.546842
 31
0.0
  0
LINE
  5
279
330
4CB
100
AcDbEntity
  8
1
100
AcDbLine
 10
8.102318999999999
 20
1.544811
 30
0.0
 11
8.143316999999999
 21
1.542171999999999
 31
0.0
  0
LINE
  5
27A
330
4CB
100
AcDbEntity
  8
1
100
AcDbLine
 10
8.143316999999999
 20
1.542171999999999
 30
0.0
 11
8.18299
 21
1.538929999999999
 31
0.0
  0
LINE
  5
27B
330
4CB
100
AcDbEntity
  8
1
100
AcDbLine
 10
8.18299
 20
1.538929999999999
 30
0.0
 11
8.221328999999998
 21
1.535045999999999
 31
0.0
  0
LINE
  5
27C
330
4CB
100
AcDbEntity
  8
1
100
AcDbLine
 10
8.221328999999998
 20
1.535045999999999
 30
0.0
 11
8.258521
 21
1.53056
 31
0.0
  0
LINE
  5
27D
330
4CB
100
AcDbEntity
  8
1
100
AcDbLine
 10
8.258521
 20
1.53056
 30
0.0
 11
8.294669999999999
 21
1.525452
 31
0.0
  0
LINE
  5
27E
330
4CB
100
AcDbEntity
  8
1
100
AcDbLine
 10
8.294669999999999
 20
1.525452
 30
0.0
 11
8.329665999999999
 21
1.519719
 31
0.0
  0
LINE
  5
27F
330
4CB
100
AcDbEntity
  8
1
100
AcDbLine
 10
8.329665999999999
 20
1.519719
 30
0.0
 11
8.363367999999999
 21
1.513424999999999
 31
0.0
  0
LINE
  5
280
330
4CB
100
AcDbEntity
  8
1
100
AcDbLine
 10
8.363367999999999
 20
1.513424999999999
 30
0.0
 11
8.395770999999999
 21
1.506544
 31
0.0
  0
LINE
  5
281
330
4CB
100
AcDbEntity
  8
1
100
AcDbLine
 10
8.395770999999999
 20
1.506544
 30
0.0
 11
8.426876
 21
1.499079
 31
0.0
  0
LINE
  5
282
330
4CB
100
AcDbEntity
  8
1
100
AcDbLine
 10
8.426876
 20
1.499079
 30
0.0
 11
8.456550999999999
 21
1.491136
 31
0.0
  0
LINE
  5
283
330
4CB
100
AcDbEntity
  8
1
100
AcDbLine
 10
8.456550999999999
 20
1.491136
 30
0.0
 11
8.484713000000001
 21
1.482723
 31
0.0
  0
LINE
  5
284
330
4CB
100
AcDbEntity
  8
1
100
AcDbLine
 10
8.484713000000001
 20
1.482723
 30
0.0
 11
8.511440999999999
 21
1.473808999999999
 31
0.0
  0
LINE
  5
285
330
4CB
100
AcDbEntity
  8
1
100
AcDbLine
 10
8.511440999999999
 20
1.473808999999999
 30
0.0
 11
8.536847999999999
 21
1.464458
 31
0.0
  0
LINE
  5
286
330
4CB
100
AcDbEntity
  8
1
100
AcDbLine
 10
8.536847999999999
 20
1.464458
 30
0.0
 11
8.560969
 21
1.454639999999999
 31
0.0
  0
LINE
  5
287
330
4CB
100
AcDbEntity
  8
1
100
AcDbLine
 10
8.560969
 20
1.454639999999999
 30
0.0
 11
8.583764999999999
 21
1.444369
 31
0.0
  0
LINE
  5
288
330
4CB
100
AcDbEntity
  8
1
100
AcDbLine
 10
8.583764999999999
 20
1.444369
 30
0.0
 11
8.605235999999999
 21
1.433764
 31
0.0
  0
LINE
  5
289
330
4CB
100
AcDbEntity
  8
1
100
AcDbLine
 10
8.605235999999999
 20
1.433764
 30
0.0
 11
8.625352000000001
 21
1.422818
 31
0.0
  0
LINE
  5
28A
330
4CB
100
AcDbEntity
  8
1
100
AcDbLine
 10
8.625352000000001
 20
1.422818
 30
0.0
 11
8.644141000000001
 21
1.411524999999999
 31
0.0
  0
LINE
  5
28B
330
4CB
100
AcDbEntity
  8
1
100
AcDbLine
 10
8.644141000000001
 20
1.411524999999999
 30
0.0
 11
8.661685999999999
 21
1.400007
 31
0.0
  0
LINE
  5
28C
330
4CB
100
AcDbEntity
  8
1
100
AcDbLine
 10
8.661685999999999
 20
1.400007
 30
0.0
 11
8.677958
 21
1.388274999999999
 31
0.0
  0
LINE
  5
28D
330
4CB
100
AcDbEntity
  8
1
100
AcDbLine
 10
8.677958
 20
1.388274999999999
 30
0.0
 11
8.692985
 21
1.376306999999999
 31
0.0
  0
LINE
  5
28E
330
4CB
100
AcDbEntity
  8
1
100
AcDbLine
 10
8.692985
 20
1.376306999999999
 30
0.0
 11
8.706932
 21
1.364173999999999
 31
0.0
  0
LINE
  5
28F
330
4CB
100
AcDbEntity
  8
1
100
AcDbLine
 10
8.706932
 20
1.364173999999999
 30
0.0
 11
8.719768999999999
 21
1.351933999999999
 31
0.0
  0
LINE
  5
290
330
4CB
100
AcDbEntity
  8
1
100
AcDbLine
 10
8.719768999999999
 20
1.351933999999999
 30
0.0
 11
8.731524999999999
 21
1.339523999999999
 31
0.0
  0
LINE
  5
291
330
4CB
100
AcDbEntity
  8
1
100
AcDbLine
 10
8.731524999999999
 20
1.339523999999999
 30
0.0
 11
8.742449999999999
 21
1.326832999999999
 31
0.0
  0
LINE
  5
292
330
4CB
100
AcDbEntity
  8
1
100
AcDbLine
 10
8.742449999999999
 20
1.326832999999999
 30
0.0
 11
8.752563
 21
1.313931999999999
 31
0.0
  0
LINE
  5
293
330
4CB
100
AcDbEntity
  8
1
100
AcDbLine
 10
8.752563
 20
1.313931999999999
 30
0.0
 11
8.761846
 21
1.300746999999999
 31
0.0
  0
LINE
  5
294
330
4CB
100
AcDbEntity
  8
1
100
AcDbLine
 10
13.755918
 20
-2.765324
 30
0.0
 11
13.713092
 21
-2.511797
 31
0.0
  0
LINE
  5
295
330
4CB
100
AcDbEntity
  8
1
100
AcDbLine
 10
8.761846
 20
1.300746999999999
 30
0.0
 11
8.770490999999999
 21
1.286940999999999
 31
0.0
  0
LINE
  5
296
330
4CB
100
AcDbEntity
  8
1
100
AcDbLine
 10
8.770490999999999
 20
1.286940999999999
 30
0.0
 11
8.778598999999999
 21
1.272437999999999
 31
0.0
  0
LINE
  5
297
330
4CB
100
AcDbEntity
  8
1
100
AcDbLine
 10
8.778598999999999
 20
1.272437999999999
 30
0.0
 11
8.78607
 21
1.257312999999999
 31
0.0
  0
LINE
  5
298
330
4CB
100
AcDbEntity
  8
1
100
AcDbLine
 10
8.78607
 20
1.257312999999999
 30
0.0
 11
8.792794999999999
 21
1.241462999999999
 31
0.0
  0
LINE
  5
299
330
4CB
100
AcDbEntity
  8
1
100
AcDbLine
 10
8.792794999999999
 20
1.241462999999999
 30
0.0
 11
8.798789999999998
 21
1.224841999999999
 31
0.0
  0
LINE
  5
29A
330
4CB
100
AcDbEntity
  8
1
100
AcDbLine
 10
8.798789999999998
 20
1.224841999999999
 30
0.0
 11
8.804039999999998
 21
1.207497999999999
 31
0.0
  0
LINE
  5
29B
330
4CB
100
AcDbEntity
  8
1
100
AcDbLine
 10
8.804039999999998
 20
1.207497999999999
 30
0.0
 11
8.808392999999998
 21
1.189462
 31
0.0
  0
LINE
  5
29C
330
4CB
100
AcDbEntity
  8
1
100
AcDbLine
 10
8.808392999999998
 20
1.189462
 30
0.0
 11
8.811830999999999
 21
1.170722999999999
 31
0.0
  0
LINE
  5
29D
330
4CB
100
AcDbEntity
  8
1
100
AcDbLine
 10
8.811830999999999
 20
1.170722999999999
 30
0.0
 11
8.814372999999999
 21
1.151295999999999
 31
0.0
  0
LINE
  5
29E
330
4CB
100
AcDbEntity
  8
1
100
AcDbLine
 10
8.814372999999999
 20
1.151295999999999
 30
0.0
 11
8.815922999999999
 21
1.131252
 31
0.0
  0
LINE
  5
29F
330
4CB
100
AcDbEntity
  8
1
100
AcDbLine
 10
8.815922999999999
 20
1.131252
 30
0.0
 11
8.816474000000001
 21
1.110649999999999
 31
0.0
  0
LINE
  5
2A0
330
4CB
100
AcDbEntity
  8
1
100
AcDbLine
 10
8.816474000000001
 20
1.110649999999999
 30
0.0
 11
8.816033
 21
1.089436
 31
0.0
  0
LINE
  5
2A1
330
4CB
100
AcDbEntity
  8
1
100
AcDbLine
 10
8.816033
 20
1.089436
 30
0.0
 11
8.814519
 21
1.067504
 31
0.0
  0
LINE
  5
2A2
330
4CB
100
AcDbEntity
  8
1
100
AcDbLine
 10
8.814519
 20
1.067504
 30
0.0
 11
8.811935999999999
 21
1.044826
 31
0.0
  0
LINE
  5
2A3
330
4CB
100
AcDbEntity
  8
1
100
AcDbLine
 10
8.808280999999999
 20
1.021436
 30
0.0
 11
8.803463999999999
 21
0.9973309999999999
 31
0.0
  0
LINE
  5
2A4
330
4CB
100
AcDbEntity
  8
1
100
AcDbLine
 10
8.803463999999999
 20
0.9973309999999999
 30
0.0
 11
8.797455000000001
 21
0.9725149999999999
 31
0.0
  0
LINE
  5
2A5
330
4CB
100
AcDbEntity
  8
1
100
AcDbLine
 10
8.797455000000001
 20
0.9725149999999999
 30
0.0
 11
8.790283999999999
 21
0.9469929999999999
 31
0.0
  0
LINE
  5
2A6
330
4CB
100
AcDbEntity
  8
1
100
AcDbLine
 10
8.790283999999999
 20
0.9469929999999999
 30
0.0
 11
8.781952
 21
0.92077
 31
0.0
  0
LINE
  5
2A7
330
4CB
100
AcDbEntity
  8
1
100
AcDbLine
 10
9.492117
 20
0.3637
 30
0.0
 11
9.350941999999999
 21
0.331348
 31
0.0
  0
LINE
  5
2A8
330
4CB
100
AcDbEntity
  8
1
100
AcDbLine
 10
9.350941999999999
 20
0.331348
 30
0.0
 11
9.208956999999999
 21
0.302453
 31
0.0
  0
LINE
  5
2A9
330
4CB
100
AcDbEntity
  8
1
100
AcDbLine
 10
9.208956999999999
 20
0.302453
 30
0.0
 11
9.066163000000001
 21
0.277016
 31
0.0
  0
LINE
  5
2AA
330
4CB
100
AcDbEntity
  8
1
100
AcDbLine
 10
9.066163000000001
 20
0.277016
 30
0.0
 11
8.922577999999999
 21
0.255108
 31
0.0
  0
LINE
  5
2AB
330
4CB
100
AcDbEntity
  8
1
100
AcDbLine
 10
8.922577999999999
 20
0.255108
 30
0.0
 11
8.778183999999999
 21
0.23666
 31
0.0
  0
LINE
  5
2AC
330
4CB
100
AcDbEntity
  8
1
100
AcDbLine
 10
8.778183999999999
 20
0.23666
 30
0.0
 11
8.632927
 21
0.221467
 31
0.0
  0
LINE
  5
2AD
330
4CB
100
AcDbEntity
  8
1
100
AcDbLine
 10
8.632927
 20
0.221467
 30
0.0
 11
8.486819999999999
 21
0.209521
 31
0.0
  0
LINE
  5
2AE
330
4CB
100
AcDbEntity
  8
1
100
AcDbLine
 10
8.486819999999999
 20
0.209521
 30
0.0
 11
8.33985
 21
0.20083
 31
0.0
  0
LINE
  5
2AF
330
4CB
100
AcDbEntity
  8
1
100
AcDbLine
 10
8.33985
 20
0.20083
 30
0.0
 11
8.191933
 21
0.195214
 31
0.0
  0
LINE
  5
2B0
330
4CB
100
AcDbEntity
  8
1
100
AcDbLine
 10
8.191933
 20
0.195214
 30
0.0
 11
8.043172999999999
 21
0.192654
 31
0.0
  0
LINE
  5
2B1
330
4CB
100
AcDbEntity
  8
1
100
AcDbLine
 10
8.043172999999999
 20
0.192654
 30
0.0
 11
7.893464999999999
 21
0.193167
 31
0.0
  0
LINE
  5
2B2
330
4CB
100
AcDbEntity
  8
1
100
AcDbLine
 10
7.893464999999999
 20
0.193167
 30
0.0
 11
7.742407
 21
0.196628
 31
0.0
  0
LINE
  5
2B3
330
4CB
100
AcDbEntity
  8
1
100
AcDbLine
 10
7.589955
 20
0.203014
 30
0.0
 11
7.436153
 21
0.212345
 31
0.0
  0
LINE
  5
2B4
330
4CB
100
AcDbEntity
  8
1
100
AcDbLine
 10
7.436153
 20
0.212345
 30
0.0
 11
7.280732
 21
0.224565
 31
0.0
  0
LINE
  5
2B5
330
4CB
100
AcDbEntity
  8
1
100
AcDbLine
 10
7.280732
 20
0.224565
 30
0.0
 11
7.123663
 21
0.239664
 31
0.0
  0
LINE
  5
2B6
330
4CB
100
AcDbEntity
  8
1
100
AcDbLine
 10
7.123663
 20
0.239664
 30
0.0
 11
6.964974999999999
 21
0.257648
 31
0.0
  0
LINE
  5
2B7
330
4CB
100
AcDbEntity
  8
1
100
AcDbLine
 10
6.964974999999999
 20
0.257648
 30
0.0
 11
6.804486999999999
 21
0.278485
 31
0.0
  0
LINE
  5
2B8
330
4CB
100
AcDbEntity
  8
1
100
AcDbLine
 10
6.804486999999999
 20
0.278485
 30
0.0
 11
6.642225999999999
 21
0.302163
 31
0.0
  0
LINE
  5
2B9
330
4CB
100
AcDbEntity
  8
1
100
AcDbLine
 10
6.642225999999999
 20
0.302163
 30
0.0
 11
6.478166
 21
0.3286929999999999
 31
0.0
  0
LINE
  5
2BA
330
4CB
100
AcDbEntity
  8
1
100
AcDbLine
 10
6.478166
 20
0.3286929999999999
 30
0.0
 11
6.312053999999999
 21
0.358075
 31
0.0
  0
LINE
  5
2BB
330
4CB
100
AcDbEntity
  8
1
100
AcDbLine
 10
6.312053999999999
 20
0.358075
 30
0.0
 11
6.143943
 21
0.390286
 31
0.0
  0
LINE
  5
2BC
330
4CB
100
AcDbEntity
  8
1
100
AcDbLine
 10
6.143943
 20
0.390286
 30
0.0
 11
5.973780999999999
 21
0.4253460000000001
 31
0.0
  0
LINE
  5
2BD
330
4CB
100
AcDbEntity
  8
1
100
AcDbLine
 10
5.973780999999999
 20
0.4253460000000001
 30
0.0
 11
5.801150999999999
 21
0.46332
 31
0.0
  0
LINE
  5
2BE
330
4CB
100
AcDbEntity
  8
1
100
AcDbLine
 10
5.801150999999999
 20
0.46332
 30
0.0
 11
5.626012
 21
0.5042060000000001
 31
0.0
  0
LINE
  5
2BF
330
4CB
100
AcDbEntity
  8
1
100
AcDbLine
 10
5.626012
 20
0.5042060000000001
 30
0.0
 11
5.448405999999999
 21
0.5480030000000001
 31
0.0
  0
LINE
  5
2C0
330
4CB
100
AcDbEntity
  8
1
100
AcDbLine
 10
5.448405999999999
 20
0.5480030000000001
 30
0.0
 11
5.268044
 21
0.594773
 31
0.0
  0
LINE
  5
2C1
330
4CB
100
AcDbEntity
  8
1
100
AcDbLine
 10
5.268044
 20
0.594773
 30
0.0
 11
5.084826999999999
 21
0.6445340000000001
 31
0.0
  0
LINE
  5
2C2
330
4CB
100
AcDbEntity
  8
1
100
AcDbLine
 10
5.084826999999999
 20
0.6445340000000001
 30
0.0
 11
4.898855
 21
0.697262
 31
0.0
  0
LINE
  5
2C3
330
4CB
100
AcDbEntity
  8
1
100
AcDbLine
 10
4.898855
 20
0.697262
 30
0.0
 11
4.803494999999999
 21
0.725132
 31
0.0
  0
LINE
  5
2C4
330
4CB
100
AcDbEntity
  8
1
100
AcDbLine
 10
6.229841
 20
0.548682
 30
0.0
 11
6.226801
 21
0.573703
 31
0.0
  0
LINE
  5
2C5
330
4CB
100
AcDbEntity
  8
1
100
AcDbLine
 10
6.226801
 20
0.573703
 30
0.0
 11
6.224757
 21
0.598846
 31
0.0
  0
LINE
  5
2C6
330
4CB
100
AcDbEntity
  8
1
100
AcDbLine
 10
6.224757
 20
0.598846
 30
0.0
 11
6.223708999999999
 21
0.624113
 31
0.0
  0
LINE
  5
2C7
330
4CB
100
AcDbEntity
  8
1
100
AcDbLine
 10
6.223708999999999
 20
0.624113
 30
0.0
 11
6.223633
 21
0.6495410000000001
 31
0.0
  0
LINE
  5
2C8
330
4CB
100
AcDbEntity
  8
1
100
AcDbLine
 10
6.223633
 20
0.6495410000000001
 30
0.0
 11
6.224559999999999
 21
0.6751020000000001
 31
0.0
  0
LINE
  5
2C9
330
4CB
100
AcDbEntity
  8
1
100
AcDbLine
 10
6.224559999999999
 20
0.6751020000000001
 30
0.0
 11
6.226575
 21
0.700704
 31
0.0
  0
LINE
  5
2CA
330
4CB
100
AcDbEntity
  8
1
100
AcDbLine
 10
6.226575
 20
0.700704
 30
0.0
 11
6.229676
 21
0.726336
 31
0.0
  0
LINE
  5
2CB
330
4CB
100
AcDbEntity
  8
1
100
AcDbLine
 10
6.229676
 20
0.726336
 30
0.0
 11
6.233874
 21
0.75202
 31
0.0
  0
LINE
  5
2CC
330
4CB
100
AcDbEntity
  8
1
100
AcDbLine
 10
6.233874
 20
0.75202
 30
0.0
 11
6.239268
 21
0.777724
 31
0.0
  0
LINE
  5
2CD
330
4CB
100
AcDbEntity
  8
1
100
AcDbLine
 10
6.239268
 20
0.777724
 30
0.0
 11
6.24587
 21
0.8034829999999999
 31
0.0
  0
LINE
  5
2CE
330
4CB
100
AcDbEntity
  8
1
100
AcDbLine
 10
6.24587
 20
0.8034829999999999
 30
0.0
 11
6.253678999999999
 21
0.829277
 31
0.0
  0
LINE
  5
2CF
330
4CB
100
AcDbEntity
  8
1
100
AcDbLine
 10
6.253678999999999
 20
0.829277
 30
0.0
 11
6.262779
 21
0.8549789999999999
 31
0.0
  0
LINE
  5
2D0
330
4CB
100
AcDbEntity
  8
1
100
AcDbLine
 10
6.262779
 20
0.8549789999999999
 30
0.0
 11
6.273170999999999
 21
0.8805799999999999
 31
0.0
  0
LINE
  5
2D1
330
4CB
100
AcDbEntity
  8
1
100
AcDbLine
 10
6.273170999999999
 20
0.8805799999999999
 30
0.0
 11
6.284866
 21
0.906107
 31
0.0
  0
LINE
  5
2D2
330
4CB
100
AcDbEntity
  8
1
100
AcDbLine
 10
6.284866
 20
0.906107
 30
0.0
 11
6.297966999999999
 21
0.9314889999999998
 31
0.0
  0
LINE
  5
2D3
330
4CB
100
AcDbEntity
  8
1
100
AcDbLine
 10
6.297966999999999
 20
0.9314889999999998
 30
0.0
 11
6.312484999999999
 21
0.9567499999999999
 31
0.0
  0
LINE
  5
2D4
330
4CB
100
AcDbEntity
  8
1
100
AcDbLine
 10
6.312484999999999
 20
0.9567499999999999
 30
0.0
 11
6.328424
 21
0.9818899999999999
 31
0.0
  0
LINE
  5
2D5
330
4CB
100
AcDbEntity
  8
1
100
AcDbLine
 10
6.328424
 20
0.9818899999999999
 30
0.0
 11
6.345876
 21
1.006804999999999
 31
0.0
  0
LINE
  5
2D6
330
4CB
100
AcDbEntity
  8
1
100
AcDbLine
 10
6.345876
 20
1.006804999999999
 30
0.0
 11
6.364876999999999
 21
1.031471999999999
 31
0.0
  0
LINE
  5
2D7
330
4CB
100
AcDbEntity
  8
1
100
AcDbLine
 10
6.364876999999999
 20
1.031471999999999
 30
0.0
 11
6.385407999999999
 21
1.055941999999999
 31
0.0
  0
LINE
  5
2D8
330
4CB
100
AcDbEntity
  8
1
100
AcDbLine
 10
6.385407999999999
 20
1.055941999999999
 30
0.0
 11
6.407479
 21
1.080232999999999
 31
0.0
  0
LINE
  5
2D9
330
4CB
100
AcDbEntity
  8
1
100
AcDbLine
 10
6.407479
 20
1.080232999999999
 30
0.0
 11
6.431677999999999
 21
1.104872999999999
 31
0.0
  0
LINE
  5
2DA
330
4CB
100
AcDbEntity
  8
1
100
AcDbLine
 10
6.431677999999999
 20
1.104872999999999
 30
0.0
 11
6.458130999999999
 21
1.129342
 31
0.0
  0
LINE
  5
2DB
330
4CB
100
AcDbEntity
  8
1
100
AcDbLine
 10
6.458130999999999
 20
1.129342
 30
0.0
 11
6.486854
 21
1.153664
 31
0.0
  0
LINE
  5
2DC
330
4CB
100
AcDbEntity
  8
1
100
AcDbLine
 10
6.486854
 20
1.153664
 30
0.0
 11
6.492655
 21
1.158345999999999
 31
0.0
  0
LINE
  5
2DD
330
4CB
100
AcDbEntity
  8
1
100
AcDbLine
 10
4.803494999999999
 20
0.725132
 30
0.0
 11
4.710124999999999
 21
0.7529520000000001
 31
0.0
  0
LINE
  5
2DE
330
4CB
100
AcDbEntity
  8
1
100
AcDbLine
 10
6.229841
 20
0.548682
 30
0.0
 11
6.116731999999999
 21
0.5498060000000001
 31
0.0
  0
LINE
  5
2DF
330
4CB
100
AcDbEntity
  8
1
100
AcDbLine
 10
6.116731999999999
 20
0.5498060000000001
 30
0.0
 11
6.005071
 21
0.552733
 31
0.0
  0
LINE
  5
2E0
330
4CB
100
AcDbEntity
  8
1
100
AcDbLine
 10
6.005071
 20
0.552733
 30
0.0
 11
5.894913999999999
 21
0.5574630000000001
 31
0.0
  0
LINE
  5
2E1
330
4CB
100
AcDbEntity
  8
1
100
AcDbLine
 10
5.894913999999999
 20
0.5574630000000001
 30
0.0
 11
5.786319
 21
0.5639910000000001
 31
0.0
  0
LINE
  5
2E2
330
4CB
100
AcDbEntity
  8
1
100
AcDbLine
 10
5.786319
 20
0.5639910000000001
 30
0.0
 11
5.679339999999999
 21
0.572316
 31
0.0
  0
LINE
  5
2E3
330
4CB
100
AcDbEntity
  8
1
100
AcDbLine
 10
5.679339999999999
 20
0.572316
 30
0.0
 11
5.574033999999999
 21
0.582432
 31
0.0
  0
LINE
  5
2E4
330
4CB
100
AcDbEntity
  8
1
100
AcDbLine
 10
5.574033999999999
 20
0.582432
 30
0.0
 11
5.470454
 21
0.5943350000000001
 31
0.0
  0
LINE
  5
2E5
330
4CB
100
AcDbEntity
  8
1
100
AcDbLine
 10
5.470454
 20
0.5943350000000001
 30
0.0
 11
5.368651999999999
 21
0.6080180000000001
 31
0.0
  0
LINE
  5
2E6
330
4CB
100
AcDbEntity
  8
1
100
AcDbLine
 10
5.368651999999999
 20
0.6080180000000001
 30
0.0
 11
5.268682
 21
0.623475
 31
0.0
  0
LINE
  5
2E7
330
4CB
100
AcDbEntity
  8
1
100
AcDbLine
 10
5.268682
 20
0.623475
 30
0.0
 11
5.170594999999999
 21
0.640698
 31
0.0
  0
LINE
  5
2E8
330
4CB
100
AcDbEntity
  8
1
100
AcDbLine
 10
5.170594999999999
 20
0.640698
 30
0.0
 11
5.07444
 21
0.6596770000000002
 31
0.0
  0
LINE
  5
2E9
330
4CB
100
AcDbEntity
  8
1
100
AcDbLine
 10
5.07444
 20
0.6596770000000002
 30
0.0
 11
4.980267999999999
 21
0.680403
 31
0.0
  0
LINE
  5
2EA
330
4CB
100
AcDbEntity
  8
1
100
AcDbLine
 10
4.980267999999999
 20
0.680403
 30
0.0
 11
4.888126999999999
 21
0.702865
 31
0.0
  0
LINE
  5
2EB
330
4CB
100
AcDbEntity
  8
1
100
AcDbLine
 10
4.888126999999999
 20
0.702865
 30
0.0
 11
4.798064
 21
0.7270529999999999
 31
0.0
  0
LINE
  5
2EC
330
4CB
100
AcDbEntity
  8
1
100
AcDbLine
 10
8.991792
 20
0.824585
 30
0.0
 11
8.987090999999999
 21
0.8178079999999999
 31
0.0
  0
LINE
  5
2ED
330
4CB
100
AcDbEntity
  8
1
100
AcDbLine
 10
8.987090999999999
 20
0.8178079999999999
 30
0.0
 11
8.981247999999999
 21
0.810627
 31
0.0
  0
LINE
  5
2EE
330
4CB
100
AcDbEntity
  8
1
100
AcDbLine
 10
8.981247999999999
 20
0.810627
 30
0.0
 11
8.974244999999999
 21
0.8030649999999999
 31
0.0
  0
LINE
  5
2EF
330
4CB
100
AcDbEntity
  8
1
100
AcDbLine
 10
8.974244999999999
 20
0.8030649999999999
 30
0.0
 11
8.966097999999998
 21
0.795177
 31
0.0
  0
LINE
  5
2F0
330
4CB
100
AcDbEntity
  8
1
100
AcDbLine
 10
8.966097999999998
 20
0.795177
 30
0.0
 11
8.956754
 21
0.786961
 31
0.0
  0
LINE
  5
2F1
330
4CB
100
AcDbEntity
  8
1
100
AcDbLine
 10
8.956754
 20
0.786961
 30
0.0
 11
8.951675999999999
 21
0.7827770000000001
 31
0.0
  0
LINE
  5
2F2
330
4CB
100
AcDbEntity
  8
1
100
AcDbLine
 10
8.781952
 20
0.92077
 30
0.0
 11
8.804304
 21
0.9198169999999999
 31
0.0
  0
LINE
  5
2F3
330
4CB
100
AcDbEntity
  8
1
100
AcDbLine
 10
8.804304
 20
0.9198169999999999
 30
0.0
 11
8.825222
 21
0.9186479999999999
 31
0.0
  0
LINE
  5
2F4
330
4CB
100
AcDbEntity
  8
1
100
AcDbLine
 10
8.825222
 20
0.9186479999999999
 30
0.0
 11
8.844716999999999
 21
0.917251
 31
0.0
  0
LINE
  5
2F5
330
4CB
100
AcDbEntity
  8
1
100
AcDbLine
 10
8.844716999999999
 20
0.917251
 30
0.0
 11
8.862764999999999
 21
0.915592
 31
0.0
  0
LINE
  5
2F6
330
4CB
100
AcDbEntity
  8
1
100
AcDbLine
 10
8.879419
 20
0.9136790000000001
 30
0.0
 11
8.894802
 21
0.9115639999999999
 31
0.0
  0
LINE
  5
2F7
330
4CB
100
AcDbEntity
  8
1
100
AcDbLine
 10
8.894802
 20
0.9115639999999999
 30
0.0
 11
8.908917
 21
0.9092439999999999
 31
0.0
  0
LINE
  5
2F8
330
4CB
100
AcDbEntity
  8
1
100
AcDbLine
 10
8.908917
 20
0.9092439999999999
 30
0.0
 11
8.921789
 21
0.906694
 31
0.0
  0
LINE
  5
2F9
330
4CB
100
AcDbEntity
  8
1
100
AcDbLine
 10
8.921789
 20
0.906694
 30
0.0
 11
8.933566
 21
0.9039629999999998
 31
0.0
  0
LINE
  5
2FA
330
4CB
100
AcDbEntity
  8
1
100
AcDbLine
 10
8.933566
 20
0.9039629999999998
 30
0.0
 11
8.944272999999999
 21
0.9010399999999998
 31
0.0
  0
LINE
  5
2FB
330
4CB
100
AcDbEntity
  8
1
100
AcDbLine
 10
8.944272999999999
 20
0.9010399999999998
 30
0.0
 11
8.953903999999999
 21
0.8979119999999999
 31
0.0
  0
LINE
  5
2FC
330
4CB
100
AcDbEntity
  8
1
100
AcDbLine
 10
8.962567999999999
 20
0.894617
 30
0.0
 11
8.970278
 21
0.8911479999999999
 31
0.0
  0
LINE
  5
2FD
330
4CB
100
AcDbEntity
  8
1
100
AcDbLine
 10
12.565976
 20
-4.861112
 30
0.0
 11
12.049819
 21
-5.016008
 31
0.0
  0
LINE
  5
2FE
330
4CB
100
AcDbEntity
  8
1
100
AcDbLine
 10
8.977035
 20
0.887494
 30
0.0
 11
8.982919
 21
0.883693
 31
0.0
  0
LINE
  5
2FF
330
4CB
100
AcDbEntity
  8
1
100
AcDbLine
 10
8.982919
 20
0.883693
 30
0.0
 11
8.987935999999999
 21
0.879751
 31
0.0
  0
LINE
  5
300
330
4CB
100
AcDbEntity
  8
1
100
AcDbLine
 10
8.987935999999999
 20
0.879751
 30
0.0
 11
8.992096
 21
0.875647
 31
0.0
  0
LINE
  5
301
330
4CB
100
AcDbEntity
  8
1
100
AcDbLine
 10
8.992096
 20
0.875647
 30
0.0
 11
8.99548
 21
0.871376
 31
0.0
  0
LINE
  5
302
330
4CB
100
AcDbEntity
  8
1
100
AcDbLine
 10
8.99548
 20
0.871376
 30
0.0
 11
8.998105999999999
 21
0.866948
 31
0.0
  0
LINE
  5
303
330
4CB
100
AcDbEntity
  8
1
100
AcDbLine
 10
8.999962
 20
0.8623509999999999
 30
0.0
 11
9.001071000000001
 21
0.8575559999999999
 31
0.0
  0
LINE
  5
304
330
4CB
100
AcDbEntity
  8
1
100
AcDbLine
 10
9.001071000000001
 20
0.8575559999999999
 30
0.0
 11
9.001443
 21
0.8525719999999999
 31
0.0
  0
LINE
  5
305
330
4CB
100
AcDbEntity
  8
1
100
AcDbLine
 10
9.001443
 20
0.8525719999999999
 30
0.0
 11
9.001063999999999
 21
0.8474
 31
0.0
  0
LINE
  5
306
330
4CB
100
AcDbEntity
  8
1
100
AcDbLine
 10
9.001063999999999
 20
0.8474
 30
0.0
 11
8.999916
 21
0.8420099999999999
 31
0.0
  0
LINE
  5
307
330
4CB
100
AcDbEntity
  8
1
100
AcDbLine
 10
8.999916
 20
0.8420099999999999
 30
0.0
 11
8.997988000000001
 21
0.836402
 31
0.0
  0
LINE
  5
308
330
4CB
100
AcDbEntity
  8
1
100
AcDbLine
 10
8.997988000000001
 20
0.836402
 30
0.0
 11
8.995281
 21
0.8305909999999999
 31
0.0
  0
LINE
  5
309
330
4CB
100
AcDbEntity
  8
1
100
AcDbLine
 10
8.995281
 20
0.8305909999999999
 30
0.0
 11
8.991792
 21
0.824585
 31
0.0
  0
LINE
  5
30A
330
4CB
100
AcDbEntity
  8
1
100
AcDbLine
 10
8.833505
 20
0.9351219999999999
 30
0.0
 11
8.781952
 21
0.92077
 31
0.0
  0
LINE
  5
30B
330
4CB
100
AcDbEntity
  8
1
100
AcDbLine
 10
8.885066999999999
 20
0.9497279999999999
 30
0.0
 11
8.833505
 21
0.9351219999999999
 31
0.0
  0
LINE
  5
30C
330
4CB
100
AcDbEntity
  8
1
100
AcDbLine
 10
15.5
 20
-3.530994
 30
0.0
 11
15.5
 21
-0.003932
 31
0.0
  0
LINE
  5
30D
330
4CB
100
AcDbEntity
  8
1
100
AcDbLine
 10
13.997261
 20
-4.096441
 30
0.0
 11
13.945349
 21
-3.82175
 31
0.0
  0
LINE
  5
30E
330
4CB
100
AcDbEntity
  8
1
100
AcDbLine
 10
13.945349
 20
-3.82175
 30
0.0
 11
13.895257
 21
-3.551291999999999
 31
0.0
  0
LINE
  5
30F
330
4CB
100
AcDbEntity
  8
1
100
AcDbLine
 10
13.895257
 20
-3.551291999999999
 30
0.0
 11
13.846986
 21
-3.285066999999999
 31
0.0
  0
LINE
  5
310
330
4CB
100
AcDbEntity
  8
1
100
AcDbLine
 10
13.846986
 20
-3.285066999999999
 30
0.0
 11
13.800542
 21
-3.023079
 31
0.0
  0
LINE
  5
311
330
4CB
100
AcDbEntity
  8
1
100
AcDbLine
 10
13.800542
 20
-3.023079
 30
0.0
 11
13.755918
 21
-2.765324
 31
0.0
  0
LINE
  5
312
330
4CB
100
AcDbEntity
  8
1
100
AcDbLine
 10
13.713092
 20
-2.511797
 30
0.0
 11
13.672058
 21
-2.262497999999999
 31
0.0
  0
LINE
  5
313
330
4CB
100
AcDbEntity
  8
1
100
AcDbLine
 10
13.672058
 20
-2.262497999999999
 30
0.0
 11
13.632823
 21
-2.017427
 31
0.0
  0
LINE
  5
314
330
4CB
100
AcDbEntity
  8
1
100
AcDbLine
 10
13.632823
 20
-2.017427
 30
0.0
 11
13.595385
 21
-1.776584999999999
 31
0.0
  0
LINE
  5
315
330
4CB
100
AcDbEntity
  8
1
100
AcDbLine
 10
13.997407
 20
-4.096351
 30
0.0
 11
14.014685
 21
-4.144988999999999
 31
0.0
  0
LINE
  5
316
330
4CB
100
AcDbEntity
  8
1
100
AcDbLine
 10
14.014685
 20
-4.144988999999999
 30
0.0
 11
14.032523
 21
-4.193728
 31
0.0
  0
LINE
  5
317
330
4CB
100
AcDbEntity
  8
1
100
AcDbLine
 10
14.032523
 20
-4.193728
 30
0.0
 11
14.05092
 21
-4.242569
 31
0.0
  0
LINE
  5
318
330
4CB
100
AcDbEntity
  8
1
100
AcDbLine
 10
14.05092
 20
-4.242569
 30
0.0
 11
14.069877
 21
-4.291511999999999
 31
0.0
  0
LINE
  5
319
330
4CB
100
AcDbEntity
  8
1
100
AcDbLine
 10
14.069877
 20
-4.291511999999999
 30
0.0
 11
14.089392
 21
-4.340556999999999
 31
0.0
  0
LINE
  5
31A
330
4CB
100
AcDbEntity
  8
1
100
AcDbLine
 10
14.089392
 20
-4.340556999999999
 30
0.0
 11
14.109467
 21
-4.389704
 31
0.0
  0
LINE
  5
31B
330
4CB
100
AcDbEntity
  8
1
100
AcDbLine
 10
15.5
 20
-3.530994
 30
0.0
 11
14.109467
 21
-4.389704
 31
0.0
  0
LINE
  5
31C
330
4CB
100
AcDbEntity
  8
1
100
AcDbLine
 10
13.997261
 20
-4.096441
 30
0.0
 11
15.5
 21
-3.16844
 31
0.0
  0
LINE
  5
31D
330
4CB
100
AcDbEntity
  8
1
100
AcDbLine
 10
15.0
 20
-4.772067999999999
 30
0.0
 11
15.5
 21
-4.921578
 31
0.0
  0
LINE
  5
31E
330
4CB
100
AcDbEntity
  8
1
100
AcDbLine
 10
15.0
 20
-6.949277
 30
0.0
 11
15.5
 21
-7.098788
 31
0.0
  0
LINE
  5
31F
330
4CB
100
AcDbEntity
  8
1
100
AcDbLine
 10
15.0
 20
-7.273272999999999
 30
0.0
 11
15.5
 21
-7.422784
 31
0.0
  0
LINE
  5
320
330
4CB
100
AcDbEntity
  8
1
100
AcDbLine
 10
15.0
 20
-7.488264
 30
0.0
 11
15.5
 21
-7.488264
 31
0.0
  0
LINE
  5
321
330
4CB
100
AcDbEntity
  8
1
100
AcDbLine
 10
15.0
 20
-7.669069
 30
0.0
 11
15.5
 21
-7.669069
 31
0.0
  0
LINE
  5
322
330
4CB
100
AcDbEntity
  8
1
100
AcDbLine
 10
13.6
 20
1.379010999999999
 30
0.0
 11
13.6
 21
-1.665061999999999
 31
0.0
  0
LINE
  5
323
330
4CB
100
AcDbEntity
  8
1
100
AcDbLine
 10
15.5
 20
-0.6004100000000001
 30
0.0
 11
13.595385
 21
-1.776584999999999
 31
0.0
  0
LINE
  5
324
330
4CB
100
AcDbEntity
  8
1
100
AcDbLine
 10
15.0
 20
-0.7020020000000001
 30
0.0
 11
14.854828
 21
-0.803864
 31
0.0
  0
LINE
  5
325
330
4CB
100
AcDbEntity
  8
1
100
AcDbLine
 10
14.854828
 20
-0.803864
 30
0.0
 11
14.707097
 21
-0.906991
 31
0.0
  0
LINE
  5
326
330
4CB
100
AcDbEntity
  8
1
100
AcDbLine
 10
14.707097
 20
-0.906991
 30
0.0
 11
14.556808
 21
-1.011382
 31
0.0
  0
LINE
  5
327
330
4CB
100
AcDbEntity
  8
1
100
AcDbLine
 10
14.556808
 20
-1.011382
 30
0.0
 11
14.40401
 21
-1.117008999999999
 31
0.0
  0
LINE
  5
328
330
4CB
100
AcDbEntity
  8
1
100
AcDbLine
 10
14.40401
 20
-1.117008999999999
 30
0.0
 11
14.248654
 21
-1.223901
 31
0.0
  0
LINE
  5
329
330
4CB
100
AcDbEntity
  8
1
100
AcDbLine
 10
14.248654
 20
-1.223901
 30
0.0
 11
14.09059
 21
-1.332143999999999
 31
0.0
  0
LINE
  5
32A
330
4CB
100
AcDbEntity
  8
1
100
AcDbLine
 10
14.09059
 20
-1.332143999999999
 30
0.0
 11
13.929768
 21
-1.441765999999999
 31
0.0
  0
LINE
  5
32B
330
4CB
100
AcDbEntity
  8
1
100
AcDbLine
 10
13.929768
 20
-1.441765999999999
 30
0.0
 11
13.766238
 21
-1.552738999999999
 31
0.0
  0
LINE
  5
32C
330
4CB
100
AcDbEntity
  8
1
100
AcDbLine
 10
13.766238
 20
-1.552738999999999
 30
0.0
 11
13.6
 21
-1.665061999999999
 31
0.0
  0
LINE
  5
32D
330
4CB
100
AcDbEntity
  8
1
100
AcDbLine
 10
15.0
 20
2.786548999999999
 30
0.0
 11
15.5
 21
2.645821999999999
 31
0.0
  0
LINE
  5
32E
330
4CB
100
AcDbEntity
  8
1
100
AcDbLine
 10
14.090573
 20
1.593609999999999
 30
0.0
 11
13.766232
 21
1.45151
 31
0.0
  0
LINE
  5
32F
330
4CB
100
AcDbEntity
  8
1
100
AcDbLine
 10
13.766232
 20
1.45151
 30
0.0
 11
13.6
 21
1.379010999999999
 31
0.0
  0
LINE
  5
330
330
4CB
100
AcDbEntity
  8
1
100
AcDbLine
 10
14.403981
 20
1.731804999999999
 30
0.0
 11
14.090573
 21
1.593609999999999
 31
0.0
  0
LINE
  5
331
330
4CB
100
AcDbEntity
  8
1
100
AcDbLine
 10
14.707072
 20
1.866338
 30
0.0
 11
14.403981
 21
1.731804999999999
 31
0.0
  0
LINE
  5
332
330
4CB
100
AcDbEntity
  8
1
100
AcDbLine
 10
15.0
 20
1.997269
 30
0.0
 11
14.707072
 21
1.866338
 31
0.0
  0
LINE
  5
333
330
4CB
100
AcDbEntity
  8
1
100
AcDbLine
 10
15.0
 20
0.7372250000000001
 30
0.0
 11
15.5
 21
0.596498
 31
0.0
  0
LINE
  5
334
330
4CB
100
AcDbEntity
  8
1
100
AcDbLine
 10
15.0
 20
0.607995
 30
0.0
 11
15.5
 21
0.467268
 31
0.0
  0
LINE
  5
335
330
4CB
100
AcDbEntity
  8
1
100
AcDbLine
 10
15.0
 20
-0.14925
 30
0.0
 11
15.5
 21
-0.003932
 31
0.0
  0
LINE
  5
336
330
4CB
100
AcDbEntity
  8
1
100
AcDbLine
 10
4.443291999999999
 20
9.691734
 30
0.0
 11
4.313378
 21
9.773994
 31
0.0
  0
LINE
  5
337
330
4CB
100
AcDbEntity
  8
1
100
AcDbLine
 10
4.313378
 20
9.773994
 30
0.0
 11
4.185623999999999
 21
9.854238
 31
0.0
  0
LINE
  5
338
330
4CB
100
AcDbEntity
  8
1
100
AcDbLine
 10
4.185623999999999
 20
9.854238
 30
0.0
 11
4.060205
 21
9.931995
 31
0.0
  0
LINE
  5
339
330
4CB
100
AcDbEntity
  8
1
100
AcDbLine
 10
4.060205
 20
9.931995
 30
0.0
 11
3.937642999999999
 21
10.006524
 31
0.0
  0
LINE
  5
33A
330
4CB
100
AcDbEntity
  8
1
100
AcDbLine
 10
3.937642999999999
 20
10.006524
 30
0.0
 11
3.818066999999999
 21
10.077566
 31
0.0
  0
LINE
  5
33B
330
4CB
100
AcDbEntity
  8
1
100
AcDbLine
 10
3.818066999999999
 20
10.077566
 30
0.0
 11
3.701348
 21
10.144955
 31
0.0
  0
LINE
  5
33C
330
4CB
100
AcDbEntity
  8
1
100
AcDbLine
 10
3.701348
 20
10.144955
 30
0.0
 11
3.587619
 21
10.208215
 31
0.0
  0
LINE
  5
33D
330
4CB
100
AcDbEntity
  8
1
100
AcDbLine
 10
3.587619
 20
10.208215
 30
0.0
 11
3.476888999999999
 21
10.267186
 31
0.0
  0
LINE
  5
33E
330
4CB
100
AcDbEntity
  8
1
100
AcDbLine
 10
3.476888999999999
 20
10.267186
 30
0.0
 11
3.369149999999999
 21
10.321705
 31
0.0
  0
LINE
  5
33F
330
4CB
100
AcDbEntity
  8
1
100
AcDbLine
 10
3.369149999999999
 20
10.321705
 30
0.0
 11
3.264504999999999
 21
10.371417
 31
0.0
  0
LINE
  5
340
330
4CB
100
AcDbEntity
  8
1
100
AcDbLine
 10
3.264504999999999
 20
10.371417
 30
0.0
 11
3.162990999999999
 21
10.416202
 31
0.0
  0
LINE
  5
341
330
4CB
100
AcDbEntity
  8
1
100
AcDbLine
 10
3.162990999999999
 20
10.416202
 30
0.0
 11
3.064570999999999
 21
10.45599
 31
0.0
  0
LINE
  5
342
330
4CB
100
AcDbEntity
  8
1
100
AcDbLine
 10
3.064570999999999
 20
10.45599
 30
0.0
 11
2.969234
 21
10.490607
 31
0.0
  0
LINE
  5
343
330
4CB
100
AcDbEntity
  8
1
100
AcDbLine
 10
2.969234
 20
10.490607
 30
0.0
 11
2.87692
 21
10.520006
 31
0.0
  0
LINE
  5
344
330
4CB
100
AcDbEntity
  8
1
100
AcDbLine
 10
2.87692
 20
10.520006
 30
0.0
 11
2.78769
 21
10.544125
 31
0.0
  0
LINE
  5
345
330
4CB
100
AcDbEntity
  8
1
100
AcDbLine
 10
2.78769
 20
10.544125
 30
0.0
 11
2.701706999999999
 21
10.562858
 31
0.0
  0
LINE
  5
346
330
4CB
100
AcDbEntity
  8
1
100
AcDbLine
 10
2.619027999999999
 20
10.576202
 30
0.0
 11
2.539595999999999
 21
10.584195
 31
0.0
  0
LINE
  5
347
330
4CB
100
AcDbEntity
  8
1
100
AcDbLine
 10
2.539595999999999
 20
10.584195
 30
0.0
 11
2.463413
 21
10.586856
 31
0.0
  0
LINE
  5
348
330
4CB
100
AcDbEntity
  8
1
100
AcDbLine
 10
7.891547999999999
 20
10.420041
 30
0.0
 11
7.786382999999999
 21
10.426695
 31
0.0
  0
LINE
  5
349
330
4CB
100
AcDbEntity
  8
1
100
AcDbLine
 10
7.786382999999999
 20
10.426695
 30
0.0
 11
7.032944
 21
10.468038
 31
0.0
  0
LINE
  5
34A
330
4CB
100
AcDbEntity
  8
1
100
AcDbLine
 10
7.032944
 20
10.468038
 30
0.0
 11
6.275476999999999
 21
10.503278
 31
0.0
  0
LINE
  5
34B
330
4CB
100
AcDbEntity
  8
1
100
AcDbLine
 10
6.275476999999999
 20
10.503278
 30
0.0
 11
5.514019999999999
 21
10.532441
 31
0.0
  0
LINE
  5
34C
330
4CB
100
AcDbEntity
  8
1
100
AcDbLine
 10
5.514019999999999
 20
10.532441
 30
0.0
 11
4.750524999999999
 21
10.555386
 31
0.0
  0
LINE
  5
34D
330
4CB
100
AcDbEntity
  8
1
100
AcDbLine
 10
4.750524999999999
 20
10.555386
 30
0.0
 11
3.985641999999999
 21
10.572064
 31
0.0
  0
LINE
  5
34E
330
4CB
100
AcDbEntity
  8
1
100
AcDbLine
 10
3.985641999999999
 20
10.572064
 30
0.0
 11
3.218720999999999
 21
10.582524
 31
0.0
  0
LINE
  5
34F
330
4CB
100
AcDbEntity
  8
1
100
AcDbLine
 10
3.218720999999999
 20
10.582524
 30
0.0
 11
2.463413
 21
10.586691
 31
0.0
  0
LINE
  5
350
330
4CB
100
AcDbEntity
  8
1
100
AcDbLine
 10
7.891547999999999
 20
6.82933
 30
0.0
 11
7.785508
 21
6.801864
 31
0.0
  0
LINE
  5
351
330
4CB
100
AcDbEntity
  8
1
100
AcDbLine
 10
7.785508
 20
6.801864
 30
0.0
 11
7.031997
 21
6.603536
 31
0.0
  0
LINE
  5
352
330
4CB
100
AcDbEntity
  8
1
100
AcDbLine
 10
7.031997
 20
6.603536
 30
0.0
 11
6.274421
 21
6.400974999999999
 31
0.0
  0
LINE
  5
353
330
4CB
100
AcDbEntity
  8
1
100
AcDbLine
 10
6.274421
 20
6.400974999999999
 30
0.0
 11
5.512863999999999
 21
6.194217
 31
0.0
  0
LINE
  5
354
330
4CB
100
AcDbEntity
  8
1
100
AcDbLine
 10
5.512863999999999
 20
6.194217
 30
0.0
 11
4.749411
 21
5.983798
 31
0.0
  0
LINE
  5
355
330
4CB
100
AcDbEntity
  8
1
100
AcDbLine
 10
4.749411
 20
5.983798
 30
0.0
 11
3.984757
 21
5.769897
 31
0.0
  0
LINE
  5
356
330
4CB
100
AcDbEntity
  8
1
100
AcDbLine
 10
3.984757
 20
5.769897
 30
0.0
 11
3.218207
 21
5.552335
 31
0.0
  0
LINE
  5
357
330
4CB
100
AcDbEntity
  8
1
100
AcDbLine
 10
3.218207
 20
5.552335
 30
0.0
 11
2.449761
 21
5.331112999999999
 31
0.0
  0
LINE
  5
358
330
4CB
100
AcDbEntity
  8
1
100
AcDbLine
 10
7.391547999999999
 20
5.218123999999999
 30
0.0
 11
7.225332
 21
5.171135999999999
 31
0.0
  0
LINE
  5
359
330
4CB
100
AcDbEntity
  8
1
100
AcDbLine
 10
7.225332
 20
5.171135999999999
 30
0.0
 11
7.059539
 21
5.126882
 31
0.0
  0
LINE
  5
35A
330
4CB
100
AcDbEntity
  8
1
100
AcDbLine
 10
7.059539
 20
5.126882
 30
0.0
 11
6.894169999999999
 21
5.085360999999999
 31
0.0
  0
LINE
  5
35B
330
4CB
100
AcDbEntity
  8
1
100
AcDbLine
 10
6.894169999999999
 20
5.085360999999999
 30
0.0
 11
6.729085
 21
5.046543999999999
 31
0.0
  0
LINE
  5
35C
330
4CB
100
AcDbEntity
  8
1
100
AcDbLine
 10
6.729085
 20
5.046543999999999
 30
0.0
 11
6.564424999999999
 21
5.010457999999999
 31
0.0
  0
LINE
  5
35D
330
4CB
100
AcDbEntity
  8
1
100
AcDbLine
 10
6.564424999999999
 20
5.010457999999999
 30
0.0
 11
6.400601999999999
 21
4.977198999999999
 31
0.0
  0
LINE
  5
35E
330
4CB
100
AcDbEntity
  8
1
100
AcDbLine
 10
6.400601999999999
 20
4.977198999999999
 30
0.0
 11
6.237619999999999
 21
4.946769999999999
 31
0.0
  0
LINE
  5
35F
330
4CB
100
AcDbEntity
  8
1
100
AcDbLine
 10
6.237619999999999
 20
4.946769999999999
 30
0.0
 11
6.075474999999999
 21
4.919165
 31
0.0
  0
LINE
  5
360
330
4CB
100
AcDbEntity
  8
1
100
AcDbLine
 10
6.075474999999999
 20
4.919165
 30
0.0
 11
5.914581
 21
4.894454
 31
0.0
  0
LINE
  5
361
330
4CB
100
AcDbEntity
  8
1
100
AcDbLine
 10
5.914581
 20
4.894454
 30
0.0
 11
5.75494
 21
4.872644999999999
 31
0.0
  0
LINE
  5
362
330
4CB
100
AcDbEntity
  8
1
100
AcDbLine
 10
5.75494
 20
4.872644999999999
 30
0.0
 11
5.596548999999999
 21
4.853730999999999
 31
0.0
  0
LINE
  5
363
330
4CB
100
AcDbEntity
  8
1
100
AcDbLine
 10
5.596548999999999
 20
4.853730999999999
 30
0.0
 11
5.439809999999999
 21
4.837756999999999
 31
0.0
  0
LINE
  5
364
330
4CB
100
AcDbEntity
  8
1
100
AcDbLine
 10
5.439809999999999
 20
4.837756999999999
 30
0.0
 11
5.284724999999999
 21
4.824733
 31
0.0
  0
LINE
  5
365
330
4CB
100
AcDbEntity
  8
1
100
AcDbLine
 10
5.284724999999999
 20
4.824733
 30
0.0
 11
5.131292
 21
4.814651
 31
0.0
  0
LINE
  5
366
330
4CB
100
AcDbEntity
  8
1
100
AcDbLine
 10
5.131292
 20
4.814651
 30
0.0
 11
4.979898999999999
 21
4.807536999999999
 31
0.0
  0
LINE
  5
367
330
4CB
100
AcDbEntity
  8
1
100
AcDbLine
 10
4.979898999999999
 20
4.807536999999999
 30
0.0
 11
4.830550999999999
 21
4.803397
 31
0.0
  0
LINE
  5
368
330
4CB
100
AcDbEntity
  8
1
100
AcDbLine
 10
4.830550999999999
 20
4.803397
 30
0.0
 11
4.683243
 21
4.802224999999999
 31
0.0
  0
LINE
  5
369
330
4CB
100
AcDbEntity
  8
1
100
AcDbLine
 10
4.683243
 20
4.802224999999999
 30
0.0
 11
4.538346999999999
 21
4.804022999999999
 31
0.0
  0
LINE
  5
36A
330
4CB
100
AcDbEntity
  8
1
100
AcDbLine
 10
4.538346999999999
 20
4.804022999999999
 30
0.0
 11
4.395870999999999
 21
4.808798999999999
 31
0.0
  0
LINE
  5
36B
330
4CB
100
AcDbEntity
  8
1
100
AcDbLine
 10
4.395870999999999
 20
4.808798999999999
 30
0.0
 11
4.255808
 21
4.816544
 31
0.0
  0
LINE
  5
36C
330
4CB
100
AcDbEntity
  8
1
100
AcDbLine
 10
4.255808
 20
4.816544
 30
0.0
 11
4.118513
 21
4.827241
 31
0.0
  0
LINE
  5
36D
330
4CB
100
AcDbEntity
  8
1
100
AcDbLine
 10
4.118513
 20
4.827241
 30
0.0
 11
3.983991999999999
 21
4.840894999999999
 31
0.0
  0
LINE
  5
36E
330
4CB
100
AcDbEntity
  8
1
100
AcDbLine
 10
3.983991999999999
 20
4.840894999999999
 30
0.0
 11
3.852238999999999
 21
4.857498999999999
 31
0.0
  0
LINE
  5
36F
330
4CB
100
AcDbEntity
  8
1
100
AcDbLine
 10
3.852238999999999
 20
4.857498999999999
 30
0.0
 11
3.723587999999999
 21
4.877012
 31
0.0
  0
LINE
  5
370
330
4CB
100
AcDbEntity
  8
1
100
AcDbLine
 10
3.723587999999999
 20
4.877012
 30
0.0
 11
3.598047
 21
4.899441999999999
 31
0.0
  0
LINE
  5
371
330
4CB
100
AcDbEntity
  8
1
100
AcDbLine
 10
3.598047
 20
4.899441999999999
 30
0.0
 11
3.475605999999999
 21
4.924779
 31
0.0
  0
LINE
  5
372
330
4CB
100
AcDbEntity
  8
1
100
AcDbLine
 10
3.475605999999999
 20
4.924779
 30
0.0
 11
3.356577999999999
 21
4.952961
 31
0.0
  0
LINE
  5
373
330
4CB
100
AcDbEntity
  8
1
100
AcDbLine
 10
3.356577999999999
 20
4.952961
 30
0.0
 11
3.240969999999999
 21
4.983992999999999
 31
0.0
  0
LINE
  5
374
330
4CB
100
AcDbEntity
  8
1
100
AcDbLine
 10
3.240969999999999
 20
4.983992999999999
 30
0.0
 11
3.128772999999999
 21
5.017869999999999
 31
0.0
  0
LINE
  5
375
330
4CB
100
AcDbEntity
  8
1
100
AcDbLine
 10
3.128772999999999
 20
5.017869999999999
 30
0.0
 11
3.020272999999999
 21
5.054505999999999
 31
0.0
  0
LINE
  5
376
330
4CB
100
AcDbEntity
  8
1
100
AcDbLine
 10
3.020272999999999
 20
5.054505999999999
 30
0.0
 11
2.915477999999999
 21
5.093906999999999
 31
0.0
  0
LINE
  5
377
330
4CB
100
AcDbEntity
  8
1
100
AcDbLine
 10
2.915477999999999
 20
5.093906999999999
 30
0.0
 11
2.814379
 21
5.136066
 31
0.0
  0
LINE
  5
378
330
4CB
100
AcDbEntity
  8
1
100
AcDbLine
 10
2.814379
 20
5.136066
 30
0.0
 11
2.717232
 21
5.180876999999999
 31
0.0
  0
LINE
  5
379
330
4CB
100
AcDbEntity
  8
1
100
AcDbLine
 10
2.717232
 20
5.180876999999999
 30
0.0
 11
2.624122999999999
 21
5.228304
 31
0.0
  0
LINE
  5
37A
330
4CB
100
AcDbEntity
  8
1
100
AcDbLine
 10
2.624122999999999
 20
5.228304
 30
0.0
 11
2.534965999999999
 21
5.278381999999999
 31
0.0
  0
LINE
  5
37B
330
4CB
100
AcDbEntity
  8
1
100
AcDbLine
 10
2.534965999999999
 20
5.278381999999999
 30
0.0
 11
2.449761
 21
5.331112999999999
 31
0.0
  0
LINE
  5
37C
330
4CB
100
AcDbEntity
  8
1
100
AcDbLine
 10
0.0
 20
10.586856
 30
0.0
 11
2.463413
 21
10.586856
 31
0.0
  0
LINE
  5
37D
330
4CB
100
AcDbEntity
  8
1
100
AcDbLine
 10
13.6
 20
9.779878
 30
0.0
 11
13.154893
 21
9.736313
 31
0.0
  0
LINE
  5
37E
330
4CB
100
AcDbEntity
  8
1
100
AcDbLine
 10
13.154893
 20
9.736313
 30
0.0
 11
12.706905
 21
9.691556
 31
0.0
  0
LINE
  5
37F
330
4CB
100
AcDbEntity
  8
1
100
AcDbLine
 10
12.706905
 20
9.691556
 30
0.0
 11
12.256033
 21
9.645605999999999
 31
0.0
  0
LINE
  5
380
330
4CB
100
AcDbEntity
  8
1
100
AcDbLine
 10
12.256033
 20
9.645605999999999
 30
0.0
 11
11.802211
 21
9.598461999999999
 31
0.0
  0
LINE
  5
381
330
4CB
100
AcDbEntity
  8
1
100
AcDbLine
 10
11.802211
 20
9.598461999999999
 30
0.0
 11
11.345507
 21
9.550125999999998
 31
0.0
  0
LINE
  5
382
330
4CB
100
AcDbEntity
  8
1
100
AcDbLine
 10
11.345507
 20
9.550125999999998
 30
0.0
 11
10.886125
 21
9.500602999999999
 31
0.0
  0
LINE
  5
383
330
4CB
100
AcDbEntity
  8
1
100
AcDbLine
 10
10.886125
 20
9.500602999999999
 30
0.0
 11
10.424133
 21
9.449896999999999
 31
0.0
  0
LINE
  5
384
330
4CB
100
AcDbEntity
  8
1
100
AcDbLine
 10
10.424133
 20
9.449896999999999
 30
0.0
 11
9.959464
 21
9.398004
 31
0.0
  0
LINE
  5
385
330
4CB
100
AcDbEntity
  8
1
100
AcDbLine
 10
9.959464
 20
9.398004
 30
0.0
 11
9.492117
 21
9.344924999999999
 31
0.0
  0
LINE
  5
386
330
4CB
100
AcDbEntity
  8
1
100
AcDbLine
 10
8.320154999999999
 20
7.043677999999999
 30
0.0
 11
8.924349000000001
 21
7.199207
 31
0.0
  0
LINE
  5
387
330
4CB
100
AcDbEntity
  8
1
100
AcDbLine
 10
8.924349000000001
 20
7.199207
 30
0.0
 11
9.524044999999999
 21
7.351596
 31
0.0
  0
LINE
  5
388
330
4CB
100
AcDbEntity
  8
1
100
AcDbLine
 10
9.524044999999999
 20
7.351596
 30
0.0
 11
10.119243
 21
7.500847
 31
0.0
  0
LINE
  5
389
330
4CB
100
AcDbEntity
  8
1
100
AcDbLine
 10
10.119243
 20
7.500847
 30
0.0
 11
10.709967
 21
7.646949
 31
0.0
  0
LINE
  5
38A
330
4CB
100
AcDbEntity
  8
1
100
AcDbLine
 10
10.709967
 20
7.646949
 30
0.0
 11
11.296193
 21
7.789911999999999
 31
0.0
  0
LINE
  5
38B
330
4CB
100
AcDbEntity
  8
1
100
AcDbLine
 10
11.296193
 20
7.789911999999999
 30
0.0
 11
11.877854
 21
7.929764999999999
 31
0.0
  0
LINE
  5
38C
330
4CB
100
AcDbEntity
  8
1
100
AcDbLine
 10
11.877854
 20
7.929764999999999
 30
0.0
 11
12.454929
 21
8.066516999999999
 31
0.0
  0
LINE
  5
38D
330
4CB
100
AcDbEntity
  8
1
100
AcDbLine
 10
12.454929
 20
8.066516999999999
 30
0.0
 11
13.027439
 21
8.200158
 31
0.0
  0
LINE
  5
38E
330
4CB
100
AcDbEntity
  8
1
100
AcDbLine
 10
13.027439
 20
8.200158
 30
0.0
 11
13.595385
 21
8.330688999999999
 31
0.0
  0
LINE
  5
38F
330
4CB
100
AcDbEntity
  8
1
100
AcDbLine
 10
13.997267
 20
6.793222
 30
0.0
 11
13.49624
 21
6.659566
 31
0.0
  0
LINE
  5
390
330
4CB
100
AcDbEntity
  8
1
100
AcDbLine
 10
13.49624
 20
6.659566
 30
0.0
 11
12.994426
 21
6.524214999999999
 31
0.0
  0
LINE
  5
391
330
4CB
100
AcDbEntity
  8
1
100
AcDbLine
 10
12.994426
 20
6.524214999999999
 30
0.0
 11
12.491822
 21
6.387196
 31
0.0
  0
LINE
  5
392
330
4CB
100
AcDbEntity
  8
1
100
AcDbLine
 10
12.491822
 20
6.387196
 30
0.0
 11
11.988265
 21
6.248521
 31
0.0
  0
LINE
  5
393
330
4CB
100
AcDbEntity
  8
1
100
AcDbLine
 10
11.988265
 20
6.248521
 30
0.0
 11
11.48392
 21
6.108235999999999
 31
0.0
  0
LINE
  5
394
330
4CB
100
AcDbEntity
  8
1
100
AcDbLine
 10
11.48392
 20
6.108235999999999
 30
0.0
 11
10.979281
 21
5.966409999999999
 31
0.0
  0
LINE
  5
395
330
4CB
100
AcDbEntity
  8
1
100
AcDbLine
 10
10.979281
 20
5.966409999999999
 30
0.0
 11
10.474511
 21
5.823091
 31
0.0
  0
LINE
  5
396
330
4CB
100
AcDbEntity
  8
1
100
AcDbLine
 10
10.474511
 20
5.823091
 30
0.0
 11
9.969447999999999
 21
5.678294
 31
0.0
  0
LINE
  5
397
330
4CB
100
AcDbEntity
  8
1
100
AcDbLine
 10
9.969447999999999
 20
5.678294
 30
0.0
 11
9.464089999999998
 21
5.532051
 31
0.0
  0
LINE
  5
398
330
4CB
100
AcDbEntity
  8
1
100
AcDbLine
 10
14.109467
 20
6.540035999999999
 30
0.0
 11
13.595707
 21
6.399685999999999
 31
0.0
  0
LINE
  5
399
330
4CB
100
AcDbEntity
  8
1
100
AcDbLine
 10
13.595707
 20
6.399685999999999
 30
0.0
 11
13.08121
 21
6.257759
 31
0.0
  0
LINE
  5
39A
330
4CB
100
AcDbEntity
  8
1
100
AcDbLine
 10
13.08121
 20
6.257759
 30
0.0
 11
12.565976
 21
6.114254999999999
 31
0.0
  0
LINE
  5
39B
330
4CB
100
AcDbEntity
  8
1
100
AcDbLine
 10
12.565976
 20
6.114254999999999
 30
0.0
 11
12.049819
 21
5.969123
 31
0.0
  0
LINE
  5
39C
330
4CB
100
AcDbEntity
  8
1
100
AcDbLine
 10
12.049819
 20
5.969123
 30
0.0
 11
11.532925
 21
5.822415
 31
0.0
  0
LINE
  5
39D
330
4CB
100
AcDbEntity
  8
1
100
AcDbLine
 10
11.532925
 20
5.822415
 30
0.0
 11
11.01585
 21
5.674285
 31
0.0
  0
LINE
  5
39E
330
4CB
100
AcDbEntity
  8
1
100
AcDbLine
 10
11.01585
 20
5.674285
 30
0.0
 11
10.498779
 21
5.524783
 31
0.0
  0
LINE
  5
39F
330
4CB
100
AcDbEntity
  8
1
100
AcDbLine
 10
10.498779
 20
5.524783
 30
0.0
 11
9.981524999999999
 21
5.373859999999999
 31
0.0
  0
LINE
  5
3A0
330
4CB
100
AcDbEntity
  8
1
100
AcDbLine
 10
9.981524999999999
 20
5.373859999999999
 30
0.0
 11
9.464089999999998
 21
5.221515
 31
0.0
  0
LINE
  5
3A1
330
4CB
100
AcDbEntity
  8
1
100
AcDbLine
 10
8.664089999999999
 20
10.835983
 30
0.0
 11
8.664089999999999
 21
9.278782000000001
 31
0.0
  0
LINE
  5
3A2
330
4CB
100
AcDbEntity
  8
1
100
AcDbLine
 10
7.891547999999999
 20
10.54665
 30
0.0
 11
7.891547999999999
 21
9.263564999999999
 31
0.0
  0
LINE
  5
3A3
330
4CB
100
AcDbEntity
  8
1
100
AcDbLine
 10
9.492117
 20
9.344924999999999
 30
0.0
 11
9.350941999999999
 21
9.329667999999999
 31
0.0
  0
LINE
  5
3A4
330
4CB
100
AcDbEntity
  8
1
100
AcDbLine
 10
8.323967999999998
 20
6.8981
 30
0.0
 11
8.331716999999999
 21
6.826719
 31
0.0
  0
LINE
  5
3A5
330
4CB
100
AcDbEntity
  8
1
100
AcDbLine
 10
9.350941999999999
 20
9.329667999999999
 30
0.0
 11
9.208956999999999
 21
9.315971000000001
 31
0.0
  0
LINE
  5
3A6
330
4CB
100
AcDbEntity
  8
1
100
AcDbLine
 10
9.208956999999999
 20
9.315971000000001
 30
0.0
 11
9.066163000000001
 21
9.303855
 31
0.0
  0
LINE
  5
3A7
330
4CB
100
AcDbEntity
  8
1
100
AcDbLine
 10
9.066163000000001
 20
9.303855
 30
0.0
 11
8.922577999999999
 21
9.293378
 31
0.0
  0
LINE
  5
3A8
330
4CB
100
AcDbEntity
  8
1
100
AcDbLine
 10
4.980267999999999
 20
-8.539216999999998
 30
0.0
 11
4.888126999999999
 21
-8.615237999999999
 31
0.0
  0
LINE
  5
3A9
330
4CB
100
AcDbEntity
  8
1
100
AcDbLine
 10
8.778183
 20
9.284525
 30
0.0
 11
8.632927
 21
9.277212999999999
 31
0.0
  0
LINE
  5
3AA
330
4CB
100
AcDbEntity
  8
1
100
AcDbLine
 10
8.632927
 20
9.277212999999999
 30
0.0
 11
8.486819
 21
9.271450999999998
 31
0.0
  0
LINE
  5
3AB
330
4CB
100
AcDbEntity
  8
1
100
AcDbLine
 10
8.486819
 20
9.271450999999998
 30
0.0
 11
8.33985
 21
9.267250999999999
 31
0.0
  0
LINE
  5
3AC
330
4CB
100
AcDbEntity
  8
1
100
AcDbLine
 10
8.33985
 20
9.267250999999999
 30
0.0
 11
8.191932000000001
 21
9.264535
 31
0.0
  0
LINE
  5
3AD
330
4CB
100
AcDbEntity
  8
1
100
AcDbLine
 10
8.191932000000001
 20
9.264535
 30
0.0
 11
8.043172999999999
 21
9.263294
 31
0.0
  0
LINE
  5
3AE
330
4CB
100
AcDbEntity
  8
1
100
AcDbLine
 10
7.893464999999999
 20
9.263542999999998
 30
0.0
 11
7.742407
 21
9.265219
 31
0.0
  0
LINE
  5
3AF
330
4CB
100
AcDbEntity
  8
1
100
AcDbLine
 10
7.742407
 20
9.265219
 30
0.0
 11
7.589955
 21
9.268307
 31
0.0
  0
LINE
  5
3B0
330
4CB
100
AcDbEntity
  8
1
100
AcDbLine
 10
7.589955
 20
9.268307
 30
0.0
 11
7.436153
 21
9.272814
 31
0.0
  0
LINE
  5
3B1
330
4CB
100
AcDbEntity
  8
1
100
AcDbLine
 10
7.436153
 20
9.272814
 30
0.0
 11
7.280732
 21
9.278705999999999
 31
0.0
  0
LINE
  5
3B2
330
4CB
100
AcDbEntity
  8
1
100
AcDbLine
 10
7.280732
 20
9.278705999999999
 30
0.0
 11
7.123663
 21
9.285967999999998
 31
0.0
  0
LINE
  5
3B3
330
4CB
100
AcDbEntity
  8
1
100
AcDbLine
 10
6.964974
 20
9.294594
 30
0.0
 11
6.804486999999999
 21
9.304555999999999
 31
0.0
  0
LINE
  5
3B4
330
4CB
100
AcDbEntity
  8
1
100
AcDbLine
 10
6.804486999999999
 20
9.304555999999999
 30
0.0
 11
6.642225999999999
 21
9.315832999999999
 31
0.0
  0
LINE
  5
3B5
330
4CB
100
AcDbEntity
  8
1
100
AcDbLine
 10
6.642225999999999
 20
9.315832999999999
 30
0.0
 11
6.478166
 21
9.328413000000001
 31
0.0
  0
LINE
  5
3B6
330
4CB
100
AcDbEntity
  8
1
100
AcDbLine
 10
6.478166
 20
9.328413000000001
 30
0.0
 11
6.312053999999999
 21
9.342278
 31
0.0
  0
LINE
  5
3B7
330
4CB
100
AcDbEntity
  8
1
100
AcDbLine
 10
6.312053999999999
 20
9.342278
 30
0.0
 11
6.143943
 21
9.357397
 31
0.0
  0
LINE
  5
3B8
330
4CB
100
AcDbEntity
  8
1
100
AcDbLine
 10
6.143943
 20
9.357397
 30
0.0
 11
5.973780999999999
 21
9.373756
 31
0.0
  0
LINE
  5
3B9
330
4CB
100
AcDbEntity
  8
1
100
AcDbLine
 10
5.973780999999999
 20
9.373756
 30
0.0
 11
5.801150999999999
 21
9.391361999999999
 31
0.0
  0
LINE
  5
3BA
330
4CB
100
AcDbEntity
  8
1
100
AcDbLine
 10
5.801150999999999
 20
9.391361999999999
 30
0.0
 11
5.626012
 21
9.410185
 31
0.0
  0
LINE
  5
3BB
330
4CB
100
AcDbEntity
  8
1
100
AcDbLine
 10
5.626012
 20
9.410185
 30
0.0
 11
5.448405999999999
 21
9.430196999999999
 31
0.0
  0
LINE
  5
3BC
330
4CB
100
AcDbEntity
  8
1
100
AcDbLine
 10
5.448405999999999
 20
9.430196999999999
 30
0.0
 11
5.268044
 21
9.451392
 31
0.0
  0
LINE
  5
3BD
330
4CB
100
AcDbEntity
  8
1
100
AcDbLine
 10
4.181144999999999
 20
1.583323
 30
0.0
 11
4.054755999999999
 21
1.800993
 31
0.0
  0
LINE
  5
3BE
330
4CB
100
AcDbEntity
  8
1
100
AcDbLine
 10
5.268044
 20
9.451392
 30
0.0
 11
5.084826999999999
 21
9.473746
 31
0.0
  0
LINE
  5
3BF
330
4CB
100
AcDbEntity
  8
1
100
AcDbLine
 10
4.054755999999999
 20
1.800993
 30
0.0
 11
3.931269999999999
 21
2.020935999999999
 31
0.0
  0
LINE
  5
3C0
330
4CB
100
AcDbEntity
  8
1
100
AcDbLine
 10
5.084826999999999
 20
9.473746
 30
0.0
 11
4.898855
 21
9.49721
 31
0.0
  0
LINE
  5
3C1
330
4CB
100
AcDbEntity
  8
1
100
AcDbLine
 10
3.931269999999999
 20
2.020935999999999
 30
0.0
 11
3.810808999999999
 21
2.242896
 31
0.0
  0
LINE
  5
3C2
330
4CB
100
AcDbEntity
  8
1
100
AcDbLine
 10
4.898855
 20
9.49721
 30
0.0
 11
4.710124999999999
 21
9.521744999999999
 31
0.0
  0
LINE
  5
3C3
330
4CB
100
AcDbEntity
  8
1
100
AcDbLine
 10
3.810808999999999
 20
2.242896
 30
0.0
 11
3.693251
 21
2.466855999999999
 31
0.0
  0
LINE
  5
3C4
330
4CB
100
AcDbEntity
  8
1
100
AcDbLine
 10
7.914369999999999
 20
5.370074999999999
 30
0.0
 11
7.391547999999999
 21
5.218123999999999
 31
0.0
  0
LINE
  5
3C5
330
4CB
100
AcDbEntity
  8
1
100
AcDbLine
 10
3.693251
 20
2.466855999999999
 30
0.0
 11
3.578741
 21
2.691695
 31
0.0
  0
LINE
  5
3C6
330
4CB
100
AcDbEntity
  8
1
100
AcDbLine
 10
4.710124999999999
 20
9.521744999999999
 30
0.0
 11
4.443291999999999
 21
9.691734
 31
0.0
  0
LINE
  5
3C7
330
4CB
100
AcDbEntity
  8
1
100
AcDbLine
 10
3.578741
 20
2.691695
 30
0.0
 11
3.467287
 21
2.917272999999999
 31
0.0
  0
LINE
  5
3C8
330
4CB
100
AcDbEntity
  8
1
100
AcDbLine
 10
7.891547999999999
 20
5.453844
 30
0.0
 11
7.968802
 21
5.150765999999999
 31
0.0
  0
LINE
  5
3C9
330
4CB
100
AcDbEntity
  8
1
100
AcDbLine
 10
3.467287
 20
2.917272999999999
 30
0.0
 11
3.358880999999999
 21
3.14344
 31
0.0
  0
LINE
  5
3CA
330
4CB
100
AcDbEntity
  8
1
100
AcDbLine
 10
8.664089999999999
 20
4.910533999999999
 30
0.0
 11
8.577375999999999
 21
5.147045999999999
 31
0.0
  0
LINE
  5
3CB
330
4CB
100
AcDbEntity
  8
1
100
AcDbLine
 10
3.358880999999999
 20
3.14344
 30
0.0
 11
3.253636999999999
 21
3.369087999999999
 31
0.0
  0
LINE
  5
3CC
330
4CB
100
AcDbEntity
  8
1
100
AcDbLine
 10
2.701706999999999
 20
10.562858
 30
0.0
 11
2.619027999999999
 21
10.576202
 31
0.0
  0
LINE
  5
3CD
330
4CB
100
AcDbEntity
  8
1
100
AcDbLine
 10
8.490833
 20
5.379609999999999
 30
0.0
 11
8.404460999999999
 21
5.608226
 31
0.0
  0
LINE
  5
3CE
330
4CB
100
AcDbEntity
  8
1
100
AcDbLine
 10
8.404460999999999
 20
5.608226
 30
0.0
 11
8.318196999999999
 21
5.833057
 31
0.0
  0
LINE
  5
3CF
330
4CB
100
AcDbEntity
  8
1
100
AcDbLine
 10
8.318196999999999
 20
5.833057
 30
0.0
 11
8.232103999999999
 21
6.053938999999999
 31
0.0
  0
LINE
  5
3D0
330
4CB
100
AcDbEntity
  8
1
100
AcDbLine
 10
8.232103999999999
 20
6.053938999999999
 30
0.0
 11
8.146373999999999
 21
6.270387
 31
0.0
  0
LINE
  5
3D1
330
4CB
100
AcDbEntity
  8
1
100
AcDbLine
 10
8.146373999999999
 20
6.270387
 30
0.0
 11
8.061068999999999
 21
6.482237999999999
 31
0.0
  0
LINE
  5
3D2
330
4CB
100
AcDbEntity
  8
1
100
AcDbLine
 10
8.061068999999999
 20
6.482237999999999
 30
0.0
 11
7.976126999999999
 21
6.689653999999999
 31
0.0
  0
LINE
  5
3D3
330
4CB
100
AcDbEntity
  8
1
100
AcDbLine
 10
7.976126999999999
 20
6.689653999999999
 30
0.0
 11
7.891547999999999
 21
6.892635
 31
0.0
  0
LINE
  5
3D4
330
4CB
100
AcDbEntity
  8
1
100
AcDbLine
 10
9.464089999999998
 20
5.532051
 30
0.0
 11
9.464089999999998
 21
5.221515
 31
0.0
  0
LINE
  5
3D5
330
4CB
100
AcDbEntity
  8
1
100
AcDbLine
 10
8.320154999999999
 20
7.043677999999999
 30
0.0
 11
8.320114
 21
6.970424
 31
0.0
  0
LINE
  5
3D6
330
4CB
100
AcDbEntity
  8
1
100
AcDbLine
 10
8.320114
 20
6.970424
 30
0.0
 11
8.323967999999998
 21
6.8981
 31
0.0
  0
LINE
  5
3D7
330
4CB
100
AcDbEntity
  8
1
100
AcDbLine
 10
8.331716999999999
 20
6.826719
 30
0.0
 11
8.343322999999999
 21
6.756377
 31
0.0
  0
LINE
  5
3D8
330
4CB
100
AcDbEntity
  8
1
100
AcDbLine
 10
8.343322999999999
 20
6.756377
 30
0.0
 11
8.358824
 21
6.687005999999999
 31
0.0
  0
LINE
  5
3D9
330
4CB
100
AcDbEntity
  8
1
100
AcDbLine
 10
8.358824
 20
6.687005999999999
 30
0.0
 11
8.378339
 21
6.618371
 31
0.0
  0
LINE
  5
3DA
330
4CB
100
AcDbEntity
  8
1
100
AcDbLine
 10
8.378339
 20
6.618371
 30
0.0
 11
8.401875
 21
6.550362
 31
0.0
  0
LINE
  5
3DB
330
4CB
100
AcDbEntity
  8
1
100
AcDbLine
 10
8.401875
 20
6.550362
 30
0.0
 11
8.429425
 21
6.483096999999999
 31
0.0
  0
LINE
  5
3DC
330
4CB
100
AcDbEntity
  8
1
100
AcDbLine
 10
8.429425
 20
6.483096999999999
 30
0.0
 11
8.461088999999999
 21
6.41669
 31
0.0
  0
LINE
  5
3DD
330
4CB
100
AcDbEntity
  8
1
100
AcDbLine
 10
8.461088999999999
 20
6.41669
 30
0.0
 11
8.496890999999999
 21
6.351137
 31
0.0
  0
LINE
  5
3DE
330
4CB
100
AcDbEntity
  8
1
100
AcDbLine
 10
8.496890999999999
 20
6.351137
 30
0.0
 11
8.536807000000001
 21
6.286451999999999
 31
0.0
  0
LINE
  5
3DF
330
4CB
100
AcDbEntity
  8
1
100
AcDbLine
 10
9.009822999999999
 20
5.804583999999999
 30
0.0
 11
9.090146
 21
5.748089
 31
0.0
  0
LINE
  5
3E0
330
4CB
100
AcDbEntity
  8
1
100
AcDbLine
 10
8.536807000000001
 20
6.286451999999999
 30
0.0
 11
8.580864999999999
 21
6.222783999999999
 31
0.0
  0
LINE
  5
3E1
330
4CB
100
AcDbEntity
  8
1
100
AcDbLine
 10
8.580864999999999
 20
6.222783999999999
 30
0.0
 11
8.628994999999999
 21
6.160216
 31
0.0
  0
LINE
  5
3E2
330
4CB
100
AcDbEntity
  8
1
100
AcDbLine
 10
8.681267
 20
6.098679999999999
 30
0.0
 11
8.737925999999999
 21
6.038082
 31
0.0
  0
LINE
  5
3E3
330
4CB
100
AcDbEntity
  8
1
100
AcDbLine
 10
8.798860000000001
 20
5.978448
 30
0.0
 11
8.864180000000001
 21
5.919762
 31
0.0
  0
LINE
  5
3E4
330
4CB
100
AcDbEntity
  8
1
100
AcDbLine
 10
8.934466999999999
 20
5.861849999999999
 30
0.0
 11
9.009822999999999
 21
5.804583999999999
 31
0.0
  0
LINE
  5
3E5
330
4CB
100
AcDbEntity
  8
SK1
100
AcDbLine
 10
-12.35
 20
5.856748999999999
 30
0.0
 11
-9.349999999999999
 21
5.856748999999999
 31
0.0
  0
LINE
  5
3E6
330
4CB
100
AcDbEntity
  8
1
100
AcDbLine
 10
9.090146
 20
5.748089
 30
0.0
 11
9.175707
 21
5.692566
 31
0.0
  0
LINE
  5
3E7
330
4CB
100
AcDbEntity
  8
1
100
AcDbLine
 10
9.175707
 20
5.692566
 30
0.0
 11
9.266597
 21
5.638085
 31
0.0
  0
LINE
  5
3E8
330
4CB
100
AcDbEntity
  8
1
100
AcDbLine
 10
9.266597
 20
5.638085
 30
0.0
 11
9.362724
 21
5.584579999999999
 31
0.0
  0
LINE
  5
3E9
330
4CB
100
AcDbEntity
  8
1
100
AcDbLine
 10
9.362724
 20
5.584579999999999
 30
0.0
 11
9.464089999999998
 21
5.532051
 31
0.0
  0
LINE
  5
3EA
330
4CB
100
AcDbEntity
  8
1
100
AcDbLine
 10
7.891547999999999
 20
6.892635
 30
0.0
 11
7.891547999999999
 21
5.453844
 31
0.0
  0
LINE
  5
3EB
330
4CB
100
AcDbEntity
  8
1
100
AcDbLine
 10
9.061010000000001
 20
5.065258999999999
 30
0.0
 11
9.464089999999998
 21
5.221515
 31
0.0
  0
LINE
  5
3EC
330
4CB
100
AcDbEntity
  8
1
100
AcDbLine
 10
8.664089999999999
 20
4.910533999999999
 30
0.0
 11
9.061010000000001
 21
5.065258999999999
 31
0.0
  0
LINE
  5
3ED
330
4CB
100
AcDbEntity
  8
1
100
AcDbLine
 10
8.970278
 20
0.8911479999999999
 30
0.0
 11
8.977035
 21
0.887494
 31
0.0
  0
LINE
  5
3EE
330
4CB
100
AcDbEntity
  8
1
100
AcDbLine
 10
8.737925999999999
 20
6.038082
 30
0.0
 11
8.798860000000001
 21
5.978448
 31
0.0
  0
LINE
  5
3EF
330
4CB
100
AcDbEntity
  8
1
100
AcDbLine
 10
8.864180000000001
 20
5.919762
 30
0.0
 11
8.934466999999999
 21
5.861849999999999
 31
0.0
  0
LINE
  5
3F0
330
4CB
100
AcDbEntity
  8
1
100
AcDbLine
 10
8.922577999999999
 20
9.293378
 30
0.0
 11
8.778183
 21
9.284525
 31
0.0
  0
LINE
  5
3F1
330
4CB
100
AcDbEntity
  8
1
100
AcDbLine
 10
7.123663
 20
9.285967999999998
 30
0.0
 11
6.964974
 21
9.294594
 31
0.0
  0
LINE
  5
3F2
330
4CB
100
AcDbEntity
  8
81
100
AcDbLine
 10
15.5
 20
0.0
 30
0.0
 11
25.775284
 21
0.0
 31
0.0
  0
LINE
  5
3F3
330
4CB
100
AcDbEntity
  8
4
100
AcDbLine
 10
0.0
 20
0.0
 30
0.0
 11
17.849721
 21
0.0
 31
0.0
  0
POINT
  5
3F4
330
4CB
100
AcDbEntity
  8
80
100
AcDbPoint
 10
0.0
 20
0.0
 30
0.0
  0
POINT
  5
3F5
330
4CB
100
AcDbEntity
  8
81
100
AcDbPoint
 10
15.5
 20
11.0
 30
0.0
  0
TEXT
  5
3F6
330
4CB
100
AcDbEntity
  8
SK6
100
AcDbText
 10
-13.861259
 20
15.769971
 30
0.0
 40
3.5
  1
HFS14
 41
0.7925176483516483
  7
SANDVIK_STYLE
 72
     5
 11
-1.841408
 21
15.769971
 31
0.0
100
AcDbText
  0
TEXT
  5
3F7
330
4CB
100
AcDbEntity
  8
SK6
100
AcDbText
 10
-18.222194
 20
-21.804762
 30
0.0
 40
3.5
  1
830A-E06D2200H7S14
 41
0.7987982160664823
  7
SANDVIK_STYLE
 72
     5
 11
29.838832
 21
-21.804762
 31
0.0
100
AcDbText
  0
TEXT
  5
3F8
330
4CB
100
AcDbEntity
  8
2
100
AcDbText
 10
8.944817
 20
26.582752
 30
0.0
 40
3.5
  1
L=15.5 
100
AcDbText
  0
INSERT
  5
3F9
330
4CB
100
AcDbEntity
  8
2
100
AcDbBlockReference
  2
*D0
 10
0.0
 20
0.0
 30
0.0
  0
TEXT
  5
3FA
330
4CB
100
AcDbEntity
  8
2
100
AcDbText
 10
33.342794
 20
1.652777999999999
 30
0.0
 40
3.5
  1
%%c22H7
 50
90.0
100
AcDbText
  0
INSERT
  5
3FB
330
4CB
100
AcDbEntity
  8
2
100
AcDbBlockReference
  2
*D1
 10
0.0
 20
0.0
 30
0.0
  0
ENDSEC
  0
SECTION
  2
OBJECTS
  0
DICTIONARY
  5
467
330
0
100
AcDbDictionary
281
     1
  3
ACAD_CIP_PREVIOUS_PRODUCT_INFO
350
4FE
  3
ACAD_COLOR
350
4BD
  3
ACAD_DETAILVIEWSTYLE
350
4C5
  3
ACAD_GROUP
350
468
  3
ACAD_LAYOUT
350
4BC
  3
ACAD_MATERIAL
350
46B
  3
ACAD_MLEADERSTYLE
350
4C0
  3
ACAD_MLINESTYLE
350
4B9
  3
ACAD_PLOTSETTINGS
350
4BB
  3
ACAD_PLOTSTYLENAME
350
469
  3
ACAD_SCALELIST
350
49D
  3
ACAD_SECTIONVIEWSTYLE
350
4C2
  3
ACAD_TABLESTYLE
350
4BE
  3
ACAD_VISUALSTYLE
350
484
  3
ACDB_RECOMPOSE_DATA
350
55A
  3
AcDbVariableDictionary
350
54D
  3
DWGPROPS
350
55B
  0
DICTIONARY
  5
501
330
4AF
100
AcDbDictionary
280
     1
281
     1
  3
ADSK_XREC_LAYER_RECONCILED
360
502
  0
DICTIONARY
  5
503
330
4CF
100
AcDbDictionary
280
     1
281
     1
  3
ADSK_XREC_LAYER_RECONCILED
360
504
  0
DICTIONARY
  5
505
330
4D3
100
AcDbDictionary
280
     1
281
     1
  3
ADSK_XREC_LAYER_RECONCILED
360
506
  0
DICTIONARY
  5
507
330
4D4
100
AcDbDictionary
280
     1
281
     1
  3
ADSK_XREC_LAYER_RECONCILED
360
508
  0
DICTIONARY
  5
509
330
4D5
100
AcDbDictionary
280
     1
281
     1
  3
ADSK_XREC_LAYER_RECONCILED
360
50A
  0
DICTIONARY
  5
50B
330
4D6
100
AcDbDictionary
280
     1
281
     1
  3
ADSK_XREC_LAYER_RECONCILED
360
50C
  0
DICTIONARY
  5
50D
330
4D7
100
AcDbDictionary
280
     1
281
     1
  3
ADSK_XREC_LAYER_RECONCILED
360
50E
  0
DICTIONARY
  5
50F
330
4D8
100
AcDbDictionary
280
     1
281
     1
  3
ADSK_XREC_LAYER_RECONCILED
360
510
  0
DICTIONARY
  5
511
330
4D9
100
AcDbDictionary
280
     1
281
     1
  3
ADSK_XREC_LAYER_RECONCILED
360
512
  0
DICTIONARY
  5
513
330
4DA
100
AcDbDictionary
280
     1
281
     1
  3
ADSK_XREC_LAYER_RECONCILED
360
514
  0
DICTIONARY
  5
515
330
4DB
100
AcDbDictionary
280
     1
281
     1
  3
ADSK_XREC_LAYER_RECONCILED
360
516
  0
DICTIONARY
  5
517
330
4DC
100
AcDbDictionary
280
     1
281
     1
  3
ADSK_XREC_LAYER_RECONCILED
360
518
  0
DICTIONARY
  5
519
330
4DD
100
AcDbDictionary
280
     1
281
     1
  3
ADSK_XREC_LAYER_RECONCILED
360
51A
  0
DICTIONARY
  5
51B
330
4DE
100
AcDbDictionary
280
     1
281
     1
  3
ADSK_XREC_LAYER_RECONCILED
360
51C
  0
DICTIONARY
  5
51D
330
4DF
100
AcDbDictionary
280
     1
281
     1
  3
ADSK_XREC_LAYER_RECONCILED
360
51E
  0
DICTIONARY
  5
51F
330
4E0
100
AcDbDictionary
280
     1
281
     1
  3
ADSK_XREC_LAYER_RECONCILED
360
520
  0
DICTIONARY
  5
521
330
4E1
100
AcDbDictionary
280
     1
281
     1
  3
ADSK_XREC_LAYER_RECONCILED
360
522
  0
DICTIONARY
  5
523
330
4E2
100
AcDbDictionary
280
     1
281
     1
  3
ADSK_XREC_LAYER_RECONCILED
360
524
  0
DICTIONARY
  5
525
330
4E3
100
AcDbDictionary
280
     1
281
     1
  3
ADSK_XREC_LAYER_RECONCILED
360
526
  0
DICTIONARY
  5
527
330
4E4
100
AcDbDictionary
280
     1
281
     1
  3
ADSK_XREC_LAYER_RECONCILED
360
528
  0
DICTIONARY
  5
529
330
4E5
100
AcDbDictionary
280
     1
281
     1
  3
ADSK_XREC_LAYER_RECONCILED
360
52A
  0
DICTIONARY
  5
52B
330
4E6
100
AcDbDictionary
280
     1
281
     1
  3
ADSK_XREC_LAYER_RECONCILED
360
52C
  0
DICTIONARY
  5
52D
330
4E7
100
AcDbDictionary
280
     1
281
     1
  3
ADSK_XREC_LAYER_RECONCILED
360
52E
  0
DICTIONARY
  5
52F
330
4E8
100
AcDbDictionary
280
     1
281
     1
  3
ADSK_XREC_LAYER_RECONCILED
360
530
  0
DICTIONARY
  5
531
330
4E9
100
AcDbDictionary
280
     1
281
     1
  3
ADSK_XREC_LAYER_RECONCILED
360
532
  0
DICTIONARY
  5
533
330
4EA
100
AcDbDictionary
280
     1
281
     1
  3
ADSK_XREC_LAYER_RECONCILED
360
534
  0
DICTIONARY
  5
535
330
4EB
100
AcDbDictionary
280
     1
281
     1
  3
ADSK_XREC_LAYER_RECONCILED
360
536
  0
DICTIONARY
  5
537
330
4EC
100
AcDbDictionary
280
     1
281
     1
  3
ADSK_XREC_LAYER_RECONCILED
360
538
  0
DICTIONARY
  5
539
330
4ED
100
AcDbDictionary
280
     1
281
     1
  3
ADSK_XREC_LAYER_RECONCILED
360
53A
  0
DICTIONARY
  5
53B
330
4EE
100
AcDbDictionary
280
     1
281
     1
  3
ADSK_XREC_LAYER_RECONCILED
360
53C
  0
DICTIONARY
  5
53D
330
4EF
100
AcDbDictionary
280
     1
281
     1
  3
ADSK_XREC_LAYER_RECONCILED
360
53E
  0
DICTIONARY
  5
53F
330
4F0
100
AcDbDictionary
280
     1
281
     1
  3
ADSK_XREC_LAYER_RECONCILED
360
540
  0
DICTIONARY
  5
541
330
4F1
100
AcDbDictionary
280
     1
281
     1
  3
ADSK_XREC_LAYER_RECONCILED
360
542
  0
DICTIONARY
  5
543
330
4F2
100
AcDbDictionary
280
     1
281
     1
  3
ADSK_XREC_LAYER_RECONCILED
360
544
  0
DICTIONARY
  5
545
330
4F3
100
AcDbDictionary
280
     1
281
     1
  3
ADSK_XREC_LAYER_RECONCILED
360
546
  0
DICTIONARY
  5
547
330
4F4
100
AcDbDictionary
280
     1
281
     1
  3
ADSK_XREC_LAYER_RECONCILED
360
548
  0
DICTIONARY
  5
549
330
4F5
100
AcDbDictionary
280
     1
281
     1
  3
ADSK_XREC_LAYER_RECONCILED
360
54A
  0
DICTIONARY
  5
54B
330
4F6
100
AcDbDictionary
280
     1
281
     1
  3
ADSK_XREC_LAYER_RECONCILED
360
54C
  0
XRECORD
  5
4FE
102
{ACAD_REACTORS
330
467
102
}
330
467
100
AcDbXrecord
280
     1
300
AMECH_PP
300
2013
300
PDSU_F_S
  0
DICTIONARY
  5
4BD
102
{ACAD_REACTORS
330
467
102
}
330
467
100
AcDbDictionary
281
     1
  0
DICTIONARY
  5
4C5
102
{ACAD_REACTORS
330
467
102
}
330
467
100
AcDbDictionary
281
     1
  3
Imperial24
350
4C6
  0
DICTIONARY
  5
468
102
{ACAD_REACTORS
330
467
102
}
330
467
100
AcDbDictionary
281
     1
  0
DICTIONARY
  5
4BC
102
{ACAD_REACTORS
330
467
102
}
330
467
100
AcDbDictionary
281
     1
  3
Layout1
350
4CA
  3
Model
350
4CE
  0
DICTIONARY
  5
46B
102
{ACAD_REACTORS
330
467
102
}
330
467
100
AcDbDictionary
281
     1
  3
ByBlock
350
474
  3
ByLayer
350
46C
  3
Global
350
47C
  0
DICTIONARY
  5
4C0
102
{ACAD_REACTORS
330
467
102
}
330
467
100
AcDbDictionary
281
     1
  3
Standard
350
4C1
  0
DICTIONARY
  5
4B9
102
{ACAD_REACTORS
330
467
102
}
330
467
100
AcDbDictionary
281
     1
  3
Standard
350
4BA
  0
DICTIONARY
  5
4BB
102
{ACAD_REACTORS
330
467
102
}
330
467
100
AcDbDictionary
281
     1
  0
ACDBDICTIONARYWDFLT
  5
469
102
{ACAD_REACTORS
330
467
102
}
330
467
100
AcDbDictionary
281
     1
  3
Normal
350
46A
100
AcDbDictionaryWithDefault
340
46A
  0
DICTIONARY
  5
49D
102
{ACAD_REACTORS
330
467
102
}
330
467
100
AcDbDictionary
281
     1
  3
A0
350
49E
  3
A1
350
49F
  3
A2
350
4A0
  3
A3
350
4A1
  3
A4
350
4A2
  3
A5
350
4A3
  3
A6
350
4A4
  3
A7
350
4A5
  3
A8
350
4A6
  3
A9
350
4A7
  3
B0
350
4A8
  3
B1
350
4A9
  3
B2
350
4AA
  3
B3
350
4AB
  3
B4
350
4AC
  3
B5
350
4AD
  3
B6
350
4AE
  0
DICTIONARY
  5
4C2
102
{ACAD_REACTORS
330
467
102
}
330
467
100
AcDbDictionary
281
     1
  3
Imperial24
350
4C4
  0
DICTIONARY
  5
4BE
102
{ACAD_REACTORS
330
467
102
}
330
467
100
AcDbDictionary
281
     1
  3
Standard
350
4BF
  0
DICTIONARY
  5
484
102
{ACAD_REACTORS
330
467
102
}
330
467
100
AcDbDictionary
281
     1
  3
2dWireframe
350
48A
  3
Basic
350
489
  3
Brighten
350
490
  3
ColorChange
350
494
  3
Conceptual
350
48D
  3
Dim
350
48F
  3
EdgeColorOff
350
49C
  3
Facepattern
350
493
  3
Flat
350
485
  3
FlatWithEdges
350
486
  3
Gouraud
350
487
  3
GouraudWithEdges
350
488
  3
Hidden
350
48C
  3
JitterOff
350
49A
  3
Linepattern
350
492
  3
OverhangOff
350
49B
  3
Realistic
350
48E
  3
Shaded
350
499
  3
Shaded with edges
350
498
  3
Shades of Gray
350
495
  3
Sketchy
350
496
  3
Thicken
350
491
  3
Wireframe
350
48B
  3
X-Ray
350
497
  0
XRECORD
  5
55A
102
{ACAD_REACTORS
330
467
102
}
330
467
100
AcDbXrecord
280
     1
 90
        1
330
4BF
  0
DICTIONARY
  5
54D
102
{ACAD_REACTORS
330
467
102
}
330
467
100
AcDbDictionary
281
     1
  3
CANNOSCALE
350
552
  3
CMLEADERSTYLE
350
54F
  3
CTABLESTYLE
350
54E
  3
CVIEWDETAILSTYLE
350
550
  3
CVIEWSECTIONSTYLE
350
551
  3
DIMASSOC
350
555
  3
INDEXCTL
350
554
  3
SORTENTS
350
553
  3
XCLIPFRAME
350
556
  0
XRECORD
  5
55B
102
{ACAD_REACTORS
330
467
102
}
330
467
100
AcDbXrecord
280
     1
  1
DWGPROPS COOKIE
  2

  3

  4

  6

  7

  8
Micke
  9

300
=
301
=
302
=
303
=
304
=
305
=
306
=
307
=
308
=
309
=
 40
0.0000045833333333
 41
2456818.317926377
 42
2456818.317930903
  1

 90
        0
  0
XRECORD
  5
502
102
{ACAD_REACTORS
330
501
102
}
330
501
100
AcDbXrecord
280
     1
290
     1
  0
XRECORD
  5
504
102
{ACAD_REACTORS
330
503
102
}
330
503
100
AcDbXrecord
280
     1
290
     1
  0
XRECORD
  5
506
102
{ACAD_REACTORS
330
505
102
}
330
505
100
AcDbXrecord
280
     1
290
     1
  0
XRECORD
  5
508
102
{ACAD_REACTORS
330
507
102
}
330
507
100
AcDbXrecord
280
     1
290
     1
  0
XRECORD
  5
50A
102
{ACAD_REACTORS
330
509
102
}
330
509
100
AcDbXrecord
280
     1
290
     1
  0
XRECORD
  5
50C
102
{ACAD_REACTORS
330
50B
102
}
330
50B
100
AcDbXrecord
280
     1
290
     1
  0
XRECORD
  5
50E
102
{ACAD_REACTORS
330
50D
102
}
330
50D
100
AcDbXrecord
280
     1
290
     1
  0
XRECORD
  5
510
102
{ACAD_REACTORS
330
50F
102
}
330
50F
100
AcDbXrecord
280
     1
290
     1
  0
XRECORD
  5
512
102
{ACAD_REACTORS
330
511
102
}
330
511
100
AcDbXrecord
280
     1
290
     1
  0
XRECORD
  5
514
102
{ACAD_REACTORS
330
513
102
}
330
513
100
AcDbXrecord
280
     1
290
     1
  0
XRECORD
  5
516
102
{ACAD_REACTORS
330
515
102
}
330
515
100
AcDbXrecord
280
     1
290
     1
  0
XRECORD
  5
518
102
{ACAD_REACTORS
330
517
102
}
330
517
100
AcDbXrecord
280
     1
290
     1
  0
XRECORD
  5
51A
102
{ACAD_REACTORS
330
519
102
}
330
519
100
AcDbXrecord
280
     1
290
     1
  0
XRECORD
  5
51C
102
{ACAD_REACTORS
330
51B
102
}
330
51B
100
AcDbXrecord
280
     1
290
     1
  0
XRECORD
  5
51E
102
{ACAD_REACTORS
330
51D
102
}
330
51D
100
AcDbXrecord
280
     1
290
     1
  0
XRECORD
  5
520
102
{ACAD_REACTORS
330
51F
102
}
330
51F
100
AcDbXrecord
280
     1
290
     1
  0
XRECORD
  5
522
102
{ACAD_REACTORS
330
521
102
}
330
521
100
AcDbXrecord
280
     1
290
     1
  0
XRECORD
  5
524
102
{ACAD_REACTORS
330
523
102
}
330
523
100
AcDbXrecord
280
     1
290
     1
  0
XRECORD
  5
526
102
{ACAD_REACTORS
330
525
102
}
330
525
100
AcDbXrecord
280
     1
290
     1
  0
XRECORD
  5
528
102
{ACAD_REACTORS
330
527
102
}
330
527
100
AcDbXrecord
280
     1
290
     1
  0
XRECORD
  5
52A
102
{ACAD_REACTORS
330
529
102
}
330
529
100
AcDbXrecord
280
     1
290
     1
  0
XRECORD
  5
52C
102
{ACAD_REACTORS
330
52B
102
}
330
52B
100
AcDbXrecord
280
     1
290
     1
  0
XRECORD
  5
52E
102
{ACAD_REACTORS
330
52D
102
}
330
52D
100
AcDbXrecord
280
     1
290
     1
  0
XRECORD
  5
530
102
{ACAD_REACTORS
330
52F
102
}
330
52F
100
AcDbXrecord
280
     1
290
     1
  0
XRECORD
  5
532
102
{ACAD_REACTORS
330
531
102
}
330
531
100
AcDbXrecord
280
     1
290
     1
  0
XRECORD
  5
534
102
{ACAD_REACTORS
330
533
102
}
330
533
100
AcDbXrecord
280
     1
290
     1
  0
XRECORD
  5
536
102
{ACAD_REACTORS
330
535
102
}
330
535
100
AcDbXrecord
280
     1
290
     1
  0
XRECORD
  5
538
102
{ACAD_REACTORS
330
537
102
}
330
537
100
AcDbXrecord
280
     1
290
     1
  0
XRECORD
  5
53A
102
{ACAD_REACTORS
330
539
102
}
330
539
100
AcDbXrecord
280
     1
290
     1
  0
XRECORD
  5
53C
102
{ACAD_REACTORS
330
53B
102
}
330
53B
100
AcDbXrecord
280
     1
290
     1
  0
XRECORD
  5
53E
102
{ACAD_REACTORS
330
53D
102
}
330
53D
100
AcDbXrecord
280
     1
290
     1
  0
XRECORD
  5
540
102
{ACAD_REACTORS
330
53F
102
}
330
53F
100
AcDbXrecord
280
     1
290
     1
  0
XRECORD
  5
542
102
{ACAD_REACTORS
330
541
102
}
330
541
100
AcDbXrecord
280
     1
290
     1
  0
XRECORD
  5
544
102
{ACAD_REACTORS
330
543
102
}
330
543
100
AcDbXrecord
280
     1
290
     1
  0
XRECORD
  5
546
102
{ACAD_REACTORS
330
545
102
}
330
545
100
AcDbXrecord
280
     1
290
     1
  0
XRECORD
  5
548
102
{ACAD_REACTORS
330
547
102
}
330
547
100
AcDbXrecord
280
     1
290
     1
  0
XRECORD
  5
54A
102
{ACAD_REACTORS
330
549
102
}
330
549
100
AcDbXrecord
280
     1
290
     1
  0
XRECORD
  5
54C
102
{ACAD_REACTORS
330
54B
102
}
330
54B
100
AcDbXrecord
280
     1
290
     1
  0
ACDBDETAILVIEWSTYLE
  5
4C6
102
{ACAD_REACTORS
330
4C5
102
}
330
4C5
100
AcDbModelDocViewStyle
 70
     0
  3
Imperial24
290
     0
100
AcDbDetailViewStyle
 70
     0
 71
     0
 90
        3
 71
     1
340
4B0
 40
0.24
340
0
 40
0.24
300

 40
0.36
280
     3
 71
     2
340
4B7
 90
       25
 71
     3
340
4B0
 40
0.24
 90
        1
 40
0.75
 90
        1
300
%<\AcVar ViewType \f "%tc1">% %<\AcVar ViewDetailId>%\PSCALE %<\AcVar ViewScale \f "%sn">%
 71
     4
340
4B7
 90
       25
340
4B7
 90
       25
280
     0
  0
LAYOUT
  5
4CA
102
{ACAD_XDICTIONARY
360
591
102
}
102
{ACAD_REACTORS
330
4BC
102
}
330
4BC
100
AcDbPlotSettings
  1

  2
Brother DCP-9020CDW Printer
  4

  6

 40
0.0
 41
0.0
 42
0.0
 43
0.0
 44
0.0
 45
0.0
 46
0.0
 47
0.0
 48
0.0
 49
0.0
140
0.0
141
0.0
142
1.0
143
1.0
 70
   688
 72
     0
 73
     0
 74
     5
  7

 75
    16
147
1.0
148
0.0
149
0.0
100
AcDbLayout
  1
Layout1
 70
     1
 71
     1
 10
0.0
 20
0.0
 11
12.0
 21
9.0
 12
0.0
 22
0.0
 32
0.0
 14
1.000000000000000E+20
 24
1.000000000000000E+20
 34
1.000000000000000E+20
 15
-1.000000000000000E+20
 25
-1.000000000000000E+20
 35
-1.000000000000000E+20
146
0.0
 13
0.0
 23
0.0
 33
0.0
 16
1.0
 26
0.0
 36
0.0
 17
0.0
 27
1.0
 37
0.0
 76
     0
330
4C7
  0
LAYOUT
  5
4CE
102
{ACAD_XDICTIONARY
360
593
102
}
102
{ACAD_REACTORS
330
4BC
102
}
330
4BC
100
AcDbPlotSettings
  1

  2
Brother DCP-9020CDW Printer
  4

  6

 40
0.0
 41
0.0
 42
0.0
 43
0.0
 44
0.0
 45
0.0
 46
0.0
 47
0.0
 48
0.0
 49
0.0
140
0.0
141
0.0
142
1.0
143
1.0
 70
  1712
 72
     0
 73
     0
 74
     0
  7

 75
     0
147
1.0
148
0.0
149
0.0
100
AcDbLayout
  1
Model
 70
     1
 71
     0
 10
0.0
 20
0.0
 11
12.0
 21
9.0
 12
0.0
 22
0.0
 32
0.0
 14
0.0
 24
0.0
 34
0.0
 15
0.0
 25
0.0
 35
0.0
146
0.0
 13
0.0
 23
0.0
 33
0.0
 16
1.0
 26
0.0
 36
0.0
 17
0.0
 27
1.0
 37
0.0
 76
     0
330
4CB
331
4FA
  0
MATERIAL
  5
474
102
{ACAD_XDICTIONARY
360
475
102
}
102
{ACAD_REACTORS
330
46B
102
}
330
46B
100
AcDbMaterial
  1
ByBlock
 72
     0
 43
0.0208333333333333
 43
0.0
 43
0.0
 43
0.0
 43
0.0
 43
0.0208333333333333
 43
0.0
 43
0.0
 43
0.0
 43
0.0
 43
1.0
 43
0.0
 43
0.0
 43
0.0
 43
0.0
 43
1.0
 77
     0
 47
0.0208333333333333
 47
0.0
 47
0.0
 47
0.0
 47
0.0
 47
0.0208333333333333
 47
0.0
 47
0.0
 47
0.0
 47
0.0
 47
1.0
 47
0.0
 47
0.0
 47
0.0
 47
0.0
 47
1.0
171
     0
 49
0.0208333333333333
 49
0.0
 49
0.0
 49
0.0
 49
0.0
 49
0.0208333333333333
 49
0.0
 49
0.0
 49
0.0
 49
0.0
 49
1.0
 49
0.0
 49
0.0
 49
0.0
 49
0.0
 49
1.0
175
     0
142
0.0208333333333333
142
0.0
142
0.0
142
0.0
142
0.0
142
0.0208333333333333
142
0.0
142
0.0
142
0.0
142
0.0
142
1.0
142
0.0
142
0.0
142
0.0
142
0.0
142
1.0
179
     0
144
0.0208333333333333
144
0.0
144
0.0
144
0.0
144
0.0
144
0.0208333333333333
144
0.0
144
0.0
144
0.0
144
0.0
144
1.0
144
0.0
144
0.0
144
0.0
144
0.0
144
1.0
147
0.0208333333333333
147
0.0
147
0.0
147
0.0
147
0.0
147
0.0208333333333333
147
0.0
147
0.0
147
0.0
147
0.0
147
1.0
147
0.0
147
0.0
147
0.0
147
0.0
147
1.0
  0
MATERIAL
  5
46C
102
{ACAD_XDICTIONARY
360
46D
102
}
102
{ACAD_REACTORS
330
46B
102
}
330
46B
100
AcDbMaterial
  1
ByLayer
 72
     0
 43
0.0208333333333333
 43
0.0
 43
0.0
 43
0.0
 43
0.0
 43
0.0208333333333333
 43
0.0
 43
0.0
 43
0.0
 43
0.0
 43
1.0
 43
0.0
 43
0.0
 43
0.0
 43
0.0
 43
1.0
 77
     0
 47
0.0208333333333333
 47
0.0
 47
0.0
 47
0.0
 47
0.0
 47
0.0208333333333333
 47
0.0
 47
0.0
 47
0.0
 47
0.0
 47
1.0
 47
0.0
 47
0.0
 47
0.0
 47
0.0
 47
1.0
171
     0
 49
0.0208333333333333
 49
0.0
 49
0.0
 49
0.0
 49
0.0
 49
0.0208333333333333
 49
0.0
 49
0.0
 49
0.0
 49
0.0
 49
1.0
 49
0.0
 49
0.0
 49
0.0
 49
0.0
 49
1.0
175
     0
142
0.0208333333333333
142
0.0
142
0.0
142
0.0
142
0.0
142
0.0208333333333333
142
0.0
142
0.0
142
0.0
142
0.0
142
1.0
142
0.0
142
0.0
142
0.0
142
0.0
142
1.0
179
     0
144
0.0208333333333333
144
0.0
144
0.0
144
0.0
144
0.0
144
0.0208333333333333
144
0.0
144
0.0
144
0.0
144
0.0
144
1.0
144
0.0
144
0.0
144
0.0
144
0.0
144
1.0
147
0.0208333333333333
147
0.0
147
0.0
147
0.0
147
0.0
147
0.0208333333333333
147
0.0
147
0.0
147
0.0
147
0.0
147
1.0
147
0.0
147
0.0
147
0.0
147
0.0
147
1.0
  0
MATERIAL
  5
47C
102
{ACAD_XDICTIONARY
360
47D
102
}
102
{ACAD_REACTORS
330
46B
102
}
330
46B
100
AcDbMaterial
  1
Global
 72
     0
 43
0.0208333333333333
 43
0.0
 43
0.0
 43
0.0
 43
0.0
 43
0.0208333333333333
 43
0.0
 43
0.0
 43
0.0
 43
0.0
 43
1.0
 43
0.0
 43
0.0
 43
0.0
 43
0.0
 43
1.0
 77
     0
 47
0.0208333333333333
 47
0.0
 47
0.0
 47
0.0
 47
0.0
 47
0.0208333333333333
 47
0.0
 47
0.0
 47
0.0
 47
0.0
 47
1.0
 47
0.0
 47
0.0
 47
0.0
 47
0.0
 47
1.0
171
     0
 49
0.0208333333333333
 49
0.0
 49
0.0
 49
0.0
 49
0.0
 49
0.0208333333333333
 49
0.0
 49
0.0
 49
0.0
 49
0.0
 49
1.0
 49
0.0
 49
0.0
 49
0.0
 49
0.0
 49
1.0
175
     0
142
0.0208333333333333
142
0.0
142
0.0
142
0.0
142
0.0
142
0.0208333333333333
142
0.0
142
0.0
142
0.0
142
0.0
142
1.0
142
0.0
142
0.0
142
0.0
142
0.0
142
1.0
179
     0
144
0.0208333333333333
144
0.0
144
0.0
144
0.0
144
0.0
144
0.0208333333333333
144
0.0
144
0.0
144
0.0
144
0.0
144
1.0
144
0.0
144
0.0
144
0.0
144
0.0
144
1.0
147
0.0208333333333333
147
0.0
147
0.0
147
0.0
147
0.0
147
0.0208333333333333
147
0.0
147
0.0
147
0.0
147
0.0
147
1.0
147
0.0
147
0.0
147
0.0
147
0.0
147
1.0
  0
MLEADERSTYLE
  5
4C1
102
{ACAD_REACTORS
330
4C0
102
}
330
4C0
100
AcDbMLeaderStyle
170
     2
171
     1
172
     0
 90
        2
 40
0.0
 41
0.0
173
     1
 91
-1056964608
340
4B5
 92
       -2
290
     1
 42
0.09
291
     1
 43
0.36
  3
Standard
 44
0.18
300

342
4B0
174
     1
178
     6
175
     1
176
     0
 93
-1056964608
 45
0.18
292
     0
297
     0
 46
0.18
 94
-1056964608
 47
1.0
 49
1.0
140
1.0
293
     1
141
0.0
294
     1
177
     0
142
1.0
295
     0
296
     0
143
0.125
1001
ACAD_MLEADERVER
1070
     2
  0
MLINESTYLE
  5
4BA
102
{ACAD_REACTORS
330
4B9
102
}
330
4B9
100
AcDbMlineStyle
  2
STANDARD
 70
     0
  3

 62
   256
 51
90.0
 52
90.0
 71
     2
 49
0.5
 62
   256
  6
BYLAYER
 49
-0.5
 62
   256
  6
BYLAYER
  0
ACDBPLACEHOLDER
  5
46A
102
{ACAD_REACTORS
330
469
102
}
330
469
  0
SCALE
  5
49E
102
{ACAD_REACTORS
330
49D
102
}
330
49D
100
AcDbScale
 70
     0
300
1:1
140
1.0
141
1.0
290
     1
  0
SCALE
  5
49F
102
{ACAD_REACTORS
330
49D
102
}
330
49D
100
AcDbScale
 70
     0
300
1/128" = 1'-0"
140
0.0078125
141
12.0
290
     0
  0
SCALE
  5
4A0
102
{ACAD_REACTORS
330
49D
102
}
330
49D
100
AcDbScale
 70
     0
300
1/64" = 1'-0"
140
0.015625
141
12.0
290
     0
  0
SCALE
  5
4A1
102
{ACAD_REACTORS
330
49D
102
}
330
49D
100
AcDbScale
 70
     0
300
1/32" = 1'-0"
140
0.03125
141
12.0
290
     0
  0
SCALE
  5
4A2
102
{ACAD_REACTORS
330
49D
102
}
330
49D
100
AcDbScale
 70
     0
300
1/16" = 1'-0"
140
0.0625
141
12.0
290
     0
  0
SCALE
  5
4A3
102
{ACAD_REACTORS
330
49D
102
}
330
49D
100
AcDbScale
 70
     0
300
3/32" = 1'-0"
140
0.09375
141
12.0
290
     0
  0
SCALE
  5
4A4
102
{ACAD_REACTORS
330
49D
102
}
330
49D
100
AcDbScale
 70
     0
300
1/8" = 1'-0"
140
0.125
141
12.0
290
     0
  0
SCALE
  5
4A5
102
{ACAD_REACTORS
330
49D
102
}
330
49D
100
AcDbScale
 70
     0
300
3/16" = 1'-0"
140
0.1875
141
12.0
290
     0
  0
SCALE
  5
4A6
102
{ACAD_REACTORS
330
49D
102
}
330
49D
100
AcDbScale
 70
     0
300
1/4" = 1'-0"
140
0.25
141
12.0
290
     0
  0
SCALE
  5
4A7
102
{ACAD_REACTORS
330
49D
102
}
330
49D
100
AcDbScale
 70
     0
300
3/8" = 1'-0"
140
0.375
141
12.0
290
     0
  0
SCALE
  5
4A8
102
{ACAD_REACTORS
330
49D
102
}
330
49D
100
AcDbScale
 70
     0
300
1/2" = 1'-0"
140
0.5
141
12.0
290
     0
  0
SCALE
  5
4A9
102
{ACAD_REACTORS
330
49D
102
}
330
49D
100
AcDbScale
 70
     0
300
3/4" = 1'-0"
140
0.75
141
12.0
290
     0
  0
SCALE
  5
4AA
102
{ACAD_REACTORS
330
49D
102
}
330
49D
100
AcDbScale
 70
     0
300
1" = 1'-0"
140
1.0
141
12.0
290
     0
  0
SCALE
  5
4AB
102
{ACAD_REACTORS
330
49D
102
}
330
49D
100
AcDbScale
 70
     0
300
1-1/2" = 1'-0"
140
1.5
141
12.0
290
     0
  0
SCALE
  5
4AC
102
{ACAD_REACTORS
330
49D
102
}
330
49D
100
AcDbScale
 70
     0
300
3" = 1'-0"
140
3.0
141
12.0
290
     0
  0
SCALE
  5
4AD
102
{ACAD_REACTORS
330
49D
102
}
330
49D
100
AcDbScale
 70
     0
300
6" = 1'-0"
140
6.0
141
12.0
290
     0
  0
SCALE
  5
4AE
102
{ACAD_REACTORS
330
49D
102
}
330
49D
100
AcDbScale
 70
     0
300
1'-0" = 1'-0"
140
12.0
141
12.0
290
     0
  0
ACDBSECTIONVIEWSTYLE
  5
4C4
102
{ACAD_REACTORS
330
4C2
102
}
330
4C2
100
AcDbModelDocViewStyle
 70
     0
  3
Imperial24
290
     0
100
AcDbSectionViewStyle
 70
     0
 71
     0
 90
       78
 71
     1
340
4B0
 40
0.24
340
0
340
0
 40
0.24
300
I, O, Q, S, X, Z
 40
0.48
 90
        3
 40
0.18
 90
        1
 71
     2
340
4C3
 90
       25
340
4B7
 90
       50
 40
0.24
 40
0.0
 40
0.24
 71
     3
340
4B0
 40
0.24
 90
        1
 40
0.75
 90
        1
300
%<\AcVar ViewType \f "%tc1">% %<\AcVar ViewSectionStartId>%-%<\AcVar ViewSectionEndId>%\PSCALE %<\AcVar ViewScale \f "%sn">%
 71
     4
300
ANSI31
 40
1.0
 90
        0
290
     0
290
     0
 90
        6
 40
0.0
 40
1.570796326794896
 40
0.2617993877991494
 40
1.308996938995747
 40
-0.2617993877991494
 40
1.832595714594046
  0
TABLESTYLE
  5
4BF
102
{ACAD_XDICTIONARY
360
558
102
}
102
{ACAD_REACTORS
330
4BE
102
}
330
4BE
100
AcDbTableStyle
  3
Standard
 70
     0
 71
     0
 40
0.06
 41
0.06
280
     0
281
     0
  7
STANDARD
140
0.18
170
     2
 62
     0
 63
     7
283
     0
274
    -2
284
     1
 64
     0
275
    -2
285
     1
 65
     0
276
    -2
286
     1
 66
     0
277
    -2
287
     1
 67
     0
278
    -2
288
     1
 68
     0
279
    -2
289
     1
 69
     0
  7
STANDARD
140
0.25
170
     5
 62
     0
 63
     7
283
     0
274
    -2
284
     1
 64
     0
275
    -2
285
     1
 65
     0
276
    -2
286
     1
 66
     0
277
    -2
287
     1
 67
     0
278
    -2
288
     1
 68
     0
279
    -2
289
     1
 69
     0
  7
STANDARD
140
0.18
170
     5
 62
     0
 63
     7
283
     0
274
    -2
284
     1
 64
     0
275
    -2
285
     1
 65
     0
276
    -2
286
     1
 66
     0
277
    -2
287
     1
 67
     0
278
    -2
288
     1
 68
     0
279
    -2
289
     1
 69
     0
  0
VISUALSTYLE
  5
48A
102
{ACAD_XDICTIONARY
360
569
102
}
102
{ACAD_REACTORS
330
484
102
}
330
484
100
AcDbVisualStyle
  2
2dWireframe
 70
     4
 71
     0
 72
     2
 73
     0
 90
        0
 40
-0.6
 41
-30.0
 62
     5
 63
     7
 74
     1
 91
        4
 64
     7
 65
   257
 75
     1
175
     1
 42
1.0
 92
        0
 66
   257
 43
1.0
 76
     1
 77
     6
 78
     2
 67
     7
 79
     5
170
     0
171
     0
290
     0
174
     0
 93
        1
 44
0.0
173
     0
291
     0
 45
0.0
1001
ACAD
1000
AcDbSavedByObjectVersion
1070
     0
  0
VISUALSTYLE
  5
489
102
{ACAD_XDICTIONARY
360
567
102
}
102
{ACAD_REACTORS
330
484
102
}
330
484
100
AcDbVisualStyle
  2
Basic
 70
     7
 71
     1
 72
     0
 73
     1
 90
        0
 40
-0.6
 41
-30.0
 62
     5
 63
     7
 74
     0
 91
        4
 64
     7
 65
   257
 75
     1
175
     1
 42
1.0
 92
        8
 66
     7
 43
1.0
 76
     1
 77
     6
 78
     2
 67
     7
 79
     5
170
     0
171
     0
290
     0
174
     0
 93
        1
 44
0.0
173
     0
291
     1
 45
0.0
1001
ACAD
1000
AcDbSavedByObjectVersion
1070
     0
  0
VISUALSTYLE
  5
490
102
{ACAD_XDICTIONARY
360
575
102
}
102
{ACAD_REACTORS
330
484
102
}
330
484
100
AcDbVisualStyle
  2
Brighten
 70
    12
 71
     2
 72
     2
 73
     0
 90
        0
 40
-0.6
 41
-30.0
 62
     5
 63
     7
 74
     1
 91
        4
 64
     7
 65
   257
 75
     1
175
     1
 42
1.0
 92
        8
 66
     7
 43
1.0
 76
     1
 77
     6
 78
     2
 67
     7
 79
     5
170
     0
171
     0
290
     0
174
     0
 93
        1
 44
50.0
173
     0
291
     1
 45
0.0
1001
ACAD
1000
AcDbSavedByObjectVersion
1070
     0
  0
VISUALSTYLE
  5
494
102
{ACAD_XDICTIONARY
360
57D
102
}
102
{ACAD_REACTORS
330
484
102
}
330
484
100
AcDbVisualStyle
  2
ColorChange
 70
    16
 71
     2
 72
     2
 73
     3
 90
        0
 40
-0.6
 41
-30.0
 62
     5
 63
     8
 74
     1
 91
        4
 64
     7
 65
   257
 75
     1
175
     1
 42
1.0
 92
        8
 66
     8
 43
1.0
 76
     1
 77
     6
 78
     2
 67
     7
 79
     5
170
     0
171
     0
290
     0
174
     0
 93
        1
 44
0.0
173
     0
291
     1
 45
0.0
1001
ACAD
1000
AcDbSavedByObjectVersion
1070
     0
  0
VISUALSTYLE
  5
48D
102
{ACAD_XDICTIONARY
360
56F
102
}
102
{ACAD_REACTORS
330
484
102
}
330
484
100
AcDbVisualStyle
  2
Conceptual
 70
     9
 71
     3
 72
     2
 73
     0
 90
        0
 40
-0.6
 41
-30.0
 62
     5
 63
     7
 74
     2
 91
        2
 64
     7
 65
   257
 75
     1
175
     1
 42
179.0
 92
        8
 66
     7
 43
1.0
 76
     1
 77
     6
 78
     2
 67
     7
 79
     3
170
     0
171
     0
290
     0
174
     0
 93
        1
 44
0.0
173
     0
291
     0
 45
0.0
1001
ACAD
1000
AcDbSavedByObjectVersion
1070
     0
  0
VISUALSTYLE
  5
48F
102
{ACAD_XDICTIONARY
360
573
102
}
102
{ACAD_REACTORS
330
484
102
}
330
484
100
AcDbVisualStyle
  2
Dim
 70
    11
 71
     2
 72
     2
 73
     0
 90
        0
 40
-0.6
 41
-30.0
 62
     5
 63
     7
 74
     1
 91
        4
 64
     7
 65
   257
 75
     1
175
     1
 42
1.0
 92
        8
 66
     7
 43
1.0
 76
     1
 77
     6
 78
     2
 67
     7
 79
     5
170
     0
171
     0
290
     0
174
     0
 93
        1
 44
-50.0
173
     0
291
     1
 45
0.0
1001
ACAD
1000
AcDbSavedByObjectVersion
1070
     0
  0
VISUALSTYLE
  5
49C
102
{ACAD_XDICTIONARY
360
58D
102
}
102
{ACAD_REACTORS
330
484
102
}
330
484
100
AcDbVisualStyle
  2
EdgeColorOff
 70
    22
 71
     2
 72
     2
 73
     0
 90
        0
 40
-0.6
 41
-30.0
 62
     5
 63
     7
 74
     1
 91
        4
 64
     7
 65
   257
 75
     1
175
     1
 42
1.0
 92
        8
 66
     7
 43
1.0
 76
     1
 77
     6
 78
     2
 67
     7
 79
     5
170
     0
171
     0
290
     0
174
     0
 93
        1
 44
0.0
173
     0
291
     1
 45
0.0
1001
ACAD
1000
AcDbSavedByObjectVersion
1070
     0
  0
VISUALSTYLE
  5
493
102
{ACAD_XDICTIONARY
360
57B
102
}
102
{ACAD_REACTORS
330
484
102
}
330
484
100
AcDbVisualStyle
  2
Facepattern
 70
    15
 71
     2
 72
     2
 73
     0
 90
        0
 40
-0.6
 41
-30.0
 62
     5
 63
     7
 74
     1
 91
        4
 64
     7
 65
   257
 75
     1
175
     1
 42
1.0
 92
        8
 66
     7
 43
1.0
 76
     1
 77
     6
 78
     2
 67
     7
 79
     5
170
     0
171
     0
290
     0
174
     0
 93
        1
 44
0.0
173
     0
291
     1
 45
0.0
1001
ACAD
1000
AcDbSavedByObjectVersion
1070
     0
  0
VISUALSTYLE
  5
485
102
{ACAD_XDICTIONARY
360
55F
102
}
102
{ACAD_REACTORS
330
484
102
}
330
484
100
AcDbVisualStyle
  2
Flat
 70
     0
 71
     2
 72
     1
 73
     1
 90
        2
 40
-0.6
 41
30.0
 62
     5
 63
     7
 74
     0
 91
        0
 64
     7
 65
   257
 75
     1
175
     1
 42
1.0
 92
        8
 66
     7
 43
1.0
 76
     1
 77
     6
 78
     2
 67
     7
 79
     5
170
     0
171
     0
290
     0
174
     0
 93
       13
 44
0.0
173
     0
291
     1
 45
0.0
1001
ACAD
1000
AcDbSavedByObjectVersion
1070
     0
  0
VISUALSTYLE
  5
486
102
{ACAD_XDICTIONARY
360
561
102
}
102
{ACAD_REACTORS
330
484
102
}
330
484
100
AcDbVisualStyle
  2
FlatWithEdges
 70
     1
 71
     2
 72
     1
 73
     1
 90
        2
 40
-0.6
 41
30.0
 62
     5
 63
     7
 74
     1
 91
        0
 64
     7
 65
   257
 75
     1
175
     1
 42
1.0
 92
        0
 66
   257
 43
1.0
 76
     1
 77
     6
 78
     2
 67
     7
 79
     5
170
     0
171
     0
290
     0
174
     0
 93
       13
 44
0.0
173
     0
291
     1
 45
0.0
1001
ACAD
1000
AcDbSavedByObjectVersion
1070
     0
  0
VISUALSTYLE
  5
487
102
{ACAD_XDICTIONARY
360
563
102
}
102
{ACAD_REACTORS
330
484
102
}
330
484
100
AcDbVisualStyle
  2
Gouraud
 70
     2
 71
     2
 72
     2
 73
     1
 90
        2
 40
-0.6
 41
30.0
 62
     5
 63
     7
 74
     0
 91
        0
 64
     7
 65
   257
 75
     1
175
     1
 42
1.0
 92
        0
 66
     7
 43
1.0
 76
     1
 77
     6
 78
     2
 67
     7
 79
     5
170
     0
171
     0
290
     0
174
     0
 93
       13
 44
0.0
173
     0
291
     1
 45
0.0
1001
ACAD
1000
AcDbSavedByObjectVersion
1070
     0
  0
VISUALSTYLE
  5
488
102
{ACAD_XDICTIONARY
360
565
102
}
102
{ACAD_REACTORS
330
484
102
}
330
484
100
AcDbVisualStyle
  2
GouraudWithEdges
 70
     3
 71
     2
 72
     2
 73
     1
 90
        2
 40
-0.6
 41
30.0
 62
     5
 63
     7
 74
     1
 91
        0
 64
     7
 65
   257
 75
     1
175
     1
 42
1.0
 92
        0
 66
   257
 43
1.0
 76
     1
 77
     6
 78
     2
 67
     7
 79
     5
170
     0
171
     0
290
     0
174
     0
 93
       13
 44
0.0
173
     0
291
     1
 45
0.0
1001
ACAD
1000
AcDbSavedByObjectVersion
1070
     0
  0
VISUALSTYLE
  5
48C
102
{ACAD_XDICTIONARY
360
56D
102
}
102
{ACAD_REACTORS
330
484
102
}
330
484
100
AcDbVisualStyle
  2
Hidden
 70
     6
 71
     1
 72
     2
 73
     2
 90
        0
 40
-0.6
 41
-30.0
 62
     5
 63
     7
 74
     2
 91
        2
 64
     7
 65
   257
 75
     2
175
     1
 42
40.0
 92
        0
 66
   257
 43
1.0
 76
     1
 77
     6
 78
     2
 67
     7
 79
     3
170
     0
171
     0
290
     0
174
     0
 93
        1
 44
0.0
173
     0
291
     0
 45
0.0
1001
ACAD
1000
AcDbSavedByObjectVersion
1070
     0
  0
VISUALSTYLE
  5
49A
102
{ACAD_XDICTIONARY
360
589
102
}
102
{ACAD_REACTORS
330
484
102
}
330
484
100
AcDbVisualStyle
  2
JitterOff
 70
    20
 71
     2
 72
     2
 73
     0
 90
        0
 40
-0.6
 41
-30.0
 62
     5
 63
     7
 74
     1
 91
        4
 64
     7
 65
   257
 75
     1
175
     1
 42
1.0
 92
       10
 66
     7
 43
1.0
 76
     1
 77
     6
 78
     2
 67
     7
 79
     5
170
     0
171
     0
290
     0
174
     0
 93
        1
 44
0.0
173
     0
291
     1
 45
0.0
1001
ACAD
1000
AcDbSavedByObjectVersion
1070
     0
  0
VISUALSTYLE
  5
492
102
{ACAD_XDICTIONARY
360
579
102
}
102
{ACAD_REACTORS
330
484
102
}
330
484
100
AcDbVisualStyle
  2
Linepattern
 70
    14
 71
     2
 72
     2
 73
     0
 90
        0
 40
-0.6
 41
-30.0
 62
     5
 63
     7
 74
     1
 91
        4
 64
     7
 65
   257
 75
     7
175
     7
 42
1.0
 92
        8
 66
     7
 43
1.0
 76
     1
 77
     6
 78
     2
 67
     7
 79
     5
170
     0
171
     0
290
     0
174
     0
 93
        1
 44
0.0
173
     0
291
     1
 45
0.0
1001
ACAD
1000
AcDbSavedByObjectVersion
1070
     0
  0
VISUALSTYLE
  5
49B
102
{ACAD_XDICTIONARY
360
58B
102
}
102
{ACAD_REACTORS
330
484
102
}
330
484
100
AcDbVisualStyle
  2
OverhangOff
 70
    21
 71
     2
 72
     2
 73
     0
 90
        0
 40
-0.6
 41
-30.0
 62
     5
 63
     7
 74
     1
 91
        4
 64
     7
 65
   257
 75
     1
175
     1
 42
1.0
 92
        9
 66
     7
 43
1.0
 76
     1
 77
     6
 78
     2
 67
     7
 79
     5
170
     0
171
     0
290
     0
174
     0
 93
        1
 44
0.0
173
     0
291
     1
 45
0.0
1001
ACAD
1000
AcDbSavedByObjectVersion
1070
     0
  0
VISUALSTYLE
  5
48E
102
{ACAD_XDICTIONARY
360
571
102
}
102
{ACAD_REACTORS
330
484
102
}
330
484
100
AcDbVisualStyle
  2
Realistic
 70
     8
 71
     2
 72
     3
 73
     0
 90
        2
 40
-0.6
 41
30.0
 62
     5
 63
     7
 74
     0
 91
        0
 64
     7
 65
   257
 75
     1
175
     1
 42
1.0
 92
        8
 66
   257
 43
1.0
 76
     1
 77
     6
 78
     2
 67
     7
 79
     3
170
     0
171
     0
290
     0
174
     0
 93
       13
 44
0.0
173
     0
291
     0
 45
0.0
1001
ACAD
1000
AcDbSavedByObjectVersion
1070
     0
  0
VISUALSTYLE
  5
499
102
{ACAD_XDICTIONARY
360
587
102
}
102
{ACAD_REACTORS
330
484
102
}
330
484
100
AcDbVisualStyle
  2
Shaded
 70
    27
 71
     2
 72
     2
 73
     1
 90
        2
 40
-0.6
 41
30.0
 62
     5
 63
     7
 74
     0
 91
        4
 64
     7
 65
   257
 75
     1
175
     1
 42
1.0
 92
        8
 66
   257
 43
1.0
 76
     1
 77
     6
 78
     2
 67
     8
 79
     3
170
     0
171
     0
290
     0
174
     0
 93
        5
 44
0.0
173
     0
291
     0
 45
0.0
1001
ACAD
1000
AcDbSavedByObjectVersion
1070
     0
  0
VISUALSTYLE
  5
498
102
{ACAD_XDICTIONARY
360
585
102
}
102
{ACAD_REACTORS
330
484
102
}
330
484
100
AcDbVisualStyle
  2
Shaded with edges
 70
    26
 71
     2
 72
     2
 73
     1
 90
        2
 40
-0.6
 41
30.0
 62
     5
 63
     7
 74
     1
 91
       10
 64
     7
 65
   257
 75
     2
175
     1
 42
1.0
 92
        8
 66
   257
 43
1.0
 76
     1
 77
     6
 78
     2
 67
     7
 79
     3
170
     0
171
     0
290
     0
174
     0
 93
        5
 44
0.0
173
     0
291
     0
 45
0.0
1001
ACAD
1000
AcDbSavedByObjectVersion
1070
     0
  0
VISUALSTYLE
  5
495
102
{ACAD_XDICTIONARY
360
57F
102
}
102
{ACAD_REACTORS
330
484
102
}
330
484
100
AcDbVisualStyle
  2
Shades of Gray
 70
    23
 71
     2
 72
     2
 73
     3
 90
        0
 40
-0.6
 41
-30.0
 62
     5
 63
     7
 74
     2
 91
        2
 64
     7
 65
     7
 75
     1
175
     1
 42
40.0
 92
        8
 66
     7
 43
1.0
 76
     1
 77
     6
 78
     2
 67
     7
 79
     3
170
     0
171
     0
290
     0
174
     0
 93
        1
 44
0.0
173
     0
291
     0
 45
0.0
1001
ACAD
1000
AcDbSavedByObjectVersion
1070
     0
  0
VISUALSTYLE
  5
496
102
{ACAD_XDICTIONARY
360
581
102
}
102
{ACAD_REACTORS
330
484
102
}
330
484
100
AcDbVisualStyle
  2
Sketchy
 70
    24
 71
     1
 72
     2
 73
     2
 90
        0
 40
-0.6
 41
-30.0
 62
     5
 63
     7
 74
     2
 91
        2
 64
     7
 65
     7
 75
     1
175
     1
 42
40.0
 92
       11
 66
     7
 43
1.0
 76
     1
 77
     6
 78
     2
 67
     7
 79
     6
170
     0
171
     0
290
     0
174
     0
 93
        1
 44
0.0
173
     0
291
     0
 45
0.0
1001
ACAD
1000
AcDbSavedByObjectVersion
1070
     0
  0
VISUALSTYLE
  5
491
102
{ACAD_XDICTIONARY
360
577
102
}
102
{ACAD_REACTORS
330
484
102
}
330
484
100
AcDbVisualStyle
  2
Thicken
 70
    13
 71
     2
 72
     2
 73
     0
 90
        0
 40
-0.6
 41
-30.0
 62
     5
 63
     7
 74
     1
 91
        4
 64
     7
 65
   257
 75
     1
175
     1
 42
1.0
 92
       12
 66
     7
 43
1.0
 76
     1
 77
     6
 78
     2
 67
     7
 79
     5
170
     0
171
     0
290
     0
174
     0
 93
        1
 44
0.0
173
     0
291
     1
 45
0.0
1001
ACAD
1000
AcDbSavedByObjectVersion
1070
     0
  0
VISUALSTYLE
  5
48B
102
{ACAD_XDICTIONARY
360
56B
102
}
102
{ACAD_REACTORS
330
484
102
}
330
484
100
AcDbVisualStyle
  2
Wireframe
 70
     5
 71
     0
 72
     2
 73
     0
 90
        0
 40
-0.6
 41
-30.0
 62
     5
 63
     7
 74
     1
 91
        4
 64
     7
 65
   257
 75
     1
175
     1
 42
1.0
 92
        0
 66
   257
 43
1.0
 76
     1
 77
     6
 78
     2
 67
     7
 79
     3
170
     0
171
     0
290
     0
174
     0
 93
        1
 44
0.0
173
     0
291
     0
 45
0.0
1001
ACAD
1000
AcDbSavedByObjectVersion
1070
     0
  0
VISUALSTYLE
  5
497
102
{ACAD_XDICTIONARY
360
583
102
}
102
{ACAD_REACTORS
330
484
102
}
330
484
100
AcDbVisualStyle
  2
X-Ray
 70
    25
 71
     2
 72
     2
 73
     1
 90
        1
 40
0.5
 41
-30.0
 62
     5
 63
     7
 74
     1
 91
        0
 64
     7
 65
   257
 75
     1
175
     1
 42
1.0
 92
        8
 66
     7
 43
1.0
 76
     1
 77
     6
 78
     2
 67
     7
 79
     3
170
     0
171
     0
290
     0
174
     0
 93
       13
 44
0.0
173
     0
291
     0
 45
0.0
1001
ACAD
1000
AcDbSavedByObjectVersion
1070
     0
  0
DICTIONARYVAR
  5
552
102
{ACAD_REACTORS
330
54D
102
}
330
54D
100
DictionaryVariables
280
     0
  1
1:1
  0
DICTIONARYVAR
  5
54F
102
{ACAD_REACTORS
330
54D
102
}
330
54D
100
DictionaryVariables
280
     0
  1
STANDARD
  0
DICTIONARYVAR
  5
54E
102
{ACAD_REACTORS
330
54D
102
}
330
54D
100
DictionaryVariables
280
     0
  1
STANDARD
  0
DICTIONARYVAR
  5
550
102
{ACAD_REACTORS
330
54D
102
}
330
54D
100
DictionaryVariables
280
     0
  1
Imperial24
  0
DICTIONARYVAR
  5
551
102
{ACAD_REACTORS
330
54D
102
}
330
54D
100
DictionaryVariables
280
     0
  1
Imperial24
  0
DICTIONARYVAR
  5
555
102
{ACAD_REACTORS
330
54D
102
}
330
54D
100
DictionaryVariables
280
     0
  1
1
  0
DICTIONARYVAR
  5
554
102
{ACAD_REACTORS
330
54D
102
}
330
54D
100
DictionaryVariables
280
     0
  1
0
  0
DICTIONARYVAR
  5
553
102
{ACAD_REACTORS
330
54D
102
}
330
54D
100
DictionaryVariables
280
     0
  1
127
  0
DICTIONARYVAR
  5
556
102
{ACAD_REACTORS
330
54D
102
}
330
54D
100
DictionaryVariables
280
     0
  1
2
  0
DICTIONARY
  5
591
330
4CA
100
AcDbDictionary
280
     1
281
     1
  3
ACAD_XREC_ROUNDTRIP
360
592
  0
DICTIONARY
  5
593
330
4CE
100
AcDbDictionary
280
     1
281
     1
  3
ACAD_XREC_ROUNDTRIP
360
594
  0
DICTIONARY
  5
475
330
474
100
AcDbDictionary
280
     1
281
     1
  3
ACAD_XREC_ROUNDTRIP
360
55D
  3
BUMPTILE
360
477
  3
DIFFUSETILE
360
476
  3
OPACITYTILE
360
47A
  3
REFLECTIONTILE
360
479
  3
REFRACTIONTILE
360
47B
  3
SPECULARTILE
360
478
  0
DICTIONARY
  5
46D
330
46C
100
AcDbDictionary
280
     1
281
     1
  3
ACAD_XREC_ROUNDTRIP
360
55C
  3
BUMPTILE
360
46F
  3
DIFFUSETILE
360
46E
  3
OPACITYTILE
360
472
  3
REFLECTIONTILE
360
471
  3
REFRACTIONTILE
360
473
  3
SPECULARTILE
360
470
  0
DICTIONARY
  5
47D
330
47C
100
AcDbDictionary
280
     1
281
     1
  3
ACAD_XREC_ROUNDTRIP
360
55E
  3
BUMPTILE
360
47F
  3
DIFFUSETILE
360
47E
  3
OPACITYTILE
360
482
  3
REFLECTIONTILE
360
481
  3
REFRACTIONTILE
360
483
  3
SPECULARTILE
360
480
  0
DICTIONARY
  5
558
330
4BF
100
AcDbDictionary
280
     1
281
     1
  3
ACAD_ROUNDTRIP_2008_TABLESTYLE_CELLSTYLEMAP
360
559
  3
ACAD_XREC_ROUNDTRIP
360
58F
  0
DICTIONARY
  5
569
330
48A
100
AcDbDictionary
280
     1
281
     1
  3
ACAD_XREC_ROUNDTRIP
360
56A
  0
DICTIONARY
  5
567
330
489
100
AcDbDictionary
280
     1
281
     1
  3
ACAD_XREC_ROUNDTRIP
360
568
  0
DICTIONARY
  5
575
330
490
100
AcDbDictionary
280
     1
281
     1
  3
ACAD_XREC_ROUNDTRIP
360
576
  0
DICTIONARY
  5
57D
330
494
100
AcDbDictionary
280
     1
281
     1
  3
ACAD_XREC_ROUNDTRIP
360
57E
  0
DICTIONARY
  5
56F
330
48D
100
AcDbDictionary
280
     1
281
     1
  3
ACAD_XREC_ROUNDTRIP
360
570
  0
DICTIONARY
  5
573
330
48F
100
AcDbDictionary
280
     1
281
     1
  3
ACAD_XREC_ROUNDTRIP
360
574
  0
DICTIONARY
  5
58D
330
49C
100
AcDbDictionary
280
     1
281
     1
  3
ACAD_XREC_ROUNDTRIP
360
58E
  0
DICTIONARY
  5
57B
330
493
100
AcDbDictionary
280
     1
281
     1
  3
ACAD_XREC_ROUNDTRIP
360
57C
  0
DICTIONARY
  5
55F
330
485
100
AcDbDictionary
280
     1
281
     1
  3
ACAD_XREC_ROUNDTRIP
360
560
  0
DICTIONARY
  5
561
330
486
100
AcDbDictionary
280
     1
281
     1
  3
ACAD_XREC_ROUNDTRIP
360
562
  0
DICTIONARY
  5
563
330
487
100
AcDbDictionary
280
     1
281
     1
  3
ACAD_XREC_ROUNDTRIP
360
564
  0
DICTIONARY
  5
565
330
488
100
AcDbDictionary
280
     1
281
     1
  3
ACAD_XREC_ROUNDTRIP
360
566
  0
DICTIONARY
  5
56D
330
48C
100
AcDbDictionary
280
     1
281
     1
  3
ACAD_XREC_ROUNDTRIP
360
56E
  0
DICTIONARY
  5
589
330
49A
100
AcDbDictionary
280
     1
281
     1
  3
ACAD_XREC_ROUNDTRIP
360
58A
  0
DICTIONARY
  5
579
330
492
100
AcDbDictionary
280
     1
281
     1
  3
ACAD_XREC_ROUNDTRIP
360
57A
  0
DICTIONARY
  5
58B
330
49B
100
AcDbDictionary
280
     1
281
     1
  3
ACAD_XREC_ROUNDTRIP
360
58C
  0
DICTIONARY
  5
571
330
48E
100
AcDbDictionary
280
     1
281
     1
  3
ACAD_XREC_ROUNDTRIP
360
572
  0
DICTIONARY
  5
587
330
499
100
AcDbDictionary
280
     1
281
     1
  3
ACAD_XREC_ROUNDTRIP
360
588
  0
DICTIONARY
  5
585
330
498
100
AcDbDictionary
280
     1
281
     1
  3
ACAD_XREC_ROUNDTRIP
360
586
  0
DICTIONARY
  5
57F
330
495
100
AcDbDictionary
280
     1
281
     1
  3
ACAD_XREC_ROUNDTRIP
360
580
  0
DICTIONARY
  5
581
330
496
100
AcDbDictionary
280
     1
281
     1
  3
ACAD_XREC_ROUNDTRIP
360
582
  0
DICTIONARY
  5
577
330
491
100
AcDbDictionary
280
     1
281
     1
  3
ACAD_XREC_ROUNDTRIP
360
578
  0
DICTIONARY
  5
56B
330
48B
100
AcDbDictionary
280
     1
281
     1
  3
ACAD_XREC_ROUNDTRIP
360
56C
  0
DICTIONARY
  5
583
330
497
100
AcDbDictionary
280
     1
281
     1
  3
ACAD_XREC_ROUNDTRIP
360
584
  0
XRECORD
  5
592
102
{ACAD_REACTORS
330
591
102
}
330
591
100
AcDbXrecord
280
     1
102
SHADEPLOT
 70
     0
102
SHADEPLOTRESLEVEL
 70
     2
102
SHADEPLOTCUSTOMDPI
 70
   300
  0
XRECORD
  5
594
102
{ACAD_REACTORS
330
593
102
}
330
593
100
AcDbXrecord
280
     1
102
SHADEPLOT
 70
     0
102
SHADEPLOTRESLEVEL
 70
     2
102
SHADEPLOTCUSTOMDPI
 70
   300
  0
XRECORD
  5
55D
102
{ACAD_REACTORS
330
475
102
}
330
475
100
AcDbXrecord
280
     1
102
MATERIAL
148
0.0
149
0.0
149
0.0
 93
        0
 94
      127
282
     0
 72
     0
 77
     0
171
     0
175
     0
179
     0
273
     0
  0
XRECORD
  5
477
102
{ACAD_REACTORS
330
475
102
}
330
475
100
AcDbXrecord
280
     1
270
     1
271
     1
  0
XRECORD
  5
476
102
{ACAD_REACTORS
330
475
102
}
330
475
100
AcDbXrecord
280
     1
270
     1
271
     1
  0
XRECORD
  5
47A
102
{ACAD_REACTORS
330
475
102
}
330
475
100
AcDbXrecord
280
     1
270
     1
271
     1
  0
XRECORD
  5
479
102
{ACAD_REACTORS
330
475
102
}
330
475
100
AcDbXrecord
280
     1
270
     1
271
     1
  0
XRECORD
  5
47B
102
{ACAD_REACTORS
330
475
102
}
330
475
100
AcDbXrecord
280
     1
270
     1
271
     1
  0
XRECORD
  5
478
102
{ACAD_REACTORS
330
475
102
}
330
475
100
AcDbXrecord
280
     1
270
     1
271
     1
  0
XRECORD
  5
55C
102
{ACAD_REACTORS
330
46D
102
}
330
46D
100
AcDbXrecord
280
     1
102
MATERIAL
148
0.0
149
0.0
149
0.0
 93
        0
 94
      127
282
     0
 72
     0
 77
     0
171
     0
175
     0
179
     0
273
     0
  0
XRECORD
  5
46F
102
{ACAD_REACTORS
330
46D
102
}
330
46D
100
AcDbXrecord
280
     1
270
     1
271
     1
  0
XRECORD
  5
46E
102
{ACAD_REACTORS
330
46D
102
}
330
46D
100
AcDbXrecord
280
     1
270
     1
271
     1
  0
XRECORD
  5
472
102
{ACAD_REACTORS
330
46D
102
}
330
46D
100
AcDbXrecord
280
     1
270
     1
271
     1
  0
XRECORD
  5
471
102
{ACAD_REACTORS
330
46D
102
}
330
46D
100
AcDbXrecord
280
     1
270
     1
271
     1
  0
XRECORD
  5
473
102
{ACAD_REACTORS
330
46D
102
}
330
46D
100
AcDbXrecord
280
     1
270
     1
271
     1
  0
XRECORD
  5
470
102
{ACAD_REACTORS
330
46D
102
}
330
46D
100
AcDbXrecord
280
     1
270
     1
271
     1
  0
XRECORD
  5
55E
102
{ACAD_REACTORS
330
47D
102
}
330
47D
100
AcDbXrecord
280
     1
102
MATERIAL
148
0.0
149
0.0
149
0.0
 93
        0
 94
      127
282
     0
 72
     0
 77
     0
171
     0
175
     0
179
     0
273
     0
  0
XRECORD
  5
47F
102
{ACAD_REACTORS
330
47D
102
}
330
47D
100
AcDbXrecord
280
     1
270
     1
271
     1
  0
XRECORD
  5
47E
102
{ACAD_REACTORS
330
47D
102
}
330
47D
100
AcDbXrecord
280
     1
270
     1
271
     1
  0
XRECORD
  5
482
102
{ACAD_REACTORS
330
47D
102
}
330
47D
100
AcDbXrecord
280
     1
270
     1
271
     1
  0
XRECORD
  5
481
102
{ACAD_REACTORS
330
47D
102
}
330
47D
100
AcDbXrecord
280
     1
270
     1
271
     1
  0
XRECORD
  5
483
102
{ACAD_REACTORS
330
47D
102
}
330
47D
100
AcDbXrecord
280
     1
270
     1
271
     1
  0
XRECORD
  5
480
102
{ACAD_REACTORS
330
47D
102
}
330
47D
100
AcDbXrecord
280
     1
270
     1
271
     1
  0
CELLSTYLEMAP
  5
559
102
{ACAD_REACTORS
330
558
102
}
330
558
100
AcDbCellStyleMap
 90
        3
300
CELLSTYLE
  1
TABLEFORMAT_BEGIN
 90
        5
170
     1
 91
        0
 92
    32768
 62
   257
 93
        1
300
CONTENTFORMAT
  1
CONTENTFORMAT_BEGIN
 90
        0
 91
        0
 92
      512
 93
        0
300

 40
0.0
140
1.0
 94
        5
 62
     0
340
4B0
144
0.25
309
CONTENTFORMAT_END
171
     0
 94
        0
309
TABLEFORMAT_END
  1
CELLSTYLE_BEGIN
 90
        1
 91
        1
300
_TITLE
309
CELLSTYLE_END
300
CELLSTYLE
  1
TABLEFORMAT_BEGIN
 90
        5
170
     1
 91
        0
 92
        0
 62
   257
 93
        1
300
CONTENTFORMAT
  1
CONTENTFORMAT_BEGIN
 90
        0
 91
        0
 92
      512
 93
        0
300

 40
0.0
140
1.0
 94
        5
 62
     0
340
4B0
144
0.18
309
CONTENTFORMAT_END
171
     0
 94
        0
309
TABLEFORMAT_END
  1
CELLSTYLE_BEGIN
 90
        2
 91
        1
300
_HEADER
309
CELLSTYLE_END
300
CELLSTYLE
  1
TABLEFORMAT_BEGIN
 90
        5
170
     1
 91
        0
 92
        0
 62
   257
 93
        1
300
CONTENTFORMAT
  1
CONTENTFORMAT_BEGIN
 90
        0
 91
        0
 92
      512
 93
        0
300

 40
0.0
140
1.0
 94
        2
 62
     0
340
4B0
144
0.18
309
CONTENTFORMAT_END
171
     0
 94
        0
309
TABLEFORMAT_END
  1
CELLSTYLE_BEGIN
 90
        3
 91
        2
300
_DATA
309
CELLSTYLE_END
  0
XRECORD
  5
58F
102
{ACAD_REACTORS
330
558
102
}
330
558
100
AcDbXrecord
280
     1
102
ACAD_ROUNDTRIP_PRE2007_TABLESTYLE
 90
      512
 91
        0
  1

 92
      512
 93
        0
  2

 94
      512
 95
        0
  3

  0
XRECORD
  5
56A
102
{ACAD_REACTORS
330
569
102
}
330
569
100
AcDbXrecord
280
     1
102
RTVSPost2010Prop28
280
     1
102
RTVSPost2010PropOp28
 70
     1
102
RTVSPost2010Prop29
280
     1
102
RTVSPost2010PropOp29
 70
     1
102
RTVSPost2010Prop30
280
     0
102
RTVSPost2010PropOp30
 70
     1
102
RTVSPost2010Prop31
280
     0
102
RTVSPost2010PropOp31
 70
     1
102
RTVSPost2010Prop32
280
     0
102
RTVSPost2010PropOp32
 70
     1
102
RTVSPost2010Prop33
280
     0
102
RTVSPost2010PropOp33
 70
     1
102
RTVSPost2010Prop34
280
     0
102
RTVSPost2010PropOp34
 70
     1
102
RTVSPost2010Prop35
280
     0
102
RTVSPost2010PropOp35
 70
     1
102
RTVSPost2010Prop36
280
     0
102
RTVSPost2010PropOp36
 70
     1
102
RTVSPost2010Prop37
 90
       50
102
RTVSPost2010PropOp37
 70
     1
102
RTVSPost2010Prop38
140
0.0
102
RTVSPost2010PropOp38
 70
     1
102
RTVSPost2010Prop39
140
1.0
102
RTVSPost2010PropOp39
 70
     1
102
RTVSPost2010Prop40
 90
        0
102
RTVSPost2010PropOp40
 70
     1
102
RTVSPost2010Prop41ColorIndex
 90
       18
102
RTVSPost2010Prop41ColorRGB
 90
        0
102
RTVSPost2010PropOp41
 70
     1
102
RTVSPost2010Prop42
 90
       50
102
RTVSPost2010PropOp42
 70
     1
102
RTVSPost2010Prop43
 90
        3
102
RTVSPost2010PropOp43
 70
     1
102
RTVSPost2010Prop44ColorIndex
 90
        5
102
RTVSPost2010Prop44ColorRGB
 90
      255
102
RTVSPost2010PropOp44
 70
     1
102
RTVSPost2010Prop45
280
     0
102
RTVSPost2010PropOp45
 70
     1
102
RTVSPost2010Prop46
 90
       50
102
RTVSPost2010PropOp46
 70
     1
102
RTVSPost2010Prop47
 90
       50
102
RTVSPost2010PropOp47
 70
     1
102
RTVSPost2010Prop48
 90
       50
102
RTVSPost2010PropOp48
 70
     1
102
RTVSPost2010Prop49
280
     0
102
RTVSPost2010PropOp49
 70
     1
102
RTVSPost2010Prop50
 90
       50
102
RTVSPost2010PropOp50
 70
     1
102
RTVSPost2010Prop51ColorIndex
 90
      256
102
RTVSPost2010Prop51ColorRGB
 90
-16777216
102
RTVSPost2010PropOp51
 70
     0
102
RTVSPost2010Prop52
140
1.0
102
RTVSPost2010PropOp52
 70
     0
102
RTVSPost2010Prop53
 90
        2
102
RTVSPost2010PropOp53
 70
     1
102
RTVSPost2010Prop54
  1
strokes_ogs.tif
102
RTVSPost2010PropOp54
 70
     1
102
RTVSPost2010Prop55
280
     0
102
RTVSPost2010PropOp55
 70
     1
102
RTVSPost2010Prop56
140
1.0
102
RTVSPost2010PropOp56
 70
     1
102
RTVSPost2010Prop57
140
1.0
102
RTVSPost2010PropOp57
 70
     1
102
RTVSPropertyOp0
 70
     1
102
RTVSPropertyOp1
 70
     1
102
RTVSPropertyOp2
 70
     1
102
RTVSPropertyOp3
 70
     1
102
RTVSPropertyOp4
 70
     1
102
RTVSPropertyOp5
 70
     1
102
RTVSPropertyOp6
 70
     1
102
RTVSPropertyOp7
 70
     1
102
RTVSPropertyOp8
 70
     1
102
RTVSPropertyOp9
 70
     1
102
RTVSPropertyOp10
 70
     1
102
RTVSPropertyOp11
 70
     1
102
RTVSPropertyOp12
 70
     1
102
RTVSPropertyOp13
 70
     1
102
RTVSPropertyOp14
 70
     1
102
RTVSPropertyOp15
 70
     1
102
RTVSPropertyOp16
 70
     1
102
RTVSPropertyOp17
 70
     1
102
RTVSPropertyOp18
 70
     1
102
RTVSPropertyOp19
 70
     1
102
RTVSPropertyOp20
 70
     1
102
RTVSPropertyOp21
 70
     1
102
RTVSPropertyOp22
 70
     1
102
RTVSPropertyOp23
 70
     1
102
RTVSPropertyOp24
 70
     1
102
RTVSPropertyOp25
 70
     1
102
RTVSPropertyOp26
 70
     1
102
RTVSPropertyOp27
 70
     1
102
RTVSPropertyOp28
 70
     1
102
RTVSPropertyOp29
 70
     1
102
RTVSPropertyOp30
 70
     1
102
RTVSPropertyOp31
 70
     1
102
RTVSPropertyOp32
 70
     1
102
RTVSPropertyOp33
 70
     1
102
RTVSPropertyOp34
 70
     1
102
RTVSPropertyOp35
 70
     1
102
RTVSPropertyOp36
 70
     1
102
RTVSPropertyOp37
 70
     1
102
RTVSPropertyOp38
 70
     1
102
RTVSPropertyOp39
 70
     1
102
RTVSPropertyOp40
 70
     1
102
RTVSPropertyOp41
 70
     1
102
RTVSPropertyOp42
 70
     1
102
RTVSPropertyOp43
 70
     1
102
RTVSPropertyOp44
 70
     1
102
RTVSPropertyOp45
 70
     1
102
RTVSPropertyOp46
 70
     1
102
RTVSPropertyOp47
 70
     1
102
RTVSPropertyOp48
 70
     1
102
RTVSPropertyOp49
 70
     1
102
RTVSPropertyOp50
 70
     1
102
RTVSPropertyOp51
 70
     0
102
RTVSPropertyOp52
 70
     0
102
RTVSPropertyOp53
 70
     1
102
RTVSPropertyOp54
 70
     1
102
RTVSPropertyOp55
 70
     1
102
RTVSPropertyOp56
 70
     1
102
RTVSPropertyOp57
 70
     1
102
RTVSPropertyOp58
 70
     1
102
RTVSPropertyOp59
 70
     1
102
RTVSPropertyOp60
 70
     1
102
RTVSPropertyOp61
 70
     1
102
RTVSPropertyOp62
 70
     1
  0
XRECORD
  5
568
102
{ACAD_REACTORS
330
567
102
}
330
567
100
AcDbXrecord
280
     1
102
RTVSPost2010Prop28
280
     0
102
RTVSPost2010PropOp28
 70
     1
102
RTVSPost2010Prop29
280
     1
102
RTVSPost2010PropOp29
 70
     1
102
RTVSPost2010Prop30
280
     1
102
RTVSPost2010PropOp30
 70
     1
102
RTVSPost2010Prop31
280
     0
102
RTVSPost2010PropOp31
 70
     1
102
RTVSPost2010Prop32
280
     0
102
RTVSPost2010PropOp32
 70
     1
102
RTVSPost2010Prop33
280
     0
102
RTVSPost2010PropOp33
 70
     1
102
RTVSPost2010Prop34
280
     0
102
RTVSPost2010PropOp34
 70
     1
102
RTVSPost2010Prop35
280
     0
102
RTVSPost2010PropOp35
 70
     1
102
RTVSPost2010Prop36
280
     0
102
RTVSPost2010PropOp36
 70
     1
102
RTVSPost2010Prop37
 90
       50
102
RTVSPost2010PropOp37
 70
     1
102
RTVSPost2010Prop38
140
0.0
102
RTVSPost2010PropOp38
 70
     1
102
RTVSPost2010Prop39
140
1.0
102
RTVSPost2010PropOp39
 70
     1
102
RTVSPost2010Prop40
 90
        0
102
RTVSPost2010PropOp40
 70
     1
102
RTVSPost2010Prop41ColorIndex
 90
       18
102
RTVSPost2010Prop41ColorRGB
 90
        0
102
RTVSPost2010PropOp41
 70
     1
102
RTVSPost2010Prop42
 90
       50
102
RTVSPost2010PropOp42
 70
     1
102
RTVSPost2010Prop43
 90
        3
102
RTVSPost2010PropOp43
 70
     1
102
RTVSPost2010Prop44ColorIndex
 90
        5
102
RTVSPost2010Prop44ColorRGB
 90
      255
102
RTVSPost2010PropOp44
 70
     1
102
RTVSPost2010Prop45
280
     0
102
RTVSPost2010PropOp45
 70
     1
102
RTVSPost2010Prop46
 90
       50
102
RTVSPost2010PropOp46
 70
     1
102
RTVSPost2010Prop47
 90
       50
102
RTVSPost2010PropOp47
 70
     1
102
RTVSPost2010Prop48
 90
       50
102
RTVSPost2010PropOp48
 70
     1
102
RTVSPost2010Prop49
280
     0
102
RTVSPost2010PropOp49
 70
     1
102
RTVSPost2010Prop50
 90
       50
102
RTVSPost2010PropOp50
 70
     1
102
RTVSPost2010Prop51ColorIndex
 90
      256
102
RTVSPost2010Prop51ColorRGB
 90
-16777216
102
RTVSPost2010PropOp51
 70
     0
102
RTVSPost2010Prop52
140
1.0
102
RTVSPost2010PropOp52
 70
     0
102
RTVSPost2010Prop53
 90
        2
102
RTVSPost2010PropOp53
 70
     1
102
RTVSPost2010Prop54
  1
strokes_ogs.tif
102
RTVSPost2010PropOp54
 70
     1
102
RTVSPost2010Prop55
280
     0
102
RTVSPost2010PropOp55
 70
     1
102
RTVSPost2010Prop56
140
1.0
102
RTVSPost2010PropOp56
 70
     1
102
RTVSPost2010Prop57
140
1.0
102
RTVSPost2010PropOp57
 70
     1
102
RTVSPropertyOp0
 70
     1
102
RTVSPropertyOp1
 70
     1
102
RTVSPropertyOp2
 70
     1
102
RTVSPropertyOp3
 70
     1
102
RTVSPropertyOp4
 70
     1
102
RTVSPropertyOp5
 70
     1
102
RTVSPropertyOp6
 70
     1
102
RTVSPropertyOp7
 70
     1
102
RTVSPropertyOp8
 70
     1
102
RTVSPropertyOp9
 70
     1
102
RTVSPropertyOp10
 70
     1
102
RTVSPropertyOp11
 70
     1
102
RTVSPropertyOp12
 70
     1
102
RTVSPropertyOp13
 70
     1
102
RTVSPropertyOp14
 70
     1
102
RTVSPropertyOp15
 70
     1
102
RTVSPropertyOp16
 70
     1
102
RTVSPropertyOp17
 70
     1
102
RTVSPropertyOp18
 70
     1
102
RTVSPropertyOp19
 70
     1
102
RTVSPropertyOp20
 70
     1
102
RTVSPropertyOp21
 70
     1
102
RTVSPropertyOp22
 70
     1
102
RTVSPropertyOp23
 70
     1
102
RTVSPropertyOp24
 70
     1
102
RTVSPropertyOp25
 70
     1
102
RTVSPropertyOp26
 70
     1
102
RTVSPropertyOp27
 70
     1
102
RTVSPropertyOp28
 70
     1
102
RTVSPropertyOp29
 70
     1
102
RTVSPropertyOp30
 70
     1
102
RTVSPropertyOp31
 70
     1
102
RTVSPropertyOp32
 70
     1
102
RTVSPropertyOp33
 70
     1
102
RTVSPropertyOp34
 70
     1
102
RTVSPropertyOp35
 70
     1
102
RTVSPropertyOp36
 70
     1
102
RTVSPropertyOp37
 70
     1
102
RTVSPropertyOp38
 70
     1
102
RTVSPropertyOp39
 70
     1
102
RTVSPropertyOp40
 70
     1
102
RTVSPropertyOp41
 70
     1
102
RTVSPropertyOp42
 70
     1
102
RTVSPropertyOp43
 70
     1
102
RTVSPropertyOp44
 70
     1
102
RTVSPropertyOp45
 70
     1
102
RTVSPropertyOp46
 70
     1
102
RTVSPropertyOp47
 70
     1
102
RTVSPropertyOp48
 70
     1
102
RTVSPropertyOp49
 70
     1
102
RTVSPropertyOp50
 70
     1
102
RTVSPropertyOp51
 70
     0
102
RTVSPropertyOp52
 70
     0
102
RTVSPropertyOp53
 70
     1
102
RTVSPropertyOp54
 70
     1
102
RTVSPropertyOp55
 70
     1
102
RTVSPropertyOp56
 70
     1
102
RTVSPropertyOp57
 70
     1
102
RTVSPropertyOp58
 70
     1
102
RTVSPropertyOp59
 70
     1
102
RTVSPropertyOp60
 70
     1
102
RTVSPropertyOp61
 70
     1
102
RTVSPropertyOp62
 70
     1
  0
XRECORD
  5
576
102
{ACAD_REACTORS
330
575
102
}
330
575
100
AcDbXrecord
280
     1
102
RTVSPost2010Prop28
280
     0
102
RTVSPost2010PropOp28
 70
     1
102
RTVSPost2010Prop29
280
     1
102
RTVSPost2010PropOp29
 70
     1
102
RTVSPost2010Prop30
280
     1
102
RTVSPost2010PropOp30
 70
     1
102
RTVSPost2010Prop31
280
     0
102
RTVSPost2010PropOp31
 70
     1
102
RTVSPost2010Prop32
280
     0
102
RTVSPost2010PropOp32
 70
     1
102
RTVSPost2010Prop33
280
     0
102
RTVSPost2010PropOp33
 70
     1
102
RTVSPost2010Prop34
280
     0
102
RTVSPost2010PropOp34
 70
     1
102
RTVSPost2010Prop35
280
     0
102
RTVSPost2010PropOp35
 70
     1
102
RTVSPost2010Prop36
280
     0
102
RTVSPost2010PropOp36
 70
     1
102
RTVSPost2010Prop37
 90
       50
102
RTVSPost2010PropOp37
 70
     1
102
RTVSPost2010Prop38
140
0.0
102
RTVSPost2010PropOp38
 70
     1
102
RTVSPost2010Prop39
140
1.0
102
RTVSPost2010PropOp39
 70
     1
102
RTVSPost2010Prop40
 90
        0
102
RTVSPost2010PropOp40
 70
     1
102
RTVSPost2010Prop41ColorIndex
 90
       18
102
RTVSPost2010Prop41ColorRGB
 90
        0
102
RTVSPost2010PropOp41
 70
     1
102
RTVSPost2010Prop42
 90
       50
102
RTVSPost2010PropOp42
 70
     1
102
RTVSPost2010Prop43
 90
        3
102
RTVSPost2010PropOp43
 70
     1
102
RTVSPost2010Prop44ColorIndex
 90
        5
102
RTVSPost2010Prop44ColorRGB
 90
      255
102
RTVSPost2010PropOp44
 70
     1
102
RTVSPost2010Prop45
280
     0
102
RTVSPost2010PropOp45
 70
     1
102
RTVSPost2010Prop46
 90
       50
102
RTVSPost2010PropOp46
 70
     1
102
RTVSPost2010Prop47
 90
       50
102
RTVSPost2010PropOp47
 70
     1
102
RTVSPost2010Prop48
 90
       50
102
RTVSPost2010PropOp48
 70
     1
102
RTVSPost2010Prop49
280
     0
102
RTVSPost2010PropOp49
 70
     1
102
RTVSPost2010Prop50
 90
       50
102
RTVSPost2010PropOp50
 70
     1
102
RTVSPost2010Prop51ColorIndex
 90
      256
102
RTVSPost2010Prop51ColorRGB
 90
-16777216
102
RTVSPost2010PropOp51
 70
     0
102
RTVSPost2010Prop52
140
1.0
102
RTVSPost2010PropOp52
 70
     0
102
RTVSPost2010Prop53
 90
        2
102
RTVSPost2010PropOp53
 70
     1
102
RTVSPost2010Prop54
  1
strokes_ogs.tif
102
RTVSPost2010PropOp54
 70
     1
102
RTVSPost2010Prop55
280
     0
102
RTVSPost2010PropOp55
 70
     1
102
RTVSPost2010Prop56
140
1.0
102
RTVSPost2010PropOp56
 70
     1
102
RTVSPost2010Prop57
140
1.0
102
RTVSPost2010PropOp57
 70
     1
102
RTVSPropertyOp0
 70
     1
102
RTVSPropertyOp1
 70
     1
102
RTVSPropertyOp2
 70
     1
102
RTVSPropertyOp3
 70
     1
102
RTVSPropertyOp4
 70
     1
102
RTVSPropertyOp5
 70
     1
102
RTVSPropertyOp6
 70
     1
102
RTVSPropertyOp7
 70
     1
102
RTVSPropertyOp8
 70
     1
102
RTVSPropertyOp9
 70
     1
102
RTVSPropertyOp10
 70
     1
102
RTVSPropertyOp11
 70
     1
102
RTVSPropertyOp12
 70
     1
102
RTVSPropertyOp13
 70
     1
102
RTVSPropertyOp14
 70
     1
102
RTVSPropertyOp15
 70
     1
102
RTVSPropertyOp16
 70
     1
102
RTVSPropertyOp17
 70
     1
102
RTVSPropertyOp18
 70
     1
102
RTVSPropertyOp19
 70
     1
102
RTVSPropertyOp20
 70
     1
102
RTVSPropertyOp21
 70
     1
102
RTVSPropertyOp22
 70
     1
102
RTVSPropertyOp23
 70
     1
102
RTVSPropertyOp24
 70
     1
102
RTVSPropertyOp25
 70
     1
102
RTVSPropertyOp26
 70
     1
102
RTVSPropertyOp27
 70
     1
102
RTVSPropertyOp28
 70
     1
102
RTVSPropertyOp29
 70
     1
102
RTVSPropertyOp30
 70
     1
102
RTVSPropertyOp31
 70
     1
102
RTVSPropertyOp32
 70
     1
102
RTVSPropertyOp33
 70
     1
102
RTVSPropertyOp34
 70
     1
102
RTVSPropertyOp35
 70
     1
102
RTVSPropertyOp36
 70
     1
102
RTVSPropertyOp37
 70
     1
102
RTVSPropertyOp38
 70
     1
102
RTVSPropertyOp39
 70
     1
102
RTVSPropertyOp40
 70
     1
102
RTVSPropertyOp41
 70
     1
102
RTVSPropertyOp42
 70
     1
102
RTVSPropertyOp43
 70
     1
102
RTVSPropertyOp44
 70
     1
102
RTVSPropertyOp45
 70
     1
102
RTVSPropertyOp46
 70
     1
102
RTVSPropertyOp47
 70
     1
102
RTVSPropertyOp48
 70
     1
102
RTVSPropertyOp49
 70
     1
102
RTVSPropertyOp50
 70
     1
102
RTVSPropertyOp51
 70
     0
102
RTVSPropertyOp52
 70
     0
102
RTVSPropertyOp53
 70
     1
102
RTVSPropertyOp54
 70
     1
102
RTVSPropertyOp55
 70
     1
102
RTVSPropertyOp56
 70
     1
102
RTVSPropertyOp57
 70
     1
102
RTVSPropertyOp58
 70
     1
102
RTVSPropertyOp59
 70
     1
102
RTVSPropertyOp60
 70
     1
102
RTVSPropertyOp61
 70
     1
102
RTVSPropertyOp62
 70
     1
  0
XRECORD
  5
57E
102
{ACAD_REACTORS
330
57D
102
}
330
57D
100
AcDbXrecord
280
     1
102
RTVSPost2010Prop28
280
     0
102
RTVSPost2010PropOp28
 70
     1
102
RTVSPost2010Prop29
280
     1
102
RTVSPost2010PropOp29
 70
     1
102
RTVSPost2010Prop30
280
     1
102
RTVSPost2010PropOp30
 70
     1
102
RTVSPost2010Prop31
280
     0
102
RTVSPost2010PropOp31
 70
     1
102
RTVSPost2010Prop32
280
     0
102
RTVSPost2010PropOp32
 70
     1
102
RTVSPost2010Prop33
280
     0
102
RTVSPost2010PropOp33
 70
     1
102
RTVSPost2010Prop34
280
     0
102
RTVSPost2010PropOp34
 70
     1
102
RTVSPost2010Prop35
280
     0
102
RTVSPost2010PropOp35
 70
     1
102
RTVSPost2010Prop36
280
     0
102
RTVSPost2010PropOp36
 70
     1
102
RTVSPost2010Prop37
 90
       50
102
RTVSPost2010PropOp37
 70
     1
102
RTVSPost2010Prop38
140
0.0
102
RTVSPost2010PropOp38
 70
     1
102
RTVSPost2010Prop39
140
1.0
102
RTVSPost2010PropOp39
 70
     1
102
RTVSPost2010Prop40
 90
        0
102
RTVSPost2010PropOp40
 70
     1
102
RTVSPost2010Prop41ColorIndex
 90
       18
102
RTVSPost2010Prop41ColorRGB
 90
        0
102
RTVSPost2010PropOp41
 70
     1
102
RTVSPost2010Prop42
 90
       50
102
RTVSPost2010PropOp42
 70
     1
102
RTVSPost2010Prop43
 90
        3
102
RTVSPost2010PropOp43
 70
     1
102
RTVSPost2010Prop44ColorIndex
 90
        5
102
RTVSPost2010Prop44ColorRGB
 90
      255
102
RTVSPost2010PropOp44
 70
     1
102
RTVSPost2010Prop45
280
     0
102
RTVSPost2010PropOp45
 70
     1
102
RTVSPost2010Prop46
 90
       50
102
RTVSPost2010PropOp46
 70
     1
102
RTVSPost2010Prop47
 90
       50
102
RTVSPost2010PropOp47
 70
     1
102
RTVSPost2010Prop48
 90
       50
102
RTVSPost2010PropOp48
 70
     1
102
RTVSPost2010Prop49
280
     0
102
RTVSPost2010PropOp49
 70
     1
102
RTVSPost2010Prop50
 90
       50
102
RTVSPost2010PropOp50
 70
     1
102
RTVSPost2010Prop51ColorIndex
 90
      256
102
RTVSPost2010Prop51ColorRGB
 90
-16777216
102
RTVSPost2010PropOp51
 70
     0
102
RTVSPost2010Prop52
140
1.0
102
RTVSPost2010PropOp52
 70
     0
102
RTVSPost2010Prop53
 90
        2
102
RTVSPost2010PropOp53
 70
     1
102
RTVSPost2010Prop54
  1
strokes_ogs.tif
102
RTVSPost2010PropOp54
 70
     1
102
RTVSPost2010Prop55
280
     0
102
RTVSPost2010PropOp55
 70
     1
102
RTVSPost2010Prop56
140
1.0
102
RTVSPost2010PropOp56
 70
     1
102
RTVSPost2010Prop57
140
1.0
102
RTVSPost2010PropOp57
 70
     1
102
RTVSPropertyOp0
 70
     1
102
RTVSPropertyOp1
 70
     1
102
RTVSPropertyOp2
 70
     1
102
RTVSPropertyOp3
 70
     1
102
RTVSPropertyOp4
 70
     1
102
RTVSPropertyOp5
 70
     1
102
RTVSPropertyOp6
 70
     1
102
RTVSPropertyOp7
 70
     1
102
RTVSPropertyOp8
 70
     1
102
RTVSPropertyOp9
 70
     1
102
RTVSPropertyOp10
 70
     1
102
RTVSPropertyOp11
 70
     1
102
RTVSPropertyOp12
 70
     1
102
RTVSPropertyOp13
 70
     1
102
RTVSPropertyOp14
 70
     1
102
RTVSPropertyOp15
 70
     1
102
RTVSPropertyOp16
 70
     1
102
RTVSPropertyOp17
 70
     1
102
RTVSPropertyOp18
 70
     1
102
RTVSPropertyOp19
 70
     1
102
RTVSPropertyOp20
 70
     1
102
RTVSPropertyOp21
 70
     1
102
RTVSPropertyOp22
 70
     1
102
RTVSPropertyOp23
 70
     1
102
RTVSPropertyOp24
 70
     1
102
RTVSPropertyOp25
 70
     1
102
RTVSPropertyOp26
 70
     1
102
RTVSPropertyOp27
 70
     1
102
RTVSPropertyOp28
 70
     1
102
RTVSPropertyOp29
 70
     1
102
RTVSPropertyOp30
 70
     1
102
RTVSPropertyOp31
 70
     1
102
RTVSPropertyOp32
 70
     1
102
RTVSPropertyOp33
 70
     1
102
RTVSPropertyOp34
 70
     1
102
RTVSPropertyOp35
 70
     1
102
RTVSPropertyOp36
 70
     1
102
RTVSPropertyOp37
 70
     1
102
RTVSPropertyOp38
 70
     1
102
RTVSPropertyOp39
 70
     1
102
RTVSPropertyOp40
 70
     1
102
RTVSPropertyOp41
 70
     1
102
RTVSPropertyOp42
 70
     1
102
RTVSPropertyOp43
 70
     1
102
RTVSPropertyOp44
 70
     1
102
RTVSPropertyOp45
 70
     1
102
RTVSPropertyOp46
 70
     1
102
RTVSPropertyOp47
 70
     1
102
RTVSPropertyOp48
 70
     1
102
RTVSPropertyOp49
 70
     1
102
RTVSPropertyOp50
 70
     1
102
RTVSPropertyOp51
 70
     0
102
RTVSPropertyOp52
 70
     0
102
RTVSPropertyOp53
 70
     1
102
RTVSPropertyOp54
 70
     1
102
RTVSPropertyOp55
 70
     1
102
RTVSPropertyOp56
 70
     1
102
RTVSPropertyOp57
 70
     1
102
RTVSPropertyOp58
 70
     1
102
RTVSPropertyOp59
 70
     1
102
RTVSPropertyOp60
 70
     1
102
RTVSPropertyOp61
 70
     1
102
RTVSPropertyOp62
 70
     1
  0
XRECORD
  5
570
102
{ACAD_REACTORS
330
56F
102
}
330
56F
100
AcDbXrecord
280
     1
102
RTVSPost2010Prop28
280
     0
102
RTVSPost2010PropOp28
 70
     1
102
RTVSPost2010Prop29
280
     1
102
RTVSPost2010PropOp29
 70
     1
102
RTVSPost2010Prop30
280
     1
102
RTVSPost2010PropOp30
 70
     1
102
RTVSPost2010Prop31
280
     0
102
RTVSPost2010PropOp31
 70
     1
102
RTVSPost2010Prop32
280
     0
102
RTVSPost2010PropOp32
 70
     1
102
RTVSPost2010Prop33
280
     0
102
RTVSPost2010PropOp33
 70
     1
102
RTVSPost2010Prop34
280
     0
102
RTVSPost2010PropOp34
 70
     1
102
RTVSPost2010Prop35
280
     0
102
RTVSPost2010PropOp35
 70
     1
102
RTVSPost2010Prop36
280
     0
102
RTVSPost2010PropOp36
 70
     1
102
RTVSPost2010Prop37
 90
       50
102
RTVSPost2010PropOp37
 70
     1
102
RTVSPost2010Prop38
140
0.0
102
RTVSPost2010PropOp38
 70
     1
102
RTVSPost2010Prop39
140
1.0
102
RTVSPost2010PropOp39
 70
     1
102
RTVSPost2010Prop40
 90
        0
102
RTVSPost2010PropOp40
 70
     1
102
RTVSPost2010Prop41ColorIndex
 90
       18
102
RTVSPost2010Prop41ColorRGB
 90
        0
102
RTVSPost2010PropOp41
 70
     1
102
RTVSPost2010Prop42
 90
       50
102
RTVSPost2010PropOp42
 70
     1
102
RTVSPost2010Prop43
 90
        3
102
RTVSPost2010PropOp43
 70
     1
102
RTVSPost2010Prop44ColorIndex
 90
        5
102
RTVSPost2010Prop44ColorRGB
 90
      255
102
RTVSPost2010PropOp44
 70
     1
102
RTVSPost2010Prop45
280
     0
102
RTVSPost2010PropOp45
 70
     1
102
RTVSPost2010Prop46
 90
       50
102
RTVSPost2010PropOp46
 70
     1
102
RTVSPost2010Prop47
 90
       50
102
RTVSPost2010PropOp47
 70
     1
102
RTVSPost2010Prop48
 90
       50
102
RTVSPost2010PropOp48
 70
     1
102
RTVSPost2010Prop49
280
     0
102
RTVSPost2010PropOp49
 70
     1
102
RTVSPost2010Prop50
 90
       50
102
RTVSPost2010PropOp50
 70
     1
102
RTVSPost2010Prop51ColorIndex
 90
      256
102
RTVSPost2010Prop51ColorRGB
 90
-16777216
102
RTVSPost2010PropOp51
 70
     0
102
RTVSPost2010Prop52
140
1.0
102
RTVSPost2010PropOp52
 70
     0
102
RTVSPost2010Prop53
 90
        2
102
RTVSPost2010PropOp53
 70
     1
102
RTVSPost2010Prop54
  1
strokes_ogs.tif
102
RTVSPost2010PropOp54
 70
     1
102
RTVSPost2010Prop55
280
     0
102
RTVSPost2010PropOp55
 70
     1
102
RTVSPost2010Prop56
140
1.0
102
RTVSPost2010PropOp56
 70
     1
102
RTVSPost2010Prop57
140
1.0
102
RTVSPost2010PropOp57
 70
     1
102
RTVSPropertyOp0
 70
     1
102
RTVSPropertyOp1
 70
     1
102
RTVSPropertyOp2
 70
     1
102
RTVSPropertyOp3
 70
     1
102
RTVSPropertyOp4
 70
     1
102
RTVSPropertyOp5
 70
     1
102
RTVSPropertyOp6
 70
     1
102
RTVSPropertyOp7
 70
     1
102
RTVSPropertyOp8
 70
     1
102
RTVSPropertyOp9
 70
     1
102
RTVSPropertyOp10
 70
     1
102
RTVSPropertyOp11
 70
     1
102
RTVSPropertyOp12
 70
     1
102
RTVSPropertyOp13
 70
     1
102
RTVSPropertyOp14
 70
     1
102
RTVSPropertyOp15
 70
     1
102
RTVSPropertyOp16
 70
     1
102
RTVSPropertyOp17
 70
     1
102
RTVSPropertyOp18
 70
     1
102
RTVSPropertyOp19
 70
     1
102
RTVSPropertyOp20
 70
     1
102
RTVSPropertyOp21
 70
     1
102
RTVSPropertyOp22
 70
     1
102
RTVSPropertyOp23
 70
     1
102
RTVSPropertyOp24
 70
     1
102
RTVSPropertyOp25
 70
     1
102
RTVSPropertyOp26
 70
     1
102
RTVSPropertyOp27
 70
     1
102
RTVSPropertyOp28
 70
     1
102
RTVSPropertyOp29
 70
     1
102
RTVSPropertyOp30
 70
     1
102
RTVSPropertyOp31
 70
     1
102
RTVSPropertyOp32
 70
     1
102
RTVSPropertyOp33
 70
     1
102
RTVSPropertyOp34
 70
     1
102
RTVSPropertyOp35
 70
     1
102
RTVSPropertyOp36
 70
     1
102
RTVSPropertyOp37
 70
     1
102
RTVSPropertyOp38
 70
     1
102
RTVSPropertyOp39
 70
     1
102
RTVSPropertyOp40
 70
     1
102
RTVSPropertyOp41
 70
     1
102
RTVSPropertyOp42
 70
     1
102
RTVSPropertyOp43
 70
     1
102
RTVSPropertyOp44
 70
     1
102
RTVSPropertyOp45
 70
     1
102
RTVSPropertyOp46
 70
     1
102
RTVSPropertyOp47
 70
     1
102
RTVSPropertyOp48
 70
     1
102
RTVSPropertyOp49
 70
     1
102
RTVSPropertyOp50
 70
     1
102
RTVSPropertyOp51
 70
     0
102
RTVSPropertyOp52
 70
     0
102
RTVSPropertyOp53
 70
     1
102
RTVSPropertyOp54
 70
     1
102
RTVSPropertyOp55
 70
     1
102
RTVSPropertyOp56
 70
     1
102
RTVSPropertyOp57
 70
     1
102
RTVSPropertyOp58
 70
     1
102
RTVSPropertyOp59
 70
     1
102
RTVSPropertyOp60
 70
     1
102
RTVSPropertyOp61
 70
     1
102
RTVSPropertyOp62
 70
     1
  0
XRECORD
  5
574
102
{ACAD_REACTORS
330
573
102
}
330
573
100
AcDbXrecord
280
     1
102
RTVSPost2010Prop28
280
     0
102
RTVSPost2010PropOp28
 70
     1
102
RTVSPost2010Prop29
280
     1
102
RTVSPost2010PropOp29
 70
     1
102
RTVSPost2010Prop30
280
     1
102
RTVSPost2010PropOp30
 70
     1
102
RTVSPost2010Prop31
280
     0
102
RTVSPost2010PropOp31
 70
     1
102
RTVSPost2010Prop32
280
     0
102
RTVSPost2010PropOp32
 70
     1
102
RTVSPost2010Prop33
280
     0
102
RTVSPost2010PropOp33
 70
     1
102
RTVSPost2010Prop34
280
     0
102
RTVSPost2010PropOp34
 70
     1
102
RTVSPost2010Prop35
280
     0
102
RTVSPost2010PropOp35
 70
     1
102
RTVSPost2010Prop36
280
     0
102
RTVSPost2010PropOp36
 70
     1
102
RTVSPost2010Prop37
 90
       50
102
RTVSPost2010PropOp37
 70
     1
102
RTVSPost2010Prop38
140
0.0
102
RTVSPost2010PropOp38
 70
     1
102
RTVSPost2010Prop39
140
1.0
102
RTVSPost2010PropOp39
 70
     1
102
RTVSPost2010Prop40
 90
        0
102
RTVSPost2010PropOp40
 70
     1
102
RTVSPost2010Prop41ColorIndex
 90
       18
102
RTVSPost2010Prop41ColorRGB
 90
        0
102
RTVSPost2010PropOp41
 70
     1
102
RTVSPost2010Prop42
 90
       50
102
RTVSPost2010PropOp42
 70
     1
102
RTVSPost2010Prop43
 90
        3
102
RTVSPost2010PropOp43
 70
     1
102
RTVSPost2010Prop44ColorIndex
 90
        5
102
RTVSPost2010Prop44ColorRGB
 90
      255
102
RTVSPost2010PropOp44
 70
     1
102
RTVSPost2010Prop45
280
     0
102
RTVSPost2010PropOp45
 70
     1
102
RTVSPost2010Prop46
 90
       50
102
RTVSPost2010PropOp46
 70
     1
102
RTVSPost2010Prop47
 90
       50
102
RTVSPost2010PropOp47
 70
     1
102
RTVSPost2010Prop48
 90
       50
102
RTVSPost2010PropOp48
 70
     1
102
RTVSPost2010Prop49
280
     0
102
RTVSPost2010PropOp49
 70
     1
102
RTVSPost2010Prop50
 90
       50
102
RTVSPost2010PropOp50
 70
     1
102
RTVSPost2010Prop51ColorIndex
 90
      256
102
RTVSPost2010Prop51ColorRGB
 90
-16777216
102
RTVSPost2010PropOp51
 70
     0
102
RTVSPost2010Prop52
140
1.0
102
RTVSPost2010PropOp52
 70
     0
102
RTVSPost2010Prop53
 90
        2
102
RTVSPost2010PropOp53
 70
     1
102
RTVSPost2010Prop54
  1
strokes_ogs.tif
102
RTVSPost2010PropOp54
 70
     1
102
RTVSPost2010Prop55
280
     0
102
RTVSPost2010PropOp55
 70
     1
102
RTVSPost2010Prop56
140
1.0
102
RTVSPost2010PropOp56
 70
     1
102
RTVSPost2010Prop57
140
1.0
102
RTVSPost2010PropOp57
 70
     1
102
RTVSPropertyOp0
 70
     1
102
RTVSPropertyOp1
 70
     1
102
RTVSPropertyOp2
 70
     1
102
RTVSPropertyOp3
 70
     1
102
RTVSPropertyOp4
 70
     1
102
RTVSPropertyOp5
 70
     1
102
RTVSPropertyOp6
 70
     1
102
RTVSPropertyOp7
 70
     1
102
RTVSPropertyOp8
 70
     1
102
RTVSPropertyOp9
 70
     1
102
RTVSPropertyOp10
 70
     1
102
RTVSPropertyOp11
 70
     1
102
RTVSPropertyOp12
 70
     1
102
RTVSPropertyOp13
 70
     1
102
RTVSPropertyOp14
 70
     1
102
RTVSPropertyOp15
 70
     1
102
RTVSPropertyOp16
 70
     1
102
RTVSPropertyOp17
 70
     1
102
RTVSPropertyOp18
 70
     1
102
RTVSPropertyOp19
 70
     1
102
RTVSPropertyOp20
 70
     1
102
RTVSPropertyOp21
 70
     1
102
RTVSPropertyOp22
 70
     1
102
RTVSPropertyOp23
 70
     1
102
RTVSPropertyOp24
 70
     1
102
RTVSPropertyOp25
 70
     1
102
RTVSPropertyOp26
 70
     1
102
RTVSPropertyOp27
 70
     1
102
RTVSPropertyOp28
 70
     1
102
RTVSPropertyOp29
 70
     1
102
RTVSPropertyOp30
 70
     1
102
RTVSPropertyOp31
 70
     1
102
RTVSPropertyOp32
 70
     1
102
RTVSPropertyOp33
 70
     1
102
RTVSPropertyOp34
 70
     1
102
RTVSPropertyOp35
 70
     1
102
RTVSPropertyOp36
 70
     1
102
RTVSPropertyOp37
 70
     1
102
RTVSPropertyOp38
 70
     1
102
RTVSPropertyOp39
 70
     1
102
RTVSPropertyOp40
 70
     1
102
RTVSPropertyOp41
 70
     1
102
RTVSPropertyOp42
 70
     1
102
RTVSPropertyOp43
 70
     1
102
RTVSPropertyOp44
 70
     1
102
RTVSPropertyOp45
 70
     1
102
RTVSPropertyOp46
 70
     1
102
RTVSPropertyOp47
 70
     1
102
RTVSPropertyOp48
 70
     1
102
RTVSPropertyOp49
 70
     1
102
RTVSPropertyOp50
 70
     1
102
RTVSPropertyOp51
 70
     0
102
RTVSPropertyOp52
 70
     0
102
RTVSPropertyOp53
 70
     1
102
RTVSPropertyOp54
 70
     1
102
RTVSPropertyOp55
 70
     1
102
RTVSPropertyOp56
 70
     1
102
RTVSPropertyOp57
 70
     1
102
RTVSPropertyOp58
 70
     1
102
RTVSPropertyOp59
 70
     1
102
RTVSPropertyOp60
 70
     1
102
RTVSPropertyOp61
 70
     1
102
RTVSPropertyOp62
 70
     1
  0
XRECORD
  5
58E
102
{ACAD_REACTORS
330
58D
102
}
330
58D
100
AcDbXrecord
280
     1
102
RTVSPost2010Prop28
280
     0
102
RTVSPost2010PropOp28
 70
     1
102
RTVSPost2010Prop29
280
     1
102
RTVSPost2010PropOp29
 70
     1
102
RTVSPost2010Prop30
280
     1
102
RTVSPost2010PropOp30
 70
     1
102
RTVSPost2010Prop31
280
     0
102
RTVSPost2010PropOp31
 70
     1
102
RTVSPost2010Prop32
280
     0
102
RTVSPost2010PropOp32
 70
     1
102
RTVSPost2010Prop33
280
     0
102
RTVSPost2010PropOp33
 70
     1
102
RTVSPost2010Prop34
280
     0
102
RTVSPost2010PropOp34
 70
     1
102
RTVSPost2010Prop35
280
     0
102
RTVSPost2010PropOp35
 70
     1
102
RTVSPost2010Prop36
280
     0
102
RTVSPost2010PropOp36
 70
     1
102
RTVSPost2010Prop37
 90
       50
102
RTVSPost2010PropOp37
 70
     0
102
RTVSPost2010Prop38
140
0.0
102
RTVSPost2010PropOp38
 70
     0
102
RTVSPost2010Prop39
140
1.0
102
RTVSPost2010PropOp39
 70
     0
102
RTVSPost2010Prop40
 90
        0
102
RTVSPost2010PropOp40
 70
     0
102
RTVSPost2010Prop41ColorIndex
 90
       18
102
RTVSPost2010Prop41ColorRGB
 90
        0
102
RTVSPost2010PropOp41
 70
     0
102
RTVSPost2010Prop42
 90
       50
102
RTVSPost2010PropOp42
 70
     0
102
RTVSPost2010Prop43
 90
        3
102
RTVSPost2010PropOp43
 70
     0
102
RTVSPost2010Prop44ColorIndex
 90
        5
102
RTVSPost2010Prop44ColorRGB
 90
      255
102
RTVSPost2010PropOp44
 70
     0
102
RTVSPost2010Prop45
280
     0
102
RTVSPost2010PropOp45
 70
     1
102
RTVSPost2010Prop46
 90
       50
102
RTVSPost2010PropOp46
 70
     0
102
RTVSPost2010Prop47
 90
       50
102
RTVSPost2010PropOp47
 70
     0
102
RTVSPost2010Prop48
 90
       50
102
RTVSPost2010PropOp48
 70
     0
102
RTVSPost2010Prop49
280
     0
102
RTVSPost2010PropOp49
 70
     1
102
RTVSPost2010Prop50
 90
       50
102
RTVSPost2010PropOp50
 70
     0
102
RTVSPost2010Prop51ColorIndex
 90
      256
102
RTVSPost2010Prop51ColorRGB
 90
-16777216
102
RTVSPost2010PropOp51
 70
     0
102
RTVSPost2010Prop52
140
1.0
102
RTVSPost2010PropOp52
 70
     0
102
RTVSPost2010Prop53
 90
        2
102
RTVSPost2010PropOp53
 70
     0
102
RTVSPost2010Prop54
  1
strokes_ogs.tif
102
RTVSPost2010PropOp54
 70
     0
102
RTVSPost2010Prop55
280
     0
102
RTVSPost2010PropOp55
 70
     1
102
RTVSPost2010Prop56
140
1.0
102
RTVSPost2010PropOp56
 70
     0
102
RTVSPost2010Prop57
140
1.0
102
RTVSPost2010PropOp57
 70
     0
102
RTVSPropertyOp0
 70
     0
102
RTVSPropertyOp1
 70
     0
102
RTVSPropertyOp2
 70
     0
102
RTVSPropertyOp3
 70
     0
102
RTVSPropertyOp4
 70
     0
102
RTVSPropertyOp5
 70
     0
102
RTVSPropertyOp6
 70
     0
102
RTVSPropertyOp7
 70
     0
102
RTVSPropertyOp8
 70
     0
102
RTVSPropertyOp9
 70
     0
102
RTVSPropertyOp10
 70
     0
102
RTVSPropertyOp11
 70
     0
102
RTVSPropertyOp12
 70
     0
102
RTVSPropertyOp13
 70
     0
102
RTVSPropertyOp14
 70
     2
102
RTVSPropertyOp15
 70
     0
102
RTVSPropertyOp16
 70
     0
102
RTVSPropertyOp17
 70
     0
102
RTVSPropertyOp18
 70
     0
102
RTVSPropertyOp19
 70
     0
102
RTVSPropertyOp20
 70
     0
102
RTVSPropertyOp21
 70
     0
102
RTVSPropertyOp22
 70
     0
102
RTVSPropertyOp23
 70
     0
102
RTVSPropertyOp24
 70
     0
102
RTVSPropertyOp25
 70
     0
102
RTVSPropertyOp26
 70
     0
102
RTVSPropertyOp27
 70
     0
102
RTVSPropertyOp28
 70
     1
102
RTVSPropertyOp29
 70
     1
102
RTVSPropertyOp30
 70
     1
102
RTVSPropertyOp31
 70
     1
102
RTVSPropertyOp32
 70
     1
102
RTVSPropertyOp33
 70
     1
102
RTVSPropertyOp34
 70
     1
102
RTVSPropertyOp35
 70
     1
102
RTVSPropertyOp36
 70
     1
102
RTVSPropertyOp37
 70
     0
102
RTVSPropertyOp38
 70
     0
102
RTVSPropertyOp39
 70
     0
102
RTVSPropertyOp40
 70
     0
102
RTVSPropertyOp41
 70
     0
102
RTVSPropertyOp42
 70
     0
102
RTVSPropertyOp43
 70
     0
102
RTVSPropertyOp44
 70
     0
102
RTVSPropertyOp45
 70
     1
102
RTVSPropertyOp46
 70
     0
102
RTVSPropertyOp47
 70
     0
102
RTVSPropertyOp48
 70
     0
102
RTVSPropertyOp49
 70
     1
102
RTVSPropertyOp50
 70
     0
102
RTVSPropertyOp51
 70
     0
102
RTVSPropertyOp52
 70
     0
102
RTVSPropertyOp53
 70
     0
102
RTVSPropertyOp54
 70
     0
102
RTVSPropertyOp55
 70
     1
102
RTVSPropertyOp56
 70
     0
102
RTVSPropertyOp57
 70
     0
102
RTVSPropertyOp58
 70
     0
102
RTVSPropertyOp59
 70
     0
102
RTVSPropertyOp60
 70
     0
102
RTVSPropertyOp61
 70
     0
102
RTVSPropertyOp62
 70
     0
  0
XRECORD
  5
57C
102
{ACAD_REACTORS
330
57B
102
}
330
57B
100
AcDbXrecord
280
     1
102
RTVSPost2010Prop28
280
     0
102
RTVSPost2010PropOp28
 70
     1
102
RTVSPost2010Prop29
280
     1
102
RTVSPost2010PropOp29
 70
     1
102
RTVSPost2010Prop30
280
     1
102
RTVSPost2010PropOp30
 70
     1
102
RTVSPost2010Prop31
280
     0
102
RTVSPost2010PropOp31
 70
     1
102
RTVSPost2010Prop32
280
     0
102
RTVSPost2010PropOp32
 70
     1
102
RTVSPost2010Prop33
280
     0
102
RTVSPost2010PropOp33
 70
     1
102
RTVSPost2010Prop34
280
     0
102
RTVSPost2010PropOp34
 70
     1
102
RTVSPost2010Prop35
280
     0
102
RTVSPost2010PropOp35
 70
     1
102
RTVSPost2010Prop36
280
     0
102
RTVSPost2010PropOp36
 70
     1
102
RTVSPost2010Prop37
 90
       50
102
RTVSPost2010PropOp37
 70
     1
102
RTVSPost2010Prop38
140
0.0
102
RTVSPost2010PropOp38
 70
     1
102
RTVSPost2010Prop39
140
1.0
102
RTVSPost2010PropOp39
 70
     1
102
RTVSPost2010Prop40
 90
        0
102
RTVSPost2010PropOp40
 70
     1
102
RTVSPost2010Prop41ColorIndex
 90
       18
102
RTVSPost2010Prop41ColorRGB
 90
        0
102
RTVSPost2010PropOp41
 70
     1
102
RTVSPost2010Prop42
 90
       50
102
RTVSPost2010PropOp42
 70
     1
102
RTVSPost2010Prop43
 90
        3
102
RTVSPost2010PropOp43
 70
     1
102
RTVSPost2010Prop44ColorIndex
 90
        5
102
RTVSPost2010Prop44ColorRGB
 90
      255
102
RTVSPost2010PropOp44
 70
     1
102
RTVSPost2010Prop45
280
     0
102
RTVSPost2010PropOp45
 70
     1
102
RTVSPost2010Prop46
 90
       50
102
RTVSPost2010PropOp46
 70
     1
102
RTVSPost2010Prop47
 90
       50
102
RTVSPost2010PropOp47
 70
     1
102
RTVSPost2010Prop48
 90
       50
102
RTVSPost2010PropOp48
 70
     1
102
RTVSPost2010Prop49
280
     0
102
RTVSPost2010PropOp49
 70
     1
102
RTVSPost2010Prop50
 90
       50
102
RTVSPost2010PropOp50
 70
     1
102
RTVSPost2010Prop51ColorIndex
 90
      256
102
RTVSPost2010Prop51ColorRGB
 90
-16777216
102
RTVSPost2010PropOp51
 70
     0
102
RTVSPost2010Prop52
140
1.0
102
RTVSPost2010PropOp52
 70
     0
102
RTVSPost2010Prop53
 90
        2
102
RTVSPost2010PropOp53
 70
     1
102
RTVSPost2010Prop54
  1
strokes_ogs.tif
102
RTVSPost2010PropOp54
 70
     1
102
RTVSPost2010Prop55
280
     0
102
RTVSPost2010PropOp55
 70
     1
102
RTVSPost2010Prop56
140
1.0
102
RTVSPost2010PropOp56
 70
     1
102
RTVSPost2010Prop57
140
1.0
102
RTVSPost2010PropOp57
 70
     1
102
RTVSPropertyOp0
 70
     1
102
RTVSPropertyOp1
 70
     1
102
RTVSPropertyOp2
 70
     1
102
RTVSPropertyOp3
 70
     1
102
RTVSPropertyOp4
 70
     1
102
RTVSPropertyOp5
 70
     1
102
RTVSPropertyOp6
 70
     1
102
RTVSPropertyOp7
 70
     1
102
RTVSPropertyOp8
 70
     1
102
RTVSPropertyOp9
 70
     1
102
RTVSPropertyOp10
 70
     1
102
RTVSPropertyOp11
 70
     1
102
RTVSPropertyOp12
 70
     1
102
RTVSPropertyOp13
 70
     1
102
RTVSPropertyOp14
 70
     1
102
RTVSPropertyOp15
 70
     1
102
RTVSPropertyOp16
 70
     1
102
RTVSPropertyOp17
 70
     1
102
RTVSPropertyOp18
 70
     1
102
RTVSPropertyOp19
 70
     1
102
RTVSPropertyOp20
 70
     1
102
RTVSPropertyOp21
 70
     1
102
RTVSPropertyOp22
 70
     1
102
RTVSPropertyOp23
 70
     1
102
RTVSPropertyOp24
 70
     1
102
RTVSPropertyOp25
 70
     1
102
RTVSPropertyOp26
 70
     1
102
RTVSPropertyOp27
 70
     1
102
RTVSPropertyOp28
 70
     1
102
RTVSPropertyOp29
 70
     1
102
RTVSPropertyOp30
 70
     1
102
RTVSPropertyOp31
 70
     1
102
RTVSPropertyOp32
 70
     1
102
RTVSPropertyOp33
 70
     1
102
RTVSPropertyOp34
 70
     1
102
RTVSPropertyOp35
 70
     1
102
RTVSPropertyOp36
 70
     1
102
RTVSPropertyOp37
 70
     1
102
RTVSPropertyOp38
 70
     1
102
RTVSPropertyOp39
 70
     1
102
RTVSPropertyOp40
 70
     1
102
RTVSPropertyOp41
 70
     1
102
RTVSPropertyOp42
 70
     1
102
RTVSPropertyOp43
 70
     1
102
RTVSPropertyOp44
 70
     1
102
RTVSPropertyOp45
 70
     1
102
RTVSPropertyOp46
 70
     1
102
RTVSPropertyOp47
 70
     1
102
RTVSPropertyOp48
 70
     1
102
RTVSPropertyOp49
 70
     1
102
RTVSPropertyOp50
 70
     1
102
RTVSPropertyOp51
 70
     0
102
RTVSPropertyOp52
 70
     0
102
RTVSPropertyOp53
 70
     1
102
RTVSPropertyOp54
 70
     1
102
RTVSPropertyOp55
 70
     1
102
RTVSPropertyOp56
 70
     1
102
RTVSPropertyOp57
 70
     1
102
RTVSPropertyOp58
 70
     1
102
RTVSPropertyOp59
 70
     1
102
RTVSPropertyOp60
 70
     1
102
RTVSPropertyOp61
 70
     1
102
RTVSPropertyOp62
 70
     1
  0
XRECORD
  5
560
102
{ACAD_REACTORS
330
55F
102
}
330
55F
100
AcDbXrecord
280
     1
102
RTVSPost2010Prop28
280
     0
102
RTVSPost2010PropOp28
 70
     1
102
RTVSPost2010Prop29
280
     1
102
RTVSPost2010PropOp29
 70
     1
102
RTVSPost2010Prop30
280
     1
102
RTVSPost2010PropOp30
 70
     1
102
RTVSPost2010Prop31
280
     0
102
RTVSPost2010PropOp31
 70
     1
102
RTVSPost2010Prop32
280
     0
102
RTVSPost2010PropOp32
 70
     1
102
RTVSPost2010Prop33
280
     0
102
RTVSPost2010PropOp33
 70
     1
102
RTVSPost2010Prop34
280
     0
102
RTVSPost2010PropOp34
 70
     1
102
RTVSPost2010Prop35
280
     0
102
RTVSPost2010PropOp35
 70
     1
102
RTVSPost2010Prop36
280
     0
102
RTVSPost2010PropOp36
 70
     1
102
RTVSPost2010Prop37
 90
       50
102
RTVSPost2010PropOp37
 70
     1
102
RTVSPost2010Prop38
140
0.0
102
RTVSPost2010PropOp38
 70
     1
102
RTVSPost2010Prop39
140
1.0
102
RTVSPost2010PropOp39
 70
     1
102
RTVSPost2010Prop40
 90
        0
102
RTVSPost2010PropOp40
 70
     1
102
RTVSPost2010Prop41ColorIndex
 90
       18
102
RTVSPost2010Prop41ColorRGB
 90
        0
102
RTVSPost2010PropOp41
 70
     1
102
RTVSPost2010Prop42
 90
       50
102
RTVSPost2010PropOp42
 70
     1
102
RTVSPost2010Prop43
 90
        3
102
RTVSPost2010PropOp43
 70
     1
102
RTVSPost2010Prop44ColorIndex
 90
        5
102
RTVSPost2010Prop44ColorRGB
 90
      255
102
RTVSPost2010PropOp44
 70
     1
102
RTVSPost2010Prop45
280
     0
102
RTVSPost2010PropOp45
 70
     1
102
RTVSPost2010Prop46
 90
       50
102
RTVSPost2010PropOp46
 70
     1
102
RTVSPost2010Prop47
 90
       50
102
RTVSPost2010PropOp47
 70
     1
102
RTVSPost2010Prop48
 90
       50
102
RTVSPost2010PropOp48
 70
     1
102
RTVSPost2010Prop49
280
     0
102
RTVSPost2010PropOp49
 70
     1
102
RTVSPost2010Prop50
 90
       50
102
RTVSPost2010PropOp50
 70
     1
102
RTVSPost2010Prop51ColorIndex
 90
      256
102
RTVSPost2010Prop51ColorRGB
 90
-16777216
102
RTVSPost2010PropOp51
 70
     0
102
RTVSPost2010Prop52
140
1.0
102
RTVSPost2010PropOp52
 70
     0
102
RTVSPost2010Prop53
 90
        2
102
RTVSPost2010PropOp53
 70
     1
102
RTVSPost2010Prop54
  1
strokes_ogs.tif
102
RTVSPost2010PropOp54
 70
     1
102
RTVSPost2010Prop55
280
     0
102
RTVSPost2010PropOp55
 70
     1
102
RTVSPost2010Prop56
140
1.0
102
RTVSPost2010PropOp56
 70
     1
102
RTVSPost2010Prop57
140
1.0
102
RTVSPost2010PropOp57
 70
     1
102
RTVSPropertyOp0
 70
     1
102
RTVSPropertyOp1
 70
     1
102
RTVSPropertyOp2
 70
     1
102
RTVSPropertyOp3
 70
     1
102
RTVSPropertyOp4
 70
     1
102
RTVSPropertyOp5
 70
     1
102
RTVSPropertyOp6
 70
     1
102
RTVSPropertyOp7
 70
     1
102
RTVSPropertyOp8
 70
     1
102
RTVSPropertyOp9
 70
     1
102
RTVSPropertyOp10
 70
     1
102
RTVSPropertyOp11
 70
     1
102
RTVSPropertyOp12
 70
     1
102
RTVSPropertyOp13
 70
     1
102
RTVSPropertyOp14
 70
     1
102
RTVSPropertyOp15
 70
     1
102
RTVSPropertyOp16
 70
     1
102
RTVSPropertyOp17
 70
     1
102
RTVSPropertyOp18
 70
     1
102
RTVSPropertyOp19
 70
     1
102
RTVSPropertyOp20
 70
     1
102
RTVSPropertyOp21
 70
     1
102
RTVSPropertyOp22
 70
     1
102
RTVSPropertyOp23
 70
     1
102
RTVSPropertyOp24
 70
     1
102
RTVSPropertyOp25
 70
     1
102
RTVSPropertyOp26
 70
     1
102
RTVSPropertyOp27
 70
     1
102
RTVSPropertyOp28
 70
     1
102
RTVSPropertyOp29
 70
     1
102
RTVSPropertyOp30
 70
     1
102
RTVSPropertyOp31
 70
     1
102
RTVSPropertyOp32
 70
     1
102
RTVSPropertyOp33
 70
     1
102
RTVSPropertyOp34
 70
     1
102
RTVSPropertyOp35
 70
     1
102
RTVSPropertyOp36
 70
     1
102
RTVSPropertyOp37
 70
     1
102
RTVSPropertyOp38
 70
     1
102
RTVSPropertyOp39
 70
     1
102
RTVSPropertyOp40
 70
     1
102
RTVSPropertyOp41
 70
     1
102
RTVSPropertyOp42
 70
     1
102
RTVSPropertyOp43
 70
     1
102
RTVSPropertyOp44
 70
     1
102
RTVSPropertyOp45
 70
     1
102
RTVSPropertyOp46
 70
     1
102
RTVSPropertyOp47
 70
     1
102
RTVSPropertyOp48
 70
     1
102
RTVSPropertyOp49
 70
     1
102
RTVSPropertyOp50
 70
     1
102
RTVSPropertyOp51
 70
     0
102
RTVSPropertyOp52
 70
     0
102
RTVSPropertyOp53
 70
     1
102
RTVSPropertyOp54
 70
     1
102
RTVSPropertyOp55
 70
     1
102
RTVSPropertyOp56
 70
     1
102
RTVSPropertyOp57
 70
     1
102
RTVSPropertyOp58
 70
     1
102
RTVSPropertyOp59
 70
     1
102
RTVSPropertyOp60
 70
     1
102
RTVSPropertyOp61
 70
     1
102
RTVSPropertyOp62
 70
     1
  0
XRECORD
  5
562
102
{ACAD_REACTORS
330
561
102
}
330
561
100
AcDbXrecord
280
     1
102
RTVSPost2010Prop28
280
     0
102
RTVSPost2010PropOp28
 70
     1
102
RTVSPost2010Prop29
280
     1
102
RTVSPost2010PropOp29
 70
     1
102
RTVSPost2010Prop30
280
     1
102
RTVSPost2010PropOp30
 70
     1
102
RTVSPost2010Prop31
280
     0
102
RTVSPost2010PropOp31
 70
     1
102
RTVSPost2010Prop32
280
     0
102
RTVSPost2010PropOp32
 70
     1
102
RTVSPost2010Prop33
280
     0
102
RTVSPost2010PropOp33
 70
     1
102
RTVSPost2010Prop34
280
     0
102
RTVSPost2010PropOp34
 70
     1
102
RTVSPost2010Prop35
280
     0
102
RTVSPost2010PropOp35
 70
     1
102
RTVSPost2010Prop36
280
     0
102
RTVSPost2010PropOp36
 70
     1
102
RTVSPost2010Prop37
 90
       50
102
RTVSPost2010PropOp37
 70
     1
102
RTVSPost2010Prop38
140
0.0
102
RTVSPost2010PropOp38
 70
     1
102
RTVSPost2010Prop39
140
1.0
102
RTVSPost2010PropOp39
 70
     1
102
RTVSPost2010Prop40
 90
        0
102
RTVSPost2010PropOp40
 70
     1
102
RTVSPost2010Prop41ColorIndex
 90
       18
102
RTVSPost2010Prop41ColorRGB
 90
        0
102
RTVSPost2010PropOp41
 70
     1
102
RTVSPost2010Prop42
 90
       50
102
RTVSPost2010PropOp42
 70
     1
102
RTVSPost2010Prop43
 90
        3
102
RTVSPost2010PropOp43
 70
     1
102
RTVSPost2010Prop44ColorIndex
 90
        5
102
RTVSPost2010Prop44ColorRGB
 90
      255
102
RTVSPost2010PropOp44
 70
     1
102
RTVSPost2010Prop45
280
     0
102
RTVSPost2010PropOp45
 70
     1
102
RTVSPost2010Prop46
 90
       50
102
RTVSPost2010PropOp46
 70
     1
102
RTVSPost2010Prop47
 90
       50
102
RTVSPost2010PropOp47
 70
     1
102
RTVSPost2010Prop48
 90
       50
102
RTVSPost2010PropOp48
 70
     1
102
RTVSPost2010Prop49
280
     0
102
RTVSPost2010PropOp49
 70
     1
102
RTVSPost2010Prop50
 90
       50
102
RTVSPost2010PropOp50
 70
     1
102
RTVSPost2010Prop51ColorIndex
 90
      256
102
RTVSPost2010Prop51ColorRGB
 90
-16777216
102
RTVSPost2010PropOp51
 70
     0
102
RTVSPost2010Prop52
140
1.0
102
RTVSPost2010PropOp52
 70
     0
102
RTVSPost2010Prop53
 90
        2
102
RTVSPost2010PropOp53
 70
     1
102
RTVSPost2010Prop54
  1
strokes_ogs.tif
102
RTVSPost2010PropOp54
 70
     1
102
RTVSPost2010Prop55
280
     0
102
RTVSPost2010PropOp55
 70
     1
102
RTVSPost2010Prop56
140
1.0
102
RTVSPost2010PropOp56
 70
     1
102
RTVSPost2010Prop57
140
1.0
102
RTVSPost2010PropOp57
 70
     1
102
RTVSPropertyOp0
 70
     1
102
RTVSPropertyOp1
 70
     1
102
RTVSPropertyOp2
 70
     1
102
RTVSPropertyOp3
 70
     1
102
RTVSPropertyOp4
 70
     1
102
RTVSPropertyOp5
 70
     1
102
RTVSPropertyOp6
 70
     1
102
RTVSPropertyOp7
 70
     1
102
RTVSPropertyOp8
 70
     1
102
RTVSPropertyOp9
 70
     1
102
RTVSPropertyOp10
 70
     1
102
RTVSPropertyOp11
 70
     1
102
RTVSPropertyOp12
 70
     1
102
RTVSPropertyOp13
 70
     1
102
RTVSPropertyOp14
 70
     1
102
RTVSPropertyOp15
 70
     1
102
RTVSPropertyOp16
 70
     1
102
RTVSPropertyOp17
 70
     1
102
RTVSPropertyOp18
 70
     1
102
RTVSPropertyOp19
 70
     1
102
RTVSPropertyOp20
 70
     1
102
RTVSPropertyOp21
 70
     1
102
RTVSPropertyOp22
 70
     1
102
RTVSPropertyOp23
 70
     1
102
RTVSPropertyOp24
 70
     1
102
RTVSPropertyOp25
 70
     1
102
RTVSPropertyOp26
 70
     1
102
RTVSPropertyOp27
 70
     1
102
RTVSPropertyOp28
 70
     1
102
RTVSPropertyOp29
 70
     1
102
RTVSPropertyOp30
 70
     1
102
RTVSPropertyOp31
 70
     1
102
RTVSPropertyOp32
 70
     1
102
RTVSPropertyOp33
 70
     1
102
RTVSPropertyOp34
 70
     1
102
RTVSPropertyOp35
 70
     1
102
RTVSPropertyOp36
 70
     1
102
RTVSPropertyOp37
 70
     1
102
RTVSPropertyOp38
 70
     1
102
RTVSPropertyOp39
 70
     1
102
RTVSPropertyOp40
 70
     1
102
RTVSPropertyOp41
 70
     1
102
RTVSPropertyOp42
 70
     1
102
RTVSPropertyOp43
 70
     1
102
RTVSPropertyOp44
 70
     1
102
RTVSPropertyOp45
 70
     1
102
RTVSPropertyOp46
 70
     1
102
RTVSPropertyOp47
 70
     1
102
RTVSPropertyOp48
 70
     1
102
RTVSPropertyOp49
 70
     1
102
RTVSPropertyOp50
 70
     1
102
RTVSPropertyOp51
 70
     0
102
RTVSPropertyOp52
 70
     0
102
RTVSPropertyOp53
 70
     1
102
RTVSPropertyOp54
 70
     1
102
RTVSPropertyOp55
 70
     1
102
RTVSPropertyOp56
 70
     1
102
RTVSPropertyOp57
 70
     1
102
RTVSPropertyOp58
 70
     1
102
RTVSPropertyOp59
 70
     1
102
RTVSPropertyOp60
 70
     1
102
RTVSPropertyOp61
 70
     1
102
RTVSPropertyOp62
 70
     1
  0
XRECORD
  5
564
102
{ACAD_REACTORS
330
563
102
}
330
563
100
AcDbXrecord
280
     1
102
RTVSPost2010Prop28
280
     0
102
RTVSPost2010PropOp28
 70
     1
102
RTVSPost2010Prop29
280
     1
102
RTVSPost2010PropOp29
 70
     1
102
RTVSPost2010Prop30
280
     1
102
RTVSPost2010PropOp30
 70
     1
102
RTVSPost2010Prop31
280
     0
102
RTVSPost2010PropOp31
 70
     1
102
RTVSPost2010Prop32
280
     0
102
RTVSPost2010PropOp32
 70
     1
102
RTVSPost2010Prop33
280
     0
102
RTVSPost2010PropOp33
 70
     1
102
RTVSPost2010Prop34
280
     0
102
RTVSPost2010PropOp34
 70
     1
102
RTVSPost2010Prop35
280
     0
102
RTVSPost2010PropOp35
 70
     1
102
RTVSPost2010Prop36
280
     0
102
RTVSPost2010PropOp36
 70
     1
102
RTVSPost2010Prop37
 90
       50
102
RTVSPost2010PropOp37
 70
     1
102
RTVSPost2010Prop38
140
0.0
102
RTVSPost2010PropOp38
 70
     1
102
RTVSPost2010Prop39
140
1.0
102
RTVSPost2010PropOp39
 70
     1
102
RTVSPost2010Prop40
 90
        0
102
RTVSPost2010PropOp40
 70
     1
102
RTVSPost2010Prop41ColorIndex
 90
       18
102
RTVSPost2010Prop41ColorRGB
 90
        0
102
RTVSPost2010PropOp41
 70
     1
102
RTVSPost2010Prop42
 90
       50
102
RTVSPost2010PropOp42
 70
     1
102
RTVSPost2010Prop43
 90
        3
102
RTVSPost2010PropOp43
 70
     1
102
RTVSPost2010Prop44ColorIndex
 90
        5
102
RTVSPost2010Prop44ColorRGB
 90
      255
102
RTVSPost2010PropOp44
 70
     1
102
RTVSPost2010Prop45
280
     0
102
RTVSPost2010PropOp45
 70
     1
102
RTVSPost2010Prop46
 90
       50
102
RTVSPost2010PropOp46
 70
     1
102
RTVSPost2010Prop47
 90
       50
102
RTVSPost2010PropOp47
 70
     1
102
RTVSPost2010Prop48
 90
       50
102
RTVSPost2010PropOp48
 70
     1
102
RTVSPost2010Prop49
280
     0
102
RTVSPost2010PropOp49
 70
     1
102
RTVSPost2010Prop50
 90
       50
102
RTVSPost2010PropOp50
 70
     1
102
RTVSPost2010Prop51ColorIndex
 90
      256
102
RTVSPost2010Prop51ColorRGB
 90
-16777216
102
RTVSPost2010PropOp51
 70
     0
102
RTVSPost2010Prop52
140
1.0
102
RTVSPost2010PropOp52
 70
     0
102
RTVSPost2010Prop53
 90
        2
102
RTVSPost2010PropOp53
 70
     1
102
RTVSPost2010Prop54
  1
strokes_ogs.tif
102
RTVSPost2010PropOp54
 70
     1
102
RTVSPost2010Prop55
280
     0
102
RTVSPost2010PropOp55
 70
     1
102
RTVSPost2010Prop56
140
1.0
102
RTVSPost2010PropOp56
 70
     1
102
RTVSPost2010Prop57
140
1.0
102
RTVSPost2010PropOp57
 70
     1
102
RTVSPropertyOp0
 70
     1
102
RTVSPropertyOp1
 70
     1
102
RTVSPropertyOp2
 70
     1
102
RTVSPropertyOp3
 70
     1
102
RTVSPropertyOp4
 70
     1
102
RTVSPropertyOp5
 70
     1
102
RTVSPropertyOp6
 70
     1
102
RTVSPropertyOp7
 70
     1
102
RTVSPropertyOp8
 70
     1
102
RTVSPropertyOp9
 70
     1
102
RTVSPropertyOp10
 70
     1
102
RTVSPropertyOp11
 70
     1
102
RTVSPropertyOp12
 70
     1
102
RTVSPropertyOp13
 70
     1
102
RTVSPropertyOp14
 70
     1
102
RTVSPropertyOp15
 70
     1
102
RTVSPropertyOp16
 70
     1
102
RTVSPropertyOp17
 70
     1
102
RTVSPropertyOp18
 70
     1
102
RTVSPropertyOp19
 70
     1
102
RTVSPropertyOp20
 70
     1
102
RTVSPropertyOp21
 70
     1
102
RTVSPropertyOp22
 70
     1
102
RTVSPropertyOp23
 70
     1
102
RTVSPropertyOp24
 70
     1
102
RTVSPropertyOp25
 70
     1
102
RTVSPropertyOp26
 70
     1
102
RTVSPropertyOp27
 70
     1
102
RTVSPropertyOp28
 70
     1
102
RTVSPropertyOp29
 70
     1
102
RTVSPropertyOp30
 70
     1
102
RTVSPropertyOp31
 70
     1
102
RTVSPropertyOp32
 70
     1
102
RTVSPropertyOp33
 70
     1
102
RTVSPropertyOp34
 70
     1
102
RTVSPropertyOp35
 70
     1
102
RTVSPropertyOp36
 70
     1
102
RTVSPropertyOp37
 70
     1
102
RTVSPropertyOp38
 70
     1
102
RTVSPropertyOp39
 70
     1
102
RTVSPropertyOp40
 70
     1
102
RTVSPropertyOp41
 70
     1
102
RTVSPropertyOp42
 70
     1
102
RTVSPropertyOp43
 70
     1
102
RTVSPropertyOp44
 70
     1
102
RTVSPropertyOp45
 70
     1
102
RTVSPropertyOp46
 70
     1
102
RTVSPropertyOp47
 70
     1
102
RTVSPropertyOp48
 70
     1
102
RTVSPropertyOp49
 70
     1
102
RTVSPropertyOp50
 70
     1
102
RTVSPropertyOp51
 70
     0
102
RTVSPropertyOp52
 70
     0
102
RTVSPropertyOp53
 70
     1
102
RTVSPropertyOp54
 70
     1
102
RTVSPropertyOp55
 70
     1
102
RTVSPropertyOp56
 70
     1
102
RTVSPropertyOp57
 70
     1
102
RTVSPropertyOp58
 70
     1
102
RTVSPropertyOp59
 70
     1
102
RTVSPropertyOp60
 70
     1
102
RTVSPropertyOp61
 70
     1
102
RTVSPropertyOp62
 70
     1
  0
XRECORD
  5
566
102
{ACAD_REACTORS
330
565
102
}
330
565
100
AcDbXrecord
280
     1
102
RTVSPost2010Prop28
280
     0
102
RTVSPost2010PropOp28
 70
     1
102
RTVSPost2010Prop29
280
     1
102
RTVSPost2010PropOp29
 70
     1
102
RTVSPost2010Prop30
280
     1
102
RTVSPost2010PropOp30
 70
     1
102
RTVSPost2010Prop31
280
     0
102
RTVSPost2010PropOp31
 70
     1
102
RTVSPost2010Prop32
280
     0
102
RTVSPost2010PropOp32
 70
     1
102
RTVSPost2010Prop33
280
     0
102
RTVSPost2010PropOp33
 70
     1
102
RTVSPost2010Prop34
280
     0
102
RTVSPost2010PropOp34
 70
     1
102
RTVSPost2010Prop35
280
     0
102
RTVSPost2010PropOp35
 70
     1
102
RTVSPost2010Prop36
280
     0
102
RTVSPost2010PropOp36
 70
     1
102
RTVSPost2010Prop37
 90
       50
102
RTVSPost2010PropOp37
 70
     1
102
RTVSPost2010Prop38
140
0.0
102
RTVSPost2010PropOp38
 70
     1
102
RTVSPost2010Prop39
140
1.0
102
RTVSPost2010PropOp39
 70
     1
102
RTVSPost2010Prop40
 90
        0
102
RTVSPost2010PropOp40
 70
     1
102
RTVSPost2010Prop41ColorIndex
 90
       18
102
RTVSPost2010Prop41ColorRGB
 90
        0
102
RTVSPost2010PropOp41
 70
     1
102
RTVSPost2010Prop42
 90
       50
102
RTVSPost2010PropOp42
 70
     1
102
RTVSPost2010Prop43
 90
        3
102
RTVSPost2010PropOp43
 70
     1
102
RTVSPost2010Prop44ColorIndex
 90
        5
102
RTVSPost2010Prop44ColorRGB
 90
      255
102
RTVSPost2010PropOp44
 70
     1
102
RTVSPost2010Prop45
280
     0
102
RTVSPost2010PropOp45
 70
     1
102
RTVSPost2010Prop46
 90
       50
102
RTVSPost2010PropOp46
 70
     1
102
RTVSPost2010Prop47
 90
       50
102
RTVSPost2010PropOp47
 70
     1
102
RTVSPost2010Prop48
 90
       50
102
RTVSPost2010PropOp48
 70
     1
102
RTVSPost2010Prop49
280
     0
102
RTVSPost2010PropOp49
 70
     1
102
RTVSPost2010Prop50
 90
       50
102
RTVSPost2010PropOp50
 70
     1
102
RTVSPost2010Prop51ColorIndex
 90
      256
102
RTVSPost2010Prop51ColorRGB
 90
-16777216
102
RTVSPost2010PropOp51
 70
     0
102
RTVSPost2010Prop52
140
1.0
102
RTVSPost2010PropOp52
 70
     0
102
RTVSPost2010Prop53
 90
        2
102
RTVSPost2010PropOp53
 70
     1
102
RTVSPost2010Prop54
  1
strokes_ogs.tif
102
RTVSPost2010PropOp54
 70
     1
102
RTVSPost2010Prop55
280
     0
102
RTVSPost2010PropOp55
 70
     1
102
RTVSPost2010Prop56
140
1.0
102
RTVSPost2010PropOp56
 70
     1
102
RTVSPost2010Prop57
140
1.0
102
RTVSPost2010PropOp57
 70
     1
102
RTVSPropertyOp0
 70
     1
102
RTVSPropertyOp1
 70
     1
102
RTVSPropertyOp2
 70
     1
102
RTVSPropertyOp3
 70
     1
102
RTVSPropertyOp4
 70
     1
102
RTVSPropertyOp5
 70
     1
102
RTVSPropertyOp6
 70
     1
102
RTVSPropertyOp7
 70
     1
102
RTVSPropertyOp8
 70
     1
102
RTVSPropertyOp9
 70
     1
102
RTVSPropertyOp10
 70
     1
102
RTVSPropertyOp11
 70
     1
102
RTVSPropertyOp12
 70
     1
102
RTVSPropertyOp13
 70
     1
102
RTVSPropertyOp14
 70
     1
102
RTVSPropertyOp15
 70
     1
102
RTVSPropertyOp16
 70
     1
102
RTVSPropertyOp17
 70
     1
102
RTVSPropertyOp18
 70
     1
102
RTVSPropertyOp19
 70
     1
102
RTVSPropertyOp20
 70
     1
102
RTVSPropertyOp21
 70
     1
102
RTVSPropertyOp22
 70
     1
102
RTVSPropertyOp23
 70
     1
102
RTVSPropertyOp24
 70
     1
102
RTVSPropertyOp25
 70
     1
102
RTVSPropertyOp26
 70
     1
102
RTVSPropertyOp27
 70
     1
102
RTVSPropertyOp28
 70
     1
102
RTVSPropertyOp29
 70
     1
102
RTVSPropertyOp30
 70
     1
102
RTVSPropertyOp31
 70
     1
102
RTVSPropertyOp32
 70
     1
102
RTVSPropertyOp33
 70
     1
102
RTVSPropertyOp34
 70
     1
102
RTVSPropertyOp35
 70
     1
102
RTVSPropertyOp36
 70
     1
102
RTVSPropertyOp37
 70
     1
102
RTVSPropertyOp38
 70
     1
102
RTVSPropertyOp39
 70
     1
102
RTVSPropertyOp40
 70
     1
102
RTVSPropertyOp41
 70
     1
102
RTVSPropertyOp42
 70
     1
102
RTVSPropertyOp43
 70
     1
102
RTVSPropertyOp44
 70
     1
102
RTVSPropertyOp45
 70
     1
102
RTVSPropertyOp46
 70
     1
102
RTVSPropertyOp47
 70
     1
102
RTVSPropertyOp48
 70
     1
102
RTVSPropertyOp49
 70
     1
102
RTVSPropertyOp50
 70
     1
102
RTVSPropertyOp51
 70
     0
102
RTVSPropertyOp52
 70
     0
102
RTVSPropertyOp53
 70
     1
102
RTVSPropertyOp54
 70
     1
102
RTVSPropertyOp55
 70
     1
102
RTVSPropertyOp56
 70
     1
102
RTVSPropertyOp57
 70
     1
102
RTVSPropertyOp58
 70
     1
102
RTVSPropertyOp59
 70
     1
102
RTVSPropertyOp60
 70
     1
102
RTVSPropertyOp61
 70
     1
102
RTVSPropertyOp62
 70
     1
  0
XRECORD
  5
56E
102
{ACAD_REACTORS
330
56D
102
}
330
56D
100
AcDbXrecord
280
     1
102
RTVSPost2010Prop28
280
     0
102
RTVSPost2010PropOp28
 70
     1
102
RTVSPost2010Prop29
280
     1
102
RTVSPost2010PropOp29
 70
     1
102
RTVSPost2010Prop30
280
     1
102
RTVSPost2010PropOp30
 70
     1
102
RTVSPost2010Prop31
280
     0
102
RTVSPost2010PropOp31
 70
     1
102
RTVSPost2010Prop32
280
     0
102
RTVSPost2010PropOp32
 70
     1
102
RTVSPost2010Prop33
280
     0
102
RTVSPost2010PropOp33
 70
     1
102
RTVSPost2010Prop34
280
     0
102
RTVSPost2010PropOp34
 70
     1
102
RTVSPost2010Prop35
280
     0
102
RTVSPost2010PropOp35
 70
     1
102
RTVSPost2010Prop36
280
     0
102
RTVSPost2010PropOp36
 70
     1
102
RTVSPost2010Prop37
 90
       50
102
RTVSPost2010PropOp37
 70
     1
102
RTVSPost2010Prop38
140
0.0
102
RTVSPost2010PropOp38
 70
     1
102
RTVSPost2010Prop39
140
1.0
102
RTVSPost2010PropOp39
 70
     1
102
RTVSPost2010Prop40
 90
        0
102
RTVSPost2010PropOp40
 70
     1
102
RTVSPost2010Prop41ColorIndex
 90
       18
102
RTVSPost2010Prop41ColorRGB
 90
        0
102
RTVSPost2010PropOp41
 70
     1
102
RTVSPost2010Prop42
 90
       50
102
RTVSPost2010PropOp42
 70
     1
102
RTVSPost2010Prop43
 90
        3
102
RTVSPost2010PropOp43
 70
     1
102
RTVSPost2010Prop44ColorIndex
 90
        5
102
RTVSPost2010Prop44ColorRGB
 90
      255
102
RTVSPost2010PropOp44
 70
     1
102
RTVSPost2010Prop45
280
     0
102
RTVSPost2010PropOp45
 70
     1
102
RTVSPost2010Prop46
 90
       50
102
RTVSPost2010PropOp46
 70
     1
102
RTVSPost2010Prop47
 90
       50
102
RTVSPost2010PropOp47
 70
     1
102
RTVSPost2010Prop48
 90
       50
102
RTVSPost2010PropOp48
 70
     1
102
RTVSPost2010Prop49
280
     0
102
RTVSPost2010PropOp49
 70
     1
102
RTVSPost2010Prop50
 90
       50
102
RTVSPost2010PropOp50
 70
     1
102
RTVSPost2010Prop51ColorIndex
 90
      256
102
RTVSPost2010Prop51ColorRGB
 90
-16777216
102
RTVSPost2010PropOp51
 70
     0
102
RTVSPost2010Prop52
140
1.0
102
RTVSPost2010PropOp52
 70
     0
102
RTVSPost2010Prop53
 90
        2
102
RTVSPost2010PropOp53
 70
     1
102
RTVSPost2010Prop54
  1
strokes_ogs.tif
102
RTVSPost2010PropOp54
 70
     1
102
RTVSPost2010Prop55
280
     0
102
RTVSPost2010PropOp55
 70
     1
102
RTVSPost2010Prop56
140
1.0
102
RTVSPost2010PropOp56
 70
     1
102
RTVSPost2010Prop57
140
1.0
102
RTVSPost2010PropOp57
 70
     1
102
RTVSPropertyOp0
 70
     1
102
RTVSPropertyOp1
 70
     1
102
RTVSPropertyOp2
 70
     1
102
RTVSPropertyOp3
 70
     1
102
RTVSPropertyOp4
 70
     1
102
RTVSPropertyOp5
 70
     1
102
RTVSPropertyOp6
 70
     1
102
RTVSPropertyOp7
 70
     1
102
RTVSPropertyOp8
 70
     1
102
RTVSPropertyOp9
 70
     1
102
RTVSPropertyOp10
 70
     1
102
RTVSPropertyOp11
 70
     1
102
RTVSPropertyOp12
 70
     1
102
RTVSPropertyOp13
 70
     1
102
RTVSPropertyOp14
 70
     1
102
RTVSPropertyOp15
 70
     1
102
RTVSPropertyOp16
 70
     1
102
RTVSPropertyOp17
 70
     1
102
RTVSPropertyOp18
 70
     1
102
RTVSPropertyOp19
 70
     1
102
RTVSPropertyOp20
 70
     1
102
RTVSPropertyOp21
 70
     1
102
RTVSPropertyOp22
 70
     1
102
RTVSPropertyOp23
 70
     1
102
RTVSPropertyOp24
 70
     1
102
RTVSPropertyOp25
 70
     1
102
RTVSPropertyOp26
 70
     1
102
RTVSPropertyOp27
 70
     1
102
RTVSPropertyOp28
 70
     1
102
RTVSPropertyOp29
 70
     1
102
RTVSPropertyOp30
 70
     1
102
RTVSPropertyOp31
 70
     1
102
RTVSPropertyOp32
 70
     1
102
RTVSPropertyOp33
 70
     1
102
RTVSPropertyOp34
 70
     1
102
RTVSPropertyOp35
 70
     1
102
RTVSPropertyOp36
 70
     1
102
RTVSPropertyOp37
 70
     1
102
RTVSPropertyOp38
 70
     1
102
RTVSPropertyOp39
 70
     1
102
RTVSPropertyOp40
 70
     1
102
RTVSPropertyOp41
 70
     1
102
RTVSPropertyOp42
 70
     1
102
RTVSPropertyOp43
 70
     1
102
RTVSPropertyOp44
 70
     1
102
RTVSPropertyOp45
 70
     1
102
RTVSPropertyOp46
 70
     1
102
RTVSPropertyOp47
 70
     1
102
RTVSPropertyOp48
 70
     1
102
RTVSPropertyOp49
 70
     1
102
RTVSPropertyOp50
 70
     1
102
RTVSPropertyOp51
 70
     0
102
RTVSPropertyOp52
 70
     0
102
RTVSPropertyOp53
 70
     1
102
RTVSPropertyOp54
 70
     1
102
RTVSPropertyOp55
 70
     1
102
RTVSPropertyOp56
 70
     1
102
RTVSPropertyOp57
 70
     1
102
RTVSPropertyOp58
 70
     1
102
RTVSPropertyOp59
 70
     1
102
RTVSPropertyOp60
 70
     1
102
RTVSPropertyOp61
 70
     1
102
RTVSPropertyOp62
 70
     1
  0
XRECORD
  5
58A
102
{ACAD_REACTORS
330
589
102
}
330
589
100
AcDbXrecord
280
     1
102
RTVSPost2010Prop28
280
     0
102
RTVSPost2010PropOp28
 70
     1
102
RTVSPost2010Prop29
280
     1
102
RTVSPost2010PropOp29
 70
     1
102
RTVSPost2010Prop30
280
     1
102
RTVSPost2010PropOp30
 70
     1
102
RTVSPost2010Prop31
280
     0
102
RTVSPost2010PropOp31
 70
     1
102
RTVSPost2010Prop32
280
     0
102
RTVSPost2010PropOp32
 70
     1
102
RTVSPost2010Prop33
280
     0
102
RTVSPost2010PropOp33
 70
     1
102
RTVSPost2010Prop34
280
     0
102
RTVSPost2010PropOp34
 70
     1
102
RTVSPost2010Prop35
280
     0
102
RTVSPost2010PropOp35
 70
     1
102
RTVSPost2010Prop36
280
     0
102
RTVSPost2010PropOp36
 70
     1
102
RTVSPost2010Prop37
 90
       50
102
RTVSPost2010PropOp37
 70
     0
102
RTVSPost2010Prop38
140
0.0
102
RTVSPost2010PropOp38
 70
     0
102
RTVSPost2010Prop39
140
1.0
102
RTVSPost2010PropOp39
 70
     0
102
RTVSPost2010Prop40
 90
        0
102
RTVSPost2010PropOp40
 70
     0
102
RTVSPost2010Prop41ColorIndex
 90
       18
102
RTVSPost2010Prop41ColorRGB
 90
        0
102
RTVSPost2010PropOp41
 70
     0
102
RTVSPost2010Prop42
 90
       50
102
RTVSPost2010PropOp42
 70
     0
102
RTVSPost2010Prop43
 90
        3
102
RTVSPost2010PropOp43
 70
     0
102
RTVSPost2010Prop44ColorIndex
 90
        5
102
RTVSPost2010Prop44ColorRGB
 90
      255
102
RTVSPost2010PropOp44
 70
     0
102
RTVSPost2010Prop45
280
     0
102
RTVSPost2010PropOp45
 70
     1
102
RTVSPost2010Prop46
 90
       50
102
RTVSPost2010PropOp46
 70
     0
102
RTVSPost2010Prop47
 90
       50
102
RTVSPost2010PropOp47
 70
     0
102
RTVSPost2010Prop48
 90
       50
102
RTVSPost2010PropOp48
 70
     0
102
RTVSPost2010Prop49
280
     0
102
RTVSPost2010PropOp49
 70
     1
102
RTVSPost2010Prop50
 90
       50
102
RTVSPost2010PropOp50
 70
     0
102
RTVSPost2010Prop51ColorIndex
 90
      256
102
RTVSPost2010Prop51ColorRGB
 90
-16777216
102
RTVSPost2010PropOp51
 70
     0
102
RTVSPost2010Prop52
140
1.0
102
RTVSPost2010PropOp52
 70
     0
102
RTVSPost2010Prop53
 90
        2
102
RTVSPost2010PropOp53
 70
     0
102
RTVSPost2010Prop54
  1
strokes_ogs.tif
102
RTVSPost2010PropOp54
 70
     0
102
RTVSPost2010Prop55
280
     0
102
RTVSPost2010PropOp55
 70
     1
102
RTVSPost2010Prop56
140
1.0
102
RTVSPost2010PropOp56
 70
     0
102
RTVSPost2010Prop57
140
1.0
102
RTVSPost2010PropOp57
 70
     0
102
RTVSPropertyOp0
 70
     0
102
RTVSPropertyOp1
 70
     0
102
RTVSPropertyOp2
 70
     0
102
RTVSPropertyOp3
 70
     0
102
RTVSPropertyOp4
 70
     0
102
RTVSPropertyOp5
 70
     0
102
RTVSPropertyOp6
 70
     0
102
RTVSPropertyOp7
 70
     0
102
RTVSPropertyOp8
 70
     0
102
RTVSPropertyOp9
 70
     0
102
RTVSPropertyOp10
 70
     0
102
RTVSPropertyOp11
 70
     0
102
RTVSPropertyOp12
 70
     0
102
RTVSPropertyOp13
 70
     0
102
RTVSPropertyOp14
 70
     2
102
RTVSPropertyOp15
 70
     0
102
RTVSPropertyOp16
 70
     0
102
RTVSPropertyOp17
 70
     0
102
RTVSPropertyOp18
 70
     0
102
RTVSPropertyOp19
 70
     0
102
RTVSPropertyOp20
 70
     0
102
RTVSPropertyOp21
 70
     0
102
RTVSPropertyOp22
 70
     0
102
RTVSPropertyOp23
 70
     0
102
RTVSPropertyOp24
 70
     0
102
RTVSPropertyOp25
 70
     0
102
RTVSPropertyOp26
 70
     0
102
RTVSPropertyOp27
 70
     0
102
RTVSPropertyOp28
 70
     1
102
RTVSPropertyOp29
 70
     1
102
RTVSPropertyOp30
 70
     1
102
RTVSPropertyOp31
 70
     1
102
RTVSPropertyOp32
 70
     1
102
RTVSPropertyOp33
 70
     1
102
RTVSPropertyOp34
 70
     1
102
RTVSPropertyOp35
 70
     1
102
RTVSPropertyOp36
 70
     1
102
RTVSPropertyOp37
 70
     0
102
RTVSPropertyOp38
 70
     0
102
RTVSPropertyOp39
 70
     0
102
RTVSPropertyOp40
 70
     0
102
RTVSPropertyOp41
 70
     0
102
RTVSPropertyOp42
 70
     0
102
RTVSPropertyOp43
 70
     0
102
RTVSPropertyOp44
 70
     0
102
RTVSPropertyOp45
 70
     1
102
RTVSPropertyOp46
 70
     0
102
RTVSPropertyOp47
 70
     0
102
RTVSPropertyOp48
 70
     0
102
RTVSPropertyOp49
 70
     1
102
RTVSPropertyOp50
 70
     0
102
RTVSPropertyOp51
 70
     0
102
RTVSPropertyOp52
 70
     0
102
RTVSPropertyOp53
 70
     0
102
RTVSPropertyOp54
 70
     0
102
RTVSPropertyOp55
 70
     1
102
RTVSPropertyOp56
 70
     0
102
RTVSPropertyOp57
 70
     0
102
RTVSPropertyOp58
 70
     0
102
RTVSPropertyOp59
 70
     0
102
RTVSPropertyOp60
 70
     0
102
RTVSPropertyOp61
 70
     0
102
RTVSPropertyOp62
 70
     0
  0
XRECORD
  5
57A
102
{ACAD_REACTORS
330
579
102
}
330
579
100
AcDbXrecord
280
     1
102
RTVSPost2010Prop28
280
     0
102
RTVSPost2010PropOp28
 70
     1
102
RTVSPost2010Prop29
280
     1
102
RTVSPost2010PropOp29
 70
     1
102
RTVSPost2010Prop30
280
     1
102
RTVSPost2010PropOp30
 70
     1
102
RTVSPost2010Prop31
280
     0
102
RTVSPost2010PropOp31
 70
     1
102
RTVSPost2010Prop32
280
     0
102
RTVSPost2010PropOp32
 70
     1
102
RTVSPost2010Prop33
280
     0
102
RTVSPost2010PropOp33
 70
     1
102
RTVSPost2010Prop34
280
     0
102
RTVSPost2010PropOp34
 70
     1
102
RTVSPost2010Prop35
280
     0
102
RTVSPost2010PropOp35
 70
     1
102
RTVSPost2010Prop36
280
     0
102
RTVSPost2010PropOp36
 70
     1
102
RTVSPost2010Prop37
 90
       50
102
RTVSPost2010PropOp37
 70
     1
102
RTVSPost2010Prop38
140
0.0
102
RTVSPost2010PropOp38
 70
     1
102
RTVSPost2010Prop39
140
1.0
102
RTVSPost2010PropOp39
 70
     1
102
RTVSPost2010Prop40
 90
        0
102
RTVSPost2010PropOp40
 70
     1
102
RTVSPost2010Prop41ColorIndex
 90
       18
102
RTVSPost2010Prop41ColorRGB
 90
        0
102
RTVSPost2010PropOp41
 70
     1
102
RTVSPost2010Prop42
 90
       50
102
RTVSPost2010PropOp42
 70
     1
102
RTVSPost2010Prop43
 90
        3
102
RTVSPost2010PropOp43
 70
     1
102
RTVSPost2010Prop44ColorIndex
 90
        5
102
RTVSPost2010Prop44ColorRGB
 90
      255
102
RTVSPost2010PropOp44
 70
     1
102
RTVSPost2010Prop45
280
     0
102
RTVSPost2010PropOp45
 70
     1
102
RTVSPost2010Prop46
 90
       50
102
RTVSPost2010PropOp46
 70
     1
102
RTVSPost2010Prop47
 90
       50
102
RTVSPost2010PropOp47
 70
     1
102
RTVSPost2010Prop48
 90
       50
102
RTVSPost2010PropOp48
 70
     1
102
RTVSPost2010Prop49
280
     0
102
RTVSPost2010PropOp49
 70
     1
102
RTVSPost2010Prop50
 90
       50
102
RTVSPost2010PropOp50
 70
     1
102
RTVSPost2010Prop51ColorIndex
 90
      256
102
RTVSPost2010Prop51ColorRGB
 90
-16777216
102
RTVSPost2010PropOp51
 70
     0
102
RTVSPost2010Prop52
140
1.0
102
RTVSPost2010PropOp52
 70
     0
102
RTVSPost2010Prop53
 90
        2
102
RTVSPost2010PropOp53
 70
     1
102
RTVSPost2010Prop54
  1
strokes_ogs.tif
102
RTVSPost2010PropOp54
 70
     1
102
RTVSPost2010Prop55
280
     0
102
RTVSPost2010PropOp55
 70
     1
102
RTVSPost2010Prop56
140
1.0
102
RTVSPost2010PropOp56
 70
     1
102
RTVSPost2010Prop57
140
1.0
102
RTVSPost2010PropOp57
 70
     1
102
RTVSPropertyOp0
 70
     1
102
RTVSPropertyOp1
 70
     1
102
RTVSPropertyOp2
 70
     1
102
RTVSPropertyOp3
 70
     1
102
RTVSPropertyOp4
 70
     1
102
RTVSPropertyOp5
 70
     1
102
RTVSPropertyOp6
 70
     1
102
RTVSPropertyOp7
 70
     1
102
RTVSPropertyOp8
 70
     1
102
RTVSPropertyOp9
 70
     1
102
RTVSPropertyOp10
 70
     1
102
RTVSPropertyOp11
 70
     1
102
RTVSPropertyOp12
 70
     1
102
RTVSPropertyOp13
 70
     1
102
RTVSPropertyOp14
 70
     1
102
RTVSPropertyOp15
 70
     1
102
RTVSPropertyOp16
 70
     1
102
RTVSPropertyOp17
 70
     1
102
RTVSPropertyOp18
 70
     1
102
RTVSPropertyOp19
 70
     1
102
RTVSPropertyOp20
 70
     1
102
RTVSPropertyOp21
 70
     1
102
RTVSPropertyOp22
 70
     1
102
RTVSPropertyOp23
 70
     1
102
RTVSPropertyOp24
 70
     1
102
RTVSPropertyOp25
 70
     1
102
RTVSPropertyOp26
 70
     1
102
RTVSPropertyOp27
 70
     1
102
RTVSPropertyOp28
 70
     1
102
RTVSPropertyOp29
 70
     1
102
RTVSPropertyOp30
 70
     1
102
RTVSPropertyOp31
 70
     1
102
RTVSPropertyOp32
 70
     1
102
RTVSPropertyOp33
 70
     1
102
RTVSPropertyOp34
 70
     1
102
RTVSPropertyOp35
 70
     1
102
RTVSPropertyOp36
 70
     1
102
RTVSPropertyOp37
 70
     1
102
RTVSPropertyOp38
 70
     1
102
RTVSPropertyOp39
 70
     1
102
RTVSPropertyOp40
 70
     1
102
RTVSPropertyOp41
 70
     1
102
RTVSPropertyOp42
 70
     1
102
RTVSPropertyOp43
 70
     1
102
RTVSPropertyOp44
 70
     1
102
RTVSPropertyOp45
 70
     1
102
RTVSPropertyOp46
 70
     1
102
RTVSPropertyOp47
 70
     1
102
RTVSPropertyOp48
 70
     1
102
RTVSPropertyOp49
 70
     1
102
RTVSPropertyOp50
 70
     1
102
RTVSPropertyOp51
 70
     0
102
RTVSPropertyOp52
 70
     0
102
RTVSPropertyOp53
 70
     1
102
RTVSPropertyOp54
 70
     1
102
RTVSPropertyOp55
 70
     1
102
RTVSPropertyOp56
 70
     1
102
RTVSPropertyOp57
 70
     1
102
RTVSPropertyOp58
 70
     1
102
RTVSPropertyOp59
 70
     1
102
RTVSPropertyOp60
 70
     1
102
RTVSPropertyOp61
 70
     1
102
RTVSPropertyOp62
 70
     1
  0
XRECORD
  5
58C
102
{ACAD_REACTORS
330
58B
102
}
330
58B
100
AcDbXrecord
280
     1
102
RTVSPost2010Prop28
280
     0
102
RTVSPost2010PropOp28
 70
     1
102
RTVSPost2010Prop29
280
     1
102
RTVSPost2010PropOp29
 70
     1
102
RTVSPost2010Prop30
280
     1
102
RTVSPost2010PropOp30
 70
     1
102
RTVSPost2010Prop31
280
     0
102
RTVSPost2010PropOp31
 70
     1
102
RTVSPost2010Prop32
280
     0
102
RTVSPost2010PropOp32
 70
     1
102
RTVSPost2010Prop33
280
     0
102
RTVSPost2010PropOp33
 70
     1
102
RTVSPost2010Prop34
280
     0
102
RTVSPost2010PropOp34
 70
     1
102
RTVSPost2010Prop35
280
     0
102
RTVSPost2010PropOp35
 70
     1
102
RTVSPost2010Prop36
280
     0
102
RTVSPost2010PropOp36
 70
     1
102
RTVSPost2010Prop37
 90
       50
102
RTVSPost2010PropOp37
 70
     0
102
RTVSPost2010Prop38
140
0.0
102
RTVSPost2010PropOp38
 70
     0
102
RTVSPost2010Prop39
140
1.0
102
RTVSPost2010PropOp39
 70
     0
102
RTVSPost2010Prop40
 90
        0
102
RTVSPost2010PropOp40
 70
     0
102
RTVSPost2010Prop41ColorIndex
 90
       18
102
RTVSPost2010Prop41ColorRGB
 90
        0
102
RTVSPost2010PropOp41
 70
     0
102
RTVSPost2010Prop42
 90
       50
102
RTVSPost2010PropOp42
 70
     0
102
RTVSPost2010Prop43
 90
        3
102
RTVSPost2010PropOp43
 70
     0
102
RTVSPost2010Prop44ColorIndex
 90
        5
102
RTVSPost2010Prop44ColorRGB
 90
      255
102
RTVSPost2010PropOp44
 70
     0
102
RTVSPost2010Prop45
280
     0
102
RTVSPost2010PropOp45
 70
     1
102
RTVSPost2010Prop46
 90
       50
102
RTVSPost2010PropOp46
 70
     0
102
RTVSPost2010Prop47
 90
       50
102
RTVSPost2010PropOp47
 70
     0
102
RTVSPost2010Prop48
 90
       50
102
RTVSPost2010PropOp48
 70
     0
102
RTVSPost2010Prop49
280
     0
102
RTVSPost2010PropOp49
 70
     1
102
RTVSPost2010Prop50
 90
       50
102
RTVSPost2010PropOp50
 70
     0
102
RTVSPost2010Prop51ColorIndex
 90
      256
102
RTVSPost2010Prop51ColorRGB
 90
-16777216
102
RTVSPost2010PropOp51
 70
     0
102
RTVSPost2010Prop52
140
1.0
102
RTVSPost2010PropOp52
 70
     0
102
RTVSPost2010Prop53
 90
        2
102
RTVSPost2010PropOp53
 70
     0
102
RTVSPost2010Prop54
  1
strokes_ogs.tif
102
RTVSPost2010PropOp54
 70
     0
102
RTVSPost2010Prop55
280
     0
102
RTVSPost2010PropOp55
 70
     1
102
RTVSPost2010Prop56
140
1.0
102
RTVSPost2010PropOp56
 70
     0
102
RTVSPost2010Prop57
140
1.0
102
RTVSPost2010PropOp57
 70
     0
102
RTVSPropertyOp0
 70
     0
102
RTVSPropertyOp1
 70
     0
102
RTVSPropertyOp2
 70
     0
102
RTVSPropertyOp3
 70
     0
102
RTVSPropertyOp4
 70
     0
102
RTVSPropertyOp5
 70
     0
102
RTVSPropertyOp6
 70
     0
102
RTVSPropertyOp7
 70
     0
102
RTVSPropertyOp8
 70
     0
102
RTVSPropertyOp9
 70
     0
102
RTVSPropertyOp10
 70
     0
102
RTVSPropertyOp11
 70
     0
102
RTVSPropertyOp12
 70
     0
102
RTVSPropertyOp13
 70
     0
102
RTVSPropertyOp14
 70
     2
102
RTVSPropertyOp15
 70
     0
102
RTVSPropertyOp16
 70
     0
102
RTVSPropertyOp17
 70
     0
102
RTVSPropertyOp18
 70
     0
102
RTVSPropertyOp19
 70
     0
102
RTVSPropertyOp20
 70
     0
102
RTVSPropertyOp21
 70
     0
102
RTVSPropertyOp22
 70
     0
102
RTVSPropertyOp23
 70
     0
102
RTVSPropertyOp24
 70
     0
102
RTVSPropertyOp25
 70
     0
102
RTVSPropertyOp26
 70
     0
102
RTVSPropertyOp27
 70
     0
102
RTVSPropertyOp28
 70
     1
102
RTVSPropertyOp29
 70
     1
102
RTVSPropertyOp30
 70
     1
102
RTVSPropertyOp31
 70
     1
102
RTVSPropertyOp32
 70
     1
102
RTVSPropertyOp33
 70
     1
102
RTVSPropertyOp34
 70
     1
102
RTVSPropertyOp35
 70
     1
102
RTVSPropertyOp36
 70
     1
102
RTVSPropertyOp37
 70
     0
102
RTVSPropertyOp38
 70
     0
102
RTVSPropertyOp39
 70
     0
102
RTVSPropertyOp40
 70
     0
102
RTVSPropertyOp41
 70
     0
102
RTVSPropertyOp42
 70
     0
102
RTVSPropertyOp43
 70
     0
102
RTVSPropertyOp44
 70
     0
102
RTVSPropertyOp45
 70
     1
102
RTVSPropertyOp46
 70
     0
102
RTVSPropertyOp47
 70
     0
102
RTVSPropertyOp48
 70
     0
102
RTVSPropertyOp49
 70
     1
102
RTVSPropertyOp50
 70
     0
102
RTVSPropertyOp51
 70
     0
102
RTVSPropertyOp52
 70
     0
102
RTVSPropertyOp53
 70
     0
102
RTVSPropertyOp54
 70
     0
102
RTVSPropertyOp55
 70
     1
102
RTVSPropertyOp56
 70
     0
102
RTVSPropertyOp57
 70
     0
102
RTVSPropertyOp58
 70
     0
102
RTVSPropertyOp59
 70
     0
102
RTVSPropertyOp60
 70
     0
102
RTVSPropertyOp61
 70
     0
102
RTVSPropertyOp62
 70
     0
  0
XRECORD
  5
572
102
{ACAD_REACTORS
330
571
102
}
330
571
100
AcDbXrecord
280
     1
102
RTVSPost2010Prop28
280
     0
102
RTVSPost2010PropOp28
 70
     1
102
RTVSPost2010Prop29
280
     1
102
RTVSPost2010PropOp29
 70
     1
102
RTVSPost2010Prop30
280
     1
102
RTVSPost2010PropOp30
 70
     1
102
RTVSPost2010Prop31
280
     0
102
RTVSPost2010PropOp31
 70
     1
102
RTVSPost2010Prop32
280
     0
102
RTVSPost2010PropOp32
 70
     1
102
RTVSPost2010Prop33
280
     0
102
RTVSPost2010PropOp33
 70
     1
102
RTVSPost2010Prop34
280
     0
102
RTVSPost2010PropOp34
 70
     1
102
RTVSPost2010Prop35
280
     0
102
RTVSPost2010PropOp35
 70
     1
102
RTVSPost2010Prop36
280
     0
102
RTVSPost2010PropOp36
 70
     1
102
RTVSPost2010Prop37
 90
       50
102
RTVSPost2010PropOp37
 70
     1
102
RTVSPost2010Prop38
140
0.0
102
RTVSPost2010PropOp38
 70
     1
102
RTVSPost2010Prop39
140
1.0
102
RTVSPost2010PropOp39
 70
     1
102
RTVSPost2010Prop40
 90
        0
102
RTVSPost2010PropOp40
 70
     1
102
RTVSPost2010Prop41ColorIndex
 90
       18
102
RTVSPost2010Prop41ColorRGB
 90
        0
102
RTVSPost2010PropOp41
 70
     1
102
RTVSPost2010Prop42
 90
       50
102
RTVSPost2010PropOp42
 70
     1
102
RTVSPost2010Prop43
 90
        3
102
RTVSPost2010PropOp43
 70
     1
102
RTVSPost2010Prop44ColorIndex
 90
        5
102
RTVSPost2010Prop44ColorRGB
 90
      255
102
RTVSPost2010PropOp44
 70
     1
102
RTVSPost2010Prop45
280
     0
102
RTVSPost2010PropOp45
 70
     1
102
RTVSPost2010Prop46
 90
       50
102
RTVSPost2010PropOp46
 70
     1
102
RTVSPost2010Prop47
 90
       50
102
RTVSPost2010PropOp47
 70
     1
102
RTVSPost2010Prop48
 90
       50
102
RTVSPost2010PropOp48
 70
     1
102
RTVSPost2010Prop49
280
     0
102
RTVSPost2010PropOp49
 70
     1
102
RTVSPost2010Prop50
 90
       50
102
RTVSPost2010PropOp50
 70
     1
102
RTVSPost2010Prop51ColorIndex
 90
      256
102
RTVSPost2010Prop51ColorRGB
 90
-16777216
102
RTVSPost2010PropOp51
 70
     0
102
RTVSPost2010Prop52
140
1.0
102
RTVSPost2010PropOp52
 70
     0
102
RTVSPost2010Prop53
 90
        2
102
RTVSPost2010PropOp53
 70
     1
102
RTVSPost2010Prop54
  1
strokes_ogs.tif
102
RTVSPost2010PropOp54
 70
     1
102
RTVSPost2010Prop55
280
     0
102
RTVSPost2010PropOp55
 70
     1
102
RTVSPost2010Prop56
140
1.0
102
RTVSPost2010PropOp56
 70
     1
102
RTVSPost2010Prop57
140
1.0
102
RTVSPost2010PropOp57
 70
     1
102
RTVSPropertyOp0
 70
     1
102
RTVSPropertyOp1
 70
     1
102
RTVSPropertyOp2
 70
     1
102
RTVSPropertyOp3
 70
     1
102
RTVSPropertyOp4
 70
     1
102
RTVSPropertyOp5
 70
     1
102
RTVSPropertyOp6
 70
     1
102
RTVSPropertyOp7
 70
     1
102
RTVSPropertyOp8
 70
     1
102
RTVSPropertyOp9
 70
     1
102
RTVSPropertyOp10
 70
     1
102
RTVSPropertyOp11
 70
     1
102
RTVSPropertyOp12
 70
     1
102
RTVSPropertyOp13
 70
     1
102
RTVSPropertyOp14
 70
     1
102
RTVSPropertyOp15
 70
     1
102
RTVSPropertyOp16
 70
     1
102
RTVSPropertyOp17
 70
     1
102
RTVSPropertyOp18
 70
     1
102
RTVSPropertyOp19
 70
     1
102
RTVSPropertyOp20
 70
     1
102
RTVSPropertyOp21
 70
     1
102
RTVSPropertyOp22
 70
     1
102
RTVSPropertyOp23
 70
     1
102
RTVSPropertyOp24
 70
     1
102
RTVSPropertyOp25
 70
     1
102
RTVSPropertyOp26
 70
     1
102
RTVSPropertyOp27
 70
     1
102
RTVSPropertyOp28
 70
     1
102
RTVSPropertyOp29
 70
     1
102
RTVSPropertyOp30
 70
     1
102
RTVSPropertyOp31
 70
     1
102
RTVSPropertyOp32
 70
     1
102
RTVSPropertyOp33
 70
     1
102
RTVSPropertyOp34
 70
     1
102
RTVSPropertyOp35
 70
     1
102
RTVSPropertyOp36
 70
     1
102
RTVSPropertyOp37
 70
     1
102
RTVSPropertyOp38
 70
     1
102
RTVSPropertyOp39
 70
     1
102
RTVSPropertyOp40
 70
     1
102
RTVSPropertyOp41
 70
     1
102
RTVSPropertyOp42
 70
     1
102
RTVSPropertyOp43
 70
     1
102
RTVSPropertyOp44
 70
     1
102
RTVSPropertyOp45
 70
     1
102
RTVSPropertyOp46
 70
     1
102
RTVSPropertyOp47
 70
     1
102
RTVSPropertyOp48
 70
     1
102
RTVSPropertyOp49
 70
     1
102
RTVSPropertyOp50
 70
     1
102
RTVSPropertyOp51
 70
     0
102
RTVSPropertyOp52
 70
     0
102
RTVSPropertyOp53
 70
     1
102
RTVSPropertyOp54
 70
     1
102
RTVSPropertyOp55
 70
     1
102
RTVSPropertyOp56
 70
     1
102
RTVSPropertyOp57
 70
     1
102
RTVSPropertyOp58
 70
     1
102
RTVSPropertyOp59
 70
     1
102
RTVSPropertyOp60
 70
     1
102
RTVSPropertyOp61
 70
     1
102
RTVSPropertyOp62
 70
     1
  0
XRECORD
  5
588
102
{ACAD_REACTORS
330
587
102
}
330
587
100
AcDbXrecord
280
     1
102
RTVSPost2010Prop28
280
     0
102
RTVSPost2010PropOp28
 70
     1
102
RTVSPost2010Prop29
280
     1
102
RTVSPost2010PropOp29
 70
     1
102
RTVSPost2010Prop30
280
     1
102
RTVSPost2010PropOp30
 70
     1
102
RTVSPost2010Prop31
280
     0
102
RTVSPost2010PropOp31
 70
     1
102
RTVSPost2010Prop32
280
     0
102
RTVSPost2010PropOp32
 70
     1
102
RTVSPost2010Prop33
280
     0
102
RTVSPost2010PropOp33
 70
     1
102
RTVSPost2010Prop34
280
     0
102
RTVSPost2010PropOp34
 70
     1
102
RTVSPost2010Prop35
280
     0
102
RTVSPost2010PropOp35
 70
     1
102
RTVSPost2010Prop36
280
     0
102
RTVSPost2010PropOp36
 70
     1
102
RTVSPost2010Prop37
 90
       50
102
RTVSPost2010PropOp37
 70
     1
102
RTVSPost2010Prop38
140
0.0
102
RTVSPost2010PropOp38
 70
     1
102
RTVSPost2010Prop39
140
1.0
102
RTVSPost2010PropOp39
 70
     1
102
RTVSPost2010Prop40
 90
        0
102
RTVSPost2010PropOp40
 70
     1
102
RTVSPost2010Prop41ColorIndex
 90
       18
102
RTVSPost2010Prop41ColorRGB
 90
        0
102
RTVSPost2010PropOp41
 70
     1
102
RTVSPost2010Prop42
 90
       50
102
RTVSPost2010PropOp42
 70
     1
102
RTVSPost2010Prop43
 90
        3
102
RTVSPost2010PropOp43
 70
     1
102
RTVSPost2010Prop44ColorIndex
 90
        5
102
RTVSPost2010Prop44ColorRGB
 90
      255
102
RTVSPost2010PropOp44
 70
     1
102
RTVSPost2010Prop45
280
     0
102
RTVSPost2010PropOp45
 70
     1
102
RTVSPost2010Prop46
 90
       50
102
RTVSPost2010PropOp46
 70
     1
102
RTVSPost2010Prop47
 90
       50
102
RTVSPost2010PropOp47
 70
     1
102
RTVSPost2010Prop48
 90
       50
102
RTVSPost2010PropOp48
 70
     1
102
RTVSPost2010Prop49
280
     0
102
RTVSPost2010PropOp49
 70
     1
102
RTVSPost2010Prop50
 90
       50
102
RTVSPost2010PropOp50
 70
     1
102
RTVSPost2010Prop51ColorIndex
 90
      256
102
RTVSPost2010Prop51ColorRGB
 90
-16777216
102
RTVSPost2010PropOp51
 70
     0
102
RTVSPost2010Prop52
140
1.0
102
RTVSPost2010PropOp52
 70
     0
102
RTVSPost2010Prop53
 90
        2
102
RTVSPost2010PropOp53
 70
     1
102
RTVSPost2010Prop54
  1
strokes_ogs.tif
102
RTVSPost2010PropOp54
 70
     1
102
RTVSPost2010Prop55
280
     0
102
RTVSPost2010PropOp55
 70
     1
102
RTVSPost2010Prop56
140
1.0
102
RTVSPost2010PropOp56
 70
     1
102
RTVSPost2010Prop57
140
1.0
102
RTVSPost2010PropOp57
 70
     1
102
RTVSPropertyOp0
 70
     1
102
RTVSPropertyOp1
 70
     1
102
RTVSPropertyOp2
 70
     1
102
RTVSPropertyOp3
 70
     1
102
RTVSPropertyOp4
 70
     1
102
RTVSPropertyOp5
 70
     1
102
RTVSPropertyOp6
 70
     1
102
RTVSPropertyOp7
 70
     1
102
RTVSPropertyOp8
 70
     1
102
RTVSPropertyOp9
 70
     1
102
RTVSPropertyOp10
 70
     1
102
RTVSPropertyOp11
 70
     1
102
RTVSPropertyOp12
 70
     1
102
RTVSPropertyOp13
 70
     1
102
RTVSPropertyOp14
 70
     1
102
RTVSPropertyOp15
 70
     1
102
RTVSPropertyOp16
 70
     1
102
RTVSPropertyOp17
 70
     1
102
RTVSPropertyOp18
 70
     1
102
RTVSPropertyOp19
 70
     1
102
RTVSPropertyOp20
 70
     1
102
RTVSPropertyOp21
 70
     1
102
RTVSPropertyOp22
 70
     1
102
RTVSPropertyOp23
 70
     1
102
RTVSPropertyOp24
 70
     1
102
RTVSPropertyOp25
 70
     1
102
RTVSPropertyOp26
 70
     1
102
RTVSPropertyOp27
 70
     1
102
RTVSPropertyOp28
 70
     1
102
RTVSPropertyOp29
 70
     1
102
RTVSPropertyOp30
 70
     1
102
RTVSPropertyOp31
 70
     1
102
RTVSPropertyOp32
 70
     1
102
RTVSPropertyOp33
 70
     1
102
RTVSPropertyOp34
 70
     1
102
RTVSPropertyOp35
 70
     1
102
RTVSPropertyOp36
 70
     1
102
RTVSPropertyOp37
 70
     1
102
RTVSPropertyOp38
 70
     1
102
RTVSPropertyOp39
 70
     1
102
RTVSPropertyOp40
 70
     1
102
RTVSPropertyOp41
 70
     1
102
RTVSPropertyOp42
 70
     1
102
RTVSPropertyOp43
 70
     1
102
RTVSPropertyOp44
 70
     1
102
RTVSPropertyOp45
 70
     1
102
RTVSPropertyOp46
 70
     1
102
RTVSPropertyOp47
 70
     1
102
RTVSPropertyOp48
 70
     1
102
RTVSPropertyOp49
 70
     1
102
RTVSPropertyOp50
 70
     1
102
RTVSPropertyOp51
 70
     0
102
RTVSPropertyOp52
 70
     0
102
RTVSPropertyOp53
 70
     1
102
RTVSPropertyOp54
 70
     1
102
RTVSPropertyOp55
 70
     1
102
RTVSPropertyOp56
 70
     1
102
RTVSPropertyOp57
 70
     1
102
RTVSPropertyOp58
 70
     1
102
RTVSPropertyOp59
 70
     1
102
RTVSPropertyOp60
 70
     1
102
RTVSPropertyOp61
 70
     1
102
RTVSPropertyOp62
 70
     1
  0
XRECORD
  5
586
102
{ACAD_REACTORS
330
585
102
}
330
585
100
AcDbXrecord
280
     1
102
RTVSPost2010Prop28
280
     0
102
RTVSPost2010PropOp28
 70
     1
102
RTVSPost2010Prop29
280
     1
102
RTVSPost2010PropOp29
 70
     1
102
RTVSPost2010Prop30
280
     1
102
RTVSPost2010PropOp30
 70
     1
102
RTVSPost2010Prop31
280
     0
102
RTVSPost2010PropOp31
 70
     1
102
RTVSPost2010Prop32
280
     0
102
RTVSPost2010PropOp32
 70
     1
102
RTVSPost2010Prop33
280
     0
102
RTVSPost2010PropOp33
 70
     1
102
RTVSPost2010Prop34
280
     0
102
RTVSPost2010PropOp34
 70
     1
102
RTVSPost2010Prop35
280
     0
102
RTVSPost2010PropOp35
 70
     1
102
RTVSPost2010Prop36
280
     0
102
RTVSPost2010PropOp36
 70
     1
102
RTVSPost2010Prop37
 90
       50
102
RTVSPost2010PropOp37
 70
     1
102
RTVSPost2010Prop38
140
0.0
102
RTVSPost2010PropOp38
 70
     1
102
RTVSPost2010Prop39
140
1.0
102
RTVSPost2010PropOp39
 70
     1
102
RTVSPost2010Prop40
 90
        0
102
RTVSPost2010PropOp40
 70
     1
102
RTVSPost2010Prop41ColorIndex
 90
       18
102
RTVSPost2010Prop41ColorRGB
 90
        0
102
RTVSPost2010PropOp41
 70
     1
102
RTVSPost2010Prop42
 90
       50
102
RTVSPost2010PropOp42
 70
     1
102
RTVSPost2010Prop43
 90
        3
102
RTVSPost2010PropOp43
 70
     1
102
RTVSPost2010Prop44ColorIndex
 90
        5
102
RTVSPost2010Prop44ColorRGB
 90
      255
102
RTVSPost2010PropOp44
 70
     1
102
RTVSPost2010Prop45
280
     0
102
RTVSPost2010PropOp45
 70
     1
102
RTVSPost2010Prop46
 90
       50
102
RTVSPost2010PropOp46
 70
     1
102
RTVSPost2010Prop47
 90
       50
102
RTVSPost2010PropOp47
 70
     1
102
RTVSPost2010Prop48
 90
       50
102
RTVSPost2010PropOp48
 70
     1
102
RTVSPost2010Prop49
280
     0
102
RTVSPost2010PropOp49
 70
     1
102
RTVSPost2010Prop50
 90
       50
102
RTVSPost2010PropOp50
 70
     1
102
RTVSPost2010Prop51ColorIndex
 90
      256
102
RTVSPost2010Prop51ColorRGB
 90
-16777216
102
RTVSPost2010PropOp51
 70
     0
102
RTVSPost2010Prop52
140
1.0
102
RTVSPost2010PropOp52
 70
     0
102
RTVSPost2010Prop53
 90
        2
102
RTVSPost2010PropOp53
 70
     1
102
RTVSPost2010Prop54
  1
strokes_ogs.tif
102
RTVSPost2010PropOp54
 70
     1
102
RTVSPost2010Prop55
280
     0
102
RTVSPost2010PropOp55
 70
     1
102
RTVSPost2010Prop56
140
1.0
102
RTVSPost2010PropOp56
 70
     1
102
RTVSPost2010Prop57
140
1.0
102
RTVSPost2010PropOp57
 70
     1
102
RTVSPropertyOp0
 70
     1
102
RTVSPropertyOp1
 70
     1
102
RTVSPropertyOp2
 70
     1
102
RTVSPropertyOp3
 70
     1
102
RTVSPropertyOp4
 70
     1
102
RTVSPropertyOp5
 70
     1
102
RTVSPropertyOp6
 70
     1
102
RTVSPropertyOp7
 70
     1
102
RTVSPropertyOp8
 70
     1
102
RTVSPropertyOp9
 70
     1
102
RTVSPropertyOp10
 70
     1
102
RTVSPropertyOp11
 70
     1
102
RTVSPropertyOp12
 70
     1
102
RTVSPropertyOp13
 70
     1
102
RTVSPropertyOp14
 70
     1
102
RTVSPropertyOp15
 70
     1
102
RTVSPropertyOp16
 70
     1
102
RTVSPropertyOp17
 70
     1
102
RTVSPropertyOp18
 70
     1
102
RTVSPropertyOp19
 70
     1
102
RTVSPropertyOp20
 70
     1
102
RTVSPropertyOp21
 70
     1
102
RTVSPropertyOp22
 70
     1
102
RTVSPropertyOp23
 70
     1
102
RTVSPropertyOp24
 70
     1
102
RTVSPropertyOp25
 70
     1
102
RTVSPropertyOp26
 70
     1
102
RTVSPropertyOp27
 70
     1
102
RTVSPropertyOp28
 70
     1
102
RTVSPropertyOp29
 70
     1
102
RTVSPropertyOp30
 70
     1
102
RTVSPropertyOp31
 70
     1
102
RTVSPropertyOp32
 70
     1
102
RTVSPropertyOp33
 70
     1
102
RTVSPropertyOp34
 70
     1
102
RTVSPropertyOp35
 70
     1
102
RTVSPropertyOp36
 70
     1
102
RTVSPropertyOp37
 70
     1
102
RTVSPropertyOp38
 70
     1
102
RTVSPropertyOp39
 70
     1
102
RTVSPropertyOp40
 70
     1
102
RTVSPropertyOp41
 70
     1
102
RTVSPropertyOp42
 70
     1
102
RTVSPropertyOp43
 70
     1
102
RTVSPropertyOp44
 70
     1
102
RTVSPropertyOp45
 70
     1
102
RTVSPropertyOp46
 70
     1
102
RTVSPropertyOp47
 70
     1
102
RTVSPropertyOp48
 70
     1
102
RTVSPropertyOp49
 70
     1
102
RTVSPropertyOp50
 70
     1
102
RTVSPropertyOp51
 70
     0
102
RTVSPropertyOp52
 70
     0
102
RTVSPropertyOp53
 70
     1
102
RTVSPropertyOp54
 70
     1
102
RTVSPropertyOp55
 70
     1
102
RTVSPropertyOp56
 70
     1
102
RTVSPropertyOp57
 70
     1
102
RTVSPropertyOp58
 70
     1
102
RTVSPropertyOp59
 70
     1
102
RTVSPropertyOp60
 70
     1
102
RTVSPropertyOp61
 70
     1
102
RTVSPropertyOp62
 70
     1
  0
XRECORD
  5
580
102
{ACAD_REACTORS
330
57F
102
}
330
57F
100
AcDbXrecord
280
     1
102
RTVSPost2010Prop28
280
     0
102
RTVSPost2010PropOp28
 70
     1
102
RTVSPost2010Prop29
280
     1
102
RTVSPost2010PropOp29
 70
     1
102
RTVSPost2010Prop30
280
     1
102
RTVSPost2010PropOp30
 70
     1
102
RTVSPost2010Prop31
280
     0
102
RTVSPost2010PropOp31
 70
     1
102
RTVSPost2010Prop32
280
     0
102
RTVSPost2010PropOp32
 70
     1
102
RTVSPost2010Prop33
280
     0
102
RTVSPost2010PropOp33
 70
     1
102
RTVSPost2010Prop34
280
     0
102
RTVSPost2010PropOp34
 70
     1
102
RTVSPost2010Prop35
280
     0
102
RTVSPost2010PropOp35
 70
     1
102
RTVSPost2010Prop36
280
     0
102
RTVSPost2010PropOp36
 70
     1
102
RTVSPost2010Prop37
 90
       50
102
RTVSPost2010PropOp37
 70
     1
102
RTVSPost2010Prop38
140
0.0
102
RTVSPost2010PropOp38
 70
     1
102
RTVSPost2010Prop39
140
1.0
102
RTVSPost2010PropOp39
 70
     1
102
RTVSPost2010Prop40
 90
        0
102
RTVSPost2010PropOp40
 70
     1
102
RTVSPost2010Prop41ColorIndex
 90
       18
102
RTVSPost2010Prop41ColorRGB
 90
        0
102
RTVSPost2010PropOp41
 70
     1
102
RTVSPost2010Prop42
 90
       50
102
RTVSPost2010PropOp42
 70
     1
102
RTVSPost2010Prop43
 90
        3
102
RTVSPost2010PropOp43
 70
     1
102
RTVSPost2010Prop44ColorIndex
 90
        5
102
RTVSPost2010Prop44ColorRGB
 90
      255
102
RTVSPost2010PropOp44
 70
     1
102
RTVSPost2010Prop45
280
     0
102
RTVSPost2010PropOp45
 70
     1
102
RTVSPost2010Prop46
 90
       50
102
RTVSPost2010PropOp46
 70
     1
102
RTVSPost2010Prop47
 90
       50
102
RTVSPost2010PropOp47
 70
     1
102
RTVSPost2010Prop48
 90
       50
102
RTVSPost2010PropOp48
 70
     1
102
RTVSPost2010Prop49
280
     0
102
RTVSPost2010PropOp49
 70
     1
102
RTVSPost2010Prop50
 90
       50
102
RTVSPost2010PropOp50
 70
     1
102
RTVSPost2010Prop51ColorIndex
 90
      256
102
RTVSPost2010Prop51ColorRGB
 90
-16777216
102
RTVSPost2010PropOp51
 70
     0
102
RTVSPost2010Prop52
140
1.0
102
RTVSPost2010PropOp52
 70
     0
102
RTVSPost2010Prop53
 90
        2
102
RTVSPost2010PropOp53
 70
     1
102
RTVSPost2010Prop54
  1
strokes_ogs.tif
102
RTVSPost2010PropOp54
 70
     1
102
RTVSPost2010Prop55
280
     0
102
RTVSPost2010PropOp55
 70
     1
102
RTVSPost2010Prop56
140
1.0
102
RTVSPost2010PropOp56
 70
     1
102
RTVSPost2010Prop57
140
1.0
102
RTVSPost2010PropOp57
 70
     1
102
RTVSPropertyOp0
 70
     1
102
RTVSPropertyOp1
 70
     1
102
RTVSPropertyOp2
 70
     1
102
RTVSPropertyOp3
 70
     1
102
RTVSPropertyOp4
 70
     1
102
RTVSPropertyOp5
 70
     1
102
RTVSPropertyOp6
 70
     1
102
RTVSPropertyOp7
 70
     1
102
RTVSPropertyOp8
 70
     1
102
RTVSPropertyOp9
 70
     1
102
RTVSPropertyOp10
 70
     1
102
RTVSPropertyOp11
 70
     1
102
RTVSPropertyOp12
 70
     1
102
RTVSPropertyOp13
 70
     1
102
RTVSPropertyOp14
 70
     1
102
RTVSPropertyOp15
 70
     1
102
RTVSPropertyOp16
 70
     1
102
RTVSPropertyOp17
 70
     1
102
RTVSPropertyOp18
 70
     1
102
RTVSPropertyOp19
 70
     1
102
RTVSPropertyOp20
 70
     1
102
RTVSPropertyOp21
 70
     1
102
RTVSPropertyOp22
 70
     1
102
RTVSPropertyOp23
 70
     1
102
RTVSPropertyOp24
 70
     1
102
RTVSPropertyOp25
 70
     1
102
RTVSPropertyOp26
 70
     1
102
RTVSPropertyOp27
 70
     1
102
RTVSPropertyOp28
 70
     1
102
RTVSPropertyOp29
 70
     1
102
RTVSPropertyOp30
 70
     1
102
RTVSPropertyOp31
 70
     1
102
RTVSPropertyOp32
 70
     1
102
RTVSPropertyOp33
 70
     1
102
RTVSPropertyOp34
 70
     1
102
RTVSPropertyOp35
 70
     1
102
RTVSPropertyOp36
 70
     1
102
RTVSPropertyOp37
 70
     1
102
RTVSPropertyOp38
 70
     1
102
RTVSPropertyOp39
 70
     1
102
RTVSPropertyOp40
 70
     1
102
RTVSPropertyOp41
 70
     1
102
RTVSPropertyOp42
 70
     1
102
RTVSPropertyOp43
 70
     1
102
RTVSPropertyOp44
 70
     1
102
RTVSPropertyOp45
 70
     1
102
RTVSPropertyOp46
 70
     1
102
RTVSPropertyOp47
 70
     1
102
RTVSPropertyOp48
 70
     1
102
RTVSPropertyOp49
 70
     1
102
RTVSPropertyOp50
 70
     1
102
RTVSPropertyOp51
 70
     0
102
RTVSPropertyOp52
 70
     0
102
RTVSPropertyOp53
 70
     1
102
RTVSPropertyOp54
 70
     1
102
RTVSPropertyOp55
 70
     1
102
RTVSPropertyOp56
 70
     1
102
RTVSPropertyOp57
 70
     1
102
RTVSPropertyOp58
 70
     1
102
RTVSPropertyOp59
 70
     1
102
RTVSPropertyOp60
 70
     1
102
RTVSPropertyOp61
 70
     1
102
RTVSPropertyOp62
 70
     1
  0
XRECORD
  5
582
102
{ACAD_REACTORS
330
581
102
}
330
581
100
AcDbXrecord
280
     1
102
RTVSPost2010Prop28
280
     0
102
RTVSPost2010PropOp28
 70
     1
102
RTVSPost2010Prop29
280
     1
102
RTVSPost2010PropOp29
 70
     1
102
RTVSPost2010Prop30
280
     1
102
RTVSPost2010PropOp30
 70
     1
102
RTVSPost2010Prop31
280
     0
102
RTVSPost2010PropOp31
 70
     1
102
RTVSPost2010Prop32
280
     0
102
RTVSPost2010PropOp32
 70
     1
102
RTVSPost2010Prop33
280
     0
102
RTVSPost2010PropOp33
 70
     1
102
RTVSPost2010Prop34
280
     0
102
RTVSPost2010PropOp34
 70
     1
102
RTVSPost2010Prop35
280
     0
102
RTVSPost2010PropOp35
 70
     1
102
RTVSPost2010Prop36
280
     0
102
RTVSPost2010PropOp36
 70
     1
102
RTVSPost2010Prop37
 90
       50
102
RTVSPost2010PropOp37
 70
     1
102
RTVSPost2010Prop38
140
0.0
102
RTVSPost2010PropOp38
 70
     1
102
RTVSPost2010Prop39
140
1.0
102
RTVSPost2010PropOp39
 70
     1
102
RTVSPost2010Prop40
 90
        0
102
RTVSPost2010PropOp40
 70
     1
102
RTVSPost2010Prop41ColorIndex
 90
       18
102
RTVSPost2010Prop41ColorRGB
 90
        0
102
RTVSPost2010PropOp41
 70
     1
102
RTVSPost2010Prop42
 90
       50
102
RTVSPost2010PropOp42
 70
     1
102
RTVSPost2010Prop43
 90
        3
102
RTVSPost2010PropOp43
 70
     1
102
RTVSPost2010Prop44ColorIndex
 90
        5
102
RTVSPost2010Prop44ColorRGB
 90
      255
102
RTVSPost2010PropOp44
 70
     1
102
RTVSPost2010Prop45
280
     0
102
RTVSPost2010PropOp45
 70
     1
102
RTVSPost2010Prop46
 90
       50
102
RTVSPost2010PropOp46
 70
     1
102
RTVSPost2010Prop47
 90
       50
102
RTVSPost2010PropOp47
 70
     1
102
RTVSPost2010Prop48
 90
       50
102
RTVSPost2010PropOp48
 70
     1
102
RTVSPost2010Prop49
280
     0
102
RTVSPost2010PropOp49
 70
     1
102
RTVSPost2010Prop50
 90
       50
102
RTVSPost2010PropOp50
 70
     1
102
RTVSPost2010Prop51ColorIndex
 90
      256
102
RTVSPost2010Prop51ColorRGB
 90
-16777216
102
RTVSPost2010PropOp51
 70
     0
102
RTVSPost2010Prop52
140
1.0
102
RTVSPost2010PropOp52
 70
     0
102
RTVSPost2010Prop53
 90
        2
102
RTVSPost2010PropOp53
 70
     1
102
RTVSPost2010Prop54
  1
strokes_ogs.tif
102
RTVSPost2010PropOp54
 70
     1
102
RTVSPost2010Prop55
280
     0
102
RTVSPost2010PropOp55
 70
     1
102
RTVSPost2010Prop56
140
1.0
102
RTVSPost2010PropOp56
 70
     1
102
RTVSPost2010Prop57
140
1.0
102
RTVSPost2010PropOp57
 70
     1
102
RTVSPropertyOp0
 70
     1
102
RTVSPropertyOp1
 70
     1
102
RTVSPropertyOp2
 70
     1
102
RTVSPropertyOp3
 70
     1
102
RTVSPropertyOp4
 70
     1
102
RTVSPropertyOp5
 70
     1
102
RTVSPropertyOp6
 70
     1
102
RTVSPropertyOp7
 70
     1
102
RTVSPropertyOp8
 70
     1
102
RTVSPropertyOp9
 70
     1
102
RTVSPropertyOp10
 70
     1
102
RTVSPropertyOp11
 70
     1
102
RTVSPropertyOp12
 70
     1
102
RTVSPropertyOp13
 70
     1
102
RTVSPropertyOp14
 70
     1
102
RTVSPropertyOp15
 70
     1
102
RTVSPropertyOp16
 70
     1
102
RTVSPropertyOp17
 70
     1
102
RTVSPropertyOp18
 70
     1
102
RTVSPropertyOp19
 70
     1
102
RTVSPropertyOp20
 70
     1
102
RTVSPropertyOp21
 70
     1
102
RTVSPropertyOp22
 70
     1
102
RTVSPropertyOp23
 70
     1
102
RTVSPropertyOp24
 70
     1
102
RTVSPropertyOp25
 70
     1
102
RTVSPropertyOp26
 70
     1
102
RTVSPropertyOp27
 70
     1
102
RTVSPropertyOp28
 70
     1
102
RTVSPropertyOp29
 70
     1
102
RTVSPropertyOp30
 70
     1
102
RTVSPropertyOp31
 70
     1
102
RTVSPropertyOp32
 70
     1
102
RTVSPropertyOp33
 70
     1
102
RTVSPropertyOp34
 70
     1
102
RTVSPropertyOp35
 70
     1
102
RTVSPropertyOp36
 70
     1
102
RTVSPropertyOp37
 70
     1
102
RTVSPropertyOp38
 70
     1
102
RTVSPropertyOp39
 70
     1
102
RTVSPropertyOp40
 70
     1
102
RTVSPropertyOp41
 70
     1
102
RTVSPropertyOp42
 70
     1
102
RTVSPropertyOp43
 70
     1
102
RTVSPropertyOp44
 70
     1
102
RTVSPropertyOp45
 70
     1
102
RTVSPropertyOp46
 70
     1
102
RTVSPropertyOp47
 70
     1
102
RTVSPropertyOp48
 70
     1
102
RTVSPropertyOp49
 70
     1
102
RTVSPropertyOp50
 70
     1
102
RTVSPropertyOp51
 70
     0
102
RTVSPropertyOp52
 70
     0
102
RTVSPropertyOp53
 70
     1
102
RTVSPropertyOp54
 70
     1
102
RTVSPropertyOp55
 70
     1
102
RTVSPropertyOp56
 70
     1
102
RTVSPropertyOp57
 70
     1
102
RTVSPropertyOp58
 70
     1
102
RTVSPropertyOp59
 70
     1
102
RTVSPropertyOp60
 70
     1
102
RTVSPropertyOp61
 70
     1
102
RTVSPropertyOp62
 70
     1
  0
XRECORD
  5
578
102
{ACAD_REACTORS
330
577
102
}
330
577
100
AcDbXrecord
280
     1
102
RTVSPost2010Prop28
280
     0
102
RTVSPost2010PropOp28
 70
     1
102
RTVSPost2010Prop29
280
     1
102
RTVSPost2010PropOp29
 70
     1
102
RTVSPost2010Prop30
280
     1
102
RTVSPost2010PropOp30
 70
     1
102
RTVSPost2010Prop31
280
     0
102
RTVSPost2010PropOp31
 70
     1
102
RTVSPost2010Prop32
280
     0
102
RTVSPost2010PropOp32
 70
     1
102
RTVSPost2010Prop33
280
     0
102
RTVSPost2010PropOp33
 70
     1
102
RTVSPost2010Prop34
280
     0
102
RTVSPost2010PropOp34
 70
     1
102
RTVSPost2010Prop35
280
     0
102
RTVSPost2010PropOp35
 70
     1
102
RTVSPost2010Prop36
280
     0
102
RTVSPost2010PropOp36
 70
     1
102
RTVSPost2010Prop37
 90
       50
102
RTVSPost2010PropOp37
 70
     1
102
RTVSPost2010Prop38
140
0.0
102
RTVSPost2010PropOp38
 70
     1
102
RTVSPost2010Prop39
140
1.0
102
RTVSPost2010PropOp39
 70
     1
102
RTVSPost2010Prop40
 90
        0
102
RTVSPost2010PropOp40
 70
     1
102
RTVSPost2010Prop41ColorIndex
 90
       18
102
RTVSPost2010Prop41ColorRGB
 90
        0
102
RTVSPost2010PropOp41
 70
     1
102
RTVSPost2010Prop42
 90
       50
102
RTVSPost2010PropOp42
 70
     1
102
RTVSPost2010Prop43
 90
        3
102
RTVSPost2010PropOp43
 70
     1
102
RTVSPost2010Prop44ColorIndex
 90
        5
102
RTVSPost2010Prop44ColorRGB
 90
      255
102
RTVSPost2010PropOp44
 70
     1
102
RTVSPost2010Prop45
280
     0
102
RTVSPost2010PropOp45
 70
     1
102
RTVSPost2010Prop46
 90
       50
102
RTVSPost2010PropOp46
 70
     1
102
RTVSPost2010Prop47
 90
       50
102
RTVSPost2010PropOp47
 70
     1
102
RTVSPost2010Prop48
 90
       50
102
RTVSPost2010PropOp48
 70
     1
102
RTVSPost2010Prop49
280
     0
102
RTVSPost2010PropOp49
 70
     1
102
RTVSPost2010Prop50
 90
       50
102
RTVSPost2010PropOp50
 70
     1
102
RTVSPost2010Prop51ColorIndex
 90
      256
102
RTVSPost2010Prop51ColorRGB
 90
-16777216
102
RTVSPost2010PropOp51
 70
     0
102
RTVSPost2010Prop52
140
1.0
102
RTVSPost2010PropOp52
 70
     0
102
RTVSPost2010Prop53
 90
        2
102
RTVSPost2010PropOp53
 70
     1
102
RTVSPost2010Prop54
  1
strokes_ogs.tif
102
RTVSPost2010PropOp54
 70
     1
102
RTVSPost2010Prop55
280
     0
102
RTVSPost2010PropOp55
 70
     1
102
RTVSPost2010Prop56
140
1.0
102
RTVSPost2010PropOp56
 70
     1
102
RTVSPost2010Prop57
140
1.0
102
RTVSPost2010PropOp57
 70
     1
102
RTVSPropertyOp0
 70
     1
102
RTVSPropertyOp1
 70
     1
102
RTVSPropertyOp2
 70
     1
102
RTVSPropertyOp3
 70
     1
102
RTVSPropertyOp4
 70
     1
102
RTVSPropertyOp5
 70
     1
102
RTVSPropertyOp6
 70
     1
102
RTVSPropertyOp7
 70
     1
102
RTVSPropertyOp8
 70
     1
102
RTVSPropertyOp9
 70
     1
102
RTVSPropertyOp10
 70
     1
102
RTVSPropertyOp11
 70
     1
102
RTVSPropertyOp12
 70
     1
102
RTVSPropertyOp13
 70
     1
102
RTVSPropertyOp14
 70
     1
102
RTVSPropertyOp15
 70
     1
102
RTVSPropertyOp16
 70
     1
102
RTVSPropertyOp17
 70
     1
102
RTVSPropertyOp18
 70
     1
102
RTVSPropertyOp19
 70
     1
102
RTVSPropertyOp20
 70
     1
102
RTVSPropertyOp21
 70
     1
102
RTVSPropertyOp22
 70
     1
102
RTVSPropertyOp23
 70
     1
102
RTVSPropertyOp24
 70
     1
102
RTVSPropertyOp25
 70
     1
102
RTVSPropertyOp26
 70
     1
102
RTVSPropertyOp27
 70
     1
102
RTVSPropertyOp28
 70
     1
102
RTVSPropertyOp29
 70
     1
102
RTVSPropertyOp30
 70
     1
102
RTVSPropertyOp31
 70
     1
102
RTVSPropertyOp32
 70
     1
102
RTVSPropertyOp33
 70
     1
102
RTVSPropertyOp34
 70
     1
102
RTVSPropertyOp35
 70
     1
102
RTVSPropertyOp36
 70
     1
102
RTVSPropertyOp37
 70
     1
102
RTVSPropertyOp38
 70
     1
102
RTVSPropertyOp39
 70
     1
102
RTVSPropertyOp40
 70
     1
102
RTVSPropertyOp41
 70
     1
102
RTVSPropertyOp42
 70
     1
102
RTVSPropertyOp43
 70
     1
102
RTVSPropertyOp44
 70
     1
102
RTVSPropertyOp45
 70
     1
102
RTVSPropertyOp46
 70
     1
102
RTVSPropertyOp47
 70
     1
102
RTVSPropertyOp48
 70
     1
102
RTVSPropertyOp49
 70
     1
102
RTVSPropertyOp50
 70
     1
102
RTVSPropertyOp51
 70
     0
102
RTVSPropertyOp52
 70
     0
102
RTVSPropertyOp53
 70
     1
102
RTVSPropertyOp54
 70
     1
102
RTVSPropertyOp55
 70
     1
102
RTVSPropertyOp56
 70
     1
102
RTVSPropertyOp57
 70
     1
102
RTVSPropertyOp58
 70
     1
102
RTVSPropertyOp59
 70
     1
102
RTVSPropertyOp60
 70
     1
102
RTVSPropertyOp61
 70
     1
102
RTVSPropertyOp62
 70
     1
  0
XRECORD
  5
56C
102
{ACAD_REACTORS
330
56B
102
}
330
56B
100
AcDbXrecord
280
     1
102
RTVSPost2010Prop28
280
     0
102
RTVSPost2010PropOp28
 70
     1
102
RTVSPost2010Prop29
280
     1
102
RTVSPost2010PropOp29
 70
     1
102
RTVSPost2010Prop30
280
     1
102
RTVSPost2010PropOp30
 70
     1
102
RTVSPost2010Prop31
280
     0
102
RTVSPost2010PropOp31
 70
     1
102
RTVSPost2010Prop32
280
     0
102
RTVSPost2010PropOp32
 70
     1
102
RTVSPost2010Prop33
280
     0
102
RTVSPost2010PropOp33
 70
     1
102
RTVSPost2010Prop34
280
     0
102
RTVSPost2010PropOp34
 70
     1
102
RTVSPost2010Prop35
280
     0
102
RTVSPost2010PropOp35
 70
     1
102
RTVSPost2010Prop36
280
     0
102
RTVSPost2010PropOp36
 70
     1
102
RTVSPost2010Prop37
 90
       50
102
RTVSPost2010PropOp37
 70
     1
102
RTVSPost2010Prop38
140
0.0
102
RTVSPost2010PropOp38
 70
     1
102
RTVSPost2010Prop39
140
1.0
102
RTVSPost2010PropOp39
 70
     1
102
RTVSPost2010Prop40
 90
        0
102
RTVSPost2010PropOp40
 70
     1
102
RTVSPost2010Prop41ColorIndex
 90
       18
102
RTVSPost2010Prop41ColorRGB
 90
        0
102
RTVSPost2010PropOp41
 70
     1
102
RTVSPost2010Prop42
 90
       50
102
RTVSPost2010PropOp42
 70
     1
102
RTVSPost2010Prop43
 90
        3
102
RTVSPost2010PropOp43
 70
     1
102
RTVSPost2010Prop44ColorIndex
 90
        5
102
RTVSPost2010Prop44ColorRGB
 90
      255
102
RTVSPost2010PropOp44
 70
     1
102
RTVSPost2010Prop45
280
     0
102
RTVSPost2010PropOp45
 70
     1
102
RTVSPost2010Prop46
 90
       50
102
RTVSPost2010PropOp46
 70
     1
102
RTVSPost2010Prop47
 90
       50
102
RTVSPost2010PropOp47
 70
     1
102
RTVSPost2010Prop48
 90
       50
102
RTVSPost2010PropOp48
 70
     1
102
RTVSPost2010Prop49
280
     0
102
RTVSPost2010PropOp49
 70
     1
102
RTVSPost2010Prop50
 90
       50
102
RTVSPost2010PropOp50
 70
     1
102
RTVSPost2010Prop51ColorIndex
 90
      256
102
RTVSPost2010Prop51ColorRGB
 90
-16777216
102
RTVSPost2010PropOp51
 70
     0
102
RTVSPost2010Prop52
140
1.0
102
RTVSPost2010PropOp52
 70
     0
102
RTVSPost2010Prop53
 90
        2
102
RTVSPost2010PropOp53
 70
     1
102
RTVSPost2010Prop54
  1
strokes_ogs.tif
102
RTVSPost2010PropOp54
 70
     1
102
RTVSPost2010Prop55
280
     0
102
RTVSPost2010PropOp55
 70
     1
102
RTVSPost2010Prop56
140
1.0
102
RTVSPost2010PropOp56
 70
     1
102
RTVSPost2010Prop57
140
1.0
102
RTVSPost2010PropOp57
 70
     1
102
RTVSPropertyOp0
 70
     1
102
RTVSPropertyOp1
 70
     1
102
RTVSPropertyOp2
 70
     1
102
RTVSPropertyOp3
 70
     1
102
RTVSPropertyOp4
 70
     1
102
RTVSPropertyOp5
 70
     1
102
RTVSPropertyOp6
 70
     1
102
RTVSPropertyOp7
 70
     1
102
RTVSPropertyOp8
 70
     1
102
RTVSPropertyOp9
 70
     1
102
RTVSPropertyOp10
 70
     1
102
RTVSPropertyOp11
 70
     1
102
RTVSPropertyOp12
 70
     1
102
RTVSPropertyOp13
 70
     1
102
RTVSPropertyOp14
 70
     1
102
RTVSPropertyOp15
 70
     1
102
RTVSPropertyOp16
 70
     1
102
RTVSPropertyOp17
 70
     1
102
RTVSPropertyOp18
 70
     1
102
RTVSPropertyOp19
 70
     1
102
RTVSPropertyOp20
 70
     1
102
RTVSPropertyOp21
 70
     1
102
RTVSPropertyOp22
 70
     1
102
RTVSPropertyOp23
 70
     1
102
RTVSPropertyOp24
 70
     1
102
RTVSPropertyOp25
 70
     1
102
RTVSPropertyOp26
 70
     1
102
RTVSPropertyOp27
 70
     1
102
RTVSPropertyOp28
 70
     1
102
RTVSPropertyOp29
 70
     1
102
RTVSPropertyOp30
 70
     1
102
RTVSPropertyOp31
 70
     1
102
RTVSPropertyOp32
 70
     1
102
RTVSPropertyOp33
 70
     1
102
RTVSPropertyOp34
 70
     1
102
RTVSPropertyOp35
 70
     1
102
RTVSPropertyOp36
 70
     1
102
RTVSPropertyOp37
 70
     1
102
RTVSPropertyOp38
 70
     1
102
RTVSPropertyOp39
 70
     1
102
RTVSPropertyOp40
 70
     1
102
RTVSPropertyOp41
 70
     1
102
RTVSPropertyOp42
 70
     1
102
RTVSPropertyOp43
 70
     1
102
RTVSPropertyOp44
 70
     1
102
RTVSPropertyOp45
 70
     1
102
RTVSPropertyOp46
 70
     1
102
RTVSPropertyOp47
 70
     1
102
RTVSPropertyOp48
 70
     1
102
RTVSPropertyOp49
 70
     1
102
RTVSPropertyOp50
 70
     1
102
RTVSPropertyOp51
 70
     0
102
RTVSPropertyOp52
 70
     0
102
RTVSPropertyOp53
 70
     1
102
RTVSPropertyOp54
 70
     1
102
RTVSPropertyOp55
 70
     1
102
RTVSPropertyOp56
 70
     1
102
RTVSPropertyOp57
 70
     1
102
RTVSPropertyOp58
 70
     1
102
RTVSPropertyOp59
 70
     1
102
RTVSPropertyOp60
 70
     1
102
RTVSPropertyOp61
 70
     1
102
RTVSPropertyOp62
 70
     1
  0
XRECORD
  5
584
102
{ACAD_REACTORS
330
583
102
}
330
583
100
AcDbXrecord
280
     1
102
RTVSPost2010Prop28
280
     0
102
RTVSPost2010PropOp28
 70
     1
102
RTVSPost2010Prop29
280
     1
102
RTVSPost2010PropOp29
 70
     1
102
RTVSPost2010Prop30
280
     1
102
RTVSPost2010PropOp30
 70
     1
102
RTVSPost2010Prop31
280
     0
102
RTVSPost2010PropOp31
 70
     1
102
RTVSPost2010Prop32
280
     0
102
RTVSPost2010PropOp32
 70
     1
102
RTVSPost2010Prop33
280
     0
102
RTVSPost2010PropOp33
 70
     1
102
RTVSPost2010Prop34
280
     0
102
RTVSPost2010PropOp34
 70
     1
102
RTVSPost2010Prop35
280
     0
102
RTVSPost2010PropOp35
 70
     1
102
RTVSPost2010Prop36
280
     0
102
RTVSPost2010PropOp36
 70
     1
102
RTVSPost2010Prop37
 90
       50
102
RTVSPost2010PropOp37
 70
     1
102
RTVSPost2010Prop38
140
0.0
102
RTVSPost2010PropOp38
 70
     1
102
RTVSPost2010Prop39
140
1.0
102
RTVSPost2010PropOp39
 70
     1
102
RTVSPost2010Prop40
 90
        0
102
RTVSPost2010PropOp40
 70
     1
102
RTVSPost2010Prop41ColorIndex
 90
       18
102
RTVSPost2010Prop41ColorRGB
 90
        0
102
RTVSPost2010PropOp41
 70
     1
102
RTVSPost2010Prop42
 90
       50
102
RTVSPost2010PropOp42
 70
     1
102
RTVSPost2010Prop43
 90
        3
102
RTVSPost2010PropOp43
 70
     1
102
RTVSPost2010Prop44ColorIndex
 90
        5
102
RTVSPost2010Prop44ColorRGB
 90
      255
102
RTVSPost2010PropOp44
 70
     1
102
RTVSPost2010Prop45
280
     0
102
RTVSPost2010PropOp45
 70
     1
102
RTVSPost2010Prop46
 90
       50
102
RTVSPost2010PropOp46
 70
     1
102
RTVSPost2010Prop47
 90
       50
102
RTVSPost2010PropOp47
 70
     1
102
RTVSPost2010Prop48
 90
       50
102
RTVSPost2010PropOp48
 70
     1
102
RTVSPost2010Prop49
280
     0
102
RTVSPost2010PropOp49
 70
     1
102
RTVSPost2010Prop50
 90
       50
102
RTVSPost2010PropOp50
 70
     1
102
RTVSPost2010Prop51ColorIndex
 90
      256
102
RTVSPost2010Prop51ColorRGB
 90
-16777216
102
RTVSPost2010PropOp51
 70
     0
102
RTVSPost2010Prop52
140
1.0
102
RTVSPost2010PropOp52
 70
     0
102
RTVSPost2010Prop53
 90
        2
102
RTVSPost2010PropOp53
 70
     1
102
RTVSPost2010Prop54
  1
strokes_ogs.tif
102
RTVSPost2010PropOp54
 70
     1
102
RTVSPost2010Prop55
280
     0
102
RTVSPost2010PropOp55
 70
     1
102
RTVSPost2010Prop56
140
1.0
102
RTVSPost2010PropOp56
 70
     1
102
RTVSPost2010Prop57
140
1.0
102
RTVSPost2010PropOp57
 70
     1
102
RTVSPropertyOp0
 70
     1
102
RTVSPropertyOp1
 70
     1
102
RTVSPropertyOp2
 70
     1
102
RTVSPropertyOp3
 70
     1
102
RTVSPropertyOp4
 70
     1
102
RTVSPropertyOp5
 70
     1
102
RTVSPropertyOp6
 70
     1
102
RTVSPropertyOp7
 70
     1
102
RTVSPropertyOp8
 70
     1
102
RTVSPropertyOp9
 70
     1
102
RTVSPropertyOp10
 70
     1
102
RTVSPropertyOp11
 70
     1
102
RTVSPropertyOp12
 70
     1
102
RTVSPropertyOp13
 70
     1
102
RTVSPropertyOp14
 70
     1
102
RTVSPropertyOp15
 70
     1
102
RTVSPropertyOp16
 70
     1
102
RTVSPropertyOp17
 70
     1
102
RTVSPropertyOp18
 70
     1
102
RTVSPropertyOp19
 70
     1
102
RTVSPropertyOp20
 70
     1
102
RTVSPropertyOp21
 70
     1
102
RTVSPropertyOp22
 70
     1
102
RTVSPropertyOp23
 70
     1
102
RTVSPropertyOp24
 70
     1
102
RTVSPropertyOp25
 70
     1
102
RTVSPropertyOp26
 70
     1
102
RTVSPropertyOp27
 70
     1
102
RTVSPropertyOp28
 70
     1
102
RTVSPropertyOp29
 70
     1
102
RTVSPropertyOp30
 70
     1
102
RTVSPropertyOp31
 70
     1
102
RTVSPropertyOp32
 70
     1
102
RTVSPropertyOp33
 70
     1
102
RTVSPropertyOp34
 70
     1
102
RTVSPropertyOp35
 70
     1
102
RTVSPropertyOp36
 70
     1
102
RTVSPropertyOp37
 70
     1
102
RTVSPropertyOp38
 70
     1
102
RTVSPropertyOp39
 70
     1
102
RTVSPropertyOp40
 70
     1
102
RTVSPropertyOp41
 70
     1
102
RTVSPropertyOp42
 70
     1
102
RTVSPropertyOp43
 70
     1
102
RTVSPropertyOp44
 70
     1
102
RTVSPropertyOp45
 70
     1
102
RTVSPropertyOp46
 70
     1
102
RTVSPropertyOp47
 70
     1
102
RTVSPropertyOp48
 70
     1
102
RTVSPropertyOp49
 70
     1
102
RTVSPropertyOp50
 70
     1
102
RTVSPropertyOp51
 70
     0
102
RTVSPropertyOp52
 70
     0
102
RTVSPropertyOp53
 70
     1
102
RTVSPropertyOp54
 70
     1
102
RTVSPropertyOp55
 70
     1
102
RTVSPropertyOp56
 70
     1
102
RTVSPropertyOp57
 70
     1
102
RTVSPropertyOp58
 70
     1
102
RTVSPropertyOp59
 70
     1
102
RTVSPropertyOp60
 70
     1
102
RTVSPropertyOp61
 70
     1
102
RTVSPropertyOp62
 70
     1
  0
ENDSEC
  0
EOF
